  0
SECTION
  2
HEADER
  9
$ACADVER
  1
AC1024
  9
$ACADMAINTVER
 70
     6
  9
$DWGCODEPAGE
  3
UNDEFINED
  9
$INSBASE
 10
0.0
 20
0.0
 30
0.0
  9
$EXTMIN
 10
1.000000000000000E+20
 20
1.000000000000000E+20
 30
1.000000000000000E+20
  9
$EXTMAX
 10
-1.000000000000000E+20
 20
-1.000000000000000E+20
 30
-1.000000000000000E+20
  9
$LIMMIN
 10
0.0
 20
0.0
  9
$LIMMAX
 10
12.0
 20
9.0
  9
$ORTHOMODE
 70
     0
  9
$REGENMODE
 70
     1
  9
$FILLMODE
 70
     1
  9
$QTEXTMODE
 70
     0
  9
$MIRRTEXT
 70
     1
  9
$LTSCALE
 40
1.0
  9
$ATTMODE
 70
     1
  9
$TEXTSIZE
 40
0.2
  9
$TRACEWID
 40
0.05
  9
$TEXTSTYLE
  7
Standard
  9
$CLAYER
  8
0
  9
$CELTYPE
  6
ByLayer
  9
$CECOLOR
 62
   256
  9
$CELTSCALE
 40
1.0
  9
$DISPSILH
 70
     0
  9
$DIMSCALE
 40
1.0
  9
$DIMASZ
 40
0.18
  9
$DIMEXO
 40
0.0625
  9
$DIMDLI
 40
0.38
  9
$DIMRND
 40
0.0
  9
$DIMDLE
 40
0.0
  9
$DIMEXE
 40
0.18
  9
$DIMTP
 40
0.0
  9
$DIMTM
 40
0.0
  9
$DIMTXT
 40
0.18
  9
$DIMCEN
 40
0.09
  9
$DIMTSZ
 40
0.0
  9
$DIMTOL
 70
     0
  9
$DIMLIM
 70
     0
  9
$DIMTIH
 70
     1
  9
$DIMTOH
 70
     1
  9
$DIMSE1
 70
     0
  9
$DIMSE2
 70
     0
  9
$DIMTAD
 70
     0
  9
$DIMZIN
 70
     0
  9
$DIMBLK
  1

  9
$DIMASO
 70
     1
  9
$DIMSHO
 70
     1
  9
$DIMPOST
  1

  9
$DIMAPOST
  1

  9
$DIMALT
 70
     0
  9
$DIMALTD
 70
     2
  9
$DIMALTF
 40
25.4
  9
$DIMLFAC
 40
1.0
  9
$DIMTOFL
 70
     0
  9
$DIMTVP
 40
0.0
  9
$DIMTIX
 70
     0
  9
$DIMSOXD
 70
     0
  9
$DIMSAH
 70
     0
  9
$DIMBLK1
  1

  9
$DIMBLK2
  1

  9
$DIMSTYLE
  2
Standard
  9
$DIMCLRD
 70
     0
  9
$DIMCLRE
 70
     0
  9
$DIMCLRT
 70
     0
  9
$DIMTFAC
 40
1.0
  9
$DIMGAP
 40
0.09
  9
$DIMJUST
 70
     0
  9
$DIMSD1
 70
     0
  9
$DIMSD2
 70
     0
  9
$DIMTOLJ
 70
     1
  9
$DIMTZIN
 70
     0
  9
$DIMALTZ
 70
     0
  9
$DIMALTTZ
 70
     0
  9
$DIMUPT
 70
     0
  9
$DIMDEC
 70
     4
  9
$DIMTDEC
 70
     4
  9
$DIMALTU
 70
     2
  9
$DIMALTTD
 70
     2
  9
$DIMTXSTY
  7
Standard
  9
$DIMAUNIT
 70
     0
  9
$DIMADEC
 70
     0
  9
$DIMALTRND
 40
0.0
  9
$DIMAZIN
 70
     0
  9
$DIMDSEP
 70
    46
  9
$DIMATFIT
 70
     3
  9
$DIMFRAC
 70
     0
  9
$DIMLDRBLK
  1

  9
$DIMLUNIT
 70
     2
  9
$DIMLWD
 70
    -2
  9
$DIMLWE
 70
    -2
  9
$DIMTMOVE
 70
     0
  9
$DIMFXL
 40
1.0
  9
$DIMFXLON
 70
     0
  9
$DIMJOGANG
 40
0.7853981633974483
  9
$DIMTFILL
 70
     0
  9
$DIMTFILLCLR
 70
     0
  9
$DIMARCSYM
 70
     0
  9
$DIMLTYPE
  6

  9
$DIMLTEX1
  6

  9
$DIMLTEX2
  6

  9
$DIMTXTDIRECTION
 70
     0
  9
$LUNITS
 70
     2
  9
$LUPREC
 70
     4
  9
$SKETCHINC
 40
0.1
  9
$FILLETRAD
 40
0.5
  9
$AUNITS
 70
     0
  9
$AUPREC
 70
     0
  9
$MENU
  1
.
  9
$ELEVATION
 40
0.0
  9
$PELEVATION
 40
0.0
  9
$THICKNESS
 40
0.0
  9
$LIMCHECK
 70
     0
  9
$CHAMFERA
 40
0.5
  9
$CHAMFERB
 40
0.5
  9
$CHAMFERC
 40
1.0
  9
$CHAMFERD
 40
0.0
  9
$SKPOLY
 70
     0
  9
$TDCREATE
 40
2457917.599953692
  9
$TDUCREATE
 40
2457917.224953704
  9
$TDUPDATE
 40
2457917.599953692
  9
$TDUUPDATE
 40
2457917.224953704
  9
$TDINDWG
 40
0.0000000116
  9
$TDUSRTIMER
 40
0.0000000116
  9
$USRTIMER
 70
     1
  9
$ANGBASE
 50
0.0
  9
$ANGDIR
 70
     0
  9
$PDMODE
 70
     0
  9
$PDSIZE
 40
0.0
  9
$PLINEWID
 40
0.0
  9
$SPLFRAME
 70
     0
  9
$SPLINETYPE
 70
     6
  9
$SPLINESEGS
 70
     8
  9
$HANDSEED
  5
E1
  9
$SURFTAB1
 70
     6
  9
$SURFTAB2
 70
     6
  9
$SURFTYPE
 70
     6
  9
$SURFU
 70
     6
  9
$SURFV
 70
     6
  9
$UCSBASE
  2

  9
$UCSNAME
  2

  9
$UCSORG
 10
0.0
 20
0.0
 30
0.0
  9
$UCSXDIR
 10
1.0
 20
0.0
 30
0.0
  9
$UCSYDIR
 10
0.0
 20
1.0
 30
0.0
  9
$UCSORTHOREF
  2

  9
$UCSORTHOVIEW
 70
     0
  9
$UCSORGTOP
 10
0.0
 20
0.0
 30
0.0
  9
$UCSORGBOTTOM
 10
0.0
 20
0.0
 30
0.0
  9
$UCSORGLEFT
 10
0.0
 20
0.0
 30
0.0
  9
$UCSORGRIGHT
 10
0.0
 20
0.0
 30
0.0
  9
$UCSORGFRONT
 10
0.0
 20
0.0
 30
0.0
  9
$UCSORGBACK
 10
0.0
 20
0.0
 30
0.0
  9
$PUCSBASE
  2

  9
$PUCSNAME
  2

  9
$PUCSORG
 10
0.0
 20
0.0
 30
0.0
  9
$PUCSXDIR
 10
1.0
 20
0.0
 30
0.0
  9
$PUCSYDIR
 10
0.0
 20
1.0
 30
0.0
  9
$PUCSORTHOREF
  2

  9
$PUCSORTHOVIEW
 70
     0
  9
$PUCSORGTOP
 10
0.0
 20
0.0
 30
0.0
  9
$PUCSORGBOTTOM
 10
0.0
 20
0.0
 30
0.0
  9
$PUCSORGLEFT
 10
0.0
 20
0.0
 30
0.0
  9
$PUCSORGRIGHT
 10
0.0
 20
0.0
 30
0.0
  9
$PUCSORGFRONT
 10
0.0
 20
0.0
 30
0.0
  9
$PUCSORGBACK
 10
0.0
 20
0.0
 30
0.0
  9
$USERI1
 70
     0
  9
$USERI2
 70
     0
  9
$USERI3
 70
     0
  9
$USERI4
 70
     0
  9
$USERI5
 70
     0
  9
$USERR1
 40
0.0
  9
$USERR2
 40
0.0
  9
$USERR3
 40
0.0
  9
$USERR4
 40
0.0
  9
$USERR5
 40
0.0
  9
$WORLDVIEW
 70
     1
  9
$SHADEDGE
 70
     3
  9
$SHADEDIF
 70
    70
  9
$TILEMODE
 70
     1
  9
$MAXACTVP
 70
    64
  9
$PINSBASE
 10
0.0
 20
0.0
 30
0.0
  9
$PLIMCHECK
 70
     0
  9
$PEXTMIN
 10
1.000000000000000E+20
 20
1.000000000000000E+20
 30
1.000000000000000E+20
  9
$PEXTMAX
 10
-1.000000000000000E+20
 20
-1.000000000000000E+20
 30
-1.000000000000000E+20
  9
$PLIMMIN
 10
0.0
 20
0.0
  9
$PLIMMAX
 10
12.0
 20
9.0
  9
$UNITMODE
 70
     0
  9
$VISRETAIN
 70
     1
  9
$PLINEGEN
 70
     0
  9
$PSLTSCALE
 70
     1
  9
$TREEDEPTH
 70
  3020
  9
$CMLSTYLE
  2
Standard
  9
$CMLJUST
 70
     0
  9
$CMLSCALE
 40
1.0
  9
$PROXYGRAPHICS
 70
     1
  9
$MEASUREMENT
 70
     0
  9
$CELWEIGHT
370
    -1
  9
$ENDCAPS
280
     0
  9
$JOINSTYLE
280
     0
  9
$LWDISPLAY
290
     1
  9
$INSUNITS
 70
     1
  9
$HYPERLINKBASE
  1

  9
$STYLESHEET
  1

  9
$XEDIT
290
     1
  9
$CEPSNTYPE
380
     0
  9
$PSTYLEMODE
290
     1
  9
$FINGERPRINTGUID
  2
{0CFF2245-10A2-1D88-3368-8019868C316B}
  9
$VERSIONGUID
  2
{FAEB1C32-E019-11D5-929B-00C0DF256EC4}
  9
$EXTNAMES
290
     1
  9
$PSVPSCALE
 40
0.0
  9
$OLESTARTUP
290
     0
  9
$SORTENTS
280
   127
  9
$INDEXCTL
280
     0
  9
$HIDETEXT
280
     1
  9
$XCLIPFRAME
280
     2
  9
$HALOGAP
280
     0
  9
$OBSCOLOR
 70
   257
  9
$OBSLTYPE
280
     0
  9
$INTERSECTIONDISPLAY
280
     0
  9
$INTERSECTIONCOLOR
 70
   257
  9
$DIMASSOC
280
     2
  9
$PROJECTNAME
  1

  9
$CAMERADISPLAY
290
     0
  9
$LENSLENGTH
 40
50.0
  9
$CAMERAHEIGHT
 40
0.0
  9
$STEPSPERSEC
 40
2.0
  9
$STEPSIZE
 40
6.0
  9
$3DDWFPREC
 40
2.0
  9
$PSOLWIDTH
 40
0.25
  9
$PSOLHEIGHT
 40
4.0
  9
$LOFTANG1
 40
1.570796326794897
  9
$LOFTANG2
 40
1.570796326794897
  9
$LOFTMAG1
 40
0.0
  9
$LOFTMAG2
 40
0.0
  9
$LOFTPARAM
 70
     7
  9
$LOFTNORMALS
280
     1
  9
$LATITUDE
 40
37.795
  9
$LONGITUDE
 40
-122.394
  9
$NORTHDIRECTION
 40
0.0
  9
$TIMEZONE
 70
 -8000
  9
$LIGHTGLYPHDISPLAY
280
     1
  9
$TILEMODELIGHTSYNCH
280
     1
  9
$CMATERIAL
347
3C
  9
$SOLIDHIST
280
     1
  9
$SHOWHIST
280
     1
  9
$DWFFRAME
280
     2
  9
$DGNFRAME
280
     2
  9
$REALWORLDSCALE
290
     1
  9
$INTERFERECOLOR
 62
   256
  9
$CSHADOW
280
     0
  9
$SHADOWPLANELOCATION
 40
0.0
  0
ENDSEC
  0
SECTION
  2
CLASSES
  0
CLASS
  1
ACDBDICTIONARYWDFLT
  2
AcDbDictionaryWithDefault
  3
ObjectDBX Classes
 90
        0
 91
        4
280
     0
281
     0
  0
CLASS
  1
VISUALSTYLE
  2
AcDbVisualStyle
  3
ObjectDBX Classes
 90
     4095
 91
        4
280
     0
281
     0
  0
CLASS
  1
MATERIAL
  2
AcDbMaterial
  3
ObjectDBX Classes
 90
     1153
 91
        4
280
     0
281
     0
  0
CLASS
  1
SUN
  2
AcDbSun
  3
SCENEOE
 90
     1024
 91
        4
280
     0
281
     0
  0
ENDSEC
  0
SECTION
  2
TABLES
  0
TABLE
  2
VPORT
  5
8
330
0
100
AcDbSymbolTable
 70
     1
  0
VPORT
  5
29
330
8
100
AcDbSymbolTableRecord
100
AcDbViewportTableRecord
  2
*Active
 70
     0
 10
0.0
 20
0.0
 11
1.0
 21
1.0
 12
0.0
 22
0.0
 13
0.0
 23
0.0
 14
0.5
 24
0.5
 15
0.5
 25
0.5
 16
0.0
 26
0.0
 36
1.0
 17
91.00082462281999
 27
-128.4993055234307
 37
0.0
 40
256.9986110468615
 41
0.7081814508812795
 42
50.0
 43
0.0
 44
0.0
 50
0.0
 51
0.0
 71
     0
 72
   100
 73
     1
 74
     3
 75
     0
 76
     0
 77
     0
 78
     0
281
     0
 65
     1
110
0.0
120
0.0
130
0.0
111
1.0
121
0.0
131
0.0
112
0.0
122
1.0
132
0.0
 79
     0
146
0.0
 60
     3
 61
     5
292
     1
282
     1
141
0.0
142
0.0
 63
   250
361
3F
  0
ENDTAB
  0
TABLE
  2
LTYPE
  5
5
330
0
100
AcDbSymbolTable
 70
     1
  0
LTYPE
  5
14
330
5
100
AcDbSymbolTableRecord
100
AcDbLinetypeTableRecord
  2
ByBlock
 70
     0
  3

 72
    65
 73
     0
 40
0.0
  0
LTYPE
  5
15
330
5
100
AcDbSymbolTableRecord
100
AcDbLinetypeTableRecord
  2
ByLayer
 70
     0
  3

 72
    65
 73
     0
 40
0.0
  0
LTYPE
  5
16
330
5
100
AcDbSymbolTableRecord
100
AcDbLinetypeTableRecord
  2
Continuous
 70
     0
  3
Solid line
 72
    65
 73
     0
 40
0.0
  0
ENDTAB
  0
TABLE
  2
LAYER
  5
2
330
0
100
AcDbSymbolTable
 70
     2
  0
LAYER
  5
10
330
2
100
AcDbSymbolTableRecord
100
AcDbLayerTableRecord
  2
0
 70
     0
 62
     7
  6
Continuous
370
    -3
390
F
347
3E
  0
LAYER
  5
40
330
2
100
AcDbSymbolTableRecord
100
AcDbLayerTableRecord
  2
_U+30EC_U+30A4_U+30E4_U+30FC 1
 70
     0
 62
     7
  6
Continuous
370
    -3
390
F
347
3E
  0
ENDTAB
  0
TABLE
  2
STYLE
  5
3
330
0
100
AcDbSymbolTable
 70
     1
  0
STYLE
  5
11
330
3
100
AcDbSymbolTableRecord
100
AcDbTextStyleTableRecord
  2
Standard
 70
     0
 40
0.0
 41
1.0
 50
0.0
 71
     0
 42
0.2
  3
txt
  4

  0
ENDTAB
  0
TABLE
  2
VIEW
  5
6
330
0
100
AcDbSymbolTable
 70
     0
  0
ENDTAB
  0
TABLE
  2
UCS
  5
7
330
0
100
AcDbSymbolTable
 70
     0
  0
ENDTAB
  0
TABLE
  2
APPID
  5
9
330
0
100
AcDbSymbolTable
 70
     1
  0
APPID
  5
12
330
9
100
AcDbSymbolTableRecord
100
AcDbRegAppTableRecord
  2
ACAD
 70
     0
  0
ENDTAB
  0
TABLE
  2
DIMSTYLE
  5
A
330
0
100
AcDbSymbolTable
 70
     1
100
AcDbDimStyleTable
  0
DIMSTYLE
105
27
330
A
100
AcDbSymbolTableRecord
100
AcDbDimStyleTableRecord
  2
Standard
 70
     0
178
     0
340
11
  0
ENDTAB
  0
TABLE
  2
BLOCK_RECORD
  5
1
330
0
100
AcDbSymbolTable
 70
     6
  0
BLOCK_RECORD
  5
1F
330
1
100
AcDbSymbolTableRecord
100
AcDbBlockTableRecord
  2
*Model_Space
340
22
 70
     0
280
     1
281
     0
  0
BLOCK_RECORD
  5
1B
330
1
100
AcDbSymbolTableRecord
100
AcDbBlockTableRecord
  2
*Paper_Space
340
1E
 70
     0
280
     1
281
     0
  0
BLOCK_RECORD
  5
23
330
1
100
AcDbSymbolTableRecord
100
AcDbBlockTableRecord
  2
*Paper_Space0
340
26
 70
     0
280
     1
281
     0
  0
BLOCK_RECORD
  5
85
330
1
100
AcDbSymbolTableRecord
100
AcDbBlockTableRecord
  2
block 2
340
0
102
{BLKREFS
331
86
102
}
 70
     0
280
     1
281
     0
  0
BLOCK_RECORD
  5
92
330
1
100
AcDbSymbolTableRecord
100
AcDbBlockTableRecord
  2
block 3
340
0
102
{BLKREFS
331
93
102
}
 70
     0
280
     1
281
     0
  0
BLOCK_RECORD
  5
B3
330
1
100
AcDbSymbolTableRecord
100
AcDbBlockTableRecord
  2
block 4
340
0
102
{BLKREFS
331
B4
102
}
 70
     0
280
     1
281
     0
  0
BLOCK_RECORD
  5
C5
330
1
100
AcDbSymbolTableRecord
100
AcDbBlockTableRecord
  2
block 5
340
0
102
{BLKREFS
331
C6
102
}
 70
     0
280
     1
281
     0
  0
BLOCK_RECORD
  5
D9
330
1
100
AcDbSymbolTableRecord
100
AcDbBlockTableRecord
  2
block 6
340
0
102
{BLKREFS
331
DA
102
}
 70
     0
280
     1
281
     0
  0
ENDTAB
  0
ENDSEC
  0
SECTION
  2
BLOCKS
  0
BLOCK
  5
20
330
1F
100
AcDbEntity
  8
0
100
AcDbBlockBegin
  2
*Model_Space
 70
     0
 10
0.0
 20
0.0
 30
0.0
  3
*Model_Space
  1

  0
ENDBLK
  5
21
330
1F
100
AcDbEntity
  8
0
100
AcDbBlockEnd
  0
BLOCK
  5
1C
330
1B
100
AcDbEntity
 67
     1
  8
0
100
AcDbBlockBegin
  2
*Paper_Space
 70
     0
 10
0.0
 20
0.0
 30
0.0
  3
*Paper_Space
  1

  0
ENDBLK
  5
1D
330
1B
100
AcDbEntity
 67
     1
  8
0
100
AcDbBlockEnd
  0
BLOCK
  5
24
330
23
100
AcDbEntity
  8
0
100
AcDbBlockBegin
  2
*Paper_Space0
 70
     0
 10
0.0
 20
0.0
 30
0.0
  3
*Paper_Space0
  1

  0
ENDBLK
  5
25
330
23
100
AcDbEntity
  8
0
100
AcDbBlockEnd
  0
BLOCK
  5
87
330
85
100
AcDbEntity
  8
0
100
AcDbBlockBegin
  2
block 2
 70
     0
 10
0.0
 20
0.0
 30
0.0
  3
block 2
  1

  0
SPLINE
  5
89
330
85
100
AcDbEntity
  8
_U+30EC_U+30A4_U+30E4_U+30FC 1
370
     0
100
AcDbSpline
210
0.0
220
0.0
230
1.0
 70
    11
 71
     3
 72
    26
 73
    22
 74
     0
 42
0.0000000001
 43
0.0000000001
 12
1.0
 22
0.0
 32
0.0
 13
1.0
 23
0.0
 33
0.0
 40
0.0
 40
0.0
 40
0.0
 40
0.0
 40
1.0
 40
1.0
 40
1.0
 40
2.0
 40
2.0
 40
2.0
 40
3.0
 40
3.0
 40
3.0
 40
4.0
 40
4.0
 40
4.0
 40
5.0
 40
5.0
 40
5.0
 40
6.0
 40
6.0
 40
6.0
 40
7.0
 40
7.0
 40
7.0
 40
7.0
 10
95.05569659081941
 20
-137.4810139630256
 30
0.0
 10
95.05569659081941
 20
-137.4810139630256
 30
0.0
 10
95.05569659081941
 20
-136.376860860003
 30
0.0
 10
95.05569659081941
 20
-136.376860860003
 30
0.0
 10
95.05569659081941
 20
-136.376860860003
 30
0.0
 10
94.72565644333248
 20
-136.376860860003
 30
0.0
 10
94.72565644333248
 20
-136.376860860003
 30
0.0
 10
94.72565644333248
 20
-136.376860860003
 30
0.0
 10
94.72565644333248
 20
-136.2287217541373
 30
0.0
 10
94.72565644333248
 20
-136.2287217541373
 30
0.0
 10
95.05776364811057
 20
-136.2139078435507
 30
0.0
 10
95.10427243716144
 20
-136.0509548270984
 30
0.0
 10
95.13390025833459
 20
-135.9365776569881
 30
0.0
 10
95.13390025833459
 20
-135.9365776569881
 30
0.0
 10
95.27997230690917
 20
-135.9365776569881
 30
0.0
 10
95.27997230690917
 20
-135.9365776569881
 30
0.0
 10
95.27997230690917
 20
-135.9365776569881
 30
0.0
 10
95.27997230690917
 20
-137.4810139630256
 30
0.0
 10
95.27997230690917
 20
-137.4810139630256
 30
0.0
 10
95.27997230690917
 20
-137.4810139630256
 30
0.0
 10
95.05569659081941
 20
-137.4810139630256
 30
0.0
 10
95.05569659081941
 20
-137.4810139630256
 30
0.0
  0
HATCH
  5
8A
330
85
100
AcDbEntity
  8
_U+30EC_U+30A4_U+30E4_U+30FC 1
 62
   179
420
  2234388
100
AcDbHatch
 10
0.0
 20
0.0
 30
0.0
210
0.0
220
0.0
230
1.0
  2
SOLID
 70
     1
 71
     0
 91
        1
 92
        1
 93
        1
 72
     4
 94
        3
 73
     0
 74
     1
 95
       26
 96
       22
 40
0.0
 40
0.0
 40
0.0
 40
0.0
 40
1.0
 40
1.0
 40
1.0
 40
2.0
 40
2.0
 40
2.0
 40
3.0
 40
3.0
 40
3.0
 40
4.0
 40
4.0
 40
4.0
 40
5.0
 40
5.0
 40
5.0
 40
6.0
 40
6.0
 40
6.0
 40
7.0
 40
7.0
 40
7.0
 40
7.0
 10
95.05569659081941
 20
-137.4810139630256
 10
95.05569659081941
 20
-137.4810139630256
 10
95.05569659081941
 20
-136.376860860003
 10
95.05569659081941
 20
-136.376860860003
 10
95.05569659081941
 20
-136.376860860003
 10
94.72565644333248
 20
-136.376860860003
 10
94.72565644333248
 20
-136.376860860003
 10
94.72565644333248
 20
-136.376860860003
 10
94.72565644333248
 20
-136.2287217541373
 10
94.72565644333248
 20
-136.2287217541373
 10
95.05776364811057
 20
-136.2139078435507
 10
95.10427243716144
 20
-136.0509548270984
 10
95.13390025833459
 20
-135.9365776569881
 10
95.13390025833459
 20
-135.9365776569881
 10
95.27997230690917
 20
-135.9365776569881
 10
95.27997230690917
 20
-135.9365776569881
 10
95.27997230690917
 20
-135.9365776569881
 10
95.27997230690917
 20
-137.4810139630256
 10
95.27997230690917
 20
-137.4810139630256
 10
95.27997230690917
 20
-137.4810139630256
 10
95.05569659081941
 20
-137.4810139630256
 10
95.05569659081941
 20
-137.4810139630256
 97
        0
 97
        0
 75
     2
 76
     1
 98
        0
  0
SPLINE
  5
8B
330
85
100
AcDbEntity
  8
_U+30EC_U+30A4_U+30E4_U+30FC 1
370
     0
100
AcDbSpline
210
0.0
220
0.0
230
1.0
 70
    11
 71
     3
 72
    29
 73
    25
 74
     0
 42
0.0000000001
 43
0.0000000001
 12
1.0
 22
0.0
 32
0.0
 13
1.0
 23
0.0
 33
0.0
 40
0.0
 40
0.0
 40
0.0
 40
0.0
 40
1.0
 40
1.0
 40
1.0
 40
2.0
 40
2.0
 40
2.0
 40
3.0
 40
3.0
 40
3.0
 40
4.0
 40
4.0
 40
4.0
 40
5.0
 40
5.0
 40
5.0
 40
6.0
 40
6.0
 40
6.0
 40
7.0
 40
7.0
 40
7.0
 40
8.0
 40
8.0
 40
8.0
 40
8.0
 10
96.67902558346914
 20
-137.3032470359867
 30
0.0
 10
96.5708495852323
 20
-137.5127088414899
 30
0.0
 10
96.39756128232422
 20
-137.5316568666588
 30
0.0
 10
96.28111705492277
 20
-137.5316568666588
 30
0.0
 10
96.12023109576161
 20
-137.5316568666588
 30
0.0
 10
95.97863767131784
 20
-137.4851480776079
 30
0.0
 10
95.88355303592495
 20
-137.3032470359867
 30
0.0
 10
95.77985566181893
 20
-137.1085991410701
 30
0.0
 10
95.76090763665006
 20
-136.8719210812334
 30
0.0
 10
95.76090763665006
 20
-136.7089680647811
 30
0.0
 10
95.76090763665006
 20
-136.5649630734977
 30
0.0
 10
95.77778860452779
 20
-136.3131265935259
 30
0.0
 10
95.88355303592495
 20
-136.114344584027
 30
0.0
 10
95.99138452461327
 20
-135.9114284599458
 30
0.0
 10
96.15227048377443
 20
-135.8880018106461
 30
0.0
 10
96.28111705492277
 20
-135.8880018106461
 30
0.0
 10
96.4399359567928
 20
-135.8880018106461
 30
0.0
 10
96.58359643852772
 20
-135.9324435424058
 30
0.0
 10
96.67902558346914
 20
-136.114344584027
 30
0.0
 10
96.77824433344433
 20
-136.3069254216524
 30
0.0
 10
96.80167098274403
 20
-136.5353352523245
 30
0.0
 10
96.80167098274403
 20
-136.7089680647811
 30
0.0
 10
96.80167098274403
 20
-136.880189310398
 30
0.0
 10
96.78031139073548
 20
-137.1106661983612
 30
0.0
 10
96.67902558346914
 20
-137.3032470359867
 30
0.0
  0
SPLINE
  5
8C
330
85
100
AcDbEntity
  8
_U+30EC_U+30A4_U+30E4_U+30FC 1
370
     0
100
AcDbSpline
210
0.0
220
0.0
230
1.0
 70
    11
 71
     3
 72
    17
 73
    13
 74
     0
 42
0.0000000001
 43
0.0000000001
 12
1.0
 22
0.0
 32
0.0
 13
1.0
 23
0.0
 33
0.0
 40
0.0
 40
0.0
 40
0.0
 40
0.0
 40
1.0
 40
1.0
 40
1.0
 40
2.0
 40
2.0
 40
2.0
 40
3.0
 40
3.0
 40
3.0
 40
4.0
 40
4.0
 40
4.0
 40
4.0
 10
96.28111705492277
 20
-136.0805826482715
 30
0.0
 10
96.03169214179069
 20
-136.0805826482715
 30
0.0
 10
95.9848388431913
 20
-136.3641140067076
 30
0.0
 10
95.9848388431913
 20
-136.7089680647811
 30
0.0
 10
95.9848388431913
 20
-137.0283284162637
 30
0.0
 10
96.02101234578642
 20
-137.3370089717421
 30
0.0
 10
96.28111705492277
 20
-137.3370089717421
 30
0.0
 10
96.52881942031225
 20
-137.3370089717421
 30
0.0
 10
96.57739526665426
 20
-137.0558891801458
 30
0.0
 10
96.57739526665426
 20
-136.7089680647811
 30
0.0
 10
96.57739526665426
 20
-136.3892632037499
 30
0.0
 10
96.53915470676799
 20
-136.0805826482715
 30
0.0
 10
96.28111705492277
 20
-136.0805826482715
 30
0.0
  0
HATCH
  5
8D
330
85
100
AcDbEntity
  8
_U+30EC_U+30A4_U+30E4_U+30FC 1
 62
   179
420
  2234388
100
AcDbHatch
 10
0.0
 20
0.0
 30
0.0
210
0.0
220
0.0
230
1.0
  2
SOLID
 70
     1
 71
     0
 91
        2
 92
        1
 93
        1
 72
     4
 94
        3
 73
     0
 74
     1
 95
       29
 96
       25
 40
0.0
 40
0.0
 40
0.0
 40
0.0
 40
1.0
 40
1.0
 40
1.0
 40
2.0
 40
2.0
 40
2.0
 40
3.0
 40
3.0
 40
3.0
 40
4.0
 40
4.0
 40
4.0
 40
5.0
 40
5.0
 40
5.0
 40
6.0
 40
6.0
 40
6.0
 40
7.0
 40
7.0
 40
7.0
 40
8.0
 40
8.0
 40
8.0
 40
8.0
 10
96.67902558346914
 20
-137.3032470359867
 10
96.5708495852323
 20
-137.5127088414899
 10
96.39756128232422
 20
-137.5316568666588
 10
96.28111705492277
 20
-137.5316568666588
 10
96.12023109576161
 20
-137.5316568666588
 10
95.97863767131784
 20
-137.4851480776079
 10
95.88355303592495
 20
-137.3032470359867
 10
95.77985566181893
 20
-137.1085991410701
 10
95.76090763665006
 20
-136.8719210812334
 10
95.76090763665006
 20
-136.7089680647811
 10
95.76090763665006
 20
-136.5649630734977
 10
95.77778860452779
 20
-136.3131265935259
 10
95.88355303592495
 20
-136.114344584027
 10
95.99138452461327
 20
-135.9114284599458
 10
96.15227048377443
 20
-135.8880018106461
 10
96.28111705492277
 20
-135.8880018106461
 10
96.4399359567928
 20
-135.8880018106461
 10
96.58359643852772
 20
-135.9324435424058
 10
96.67902558346914
 20
-136.114344584027
 10
96.77824433344433
 20
-136.3069254216524
 10
96.80167098274403
 20
-136.5353352523245
 10
96.80167098274403
 20
-136.7089680647811
 10
96.80167098274403
 20
-136.880189310398
 10
96.78031139073548
 20
-137.1106661983612
 10
96.67902558346914
 20
-137.3032470359867
 97
        0
 97
        0
 92
        1
 93
        1
 72
     4
 94
        3
 73
     0
 74
     1
 95
       17
 96
       13
 40
0.0
 40
0.0
 40
0.0
 40
0.0
 40
1.0
 40
1.0
 40
1.0
 40
2.0
 40
2.0
 40
2.0
 40
3.0
 40
3.0
 40
3.0
 40
4.0
 40
4.0
 40
4.0
 40
4.0
 10
96.28111705492277
 20
-136.0805826482715
 10
96.03169214179069
 20
-136.0805826482715
 10
95.9848388431913
 20
-136.3641140067076
 10
95.9848388431913
 20
-136.7089680647811
 10
95.9848388431913
 20
-137.0283284162637
 10
96.02101234578642
 20
-137.3370089717421
 10
96.28111705492277
 20
-137.3370089717421
 10
96.52881942031225
 20
-137.3370089717421
 10
96.57739526665426
 20
-137.0558891801458
 10
96.57739526665426
 20
-136.7089680647811
 10
96.57739526665426
 20
-136.3892632037499
 10
96.53915470676799
 20
-136.0805826482715
 10
96.28111705492277
 20
-136.0805826482715
 97
        0
 97
        0
 75
     2
 76
     1
 98
        0
  0
ENDBLK
  5
88
330
85
100
AcDbEntity
  8
0
100
AcDbBlockEnd
  0
BLOCK
  5
94
330
92
100
AcDbEntity
  8
0
100
AcDbBlockBegin
  2
block 3
 70
     0
 10
0.0
 20
0.0
 30
0.0
  3
block 3
  1

  0
SPLINE
  5
96
330
92
100
AcDbEntity
  8
_U+30EC_U+30A4_U+30E4_U+30FC 1
370
     0
100
AcDbSpline
210
0.0
220
0.0
230
1.0
 70
    11
 71
     3
 72
    32
 73
    28
 74
     0
 42
0.0000000001
 43
0.0000000001
 12
1.0
 22
0.0
 32
0.0
 13
1.0
 23
0.0
 33
0.0
 40
0.0
 40
0.0
 40
0.0
 40
0.0
 40
1.0
 40
1.0
 40
1.0
 40
2.0
 40
2.0
 40
2.0
 40
3.0
 40
3.0
 40
3.0
 40
4.0
 40
4.0
 40
4.0
 40
5.0
 40
5.0
 40
5.0
 40
6.0
 40
6.0
 40
6.0
 40
7.0
 40
7.0
 40
7.0
 40
8.0
 40
8.0
 40
8.0
 40
9.0
 40
9.0
 40
9.0
 40
9.0
 10
107.867662190915
 20
-127.2573486009982
 30
0.0
 10
107.867662190915
 20
-127.4306369039062
 30
0.0
 10
107.798071262113
 20
-127.6762722120045
 30
0.0
 10
107.4659640573349
 20
-127.7141682623423
 30
0.0
 10
107.4659640573349
 20
-127.7141682623423
 30
0.0
 10
107.4659640573349
 20
-127.5005723422568
 30
0.0
 10
107.4659640573349
 20
-127.5005723422568
 30
0.0
 10
107.5252196996812
 20
-127.4898925462525
 30
0.0
 10
107.6730142959984
 20
-127.4581976677882
 30
0.0
 10
107.6730142959984
 20
-127.255281543707
 30
0.0
 10
107.6730142959984
 20
-126.9631374465578
 30
0.0
 10
107.3429741485115
 20
-126.9252413962201
 30
0.0
 10
107.1379909671391
 20
-126.9124945429247
 30
0.0
 10
107.2182616919454
 20
-127.0034450637353
 30
0.0
 10
107.2754502770006
 20
-127.0709689352462
 30
0.0
 10
107.2754502770006
 20
-127.2528699768673
 30
0.0
 10
107.2754502770006
 20
-127.4327039611974
 30
0.0
 10
107.1696858456034
 20
-127.7351833448023
 30
0.0
 10
106.7635090878925
 20
-127.7351833448023
 30
0.0
 10
106.4441487364098
 20
-127.7351833448023
 30
0.0
 10
106.2240071349023
 20
-127.5364013353034
 30
0.0
 10
106.2240071349023
 20
-127.2191080411119
 30
0.0
 10
106.2240071349023
 20
-126.7050997947126
 30
0.0
 10
106.778322998479
 20
-126.6944199987083
 30
0.0
 10
106.9919189185645
 20
-126.6944199987083
 30
0.0
 10
107.2223958065277
 20
-126.6944199987083
 30
0.0
 10
107.867662190915
 20
-126.7137125334257
 30
0.0
 10
107.867662190915
 20
-127.2573486009982
 30
0.0
  0
SPLINE
  5
97
330
92
100
AcDbEntity
  8
_U+30EC_U+30A4_U+30E4_U+30FC 1
370
     0
100
AcDbSpline
210
0.0
220
0.0
230
1.0
 70
    11
 71
     3
 72
    17
 73
    13
 74
     0
 42
0.0000000001
 43
0.0000000001
 12
1.0
 22
0.0
 32
0.0
 13
1.0
 23
0.0
 33
0.0
 40
0.0
 40
0.0
 40
0.0
 40
0.0
 40
1.0
 40
1.0
 40
1.0
 40
2.0
 40
2.0
 40
2.0
 40
3.0
 40
3.0
 40
3.0
 40
4.0
 40
4.0
 40
4.0
 40
4.0
 10
106.4165879725278
 20
-127.2170409838208
 30
0.0
 10
106.4165879725278
 20
-127.3355522685133
 30
0.0
 10
106.473776557583
 20
-127.5112521382611
 30
0.0
 10
106.7593749733102
 20
-127.5112521382611
 30
0.0
 10
106.9857177466911
 20
-127.5112521382611
 30
0.0
 10
107.080802382084
 20
-127.3713812615599
 30
0.0
 10
107.080802382084
 20
-127.2359890089896
 30
0.0
 10
107.080802382084
 20
-126.9738172425621
 30
0.0
 10
106.8713405765808
 20
-126.9355766826758
 30
0.0
 10
106.7548963491793
 20
-126.9355766826758
 30
0.0
 10
106.5795409889801
 20
-126.9355766826758
 30
0.0
 10
106.4165879725278
 20
-127.0310058276172
 30
0.0
 10
106.4165879725278
 20
-127.2170409838208
 30
0.0
  0
HATCH
  5
98
330
92
100
AcDbEntity
  8
_U+30EC_U+30A4_U+30E4_U+30FC 1
 62
   179
420
  2234388
100
AcDbHatch
 10
0.0
 20
0.0
 30
0.0
210
0.0
220
0.0
230
1.0
  2
SOLID
 70
     1
 71
     0
 91
        2
 92
        1
 93
        1
 72
     4
 94
        3
 73
     0
 74
     1
 95
       32
 96
       28
 40
0.0
 40
0.0
 40
0.0
 40
0.0
 40
1.0
 40
1.0
 40
1.0
 40
2.0
 40
2.0
 40
2.0
 40
3.0
 40
3.0
 40
3.0
 40
4.0
 40
4.0
 40
4.0
 40
5.0
 40
5.0
 40
5.0
 40
6.0
 40
6.0
 40
6.0
 40
7.0
 40
7.0
 40
7.0
 40
8.0
 40
8.0
 40
8.0
 40
9.0
 40
9.0
 40
9.0
 40
9.0
 10
107.867662190915
 20
-127.2573486009982
 10
107.867662190915
 20
-127.4306369039062
 10
107.798071262113
 20
-127.6762722120045
 10
107.4659640573349
 20
-127.7141682623423
 10
107.4659640573349
 20
-127.7141682623423
 10
107.4659640573349
 20
-127.5005723422568
 10
107.4659640573349
 20
-127.5005723422568
 10
107.5252196996812
 20
-127.4898925462525
 10
107.6730142959984
 20
-127.4581976677882
 10
107.6730142959984
 20
-127.255281543707
 10
107.6730142959984
 20
-126.9631374465578
 10
107.3429741485115
 20
-126.9252413962201
 10
107.1379909671391
 20
-126.9124945429247
 10
107.2182616919454
 20
-127.0034450637353
 10
107.2754502770006
 20
-127.0709689352462
 10
107.2754502770006
 20
-127.2528699768673
 10
107.2754502770006
 20
-127.4327039611974
 10
107.1696858456034
 20
-127.7351833448023
 10
106.7635090878925
 20
-127.7351833448023
 10
106.4441487364098
 20
-127.7351833448023
 10
106.2240071349023
 20
-127.5364013353034
 10
106.2240071349023
 20
-127.2191080411119
 10
106.2240071349023
 20
-126.7050997947126
 10
106.778322998479
 20
-126.6944199987083
 10
106.9919189185645
 20
-126.6944199987083
 10
107.2223958065277
 20
-126.6944199987083
 10
107.867662190915
 20
-126.7137125334257
 10
107.867662190915
 20
-127.2573486009982
 97
        0
 97
        0
 92
        1
 93
        1
 72
     4
 94
        3
 73
     0
 74
     1
 95
       17
 96
       13
 40
0.0
 40
0.0
 40
0.0
 40
0.0
 40
1.0
 40
1.0
 40
1.0
 40
2.0
 40
2.0
 40
2.0
 40
3.0
 40
3.0
 40
3.0
 40
4.0
 40
4.0
 40
4.0
 40
4.0
 10
106.4165879725278
 20
-127.2170409838208
 10
106.4165879725278
 20
-127.3355522685133
 10
106.473776557583
 20
-127.5112521382611
 10
106.7593749733102
 20
-127.5112521382611
 10
106.9857177466911
 20
-127.5112521382611
 10
107.080802382084
 20
-127.3713812615599
 10
107.080802382084
 20
-127.2359890089896
 10
107.080802382084
 20
-126.9738172425621
 10
106.8713405765808
 20
-126.9355766826758
 10
106.7548963491793
 20
-126.9355766826758
 10
106.5795409889801
 20
-126.9355766826758
 10
106.4165879725278
 20
-127.0310058276172
 10
106.4165879725278
 20
-127.2170409838208
 97
        0
 97
        0
 75
     2
 76
     1
 98
        0
  0
POLYLINE
  5
99
330
92
100
AcDbEntity
  8
_U+30EC_U+30A4_U+30E4_U+30FC 1
370
     0
100
AcDb2dPolyline
 66
     1
 10
0.0
 20
0.0
 30
0.0
  0
VERTEX
  5
9A
330
99
100
AcDbEntity
  8
_U+30EC_U+30A4_U+30E4_U+30FC 1
370
     0
100
AcDbVertex
100
AcDb2dVertex
 10
107.8170192872819
 20
-126.4780680022347
 30
0.0
  0
VERTEX
  5
9B
330
99
100
AcDbEntity
  8
_U+30EC_U+30A4_U+30E4_U+30FC 1
370
     0
100
AcDbVertex
100
AcDb2dVertex
 10
107.5651828073101
 20
-126.4780680022347
 30
0.0
  0
VERTEX
  5
9C
330
99
100
AcDbEntity
  8
_U+30EC_U+30A4_U+30E4_U+30FC 1
370
     0
100
AcDbVertex
100
AcDb2dVertex
 10
107.5651828073101
 20
-126.2262315222629
 30
0.0
  0
VERTEX
  5
9D
330
99
100
AcDbEntity
  8
_U+30EC_U+30A4_U+30E4_U+30FC 1
370
     0
100
AcDbVertex
100
AcDb2dVertex
 10
107.8170192872819
 20
-126.2262315222629
 30
0.0
  0
VERTEX
  5
9E
330
99
100
AcDbEntity
  8
_U+30EC_U+30A4_U+30E4_U+30FC 1
370
     0
100
AcDbVertex
100
AcDb2dVertex
 10
107.8170192872819
 20
-126.4780680022347
 30
0.0
  0
SEQEND
  5
9F
330
99
100
AcDbEntity
  8
_U+30EC_U+30A4_U+30E4_U+30FC 1
370
     0
  0
HATCH
  5
A0
330
92
100
AcDbEntity
  8
_U+30EC_U+30A4_U+30E4_U+30FC 1
 62
   179
420
  2234388
100
AcDbHatch
 10
0.0
 20
0.0
 30
0.0
210
0.0
220
0.0
230
1.0
  2
SOLID
 70
     1
 71
     0
 91
        1
 92
        1
 93
        4
 72
     1
 10
107.8170192872819
 20
-126.4780680022347
 11
107.5651828073101
 21
-126.4780680022347
 72
     1
 10
107.5651828073101
 20
-126.4780680022347
 11
107.5651828073101
 21
-126.2262315222629
 72
     1
 10
107.5651828073101
 20
-126.2262315222629
 11
107.8170192872819
 21
-126.2262315222629
 72
     1
 10
107.8170192872819
 20
-126.2262315222629
 11
107.8170192872819
 21
-126.4780680022347
 97
        0
 75
     2
 76
     1
 98
        0
  0
SPLINE
  5
A1
330
92
100
AcDbEntity
  8
_U+30EC_U+30A4_U+30E4_U+30FC 1
370
     0
100
AcDbSpline
210
0.0
220
0.0
230
1.0
 70
    11
 71
     3
 72
    53
 73
    49
 74
     0
 42
0.0000000001
 43
0.0000000001
 12
1.0
 22
0.0
 32
0.0
 13
1.0
 23
0.0
 33
0.0
 40
0.0
 40
0.0
 40
0.0
 40
0.0
 40
1.0
 40
1.0
 40
1.0
 40
2.0
 40
2.0
 40
2.0
 40
3.0
 40
3.0
 40
3.0
 40
4.0
 40
4.0
 40
4.0
 40
5.0
 40
5.0
 40
5.0
 40
6.0
 40
6.0
 40
6.0
 40
7.0
 40
7.0
 40
7.0
 40
8.0
 40
8.0
 40
8.0
 40
9.0
 40
9.0
 40
9.0
 40
10.0
 40
10.0
 40
10.0
 40
11.0
 40
11.0
 40
11.0
 40
12.0
 40
12.0
 40
12.0
 40
13.0
 40
13.0
 40
13.0
 40
14.0
 40
14.0
 40
14.0
 40
15.0
 40
15.0
 40
15.0
 40
16.0
 40
16.0
 40
16.0
 40
16.0
 10
107.867662190915
 20
-125.5089626422339
 30
0.0
 10
107.867662190915
 20
-125.5871663097491
 30
0.0
 10
107.8507812230373
 20
-125.6887966265639
 30
0.0
 10
107.7873914661087
 20
-125.7904269433788
 30
0.0
 10
107.6774929201292
 20
-125.9637152462869
 30
0.0
 10
107.5462347821412
 20
-125.9850748382954
 30
0.0
 10
107.4384032934529
 20
-126.0040228634643
 30
0.0
 10
107.4384032934529
 20
-126.0040228634643
 30
0.0
 10
107.4384032934529
 20
-125.7818142046657
 30
0.0
 10
107.4384032934529
 20
-125.7818142046657
 30
0.0
 10
107.6371853029518
 20
-125.7270371864502
 30
0.0
 10
107.666813124125
 20
-125.5999131630445
 30
0.0
 10
107.666813124125
 20
-125.5068955849427
 30
0.0
 10
107.666813124125
 20
-125.3673692177901
 30
0.0
 10
107.5672498646013
 20
-125.2150959973421
 30
0.0
 10
107.3347059193469
 20
-125.2150959973421
 30
0.0
 10
107.0787353247928
 20
-125.2150959973421
 30
0.0
 10
107.0087998864422
 20
-125.3949299816721
 30
0.0
 10
107.0087998864422
 20
-125.5155083236559
 30
0.0
 10
107.0087998864422
 20
-125.5472032021201
 30
0.0
 10
107.0087998864422
 20
-125.6887966265639
 30
0.0
 10
107.1379909671391
 20
-125.7776800900834
 30
0.0
 10
107.1379909671391
 20
-125.7776800900834
 30
0.0
 10
107.1190429419702
 20
-125.9533799598311
 30
0.0
 10
107.1190429419702
 20
-125.9533799598311
 30
0.0
 10
107.1190429419702
 20
-125.9533799598311
 30
0.0
 10
106.2725829812444
 20
-125.8328016178474
 30
0.0
 10
106.2725829812444
 20
-125.8328016178474
 30
0.0
 10
106.2725829812444
 20
-125.8328016178474
 30
0.0
 10
106.2725829812444
 20
-125.0542100381809
 30
0.0
 10
106.2725829812444
 20
-125.0542100381809
 30
0.0
 10
106.2725829812444
 20
-125.0542100381809
 30
0.0
 10
106.467230876161
 20
-125.0542100381809
 30
0.0
 10
106.467230876161
 20
-125.0542100381809
 30
0.0
 10
106.467230876161
 20
-125.0542100381809
 30
0.0
 10
106.467230876161
 20
-125.669848601395
 30
0.0
 10
106.467230876161
 20
-125.669848601395
 30
0.0
 10
106.467230876161
 20
-125.669848601395
 30
0.0
 10
106.8902886017497
 20
-125.7353054156148
 30
0.0
 10
106.8902886017497
 20
-125.7353054156148
 30
0.0
 10
106.8565266659942
 20
-125.6739827159773
 30
0.0
 10
106.8162190488168
 20
-125.5916449338799
 30
0.0
 10
106.8162190488168
 20
-125.4731336491873
 30
0.0
 10
106.8162190488168
 20
-125.2192301119244
 30
0.0
 10
107.0025987145688
 20
-124.9822075425392
 30
0.0
 10
107.315757894178
 20
-124.9822075425392
 30
0.0
 10
107.6330511883695
 20
-124.9822075425392
 30
0.0
 10
107.867662190915
 20
-125.2064832586289
 30
0.0
 10
107.867662190915
 20
-125.5089626422339
 30
0.0
  0
HATCH
  5
A2
330
92
100
AcDbEntity
  8
_U+30EC_U+30A4_U+30E4_U+30FC 1
 62
   179
420
  2234388
100
AcDbHatch
 10
0.0
 20
0.0
 30
0.0
210
0.0
220
0.0
230
1.0
  2
SOLID
 70
     1
 71
     0
 91
        1
 92
        1
 93
        1
 72
     4
 94
        3
 73
     0
 74
     1
 95
       53
 96
       49
 40
0.0
 40
0.0
 40
0.0
 40
0.0
 40
1.0
 40
1.0
 40
1.0
 40
2.0
 40
2.0
 40
2.0
 40
3.0
 40
3.0
 40
3.0
 40
4.0
 40
4.0
 40
4.0
 40
5.0
 40
5.0
 40
5.0
 40
6.0
 40
6.0
 40
6.0
 40
7.0
 40
7.0
 40
7.0
 40
8.0
 40
8.0
 40
8.0
 40
9.0
 40
9.0
 40
9.0
 40
10.0
 40
10.0
 40
10.0
 40
11.0
 40
11.0
 40
11.0
 40
12.0
 40
12.0
 40
12.0
 40
13.0
 40
13.0
 40
13.0
 40
14.0
 40
14.0
 40
14.0
 40
15.0
 40
15.0
 40
15.0
 40
16.0
 40
16.0
 40
16.0
 40
16.0
 10
107.867662190915
 20
-125.5089626422339
 10
107.867662190915
 20
-125.5871663097491
 10
107.8507812230373
 20
-125.6887966265639
 10
107.7873914661087
 20
-125.7904269433788
 10
107.6774929201292
 20
-125.9637152462869
 10
107.5462347821412
 20
-125.9850748382954
 10
107.4384032934529
 20
-126.0040228634643
 10
107.4384032934529
 20
-126.0040228634643
 10
107.4384032934529
 20
-125.7818142046657
 10
107.4384032934529
 20
-125.7818142046657
 10
107.6371853029518
 20
-125.7270371864502
 10
107.666813124125
 20
-125.5999131630445
 10
107.666813124125
 20
-125.5068955849427
 10
107.666813124125
 20
-125.3673692177901
 10
107.5672498646013
 20
-125.2150959973421
 10
107.3347059193469
 20
-125.2150959973421
 10
107.0787353247928
 20
-125.2150959973421
 10
107.0087998864422
 20
-125.3949299816721
 10
107.0087998864422
 20
-125.5155083236559
 10
107.0087998864422
 20
-125.5472032021201
 10
107.0087998864422
 20
-125.6887966265639
 10
107.1379909671391
 20
-125.7776800900834
 10
107.1379909671391
 20
-125.7776800900834
 10
107.1190429419702
 20
-125.9533799598311
 10
107.1190429419702
 20
-125.9533799598311
 10
107.1190429419702
 20
-125.9533799598311
 10
106.2725829812444
 20
-125.8328016178474
 10
106.2725829812444
 20
-125.8328016178474
 10
106.2725829812444
 20
-125.8328016178474
 10
106.2725829812444
 20
-125.0542100381809
 10
106.2725829812444
 20
-125.0542100381809
 10
106.2725829812444
 20
-125.0542100381809
 10
106.467230876161
 20
-125.0542100381809
 10
106.467230876161
 20
-125.0542100381809
 10
106.467230876161
 20
-125.0542100381809
 10
106.467230876161
 20
-125.669848601395
 10
106.467230876161
 20
-125.669848601395
 10
106.467230876161
 20
-125.669848601395
 10
106.8902886017497
 20
-125.7353054156148
 10
106.8902886017497
 20
-125.7353054156148
 10
106.8565266659942
 20
-125.6739827159773
 10
106.8162190488168
 20
-125.5916449338799
 10
106.8162190488168
 20
-125.4731336491873
 10
106.8162190488168
 20
-125.2192301119244
 10
107.0025987145688
 20
-124.9822075425392
 10
107.315757894178
 20
-124.9822075425392
 10
107.6330511883695
 20
-124.9822075425392
 10
107.867662190915
 20
-125.2064832586289
 10
107.867662190915
 20
-125.5089626422339
 97
        0
 97
        0
 75
     2
 76
     1
 98
        0
  0
ENDBLK
  5
95
330
92
100
AcDbEntity
  8
0
100
AcDbBlockEnd
  0
BLOCK
  5
B5
330
B3
100
AcDbEntity
  8
0
100
AcDbBlockBegin
  2
block 4
 70
     0
 10
0.0
 20
0.0
 30
0.0
  3
block 4
  1

  0
SPLINE
  5
B7
330
B3
100
AcDbEntity
  8
_U+30EC_U+30A4_U+30E4_U+30FC 1
370
     0
100
AcDbSpline
210
0.0
220
0.0
230
1.0
 70
    11
 71
     3
 72
    26
 73
    22
 74
     0
 42
0.0000000001
 43
0.0000000001
 12
1.0
 22
0.0
 32
0.0
 13
1.0
 23
0.0
 33
0.0
 40
0.0
 40
0.0
 40
0.0
 40
0.0
 40
1.0
 40
1.0
 40
1.0
 40
2.0
 40
2.0
 40
2.0
 40
3.0
 40
3.0
 40
3.0
 40
4.0
 40
4.0
 40
4.0
 40
5.0
 40
5.0
 40
5.0
 40
6.0
 40
6.0
 40
6.0
 40
7.0
 40
7.0
 40
7.0
 40
7.0
 10
75.7986463569184
 20
-120.7499077389098
 30
0.0
 10
75.7986463569184
 20
-120.7499077389098
 30
0.0
 10
74.69449325389583
 20
-120.7499077389098
 30
0.0
 10
74.69449325389583
 20
-120.7499077389098
 30
0.0
 10
74.69449325389583
 20
-120.7499077389098
 30
0.0
 10
74.69449325389583
 20
-121.0799478863967
 30
0.0
 10
74.69449325389583
 20
-121.0799478863967
 30
0.0
 10
74.69449325389583
 20
-121.0799478863967
 30
0.0
 10
74.54635414803008
 20
-121.0799478863967
 30
0.0
 10
74.54635414803008
 20
-121.0799478863967
 30
0.0
 10
74.53154023744351
 20
-120.7478406816186
 30
0.0
 10
74.36858722099119
 20
-120.7013318925677
 30
0.0
 10
74.2542100508809
 20
-120.6717040713946
 30
0.0
 10
74.2542100508809
 20
-120.6717040713946
 30
0.0
 10
74.2542100508809
 20
-120.52563202282
 30
0.0
 10
74.2542100508809
 20
-120.52563202282
 30
0.0
 10
74.2542100508809
 20
-120.52563202282
 30
0.0
 10
75.7986463569184
 20
-120.52563202282
 30
0.0
 10
75.7986463569184
 20
-120.52563202282
 30
0.0
 10
75.7986463569184
 20
-120.52563202282
 30
0.0
 10
75.7986463569184
 20
-120.7499077389098
 30
0.0
 10
75.7986463569184
 20
-120.7499077389098
 30
0.0
  0
HATCH
  5
B8
330
B3
100
AcDbEntity
  8
_U+30EC_U+30A4_U+30E4_U+30FC 1
 62
   179
420
  2234388
100
AcDbHatch
 10
0.0
 20
0.0
 30
0.0
210
0.0
220
0.0
230
1.0
  2
SOLID
 70
     1
 71
     0
 91
        1
 92
        1
 93
        1
 72
     4
 94
        3
 73
     0
 74
     1
 95
       26
 96
       22
 40
0.0
 40
0.0
 40
0.0
 40
0.0
 40
1.0
 40
1.0
 40
1.0
 40
2.0
 40
2.0
 40
2.0
 40
3.0
 40
3.0
 40
3.0
 40
4.0
 40
4.0
 40
4.0
 40
5.0
 40
5.0
 40
5.0
 40
6.0
 40
6.0
 40
6.0
 40
7.0
 40
7.0
 40
7.0
 40
7.0
 10
75.7986463569184
 20
-120.7499077389098
 10
75.7986463569184
 20
-120.7499077389098
 10
74.69449325389583
 20
-120.7499077389098
 10
74.69449325389583
 20
-120.7499077389098
 10
74.69449325389583
 20
-120.7499077389098
 10
74.69449325389583
 20
-121.0799478863967
 10
74.69449325389583
 20
-121.0799478863967
 10
74.69449325389583
 20
-121.0799478863967
 10
74.54635414803008
 20
-121.0799478863967
 10
74.54635414803008
 20
-121.0799478863967
 10
74.53154023744351
 20
-120.7478406816186
 10
74.36858722099119
 20
-120.7013318925677
 10
74.2542100508809
 20
-120.6717040713946
 10
74.2542100508809
 20
-120.6717040713946
 10
74.2542100508809
 20
-120.52563202282
 10
74.2542100508809
 20
-120.52563202282
 10
74.2542100508809
 20
-120.52563202282
 10
75.7986463569184
 20
-120.52563202282
 10
75.7986463569184
 20
-120.52563202282
 10
75.7986463569184
 20
-120.52563202282
 10
75.7986463569184
 20
-120.7499077389098
 10
75.7986463569184
 20
-120.7499077389098
 97
        0
 97
        0
 75
     2
 76
     1
 98
        0
  0
ENDBLK
  5
B6
330
B3
100
AcDbEntity
  8
0
100
AcDbBlockEnd
  0
BLOCK
  5
C7
330
C5
100
AcDbEntity
  8
0
100
AcDbBlockBegin
  2
block 5
 70
     0
 10
0.0
 20
0.0
 30
0.0
  3
block 5
  1

  0
SPLINE
  5
C9
330
C5
100
AcDbEntity
  8
_U+30EC_U+30A4_U+30E4_U+30FC 1
370
     0
100
AcDbSpline
210
0.0
220
0.0
230
1.0
 70
    11
 71
     3
 72
    26
 73
    22
 74
     0
 42
0.0000000001
 43
0.0000000001
 12
1.0
 22
0.0
 32
0.0
 13
1.0
 23
0.0
 33
0.0
 40
0.0
 40
0.0
 40
0.0
 40
0.0
 40
1.0
 40
1.0
 40
1.0
 40
2.0
 40
2.0
 40
2.0
 40
3.0
 40
3.0
 40
3.0
 40
4.0
 40
4.0
 40
4.0
 40
5.0
 40
5.0
 40
5.0
 40
6.0
 40
6.0
 40
6.0
 40
7.0
 40
7.0
 40
7.0
 40
7.0
 10
84.04310436266978
 20
-137.4810139630256
 30
0.0
 10
84.04310436266978
 20
-137.4810139630256
 30
0.0
 10
84.04310436266978
 20
-136.376860860003
 30
0.0
 10
84.04310436266978
 20
-136.376860860003
 30
0.0
 10
84.04310436266978
 20
-136.376860860003
 30
0.0
 10
83.71306421518285
 20
-136.376860860003
 30
0.0
 10
83.71306421518285
 20
-136.376860860003
 30
0.0
 10
83.71306421518285
 20
-136.376860860003
 30
0.0
 10
83.71306421518285
 20
-136.2287217541373
 30
0.0
 10
83.71306421518285
 20
-136.2287217541373
 30
0.0
 10
84.04517141996094
 20
-136.2139078435507
 30
0.0
 10
84.09168020901181
 20
-136.0509548270984
 30
0.0
 10
84.12130803018495
 20
-135.9365776569881
 30
0.0
 10
84.12130803018495
 20
-135.9365776569881
 30
0.0
 10
84.26738007875954
 20
-135.9365776569881
 30
0.0
 10
84.26738007875954
 20
-135.9365776569881
 30
0.0
 10
84.26738007875954
 20
-135.9365776569881
 30
0.0
 10
84.26738007875954
 20
-137.4810139630256
 30
0.0
 10
84.26738007875954
 20
-137.4810139630256
 30
0.0
 10
84.26738007875954
 20
-137.4810139630256
 30
0.0
 10
84.04310436266978
 20
-137.4810139630256
 30
0.0
 10
84.04310436266978
 20
-137.4810139630256
 30
0.0
  0
HATCH
  5
CA
330
C5
100
AcDbEntity
  8
_U+30EC_U+30A4_U+30E4_U+30FC 1
 62
   179
420
  2234388
100
AcDbHatch
 10
0.0
 20
0.0
 30
0.0
210
0.0
220
0.0
230
1.0
  2
SOLID
 70
     1
 71
     0
 91
        1
 92
        1
 93
        1
 72
     4
 94
        3
 73
     0
 74
     1
 95
       26
 96
       22
 40
0.0
 40
0.0
 40
0.0
 40
0.0
 40
1.0
 40
1.0
 40
1.0
 40
2.0
 40
2.0
 40
2.0
 40
3.0
 40
3.0
 40
3.0
 40
4.0
 40
4.0
 40
4.0
 40
5.0
 40
5.0
 40
5.0
 40
6.0
 40
6.0
 40
6.0
 40
7.0
 40
7.0
 40
7.0
 40
7.0
 10
84.04310436266978
 20
-137.4810139630256
 10
84.04310436266978
 20
-137.4810139630256
 10
84.04310436266978
 20
-136.376860860003
 10
84.04310436266978
 20
-136.376860860003
 10
84.04310436266978
 20
-136.376860860003
 10
83.71306421518285
 20
-136.376860860003
 10
83.71306421518285
 20
-136.376860860003
 10
83.71306421518285
 20
-136.376860860003
 10
83.71306421518285
 20
-136.2287217541373
 10
83.71306421518285
 20
-136.2287217541373
 10
84.04517141996094
 20
-136.2139078435507
 10
84.09168020901181
 20
-136.0509548270984
 10
84.12130803018495
 20
-135.9365776569881
 10
84.12130803018495
 20
-135.9365776569881
 10
84.26738007875954
 20
-135.9365776569881
 10
84.26738007875954
 20
-135.9365776569881
 10
84.26738007875954
 20
-135.9365776569881
 10
84.26738007875954
 20
-137.4810139630256
 10
84.26738007875954
 20
-137.4810139630256
 10
84.26738007875954
 20
-137.4810139630256
 10
84.04310436266978
 20
-137.4810139630256
 10
84.04310436266978
 20
-137.4810139630256
 97
        0
 97
        0
 75
     2
 76
     1
 98
        0
  0
SPLINE
  5
CB
330
C5
100
AcDbEntity
  8
_U+30EC_U+30A4_U+30E4_U+30FC 1
370
     0
100
AcDbSpline
210
0.0
220
0.0
230
1.0
 70
    11
 71
     3
 72
    44
 73
    40
 74
     0
 42
0.0000000001
 43
0.0000000001
 12
1.0
 22
0.0
 32
0.0
 13
1.0
 23
0.0
 33
0.0
 40
0.0
 40
0.0
 40
0.0
 40
0.0
 40
1.0
 40
1.0
 40
1.0
 40
2.0
 40
2.0
 40
2.0
 40
3.0
 40
3.0
 40
3.0
 40
4.0
 40
4.0
 40
4.0
 40
5.0
 40
5.0
 40
5.0
 40
6.0
 40
6.0
 40
6.0
 40
7.0
 40
7.0
 40
7.0
 40
8.0
 40
8.0
 40
8.0
 40
9.0
 40
9.0
 40
9.0
 40
10.0
 40
10.0
 40
10.0
 40
11.0
 40
11.0
 40
11.0
 40
12.0
 40
12.0
 40
12.0
 40
13.0
 40
13.0
 40
13.0
 40
13.0
 10
85.36171465964915
 20
-136.8991373355669
 30
0.0
 10
85.1438123702071
 20
-137.0579562374369
 30
0.0
 10
85.0506225373311
 20
-137.1320257903698
 30
0.0
 10
85.00204669098908
 20
-137.2756862721047
 30
0.0
 10
85.00204669098908
 20
-137.2756862721047
 30
0.0
 10
85.78046601588127
 20
-137.2756862721047
 30
0.0
 10
85.78046601588127
 20
-137.2756862721047
 30
0.0
 10
85.78046601588127
 20
-137.2756862721047
 30
0.0
 10
85.78046601588127
 20
-137.4810139630256
 30
0.0
 10
85.78046601588127
 20
-137.4810139630256
 30
0.0
 10
85.78046601588127
 20
-137.4810139630256
 30
0.0
 10
84.75244952308273
 20
-137.4810139630256
 30
0.0
 10
84.75244952308273
 20
-137.4810139630256
 30
0.0
 10
84.78414440154702
 20
-137.1234130516567
 30
0.0
 10
84.84977347054104
 20
-137.0452093841415
 30
0.0
 10
85.2347628910177
 20
-136.7468641151189
 30
0.0
 10
85.49073348557177
 20
-136.5480821056199
 30
0.0
 10
85.55619029979151
 20
-136.4802137245605
 30
0.0
 10
85.55619029979151
 20
-136.342754414699
 30
0.0
 10
85.55619029979151
 20
-136.2242431300064
 30
0.0
 10
85.48436005892405
 20
-136.093329501567
 30
0.0
 10
85.28764510671628
 20
-136.093329501567
 30
0.0
 10
85.02736814280566
 20
-136.093329501567
 30
0.0
 10
85.0189276588668
 20
-136.3238063895302
 30
0.0
 10
85.01462128951023
 20
-136.4402506169316
 30
0.0
 10
85.01462128951023
 20
-136.4402506169316
 30
0.0
 10
84.79051782819474
 20
-136.4402506169316
 30
0.0
 10
84.79051782819474
 20
-136.4402506169316
 30
0.0
 10
84.79895831213359
 20
-136.3131265935259
 30
0.0
 10
84.8094658533636
 20
-136.2011609902553
 30
0.0
 10
84.88990883294419
 20
-136.0826497055627
 30
0.0
 10
84.99980737892366
 20
-135.9217637464015
 30
0.0
 10
85.18601478990142
 20
-135.8880018106461
 30
0.0
 10
85.30245901730287
 20
-135.8880018106461
 30
0.0
 10
85.57961694909122
 20
-135.8880018106461
 30
0.0
 10
85.78683944252899
 20
-136.0719699095584
 30
0.0
 10
85.78683944252899
 20
-136.3448214719902
 30
0.0
 10
85.78683944252899
 20
-136.5735758122108
 30
0.0
 10
85.67056746990181
 20
-136.672794562186
 30
0.0
 10
85.36171465964915
 20
-136.8991373355669
 30
0.0
  0
HATCH
  5
CC
330
C5
100
AcDbEntity
  8
_U+30EC_U+30A4_U+30E4_U+30FC 1
 62
   179
420
  2234388
100
AcDbHatch
 10
0.0
 20
0.0
 30
0.0
210
0.0
220
0.0
230
1.0
  2
SOLID
 70
     1
 71
     0
 91
        1
 92
        1
 93
        1
 72
     4
 94
        3
 73
     0
 74
     1
 95
       44
 96
       40
 40
0.0
 40
0.0
 40
0.0
 40
0.0
 40
1.0
 40
1.0
 40
1.0
 40
2.0
 40
2.0
 40
2.0
 40
3.0
 40
3.0
 40
3.0
 40
4.0
 40
4.0
 40
4.0
 40
5.0
 40
5.0
 40
5.0
 40
6.0
 40
6.0
 40
6.0
 40
7.0
 40
7.0
 40
7.0
 40
8.0
 40
8.0
 40
8.0
 40
9.0
 40
9.0
 40
9.0
 40
10.0
 40
10.0
 40
10.0
 40
11.0
 40
11.0
 40
11.0
 40
12.0
 40
12.0
 40
12.0
 40
13.0
 40
13.0
 40
13.0
 40
13.0
 10
85.36171465964915
 20
-136.8991373355669
 10
85.1438123702071
 20
-137.0579562374369
 10
85.0506225373311
 20
-137.1320257903698
 10
85.00204669098908
 20
-137.2756862721047
 10
85.00204669098908
 20
-137.2756862721047
 10
85.78046601588127
 20
-137.2756862721047
 10
85.78046601588127
 20
-137.2756862721047
 10
85.78046601588127
 20
-137.2756862721047
 10
85.78046601588127
 20
-137.4810139630256
 10
85.78046601588127
 20
-137.4810139630256
 10
85.78046601588127
 20
-137.4810139630256
 10
84.75244952308273
 20
-137.4810139630256
 10
84.75244952308273
 20
-137.4810139630256
 10
84.78414440154702
 20
-137.1234130516567
 10
84.84977347054104
 20
-137.0452093841415
 10
85.2347628910177
 20
-136.7468641151189
 10
85.49073348557177
 20
-136.5480821056199
 10
85.55619029979151
 20
-136.4802137245605
 10
85.55619029979151
 20
-136.342754414699
 10
85.55619029979151
 20
-136.2242431300064
 10
85.48436005892405
 20
-136.093329501567
 10
85.28764510671628
 20
-136.093329501567
 10
85.02736814280566
 20
-136.093329501567
 10
85.0189276588668
 20
-136.3238063895302
 10
85.01462128951023
 20
-136.4402506169316
 10
85.01462128951023
 20
-136.4402506169316
 10
84.79051782819474
 20
-136.4402506169316
 10
84.79051782819474
 20
-136.4402506169316
 10
84.79895831213359
 20
-136.3131265935259
 10
84.8094658533636
 20
-136.2011609902553
 10
84.88990883294419
 20
-136.0826497055627
 10
84.99980737892366
 20
-135.9217637464015
 10
85.18601478990142
 20
-135.8880018106461
 10
85.30245901730287
 20
-135.8880018106461
 10
85.57961694909122
 20
-135.8880018106461
 10
85.78683944252899
 20
-136.0719699095584
 10
85.78683944252899
 20
-136.3448214719902
 10
85.78683944252899
 20
-136.5735758122108
 10
85.67056746990181
 20
-136.672794562186
 10
85.36171465964915
 20
-136.8991373355669
 97
        0
 97
        0
 75
     2
 76
     1
 98
        0
  0
ENDBLK
  5
C8
330
C5
100
AcDbEntity
  8
0
100
AcDbBlockEnd
  0
BLOCK
  5
DB
330
D9
100
AcDbEntity
  8
0
100
AcDbBlockBegin
  2
block 6
 70
     0
 10
0.0
 20
0.0
 30
0.0
  3
block 6
  1

  0
SPLINE
  5
DD
330
D9
100
AcDbEntity
  8
_U+30EC_U+30A4_U+30E4_U+30FC 1
370
     0
100
AcDbSpline
210
0.0
220
0.0
230
1.0
 70
    11
 71
     3
 72
    62
 73
    58
 74
     0
 42
0.0000000001
 43
0.0000000001
 12
1.0
 22
0.0
 32
0.0
 13
1.0
 23
0.0
 33
0.0
 40
0.0
 40
0.0
 40
0.0
 40
0.0
 40
1.0
 40
1.0
 40
1.0
 40
2.0
 40
2.0
 40
2.0
 40
3.0
 40
3.0
 40
3.0
 40
4.0
 40
4.0
 40
4.0
 40
5.0
 40
5.0
 40
5.0
 40
6.0
 40
6.0
 40
6.0
 40
7.0
 40
7.0
 40
7.0
 40
8.0
 40
8.0
 40
8.0
 40
9.0
 40
9.0
 40
9.0
 40
10.0
 40
10.0
 40
10.0
 40
11.0
 40
11.0
 40
11.0
 40
12.0
 40
12.0
 40
12.0
 40
13.0
 40
13.0
 40
13.0
 40
14.0
 40
14.0
 40
14.0
 40
15.0
 40
15.0
 40
15.0
 40
16.0
 40
16.0
 40
16.0
 40
17.0
 40
17.0
 40
17.0
 40
18.0
 40
18.0
 40
18.0
 40
19.0
 40
19.0
 40
19.0
 40
19.0
 10
107.8673176813665
 20
-132.583810730743
 30
0.0
 10
107.8673176813665
 20
-132.6792398756844
 30
0.0
 10
107.8463025989065
 20
-132.8969699103521
 30
0.0
 10
107.660267442703
 20
-133.0220268764667
 30
0.0
 10
107.5479573298838
 20
-133.0957519198511
 30
0.0
 10
107.4487385799086
 20
-133.1002305439819
 30
0.0
 10
107.3639892309715
 20
-133.1043646585642
 30
0.0
 10
107.3639892309715
 20
-133.1043646585642
 30
0.0
 10
107.3639892309715
 20
-132.8842230570567
 30
0.0
 10
107.3639892309715
 20
-132.8842230570567
 30
0.0
 10
107.4380587839044
 20
-132.8821559997656
 30
0.0
 10
107.6726697864499
 20
-132.8718207133098
 30
0.0
 10
107.6726697864499
 20
-132.5882893548738
 30
0.0
 10
107.6726697864499
 20
-132.4508300450123
 30
0.0
 10
107.6030788576478
 20
-132.2982123150157
 30
0.0
 10
107.3746690269758
 20
-132.2982123150157
 30
0.0
 10
107.2582247995743
 20
-132.2982123150157
 30
0.0
 10
107.2096489532323
 20
-132.336452874902
 30
0.0
 10
107.177954074768
 20
-132.3681477533663
 30
0.0
 10
107.1038845218351
 20
-132.4422173062992
 30
0.0
 10
107.0911376685397
 20
-132.5586615337006
 30
0.0
 10
107.0911376685397
 20
-132.6134385519161
 30
0.0
 10
107.0911376685397
 20
-132.6327310866335
 30
0.0
 10
107.0932047258309
 20
-132.6685600796801
 30
0.0
 10
107.0973388404132
 20
-132.6961208435621
 30
0.0
 10
107.0973388404132
 20
-132.6961208435621
 30
0.0
 10
106.9026909454966
 20
-132.6961208435621
 30
0.0
 10
106.9026909454966
 20
-132.6961208435621
 30
0.0
 10
106.9092366269185
 20
-132.6578802836758
 30
0.0
 10
106.9113036842097
 20
-132.6158501187558
 30
0.0
 10
106.9113036842097
 20
-132.6093044373338
 30
0.0
 10
106.9113036842097
 20
-132.543847623114
 30
0.0
 10
106.8899440922011
 20
-132.3450656136151
 30
0.0
 10
106.6532660323645
 20
-132.3450656136151
 30
0.0
 10
106.4754991053256
 20
-132.3450656136151
 30
0.0
 10
106.4203775775616
 20
-132.4759792420546
 30
0.0
 10
106.4203775775616
 20
-132.5862222975826
 30
0.0
 10
106.4203775775616
 20
-132.8504611213013
 30
0.0
 10
106.6532660323645
 20
-132.8590738600144
 30
0.0
 10
106.7249240184577
 20
-132.8632079745967
 30
0.0
 10
106.7249240184577
 20
-132.8632079745967
 30
0.0
 10
106.7249240184577
 20
-133.0664686082264
 30
0.0
 10
106.7249240184577
 20
-133.0664686082264
 30
0.0
 10
106.6002115618916
 20
-133.0578558695133
 30
0.0
 10
106.2236626253538
 20
-133.0302951056313
 30
0.0
 10
106.2236626253538
 20
-132.5734754442872
 30
0.0
 10
106.2236626253538
 20
-132.3491997281974
 30
0.0
 10
106.3507866487595
 20
-132.1080430442299
 30
0.0
 10
106.6467203509425
 20
-132.1080430442299
 30
0.0
 10
106.8331000166945
 20
-132.1080430442299
 30
0.0
 10
106.915437798792
 20
-132.2031276796228
 30
0.0
 10
106.9767604984294
 20
-132.3026909391465
 30
0.0
 10
107.0043212623114
 20
-132.2413682395091
 30
0.0
 10
107.0845919871177
 20
-132.0594671978879
 30
0.0
 10
107.3619221736804
 20
-132.0594671978879
 30
0.0
 10
107.7002305503319
 20
-132.0594671978879
 30
0.0
 10
107.8673176813665
 20
-132.3068250537289
 30
0.0
 10
107.8673176813665
 20
-132.583810730743
 30
0.0
  0
HATCH
  5
DE
330
D9
100
AcDbEntity
  8
_U+30EC_U+30A4_U+30E4_U+30FC 1
 62
   179
420
  2234388
100
AcDbHatch
 10
0.0
 20
0.0
 30
0.0
210
0.0
220
0.0
230
1.0
  2
SOLID
 70
     1
 71
     0
 91
        1
 92
        1
 93
        1
 72
     4
 94
        3
 73
     0
 74
     1
 95
       62
 96
       58
 40
0.0
 40
0.0
 40
0.0
 40
0.0
 40
1.0
 40
1.0
 40
1.0
 40
2.0
 40
2.0
 40
2.0
 40
3.0
 40
3.0
 40
3.0
 40
4.0
 40
4.0
 40
4.0
 40
5.0
 40
5.0
 40
5.0
 40
6.0
 40
6.0
 40
6.0
 40
7.0
 40
7.0
 40
7.0
 40
8.0
 40
8.0
 40
8.0
 40
9.0
 40
9.0
 40
9.0
 40
10.0
 40
10.0
 40
10.0
 40
11.0
 40
11.0
 40
11.0
 40
12.0
 40
12.0
 40
12.0
 40
13.0
 40
13.0
 40
13.0
 40
14.0
 40
14.0
 40
14.0
 40
15.0
 40
15.0
 40
15.0
 40
16.0
 40
16.0
 40
16.0
 40
17.0
 40
17.0
 40
17.0
 40
18.0
 40
18.0
 40
18.0
 40
19.0
 40
19.0
 40
19.0
 40
19.0
 10
107.8673176813665
 20
-132.583810730743
 10
107.8673176813665
 20
-132.6792398756844
 10
107.8463025989065
 20
-132.8969699103521
 10
107.660267442703
 20
-133.0220268764667
 10
107.5479573298838
 20
-133.0957519198511
 10
107.4487385799086
 20
-133.1002305439819
 10
107.3639892309715
 20
-133.1043646585642
 10
107.3639892309715
 20
-133.1043646585642
 10
107.3639892309715
 20
-132.8842230570567
 10
107.3639892309715
 20
-132.8842230570567
 10
107.4380587839044
 20
-132.8821559997656
 10
107.6726697864499
 20
-132.8718207133098
 10
107.6726697864499
 20
-132.5882893548738
 10
107.6726697864499
 20
-132.4508300450123
 10
107.6030788576478
 20
-132.2982123150157
 10
107.3746690269758
 20
-132.2982123150157
 10
107.2582247995743
 20
-132.2982123150157
 10
107.2096489532323
 20
-132.336452874902
 10
107.177954074768
 20
-132.3681477533663
 10
107.1038845218351
 20
-132.4422173062992
 10
107.0911376685397
 20
-132.5586615337006
 10
107.0911376685397
 20
-132.6134385519161
 10
107.0911376685397
 20
-132.6327310866335
 10
107.0932047258309
 20
-132.6685600796801
 10
107.0973388404132
 20
-132.6961208435621
 10
107.0973388404132
 20
-132.6961208435621
 10
106.9026909454966
 20
-132.6961208435621
 10
106.9026909454966
 20
-132.6961208435621
 10
106.9092366269185
 20
-132.6578802836758
 10
106.9113036842097
 20
-132.6158501187558
 10
106.9113036842097
 20
-132.6093044373338
 10
106.9113036842097
 20
-132.543847623114
 10
106.8899440922011
 20
-132.3450656136151
 10
106.6532660323645
 20
-132.3450656136151
 10
106.4754991053256
 20
-132.3450656136151
 10
106.4203775775616
 20
-132.4759792420546
 10
106.4203775775616
 20
-132.5862222975826
 10
106.4203775775616
 20
-132.8504611213013
 10
106.6532660323645
 20
-132.8590738600144
 10
106.7249240184577
 20
-132.8632079745967
 10
106.7249240184577
 20
-132.8632079745967
 10
106.7249240184577
 20
-133.0664686082264
 10
106.7249240184577
 20
-133.0664686082264
 10
106.6002115618916
 20
-133.0578558695133
 10
106.2236626253538
 20
-133.0302951056313
 10
106.2236626253538
 20
-132.5734754442872
 10
106.2236626253538
 20
-132.3491997281974
 10
106.3507866487595
 20
-132.1080430442299
 10
106.6467203509425
 20
-132.1080430442299
 10
106.8331000166945
 20
-132.1080430442299
 10
106.915437798792
 20
-132.2031276796228
 10
106.9767604984294
 20
-132.3026909391465
 10
107.0043212623114
 20
-132.2413682395091
 10
107.0845919871177
 20
-132.0594671978879
 10
107.3619221736804
 20
-132.0594671978879
 10
107.7002305503319
 20
-132.0594671978879
 10
107.8673176813665
 20
-132.3068250537289
 10
107.8673176813665
 20
-132.583810730743
 97
        0
 97
        0
 75
     2
 76
     1
 98
        0
  0
ENDBLK
  5
DC
330
D9
100
AcDbEntity
  8
0
100
AcDbBlockEnd
  0
ENDSEC
  0
SECTION
  2
ENTITIES
  0
POLYLINE
  5
41
330
1F
100
AcDbEntity
  8
_U+30EC_U+30A4_U+30E4_U+30FC 1
 62
   179
420
  2234388
370
     9
100
AcDb2dPolyline
 66
     1
 10
0.0
 20
0.0
 30
0.0
  0
VERTEX
  5
42
330
41
100
AcDbEntity
  8
_U+30EC_U+30A4_U+30E4_U+30FC 1
 62
   179
420
  2234388
370
     9
100
AcDbVertex
100
AcDb2dVertex
 10
104.6413298303773
 20
-131.1265474672183
 30
0.0
  0
VERTEX
  5
43
330
41
100
AcDbEntity
  8
_U+30EC_U+30A4_U+30E4_U+30FC 1
 62
   179
420
  2234388
370
     9
100
AcDbVertex
100
AcDb2dVertex
 10
104.6413298303773
 20
-121.626700525149
 30
0.0
  0
SEQEND
  5
44
330
41
100
AcDbEntity
  8
_U+30EC_U+30A4_U+30E4_U+30FC 1
 62
   179
420
  2234388
370
     9
  0
POLYLINE
  5
45
330
1F
100
AcDbEntity
  8
_U+30EC_U+30A4_U+30E4_U+30FC 1
 62
   179
420
  2234388
370
    25
100
AcDb2dPolyline
 66
     1
 10
0.0
 20
0.0
 30
0.0
  0
VERTEX
  5
46
330
45
100
AcDbEntity
  8
_U+30EC_U+30A4_U+30E4_U+30FC 1
 62
   179
420
  2234388
370
    25
100
AcDbVertex
100
AcDb2dVertex
 10
78.6809782704588
 20
-121.626700525149
 30
0.0
  0
VERTEX
  5
47
330
45
100
AcDbEntity
  8
_U+30EC_U+30A4_U+30E4_U+30FC 1
 62
   179
420
  2234388
370
    25
100
AcDbVertex
100
AcDb2dVertex
 10
91.6808743276927
 20
-121.626700525149
 30
0.0
  0
SEQEND
  5
48
330
45
100
AcDbEntity
  8
_U+30EC_U+30A4_U+30E4_U+30FC 1
 62
   179
420
  2234388
370
    25
  0
POLYLINE
  5
49
330
1F
100
AcDbEntity
  8
_U+30EC_U+30A4_U+30E4_U+30FC 1
 62
   179
420
  2234388
370
    25
100
AcDb2dPolyline
 66
     1
 10
0.0
 20
0.0
 30
0.0
  0
VERTEX
  5
4A
330
49
100
AcDbEntity
  8
_U+30EC_U+30A4_U+30E4_U+30FC 1
 62
   179
420
  2234388
370
    25
100
AcDbVertex
100
AcDb2dVertex
 10
90.6809257420924
 20
-122.6266138582323
 30
0.0
  0
VERTEX
  5
4B
330
49
100
AcDbEntity
  8
_U+30EC_U+30A4_U+30E4_U+30FC 1
 62
   179
420
  2234388
370
    25
100
AcDbVertex
100
AcDb2dVertex
 10
90.6809257420924
 20
-134.1265344109127
 30
0.0
  0
SEQEND
  5
4C
330
49
100
AcDbEntity
  8
_U+30EC_U+30A4_U+30E4_U+30FC 1
 62
   179
420
  2234388
370
    25
  0
POLYLINE
  5
4D
330
1F
100
AcDbEntity
  8
_U+30EC_U+30A4_U+30E4_U+30FC 1
 62
   179
420
  2234388
370
    25
100
AcDb2dPolyline
 66
     1
 10
0.0
 20
0.0
 30
0.0
  0
VERTEX
  5
4E
330
4D
100
AcDbEntity
  8
_U+30EC_U+30A4_U+30E4_U+30FC 1
 62
   179
420
  2234388
370
    25
100
AcDbVertex
100
AcDb2dVertex
 10
78.6809782704588
 20
-122.6266138582323
 30
0.0
  0
VERTEX
  5
4F
330
4D
100
AcDbEntity
  8
_U+30EC_U+30A4_U+30E4_U+30FC 1
 62
   179
420
  2234388
370
    25
100
AcDbVertex
100
AcDb2dVertex
 10
90.6809257420924
 20
-122.6266138582323
 30
0.0
  0
SEQEND
  5
50
330
4D
100
AcDbEntity
  8
_U+30EC_U+30A4_U+30E4_U+30FC 1
 62
   179
420
  2234388
370
    25
  0
POLYLINE
  5
51
330
1F
100
AcDbEntity
  8
_U+30EC_U+30A4_U+30E4_U+30FC 1
 62
   179
420
  2234388
370
    25
100
AcDb2dPolyline
 66
     1
 10
0.0
 20
0.0
 30
0.0
  0
VERTEX
  5
52
330
51
100
AcDbEntity
  8
_U+30EC_U+30A4_U+30E4_U+30FC 1
 62
   179
420
  2234388
370
    25
100
AcDbVertex
100
AcDb2dVertex
 10
78.6809782704588
 20
-121.626700525149
 30
0.0
  0
VERTEX
  5
53
330
51
100
AcDbEntity
  8
_U+30EC_U+30A4_U+30E4_U+30FC 1
 62
   179
420
  2234388
370
    25
100
AcDbVertex
100
AcDb2dVertex
 10
78.6809782704588
 20
-122.6266138582323
 30
0.0
  0
SEQEND
  5
54
330
51
100
AcDbEntity
  8
_U+30EC_U+30A4_U+30E4_U+30FC 1
 62
   179
420
  2234388
370
    25
  0
POLYLINE
  5
55
330
1F
100
AcDbEntity
  8
_U+30EC_U+30A4_U+30E4_U+30FC 1
 62
   179
420
  2234388
370
    25
100
AcDb2dPolyline
 66
     1
 10
0.0
 20
0.0
 30
0.0
  0
VERTEX
  5
56
330
55
100
AcDbEntity
  8
_U+30EC_U+30A4_U+30E4_U+30FC 1
 62
   179
420
  2234388
370
    25
100
AcDbVertex
100
AcDb2dVertex
 10
97.6808480635095
 20
-131.1265474672183
 30
0.0
  0
VERTEX
  5
57
330
55
100
AcDbEntity
  8
_U+30EC_U+30A4_U+30E4_U+30FC 1
 62
   179
420
  2234388
370
    25
100
AcDbVertex
100
AcDb2dVertex
 10
97.6808480635095
 20
-132.1263196891908
 30
0.0
  0
SEQEND
  5
58
330
55
100
AcDbEntity
  8
_U+30EC_U+30A4_U+30E4_U+30FC 1
 62
   179
420
  2234388
370
    25
  0
POLYLINE
  5
59
330
1F
100
AcDbEntity
  8
_U+30EC_U+30A4_U+30E4_U+30FC 1
 62
   179
420
  2234388
370
    25
100
AcDb2dPolyline
 66
     1
 10
0.0
 20
0.0
 30
0.0
  0
VERTEX
  5
5A
330
59
100
AcDbEntity
  8
_U+30EC_U+30A4_U+30E4_U+30FC 1
 62
   179
420
  2234388
370
    25
100
AcDbVertex
100
AcDb2dVertex
 10
91.6808743276927
 20
-121.626700525149
 30
0.0
  0
VERTEX
  5
5B
330
59
100
AcDbEntity
  8
_U+30EC_U+30A4_U+30E4_U+30FC 1
 62
   179
420
  2234388
370
    25
100
AcDbVertex
100
AcDb2dVertex
 10
91.6808743276927
 20
-133.0268555222991
 30
0.0
  0
SEQEND
  5
5C
330
59
100
AcDbEntity
  8
_U+30EC_U+30A4_U+30E4_U+30FC 1
 62
   179
420
  2234388
370
    25
  0
POLYLINE
  5
5D
330
1F
100
AcDbEntity
  8
_U+30EC_U+30A4_U+30E4_U+30FC 1
 62
   179
420
  2234388
370
    25
100
AcDb2dPolyline
 66
     1
 10
0.0
 20
0.0
 30
0.0
  0
VERTEX
  5
5E
330
5D
100
AcDbEntity
  8
_U+30EC_U+30A4_U+30E4_U+30FC 1
 62
   179
420
  2234388
370
    25
100
AcDbVertex
100
AcDb2dVertex
 10
100.6808349314179
 20
-131.1265474672183
 30
0.0
  0
VERTEX
  5
5F
330
5D
100
AcDbEntity
  8
_U+30EC_U+30A4_U+30E4_U+30FC 1
 62
   179
420
  2234388
370
    25
100
AcDbVertex
100
AcDb2dVertex
 10
100.6808349314179
 20
-134.1265344109127
 30
0.0
  0
SEQEND
  5
60
330
5D
100
AcDbEntity
  8
_U+30EC_U+30A4_U+30E4_U+30FC 1
 62
   179
420
  2234388
370
    25
  0
POLYLINE
  5
61
330
1F
100
AcDbEntity
  8
_U+30EC_U+30A4_U+30E4_U+30FC 1
 62
   179
420
  2234388
370
    25
100
AcDb2dPolyline
 66
     1
 10
0.0
 20
0.0
 30
0.0
  0
VERTEX
  5
62
330
61
100
AcDbEntity
  8
_U+30EC_U+30A4_U+30E4_U+30FC 1
 62
   179
420
  2234388
370
    25
100
AcDbVertex
100
AcDb2dVertex
 10
99.681062734702
 20
-132.1263196891908
 30
0.0
  0
VERTEX
  5
63
330
61
100
AcDbEntity
  8
_U+30EC_U+30A4_U+30E4_U+30FC 1
 62
   179
420
  2234388
370
    25
100
AcDbVertex
100
AcDb2dVertex
 10
99.681062734702
 20
-133.1267621889407
 30
0.0
  0
SEQEND
  5
64
330
61
100
AcDbEntity
  8
_U+30EC_U+30A4_U+30E4_U+30FC 1
 62
   179
420
  2234388
370
    25
  0
POLYLINE
  5
65
330
1F
100
AcDbEntity
  8
_U+30EC_U+30A4_U+30E4_U+30FC 1
 62
   179
420
  2234388
370
    25
100
AcDb2dPolyline
 66
     1
 10
0.0
 20
0.0
 30
0.0
  0
VERTEX
  5
66
330
65
100
AcDbEntity
  8
_U+30EC_U+30A4_U+30E4_U+30FC 1
 62
   179
420
  2234388
370
    25
100
AcDbVertex
100
AcDb2dVertex
 10
91.6808743276927
 20
-133.1267621889407
 30
0.0
  0
VERTEX
  5
67
330
65
100
AcDbEntity
  8
_U+30EC_U+30A4_U+30E4_U+30FC 1
 62
   179
420
  2234388
370
    25
100
AcDbVertex
100
AcDb2dVertex
 10
99.681062734702
 20
-133.1267621889407
 30
0.0
  0
SEQEND
  5
68
330
65
100
AcDbEntity
  8
_U+30EC_U+30A4_U+30E4_U+30FC 1
 62
   179
420
  2234388
370
    25
  0
POLYLINE
  5
69
330
1F
100
AcDbEntity
  8
_U+30EC_U+30A4_U+30E4_U+30FC 1
 62
   179
420
  2234388
370
    25
100
AcDb2dPolyline
 66
     1
 10
0.0
 20
0.0
 30
0.0
  0
VERTEX
  5
6A
330
69
100
AcDbEntity
  8
_U+30EC_U+30A4_U+30E4_U+30FC 1
 62
   179
420
  2234388
370
    25
100
AcDbVertex
100
AcDb2dVertex
 10
97.6808480635095
 20
-132.1263196891908
 30
0.0
  0
VERTEX
  5
6B
330
69
100
AcDbEntity
  8
_U+30EC_U+30A4_U+30E4_U+30FC 1
 62
   179
420
  2234388
370
    25
100
AcDbVertex
100
AcDb2dVertex
 10
99.681062734702
 20
-132.1263196891908
 30
0.0
  0
SEQEND
  5
6C
330
69
100
AcDbEntity
  8
_U+30EC_U+30A4_U+30E4_U+30FC 1
 62
   179
420
  2234388
370
    25
  0
POLYLINE
  5
6D
330
1F
100
AcDbEntity
  8
_U+30EC_U+30A4_U+30E4_U+30FC 1
 62
   179
420
  2234388
370
    25
100
AcDb2dPolyline
 66
     1
 10
0.0
 20
0.0
 30
0.0
  0
VERTEX
  5
6E
330
6D
100
AcDbEntity
  8
_U+30EC_U+30A4_U+30E4_U+30FC 1
 62
   179
420
  2234388
370
    25
100
AcDbVertex
100
AcDb2dVertex
 10
97.6808480635095
 20
-131.1265474672183
 30
0.0
  0
VERTEX
  5
6F
330
6D
100
AcDbEntity
  8
_U+30EC_U+30A4_U+30E4_U+30FC 1
 62
   179
420
  2234388
370
    25
100
AcDbVertex
100
AcDb2dVertex
 10
100.6808349314179
 20
-131.1265474672183
 30
0.0
  0
SEQEND
  5
70
330
6D
100
AcDbEntity
  8
_U+30EC_U+30A4_U+30E4_U+30FC 1
 62
   179
420
  2234388
370
    25
  0
POLYLINE
  5
71
330
1F
100
AcDbEntity
  8
_U+30EC_U+30A4_U+30E4_U+30FC 1
 62
   179
420
  2234388
370
    25
100
AcDb2dPolyline
 66
     1
 10
0.0
 20
0.0
 30
0.0
  0
VERTEX
  5
72
330
71
100
AcDbEntity
  8
_U+30EC_U+30A4_U+30E4_U+30FC 1
 62
   179
420
  2234388
370
    25
100
AcDbVertex
100
AcDb2dVertex
 10
90.6809257420924
 20
-134.1265344109127
 30
0.0
  0
VERTEX
  5
73
330
71
100
AcDbEntity
  8
_U+30EC_U+30A4_U+30E4_U+30FC 1
 62
   179
420
  2234388
370
    25
100
AcDbVertex
100
AcDb2dVertex
 10
100.6808349314179
 20
-134.1265344109127
 30
0.0
  0
SEQEND
  5
74
330
71
100
AcDbEntity
  8
_U+30EC_U+30A4_U+30E4_U+30FC 1
 62
   179
420
  2234388
370
    25
  0
SPLINE
  5
75
330
1F
100
AcDbEntity
  8
_U+30EC_U+30A4_U+30E4_U+30FC 1
 62
   179
420
  2234388
370
     9
100
AcDbSpline
210
0.0
220
0.0
230
1.0
 70
    11
 71
     3
 72
    17
 73
    13
 74
     0
 42
0.0000000001
 43
0.0000000001
 12
1.0
 22
0.0
 32
0.0
 13
1.0
 23
0.0
 33
0.0
 40
0.0
 40
0.0
 40
0.0
 40
0.0
 40
1.0
 40
1.0
 40
1.0
 40
2.0
 40
2.0
 40
2.0
 40
3.0
 40
3.0
 40
3.0
 40
4.0
 40
4.0
 40
4.0
 40
4.0
 10
104.7412364944951
 20
-121.6265241362601
 30
0.0
 10
104.7412364944951
 20
-121.571384969607
 30
0.0
 10
104.6964337178603
 20
-121.5266174696185
 30
0.0
 10
104.6413298303773
 20
-121.5266174696185
 30
0.0
 10
104.5861906651173
 20
-121.5266174696185
 30
0.0
 10
104.5414231662594
 20
-121.571384969607
 30
0.0
 10
104.5414231662594
 20
-121.6265241362601
 30
0.0
 10
104.5414231662594
 20
-121.6819808029128
 30
0.0
 10
104.5861906651173
 20
-121.7267483029017
 30
0.0
 10
104.6413298303773
 20
-121.7267483029017
 30
0.0
 10
104.6964337178603
 20
-121.7267483029017
 30
0.0
 10
104.7412364944951
 20
-121.6819808029128
 30
0.0
 10
104.7412364944951
 20
-121.6265241362601
 30
0.0
  0
SPLINE
  5
76
330
1F
100
AcDbEntity
  8
_U+30EC_U+30A4_U+30E4_U+30FC 1
 62
   179
420
  2234388
370
     9
100
AcDbSpline
210
0.0
220
0.0
230
1.0
 70
    11
 71
     3
 72
    17
 73
    13
 74
     0
 42
0.0000000001
 43
0.0000000001
 12
1.0
 22
0.0
 32
0.0
 13
1.0
 23
0.0
 33
0.0
 40
0.0
 40
0.0
 40
0.0
 40
0.0
 40
1.0
 40
1.0
 40
1.0
 40
2.0
 40
2.0
 40
2.0
 40
3.0
 40
3.0
 40
3.0
 40
4.0
 40
4.0
 40
4.0
 40
4.0
 10
104.7412364944951
 20
-131.1265474672183
 30
0.0
 10
104.7412364944951
 20
-131.0714083005652
 30
0.0
 10
104.6964337178603
 20
-131.0266408005767
 30
0.0
 10
104.6413298303773
 20
-131.0266408005767
 30
0.0
 10
104.5861906651173
 20
-131.0266408005767
 30
0.0
 10
104.5414231662594
 20
-131.0714083005652
 30
0.0
 10
104.5414231662594
 20
-131.1265474672183
 30
0.0
 10
104.5414231662594
 20
-131.1816513560932
 30
0.0
 10
104.5861906651173
 20
-131.2264541338599
 30
0.0
 10
104.6413298303773
 20
-131.2264541338599
 30
0.0
 10
104.6964337178603
 20
-131.2264541338599
 30
0.0
 10
104.7412364944951
 20
-131.1816513560932
 30
0.0
 10
104.7412364944951
 20
-131.1265474672183
 30
0.0
  0
SPLINE
  5
77
330
1F
100
AcDbEntity
  8
_U+30EC_U+30A4_U+30E4_U+30FC 1
 62
   179
420
  2234388
370
     9
100
AcDbSpline
210
0.0
220
0.0
230
1.0
 70
    11
 71
     3
 72
    17
 73
    13
 74
     0
 42
0.0000000001
 43
0.0000000001
 12
1.0
 22
0.0
 32
0.0
 13
1.0
 23
0.0
 33
0.0
 40
0.0
 40
0.0
 40
0.0
 40
0.0
 40
1.0
 40
1.0
 40
1.0
 40
2.0
 40
2.0
 40
2.0
 40
3.0
 40
3.0
 40
3.0
 40
4.0
 40
4.0
 40
4.0
 40
4.0
 10
104.7412364944951
 20
-134.1265344109127
 30
0.0
 10
104.7412364944951
 20
-134.0713952442602
 30
0.0
 10
104.6964337178603
 20
-134.026627744271
 30
0.0
 10
104.6413298303773
 20
-134.026627744271
 30
0.0
 10
104.5861906651173
 20
-134.026627744271
 30
0.0
 10
104.5414231662594
 20
-134.0713952442602
 30
0.0
 10
104.5414231662594
 20
-134.1265344109127
 30
0.0
 10
104.5414231662594
 20
-134.1816382997882
 30
0.0
 10
104.5861906651173
 20
-134.2264410775543
 30
0.0
 10
104.6413298303773
 20
-134.2264410775543
 30
0.0
 10
104.6964337178603
 20
-134.2264410775543
 30
0.0
 10
104.7412364944951
 20
-134.1816382997882
 30
0.0
 10
104.7412364944951
 20
-134.1265344109127
 30
0.0
  0
SPLINE
  5
78
330
1F
100
AcDbEntity
  8
_U+30EC_U+30A4_U+30E4_U+30FC 1
 62
   179
420
  2234388
370
     9
100
AcDbSpline
210
0.0
220
0.0
230
1.0
 70
    11
 71
     3
 72
    17
 73
    13
 74
     0
 42
0.0000000001
 43
0.0000000001
 12
1.0
 22
0.0
 32
0.0
 13
1.0
 23
0.0
 33
0.0
 40
0.0
 40
0.0
 40
0.0
 40
0.0
 40
1.0
 40
1.0
 40
1.0
 40
2.0
 40
2.0
 40
2.0
 40
3.0
 40
3.0
 40
3.0
 40
4.0
 40
4.0
 40
4.0
 40
4.0
 10
100.7807415955357
 20
-138.1269638543569
 30
0.0
 10
100.7807415955357
 20
-138.0711544099265
 30
0.0
 10
100.7359740966779
 20
-138.0270571877153
 30
0.0
 10
100.6808349314179
 20
-138.0270571877153
 30
0.0
 10
100.6257310439348
 20
-138.0270571877153
 30
0.0
 10
100.5809282673001
 20
-138.0711544099265
 30
0.0
 10
100.5809282673001
 20
-138.1269638543569
 30
0.0
 10
100.5809282673001
 20
-138.1813974654544
 30
0.0
 10
100.6257310439348
 20
-138.2268705209985
 30
0.0
 10
100.6808349314179
 20
-138.2268705209985
 30
0.0
 10
100.7359740966779
 20
-138.2268705209985
 30
0.0
 10
100.7807415955357
 20
-138.1813974654544
 30
0.0
 10
100.7807415955357
 20
-138.1269638543569
 30
0.0
  0
SPLINE
  5
79
330
1F
100
AcDbEntity
  8
_U+30EC_U+30A4_U+30E4_U+30FC 1
 62
   179
420
  2234388
370
     9
100
AcDbSpline
210
0.0
220
0.0
230
1.0
 70
    11
 71
     3
 72
    17
 73
    13
 74
     0
 42
0.0000000001
 43
0.0000000001
 12
1.0
 22
0.0
 32
0.0
 13
1.0
 23
0.0
 33
0.0
 40
0.0
 40
0.0
 40
0.0
 40
0.0
 40
1.0
 40
1.0
 40
1.0
 40
2.0
 40
2.0
 40
2.0
 40
3.0
 40
3.0
 40
3.0
 40
4.0
 40
4.0
 40
4.0
 40
4.0
 10
78.78088493457662
 20
-138.1269638543569
 30
0.0
 10
78.78088493457662
 20
-138.0711544099265
 30
0.0
 10
78.73611942476053
 20
-138.0270571877153
 30
0.0
 10
78.6809782704588
 20
-138.0270571877153
 30
0.0
 10
78.62552160520694
 20
-138.0270571877153
 30
0.0
 10
78.58071882857217
 20
-138.0711544099265
 30
0.0
 10
78.58071882857217
 20
-138.1269638543569
 30
0.0
 10
78.58071882857217
 20
-138.1813974654544
 30
0.0
 10
78.62552160520694
 20
-138.2268705209985
 30
0.0
 10
78.6809782704588
 20
-138.2268705209985
 30
0.0
 10
78.73611942476053
 20
-138.2268705209985
 30
0.0
 10
78.78088493457662
 20
-138.1813974654544
 30
0.0
 10
78.78088493457662
 20
-138.1269638543569
 30
0.0
  0
SPLINE
  5
7A
330
1F
100
AcDbEntity
  8
_U+30EC_U+30A4_U+30E4_U+30FC 1
 62
   179
420
  2234388
370
     9
100
AcDbSpline
210
0.0
220
0.0
230
1.0
 70
    11
 71
     3
 72
    17
 73
    13
 74
     0
 42
0.0000000001
 43
0.0000000001
 12
1.0
 22
0.0
 32
0.0
 13
1.0
 23
0.0
 33
0.0
 40
0.0
 40
0.0
 40
0.0
 40
0.0
 40
1.0
 40
1.0
 40
1.0
 40
2.0
 40
2.0
 40
2.0
 40
3.0
 40
3.0
 40
3.0
 40
4.0
 40
4.0
 40
4.0
 40
4.0
 10
76.54469721384875
 20
-121.5543458029448
 30
0.0
 10
76.54469721384875
 20
-121.4992066362917
 30
0.0
 10
76.49989443721398
 20
-121.4544391363032
 30
0.0
 10
76.44443777196214
 20
-121.4544391363032
 30
0.0
 10
76.38929860670218
 20
-121.4544391363032
 30
0.0
 10
76.3445311078443
 20
-121.4992066362917
 30
0.0
 10
76.3445311078443
 20
-121.5543458029448
 30
0.0
 10
76.3445311078443
 20
-121.6098024695975
 30
0.0
 10
76.38929860670218
 20
-121.6546052473642
 30
0.0
 10
76.44443777196214
 20
-121.6546052473642
 30
0.0
 10
76.49989443721398
 20
-121.6546052473642
 30
0.0
 10
76.54469721384875
 20
-121.6098024695975
 30
0.0
 10
76.54469721384875
 20
-121.5543458029448
 30
0.0
  0
SPLINE
  5
7B
330
1F
100
AcDbEntity
  8
_U+30EC_U+30A4_U+30E4_U+30FC 1
 62
   179
420
  2234388
370
     9
100
AcDbSpline
210
0.0
220
0.0
230
1.0
 70
    11
 71
     3
 72
    17
 73
    13
 74
     0
 42
0.0000000001
 43
0.0000000001
 12
1.0
 22
0.0
 32
0.0
 13
1.0
 23
0.0
 33
0.0
 40
0.0
 40
0.0
 40
0.0
 40
0.0
 40
1.0
 40
1.0
 40
1.0
 40
2.0
 40
2.0
 40
2.0
 40
3.0
 40
3.0
 40
3.0
 40
4.0
 40
4.0
 40
4.0
 40
4.0
 10
76.54469721384875
 20
-122.6543421915586
 30
0.0
 10
76.54469721384875
 20
-122.5992383026837
 30
0.0
 10
76.49989443721398
 20
-122.554435524917
 30
0.0
 10
76.44443777196214
 20
-122.554435524917
 30
0.0
 10
76.38929860670218
 20
-122.554435524917
 30
0.0
 10
76.3445311078443
 20
-122.5992383026837
 30
0.0
 10
76.3445311078443
 20
-122.6543421915586
 30
0.0
 10
76.3445311078443
 20
-122.7098341359891
 30
0.0
 10
76.38929860670218
 20
-122.754601635978
 30
0.0
 10
76.44443777196214
 20
-122.754601635978
 30
0.0
 10
76.49989443721398
 20
-122.754601635978
 30
0.0
 10
76.54469721384875
 20
-122.7098341359891
 30
0.0
 10
76.54469721384875
 20
-122.6543421915586
 30
0.0
  0
SPLINE
  5
7C
330
1F
100
AcDbEntity
  8
_U+30EC_U+30A4_U+30E4_U+30FC 1
 62
   179
420
  2234388
370
     9
100
AcDbSpline
210
0.0
220
0.0
230
1.0
 70
    11
 71
     3
 72
    17
 73
    13
 74
     0
 42
0.0000000001
 43
0.0000000001
 12
1.0
 22
0.0
 32
0.0
 13
1.0
 23
0.0
 33
0.0
 40
0.0
 40
0.0
 40
0.0
 40
0.0
 40
1.0
 40
1.0
 40
1.0
 40
2.0
 40
2.0
 40
2.0
 40
3.0
 40
3.0
 40
3.0
 40
4.0
 40
4.0
 40
4.0
 40
4.0
 10
90.78101108841598
 20
-138.1269638543569
 30
0.0
 10
90.78101108841598
 20
-138.0711544099265
 30
0.0
 10
90.73624129623674
 20
-138.0270571877153
 30
0.0
 10
90.68078463098489
 20
-138.0270571877153
 30
0.0
 10
90.62564546572494
 20
-138.0270571877153
 30
0.0
 10
90.58084268909018
 20
-138.0711544099265
 30
0.0
 10
90.58084268909018
 20
-138.1269638543569
 30
0.0
 10
90.58084268909018
 20
-138.1813974654544
 30
0.0
 10
90.62564546572494
 20
-138.2268705209985
 30
0.0
 10
90.68078463098489
 20
-138.2268705209985
 30
0.0
 10
90.73624129623674
 20
-138.2268705209985
 30
0.0
 10
90.78101108841598
 20
-138.1813974654544
 30
0.0
 10
90.78101108841598
 20
-138.1269638543569
 30
0.0
  0
POLYLINE
  5
7D
330
1F
100
AcDbEntity
  8
_U+30EC_U+30A4_U+30E4_U+30FC 1
 62
   179
420
  2234388
370
     9
100
AcDb2dPolyline
 66
     1
 10
0.0
 20
0.0
 30
0.0
  0
VERTEX
  5
7E
330
7D
100
AcDbEntity
  8
_U+30EC_U+30A4_U+30E4_U+30FC 1
 62
   179
420
  2234388
370
     9
100
AcDbVertex
100
AcDb2dVertex
 10
90.6809257420924
 20
-138.1269638543569
 30
0.0
  0
VERTEX
  5
7F
330
7D
100
AcDbEntity
  8
_U+30EC_U+30A4_U+30E4_U+30FC 1
 62
   179
420
  2234388
370
     9
100
AcDbVertex
100
AcDb2dVertex
 10
100.6808349314179
 20
-138.1269638543569
 30
0.0
  0
SEQEND
  5
80
330
7D
100
AcDbEntity
  8
_U+30EC_U+30A4_U+30E4_U+30FC 1
 62
   179
420
  2234388
370
     9
  0
POLYLINE
  5
81
330
1F
100
AcDbEntity
  8
_U+30EC_U+30A4_U+30E4_U+30FC 1
 62
   179
420
  2234388
370
     9
100
AcDb2dPolyline
 66
     1
 10
0.0
 20
0.0
 30
0.0
  0
VERTEX
  5
82
330
81
100
AcDbEntity
  8
_U+30EC_U+30A4_U+30E4_U+30FC 1
 62
   179
420
  2234388
370
     9
100
AcDbVertex
100
AcDb2dVertex
 10
100.6808349314179
 20
-135.9661999660082
 30
0.0
  0
VERTEX
  5
83
330
81
100
AcDbEntity
  8
_U+30EC_U+30A4_U+30E4_U+30FC 1
 62
   179
420
  2234388
370
     9
100
AcDbVertex
100
AcDb2dVertex
 10
100.6808349314179
 20
-139.1267360763294
 30
0.0
  0
SEQEND
  5
84
330
81
100
AcDbEntity
  8
_U+30EC_U+30A4_U+30E4_U+30FC 1
 62
   179
420
  2234388
370
     9
  0
INSERT
  5
86
330
1F
100
AcDbEntity
  8
_U+30EC_U+30A4_U+30E4_U+30FC 1
100
AcDbBlockReference
  2
block 2
 10
0.0
 20
0.0
 30
0.0
  0
POLYLINE
  5
8E
330
1F
100
AcDbEntity
  8
_U+30EC_U+30A4_U+30E4_U+30FC 1
 62
   179
420
  2234388
370
     9
100
AcDb2dPolyline
 66
     1
 10
0.0
 20
0.0
 30
0.0
  0
VERTEX
  5
8F
330
8E
100
AcDbEntity
  8
_U+30EC_U+30A4_U+30E4_U+30FC 1
 62
   179
420
  2234388
370
     9
100
AcDbVertex
100
AcDb2dVertex
 10
94.18065759725125
 20
-121.626700525149
 30
0.0
  0
VERTEX
  5
90
330
8E
100
AcDbEntity
  8
_U+30EC_U+30A4_U+30E4_U+30FC 1
 62
   179
420
  2234388
370
     9
100
AcDbVertex
100
AcDb2dVertex
 10
105.6411020270932
 20
-121.626700525149
 30
0.0
  0
SEQEND
  5
91
330
8E
100
AcDbEntity
  8
_U+30EC_U+30A4_U+30E4_U+30FC 1
 62
   179
420
  2234388
370
     9
  0
INSERT
  5
93
330
1F
100
AcDbEntity
  8
_U+30EC_U+30A4_U+30E4_U+30FC 1
100
AcDbBlockReference
  2
block 3
 10
0.0
 20
0.0
 30
0.0
  0
POLYLINE
  5
A3
330
1F
100
AcDbEntity
  8
_U+30EC_U+30A4_U+30E4_U+30FC 1
 62
   179
420
  2234388
370
     9
100
AcDb2dPolyline
 66
     1
 10
0.0
 20
0.0
 30
0.0
  0
VERTEX
  5
A4
330
A3
100
AcDbEntity
  8
_U+30EC_U+30A4_U+30E4_U+30FC 1
 62
   179
420
  2234388
370
     9
100
AcDbVertex
100
AcDb2dVertex
 10
76.44443777196214
 20
-121.5543458029448
 30
0.0
  0
VERTEX
  5
A5
330
A3
100
AcDbEntity
  8
_U+30EC_U+30A4_U+30E4_U+30FC 1
 62
   179
420
  2234388
370
     9
100
AcDbVertex
100
AcDb2dVertex
 10
76.44443777196214
 20
-120.5545735809726
 30
0.0
  0
SEQEND
  5
A6
330
A3
100
AcDbEntity
  8
_U+30EC_U+30A4_U+30E4_U+30FC 1
 62
   179
420
  2234388
370
     9
  0
POLYLINE
  5
A7
330
1F
100
AcDbEntity
  8
_U+30EC_U+30A4_U+30E4_U+30FC 1
 62
   179
420
  2234388
370
     9
100
AcDb2dPolyline
 66
     1
 10
0.0
 20
0.0
 30
0.0
  0
VERTEX
  5
A8
330
A7
100
AcDbEntity
  8
_U+30EC_U+30A4_U+30E4_U+30FC 1
 62
   179
420
  2234388
370
     9
100
AcDbVertex
100
AcDb2dVertex
 10
76.44443777196214
 20
-121.5543458029448
 30
0.0
  0
VERTEX
  5
A9
330
A7
100
AcDbEntity
  8
_U+30EC_U+30A4_U+30E4_U+30FC 1
 62
   179
420
  2234388
370
     9
100
AcDbVertex
100
AcDb2dVertex
 10
76.44443777196214
 20
-123.6542908024197
 30
0.0
  0
SEQEND
  5
AA
330
A7
100
AcDbEntity
  8
_U+30EC_U+30A4_U+30E4_U+30FC 1
 62
   179
420
  2234388
370
     9
  0
POLYLINE
  5
AB
330
1F
100
AcDbEntity
  8
_U+30EC_U+30A4_U+30E4_U+30FC 1
 62
   179
420
  2234388
370
     9
100
AcDb2dPolyline
 66
     1
 10
0.0
 20
0.0
 30
0.0
  0
VERTEX
  5
AC
330
AB
100
AcDbEntity
  8
_U+30EC_U+30A4_U+30E4_U+30FC 1
 62
   179
420
  2234388
370
     9
100
AcDbVertex
100
AcDb2dVertex
 10
77.90444384582538
 20
-121.5543458029448
 30
0.0
  0
VERTEX
  5
AD
330
AB
100
AcDbEntity
  8
_U+30EC_U+30A4_U+30E4_U+30FC 1
 62
   179
420
  2234388
370
     9
100
AcDbVertex
100
AcDb2dVertex
 10
75.44466557524623
 20
-121.5543458029448
 30
0.0
  0
SEQEND
  5
AE
330
AB
100
AcDbEntity
  8
_U+30EC_U+30A4_U+30E4_U+30FC 1
 62
   179
420
  2234388
370
     9
  0
POLYLINE
  5
AF
330
1F
100
AcDbEntity
  8
_U+30EC_U+30A4_U+30E4_U+30FC 1
 62
   179
420
  2234388
370
     9
100
AcDb2dPolyline
 66
     1
 10
0.0
 20
0.0
 30
0.0
  0
VERTEX
  5
B0
330
AF
100
AcDbEntity
  8
_U+30EC_U+30A4_U+30E4_U+30FC 1
 62
   179
420
  2234388
370
     9
100
AcDbVertex
100
AcDb2dVertex
 10
77.90444384582538
 20
-122.6543421915586
 30
0.0
  0
VERTEX
  5
B1
330
AF
100
AcDbEntity
  8
_U+30EC_U+30A4_U+30E4_U+30FC 1
 62
   179
420
  2234388
370
     9
100
AcDbVertex
100
AcDb2dVertex
 10
75.44466557524623
 20
-122.6543421915586
 30
0.0
  0
SEQEND
  5
B2
330
AF
100
AcDbEntity
  8
_U+30EC_U+30A4_U+30E4_U+30FC 1
 62
   179
420
  2234388
370
     9
  0
INSERT
  5
B4
330
1F
100
AcDbEntity
  8
_U+30EC_U+30A4_U+30E4_U+30FC 1
100
AcDbBlockReference
  2
block 4
 10
0.0
 20
0.0
 30
0.0
  0
POLYLINE
  5
B9
330
1F
100
AcDbEntity
  8
_U+30EC_U+30A4_U+30E4_U+30FC 1
 62
   179
420
  2234388
370
     9
100
AcDb2dPolyline
 66
     1
 10
0.0
 20
0.0
 30
0.0
  0
VERTEX
  5
BA
330
B9
100
AcDbEntity
  8
_U+30EC_U+30A4_U+30E4_U+30FC 1
 62
   179
420
  2234388
370
     9
100
AcDbVertex
100
AcDb2dVertex
 10
78.6809782704588
 20
-138.1269638543569
 30
0.0
  0
VERTEX
  5
BB
330
B9
100
AcDbEntity
  8
_U+30EC_U+30A4_U+30E4_U+30FC 1
 62
   179
420
  2234388
370
     9
100
AcDbVertex
100
AcDb2dVertex
 10
90.6809257420924
 20
-138.1269638543569
 30
0.0
  0
SEQEND
  5
BC
330
B9
100
AcDbEntity
  8
_U+30EC_U+30A4_U+30E4_U+30FC 1
 62
   179
420
  2234388
370
     9
  0
POLYLINE
  5
BD
330
1F
100
AcDbEntity
  8
_U+30EC_U+30A4_U+30E4_U+30FC 1
 62
   179
420
  2234388
370
     9
100
AcDb2dPolyline
 66
     1
 10
0.0
 20
0.0
 30
0.0
  0
VERTEX
  5
BE
330
BD
100
AcDbEntity
  8
_U+30EC_U+30A4_U+30E4_U+30FC 1
 62
   179
420
  2234388
370
     9
100
AcDbVertex
100
AcDb2dVertex
 10
78.6809782704588
 20
-125.1267146909407
 30
0.0
  0
VERTEX
  5
BF
330
BD
100
AcDbEntity
  8
_U+30EC_U+30A4_U+30E4_U+30FC 1
 62
   179
420
  2234388
370
     9
100
AcDbVertex
100
AcDb2dVertex
 10
78.6809782704588
 20
-139.1267360763294
 30
0.0
  0
SEQEND
  5
C0
330
BD
100
AcDbEntity
  8
_U+30EC_U+30A4_U+30E4_U+30FC 1
 62
   179
420
  2234388
370
     9
  0
POLYLINE
  5
C1
330
1F
100
AcDbEntity
  8
_U+30EC_U+30A4_U+30E4_U+30FC 1
 62
   179
420
  2234388
370
     9
100
AcDb2dPolyline
 66
     1
 10
0.0
 20
0.0
 30
0.0
  0
VERTEX
  5
C2
330
C1
100
AcDbEntity
  8
_U+30EC_U+30A4_U+30E4_U+30FC 1
 62
   179
420
  2234388
370
     9
100
AcDbVertex
100
AcDb2dVertex
 10
90.6809257420924
 20
-135.9669055215637
 30
0.0
  0
VERTEX
  5
C3
330
C1
100
AcDbEntity
  8
_U+30EC_U+30A4_U+30E4_U+30FC 1
 62
   179
420
  2234388
370
     9
100
AcDbVertex
100
AcDb2dVertex
 10
90.6809257420924
 20
-139.1267360763294
 30
0.0
  0
SEQEND
  5
C4
330
C1
100
AcDbEntity
  8
_U+30EC_U+30A4_U+30E4_U+30FC 1
 62
   179
420
  2234388
370
     9
  0
INSERT
  5
C6
330
1F
100
AcDbEntity
  8
_U+30EC_U+30A4_U+30E4_U+30FC 1
100
AcDbBlockReference
  2
block 5
 10
0.0
 20
0.0
 30
0.0
  0
POLYLINE
  5
CD
330
1F
100
AcDbEntity
  8
_U+30EC_U+30A4_U+30E4_U+30FC 1
 62
   179
420
  2234388
370
     9
100
AcDb2dPolyline
 66
     1
 10
0.0
 20
0.0
 30
0.0
  0
VERTEX
  5
CE
330
CD
100
AcDbEntity
  8
_U+30EC_U+30A4_U+30E4_U+30FC 1
 62
   179
420
  2234388
370
     9
100
AcDbVertex
100
AcDb2dVertex
 10
104.6413298303773
 20
-131.1265474672183
 30
0.0
  0
VERTEX
  5
CF
330
CD
100
AcDbEntity
  8
_U+30EC_U+30A4_U+30E4_U+30FC 1
 62
   179
420
  2234388
370
     9
100
AcDbVertex
100
AcDb2dVertex
 10
104.6413298303773
 20
-136.6262824658433
 30
0.0
  0
SEQEND
  5
D0
330
CD
100
AcDbEntity
  8
_U+30EC_U+30A4_U+30E4_U+30FC 1
 62
   179
420
  2234388
370
     9
  0
POLYLINE
  5
D1
330
1F
100
AcDbEntity
  8
_U+30EC_U+30A4_U+30E4_U+30FC 1
 62
   179
420
  2234388
370
     9
100
AcDb2dPolyline
 66
     1
 10
0.0
 20
0.0
 30
0.0
  0
VERTEX
  5
D2
330
D1
100
AcDbEntity
  8
_U+30EC_U+30A4_U+30E4_U+30FC 1
 62
   179
420
  2234388
370
     9
100
AcDbVertex
100
AcDb2dVertex
 10
103.1812884787371
 20
-131.1265474672183
 30
0.0
  0
VERTEX
  5
D3
330
D1
100
AcDbEntity
  8
_U+30EC_U+30A4_U+30E4_U+30FC 1
 62
   179
420
  2234388
370
     9
100
AcDbVertex
100
AcDb2dVertex
 10
105.6411020270932
 20
-131.1265474672183
 30
0.0
  0
SEQEND
  5
D4
330
D1
100
AcDbEntity
  8
_U+30EC_U+30A4_U+30E4_U+30FC 1
 62
   179
420
  2234388
370
     9
  0
POLYLINE
  5
D5
330
1F
100
AcDbEntity
  8
_U+30EC_U+30A4_U+30E4_U+30FC 1
 62
   179
420
  2234388
370
     9
100
AcDb2dPolyline
 66
     1
 10
0.0
 20
0.0
 30
0.0
  0
VERTEX
  5
D6
330
D5
100
AcDbEntity
  8
_U+30EC_U+30A4_U+30E4_U+30FC 1
 62
   179
420
  2234388
370
     9
100
AcDbVertex
100
AcDb2dVertex
 10
103.1812884787371
 20
-134.1265344109127
 30
0.0
  0
VERTEX
  5
D7
330
D5
100
AcDbEntity
  8
_U+30EC_U+30A4_U+30E4_U+30FC 1
 62
   179
420
  2234388
370
     9
100
AcDbVertex
100
AcDb2dVertex
 10
105.6411020270932
 20
-134.1265344109127
 30
0.0
  0
SEQEND
  5
D8
330
D5
100
AcDbEntity
  8
_U+30EC_U+30A4_U+30E4_U+30FC 1
 62
   179
420
  2234388
370
     9
  0
INSERT
  5
DA
330
1F
100
AcDbEntity
  8
_U+30EC_U+30A4_U+30E4_U+30FC 1
100
AcDbBlockReference
  2
block 6
 10
0.0
 20
0.0
 30
0.0
  0
ENDSEC
  0
SECTION
  2
OBJECTS
  0
DICTIONARY
  5
C
330
0
100
AcDbDictionary
281
     1
  3
ACAD_GROUP
350
D
  3
ACAD_LAYOUT
350
1A
  3
ACAD_MATERIAL
350
3B
  3
ACAD_MLEADERSTYLE
350
E0
  3
ACAD_MLINESTYLE
350
17
  3
ACAD_PLOTSETTINGS
350
19
  3
ACAD_PLOTSTYLENAME
350
E
  3
ACAD_TABLESTYLE
350
DF
  3
ACAD_VISUALSTYLE
350
2A
  0
SUN
  5
3F
330
29
100
AcDbSun
 90
        1
290
     0
 63
     7
421
 16777215
 40
1.0
291
     1
 91
  2455826
 92
 54000000
292
     0
 70
     2
 71
   256
280
     1
  0
DICTIONARY
  5
D
102
{ACAD_REACTORS
330
C
102
}
330
C
100
AcDbDictionary
281
     1
  0
DICTIONARY
  5
1A
102
{ACAD_REACTORS
330
C
102
}
330
C
100
AcDbDictionary
281
     1
  3
Layout1
350
1E
  3
Layout2
350
26
  3
Model
350
22
  0
DICTIONARY
  5
3B
102
{ACAD_REACTORS
330
C
102
}
330
C
100
AcDbDictionary
281
     1
  3
ByBlock
350
3D
  3
ByLayer
350
3C
  3
Global
350
3E
  0
DICTIONARY
  5
E0
102
{ACAD_REACTORS
330
C
102
}
330
C
100
AcDbDictionary
281
     1
  0
DICTIONARY
  5
17
102
{ACAD_REACTORS
330
C
102
}
330
C
100
AcDbDictionary
281
     1
  3
Standard
350
18
  0
DICTIONARY
  5
19
102
{ACAD_REACTORS
330
C
102
}
330
C
100
AcDbDictionary
281
     1
  0
ACDBDICTIONARYWDFLT
  5
E
102
{ACAD_REACTORS
330
C
102
}
330
C
100
AcDbDictionary
281
     1
  3
Normal
350
F
100
AcDbDictionaryWithDefault
340
F
  0
DICTIONARY
  5
DF
102
{ACAD_REACTORS
330
C
102
}
330
C
100
AcDbDictionary
281
     1
  0
DICTIONARY
  5
2A
102
{ACAD_REACTORS
330
C
102
}
330
C
100
AcDbDictionary
281
     1
  3
2dWireframe
350
2F
  3
3D Hidden
350
31
  3
3dWireframe
350
30
  3
Basic
350
32
  3
Brighten
350
36
  3
ColorChange
350
3A
  3
Conceptual
350
34
  3
Dim
350
35
  3
Facepattern
350
39
  3
Flat
350
2B
  3
FlatWithEdges
350
2C
  3
Gouraud
350
2D
  3
GouraudWithEdges
350
2E
  3
Linepattern
350
38
  3
Realistic
350
33
  3
Thicken
350
37
  0
LAYOUT
  5
1E
102
{ACAD_REACTORS
330
1A
102
}
330
1A
100
AcDbPlotSettings
  1

  2
none_device
  4

  6

 40
0.0
 41
0.0
 42
0.0
 43
0.0
 44
0.0
 45
0.0
 46
0.0
 47
0.0
 48
0.0
 49
0.0
140
0.0
141
0.0
142
1.0
143
1.0
 70
   688
 72
     0
 73
     0
 74
     5
  7

 75
    16
 76
     0
 77
     2
 78
   300
147
1.0
148
0.0
149
0.0
100
AcDbLayout
  1
Layout1
 70
     1
 71
     1
 10
0.0
 20
0.0
 11
12.0
 21
9.0
 12
0.0
 22
0.0
 32
0.0
 14
1.000000000000000E+20
 24
1.000000000000000E+20
 34
1.000000000000000E+20
 15
-1.000000000000000E+20
 25
-1.000000000000000E+20
 35
-1.000000000000000E+20
146
0.0
 13
0.0
 23
0.0
 33
0.0
 16
1.0
 26
0.0
 36
0.0
 17
0.0
 27
1.0
 37
0.0
 76
     0
330
1B
  0
LAYOUT
  5
26
102
{ACAD_REACTORS
330
1A
102
}
330
1A
100
AcDbPlotSettings
  1

  2
none_device
  4

  6

 40
0.0
 41
0.0
 42
0.0
 43
0.0
 44
0.0
 45
0.0
 46
0.0
 47
0.0
 48
0.0
 49
0.0
140
0.0
141
0.0
142
1.0
143
1.0
 70
   688
 72
     0
 73
     0
 74
     5
  7

 75
    16
 76
     0
 77
     2
 78
   300
147
1.0
148
0.0
149
0.0
100
AcDbLayout
  1
Layout2
 70
     1
 71
     2
 10
0.0
 20
0.0
 11
0.0
 21
0.0
 12
0.0
 22
0.0
 32
0.0
 14
0.0
 24
0.0
 34
0.0
 15
0.0
 25
0.0
 35
0.0
146
0.0
 13
0.0
 23
0.0
 33
0.0
 16
1.0
 26
0.0
 36
0.0
 17
0.0
 27
1.0
 37
0.0
 76
     0
330
23
  0
LAYOUT
  5
22
102
{ACAD_REACTORS
330
1A
102
}
330
1A
100
AcDbPlotSettings
  1

  2
none_device
  4

  6

 40
0.0
 41
0.0
 42
0.0
 43
0.0
 44
0.0
 45
0.0
 46
0.0
 47
0.0
 48
0.0
 49
0.0
140
0.0
141
0.0
142
1.0
143
1.0
 70
  1712
 72
     0
 73
     0
 74
     0
  7

 75
     0
 76
     0
 77
     2
 78
   300
147
1.0
148
0.0
149
0.0
100
AcDbLayout
  1
Model
 70
     1
 71
     0
 10
0.0
 20
0.0
 11
12.0
 21
9.0
 12
0.0
 22
0.0
 32
0.0
 14
1.000000000000000E+20
 24
1.000000000000000E+20
 34
1.000000000000000E+20
 15
-1.000000000000000E+20
 25
-1.000000000000000E+20
 35
-1.000000000000000E+20
146
0.0
 13
0.0
 23
0.0
 33
0.0
 16
1.0
 26
0.0
 36
0.0
 17
0.0
 27
1.0
 37
0.0
 76
     0
330
1F
331
29
  0
MATERIAL
  5
3D
102
{ACAD_REACTORS
330
3B
102
}
330
3B
100
AcDbMaterial
  1
ByBlock
 72
     1
 94
      127
  0
MATERIAL
  5
3C
102
{ACAD_REACTORS
330
3B
102
}
330
3B
100
AcDbMaterial
  1
ByLayer
 72
     1
 94
      127
  0
MATERIAL
  5
3E
102
{ACAD_REACTORS
330
3B
102
}
330
3B
100
AcDbMaterial
  1
Global
 72
     1
 94
      127
  0
MLINESTYLE
  5
18
102
{ACAD_REACTORS
330
17
102
}
330
17
100
AcDbMlineStyle
  2
Standard
 70
     0
  3

 62
   256
 51
90.0
 52
90.0
 71
     2
 49
0.5
 62
   256
  6
BYLAYER
 49
-0.5
 62
   256
  6
BYLAYER
  0
ACDBPLACEHOLDER
  5
F
102
{ACAD_REACTORS
330
E
102
}
330
E
  0
VISUALSTYLE
  5
2F
102
{ACAD_REACTORS
330
2A
102
}
330
2A
100
AcDbVisualStyle
  2
2dWireframe
 70
     4
177
     2
291
     0
 71
     0
176
     1
 72
     2
176
     1
 73
     0
176
     1
 90
        0
176
     1
 40
-0.6
176
     1
 41
-30.0
176
     1
 62
     5
 63
     7
421
 16777215
176
     1
 74
     1
176
     1
 91
        4
176
     1
 64
     7
176
     1
 65
   257
176
     1
 75
     1
176
     1
175
     1
176
     1
 42
1.0
176
     1
 92
        0
176
     1
 66
   257
176
     1
 43
1.0
176
     1
 76
     1
176
     1
 77
     6
176
     1
 78
     2
176
     1
 67
     7
176
     1
 79
     5
176
     1
170
     0
176
     1
171
     0
176
     1
290
     0
176
     1
 93
        1
176
     1
 44
0.0
176
     1
173
     0
176
     1
  0
VISUALSTYLE
  5
31
102
{ACAD_REACTORS
330
2A
102
}
330
2A
100
AcDbVisualStyle
  2
3D Hidden
 70
     6
177
     2
291
     0
 71
     1
176
     1
 72
     2
176
     1
 73
     2
176
     1
 90
        0
176
     1
 40
-0.6
176
     1
 41
-30.0
176
     1
 62
     5
 63
     7
421
 16777215
176
     1
 74
     2
176
     1
 91
        2
176
     1
 64
     7
176
     1
 65
   257
176
     1
 75
     2
176
     1
175
     1
176
     1
 42
40.0
176
     1
 92
        0
176
     1
 66
   257
176
     1
 43
1.0
176
     1
 76
     1
176
     1
 77
     6
176
     1
 78
     2
176
     1
 67
     7
176
     1
 79
     3
176
     1
170
     0
176
     1
171
     0
176
     1
290
     0
176
     1
 93
        1
176
     1
 44
0.0
176
     1
173
     0
176
     1
  0
VISUALSTYLE
  5
30
102
{ACAD_REACTORS
330
2A
102
}
330
2A
100
AcDbVisualStyle
  2
3dWireframe
 70
     5
177
     2
291
     0
 71
     0
176
     1
 72
     2
176
     1
 73
     0
176
     1
 90
        0
176
     1
 40
-0.6
176
     1
 41
-30.0
176
     1
 62
     5
 63
     7
421
 16777215
176
     1
 74
     1
176
     1
 91
        4
176
     1
 64
     7
176
     1
 65
   257
176
     1
 75
     1
176
     1
175
     1
176
     1
 42
1.0
176
     1
 92
        0
176
     1
 66
   257
176
     1
 43
1.0
176
     1
 76
     1
176
     1
 77
     6
176
     1
 78
     2
176
     1
 67
     7
176
     1
 79
     5
176
     1
170
     0
176
     1
171
     0
176
     1
290
     0
176
     1
 93
        1
176
     1
 44
0.0
176
     1
173
     0
176
     1
  0
VISUALSTYLE
  5
32
102
{ACAD_REACTORS
330
2A
102
}
330
2A
100
AcDbVisualStyle
  2
Basic
 70
     7
177
     2
291
     1
 71
     1
176
     1
 72
     0
176
     1
 73
     1
176
     1
 90
        0
176
     1
 40
-0.6
176
     1
 41
-30.0
176
     1
 62
     5
 63
     7
421
 16777215
176
     1
 74
     0
176
     1
 91
        4
176
     1
 64
     7
176
     1
 65
   257
176
     1
 75
     1
176
     1
175
     1
176
     1
 42
1.0
176
     1
 92
        8
176
     1
 66
     7
176
     1
 43
1.0
176
     1
 76
     1
176
     1
 77
     6
176
     1
 78
     2
176
     1
 67
     7
176
     1
 79
     5
176
     1
170
     0
176
     1
171
     0
176
     1
290
     0
176
     1
 93
        1
176
     1
 44
0.0
176
     1
173
     0
176
     1
  0
VISUALSTYLE
  5
36
102
{ACAD_REACTORS
330
2A
102
}
330
2A
100
AcDbVisualStyle
  2
Brighten
 70
    12
177
     2
291
     1
 71
     2
176
     1
 72
     2
176
     1
 73
     0
176
     1
 90
        0
176
     1
 40
-0.6
176
     1
 41
-30.0
176
     1
 62
     5
 63
     7
421
 16777215
176
     1
 74
     1
176
     1
 91
        4
176
     1
 64
     7
176
     1
 65
   257
176
     1
 75
     1
176
     1
175
     1
176
     1
 42
1.0
176
     1
 92
        8
176
     1
 66
     7
176
     1
 43
1.0
176
     1
 76
     1
176
     1
 77
     6
176
     1
 78
     2
176
     1
 67
     7
176
     1
 79
     5
176
     1
170
     0
176
     1
171
     0
176
     1
290
     0
176
     1
 93
        1
176
     1
 44
50.0
176
     1
173
     0
176
     1
  0
VISUALSTYLE
  5
3A
102
{ACAD_REACTORS
330
2A
102
}
330
2A
100
AcDbVisualStyle
  2
ColorChange
 70
    16
177
     2
291
     1
 71
     2
176
     1
 72
     2
176
     1
 73
     3
176
     1
 90
        0
176
     1
 40
-0.6
176
     1
 41
-30.0
176
     1
 62
     5
 63
     8
421
  8421504
176
     1
 74
     1
176
     1
 91
        4
176
     1
 64
     7
176
     1
 65
   257
176
     1
 75
     1
176
     1
175
     1
176
     1
 42
1.0
176
     1
 92
        8
176
     1
 66
     8
424
  8421504
176
     1
 43
1.0
176
     1
 76
     1
176
     1
 77
     6
176
     1
 78
     2
176
     1
 67
     7
176
     1
 79
     5
176
     1
170
     0
176
     1
171
     0
176
     1
290
     0
176
     1
 93
        1
176
     1
 44
0.0
176
     1
173
     0
176
     1
  0
VISUALSTYLE
  5
34
102
{ACAD_REACTORS
330
2A
102
}
330
2A
100
AcDbVisualStyle
  2
Conceptual
 70
     9
177
     2
291
     0
 71
     3
176
     1
 72
     2
176
     1
 73
     0
176
     1
 90
        0
176
     1
 40
-0.6
176
     1
 41
-30.0
176
     1
 62
     5
 63
     7
421
 16777215
176
     1
 74
     2
176
     1
 91
        2
176
     1
 64
     7
176
     1
 65
   257
176
     1
 75
     1
176
     1
175
     1
176
     1
 42
40.0
176
     1
 92
        8
176
     1
 66
     7
176
     1
 43
1.0
176
     1
 76
     1
176
     1
 77
     6
176
     1
 78
     2
176
     1
 67
     7
176
     1
 79
     3
176
     1
170
     0
176
     1
171
     0
176
     1
290
     0
176
     1
 93
        1
176
     1
 44
0.0
176
     1
173
     0
176
     1
  0
VISUALSTYLE
  5
35
102
{ACAD_REACTORS
330
2A
102
}
330
2A
100
AcDbVisualStyle
  2
Dim
 70
    11
177
     2
291
     1
 71
     2
176
     1
 72
     2
176
     1
 73
     0
176
     1
 90
        0
176
     1
 40
-0.6
176
     1
 41
-30.0
176
     1
 62
     5
 63
     7
421
 16777215
176
     1
 74
     1
176
     1
 91
        4
176
     1
 64
     7
176
     1
 65
   257
176
     1
 75
     1
176
     1
175
     1
176
     1
 42
1.0
176
     1
 92
        8
176
     1
 66
     7
176
     1
 43
1.0
176
     1
 76
     1
176
     1
 77
     6
176
     1
 78
     2
176
     1
 67
     7
176
     1
 79
     5
176
     1
170
     0
176
     1
171
     0
176
     1
290
     0
176
     1
 93
        1
176
     1
 44
-50.0
176
     1
173
     0
176
     1
  0
VISUALSTYLE
  5
39
102
{ACAD_REACTORS
330
2A
102
}
330
2A
100
AcDbVisualStyle
  2
Facepattern
 70
    15
177
     2
291
     1
 71
     2
176
     1
 72
     2
176
     1
 73
     0
176
     1
 90
        0
176
     1
 40
-0.6
176
     1
 41
-30.0
176
     1
 62
     5
 63
     7
421
 16777215
176
     1
 74
     1
176
     1
 91
        4
176
     1
 64
     7
176
     1
 65
   257
176
     1
 75
     1
176
     1
175
     1
176
     1
 42
1.0
176
     1
 92
        8
176
     1
 66
     7
176
     1
 43
1.0
176
     1
 76
     1
176
     1
 77
     6
176
     1
 78
     2
176
     1
 67
     7
176
     1
 79
     5
176
     1
170
     0
176
     1
171
     0
176
     1
290
     0
176
     1
 93
        1
176
     1
 44
0.0
176
     1
173
     0
176
     1
  0
VISUALSTYLE
  5
2B
102
{ACAD_REACTORS
330
2A
102
}
330
2A
100
AcDbVisualStyle
  2
Flat
 70
     0
177
     2
291
     1
 71
     2
176
     1
 72
     1
176
     1
 73
     1
176
     1
 90
        2
176
     1
 40
-0.6
176
     1
 41
30.0
176
     1
 62
     5
 63
     7
421
 16777215
176
     1
 74
     0
176
     1
 91
        4
176
     1
 64
     7
176
     1
 65
   257
176
     1
 75
     1
176
     1
175
     1
176
     1
 42
1.0
176
     1
 92
        8
176
     1
 66
     7
176
     1
 43
1.0
176
     1
 76
     1
176
     1
 77
     6
176
     1
 78
     2
176
     1
 67
     7
176
     1
 79
     5
176
     1
170
     0
176
     1
171
     0
176
     1
290
     0
176
     1
 93
       13
176
     1
 44
0.0
176
     1
173
     0
176
     1
  0
VISUALSTYLE
  5
2C
102
{ACAD_REACTORS
330
2A
102
}
330
2A
100
AcDbVisualStyle
  2
FlatWithEdges
 70
     1
177
     2
291
     1
 71
     2
176
     1
 72
     1
176
     1
 73
     1
176
     1
 90
        2
176
     1
 40
-0.6
176
     1
 41
30.0
176
     1
 62
     5
 63
     7
421
 16777215
176
     1
 74
     1
176
     1
 91
        4
176
     1
 64
     7
176
     1
 65
   257
176
     1
 75
     1
176
     1
175
     1
176
     1
 42
1.0
176
     1
 92
        0
176
     1
 66
   257
176
     1
 43
1.0
176
     1
 76
     1
176
     1
 77
     6
176
     1
 78
     2
176
     1
 67
     7
176
     1
 79
     5
176
     1
170
     0
176
     1
171
     0
176
     1
290
     0
176
     1
 93
       13
176
     1
 44
0.0
176
     1
173
     0
176
     1
  0
VISUALSTYLE
  5
2D
102
{ACAD_REACTORS
330
2A
102
}
330
2A
100
AcDbVisualStyle
  2
Gouraud
 70
     2
177
     2
291
     1
 71
     2
176
     1
 72
     2
176
     1
 73
     1
176
     1
 90
        2
176
     1
 40
-0.6
176
     1
 41
30.0
176
     1
 62
     5
 63
     7
421
 16777215
176
     1
 74
     0
176
     1
 91
        4
176
     1
 64
     7
176
     1
 65
   257
176
     1
 75
     1
176
     1
175
     1
176
     1
 42
1.0
176
     1
 92
        0
176
     1
 66
     7
176
     1
 43
1.0
176
     1
 76
     1
176
     1
 77
     6
176
     1
 78
     2
176
     1
 67
     7
176
     1
 79
     5
176
     1
170
     0
176
     1
171
     0
176
     1
290
     0
176
     1
 93
       13
176
     1
 44
0.0
176
     1
173
     0
176
     1
  0
VISUALSTYLE
  5
2E
102
{ACAD_REACTORS
330
2A
102
}
330
2A
100
AcDbVisualStyle
  2
GouraudWithEdges
 70
     3
177
     2
291
     1
 71
     2
176
     1
 72
     2
176
     1
 73
     1
176
     1
 90
        2
176
     1
 40
-0.6
176
     1
 41
30.0
176
     1
 62
     5
 63
     7
421
 16777215
176
     1
 74
     1
176
     1
 91
        4
176
     1
 64
     7
176
     1
 65
   257
176
     1
 75
     1
176
     1
175
     1
176
     1
 42
1.0
176
     1
 92
        0
176
     1
 66
   257
176
     1
 43
1.0
176
     1
 76
     1
176
     1
 77
     6
176
     1
 78
     2
176
     1
 67
     7
176
     1
 79
     5
176
     1
170
     0
176
     1
171
     0
176
     1
290
     0
176
     1
 93
       13
176
     1
 44
0.0
176
     1
173
     0
176
     1
  0
VISUALSTYLE
  5
38
102
{ACAD_REACTORS
330
2A
102
}
330
2A
100
AcDbVisualStyle
  2
Linepattern
 70
    14
177
     2
291
     1
 71
     2
176
     1
 72
     2
176
     1
 73
     0
176
     1
 90
        0
176
     1
 40
-0.6
176
     1
 41
-30.0
176
     1
 62
     5
 63
     7
421
 16777215
176
     1
 74
     1
176
     1
 91
        4
176
     1
 64
     7
176
     1
 65
   257
176
     1
 75
     7
176
     1
175
     7
176
     1
 42
1.0
176
     1
 92
        8
176
     1
 66
     7
176
     1
 43
1.0
176
     1
 76
     1
176
     1
 77
     6
176
     1
 78
     2
176
     1
 67
     7
176
     1
 79
     5
176
     1
170
     0
176
     1
171
     0
176
     1
290
     0
176
     1
 93
        1
176
     1
 44
0.0
176
     1
173
     0
176
     1
  0
VISUALSTYLE
  5
33
102
{ACAD_REACTORS
330
2A
102
}
330
2A
100
AcDbVisualStyle
  2
Realistic
 70
     8
177
     2
291
     0
 71
     2
176
     1
 72
     2
176
     1
 73
     0
176
     1
 90
        0
176
     1
 40
-0.6
176
     1
 41
-30.0
176
     1
 62
     5
 63
     7
421
 16777215
176
     1
 74
     1
176
     1
 91
        0
176
     1
 64
     7
176
     1
 65
   257
176
     1
 75
     1
176
     1
175
     1
176
     1
 42
1.0
176
     1
 92
        8
176
     1
 66
     8
424
  7895160
176
     1
 43
1.0
176
     1
 76
     1
176
     1
 77
     6
176
     1
 78
     2
176
     1
 67
     7
176
     1
 79
     5
176
     1
170
     0
176
     1
171
     0
176
     1
290
     0
176
     1
 93
       13
176
     1
 44
0.0
176
     1
173
     0
176
     1
  0
VISUALSTYLE
  5
37
102
{ACAD_REACTORS
330
2A
102
}
330
2A
100
AcDbVisualStyle
  2
Thicken
 70
    13
177
     2
291
     1
 71
     2
176
     1
 72
     2
176
     1
 73
     0
176
     1
 90
        0
176
     1
 40
-0.6
176
     1
 41
-30.0
176
     1
 62
     5
 63
     7
421
 16777215
176
     1
 74
     1
176
     1
 91
        4
176
     1
 64
     7
176
     1
 65
   257
176
     1
 75
     1
176
     1
175
     1
176
     1
 42
1.0
176
     1
 92
       12
176
     1
 66
     7
176
     1
 43
1.0
176
     1
 76
     1
176
     1
 77
     6
176
     1
 78
     2
176
     1
 67
     7
176
     1
 79
     5
176
     1
170
     0
176
     1
171
     0
176
     1
290
     0
176
     1
 93
        1
176
     1
 44
0.0
176
     1
173
     0
176
     1
  0
ENDSEC
  0
EOF
