  0
SECTION
  2
HEADER
  9
$ACADVER
  1
AC1024
  9
$ACADMAINTVER
 70
     6
  9
$DWGCODEPAGE
  3
UNDEFINED
  9
$INSBASE
 10
0.0
 20
0.0
 30
0.0
  9
$EXTMIN
 10
1.000000000000000E+20
 20
1.000000000000000E+20
 30
1.000000000000000E+20
  9
$EXTMAX
 10
-1.000000000000000E+20
 20
-1.000000000000000E+20
 30
-1.000000000000000E+20
  9
$LIMMIN
 10
0.0
 20
0.0
  9
$LIMMAX
 10
12.0
 20
9.0
  9
$ORTHOMODE
 70
     0
  9
$REGENMODE
 70
     1
  9
$FILLMODE
 70
     1
  9
$QTEXTMODE
 70
     0
  9
$MIRRTEXT
 70
     1
  9
$LTSCALE
 40
1.0
  9
$ATTMODE
 70
     1
  9
$TEXTSIZE
 40
0.2
  9
$TRACEWID
 40
0.05
  9
$TEXTSTYLE
  7
Standard
  9
$CLAYER
  8
0
  9
$CELTYPE
  6
ByLayer
  9
$CECOLOR
 62
   256
  9
$CELTSCALE
 40
1.0
  9
$DISPSILH
 70
     0
  9
$DIMSCALE
 40
1.0
  9
$DIMASZ
 40
0.18
  9
$DIMEXO
 40
0.0625
  9
$DIMDLI
 40
0.38
  9
$DIMRND
 40
0.0
  9
$DIMDLE
 40
0.0
  9
$DIMEXE
 40
0.18
  9
$DIMTP
 40
0.0
  9
$DIMTM
 40
0.0
  9
$DIMTXT
 40
0.18
  9
$DIMCEN
 40
0.09
  9
$DIMTSZ
 40
0.0
  9
$DIMTOL
 70
     0
  9
$DIMLIM
 70
     0
  9
$DIMTIH
 70
     1
  9
$DIMTOH
 70
     1
  9
$DIMSE1
 70
     0
  9
$DIMSE2
 70
     0
  9
$DIMTAD
 70
     0
  9
$DIMZIN
 70
     0
  9
$DIMBLK
  1

  9
$DIMASO
 70
     1
  9
$DIMSHO
 70
     1
  9
$DIMPOST
  1

  9
$DIMAPOST
  1

  9
$DIMALT
 70
     0
  9
$DIMALTD
 70
     2
  9
$DIMALTF
 40
25.4
  9
$DIMLFAC
 40
1.0
  9
$DIMTOFL
 70
     0
  9
$DIMTVP
 40
0.0
  9
$DIMTIX
 70
     0
  9
$DIMSOXD
 70
     0
  9
$DIMSAH
 70
     0
  9
$DIMBLK1
  1

  9
$DIMBLK2
  1

  9
$DIMSTYLE
  2
Standard
  9
$DIMCLRD
 70
     0
  9
$DIMCLRE
 70
     0
  9
$DIMCLRT
 70
     0
  9
$DIMTFAC
 40
1.0
  9
$DIMGAP
 40
0.09
  9
$DIMJUST
 70
     0
  9
$DIMSD1
 70
     0
  9
$DIMSD2
 70
     0
  9
$DIMTOLJ
 70
     1
  9
$DIMTZIN
 70
     0
  9
$DIMALTZ
 70
     0
  9
$DIMALTTZ
 70
     0
  9
$DIMUPT
 70
     0
  9
$DIMDEC
 70
     4
  9
$DIMTDEC
 70
     4
  9
$DIMALTU
 70
     2
  9
$DIMALTTD
 70
     2
  9
$DIMTXSTY
  7
Standard
  9
$DIMAUNIT
 70
     0
  9
$DIMADEC
 70
     0
  9
$DIMALTRND
 40
0.0
  9
$DIMAZIN
 70
     0
  9
$DIMDSEP
 70
    46
  9
$DIMATFIT
 70
     3
  9
$DIMFRAC
 70
     0
  9
$DIMLDRBLK
  1

  9
$DIMLUNIT
 70
     2
  9
$DIMLWD
 70
    -2
  9
$DIMLWE
 70
    -2
  9
$DIMTMOVE
 70
     0
  9
$DIMFXL
 40
1.0
  9
$DIMFXLON
 70
     0
  9
$DIMJOGANG
 40
0.7853981633974483
  9
$DIMTFILL
 70
     0
  9
$DIMTFILLCLR
 70
     0
  9
$DIMARCSYM
 70
     0
  9
$DIMLTYPE
  6

  9
$DIMLTEX1
  6

  9
$DIMLTEX2
  6

  9
$DIMTXTDIRECTION
 70
     0
  9
$LUNITS
 70
     2
  9
$LUPREC
 70
     4
  9
$SKETCHINC
 40
0.1
  9
$FILLETRAD
 40
0.5
  9
$AUNITS
 70
     0
  9
$AUPREC
 70
     0
  9
$MENU
  1
.
  9
$ELEVATION
 40
0.0
  9
$PELEVATION
 40
0.0
  9
$THICKNESS
 40
0.0
  9
$LIMCHECK
 70
     0
  9
$CHAMFERA
 40
0.5
  9
$CHAMFERB
 40
0.5
  9
$CHAMFERC
 40
1.0
  9
$CHAMFERD
 40
0.0
  9
$SKPOLY
 70
     0
  9
$TDCREATE
 40
2457917.599884248
  9
$TDUCREATE
 40
2457917.224884259
  9
$TDUPDATE
 40
2457917.599884248
  9
$TDUUPDATE
 40
2457917.224884259
  9
$TDINDWG
 40
0.0000000116
  9
$TDUSRTIMER
 40
0.0000000116
  9
$USRTIMER
 70
     1
  9
$ANGBASE
 50
0.0
  9
$ANGDIR
 70
     0
  9
$PDMODE
 70
     0
  9
$PDSIZE
 40
0.0
  9
$PLINEWID
 40
0.0
  9
$SPLFRAME
 70
     0
  9
$SPLINETYPE
 70
     6
  9
$SPLINESEGS
 70
     8
  9
$HANDSEED
  5
15A
  9
$SURFTAB1
 70
     6
  9
$SURFTAB2
 70
     6
  9
$SURFTYPE
 70
     6
  9
$SURFU
 70
     6
  9
$SURFV
 70
     6
  9
$UCSBASE
  2

  9
$UCSNAME
  2

  9
$UCSORG
 10
0.0
 20
0.0
 30
0.0
  9
$UCSXDIR
 10
1.0
 20
0.0
 30
0.0
  9
$UCSYDIR
 10
0.0
 20
1.0
 30
0.0
  9
$UCSORTHOREF
  2

  9
$UCSORTHOVIEW
 70
     0
  9
$UCSORGTOP
 10
0.0
 20
0.0
 30
0.0
  9
$UCSORGBOTTOM
 10
0.0
 20
0.0
 30
0.0
  9
$UCSORGLEFT
 10
0.0
 20
0.0
 30
0.0
  9
$UCSORGRIGHT
 10
0.0
 20
0.0
 30
0.0
  9
$UCSORGFRONT
 10
0.0
 20
0.0
 30
0.0
  9
$UCSORGBACK
 10
0.0
 20
0.0
 30
0.0
  9
$PUCSBASE
  2

  9
$PUCSNAME
  2

  9
$PUCSORG
 10
0.0
 20
0.0
 30
0.0
  9
$PUCSXDIR
 10
1.0
 20
0.0
 30
0.0
  9
$PUCSYDIR
 10
0.0
 20
1.0
 30
0.0
  9
$PUCSORTHOREF
  2

  9
$PUCSORTHOVIEW
 70
     0
  9
$PUCSORGTOP
 10
0.0
 20
0.0
 30
0.0
  9
$PUCSORGBOTTOM
 10
0.0
 20
0.0
 30
0.0
  9
$PUCSORGLEFT
 10
0.0
 20
0.0
 30
0.0
  9
$PUCSORGRIGHT
 10
0.0
 20
0.0
 30
0.0
  9
$PUCSORGFRONT
 10
0.0
 20
0.0
 30
0.0
  9
$PUCSORGBACK
 10
0.0
 20
0.0
 30
0.0
  9
$USERI1
 70
     0
  9
$USERI2
 70
     0
  9
$USERI3
 70
     0
  9
$USERI4
 70
     0
  9
$USERI5
 70
     0
  9
$USERR1
 40
0.0
  9
$USERR2
 40
0.0
  9
$USERR3
 40
0.0
  9
$USERR4
 40
0.0
  9
$USERR5
 40
0.0
  9
$WORLDVIEW
 70
     1
  9
$SHADEDGE
 70
     3
  9
$SHADEDIF
 70
    70
  9
$TILEMODE
 70
     1
  9
$MAXACTVP
 70
    64
  9
$PINSBASE
 10
0.0
 20
0.0
 30
0.0
  9
$PLIMCHECK
 70
     0
  9
$PEXTMIN
 10
1.000000000000000E+20
 20
1.000000000000000E+20
 30
1.000000000000000E+20
  9
$PEXTMAX
 10
-1.000000000000000E+20
 20
-1.000000000000000E+20
 30
-1.000000000000000E+20
  9
$PLIMMIN
 10
0.0
 20
0.0
  9
$PLIMMAX
 10
12.0
 20
9.0
  9
$UNITMODE
 70
     0
  9
$VISRETAIN
 70
     1
  9
$PLINEGEN
 70
     0
  9
$PSLTSCALE
 70
     1
  9
$TREEDEPTH
 70
  3020
  9
$CMLSTYLE
  2
Standard
  9
$CMLJUST
 70
     0
  9
$CMLSCALE
 40
1.0
  9
$PROXYGRAPHICS
 70
     1
  9
$MEASUREMENT
 70
     0
  9
$CELWEIGHT
370
    -1
  9
$ENDCAPS
280
     0
  9
$JOINSTYLE
280
     0
  9
$LWDISPLAY
290
     1
  9
$INSUNITS
 70
     1
  9
$HYPERLINKBASE
  1

  9
$STYLESHEET
  1

  9
$XEDIT
290
     1
  9
$CEPSNTYPE
380
     0
  9
$PSTYLEMODE
290
     1
  9
$FINGERPRINTGUID
  2
{BBDD2F9C-ADDA-F8F8-755B-7E8C070BA89D}
  9
$VERSIONGUID
  2
{FAEB1C32-E019-11D5-929B-00C0DF256EC4}
  9
$EXTNAMES
290
     1
  9
$PSVPSCALE
 40
0.0
  9
$OLESTARTUP
290
     0
  9
$SORTENTS
280
   127
  9
$INDEXCTL
280
     0
  9
$HIDETEXT
280
     1
  9
$XCLIPFRAME
280
     2
  9
$HALOGAP
280
     0
  9
$OBSCOLOR
 70
   257
  9
$OBSLTYPE
280
     0
  9
$INTERSECTIONDISPLAY
280
     0
  9
$INTERSECTIONCOLOR
 70
   257
  9
$DIMASSOC
280
     2
  9
$PROJECTNAME
  1

  9
$CAMERADISPLAY
290
     0
  9
$LENSLENGTH
 40
50.0
  9
$CAMERAHEIGHT
 40
0.0
  9
$STEPSPERSEC
 40
2.0
  9
$STEPSIZE
 40
6.0
  9
$3DDWFPREC
 40
2.0
  9
$PSOLWIDTH
 40
0.25
  9
$PSOLHEIGHT
 40
4.0
  9
$LOFTANG1
 40
1.570796326794897
  9
$LOFTANG2
 40
1.570796326794897
  9
$LOFTMAG1
 40
0.0
  9
$LOFTMAG2
 40
0.0
  9
$LOFTPARAM
 70
     7
  9
$LOFTNORMALS
280
     1
  9
$LATITUDE
 40
37.795
  9
$LONGITUDE
 40
-122.394
  9
$NORTHDIRECTION
 40
0.0
  9
$TIMEZONE
 70
 -8000
  9
$LIGHTGLYPHDISPLAY
280
     1
  9
$TILEMODELIGHTSYNCH
280
     1
  9
$CMATERIAL
347
3C
  9
$SOLIDHIST
280
     1
  9
$SHOWHIST
280
     1
  9
$DWFFRAME
280
     2
  9
$DGNFRAME
280
     2
  9
$REALWORLDSCALE
290
     1
  9
$INTERFERECOLOR
 62
   256
  9
$CSHADOW
280
     0
  9
$SHADOWPLANELOCATION
 40
0.0
  0
ENDSEC
  0
SECTION
  2
CLASSES
  0
CLASS
  1
ACDBDICTIONARYWDFLT
  2
AcDbDictionaryWithDefault
  3
ObjectDBX Classes
 90
        0
 91
        4
280
     0
281
     0
  0
CLASS
  1
VISUALSTYLE
  2
AcDbVisualStyle
  3
ObjectDBX Classes
 90
     4095
 91
        4
280
     0
281
     0
  0
CLASS
  1
MATERIAL
  2
AcDbMaterial
  3
ObjectDBX Classes
 90
     1153
 91
        4
280
     0
281
     0
  0
CLASS
  1
SUN
  2
AcDbSun
  3
SCENEOE
 90
     1024
 91
        4
280
     0
281
     0
  0
ENDSEC
  0
SECTION
  2
TABLES
  0
TABLE
  2
VPORT
  5
8
330
0
100
AcDbSymbolTable
 70
     1
  0
VPORT
  5
29
330
8
100
AcDbSymbolTableRecord
100
AcDbViewportTableRecord
  2
*Active
 70
     0
 10
0.0
 20
0.0
 11
1.0
 21
1.0
 12
0.0
 22
0.0
 13
0.0
 23
0.0
 14
0.5
 24
0.5
 15
0.5
 25
0.5
 16
0.0
 26
0.0
 36
1.0
 17
91.00082462281999
 27
-128.4993055234307
 37
0.0
 40
256.9986110468615
 41
0.7081814508812795
 42
50.0
 43
0.0
 44
0.0
 50
0.0
 51
0.0
 71
     0
 72
   100
 73
     1
 74
     3
 75
     0
 76
     0
 77
     0
 78
     0
281
     0
 65
     1
110
0.0
120
0.0
130
0.0
111
1.0
121
0.0
131
0.0
112
0.0
122
1.0
132
0.0
 79
     0
146
0.0
 60
     3
 61
     5
292
     1
282
     1
141
0.0
142
0.0
 63
   250
361
3F
  0
ENDTAB
  0
TABLE
  2
LTYPE
  5
5
330
0
100
AcDbSymbolTable
 70
     2
  0
LTYPE
  5
14
330
5
100
AcDbSymbolTableRecord
100
AcDbLinetypeTableRecord
  2
ByBlock
 70
     0
  3

 72
    65
 73
     0
 40
0.0
  0
LTYPE
  5
15
330
5
100
AcDbSymbolTableRecord
100
AcDbLinetypeTableRecord
  2
ByLayer
 70
     0
  3

 72
    65
 73
     0
 40
0.0
  0
LTYPE
  5
16
330
5
100
AcDbSymbolTableRecord
100
AcDbLinetypeTableRecord
  2
Continuous
 70
     0
  3
Solid line
 72
    65
 73
     0
 40
0.0
  0
LTYPE
  5
47
330
5
100
AcDbSymbolTableRecord
100
AcDbLinetypeTableRecord
  2
AI-Linetype-1
 70
     0
  3
Adobe Illustrator Linetype No. 1
 72
    65
 73
     2
 40
1.411111110758333
 49
0.7055555553791667
 74
     0
 49
-0.7055555553791667
 74
     0
  0
ENDTAB
  0
TABLE
  2
LAYER
  5
2
330
0
100
AcDbSymbolTable
 70
     2
  0
LAYER
  5
10
330
2
100
AcDbSymbolTableRecord
100
AcDbLayerTableRecord
  2
0
 70
     0
 62
     7
  6
Continuous
370
    -3
390
F
347
3E
  0
LAYER
  5
40
330
2
100
AcDbSymbolTableRecord
100
AcDbLayerTableRecord
  2
_U+30EC_U+30A4_U+30E4_U+30FC 1
 70
     0
 62
     7
  6
Continuous
370
    -3
390
F
347
3E
  0
ENDTAB
  0
TABLE
  2
STYLE
  5
3
330
0
100
AcDbSymbolTable
 70
     1
  0
STYLE
  5
11
330
3
100
AcDbSymbolTableRecord
100
AcDbTextStyleTableRecord
  2
Standard
 70
     0
 40
0.0
 41
1.0
 50
0.0
 71
     0
 42
0.2
  3
txt
  4

  0
ENDTAB
  0
TABLE
  2
VIEW
  5
6
330
0
100
AcDbSymbolTable
 70
     0
  0
ENDTAB
  0
TABLE
  2
UCS
  5
7
330
0
100
AcDbSymbolTable
 70
     0
  0
ENDTAB
  0
TABLE
  2
APPID
  5
9
330
0
100
AcDbSymbolTable
 70
     1
  0
APPID
  5
12
330
9
100
AcDbSymbolTableRecord
100
AcDbRegAppTableRecord
  2
ACAD
 70
     0
  0
ENDTAB
  0
TABLE
  2
DIMSTYLE
  5
A
330
0
100
AcDbSymbolTable
 70
     1
100
AcDbDimStyleTable
  0
DIMSTYLE
105
27
330
A
100
AcDbSymbolTableRecord
100
AcDbDimStyleTableRecord
  2
Standard
 70
     0
178
     0
340
11
  0
ENDTAB
  0
TABLE
  2
BLOCK_RECORD
  5
1
330
0
100
AcDbSymbolTable
 70
     8
  0
BLOCK_RECORD
  5
1F
330
1
100
AcDbSymbolTableRecord
100
AcDbBlockTableRecord
  2
*Model_Space
340
22
 70
     0
280
     1
281
     0
  0
BLOCK_RECORD
  5
1B
330
1
100
AcDbSymbolTableRecord
100
AcDbBlockTableRecord
  2
*Paper_Space
340
1E
 70
     0
280
     1
281
     0
  0
BLOCK_RECORD
  5
23
330
1
100
AcDbSymbolTableRecord
100
AcDbBlockTableRecord
  2
*Paper_Space0
340
26
 70
     0
280
     1
281
     0
  0
BLOCK_RECORD
  5
4E
330
1
100
AcDbSymbolTableRecord
100
AcDbBlockTableRecord
  2
block 2
340
0
102
{BLKREFS
331
4F
102
}
 70
     0
280
     1
281
     0
  0
BLOCK_RECORD
  5
C5
330
1
100
AcDbSymbolTableRecord
100
AcDbBlockTableRecord
  2
block 3
340
0
102
{BLKREFS
331
C6
102
}
 70
     0
280
     1
281
     0
  0
BLOCK_RECORD
  5
D7
330
1
100
AcDbSymbolTableRecord
100
AcDbBlockTableRecord
  2
block 4
340
0
102
{BLKREFS
331
D8
102
}
 70
     0
280
     1
281
     0
  0
BLOCK_RECORD
  5
100
330
1
100
AcDbSymbolTableRecord
100
AcDbBlockTableRecord
  2
block 5
340
0
102
{BLKREFS
331
101
102
}
 70
     0
280
     1
281
     0
  0
BLOCK_RECORD
  5
113
330
1
100
AcDbSymbolTableRecord
100
AcDbBlockTableRecord
  2
block 6
340
0
102
{BLKREFS
331
114
102
}
 70
     0
280
     1
281
     0
  0
BLOCK_RECORD
  5
137
330
1
100
AcDbSymbolTableRecord
100
AcDbBlockTableRecord
  2
block 7
340
0
102
{BLKREFS
331
138
102
}
 70
     0
280
     1
281
     0
  0
BLOCK_RECORD
  5
151
330
1
100
AcDbSymbolTableRecord
100
AcDbBlockTableRecord
  2
block 8
340
0
102
{BLKREFS
331
152
102
}
 70
     0
280
     1
281
     0
  0
ENDTAB
  0
ENDSEC
  0
SECTION
  2
BLOCKS
  0
BLOCK
  5
20
330
1F
100
AcDbEntity
  8
0
100
AcDbBlockBegin
  2
*Model_Space
 70
     0
 10
0.0
 20
0.0
 30
0.0
  3
*Model_Space
  1

  0
ENDBLK
  5
21
330
1F
100
AcDbEntity
  8
0
100
AcDbBlockEnd
  0
BLOCK
  5
1C
330
1B
100
AcDbEntity
 67
     1
  8
0
100
AcDbBlockBegin
  2
*Paper_Space
 70
     0
 10
0.0
 20
0.0
 30
0.0
  3
*Paper_Space
  1

  0
ENDBLK
  5
1D
330
1B
100
AcDbEntity
 67
     1
  8
0
100
AcDbBlockEnd
  0
BLOCK
  5
24
330
23
100
AcDbEntity
  8
0
100
AcDbBlockBegin
  2
*Paper_Space0
 70
     0
 10
0.0
 20
0.0
 30
0.0
  3
*Paper_Space0
  1

  0
ENDBLK
  5
25
330
23
100
AcDbEntity
  8
0
100
AcDbBlockEnd
  0
BLOCK
  5
50
330
4E
100
AcDbEntity
  8
0
100
AcDbBlockBegin
  2
block 2
 70
     0
 10
0.0
 20
0.0
 30
0.0
  3
block 2
  1

  0
SPLINE
  5
52
330
4E
100
AcDbEntity
  8
_U+30EC_U+30A4_U+30E4_U+30FC 1
370
     0
100
AcDbSpline
210
0.0
220
0.0
230
1.0
 70
    11
 71
     3
 72
    17
 73
    13
 74
     0
 42
0.0000000001
 43
0.0000000001
 12
1.0
 22
0.0
 32
0.0
 13
1.0
 23
0.0
 33
0.0
 40
0.0
 40
0.0
 40
0.0
 40
0.0
 40
1.0
 40
1.0
 40
1.0
 40
2.0
 40
2.0
 40
2.0
 40
3.0
 40
3.0
 40
3.0
 40
4.0
 40
4.0
 40
4.0
 40
4.0
 10
92.33062606198679
 20
-109.6093302134831
 30
0.0
 10
92.22486163058963
 20
-109.5035657820859
 30
0.0
 10
92.1445909057833
 20
-109.4656697317482
 30
0.0
 10
92.05122881813303
 20
-109.4336303437353
 30
0.0
 10
92.05122881813303
 20
-109.4336303437353
 30
0.0
 10
92.16147187366103
 20
-109.2686102699919
 30
0.0
 10
92.16147187366103
 20
-109.2686102699919
 30
0.0
 10
92.25862356634507
 20
-109.3109849444605
 30
0.0
 10
92.37920190832881
 20
-109.3895331215242
 30
0.0
 10
92.43225637880167
 20
-109.4443101397396
 30
0.0
 10
92.43225637880167
 20
-109.4443101397396
 30
0.0
 10
92.33062606198679
 20
-109.6093302134831
 30
0.0
 10
92.33062606198679
 20
-109.6093302134831
 30
0.0
  0
SPLINE
  5
53
330
4E
100
AcDbEntity
  8
_U+30EC_U+30A4_U+30E4_U+30FC 1
370
     0
100
AcDbSpline
210
0.0
220
0.0
230
1.0
 70
    11
 71
     3
 72
   182
 73
   178
 74
     0
 42
0.0000000001
 43
0.0000000001
 12
1.0
 22
0.0
 32
0.0
 13
1.0
 23
0.0
 33
0.0
 40
0.0
 40
0.0
 40
0.0
 40
0.0
 40
1.0
 40
1.0
 40
1.0
 40
2.0
 40
2.0
 40
2.0
 40
3.0
 40
3.0
 40
3.0
 40
4.0
 40
4.0
 40
4.0
 40
5.0
 40
5.0
 40
5.0
 40
6.0
 40
6.0
 40
6.0
 40
7.0
 40
7.0
 40
7.0
 40
8.0
 40
8.0
 40
8.0
 40
9.0
 40
9.0
 40
9.0
 40
10.0
 40
10.0
 40
10.0
 40
11.0
 40
11.0
 40
11.0
 40
12.0
 40
12.0
 40
12.0
 40
13.0
 40
13.0
 40
13.0
 40
14.0
 40
14.0
 40
14.0
 40
15.0
 40
15.0
 40
15.0
 40
16.0
 40
16.0
 40
16.0
 40
17.0
 40
17.0
 40
17.0
 40
18.0
 40
18.0
 40
18.0
 40
19.0
 40
19.0
 40
19.0
 40
20.0
 40
20.0
 40
20.0
 40
21.0
 40
21.0
 40
21.0
 40
22.0
 40
22.0
 40
22.0
 40
23.0
 40
23.0
 40
23.0
 40
24.0
 40
24.0
 40
24.0
 40
25.0
 40
25.0
 40
25.0
 40
26.0
 40
26.0
 40
26.0
 40
27.0
 40
27.0
 40
27.0
 40
28.0
 40
28.0
 40
28.0
 40
29.0
 40
29.0
 40
29.0
 40
30.0
 40
30.0
 40
30.0
 40
31.0
 40
31.0
 40
31.0
 40
32.0
 40
32.0
 40
32.0
 40
33.0
 40
33.0
 40
33.0
 40
34.0
 40
34.0
 40
34.0
 40
35.0
 40
35.0
 40
35.0
 40
36.0
 40
36.0
 40
36.0
 40
37.0
 40
37.0
 40
37.0
 40
38.0
 40
38.0
 40
38.0
 40
39.0
 40
39.0
 40
39.0
 40
40.0
 40
40.0
 40
40.0
 40
41.0
 40
41.0
 40
41.0
 40
42.0
 40
42.0
 40
42.0
 40
43.0
 40
43.0
 40
43.0
 40
44.0
 40
44.0
 40
44.0
 40
45.0
 40
45.0
 40
45.0
 40
46.0
 40
46.0
 40
46.0
 40
47.0
 40
47.0
 40
47.0
 40
48.0
 40
48.0
 40
48.0
 40
49.0
 40
49.0
 40
49.0
 40
50.0
 40
50.0
 40
50.0
 40
51.0
 40
51.0
 40
51.0
 40
52.0
 40
52.0
 40
52.0
 40
53.0
 40
53.0
 40
53.0
 40
54.0
 40
54.0
 40
54.0
 40
55.0
 40
55.0
 40
55.0
 40
56.0
 40
56.0
 40
56.0
 40
57.0
 40
57.0
 40
57.0
 40
58.0
 40
58.0
 40
58.0
 40
59.0
 40
59.0
 40
59.0
 40
59.0
 10
93.3758680322116
 20
-110.7875528694385
 30
0.0
 10
93.3758680322116
 20
-110.7875528694385
 30
0.0
 10
92.7388698769889
 20
-110.7875528694385
 30
0.0
 10
92.7388698769889
 20
-110.7875528694385
 30
0.0
 10
92.5252739569034
 20
-110.7875528694385
 30
0.0
 10
92.30961097952677
 20
-110.7920314935694
 30
0.0
 10
92.09567054989276
 20
-110.8047783468648
 30
0.0
 10
92.09567054989276
 20
-110.8047783468648
 30
0.0
 10
92.09567054989276
 20
-110.5973835986527
 30
0.0
 10
92.09567054989276
 20
-110.5973835986527
 30
0.0
 10
92.31787920869137
 20
-110.6101304519482
 30
0.0
 10
92.64171818430485
 20
-110.6142645665305
 30
0.0
 10
92.7388698769889
 20
-110.6142645665305
 30
0.0
 10
92.7388698769889
 20
-110.6142645665305
 30
0.0
 10
92.95901147849636
 20
-110.6142645665305
 30
0.0
 10
92.95901147849636
 20
-110.6142645665305
 30
0.0
 10
92.95901147849636
 20
-110.6142645665305
 30
0.0
 10
92.95901147849636
 20
-110.4726711420867
 30
0.0
 10
92.95901147849636
 20
-110.4726711420867
 30
0.0
 10
92.95901147849636
 20
-110.4726711420867
 30
0.0
 10
92.7981255193352
 20
-110.4726711420867
 30
0.0
 10
92.7981255193352
 20
-110.4726711420867
 30
0.0
 10
92.63310544559172
 20
-110.4726711420867
 30
0.0
 10
92.46808537184826
 20
-110.476805256669
 30
0.0
 10
92.3030652981048
 20
-110.4916191672556
 30
0.0
 10
92.3030652981048
 20
-110.4916191672556
 30
0.0
 10
92.3030652981048
 20
-110.2821573617524
 30
0.0
 10
92.3030652981048
 20
-110.2821573617524
 30
0.0
 10
92.47463105327023
 20
-110.296971272339
 30
0.0
 10
92.72198890911118
 20
-110.3011053869213
 30
0.0
 10
92.7981255193352
 20
-110.3011053869213
 30
0.0
 10
92.7981255193352
 20
-110.3011053869213
 30
0.0
 10
92.95901147849636
 20
-110.3011053869213
 30
0.0
 10
92.95901147849636
 20
-110.3011053869213
 30
0.0
 10
92.95487736391406
 20
-110.2291028912795
 30
0.0
 10
92.95487736391406
 20
-110.2229017194061
 30
0.0
 10
92.94833168249208
 20
-110.1698472489332
 30
0.0
 10
92.94833168249208
 20
-110.1698472489332
 30
0.0
 10
93.08785804964471
 20
-110.1846611595198
 30
0.0
 10
93.08785804964471
 20
-110.1846611595198
 30
0.0
 10
93.08785804964471
 20
-110.1846611595198
 30
0.0
 10
92.98863929966952
 20
-110.0134399139029
 30
0.0
 10
92.98863929966952
 20
-110.0134399139029
 30
0.0
 10
93.03514808872039
 20
-110.0196410857763
 30
0.0
 10
93.10921764165326
 20
-110.0282538244895
 30
0.0
 10
93.12609860953098
 20
-110.0282538244895
 30
0.0
 10
93.17674151316415
 20
-110.0282538244895
 30
0.0
 10
93.19362248104187
 20
-110.0072387420294
 30
0.0
 10
93.19362248104187
 20
-109.9500501569743
 30
0.0
 10
93.19362248104187
 20
-109.9500501569743
 30
0.0
 10
93.19362248104187
 20
-109.8125908471128
 30
0.0
 10
93.19362248104187
 20
-109.8125908471128
 30
0.0
 10
93.19362248104187
 20
-109.8125908471128
 30
0.0
 10
93.08785804964471
 20
-109.8125908471128
 30
0.0
 10
93.08785804964471
 20
-109.8125908471128
 30
0.0
 10
92.95487736391406
 20
-109.8125908471128
 30
0.0
 10
92.7981255193352
 20
-109.8125908471128
 30
0.0
 10
92.6754801200603
 20
-109.8249931908597
 30
0.0
 10
92.6754801200603
 20
-109.8249931908597
 30
0.0
 10
92.6754801200603
 20
-109.6348239200739
 30
0.0
 10
92.6754801200603
 20
-109.6348239200739
 30
0.0
 10
92.84256725109492
 20
-109.6517048879517
 30
0.0
 10
93.07304413905813
 20
-109.6537719452428
 30
0.0
 10
93.08785804964471
 20
-109.6537719452428
 30
0.0
 10
93.08785804964471
 20
-109.6537719452428
 30
0.0
 10
93.19362248104187
 20
-109.6537719452428
 30
0.0
 10
93.19362248104187
 20
-109.6537719452428
 30
0.0
 10
93.19362248104187
 20
-109.6537719452428
 30
0.0
 10
93.19362248104187
 20
-109.5225138072548
 30
0.0
 10
93.19362248104187
 20
-109.5225138072548
 30
0.0
 10
93.19362248104187
 20
-109.5225138072548
 30
0.0
 10
93.15572643070414
 20
-109.5225138072548
 30
0.0
 10
93.15572643070414
 20
-109.5225138072548
 30
0.0
 10
93.1112846989444
 20
-109.5225138072548
 30
0.0
 10
92.98657224237836
 20
-109.5269924313856
 30
0.0
 10
92.89768877885892
 20
-109.5352606605502
 30
0.0
 10
92.89768877885892
 20
-109.5352606605502
 30
0.0
 10
92.89768877885892
 20
-109.4549899357439
 30
0.0
 10
92.89768877885892
 20
-109.4549899357439
 30
0.0
 10
92.84463430838606
 20
-109.4928859860816
 30
0.0
 10
92.81948511134374
 20
-109.5076998966682
 30
0.0
 10
92.77711043687518
 20
-109.5311265459679
 30
0.0
 10
92.77711043687518
 20
-109.5311265459679
 30
0.0
 10
92.588663713832
 20
-109.4019354652711
 30
0.0
 10
92.588663713832
 20
-109.4019354652711
 30
0.0
 10
92.66686738134717
 20
-109.3681735295156
 30
0.0
 10
92.82361922592604
 20
-109.304783772587
 30
0.0
 10
92.98002656095639
 20
-109.1607787813036
 30
0.0
 10
93.06270885260238
 20
-109.0825751137884
 30
0.0
 10
93.14091252011755
 20
-108.9978257648512
 30
0.0
 10
93.19362248104187
 20
-108.8965399575849
 30
0.0
 10
93.19362248104187
 20
-108.8965399575849
 30
0.0
 10
93.40515134383622
 20
-108.9578626572223
 30
0.0
 10
93.40515134383622
 20
-108.9578626572223
 30
0.0
 10
93.42444387855362
 20
-108.9640638290958
 30
0.0
 10
93.43477916500936
 20
-108.9726765678089
 30
0.0
 10
93.43477916500936
 20
-108.9854234211043
 30
0.0
 10
93.43477916500936
 20
-109.0023043889821
 30
0.0
 10
93.42237682126246
 20
-109.0085055608555
 30
0.0
 10
93.39688311467161
 20
-109.0212524141509
 30
0.0
 10
93.47715383947794
 20
-109.1187486163835
 30
0.0
 10
93.64010685593026
 20
-109.2159003090676
 30
0.0
 10
93.6738687916857
 20
-109.2348483342364
 30
0.0
 10
93.8240749548426
 20
-109.3237317977559
 30
0.0
 10
93.93845212495289
 20
-109.3512925616379
 30
0.0
 10
94.01665579246806
 20
-109.3702405868067
 30
0.0
 10
94.01665579246806
 20
-109.3702405868067
 30
0.0
 10
93.89814450777547
 20
-109.5393947751325
 30
0.0
 10
93.89814450777547
 20
-109.5393947751325
 30
0.0
 10
93.81373966838684
 20
-109.5101114635079
 30
0.0
 10
93.76275225520514
 20
-109.4908189287905
 30
0.0
 10
93.64424097051256
 20
-109.4253621145707
 30
0.0
 10
93.64424097051256
 20
-109.4253621145707
 30
0.0
 10
93.64424097051256
 20
-109.5352606605502
 30
0.0
 10
93.64424097051256
 20
-109.5352606605502
 30
0.0
 10
93.56190318841509
 20
-109.5269924313856
 30
0.0
 10
93.43477916500936
 20
-109.5225138072548
 30
0.0
 10
93.38206920408504
 20
-109.5225138072548
 30
0.0
 10
93.38206920408504
 20
-109.5225138072548
 30
0.0
 10
93.38206920408504
 20
-109.6537719452428
 30
0.0
 10
93.38206920408504
 20
-109.6537719452428
 30
0.0
 10
93.38206920408504
 20
-109.6537719452428
 30
0.0
 10
93.50264754606879
 20
-109.6537719452428
 30
0.0
 10
93.50264754606879
 20
-109.6537719452428
 30
0.0
 10
93.50471460335994
 20
-109.6537719452428
 30
0.0
 10
93.73760305816283
 20
-109.6517048879517
 30
0.0
 10
93.9150254756532
 20
-109.6348239200739
 30
0.0
 10
93.9150254756532
 20
-109.6348239200739
 30
0.0
 10
93.9150254756532
 20
-109.8249931908597
 30
0.0
 10
93.9150254756532
 20
-109.8249931908597
 30
0.0
 10
93.78617890450485
 20
-109.8125908471128
 30
0.0
 10
93.62942705992599
 20
-109.8125908471128
 30
0.0
 10
93.50264754606879
 20
-109.8125908471128
 30
0.0
 10
93.50264754606879
 20
-109.8125908471128
 30
0.0
 10
93.38206920408504
 20
-109.8125908471128
 30
0.0
 10
93.38206920408504
 20
-109.8125908471128
 30
0.0
 10
93.38206920408504
 20
-109.8125908471128
 30
0.0
 10
93.38206920408504
 20
-110.0389336204938
 30
0.0
 10
93.38206920408504
 20
-110.0389336204938
 30
0.0
 10
93.38206920408504
 20
-110.1574449051863
 30
0.0
 10
93.35657549749419
 20
-110.1932738982329
 30
0.0
 10
93.19603404788155
 20
-110.2080878088195
 30
0.0
 10
93.20016816246385
 20
-110.2270358339884
 30
0.0
 10
93.19362248104187
 20
-110.2377156299927
 30
0.0
 10
93.15572643070414
 20
-110.2607977697438
 30
0.0
 10
93.15365937341298
 20
-110.2800903044612
 30
0.0
 10
93.15365937341298
 20
-110.2862914763347
 30
0.0
 10
93.15159231612184
 20
-110.3011053869213
 30
0.0
 10
93.15159231612184
 20
-110.3011053869213
 30
0.0
 10
93.28905162598329
 20
-110.3011053869213
 30
0.0
 10
93.28905162598329
 20
-110.3011053869213
 30
0.0
 10
93.45407169972677
 20
-110.3011053869213
 30
0.0
 10
93.62115883076139
 20
-110.296971272339
 30
0.0
 10
93.788245961796
 20
-110.2821573617524
 30
0.0
 10
93.788245961796
 20
-110.2821573617524
 30
0.0
 10
93.788245961796
 20
-110.4895521099644
 30
0.0
 10
93.788245961796
 20
-110.4895521099644
 30
0.0
 10
93.57258298441936
 20
-110.4726711420867
 30
0.0
 10
93.30799965115217
 20
-110.4726711420867
 30
0.0
 10
93.28905162598329
 20
-110.4726711420867
 30
0.0
 10
93.28905162598329
 20
-110.4726711420867
 30
0.0
 10
93.14918074928215
 20
-110.4726711420867
 30
0.0
 10
93.14918074928215
 20
-110.4726711420867
 30
0.0
 10
93.14918074928215
 20
-110.4726711420867
 30
0.0
 10
93.14918074928215
 20
-110.6142645665305
 30
0.0
 10
93.14918074928215
 20
-110.6142645665305
 30
0.0
 10
93.14918074928215
 20
-110.6142645665305
 30
0.0
 10
93.3758680322116
 20
-110.6142645665305
 30
0.0
 10
93.3758680322116
 20
-110.6142645665305
 30
0.0
 10
93.59153100958824
 20
-110.6142645665305
 30
0.0
 10
93.80926104425602
 20
-110.6101304519482
 30
0.0
 10
94.02526853118118
 20
-110.5973835986527
 30
0.0
 10
94.02526853118118
 20
-110.5973835986527
 30
0.0
 10
94.02526853118118
 20
-110.8047783468648
 30
0.0
 10
94.02526853118118
 20
-110.8047783468648
 30
0.0
 10
93.74380423003628
 20
-110.7875528694385
 30
0.0
 10
93.39895017196277
 20
-110.7875528694385
 30
0.0
 10
93.3758680322116
 20
-110.7875528694385
 30
0.0
  0
SPLINE
  5
54
330
4E
100
AcDbEntity
  8
_U+30EC_U+30A4_U+30E4_U+30FC 1
370
     0
100
AcDbSpline
210
0.0
220
0.0
230
1.0
 70
    11
 71
     3
 72
    23
 73
    19
 74
     0
 42
0.0000000001
 43
0.0000000001
 12
1.0
 22
0.0
 32
0.0
 13
1.0
 23
0.0
 33
0.0
 40
0.0
 40
0.0
 40
0.0
 40
0.0
 40
1.0
 40
1.0
 40
1.0
 40
2.0
 40
2.0
 40
2.0
 40
3.0
 40
3.0
 40
3.0
 40
4.0
 40
4.0
 40
4.0
 40
5.0
 40
5.0
 40
5.0
 40
6.0
 40
6.0
 40
6.0
 40
6.0
 10
92.25655650905392
 20
-110.1595119624775
 30
0.0
 10
92.25655650905392
 20
-110.1805270449375
 30
0.0
 10
92.25862356634507
 20
-110.2187676048238
 30
0.0
 10
92.23347436930274
 20
-110.2187676048238
 30
0.0
 10
92.22279457329847
 20
-110.2187676048238
 30
0.0
 10
92.21418183458535
 20
-110.2122219234018
 30
0.0
 10
92.2038465481296
 20
-110.1953409555241
 30
0.0
 10
92.2038465481296
 20
-110.1953409555241
 30
0.0
 10
92.10014917402358
 20
-110.0134399139029
 30
0.0
 10
92.10014917402358
 20
-110.0134399139029
 30
0.0
 10
92.31581215140022
 20
-109.884248833206
 30
0.0
 10
92.51252710360798
 20
-109.6072631561919
 30
0.0
 10
92.55903589265886
 20
-109.5352606605502
 30
0.0
 10
92.55903589265886
 20
-109.5352606605502
 30
0.0
 10
92.63103838830058
 20
-109.7150946448803
 30
0.0
 10
92.63103838830058
 20
-109.7150946448803
 30
0.0
 10
92.49771319302141
 20
-109.911809597088
 30
0.0
 10
92.32201332327367
 20
-110.0957776960004
 30
0.0
 10
92.25655650905392
 20
-110.1595119624775
 30
0.0
  0
SPLINE
  5
55
330
4E
100
AcDbEntity
  8
_U+30EC_U+30A4_U+30E4_U+30FC 1
370
     0
100
AcDbSpline
210
0.0
220
0.0
230
1.0
 70
    11
 71
     3
 72
    17
 73
    13
 74
     0
 42
0.0000000001
 43
0.0000000001
 12
1.0
 22
0.0
 32
0.0
 13
1.0
 23
0.0
 33
0.0
 40
0.0
 40
0.0
 40
0.0
 40
0.0
 40
1.0
 40
1.0
 40
1.0
 40
2.0
 40
2.0
 40
2.0
 40
3.0
 40
3.0
 40
3.0
 40
4.0
 40
4.0
 40
4.0
 40
4.0
 10
92.51046004631684
 20
-109.2644761554096
 30
0.0
 10
92.4491373466794
 20
-109.1883395451856
 30
0.0
 10
92.31994626598252
 20
-109.1122029349615
 30
0.0
 10
92.2162488918765
 20
-109.0825751137884
 30
0.0
 10
92.2162488918765
 20
-109.0825751137884
 30
0.0
 10
92.31167803681792
 20
-108.9175550400449
 30
0.0
 10
92.31167803681792
 20
-108.9175550400449
 30
0.0
 10
92.41330835363279
 20
-108.9537285426401
 30
0.0
 10
92.51907278502996
 20
-109.0105726181467
 30
0.0
 10
92.60761173900087
 20
-109.0911878525015
 30
0.0
 10
92.60761173900087
 20
-109.0911878525015
 30
0.0
 10
92.51046004631684
 20
-109.2644761554096
 30
0.0
 10
92.51046004631684
 20
-109.2644761554096
 30
0.0
  0
SPLINE
  5
56
330
4E
100
AcDbEntity
  8
_U+30EC_U+30A4_U+30E4_U+30FC 1
370
     0
100
AcDbSpline
210
0.0
220
0.0
230
1.0
 70
    11
 71
     3
 72
    23
 73
    19
 74
     0
 42
0.0000000001
 43
0.0000000001
 12
1.0
 22
0.0
 32
0.0
 13
1.0
 23
0.0
 33
0.0
 40
0.0
 40
0.0
 40
0.0
 40
0.0
 40
1.0
 40
1.0
 40
1.0
 40
2.0
 40
2.0
 40
2.0
 40
3.0
 40
3.0
 40
3.0
 40
4.0
 40
4.0
 40
4.0
 40
5.0
 40
5.0
 40
5.0
 40
6.0
 40
6.0
 40
6.0
 40
6.0
 10
92.96314559307866
 20
-109.9689981821432
 30
0.0
 10
92.94213051061864
 20
-109.9924248314429
 30
0.0
 10
92.84463430838606
 20
-110.1043904347135
 30
0.0
 10
92.70510794123345
 20
-110.1846611595198
 30
0.0
 10
92.70510794123345
 20
-110.1846611595198
 30
0.0
 10
92.53802081019883
 20
-110.0640828175361
 30
0.0
 10
92.53802081019883
 20
-110.0640828175361
 30
0.0
 10
92.68822697335573
 20
-109.987946207312
 30
0.0
 10
92.78744572333092
 20
-109.8928615719192
 30
0.0
 10
92.83636607922146
 20
-109.8398071014463
 30
0.0
 10
92.83636607922146
 20
-109.8398071014463
 30
0.0
 10
93.00965438212954
 20
-109.9224893930923
 30
0.0
 10
93.00965438212954
 20
-109.9224893930923
 30
0.0
 10
93.01826712084267
 20
-109.9266235076746
 30
0.0
 10
93.02653535000726
 20
-109.9331691890966
 30
0.0
 10
93.02653535000726
 20
-109.9435044755523
 30
0.0
 10
93.02653535000726
 20
-109.9689981821432
 30
0.0
 10
92.99070635696066
 20
-109.9689981821432
 30
0.0
 10
92.96314559307866
 20
-109.9689981821432
 30
0.0
  0
SPLINE
  5
57
330
4E
100
AcDbEntity
  8
_U+30EC_U+30A4_U+30E4_U+30FC 1
370
     0
100
AcDbSpline
210
0.0
220
0.0
230
1.0
 70
    11
 71
     3
 72
    20
 73
    16
 74
     0
 42
0.0000000001
 43
0.0000000001
 12
1.0
 22
0.0
 32
0.0
 13
1.0
 23
0.0
 33
0.0
 40
0.0
 40
0.0
 40
0.0
 40
0.0
 40
1.0
 40
1.0
 40
1.0
 40
2.0
 40
2.0
 40
2.0
 40
3.0
 40
3.0
 40
3.0
 40
4.0
 40
4.0
 40
4.0
 40
5.0
 40
5.0
 40
5.0
 40
5.0
 10
93.2614908621013
 20
-109.1270168455481
 30
0.0
 10
93.22325030221502
 20
-109.1755926918901
 30
0.0
 10
93.16192760257758
 20
-109.2541408689538
 30
0.0
 10
93.02240123542497
 20
-109.3640394149333
 30
0.0
 10
93.10267196023128
 20
-109.3681735295156
 30
0.0
 10
93.13229978140443
 20
-109.3681735295156
 30
0.0
 10
93.15572643070414
 20
-109.3681735295156
 30
0.0
 10
93.15572643070414
 20
-109.3681735295156
 30
0.0
 10
93.3841362613762
 20
-109.3681735295156
 30
0.0
 10
93.3841362613762
 20
-109.3681735295156
 30
0.0
 10
93.41583113984049
 20
-109.3681735295156
 30
0.0
 10
93.46440698618251
 20
-109.3661064722244
 30
0.0
 10
93.53847653911538
 20
-109.3640394149333
 30
0.0
 10
93.42651093584476
 20
-109.2899698620004
 30
0.0
 10
93.37793508950274
 20
-109.2434610729496
 30
0.0
 10
93.2614908621013
 20
-109.1270168455481
 30
0.0
  0
SPLINE
  5
58
330
4E
100
AcDbEntity
  8
_U+30EC_U+30A4_U+30E4_U+30FC 1
370
     0
100
AcDbSpline
210
0.0
220
0.0
230
1.0
 70
    11
 71
     3
 72
    17
 73
    13
 74
     0
 42
0.0000000001
 43
0.0000000001
 12
1.0
 22
0.0
 32
0.0
 13
1.0
 23
0.0
 33
0.0
 40
0.0
 40
0.0
 40
0.0
 40
0.0
 40
1.0
 40
1.0
 40
1.0
 40
2.0
 40
2.0
 40
2.0
 40
3.0
 40
3.0
 40
3.0
 40
4.0
 40
4.0
 40
4.0
 40
4.0
 10
93.82200789755144
 20
-110.1825941022287
 30
0.0
 10
93.68661564498113
 20
-110.070628498958
 30
0.0
 10
93.58085121358395
 20
-110.0072387420294
 30
0.0
 10
93.46233992889137
 20
-109.9435044755523
 30
0.0
 10
93.46233992889137
 20
-109.9435044755523
 30
0.0
 10
93.58946395229708
 20
-109.8315388722817
 30
0.0
 10
93.58946395229708
 20
-109.8315388722817
 30
0.0
 10
93.72037758073658
 20
-109.8780476613326
 30
0.0
 10
93.83062063626457
 20
-109.9352362463877
 30
0.0
 10
93.95533309283061
 20
-110.0368665632026
 30
0.0
 10
93.95533309283061
 20
-110.0368665632026
 30
0.0
 10
93.82200789755144
 20
-110.1825941022287
 30
0.0
 10
93.82200789755144
 20
-110.1825941022287
 30
0.0
  0
HATCH
  5
59
330
4E
100
AcDbEntity
  8
_U+30EC_U+30A4_U+30E4_U+30FC 1
 62
   179
420
  2234388
100
AcDbHatch
 10
0.0
 20
0.0
 30
0.0
210
0.0
220
0.0
230
1.0
  2
SOLID
 70
     1
 71
     0
 91
        7
 92
        1
 93
        1
 72
     4
 94
        3
 73
     0
 74
     1
 95
       17
 96
       13
 40
0.0
 40
0.0
 40
0.0
 40
0.0
 40
1.0
 40
1.0
 40
1.0
 40
2.0
 40
2.0
 40
2.0
 40
3.0
 40
3.0
 40
3.0
 40
4.0
 40
4.0
 40
4.0
 40
4.0
 10
92.33062606198679
 20
-109.6093302134831
 10
92.22486163058963
 20
-109.5035657820859
 10
92.1445909057833
 20
-109.4656697317482
 10
92.05122881813303
 20
-109.4336303437353
 10
92.05122881813303
 20
-109.4336303437353
 10
92.16147187366103
 20
-109.2686102699919
 10
92.16147187366103
 20
-109.2686102699919
 10
92.25862356634507
 20
-109.3109849444605
 10
92.37920190832881
 20
-109.3895331215242
 10
92.43225637880167
 20
-109.4443101397396
 10
92.43225637880167
 20
-109.4443101397396
 10
92.33062606198679
 20
-109.6093302134831
 10
92.33062606198679
 20
-109.6093302134831
 97
        0
 97
        0
 92
        1
 93
        1
 72
     4
 94
        3
 73
     0
 74
     1
 95
      182
 96
      178
 40
0.0
 40
0.0
 40
0.0
 40
0.0
 40
1.0
 40
1.0
 40
1.0
 40
2.0
 40
2.0
 40
2.0
 40
3.0
 40
3.0
 40
3.0
 40
4.0
 40
4.0
 40
4.0
 40
5.0
 40
5.0
 40
5.0
 40
6.0
 40
6.0
 40
6.0
 40
7.0
 40
7.0
 40
7.0
 40
8.0
 40
8.0
 40
8.0
 40
9.0
 40
9.0
 40
9.0
 40
10.0
 40
10.0
 40
10.0
 40
11.0
 40
11.0
 40
11.0
 40
12.0
 40
12.0
 40
12.0
 40
13.0
 40
13.0
 40
13.0
 40
14.0
 40
14.0
 40
14.0
 40
15.0
 40
15.0
 40
15.0
 40
16.0
 40
16.0
 40
16.0
 40
17.0
 40
17.0
 40
17.0
 40
18.0
 40
18.0
 40
18.0
 40
19.0
 40
19.0
 40
19.0
 40
20.0
 40
20.0
 40
20.0
 40
21.0
 40
21.0
 40
21.0
 40
22.0
 40
22.0
 40
22.0
 40
23.0
 40
23.0
 40
23.0
 40
24.0
 40
24.0
 40
24.0
 40
25.0
 40
25.0
 40
25.0
 40
26.0
 40
26.0
 40
26.0
 40
27.0
 40
27.0
 40
27.0
 40
28.0
 40
28.0
 40
28.0
 40
29.0
 40
29.0
 40
29.0
 40
30.0
 40
30.0
 40
30.0
 40
31.0
 40
31.0
 40
31.0
 40
32.0
 40
32.0
 40
32.0
 40
33.0
 40
33.0
 40
33.0
 40
34.0
 40
34.0
 40
34.0
 40
35.0
 40
35.0
 40
35.0
 40
36.0
 40
36.0
 40
36.0
 40
37.0
 40
37.0
 40
37.0
 40
38.0
 40
38.0
 40
38.0
 40
39.0
 40
39.0
 40
39.0
 40
40.0
 40
40.0
 40
40.0
 40
41.0
 40
41.0
 40
41.0
 40
42.0
 40
42.0
 40
42.0
 40
43.0
 40
43.0
 40
43.0
 40
44.0
 40
44.0
 40
44.0
 40
45.0
 40
45.0
 40
45.0
 40
46.0
 40
46.0
 40
46.0
 40
47.0
 40
47.0
 40
47.0
 40
48.0
 40
48.0
 40
48.0
 40
49.0
 40
49.0
 40
49.0
 40
50.0
 40
50.0
 40
50.0
 40
51.0
 40
51.0
 40
51.0
 40
52.0
 40
52.0
 40
52.0
 40
53.0
 40
53.0
 40
53.0
 40
54.0
 40
54.0
 40
54.0
 40
55.0
 40
55.0
 40
55.0
 40
56.0
 40
56.0
 40
56.0
 40
57.0
 40
57.0
 40
57.0
 40
58.0
 40
58.0
 40
58.0
 40
59.0
 40
59.0
 40
59.0
 40
59.0
 10
93.3758680322116
 20
-110.7875528694385
 10
93.3758680322116
 20
-110.7875528694385
 10
92.7388698769889
 20
-110.7875528694385
 10
92.7388698769889
 20
-110.7875528694385
 10
92.5252739569034
 20
-110.7875528694385
 10
92.30961097952677
 20
-110.7920314935694
 10
92.09567054989276
 20
-110.8047783468648
 10
92.09567054989276
 20
-110.8047783468648
 10
92.09567054989276
 20
-110.5973835986527
 10
92.09567054989276
 20
-110.5973835986527
 10
92.31787920869137
 20
-110.6101304519482
 10
92.64171818430485
 20
-110.6142645665305
 10
92.7388698769889
 20
-110.6142645665305
 10
92.7388698769889
 20
-110.6142645665305
 10
92.95901147849636
 20
-110.6142645665305
 10
92.95901147849636
 20
-110.6142645665305
 10
92.95901147849636
 20
-110.6142645665305
 10
92.95901147849636
 20
-110.4726711420867
 10
92.95901147849636
 20
-110.4726711420867
 10
92.95901147849636
 20
-110.4726711420867
 10
92.7981255193352
 20
-110.4726711420867
 10
92.7981255193352
 20
-110.4726711420867
 10
92.63310544559172
 20
-110.4726711420867
 10
92.46808537184826
 20
-110.476805256669
 10
92.3030652981048
 20
-110.4916191672556
 10
92.3030652981048
 20
-110.4916191672556
 10
92.3030652981048
 20
-110.2821573617524
 10
92.3030652981048
 20
-110.2821573617524
 10
92.47463105327023
 20
-110.296971272339
 10
92.72198890911118
 20
-110.3011053869213
 10
92.7981255193352
 20
-110.3011053869213
 10
92.7981255193352
 20
-110.3011053869213
 10
92.95901147849636
 20
-110.3011053869213
 10
92.95901147849636
 20
-110.3011053869213
 10
92.95487736391406
 20
-110.2291028912795
 10
92.95487736391406
 20
-110.2229017194061
 10
92.94833168249208
 20
-110.1698472489332
 10
92.94833168249208
 20
-110.1698472489332
 10
93.08785804964471
 20
-110.1846611595198
 10
93.08785804964471
 20
-110.1846611595198
 10
93.08785804964471
 20
-110.1846611595198
 10
92.98863929966952
 20
-110.0134399139029
 10
92.98863929966952
 20
-110.0134399139029
 10
93.03514808872039
 20
-110.0196410857763
 10
93.10921764165326
 20
-110.0282538244895
 10
93.12609860953098
 20
-110.0282538244895
 10
93.17674151316415
 20
-110.0282538244895
 10
93.19362248104187
 20
-110.0072387420294
 10
93.19362248104187
 20
-109.9500501569743
 10
93.19362248104187
 20
-109.9500501569743
 10
93.19362248104187
 20
-109.8125908471128
 10
93.19362248104187
 20
-109.8125908471128
 10
93.19362248104187
 20
-109.8125908471128
 10
93.08785804964471
 20
-109.8125908471128
 10
93.08785804964471
 20
-109.8125908471128
 10
92.95487736391406
 20
-109.8125908471128
 10
92.7981255193352
 20
-109.8125908471128
 10
92.6754801200603
 20
-109.8249931908597
 10
92.6754801200603
 20
-109.8249931908597
 10
92.6754801200603
 20
-109.6348239200739
 10
92.6754801200603
 20
-109.6348239200739
 10
92.84256725109492
 20
-109.6517048879517
 10
93.07304413905813
 20
-109.6537719452428
 10
93.08785804964471
 20
-109.6537719452428
 10
93.08785804964471
 20
-109.6537719452428
 10
93.19362248104187
 20
-109.6537719452428
 10
93.19362248104187
 20
-109.6537719452428
 10
93.19362248104187
 20
-109.6537719452428
 10
93.19362248104187
 20
-109.5225138072548
 10
93.19362248104187
 20
-109.5225138072548
 10
93.19362248104187
 20
-109.5225138072548
 10
93.15572643070414
 20
-109.5225138072548
 10
93.15572643070414
 20
-109.5225138072548
 10
93.1112846989444
 20
-109.5225138072548
 10
92.98657224237836
 20
-109.5269924313856
 10
92.89768877885892
 20
-109.5352606605502
 10
92.89768877885892
 20
-109.5352606605502
 10
92.89768877885892
 20
-109.4549899357439
 10
92.89768877885892
 20
-109.4549899357439
 10
92.84463430838606
 20
-109.4928859860816
 10
92.81948511134374
 20
-109.5076998966682
 10
92.77711043687518
 20
-109.5311265459679
 10
92.77711043687518
 20
-109.5311265459679
 10
92.588663713832
 20
-109.4019354652711
 10
92.588663713832
 20
-109.4019354652711
 10
92.66686738134717
 20
-109.3681735295156
 10
92.82361922592604
 20
-109.304783772587
 10
92.98002656095639
 20
-109.1607787813036
 10
93.06270885260238
 20
-109.0825751137884
 10
93.14091252011755
 20
-108.9978257648512
 10
93.19362248104187
 20
-108.8965399575849
 10
93.19362248104187
 20
-108.8965399575849
 10
93.40515134383622
 20
-108.9578626572223
 10
93.40515134383622
 20
-108.9578626572223
 10
93.42444387855362
 20
-108.9640638290958
 10
93.43477916500936
 20
-108.9726765678089
 10
93.43477916500936
 20
-108.9854234211043
 10
93.43477916500936
 20
-109.0023043889821
 10
93.42237682126246
 20
-109.0085055608555
 10
93.39688311467161
 20
-109.0212524141509
 10
93.47715383947794
 20
-109.1187486163835
 10
93.64010685593026
 20
-109.2159003090676
 10
93.6738687916857
 20
-109.2348483342364
 10
93.8240749548426
 20
-109.3237317977559
 10
93.93845212495289
 20
-109.3512925616379
 10
94.01665579246806
 20
-109.3702405868067
 10
94.01665579246806
 20
-109.3702405868067
 10
93.89814450777547
 20
-109.5393947751325
 10
93.89814450777547
 20
-109.5393947751325
 10
93.81373966838684
 20
-109.5101114635079
 10
93.76275225520514
 20
-109.4908189287905
 10
93.64424097051256
 20
-109.4253621145707
 10
93.64424097051256
 20
-109.4253621145707
 10
93.64424097051256
 20
-109.5352606605502
 10
93.64424097051256
 20
-109.5352606605502
 10
93.56190318841509
 20
-109.5269924313856
 10
93.43477916500936
 20
-109.5225138072548
 10
93.38206920408504
 20
-109.5225138072548
 10
93.38206920408504
 20
-109.5225138072548
 10
93.38206920408504
 20
-109.6537719452428
 10
93.38206920408504
 20
-109.6537719452428
 10
93.38206920408504
 20
-109.6537719452428
 10
93.50264754606879
 20
-109.6537719452428
 10
93.50264754606879
 20
-109.6537719452428
 10
93.50471460335994
 20
-109.6537719452428
 10
93.73760305816283
 20
-109.6517048879517
 10
93.9150254756532
 20
-109.6348239200739
 10
93.9150254756532
 20
-109.6348239200739
 10
93.9150254756532
 20
-109.8249931908597
 10
93.9150254756532
 20
-109.8249931908597
 10
93.78617890450485
 20
-109.8125908471128
 10
93.62942705992599
 20
-109.8125908471128
 10
93.50264754606879
 20
-109.8125908471128
 10
93.50264754606879
 20
-109.8125908471128
 10
93.38206920408504
 20
-109.8125908471128
 10
93.38206920408504
 20
-109.8125908471128
 10
93.38206920408504
 20
-109.8125908471128
 10
93.38206920408504
 20
-110.0389336204938
 10
93.38206920408504
 20
-110.0389336204938
 10
93.38206920408504
 20
-110.1574449051863
 10
93.35657549749419
 20
-110.1932738982329
 10
93.19603404788155
 20
-110.2080878088195
 10
93.20016816246385
 20
-110.2270358339884
 10
93.19362248104187
 20
-110.2377156299927
 10
93.15572643070414
 20
-110.2607977697438
 10
93.15365937341298
 20
-110.2800903044612
 10
93.15365937341298
 20
-110.2862914763347
 10
93.15159231612184
 20
-110.3011053869213
 10
93.15159231612184
 20
-110.3011053869213
 10
93.28905162598329
 20
-110.3011053869213
 10
93.28905162598329
 20
-110.3011053869213
 10
93.45407169972677
 20
-110.3011053869213
 10
93.62115883076139
 20
-110.296971272339
 10
93.788245961796
 20
-110.2821573617524
 10
93.788245961796
 20
-110.2821573617524
 10
93.788245961796
 20
-110.4895521099644
 10
93.788245961796
 20
-110.4895521099644
 10
93.57258298441936
 20
-110.4726711420867
 10
93.30799965115217
 20
-110.4726711420867
 10
93.28905162598329
 20
-110.4726711420867
 10
93.28905162598329
 20
-110.4726711420867
 10
93.14918074928215
 20
-110.4726711420867
 10
93.14918074928215
 20
-110.4726711420867
 10
93.14918074928215
 20
-110.4726711420867
 10
93.14918074928215
 20
-110.6142645665305
 10
93.14918074928215
 20
-110.6142645665305
 10
93.14918074928215
 20
-110.6142645665305
 10
93.3758680322116
 20
-110.6142645665305
 10
93.3758680322116
 20
-110.6142645665305
 10
93.59153100958824
 20
-110.6142645665305
 10
93.80926104425602
 20
-110.6101304519482
 10
94.02526853118118
 20
-110.5973835986527
 10
94.02526853118118
 20
-110.5973835986527
 10
94.02526853118118
 20
-110.8047783468648
 10
94.02526853118118
 20
-110.8047783468648
 10
93.74380423003628
 20
-110.7875528694385
 10
93.39895017196277
 20
-110.7875528694385
 10
93.3758680322116
 20
-110.7875528694385
 97
        0
 97
        0
 92
        1
 93
        1
 72
     4
 94
        3
 73
     0
 74
     1
 95
       23
 96
       19
 40
0.0
 40
0.0
 40
0.0
 40
0.0
 40
1.0
 40
1.0
 40
1.0
 40
2.0
 40
2.0
 40
2.0
 40
3.0
 40
3.0
 40
3.0
 40
4.0
 40
4.0
 40
4.0
 40
5.0
 40
5.0
 40
5.0
 40
6.0
 40
6.0
 40
6.0
 40
6.0
 10
92.25655650905392
 20
-110.1595119624775
 10
92.25655650905392
 20
-110.1805270449375
 10
92.25862356634507
 20
-110.2187676048238
 10
92.23347436930274
 20
-110.2187676048238
 10
92.22279457329847
 20
-110.2187676048238
 10
92.21418183458535
 20
-110.2122219234018
 10
92.2038465481296
 20
-110.1953409555241
 10
92.2038465481296
 20
-110.1953409555241
 10
92.10014917402358
 20
-110.0134399139029
 10
92.10014917402358
 20
-110.0134399139029
 10
92.31581215140022
 20
-109.884248833206
 10
92.51252710360798
 20
-109.6072631561919
 10
92.55903589265886
 20
-109.5352606605502
 10
92.55903589265886
 20
-109.5352606605502
 10
92.63103838830058
 20
-109.7150946448803
 10
92.63103838830058
 20
-109.7150946448803
 10
92.49771319302141
 20
-109.911809597088
 10
92.32201332327367
 20
-110.0957776960004
 10
92.25655650905392
 20
-110.1595119624775
 97
        0
 97
        0
 92
        1
 93
        1
 72
     4
 94
        3
 73
     0
 74
     1
 95
       17
 96
       13
 40
0.0
 40
0.0
 40
0.0
 40
0.0
 40
1.0
 40
1.0
 40
1.0
 40
2.0
 40
2.0
 40
2.0
 40
3.0
 40
3.0
 40
3.0
 40
4.0
 40
4.0
 40
4.0
 40
4.0
 10
92.51046004631684
 20
-109.2644761554096
 10
92.4491373466794
 20
-109.1883395451856
 10
92.31994626598252
 20
-109.1122029349615
 10
92.2162488918765
 20
-109.0825751137884
 10
92.2162488918765
 20
-109.0825751137884
 10
92.31167803681792
 20
-108.9175550400449
 10
92.31167803681792
 20
-108.9175550400449
 10
92.41330835363279
 20
-108.9537285426401
 10
92.51907278502996
 20
-109.0105726181467
 10
92.60761173900087
 20
-109.0911878525015
 10
92.60761173900087
 20
-109.0911878525015
 10
92.51046004631684
 20
-109.2644761554096
 10
92.51046004631684
 20
-109.2644761554096
 97
        0
 97
        0
 92
        1
 93
        1
 72
     4
 94
        3
 73
     0
 74
     1
 95
       23
 96
       19
 40
0.0
 40
0.0
 40
0.0
 40
0.0
 40
1.0
 40
1.0
 40
1.0
 40
2.0
 40
2.0
 40
2.0
 40
3.0
 40
3.0
 40
3.0
 40
4.0
 40
4.0
 40
4.0
 40
5.0
 40
5.0
 40
5.0
 40
6.0
 40
6.0
 40
6.0
 40
6.0
 10
92.96314559307866
 20
-109.9689981821432
 10
92.94213051061864
 20
-109.9924248314429
 10
92.84463430838606
 20
-110.1043904347135
 10
92.70510794123345
 20
-110.1846611595198
 10
92.70510794123345
 20
-110.1846611595198
 10
92.53802081019883
 20
-110.0640828175361
 10
92.53802081019883
 20
-110.0640828175361
 10
92.68822697335573
 20
-109.987946207312
 10
92.78744572333092
 20
-109.8928615719192
 10
92.83636607922146
 20
-109.8398071014463
 10
92.83636607922146
 20
-109.8398071014463
 10
93.00965438212954
 20
-109.9224893930923
 10
93.00965438212954
 20
-109.9224893930923
 10
93.01826712084267
 20
-109.9266235076746
 10
93.02653535000726
 20
-109.9331691890966
 10
93.02653535000726
 20
-109.9435044755523
 10
93.02653535000726
 20
-109.9689981821432
 10
92.99070635696066
 20
-109.9689981821432
 10
92.96314559307866
 20
-109.9689981821432
 97
        0
 97
        0
 92
        1
 93
        1
 72
     4
 94
        3
 73
     0
 74
     1
 95
       20
 96
       16
 40
0.0
 40
0.0
 40
0.0
 40
0.0
 40
1.0
 40
1.0
 40
1.0
 40
2.0
 40
2.0
 40
2.0
 40
3.0
 40
3.0
 40
3.0
 40
4.0
 40
4.0
 40
4.0
 40
5.0
 40
5.0
 40
5.0
 40
5.0
 10
93.2614908621013
 20
-109.1270168455481
 10
93.22325030221502
 20
-109.1755926918901
 10
93.16192760257758
 20
-109.2541408689538
 10
93.02240123542497
 20
-109.3640394149333
 10
93.10267196023128
 20
-109.3681735295156
 10
93.13229978140443
 20
-109.3681735295156
 10
93.15572643070414
 20
-109.3681735295156
 10
93.15572643070414
 20
-109.3681735295156
 10
93.3841362613762
 20
-109.3681735295156
 10
93.3841362613762
 20
-109.3681735295156
 10
93.41583113984049
 20
-109.3681735295156
 10
93.46440698618251
 20
-109.3661064722244
 10
93.53847653911538
 20
-109.3640394149333
 10
93.42651093584476
 20
-109.2899698620004
 10
93.37793508950274
 20
-109.2434610729496
 10
93.2614908621013
 20
-109.1270168455481
 97
        0
 97
        0
 92
        1
 93
        1
 72
     4
 94
        3
 73
     0
 74
     1
 95
       17
 96
       13
 40
0.0
 40
0.0
 40
0.0
 40
0.0
 40
1.0
 40
1.0
 40
1.0
 40
2.0
 40
2.0
 40
2.0
 40
3.0
 40
3.0
 40
3.0
 40
4.0
 40
4.0
 40
4.0
 40
4.0
 10
93.82200789755144
 20
-110.1825941022287
 10
93.68661564498113
 20
-110.070628498958
 10
93.58085121358395
 20
-110.0072387420294
 10
93.46233992889137
 20
-109.9435044755523
 10
93.46233992889137
 20
-109.9435044755523
 10
93.58946395229708
 20
-109.8315388722817
 10
93.58946395229708
 20
-109.8315388722817
 10
93.72037758073658
 20
-109.8780476613326
 10
93.83062063626457
 20
-109.9352362463877
 10
93.95533309283061
 20
-110.0368665632026
 10
93.95533309283061
 20
-110.0368665632026
 10
93.82200789755144
 20
-110.1825941022287
 10
93.82200789755144
 20
-110.1825941022287
 97
        0
 97
        0
 75
     2
 76
     1
 98
        0
  0
SPLINE
  5
5A
330
4E
100
AcDbEntity
  8
_U+30EC_U+30A4_U+30E4_U+30FC 1
370
     0
100
AcDbSpline
210
0.0
220
0.0
230
1.0
 70
    11
 71
     3
 72
   113
 73
   109
 74
     0
 42
0.0000000001
 43
0.0000000001
 12
1.0
 22
0.0
 32
0.0
 13
1.0
 23
0.0
 33
0.0
 40
0.0
 40
0.0
 40
0.0
 40
0.0
 40
1.0
 40
1.0
 40
1.0
 40
2.0
 40
2.0
 40
2.0
 40
3.0
 40
3.0
 40
3.0
 40
4.0
 40
4.0
 40
4.0
 40
5.0
 40
5.0
 40
5.0
 40
6.0
 40
6.0
 40
6.0
 40
7.0
 40
7.0
 40
7.0
 40
8.0
 40
8.0
 40
8.0
 40
9.0
 40
9.0
 40
9.0
 40
10.0
 40
10.0
 40
10.0
 40
11.0
 40
11.0
 40
11.0
 40
12.0
 40
12.0
 40
12.0
 40
13.0
 40
13.0
 40
13.0
 40
14.0
 40
14.0
 40
14.0
 40
15.0
 40
15.0
 40
15.0
 40
16.0
 40
16.0
 40
16.0
 40
17.0
 40
17.0
 40
17.0
 40
18.0
 40
18.0
 40
18.0
 40
19.0
 40
19.0
 40
19.0
 40
20.0
 40
20.0
 40
20.0
 40
21.0
 40
21.0
 40
21.0
 40
22.0
 40
22.0
 40
22.0
 40
23.0
 40
23.0
 40
23.0
 40
24.0
 40
24.0
 40
24.0
 40
25.0
 40
25.0
 40
25.0
 40
26.0
 40
26.0
 40
26.0
 40
27.0
 40
27.0
 40
27.0
 40
28.0
 40
28.0
 40
28.0
 40
29.0
 40
29.0
 40
29.0
 40
30.0
 40
30.0
 40
30.0
 40
31.0
 40
31.0
 40
31.0
 40
32.0
 40
32.0
 40
32.0
 40
33.0
 40
33.0
 40
33.0
 40
34.0
 40
34.0
 40
34.0
 40
35.0
 40
35.0
 40
35.0
 40
36.0
 40
36.0
 40
36.0
 40
36.0
 10
95.70165199430376
 20
-110.1595119624775
 30
0.0
 10
95.70165199430376
 20
-110.1595119624775
 30
0.0
 10
95.80121525382748
 20
-110.2587307124527
 30
0.0
 10
95.80121525382748
 20
-110.2587307124527
 30
0.0
 10
95.81189504983175
 20
-110.269410508457
 30
0.0
 10
95.8222303362875
 20
-110.2821573617524
 30
0.0
 10
95.8222303362875
 20
-110.296971272339
 30
0.0
 10
95.8222303362875
 20
-110.2990383296301
 30
0.0
 10
95.8222303362875
 20
-110.3286661508033
 30
0.0
 10
95.78433428594975
 20
-110.3286661508033
 30
0.0
 10
95.77572154723663
 20
-110.3286661508033
 30
0.0
 10
95.73575843960774
 20
-110.324532036221
 30
0.0
 10
95.72921275818575
 20
-110.324532036221
 30
0.0
 10
95.68924965055686
 20
-110.3562269146853
 30
0.0
 10
95.64239635195746
 20
-110.3899888504407
 30
0.0
 10
95.54317760198226
 20
-110.4471774354958
 30
0.0
 10
95.68924965055686
 20
-110.5550089241842
 30
0.0
 10
95.84772404287835
 20
-110.6121975092393
 30
0.0
 10
96.12057560531014
 20
-110.6500935595771
 30
0.0
 10
96.12057560531014
 20
-110.6500935595771
 30
0.0
 10
95.97036944215324
 20
-110.8257934293248
 30
0.0
 10
95.97036944215324
 20
-110.8257934293248
 30
0.0
 10
95.70819767572573
 20
-110.7537909336831
 30
0.0
 10
95.55144583114686
 20
-110.6649074701636
 30
0.0
 10
95.47530922092284
 20
-110.6121975092393
 30
0.0
 10
95.32510305776596
 20
-110.5105671924244
 30
0.0
 10
95.18144257603103
 20
-110.3476141759721
 30
0.0
 10
95.105305965807
 20
-110.1825941022287
 30
0.0
 10
95.0374375847476
 20
-110.2483954259969
 30
0.0
 10
94.96336803181472
 20
-110.3011053869213
 30
0.0
 10
94.88516436429954
 20
-110.3496812332633
 30
0.0
 10
94.88516436429954
 20
-110.3496812332633
 30
0.0
 10
94.88516436429954
 20
-110.601517713235
 30
0.0
 10
94.88516436429954
 20
-110.601517713235
 30
0.0
 10
95.04811738075186
 20
-110.5760240066442
 30
0.0
 10
95.23415253695535
 20
-110.5315822748845
 30
0.0
 10
95.29788680343248
 20
-110.5167683642979
 30
0.0
 10
95.29788680343248
 20
-110.5167683642979
 30
0.0
 10
95.26825898225933
 20
-110.6862670621722
 30
0.0
 10
95.26825898225933
 20
-110.6862670621722
 30
0.0
 10
95.26584741541966
 20
-110.6862670621722
 30
0.0
 10
95.24689939025077
 20
-110.6924682340456
 30
0.0
 10
95.24483233295963
 20
-110.6924682340456
 30
0.0
 10
95.04605032346072
 20
-110.7307087939319
 30
0.0
 10
94.7287570292692
 20
-110.7961656081517
 30
0.0
 10
94.53204207706143
 20
-110.8319946011983
 30
0.0
 10
94.52136228105716
 20
-110.8492200786245
 30
0.0
 10
94.49793563175747
 20
-110.8809149570888
 30
0.0
 10
94.47485349200629
 20
-110.8809149570888
 30
0.0
 10
94.4472927281243
 20
-110.8809149570888
 30
0.0
 10
94.443158613542
 20
-110.8616224223714
 30
0.0
 10
94.44109155625084
 20
-110.8426743972025
 30
0.0
 10
94.44109155625084
 20
-110.8426743972025
 30
0.0
 10
94.41559784965999
 20
-110.6693860942945
 30
0.0
 10
94.41559784965999
 20
-110.6693860942945
 30
0.0
 10
94.48966740259287
 20
-110.6607733555813
 30
0.0
 10
94.59749889128119
 20
-110.6480265022859
 30
0.0
 10
94.70533037996951
 20
-110.6270114198259
 30
0.0
 10
94.70533037996951
 20
-110.6270114198259
 30
0.0
 10
94.70533037996951
 20
-110.449244492787
 30
0.0
 10
94.70533037996951
 20
-110.449244492787
 30
0.0
 10
94.56166989823458
 20
-110.5212469884287
 30
0.0
 10
94.46624075329316
 20
-110.5508748096019
 30
0.0
 10
94.3012206795497
 20
-110.580502630775
 30
0.0
 10
94.3012206795497
 20
-110.580502630775
 30
0.0
 10
94.18064233756596
 20
-110.4110039329007
 30
0.0
 10
94.18064233756596
 20
-110.4110039329007
 30
0.0
 10
94.49793563175747
 20
-110.3837876785673
 30
0.0
 10
94.69051646938293
 20
-110.290425590917
 30
0.0
 10
94.86828339642182
 20
-110.1574449051863
 30
0.0
 10
94.72221134784724
 20
-110.1574449051863
 30
0.0
 10
94.42179902153345
 20
-110.1615790197686
 30
0.0
 10
94.22508406932567
 20
-110.1677801916421
 30
0.0
 10
94.22508406932567
 20
-110.1677801916421
 30
0.0
 10
94.22508406932567
 20
-109.9900132646032
 30
0.0
 10
94.22508406932567
 20
-109.9900132646032
 30
0.0
 10
94.3797688566134
 20
-109.9965589460252
 30
0.0
 10
94.67570255879636
 20
-110.0027601178986
 30
0.0
 10
94.8596706577087
 20
-110.0027601178986
 30
0.0
 10
94.8596706577087
 20
-110.0027601178986
 30
0.0
 10
95.07154403005157
 20
-110.0027601178986
 30
0.0
 10
95.07154403005157
 20
-110.0027601178986
 30
0.0
 10
95.07154403005157
 20
-109.9076754825057
 30
0.0
 10
95.06913246321189
 20
-109.8570325788725
 30
0.0
 10
95.06293129133844
 20
-109.8101792802732
 30
0.0
 10
95.06293129133844
 20
-109.8101792802732
 30
0.0
 10
95.27859426871508
 20
-109.8274047576994
 30
0.0
 10
95.27859426871508
 20
-109.8274047576994
 30
0.0
 10
95.32751462460563
 20
-109.8315388722817
 30
0.0
 10
95.33578285377023
 20
-109.8463527828683
 30
0.0
 10
95.33578285377023
 20
-109.8611666934548
 30
0.0
 10
95.33578285377023
 20
-109.8866604000457
 30
0.0
 10
95.3189018858925
 20
-109.8949286292103
 30
0.0
 10
95.26825898225933
 20
-109.9204223358011
 30
0.0
 10
95.26584741541966
 20
-109.945916042392
 30
0.0
 10
95.26584741541966
 20
-109.9521172142654
 30
0.0
 10
95.2637803581285
 20
-110.0027601178986
 30
0.0
 10
95.2637803581285
 20
-110.0027601178986
 30
0.0
 10
95.49460175564025
 20
-110.0027601178986
 30
0.0
 10
95.49460175564025
 20
-110.0027601178986
 30
0.0
 10
95.65962182938371
 20
-110.0027601178986
 30
0.0
 10
95.95142141698437
 20
-109.9965589460252
 30
0.0
 10
96.13125540131442
 20
-109.9900132646032
 30
0.0
 10
96.13125540131442
 20
-109.9900132646032
 30
0.0
 10
96.13125540131442
 20
-110.1677801916421
 30
0.0
 10
96.13125540131442
 20
-110.1677801916421
 30
0.0
 10
96.00206432061755
 20
-110.1636460770598
 30
0.0
 10
95.97898218086637
 20
-110.1636460770598
 30
0.0
 10
95.70165199430376
 20
-110.1595119624775
 30
0.0
  0
SPLINE
  5
5B
330
4E
100
AcDbEntity
  8
_U+30EC_U+30A4_U+30E4_U+30FC 1
370
     0
100
AcDbSpline
210
0.0
220
0.0
230
1.0
 70
    11
 71
     3
 72
    23
 73
    19
 74
     0
 42
0.0000000001
 43
0.0000000001
 12
1.0
 22
0.0
 32
0.0
 13
1.0
 23
0.0
 33
0.0
 40
0.0
 40
0.0
 40
0.0
 40
0.0
 40
1.0
 40
1.0
 40
1.0
 40
2.0
 40
2.0
 40
2.0
 40
3.0
 40
3.0
 40
3.0
 40
4.0
 40
4.0
 40
4.0
 40
5.0
 40
5.0
 40
5.0
 40
6.0
 40
6.0
 40
6.0
 40
6.0
 10
94.41766490695115
 20
-109.808112222982
 30
0.0
 10
94.40078393907342
 20
-109.8484198401594
 30
0.0
 10
94.39458276719996
 20
-109.8653008080371
 30
0.0
 10
94.37322317519143
 20
-109.8653008080371
 30
0.0
 10
94.35840926460484
 20
-109.8653008080371
 30
0.0
 10
94.34772946860058
 20
-109.8484198401594
 30
0.0
 10
94.34152829672712
 20
-109.835672986864
 30
0.0
 10
94.34152829672712
 20
-109.835672986864
 30
0.0
 10
94.2419650372034
 20
-109.6706529131205
 30
0.0
 10
94.2419650372034
 20
-109.6706529131205
 30
0.0
 10
94.34359535401828
 20
-109.6389580346562
 30
0.0
 10
94.49380151717517
 20
-109.5838365068922
 30
0.0
 10
94.69258352667408
 20
-109.4212279999884
 30
0.0
 10
94.69258352667408
 20
-109.4212279999884
 30
0.0
 10
94.74977211172923
 20
-109.5945163028965
 30
0.0
 10
94.74977211172923
 20
-109.5945163028965
 30
0.0
 10
94.65675453362748
 20
-109.6771985945425
 30
0.0
 10
94.56787107010804
 20
-109.7340426700491
 30
0.0
 10
94.41766490695115
 20
-109.808112222982
 30
0.0
  0
SPLINE
  5
5C
330
4E
100
AcDbEntity
  8
_U+30EC_U+30A4_U+30E4_U+30FC 1
370
     0
100
AcDbSpline
210
0.0
220
0.0
230
1.0
 70
    11
 71
     3
 72
    17
 73
    13
 74
     0
 42
0.0000000001
 43
0.0000000001
 12
1.0
 22
0.0
 32
0.0
 13
1.0
 23
0.0
 33
0.0
 40
0.0
 40
0.0
 40
0.0
 40
0.0
 40
1.0
 40
1.0
 40
1.0
 40
2.0
 40
2.0
 40
2.0
 40
3.0
 40
3.0
 40
3.0
 40
4.0
 40
4.0
 40
4.0
 40
4.0
 10
94.56993812739918
 20
-109.3426798229248
 30
0.0
 10
94.54031030622603
 20
-109.3027167152959
 30
0.0
 10
94.47278643471515
 20
-109.2052205130633
 30
0.0
 10
94.29088539309394
 20
-109.0953219670838
 30
0.0
 10
94.29088539309394
 20
-109.0953219670838
 30
0.0
 10
94.41766490695115
 20
-108.9619967718046
 30
0.0
 10
94.41766490695115
 20
-108.9619967718046
 30
0.0
 10
94.60370006315463
 20
-109.0636270886195
 30
0.0
 10
94.66088864820978
 20
-109.152510552139
 30
0.0
 10
94.68844941209179
 20
-109.1948852266075
 30
0.0
 10
94.68844941209179
 20
-109.1948852266075
 30
0.0
 10
94.56993812739918
 20
-109.3426798229248
 30
0.0
 10
94.56993812739918
 20
-109.3426798229248
 30
0.0
  0
SPLINE
  5
5D
330
4E
100
AcDbEntity
  8
_U+30EC_U+30A4_U+30E4_U+30FC 1
370
     0
100
AcDbSpline
210
0.0
220
0.0
230
1.0
 70
    11
 71
     3
 72
    38
 73
    34
 74
     0
 42
0.0000000001
 43
0.0000000001
 12
1.0
 22
0.0
 32
0.0
 13
1.0
 23
0.0
 33
0.0
 40
0.0
 40
0.0
 40
0.0
 40
0.0
 40
1.0
 40
1.0
 40
1.0
 40
2.0
 40
2.0
 40
2.0
 40
3.0
 40
3.0
 40
3.0
 40
4.0
 40
4.0
 40
4.0
 40
5.0
 40
5.0
 40
5.0
 40
6.0
 40
6.0
 40
6.0
 40
7.0
 40
7.0
 40
7.0
 40
8.0
 40
8.0
 40
8.0
 40
9.0
 40
9.0
 40
9.0
 40
10.0
 40
10.0
 40
10.0
 40
11.0
 40
11.0
 40
11.0
 40
11.0
 10
94.9382188347724
 20
-109.0381333820287
 30
0.0
 10
94.93615177748124
 20
-109.0846421710795
 30
0.0
 10
94.93374021064157
 20
-109.201086398481
 30
0.0
 10
94.93374021064157
 20
-109.2455281302407
 30
0.0
 10
94.93374021064157
 20
-109.2455281302407
 30
0.0
 10
94.93374021064157
 20
-109.5924492456054
 30
0.0
 10
94.93374021064157
 20
-109.5924492456054
 30
0.0
 10
94.93374021064157
 20
-109.6792656518337
 30
0.0
 10
94.93615177748124
 20
-109.8208590762774
 30
0.0
 10
94.946487063937
 20
-109.9414374182612
 30
0.0
 10
94.946487063937
 20
-109.9414374182612
 30
0.0
 10
94.7563177931512
 20
-109.9414374182612
 30
0.0
 10
94.7563177931512
 20
-109.9414374182612
 30
0.0
 10
94.7604519077335
 20
-109.8780476613326
 30
0.0
 10
94.7645860223158
 20
-109.8249931908597
 30
0.0
 10
94.76665307960695
 20
-109.7702161726443
 30
0.0
 10
94.7687201368981
 20
-109.6475707733694
 30
0.0
 10
94.77113170373778
 20
-109.6327568627828
 30
0.0
 10
94.77113170373778
 20
-109.5883151310231
 30
0.0
 10
94.77113170373778
 20
-109.5883151310231
 30
0.0
 10
94.77113170373778
 20
-109.2665432127007
 30
0.0
 10
94.77113170373778
 20
-109.2665432127007
 30
0.0
 10
94.77113170373778
 20
-109.2117661944853
 30
0.0
 10
94.75838485044235
 20
-108.9726765678089
 30
0.0
 10
94.7563177931512
 20
-108.9216891546272
 30
0.0
 10
94.7563177931512
 20
-108.9216891546272
 30
0.0
 10
94.95716685994127
 20
-108.9492499185092
 30
0.0
 10
94.95716685994127
 20
-108.9492499185092
 30
0.0
 10
94.97818194240129
 20
-108.9513169758004
 30
0.0
 10
95.00987682086559
 20
-108.9557955999312
 30
0.0
 10
95.00987682086559
 20
-108.9809447969735
 30
0.0
 10
95.00987682086559
 20
-109.0085055608555
 30
0.0
 10
94.95923391723242
 20
-109.0298651528641
 30
0.0
 10
94.9382188347724
 20
-109.0381333820287
 30
0.0
  0
SPLINE
  5
5E
330
4E
100
AcDbEntity
  8
_U+30EC_U+30A4_U+30E4_U+30FC 1
370
     0
100
AcDbSpline
210
0.0
220
0.0
230
1.0
 70
    11
 71
     3
 72
    83
 73
    79
 74
     0
 42
0.0000000001
 43
0.0000000001
 12
1.0
 22
0.0
 32
0.0
 13
1.0
 23
0.0
 33
0.0
 40
0.0
 40
0.0
 40
0.0
 40
0.0
 40
1.0
 40
1.0
 40
1.0
 40
2.0
 40
2.0
 40
2.0
 40
3.0
 40
3.0
 40
3.0
 40
4.0
 40
4.0
 40
4.0
 40
5.0
 40
5.0
 40
5.0
 40
6.0
 40
6.0
 40
6.0
 40
7.0
 40
7.0
 40
7.0
 40
8.0
 40
8.0
 40
8.0
 40
9.0
 40
9.0
 40
9.0
 40
10.0
 40
10.0
 40
10.0
 40
11.0
 40
11.0
 40
11.0
 40
12.0
 40
12.0
 40
12.0
 40
13.0
 40
13.0
 40
13.0
 40
14.0
 40
14.0
 40
14.0
 40
15.0
 40
15.0
 40
15.0
 40
16.0
 40
16.0
 40
16.0
 40
17.0
 40
17.0
 40
17.0
 40
18.0
 40
18.0
 40
18.0
 40
19.0
 40
19.0
 40
19.0
 40
20.0
 40
20.0
 40
20.0
 40
21.0
 40
21.0
 40
21.0
 40
22.0
 40
22.0
 40
22.0
 40
23.0
 40
23.0
 40
23.0
 40
24.0
 40
24.0
 40
24.0
 40
25.0
 40
25.0
 40
25.0
 40
26.0
 40
26.0
 40
26.0
 40
26.0
 10
95.73989255419004
 20
-109.359905300351
 30
0.0
 10
95.73989255419004
 20
-109.359905300351
 30
0.0
 10
95.64239635195746
 20
-109.359905300351
 30
0.0
 10
95.64239635195746
 20
-109.359905300351
 30
0.0
 10
95.64239635195746
 20
-109.359905300351
 30
0.0
 10
95.64239635195746
 20
-109.6072631561919
 30
0.0
 10
95.64239635195746
 20
-109.6072631561919
 30
0.0
 10
95.64239635195746
 20
-109.6072631561919
 30
0.0
 10
95.72507864360345
 20
-109.6072631561919
 30
0.0
 10
95.72507864360345
 20
-109.6072631561919
 30
0.0
 10
95.79053545782321
 20
-109.6072631561919
 30
0.0
 10
95.93040633452435
 20
-109.6031290416096
 30
0.0
 10
96.02962508449954
 20
-109.5945163028965
 30
0.0
 10
96.02962508449954
 20
-109.5945163028965
 30
0.0
 10
96.02962508449954
 20
-109.7743502872266
 30
0.0
 10
96.02962508449954
 20
-109.7743502872266
 30
0.0
 10
95.93660750639779
 20
-109.766082058062
 30
0.0
 10
95.78640134324091
 20
-109.7616034339311
 30
0.0
 10
95.72507864360345
 20
-109.7616034339311
 30
0.0
 10
95.72507864360345
 20
-109.7616034339311
 30
0.0
 10
95.42053220270738
 20
-109.7616034339311
 30
0.0
 10
95.42053220270738
 20
-109.7616034339311
 30
0.0
 10
95.36747773223452
 20
-109.7616034339311
 30
0.0
 10
95.22175019320845
 20
-109.766082058062
 30
0.0
 10
95.11564125226276
 20
-109.7743502872266
 30
0.0
 10
95.11564125226276
 20
-109.7743502872266
 30
0.0
 10
95.11564125226276
 20
-109.5945163028965
 30
0.0
 10
95.11564125226276
 20
-109.5945163028965
 30
0.0
 10
95.21520451178648
 20
-109.6031290416096
 30
0.0
 10
95.3547308789391
 20
-109.6072631561919
 30
0.0
 10
95.42053220270738
 20
-109.6072631561919
 30
0.0
 10
95.42053220270738
 20
-109.6072631561919
 30
0.0
 10
95.4649739344671
 20
-109.6072631561919
 30
0.0
 10
95.4649739344671
 20
-109.6072631561919
 30
0.0
 10
95.4649739344671
 20
-109.6072631561919
 30
0.0
 10
95.4649739344671
 20
-109.359905300351
 30
0.0
 10
95.4649739344671
 20
-109.359905300351
 30
0.0
 10
95.4649739344671
 20
-109.359905300351
 30
0.0
 10
95.39090438153423
 20
-109.359905300351
 30
0.0
 10
95.39090438153423
 20
-109.359905300351
 30
0.0
 10
95.32958168189677
 20
-109.359905300351
 30
0.0
 10
95.16249455086216
 20
-109.3640394149333
 30
0.0
 10
95.04191620887842
 20
-109.3723076440979
 30
0.0
 10
95.04191620887842
 20
-109.3723076440979
 30
0.0
 10
95.04191620887842
 20
-109.1948852266075
 30
0.0
 10
95.04191620887842
 20
-109.1948852266075
 30
0.0
 10
95.15594886944018
 20
-109.201086398481
 30
0.0
 10
95.3147677713102
 20
-109.2052205130633
 30
0.0
 10
95.39090438153423
 20
-109.2052205130633
 30
0.0
 10
95.39090438153423
 20
-109.2052205130633
 30
0.0
 10
95.46290687717594
 20
-109.2052205130633
 30
0.0
 10
95.46290687717594
 20
-109.2052205130633
 30
0.0
 10
95.45842825304511
 20
-109.0529472926152
 30
0.0
 10
95.45636119575397
 20
-109.0191853568598
 30
0.0
 10
95.45016002388051
 20
-108.926167778758
 30
0.0
 10
95.45016002388051
 20
-108.926167778758
 30
0.0
 10
95.66168888667487
 20
-108.9492499185092
 30
0.0
 10
95.66168888667487
 20
-108.9492499185092
 30
0.0
 10
95.68683808371718
 20
-108.9513169758004
 30
0.0
 10
95.71026473301688
 20
-108.9557955999312
 30
0.0
 10
95.71026473301688
 20
-108.9788777396824
 30
0.0
 10
95.71026473301688
 20
-109.0105726181467
 30
0.0
 10
95.66582300125717
 20
-109.0274535860244
 30
0.0
 10
95.64239635195746
 20
-109.0360663247375
 30
0.0
 10
95.64239635195746
 20
-109.0360663247375
 30
0.0
 10
95.64239635195746
 20
-109.2052205130633
 30
0.0
 10
95.64239635195746
 20
-109.2052205130633
 30
0.0
 10
95.64239635195746
 20
-109.2052205130633
 30
0.0
 10
95.73989255419004
 20
-109.2052205130633
 30
0.0
 10
95.73989255419004
 20
-109.2052205130633
 30
0.0
 10
95.81602916441405
 20
-109.2052205130633
 30
0.0
 10
95.97484806628407
 20
-109.201086398481
 30
0.0
 10
96.09094778413699
 20
-109.1948852266075
 30
0.0
 10
96.09094778413699
 20
-109.1948852266075
 30
0.0
 10
96.09094778413699
 20
-109.3723076440979
 30
0.0
 10
96.09094778413699
 20
-109.3723076440979
 30
0.0
 10
95.98311629544867
 20
-109.3661064722244
 30
0.0
 10
95.8098279925406
 20
-109.359905300351
 30
0.0
 10
95.73989255419004
 20
-109.359905300351
 30
0.0
  0
SPLINE
  5
5F
330
4E
100
AcDbEntity
  8
_U+30EC_U+30A4_U+30E4_U+30FC 1
370
     0
100
AcDbSpline
210
0.0
220
0.0
230
1.0
 70
    11
 71
     3
 72
    17
 73
    13
 74
     0
 42
0.0000000001
 43
0.0000000001
 12
1.0
 22
0.0
 32
0.0
 13
1.0
 23
0.0
 33
0.0
 40
0.0
 40
0.0
 40
0.0
 40
0.0
 40
1.0
 40
1.0
 40
1.0
 40
2.0
 40
2.0
 40
2.0
 40
3.0
 40
3.0
 40
3.0
 40
4.0
 40
4.0
 40
4.0
 40
4.0
 10
95.49460175564025
 20
-110.1574449051863
 30
0.0
 10
95.49460175564025
 20
-110.1574449051863
 30
0.0
 10
95.29134112201051
 20
-110.1574449051863
 30
0.0
 10
95.29134112201051
 20
-110.1574449051863
 30
0.0
 10
95.3189018858925
 20
-110.2167005475326
 30
0.0
 10
95.3740234136565
 20
-110.2883585336258
 30
0.0
 10
95.40123966798997
 20
-110.317986354799
 30
0.0
 10
95.42880043187198
 20
-110.3031724442124
 30
0.0
 10
95.54317760198226
 20
-110.2397826872838
 30
0.0
 10
95.63412812279286
 20
-110.1574449051863
 30
0.0
 10
95.63412812279286
 20
-110.1574449051863
 30
0.0
 10
95.49460175564025
 20
-110.1574449051863
 30
0.0
 10
95.49460175564025
 20
-110.1574449051863
 30
0.0
  0
HATCH
  5
60
330
4E
100
AcDbEntity
  8
_U+30EC_U+30A4_U+30E4_U+30FC 1
 62
   179
420
  2234388
100
AcDbHatch
 10
0.0
 20
0.0
 30
0.0
210
0.0
220
0.0
230
1.0
  2
SOLID
 70
     1
 71
     0
 91
        6
 92
        1
 93
        1
 72
     4
 94
        3
 73
     0
 74
     1
 95
      113
 96
      109
 40
0.0
 40
0.0
 40
0.0
 40
0.0
 40
1.0
 40
1.0
 40
1.0
 40
2.0
 40
2.0
 40
2.0
 40
3.0
 40
3.0
 40
3.0
 40
4.0
 40
4.0
 40
4.0
 40
5.0
 40
5.0
 40
5.0
 40
6.0
 40
6.0
 40
6.0
 40
7.0
 40
7.0
 40
7.0
 40
8.0
 40
8.0
 40
8.0
 40
9.0
 40
9.0
 40
9.0
 40
10.0
 40
10.0
 40
10.0
 40
11.0
 40
11.0
 40
11.0
 40
12.0
 40
12.0
 40
12.0
 40
13.0
 40
13.0
 40
13.0
 40
14.0
 40
14.0
 40
14.0
 40
15.0
 40
15.0
 40
15.0
 40
16.0
 40
16.0
 40
16.0
 40
17.0
 40
17.0
 40
17.0
 40
18.0
 40
18.0
 40
18.0
 40
19.0
 40
19.0
 40
19.0
 40
20.0
 40
20.0
 40
20.0
 40
21.0
 40
21.0
 40
21.0
 40
22.0
 40
22.0
 40
22.0
 40
23.0
 40
23.0
 40
23.0
 40
24.0
 40
24.0
 40
24.0
 40
25.0
 40
25.0
 40
25.0
 40
26.0
 40
26.0
 40
26.0
 40
27.0
 40
27.0
 40
27.0
 40
28.0
 40
28.0
 40
28.0
 40
29.0
 40
29.0
 40
29.0
 40
30.0
 40
30.0
 40
30.0
 40
31.0
 40
31.0
 40
31.0
 40
32.0
 40
32.0
 40
32.0
 40
33.0
 40
33.0
 40
33.0
 40
34.0
 40
34.0
 40
34.0
 40
35.0
 40
35.0
 40
35.0
 40
36.0
 40
36.0
 40
36.0
 40
36.0
 10
95.70165199430376
 20
-110.1595119624775
 10
95.70165199430376
 20
-110.1595119624775
 10
95.80121525382748
 20
-110.2587307124527
 10
95.80121525382748
 20
-110.2587307124527
 10
95.81189504983175
 20
-110.269410508457
 10
95.8222303362875
 20
-110.2821573617524
 10
95.8222303362875
 20
-110.296971272339
 10
95.8222303362875
 20
-110.2990383296301
 10
95.8222303362875
 20
-110.3286661508033
 10
95.78433428594975
 20
-110.3286661508033
 10
95.77572154723663
 20
-110.3286661508033
 10
95.73575843960774
 20
-110.324532036221
 10
95.72921275818575
 20
-110.324532036221
 10
95.68924965055686
 20
-110.3562269146853
 10
95.64239635195746
 20
-110.3899888504407
 10
95.54317760198226
 20
-110.4471774354958
 10
95.68924965055686
 20
-110.5550089241842
 10
95.84772404287835
 20
-110.6121975092393
 10
96.12057560531014
 20
-110.6500935595771
 10
96.12057560531014
 20
-110.6500935595771
 10
95.97036944215324
 20
-110.8257934293248
 10
95.97036944215324
 20
-110.8257934293248
 10
95.70819767572573
 20
-110.7537909336831
 10
95.55144583114686
 20
-110.6649074701636
 10
95.47530922092284
 20
-110.6121975092393
 10
95.32510305776596
 20
-110.5105671924244
 10
95.18144257603103
 20
-110.3476141759721
 10
95.105305965807
 20
-110.1825941022287
 10
95.0374375847476
 20
-110.2483954259969
 10
94.96336803181472
 20
-110.3011053869213
 10
94.88516436429954
 20
-110.3496812332633
 10
94.88516436429954
 20
-110.3496812332633
 10
94.88516436429954
 20
-110.601517713235
 10
94.88516436429954
 20
-110.601517713235
 10
95.04811738075186
 20
-110.5760240066442
 10
95.23415253695535
 20
-110.5315822748845
 10
95.29788680343248
 20
-110.5167683642979
 10
95.29788680343248
 20
-110.5167683642979
 10
95.26825898225933
 20
-110.6862670621722
 10
95.26825898225933
 20
-110.6862670621722
 10
95.26584741541966
 20
-110.6862670621722
 10
95.24689939025077
 20
-110.6924682340456
 10
95.24483233295963
 20
-110.6924682340456
 10
95.04605032346072
 20
-110.7307087939319
 10
94.7287570292692
 20
-110.7961656081517
 10
94.53204207706143
 20
-110.8319946011983
 10
94.52136228105716
 20
-110.8492200786245
 10
94.49793563175747
 20
-110.8809149570888
 10
94.47485349200629
 20
-110.8809149570888
 10
94.4472927281243
 20
-110.8809149570888
 10
94.443158613542
 20
-110.8616224223714
 10
94.44109155625084
 20
-110.8426743972025
 10
94.44109155625084
 20
-110.8426743972025
 10
94.41559784965999
 20
-110.6693860942945
 10
94.41559784965999
 20
-110.6693860942945
 10
94.48966740259287
 20
-110.6607733555813
 10
94.59749889128119
 20
-110.6480265022859
 10
94.70533037996951
 20
-110.6270114198259
 10
94.70533037996951
 20
-110.6270114198259
 10
94.70533037996951
 20
-110.449244492787
 10
94.70533037996951
 20
-110.449244492787
 10
94.56166989823458
 20
-110.5212469884287
 10
94.46624075329316
 20
-110.5508748096019
 10
94.3012206795497
 20
-110.580502630775
 10
94.3012206795497
 20
-110.580502630775
 10
94.18064233756596
 20
-110.4110039329007
 10
94.18064233756596
 20
-110.4110039329007
 10
94.49793563175747
 20
-110.3837876785673
 10
94.69051646938293
 20
-110.290425590917
 10
94.86828339642182
 20
-110.1574449051863
 10
94.72221134784724
 20
-110.1574449051863
 10
94.42179902153345
 20
-110.1615790197686
 10
94.22508406932567
 20
-110.1677801916421
 10
94.22508406932567
 20
-110.1677801916421
 10
94.22508406932567
 20
-109.9900132646032
 10
94.22508406932567
 20
-109.9900132646032
 10
94.3797688566134
 20
-109.9965589460252
 10
94.67570255879636
 20
-110.0027601178986
 10
94.8596706577087
 20
-110.0027601178986
 10
94.8596706577087
 20
-110.0027601178986
 10
95.07154403005157
 20
-110.0027601178986
 10
95.07154403005157
 20
-110.0027601178986
 10
95.07154403005157
 20
-109.9076754825057
 10
95.06913246321189
 20
-109.8570325788725
 10
95.06293129133844
 20
-109.8101792802732
 10
95.06293129133844
 20
-109.8101792802732
 10
95.27859426871508
 20
-109.8274047576994
 10
95.27859426871508
 20
-109.8274047576994
 10
95.32751462460563
 20
-109.8315388722817
 10
95.33578285377023
 20
-109.8463527828683
 10
95.33578285377023
 20
-109.8611666934548
 10
95.33578285377023
 20
-109.8866604000457
 10
95.3189018858925
 20
-109.8949286292103
 10
95.26825898225933
 20
-109.9204223358011
 10
95.26584741541966
 20
-109.945916042392
 10
95.26584741541966
 20
-109.9521172142654
 10
95.2637803581285
 20
-110.0027601178986
 10
95.2637803581285
 20
-110.0027601178986
 10
95.49460175564025
 20
-110.0027601178986
 10
95.49460175564025
 20
-110.0027601178986
 10
95.65962182938371
 20
-110.0027601178986
 10
95.95142141698437
 20
-109.9965589460252
 10
96.13125540131442
 20
-109.9900132646032
 10
96.13125540131442
 20
-109.9900132646032
 10
96.13125540131442
 20
-110.1677801916421
 10
96.13125540131442
 20
-110.1677801916421
 10
96.00206432061755
 20
-110.1636460770598
 10
95.97898218086637
 20
-110.1636460770598
 10
95.70165199430376
 20
-110.1595119624775
 97
        0
 97
        0
 92
        1
 93
        1
 72
     4
 94
        3
 73
     0
 74
     1
 95
       23
 96
       19
 40
0.0
 40
0.0
 40
0.0
 40
0.0
 40
1.0
 40
1.0
 40
1.0
 40
2.0
 40
2.0
 40
2.0
 40
3.0
 40
3.0
 40
3.0
 40
4.0
 40
4.0
 40
4.0
 40
5.0
 40
5.0
 40
5.0
 40
6.0
 40
6.0
 40
6.0
 40
6.0
 10
94.41766490695115
 20
-109.808112222982
 10
94.40078393907342
 20
-109.8484198401594
 10
94.39458276719996
 20
-109.8653008080371
 10
94.37322317519143
 20
-109.8653008080371
 10
94.35840926460484
 20
-109.8653008080371
 10
94.34772946860058
 20
-109.8484198401594
 10
94.34152829672712
 20
-109.835672986864
 10
94.34152829672712
 20
-109.835672986864
 10
94.2419650372034
 20
-109.6706529131205
 10
94.2419650372034
 20
-109.6706529131205
 10
94.34359535401828
 20
-109.6389580346562
 10
94.49380151717517
 20
-109.5838365068922
 10
94.69258352667408
 20
-109.4212279999884
 10
94.69258352667408
 20
-109.4212279999884
 10
94.74977211172923
 20
-109.5945163028965
 10
94.74977211172923
 20
-109.5945163028965
 10
94.65675453362748
 20
-109.6771985945425
 10
94.56787107010804
 20
-109.7340426700491
 10
94.41766490695115
 20
-109.808112222982
 97
        0
 97
        0
 92
        1
 93
        1
 72
     4
 94
        3
 73
     0
 74
     1
 95
       17
 96
       13
 40
0.0
 40
0.0
 40
0.0
 40
0.0
 40
1.0
 40
1.0
 40
1.0
 40
2.0
 40
2.0
 40
2.0
 40
3.0
 40
3.0
 40
3.0
 40
4.0
 40
4.0
 40
4.0
 40
4.0
 10
94.56993812739918
 20
-109.3426798229248
 10
94.54031030622603
 20
-109.3027167152959
 10
94.47278643471515
 20
-109.2052205130633
 10
94.29088539309394
 20
-109.0953219670838
 10
94.29088539309394
 20
-109.0953219670838
 10
94.41766490695115
 20
-108.9619967718046
 10
94.41766490695115
 20
-108.9619967718046
 10
94.60370006315463
 20
-109.0636270886195
 10
94.66088864820978
 20
-109.152510552139
 10
94.68844941209179
 20
-109.1948852266075
 10
94.68844941209179
 20
-109.1948852266075
 10
94.56993812739918
 20
-109.3426798229248
 10
94.56993812739918
 20
-109.3426798229248
 97
        0
 97
        0
 92
        1
 93
        1
 72
     4
 94
        3
 73
     0
 74
     1
 95
       38
 96
       34
 40
0.0
 40
0.0
 40
0.0
 40
0.0
 40
1.0
 40
1.0
 40
1.0
 40
2.0
 40
2.0
 40
2.0
 40
3.0
 40
3.0
 40
3.0
 40
4.0
 40
4.0
 40
4.0
 40
5.0
 40
5.0
 40
5.0
 40
6.0
 40
6.0
 40
6.0
 40
7.0
 40
7.0
 40
7.0
 40
8.0
 40
8.0
 40
8.0
 40
9.0
 40
9.0
 40
9.0
 40
10.0
 40
10.0
 40
10.0
 40
11.0
 40
11.0
 40
11.0
 40
11.0
 10
94.9382188347724
 20
-109.0381333820287
 10
94.93615177748124
 20
-109.0846421710795
 10
94.93374021064157
 20
-109.201086398481
 10
94.93374021064157
 20
-109.2455281302407
 10
94.93374021064157
 20
-109.2455281302407
 10
94.93374021064157
 20
-109.5924492456054
 10
94.93374021064157
 20
-109.5924492456054
 10
94.93374021064157
 20
-109.6792656518337
 10
94.93615177748124
 20
-109.8208590762774
 10
94.946487063937
 20
-109.9414374182612
 10
94.946487063937
 20
-109.9414374182612
 10
94.7563177931512
 20
-109.9414374182612
 10
94.7563177931512
 20
-109.9414374182612
 10
94.7604519077335
 20
-109.8780476613326
 10
94.7645860223158
 20
-109.8249931908597
 10
94.76665307960695
 20
-109.7702161726443
 10
94.7687201368981
 20
-109.6475707733694
 10
94.77113170373778
 20
-109.6327568627828
 10
94.77113170373778
 20
-109.5883151310231
 10
94.77113170373778
 20
-109.5883151310231
 10
94.77113170373778
 20
-109.2665432127007
 10
94.77113170373778
 20
-109.2665432127007
 10
94.77113170373778
 20
-109.2117661944853
 10
94.75838485044235
 20
-108.9726765678089
 10
94.7563177931512
 20
-108.9216891546272
 10
94.7563177931512
 20
-108.9216891546272
 10
94.95716685994127
 20
-108.9492499185092
 10
94.95716685994127
 20
-108.9492499185092
 10
94.97818194240129
 20
-108.9513169758004
 10
95.00987682086559
 20
-108.9557955999312
 10
95.00987682086559
 20
-108.9809447969735
 10
95.00987682086559
 20
-109.0085055608555
 10
94.95923391723242
 20
-109.0298651528641
 10
94.9382188347724
 20
-109.0381333820287
 97
        0
 97
        0
 92
        1
 93
        1
 72
     4
 94
        3
 73
     0
 74
     1
 95
       83
 96
       79
 40
0.0
 40
0.0
 40
0.0
 40
0.0
 40
1.0
 40
1.0
 40
1.0
 40
2.0
 40
2.0
 40
2.0
 40
3.0
 40
3.0
 40
3.0
 40
4.0
 40
4.0
 40
4.0
 40
5.0
 40
5.0
 40
5.0
 40
6.0
 40
6.0
 40
6.0
 40
7.0
 40
7.0
 40
7.0
 40
8.0
 40
8.0
 40
8.0
 40
9.0
 40
9.0
 40
9.0
 40
10.0
 40
10.0
 40
10.0
 40
11.0
 40
11.0
 40
11.0
 40
12.0
 40
12.0
 40
12.0
 40
13.0
 40
13.0
 40
13.0
 40
14.0
 40
14.0
 40
14.0
 40
15.0
 40
15.0
 40
15.0
 40
16.0
 40
16.0
 40
16.0
 40
17.0
 40
17.0
 40
17.0
 40
18.0
 40
18.0
 40
18.0
 40
19.0
 40
19.0
 40
19.0
 40
20.0
 40
20.0
 40
20.0
 40
21.0
 40
21.0
 40
21.0
 40
22.0
 40
22.0
 40
22.0
 40
23.0
 40
23.0
 40
23.0
 40
24.0
 40
24.0
 40
24.0
 40
25.0
 40
25.0
 40
25.0
 40
26.0
 40
26.0
 40
26.0
 40
26.0
 10
95.73989255419004
 20
-109.359905300351
 10
95.73989255419004
 20
-109.359905300351
 10
95.64239635195746
 20
-109.359905300351
 10
95.64239635195746
 20
-109.359905300351
 10
95.64239635195746
 20
-109.359905300351
 10
95.64239635195746
 20
-109.6072631561919
 10
95.64239635195746
 20
-109.6072631561919
 10
95.64239635195746
 20
-109.6072631561919
 10
95.72507864360345
 20
-109.6072631561919
 10
95.72507864360345
 20
-109.6072631561919
 10
95.79053545782321
 20
-109.6072631561919
 10
95.93040633452435
 20
-109.6031290416096
 10
96.02962508449954
 20
-109.5945163028965
 10
96.02962508449954
 20
-109.5945163028965
 10
96.02962508449954
 20
-109.7743502872266
 10
96.02962508449954
 20
-109.7743502872266
 10
95.93660750639779
 20
-109.766082058062
 10
95.78640134324091
 20
-109.7616034339311
 10
95.72507864360345
 20
-109.7616034339311
 10
95.72507864360345
 20
-109.7616034339311
 10
95.42053220270738
 20
-109.7616034339311
 10
95.42053220270738
 20
-109.7616034339311
 10
95.36747773223452
 20
-109.7616034339311
 10
95.22175019320845
 20
-109.766082058062
 10
95.11564125226276
 20
-109.7743502872266
 10
95.11564125226276
 20
-109.7743502872266
 10
95.11564125226276
 20
-109.5945163028965
 10
95.11564125226276
 20
-109.5945163028965
 10
95.21520451178648
 20
-109.6031290416096
 10
95.3547308789391
 20
-109.6072631561919
 10
95.42053220270738
 20
-109.6072631561919
 10
95.42053220270738
 20
-109.6072631561919
 10
95.4649739344671
 20
-109.6072631561919
 10
95.4649739344671
 20
-109.6072631561919
 10
95.4649739344671
 20
-109.6072631561919
 10
95.4649739344671
 20
-109.359905300351
 10
95.4649739344671
 20
-109.359905300351
 10
95.4649739344671
 20
-109.359905300351
 10
95.39090438153423
 20
-109.359905300351
 10
95.39090438153423
 20
-109.359905300351
 10
95.32958168189677
 20
-109.359905300351
 10
95.16249455086216
 20
-109.3640394149333
 10
95.04191620887842
 20
-109.3723076440979
 10
95.04191620887842
 20
-109.3723076440979
 10
95.04191620887842
 20
-109.1948852266075
 10
95.04191620887842
 20
-109.1948852266075
 10
95.15594886944018
 20
-109.201086398481
 10
95.3147677713102
 20
-109.2052205130633
 10
95.39090438153423
 20
-109.2052205130633
 10
95.39090438153423
 20
-109.2052205130633
 10
95.46290687717594
 20
-109.2052205130633
 10
95.46290687717594
 20
-109.2052205130633
 10
95.45842825304511
 20
-109.0529472926152
 10
95.45636119575397
 20
-109.0191853568598
 10
95.45016002388051
 20
-108.926167778758
 10
95.45016002388051
 20
-108.926167778758
 10
95.66168888667487
 20
-108.9492499185092
 10
95.66168888667487
 20
-108.9492499185092
 10
95.68683808371718
 20
-108.9513169758004
 10
95.71026473301688
 20
-108.9557955999312
 10
95.71026473301688
 20
-108.9788777396824
 10
95.71026473301688
 20
-109.0105726181467
 10
95.66582300125717
 20
-109.0274535860244
 10
95.64239635195746
 20
-109.0360663247375
 10
95.64239635195746
 20
-109.0360663247375
 10
95.64239635195746
 20
-109.2052205130633
 10
95.64239635195746
 20
-109.2052205130633
 10
95.64239635195746
 20
-109.2052205130633
 10
95.73989255419004
 20
-109.2052205130633
 10
95.73989255419004
 20
-109.2052205130633
 10
95.81602916441405
 20
-109.2052205130633
 10
95.97484806628407
 20
-109.201086398481
 10
96.09094778413699
 20
-109.1948852266075
 10
96.09094778413699
 20
-109.1948852266075
 10
96.09094778413699
 20
-109.3723076440979
 10
96.09094778413699
 20
-109.3723076440979
 10
95.98311629544867
 20
-109.3661064722244
 10
95.8098279925406
 20
-109.359905300351
 10
95.73989255419004
 20
-109.359905300351
 97
        0
 97
        0
 92
        1
 93
        1
 72
     4
 94
        3
 73
     0
 74
     1
 95
       17
 96
       13
 40
0.0
 40
0.0
 40
0.0
 40
0.0
 40
1.0
 40
1.0
 40
1.0
 40
2.0
 40
2.0
 40
2.0
 40
3.0
 40
3.0
 40
3.0
 40
4.0
 40
4.0
 40
4.0
 40
4.0
 10
95.49460175564025
 20
-110.1574449051863
 10
95.49460175564025
 20
-110.1574449051863
 10
95.29134112201051
 20
-110.1574449051863
 10
95.29134112201051
 20
-110.1574449051863
 10
95.3189018858925
 20
-110.2167005475326
 10
95.3740234136565
 20
-110.2883585336258
 10
95.40123966798997
 20
-110.317986354799
 10
95.42880043187198
 20
-110.3031724442124
 10
95.54317760198226
 20
-110.2397826872838
 10
95.63412812279286
 20
-110.1574449051863
 10
95.63412812279286
 20
-110.1574449051863
 10
95.49460175564025
 20
-110.1574449051863
 10
95.49460175564025
 20
-110.1574449051863
 97
        0
 97
        0
 75
     2
 76
     1
 98
        0
  0
SPLINE
  5
61
330
4E
100
AcDbEntity
  8
_U+30EC_U+30A4_U+30E4_U+30FC 1
370
     0
100
AcDbSpline
210
0.0
220
0.0
230
1.0
 70
    11
 71
     3
 72
    77
 73
    73
 74
     0
 42
0.0000000001
 43
0.0000000001
 12
1.0
 22
0.0
 32
0.0
 13
1.0
 23
0.0
 33
0.0
 40
0.0
 40
0.0
 40
0.0
 40
0.0
 40
1.0
 40
1.0
 40
1.0
 40
2.0
 40
2.0
 40
2.0
 40
3.0
 40
3.0
 40
3.0
 40
4.0
 40
4.0
 40
4.0
 40
5.0
 40
5.0
 40
5.0
 40
6.0
 40
6.0
 40
6.0
 40
7.0
 40
7.0
 40
7.0
 40
8.0
 40
8.0
 40
8.0
 40
9.0
 40
9.0
 40
9.0
 40
10.0
 40
10.0
 40
10.0
 40
11.0
 40
11.0
 40
11.0
 40
12.0
 40
12.0
 40
12.0
 40
13.0
 40
13.0
 40
13.0
 40
14.0
 40
14.0
 40
14.0
 40
15.0
 40
15.0
 40
15.0
 40
16.0
 40
16.0
 40
16.0
 40
17.0
 40
17.0
 40
17.0
 40
18.0
 40
18.0
 40
18.0
 40
19.0
 40
19.0
 40
19.0
 40
20.0
 40
20.0
 40
20.0
 40
21.0
 40
21.0
 40
21.0
 40
22.0
 40
22.0
 40
22.0
 40
23.0
 40
23.0
 40
23.0
 40
24.0
 40
24.0
 40
24.0
 40
24.0
 10
97.9857503010244
 20
-110.7875528694385
 30
0.0
 10
97.93924151197352
 20
-110.8130465760294
 30
0.0
 10
97.81418454585896
 20
-110.8257934293248
 30
0.0
 10
97.73598087834378
 20
-110.8257934293248
 30
0.0
 10
97.72323402504836
 20
-110.8257934293248
 30
0.0
 10
97.69808482800605
 20
-110.8257934293248
 30
0.0
 10
97.66397838270207
 20
-110.8216593147425
 30
0.0
 10
97.66397838270207
 20
-110.8216593147425
 30
0.0
 10
97.56682669001802
 20
-110.5953165413616
 30
0.0
 10
97.56682669001802
 20
-110.5953165413616
 30
0.0
 10
97.59645451119117
 20
-110.601517713235
 30
0.0
 10
97.65364309624631
 20
-110.6101304519482
 30
0.0
 10
97.76974281409923
 20
-110.6101304519482
 30
0.0
 10
97.84829099116293
 20
-110.6101304519482
 30
0.0
 10
97.85035804845408
 20
-110.5677557774796
 30
0.0
 10
97.85035804845408
 20
-110.5105671924244
 30
0.0
 10
97.85035804845408
 20
-110.5105671924244
 30
0.0
 10
97.85035804845408
 20
-110.1615790197686
 30
0.0
 10
97.85035804845408
 20
-110.1615790197686
 30
0.0
 10
97.85035804845408
 20
-110.1615790197686
 30
0.0
 10
97.39112682027027
 20
-110.1615790197686
 30
0.0
 10
97.39112682027027
 20
-110.1615790197686
 30
0.0
 10
97.39319387756143
 20
-110.2990383296301
 30
0.0
 10
97.3956054444011
 20
-110.497820339129
 30
0.0
 10
97.40180661627456
 20
-110.6311455344082
 30
0.0
 10
97.4038736735657
 20
-110.6587062982902
 30
0.0
 10
97.4038736735657
 20
-110.7031480300499
 30
0.0
 10
97.41662052686112
 20
-110.7644707296874
 30
0.0
 10
97.41662052686112
 20
-110.7644707296874
 30
0.0
 10
97.17546384289363
 20
-110.7644707296874
 30
0.0
 10
97.17546384289363
 20
-110.7644707296874
 30
0.0
 10
97.20095754948449
 20
-110.6397582731213
 30
0.0
 10
97.20095754948449
 20
-110.2990383296301
 30
0.0
 10
97.20095754948449
 20
-110.1615790197686
 30
0.0
 10
97.20095754948449
 20
-110.1615790197686
 30
0.0
 10
96.75860728917841
 20
-110.1615790197686
 30
0.0
 10
96.75860728917841
 20
-110.1615790197686
 30
0.0
 10
96.73552514942723
 20
-110.3689737679807
 30
0.0
 10
96.66972382565896
 20
-110.6373467062816
 30
0.0
 10
96.47300887345119
 20
-110.8216593147425
 30
0.0
 10
96.47300887345119
 20
-110.8216593147425
 30
0.0
 10
96.28490665995656
 20
-110.6990139154676
 30
0.0
 10
96.28490665995656
 20
-110.6990139154676
 30
0.0
 10
96.53881019721946
 20
-110.4788723139602
 30
0.0
 10
96.57050507568377
 20
-110.1467651091821
 30
0.0
 10
96.57050507568377
 20
-109.814657904404
 30
0.0
 10
96.57050507568377
 20
-109.814657904404
 30
0.0
 10
96.57050507568377
 20
-109.3788533255199
 30
0.0
 10
96.57050507568377
 20
-109.3788533255199
 30
0.0
 10
96.57050507568377
 20
-109.3426798229248
 30
0.0
 10
96.56843801839261
 20
-109.1101358776704
 30
0.0
 10
96.55982527967949
 20
-109.0085055608555
 30
0.0
 10
96.69935164683211
 20
-109.0191853568598
 30
0.0
 10
96.9405083307996
 20
-109.0191853568598
 30
0.0
 10
97.08451332208304
 20
-109.0191853568598
 30
0.0
 10
97.08451332208304
 20
-109.0191853568598
 30
0.0
 10
97.54340004071832
 20
-109.0191853568598
 30
0.0
 10
97.54340004071832
 20
-109.0191853568598
 30
0.0
 10
97.5582139513049
 20
-109.0191853568598
 30
0.0
 10
97.90754663350923
 20
-109.0191853568598
 30
0.0
 10
98.06602102583072
 20
-109.0085055608555
 30
0.0
 10
98.06395396853956
 20
-109.0615600313284
 30
0.0
 10
98.05775279666612
 20
-109.222101480941
 30
0.0
 10
98.05775279666612
 20
-109.2730888941227
 30
0.0
 10
98.05775279666612
 20
-109.2730888941227
 30
0.0
 10
98.05775279666612
 20
-109.8801147186237
 30
0.0
 10
98.05775279666612
 20
-109.8801147186237
 30
0.0
 10
98.05775279666612
 20
-109.8990627437926
 30
0.0
 10
98.06808808312186
 20
-110.470259575247
 30
0.0
 10
98.06808808312186
 20
-110.5825696880662
 30
0.0
 10
98.06808808312186
 20
-110.6397582731213
 30
0.0
 10
98.06808808312186
 20
-110.7410440803877
 30
0.0
 10
97.9857503010244
 20
-110.7875528694385
 30
0.0
  0
POLYLINE
  5
62
330
4E
100
AcDbEntity
  8
_U+30EC_U+30A4_U+30E4_U+30FC 1
370
     0
100
AcDb2dPolyline
 66
     1
 10
0.0
 20
0.0
 30
0.0
  0
VERTEX
  5
63
330
62
100
AcDbEntity
  8
_U+30EC_U+30A4_U+30E4_U+30FC 1
370
     0
100
AcDbVertex
100
AcDb2dVertex
 10
97.20095754948449
 20
-109.201086398481
 30
0.0
  0
VERTEX
  5
64
330
62
100
AcDbEntity
  8
_U+30EC_U+30A4_U+30E4_U+30FC 1
370
     0
100
AcDbVertex
100
AcDb2dVertex
 10
96.76274140376071
 20
-109.201086398481
 30
0.0
  0
VERTEX
  5
65
330
62
100
AcDbEntity
  8
_U+30EC_U+30A4_U+30E4_U+30FC 1
370
     0
100
AcDbVertex
100
AcDb2dVertex
 10
96.76274140376071
 20
-109.5056328393771
 30
0.0
  0
VERTEX
  5
66
330
62
100
AcDbEntity
  8
_U+30EC_U+30A4_U+30E4_U+30FC 1
370
     0
100
AcDbVertex
100
AcDb2dVertex
 10
97.20095754948449
 20
-109.5056328393771
 30
0.0
  0
VERTEX
  5
67
330
62
100
AcDbEntity
  8
_U+30EC_U+30A4_U+30E4_U+30FC 1
370
     0
100
AcDbVertex
100
AcDb2dVertex
 10
97.20095754948449
 20
-109.201086398481
 30
0.0
  0
SEQEND
  5
68
330
62
100
AcDbEntity
  8
_U+30EC_U+30A4_U+30E4_U+30FC 1
370
     0
  0
POLYLINE
  5
69
330
4E
100
AcDbEntity
  8
_U+30EC_U+30A4_U+30E4_U+30FC 1
370
     0
100
AcDb2dPolyline
 66
     1
 10
0.0
 20
0.0
 30
0.0
  0
VERTEX
  5
6A
330
69
100
AcDbEntity
  8
_U+30EC_U+30A4_U+30E4_U+30FC 1
370
     0
100
AcDbVertex
100
AcDb2dVertex
 10
97.20095754948449
 20
-109.6727199704117
 30
0.0
  0
VERTEX
  5
6B
330
69
100
AcDbEntity
  8
_U+30EC_U+30A4_U+30E4_U+30FC 1
370
     0
100
AcDbVertex
100
AcDb2dVertex
 10
96.76274140376071
 20
-109.6727199704117
 30
0.0
  0
VERTEX
  5
6C
330
69
100
AcDbEntity
  8
_U+30EC_U+30A4_U+30E4_U+30FC 1
370
     0
100
AcDbVertex
100
AcDb2dVertex
 10
96.76274140376071
 20
-109.9817450354386
 30
0.0
  0
VERTEX
  5
6D
330
69
100
AcDbEntity
  8
_U+30EC_U+30A4_U+30E4_U+30FC 1
370
     0
100
AcDbVertex
100
AcDb2dVertex
 10
97.20095754948449
 20
-109.9817450354386
 30
0.0
  0
VERTEX
  5
6E
330
69
100
AcDbEntity
  8
_U+30EC_U+30A4_U+30E4_U+30FC 1
370
     0
100
AcDbVertex
100
AcDb2dVertex
 10
97.20095754948449
 20
-109.6727199704117
 30
0.0
  0
SEQEND
  5
6F
330
69
100
AcDbEntity
  8
_U+30EC_U+30A4_U+30E4_U+30FC 1
370
     0
  0
POLYLINE
  5
70
330
4E
100
AcDbEntity
  8
_U+30EC_U+30A4_U+30E4_U+30FC 1
370
     0
100
AcDb2dPolyline
 66
     1
 10
0.0
 20
0.0
 30
0.0
  0
VERTEX
  5
71
330
70
100
AcDbEntity
  8
_U+30EC_U+30A4_U+30E4_U+30FC 1
370
     0
100
AcDbVertex
100
AcDb2dVertex
 10
97.85035804845408
 20
-109.201086398481
 30
0.0
  0
VERTEX
  5
72
330
70
100
AcDbEntity
  8
_U+30EC_U+30A4_U+30E4_U+30FC 1
370
     0
100
AcDbVertex
100
AcDb2dVertex
 10
97.39112682027027
 20
-109.201086398481
 30
0.0
  0
VERTEX
  5
73
330
70
100
AcDbEntity
  8
_U+30EC_U+30A4_U+30E4_U+30FC 1
370
     0
100
AcDbVertex
100
AcDb2dVertex
 10
97.39112682027027
 20
-109.5056328393771
 30
0.0
  0
VERTEX
  5
74
330
70
100
AcDbEntity
  8
_U+30EC_U+30A4_U+30E4_U+30FC 1
370
     0
100
AcDbVertex
100
AcDb2dVertex
 10
97.85035804845408
 20
-109.5056328393771
 30
0.0
  0
VERTEX
  5
75
330
70
100
AcDbEntity
  8
_U+30EC_U+30A4_U+30E4_U+30FC 1
370
     0
100
AcDbVertex
100
AcDb2dVertex
 10
97.85035804845408
 20
-109.201086398481
 30
0.0
  0
SEQEND
  5
76
330
70
100
AcDbEntity
  8
_U+30EC_U+30A4_U+30E4_U+30FC 1
370
     0
  0
POLYLINE
  5
77
330
4E
100
AcDbEntity
  8
_U+30EC_U+30A4_U+30E4_U+30FC 1
370
     0
100
AcDb2dPolyline
 66
     1
 10
0.0
 20
0.0
 30
0.0
  0
VERTEX
  5
78
330
77
100
AcDbEntity
  8
_U+30EC_U+30A4_U+30E4_U+30FC 1
370
     0
100
AcDbVertex
100
AcDb2dVertex
 10
97.85035804845408
 20
-109.6727199704117
 30
0.0
  0
VERTEX
  5
79
330
77
100
AcDbEntity
  8
_U+30EC_U+30A4_U+30E4_U+30FC 1
370
     0
100
AcDbVertex
100
AcDb2dVertex
 10
97.39112682027027
 20
-109.6727199704117
 30
0.0
  0
VERTEX
  5
7A
330
77
100
AcDbEntity
  8
_U+30EC_U+30A4_U+30E4_U+30FC 1
370
     0
100
AcDbVertex
100
AcDb2dVertex
 10
97.39112682027027
 20
-109.9817450354386
 30
0.0
  0
VERTEX
  5
7B
330
77
100
AcDbEntity
  8
_U+30EC_U+30A4_U+30E4_U+30FC 1
370
     0
100
AcDbVertex
100
AcDb2dVertex
 10
97.85035804845408
 20
-109.9817450354386
 30
0.0
  0
VERTEX
  5
7C
330
77
100
AcDbEntity
  8
_U+30EC_U+30A4_U+30E4_U+30FC 1
370
     0
100
AcDbVertex
100
AcDb2dVertex
 10
97.85035804845408
 20
-109.6727199704117
 30
0.0
  0
SEQEND
  5
7D
330
77
100
AcDbEntity
  8
_U+30EC_U+30A4_U+30E4_U+30FC 1
370
     0
  0
HATCH
  5
7E
330
4E
100
AcDbEntity
  8
_U+30EC_U+30A4_U+30E4_U+30FC 1
 62
   179
420
  2234388
100
AcDbHatch
 10
0.0
 20
0.0
 30
0.0
210
0.0
220
0.0
230
1.0
  2
SOLID
 70
     1
 71
     0
 91
        5
 92
        1
 93
        1
 72
     4
 94
        3
 73
     0
 74
     1
 95
       77
 96
       73
 40
0.0
 40
0.0
 40
0.0
 40
0.0
 40
1.0
 40
1.0
 40
1.0
 40
2.0
 40
2.0
 40
2.0
 40
3.0
 40
3.0
 40
3.0
 40
4.0
 40
4.0
 40
4.0
 40
5.0
 40
5.0
 40
5.0
 40
6.0
 40
6.0
 40
6.0
 40
7.0
 40
7.0
 40
7.0
 40
8.0
 40
8.0
 40
8.0
 40
9.0
 40
9.0
 40
9.0
 40
10.0
 40
10.0
 40
10.0
 40
11.0
 40
11.0
 40
11.0
 40
12.0
 40
12.0
 40
12.0
 40
13.0
 40
13.0
 40
13.0
 40
14.0
 40
14.0
 40
14.0
 40
15.0
 40
15.0
 40
15.0
 40
16.0
 40
16.0
 40
16.0
 40
17.0
 40
17.0
 40
17.0
 40
18.0
 40
18.0
 40
18.0
 40
19.0
 40
19.0
 40
19.0
 40
20.0
 40
20.0
 40
20.0
 40
21.0
 40
21.0
 40
21.0
 40
22.0
 40
22.0
 40
22.0
 40
23.0
 40
23.0
 40
23.0
 40
24.0
 40
24.0
 40
24.0
 40
24.0
 10
97.9857503010244
 20
-110.7875528694385
 10
97.93924151197352
 20
-110.8130465760294
 10
97.81418454585896
 20
-110.8257934293248
 10
97.73598087834378
 20
-110.8257934293248
 10
97.72323402504836
 20
-110.8257934293248
 10
97.69808482800605
 20
-110.8257934293248
 10
97.66397838270207
 20
-110.8216593147425
 10
97.66397838270207
 20
-110.8216593147425
 10
97.56682669001802
 20
-110.5953165413616
 10
97.56682669001802
 20
-110.5953165413616
 10
97.59645451119117
 20
-110.601517713235
 10
97.65364309624631
 20
-110.6101304519482
 10
97.76974281409923
 20
-110.6101304519482
 10
97.84829099116293
 20
-110.6101304519482
 10
97.85035804845408
 20
-110.5677557774796
 10
97.85035804845408
 20
-110.5105671924244
 10
97.85035804845408
 20
-110.5105671924244
 10
97.85035804845408
 20
-110.1615790197686
 10
97.85035804845408
 20
-110.1615790197686
 10
97.85035804845408
 20
-110.1615790197686
 10
97.39112682027027
 20
-110.1615790197686
 10
97.39112682027027
 20
-110.1615790197686
 10
97.39319387756143
 20
-110.2990383296301
 10
97.3956054444011
 20
-110.497820339129
 10
97.40180661627456
 20
-110.6311455344082
 10
97.4038736735657
 20
-110.6587062982902
 10
97.4038736735657
 20
-110.7031480300499
 10
97.41662052686112
 20
-110.7644707296874
 10
97.41662052686112
 20
-110.7644707296874
 10
97.17546384289363
 20
-110.7644707296874
 10
97.17546384289363
 20
-110.7644707296874
 10
97.20095754948449
 20
-110.6397582731213
 10
97.20095754948449
 20
-110.2990383296301
 10
97.20095754948449
 20
-110.1615790197686
 10
97.20095754948449
 20
-110.1615790197686
 10
96.75860728917841
 20
-110.1615790197686
 10
96.75860728917841
 20
-110.1615790197686
 10
96.73552514942723
 20
-110.3689737679807
 10
96.66972382565896
 20
-110.6373467062816
 10
96.47300887345119
 20
-110.8216593147425
 10
96.47300887345119
 20
-110.8216593147425
 10
96.28490665995656
 20
-110.6990139154676
 10
96.28490665995656
 20
-110.6990139154676
 10
96.53881019721946
 20
-110.4788723139602
 10
96.57050507568377
 20
-110.1467651091821
 10
96.57050507568377
 20
-109.814657904404
 10
96.57050507568377
 20
-109.814657904404
 10
96.57050507568377
 20
-109.3788533255199
 10
96.57050507568377
 20
-109.3788533255199
 10
96.57050507568377
 20
-109.3426798229248
 10
96.56843801839261
 20
-109.1101358776704
 10
96.55982527967949
 20
-109.0085055608555
 10
96.69935164683211
 20
-109.0191853568598
 10
96.9405083307996
 20
-109.0191853568598
 10
97.08451332208304
 20
-109.0191853568598
 10
97.08451332208304
 20
-109.0191853568598
 10
97.54340004071832
 20
-109.0191853568598
 10
97.54340004071832
 20
-109.0191853568598
 10
97.5582139513049
 20
-109.0191853568598
 10
97.90754663350923
 20
-109.0191853568598
 10
98.06602102583072
 20
-109.0085055608555
 10
98.06395396853956
 20
-109.0615600313284
 10
98.05775279666612
 20
-109.222101480941
 10
98.05775279666612
 20
-109.2730888941227
 10
98.05775279666612
 20
-109.2730888941227
 10
98.05775279666612
 20
-109.8801147186237
 10
98.05775279666612
 20
-109.8801147186237
 10
98.05775279666612
 20
-109.8990627437926
 10
98.06808808312186
 20
-110.470259575247
 10
98.06808808312186
 20
-110.5825696880662
 10
98.06808808312186
 20
-110.6397582731213
 10
98.06808808312186
 20
-110.7410440803877
 10
97.9857503010244
 20
-110.7875528694385
 97
        0
 97
        0
 92
        1
 93
        4
 72
     1
 10
97.20095754948449
 20
-109.201086398481
 11
96.76274140376071
 21
-109.201086398481
 72
     1
 10
96.76274140376071
 20
-109.201086398481
 11
96.76274140376071
 21
-109.5056328393771
 72
     1
 10
96.76274140376071
 20
-109.5056328393771
 11
97.20095754948449
 21
-109.5056328393771
 72
     1
 10
97.20095754948449
 20
-109.5056328393771
 11
97.20095754948449
 21
-109.201086398481
 97
        0
 92
        1
 93
        4
 72
     1
 10
97.20095754948449
 20
-109.6727199704117
 11
96.76274140376071
 21
-109.6727199704117
 72
     1
 10
96.76274140376071
 20
-109.6727199704117
 11
96.76274140376071
 21
-109.9817450354386
 72
     1
 10
96.76274140376071
 20
-109.9817450354386
 11
97.20095754948449
 21
-109.9817450354386
 72
     1
 10
97.20095754948449
 20
-109.9817450354386
 11
97.20095754948449
 21
-109.6727199704117
 97
        0
 92
        1
 93
        4
 72
     1
 10
97.85035804845408
 20
-109.201086398481
 11
97.39112682027027
 21
-109.201086398481
 72
     1
 10
97.39112682027027
 20
-109.201086398481
 11
97.39112682027027
 21
-109.5056328393771
 72
     1
 10
97.39112682027027
 20
-109.5056328393771
 11
97.85035804845408
 21
-109.5056328393771
 72
     1
 10
97.85035804845408
 20
-109.5056328393771
 11
97.85035804845408
 21
-109.201086398481
 97
        0
 92
        1
 93
        4
 72
     1
 10
97.85035804845408
 20
-109.6727199704117
 11
97.39112682027027
 21
-109.6727199704117
 72
     1
 10
97.39112682027027
 20
-109.6727199704117
 11
97.39112682027027
 21
-109.9817450354386
 72
     1
 10
97.39112682027027
 20
-109.9817450354386
 11
97.85035804845408
 21
-109.9817450354386
 72
     1
 10
97.85035804845408
 20
-109.9817450354386
 11
97.85035804845408
 21
-109.6727199704117
 97
        0
 75
     2
 76
     1
 98
        0
  0
SPLINE
  5
7F
330
4E
100
AcDbEntity
  8
_U+30EC_U+30A4_U+30E4_U+30FC 1
370
     0
100
AcDbSpline
210
0.0
220
0.0
230
1.0
 70
    11
 71
     3
 72
    44
 73
    40
 74
     0
 42
0.0000000001
 43
0.0000000001
 12
1.0
 22
0.0
 32
0.0
 13
1.0
 23
0.0
 33
0.0
 40
0.0
 40
0.0
 40
0.0
 40
0.0
 40
1.0
 40
1.0
 40
1.0
 40
2.0
 40
2.0
 40
2.0
 40
3.0
 40
3.0
 40
3.0
 40
4.0
 40
4.0
 40
4.0
 40
5.0
 40
5.0
 40
5.0
 40
6.0
 40
6.0
 40
6.0
 40
7.0
 40
7.0
 40
7.0
 40
8.0
 40
8.0
 40
8.0
 40
9.0
 40
9.0
 40
9.0
 40
10.0
 40
10.0
 40
10.0
 40
11.0
 40
11.0
 40
11.0
 40
12.0
 40
12.0
 40
12.0
 40
13.0
 40
13.0
 40
13.0
 40
13.0
 10
99.86332734048557
 20
-109.5373277178414
 30
0.0
 10
99.75101722766642
 20
-109.9056084252146
 30
0.0
 10
99.70037432403325
 20
-110.0640828175361
 30
0.0
 10
99.50365937182548
 20
-110.3138522402167
 30
0.0
 10
99.31969127291313
 20
-110.5443291281799
 30
0.0
 10
99.08266870352794
 20
-110.7307087939319
 30
0.0
 10
98.80327145967419
 20
-110.8237263720337
 30
0.0
 10
98.80327145967419
 20
-110.8237263720337
 30
0.0
 10
98.61069062204872
 20
-110.6438923877036
 30
0.0
 10
98.61069062204872
 20
-110.6438923877036
 30
0.0
 10
99.25182289185372
 20
-110.4916191672556
 30
0.0
 10
99.58186303934065
 20
-109.9352362463877
 30
0.0
 10
99.64525279626925
 20
-109.4952975529213
 30
0.0
 10
99.64525279626925
 20
-109.4952975529213
 30
0.0
 10
98.8794080698982
 20
-109.4952975529213
 30
0.0
 10
98.8794080698982
 20
-109.4952975529213
 30
0.0
 10
98.78639049179647
 20
-109.4952975529213
 30
0.0
 10
98.60242239288412
 20
-109.4994316675036
 30
0.0
 10
98.44567054830526
 20
-109.5183796926725
 30
0.0
 10
98.44567054830526
 20
-109.5183796926725
 30
0.0
 10
98.44567054830526
 20
-109.298238091165
 30
0.0
 10
98.44567054830526
 20
-109.298238091165
 30
0.0
 10
98.53248695453355
 20
-109.3195976831736
 30
0.0
 10
98.78432343450531
 20
-109.3195976831736
 30
0.0
 10
98.88388669402903
 20
-109.3195976831736
 30
0.0
 10
98.88388669402903
 20
-109.3195976831736
 30
0.0
 10
99.3152126487823
 20
-109.3195976831736
 30
0.0
 10
99.3152126487823
 20
-109.3195976831736
 30
0.0
 10
99.35758732325088
 20
-109.3195976831736
 30
0.0
 10
99.59254283534493
 20
-109.3175306258824
 30
0.0
 10
99.63043888568268
 20
-109.3109849444605
 30
0.0
 10
99.67281356015124
 20
-109.304783772587
 30
0.0
 10
99.6748806174424
 20
-109.3027167152959
 30
0.0
 10
99.73620331707984
 20
-109.2624090981184
 30
0.0
 10
99.73620331707984
 20
-109.2624090981184
 30
0.0
 10
99.92465004012301
 20
-109.4167493758576
 30
0.0
 10
99.92465004012301
 20
-109.4167493758576
 30
0.0
 10
99.89502221894986
 20
-109.4463771970308
 30
0.0
 10
99.88020830836328
 20
-109.4780720754951
 30
0.0
 10
99.86332734048557
 20
-109.5373277178414
 30
0.0
  0
SPLINE
  5
80
330
4E
100
AcDbEntity
  8
_U+30EC_U+30A4_U+30E4_U+30FC 1
370
     0
100
AcDbSpline
210
0.0
220
0.0
230
1.0
 70
    11
 71
     3
 72
    17
 73
    13
 74
     0
 42
0.0000000001
 43
0.0000000001
 12
1.0
 22
0.0
 32
0.0
 13
1.0
 23
0.0
 33
0.0
 40
0.0
 40
0.0
 40
0.0
 40
0.0
 40
1.0
 40
1.0
 40
1.0
 40
2.0
 40
2.0
 40
2.0
 40
3.0
 40
3.0
 40
3.0
 40
4.0
 40
4.0
 40
4.0
 40
4.0
 10
100.0727891459888
 20
-109.3385457083425
 30
0.0
 10
99.94566512258304
 20
-109.3385457083425
 30
0.0
 10
99.84403480576816
 20
-109.2369153915276
 30
0.0
 10
99.84403480576816
 20
-109.1101358776704
 30
0.0
 10
99.84403480576816
 20
-108.9833563638132
 30
0.0
 10
99.94566512258304
 20
-108.8796589897072
 30
0.0
 10
100.0727891459888
 20
-108.8796589897072
 30
0.0
 10
100.199568659846
 20
-108.8796589897072
 30
0.0
 10
100.303266033952
 20
-108.9833563638132
 30
0.0
 10
100.303266033952
 20
-109.1101358776704
 30
0.0
 10
100.303266033952
 20
-109.2369153915276
 30
0.0
 10
100.199568659846
 20
-109.3385457083425
 30
0.0
 10
100.0727891459888
 20
-109.3385457083425
 30
0.0
  0
SPLINE
  5
81
330
4E
100
AcDbEntity
  8
_U+30EC_U+30A4_U+30E4_U+30FC 1
370
     0
100
AcDbSpline
210
0.0
220
0.0
230
1.0
 70
    11
 71
     3
 72
    17
 73
    13
 74
     0
 42
0.0000000001
 43
0.0000000001
 12
1.0
 22
0.0
 32
0.0
 13
1.0
 23
0.0
 33
0.0
 40
0.0
 40
0.0
 40
0.0
 40
0.0
 40
1.0
 40
1.0
 40
1.0
 40
2.0
 40
2.0
 40
2.0
 40
3.0
 40
3.0
 40
3.0
 40
4.0
 40
4.0
 40
4.0
 40
4.0
 10
100.0703775791491
 20
-109.0085055608555
 30
0.0
 10
100.0156005609336
 20
-109.0085055608555
 30
0.0
 10
99.97115882917389
 20
-109.0529472926152
 30
0.0
 10
99.97115882917389
 20
-109.1080688203792
 30
0.0
 10
99.97115882917389
 20
-109.1652574054344
 30
0.0
 10
100.0156005609336
 20
-109.2138332517764
 30
0.0
 10
100.0748562032799
 20
-109.2138332517764
 30
0.0
 10
100.1341118456262
 20
-109.2138332517764
 30
0.0
 10
100.1740749532551
 20
-109.1628458385947
 30
0.0
 10
100.1740749532551
 20
-109.1101358776704
 30
0.0
 10
100.1740749532551
 20
-109.0529472926152
 30
0.0
 10
100.1275661642042
 20
-109.0085055608555
 30
0.0
 10
100.0703775791491
 20
-109.0085055608555
 30
0.0
  0
HATCH
  5
82
330
4E
100
AcDbEntity
  8
_U+30EC_U+30A4_U+30E4_U+30FC 1
 62
   179
420
  2234388
100
AcDbHatch
 10
0.0
 20
0.0
 30
0.0
210
0.0
220
0.0
230
1.0
  2
SOLID
 70
     1
 71
     0
 91
        3
 92
        1
 93
        1
 72
     4
 94
        3
 73
     0
 74
     1
 95
       44
 96
       40
 40
0.0
 40
0.0
 40
0.0
 40
0.0
 40
1.0
 40
1.0
 40
1.0
 40
2.0
 40
2.0
 40
2.0
 40
3.0
 40
3.0
 40
3.0
 40
4.0
 40
4.0
 40
4.0
 40
5.0
 40
5.0
 40
5.0
 40
6.0
 40
6.0
 40
6.0
 40
7.0
 40
7.0
 40
7.0
 40
8.0
 40
8.0
 40
8.0
 40
9.0
 40
9.0
 40
9.0
 40
10.0
 40
10.0
 40
10.0
 40
11.0
 40
11.0
 40
11.0
 40
12.0
 40
12.0
 40
12.0
 40
13.0
 40
13.0
 40
13.0
 40
13.0
 10
99.86332734048557
 20
-109.5373277178414
 10
99.75101722766642
 20
-109.9056084252146
 10
99.70037432403325
 20
-110.0640828175361
 10
99.50365937182548
 20
-110.3138522402167
 10
99.31969127291313
 20
-110.5443291281799
 10
99.08266870352794
 20
-110.7307087939319
 10
98.80327145967419
 20
-110.8237263720337
 10
98.80327145967419
 20
-110.8237263720337
 10
98.61069062204872
 20
-110.6438923877036
 10
98.61069062204872
 20
-110.6438923877036
 10
99.25182289185372
 20
-110.4916191672556
 10
99.58186303934065
 20
-109.9352362463877
 10
99.64525279626925
 20
-109.4952975529213
 10
99.64525279626925
 20
-109.4952975529213
 10
98.8794080698982
 20
-109.4952975529213
 10
98.8794080698982
 20
-109.4952975529213
 10
98.78639049179647
 20
-109.4952975529213
 10
98.60242239288412
 20
-109.4994316675036
 10
98.44567054830526
 20
-109.5183796926725
 10
98.44567054830526
 20
-109.5183796926725
 10
98.44567054830526
 20
-109.298238091165
 10
98.44567054830526
 20
-109.298238091165
 10
98.53248695453355
 20
-109.3195976831736
 10
98.78432343450531
 20
-109.3195976831736
 10
98.88388669402903
 20
-109.3195976831736
 10
98.88388669402903
 20
-109.3195976831736
 10
99.3152126487823
 20
-109.3195976831736
 10
99.3152126487823
 20
-109.3195976831736
 10
99.35758732325088
 20
-109.3195976831736
 10
99.59254283534493
 20
-109.3175306258824
 10
99.63043888568268
 20
-109.3109849444605
 10
99.67281356015124
 20
-109.304783772587
 10
99.6748806174424
 20
-109.3027167152959
 10
99.73620331707984
 20
-109.2624090981184
 10
99.73620331707984
 20
-109.2624090981184
 10
99.92465004012301
 20
-109.4167493758576
 10
99.92465004012301
 20
-109.4167493758576
 10
99.89502221894986
 20
-109.4463771970308
 10
99.88020830836328
 20
-109.4780720754951
 10
99.86332734048557
 20
-109.5373277178414
 97
        0
 97
        0
 92
        1
 93
        1
 72
     4
 94
        3
 73
     0
 74
     1
 95
       17
 96
       13
 40
0.0
 40
0.0
 40
0.0
 40
0.0
 40
1.0
 40
1.0
 40
1.0
 40
2.0
 40
2.0
 40
2.0
 40
3.0
 40
3.0
 40
3.0
 40
4.0
 40
4.0
 40
4.0
 40
4.0
 10
100.0727891459888
 20
-109.3385457083425
 10
99.94566512258304
 20
-109.3385457083425
 10
99.84403480576816
 20
-109.2369153915276
 10
99.84403480576816
 20
-109.1101358776704
 10
99.84403480576816
 20
-108.9833563638132
 10
99.94566512258304
 20
-108.8796589897072
 10
100.0727891459888
 20
-108.8796589897072
 10
100.199568659846
 20
-108.8796589897072
 10
100.303266033952
 20
-108.9833563638132
 10
100.303266033952
 20
-109.1101358776704
 10
100.303266033952
 20
-109.2369153915276
 10
100.199568659846
 20
-109.3385457083425
 10
100.0727891459888
 20
-109.3385457083425
 97
        0
 97
        0
 92
        1
 93
        1
 72
     4
 94
        3
 73
     0
 74
     1
 95
       17
 96
       13
 40
0.0
 40
0.0
 40
0.0
 40
0.0
 40
1.0
 40
1.0
 40
1.0
 40
2.0
 40
2.0
 40
2.0
 40
3.0
 40
3.0
 40
3.0
 40
4.0
 40
4.0
 40
4.0
 40
4.0
 10
100.0703775791491
 20
-109.0085055608555
 10
100.0156005609336
 20
-109.0085055608555
 10
99.97115882917389
 20
-109.0529472926152
 10
99.97115882917389
 20
-109.1080688203792
 10
99.97115882917389
 20
-109.1652574054344
 10
100.0156005609336
 20
-109.2138332517764
 10
100.0748562032799
 20
-109.2138332517764
 10
100.1341118456262
 20
-109.2138332517764
 10
100.1740749532551
 20
-109.1628458385947
 10
100.1740749532551
 20
-109.1101358776704
 10
100.1740749532551
 20
-109.0529472926152
 10
100.1275661642042
 20
-109.0085055608555
 10
100.0703775791491
 20
-109.0085055608555
 97
        0
 97
        0
 75
     2
 76
     1
 98
        0
  0
SPLINE
  5
83
330
4E
100
AcDbEntity
  8
_U+30EC_U+30A4_U+30E4_U+30FC 1
370
     0
100
AcDbSpline
210
0.0
220
0.0
230
1.0
 70
    11
 71
     3
 72
    50
 73
    46
 74
     0
 42
0.0000000001
 43
0.0000000001
 12
1.0
 22
0.0
 32
0.0
 13
1.0
 23
0.0
 33
0.0
 40
0.0
 40
0.0
 40
0.0
 40
0.0
 40
1.0
 40
1.0
 40
1.0
 40
2.0
 40
2.0
 40
2.0
 40
3.0
 40
3.0
 40
3.0
 40
4.0
 40
4.0
 40
4.0
 40
5.0
 40
5.0
 40
5.0
 40
6.0
 40
6.0
 40
6.0
 40
7.0
 40
7.0
 40
7.0
 40
8.0
 40
8.0
 40
8.0
 40
9.0
 40
9.0
 40
9.0
 40
10.0
 40
10.0
 40
10.0
 40
11.0
 40
11.0
 40
11.0
 40
12.0
 40
12.0
 40
12.0
 40
13.0
 40
13.0
 40
13.0
 40
14.0
 40
14.0
 40
14.0
 40
15.0
 40
15.0
 40
15.0
 40
15.0
 10
101.8676838938039
 20
-109.8463527828683
 30
0.0
 10
101.7891357167402
 20
-110.0241197099072
 30
0.0
 10
101.6537434641699
 20
-110.2311699485707
 30
0.0
 10
101.5162841543084
 20
-110.3710408252718
 30
0.0
 10
101.3471299659827
 20
-110.5422620708887
 30
0.0
 10
101.1841769495304
 20
-110.6311455344082
 30
0.0
 10
100.8648165980477
 20
-110.772738958852
 30
0.0
 10
100.8648165980477
 20
-110.772738958852
 30
0.0
 10
100.6956624097219
 20
-110.5846367453573
 30
0.0
 10
100.6956624097219
 20
-110.5846367453573
 30
0.0
 10
100.8816975659254
 20
-110.5612100960576
 30
0.0
 10
101.0529188115423
 20
-110.4747381993779
 30
0.0
 10
101.2055365415389
 20
-110.3689737679807
 30
0.0
 10
101.4677083079664
 20
-110.1870727263595
 30
0.0
 10
101.6582220883007
 20
-109.8739135467503
 30
0.0
 10
101.7067979346428
 20
-109.6920125051291
 30
0.0
 10
101.7067979346428
 20
-109.6920125051291
 30
0.0
 10
101.0360378436646
 20
-109.6920125051291
 30
0.0
 10
101.0360378436646
 20
-109.6920125051291
 30
0.0
 10
100.8775634513431
 20
-109.6920125051291
 30
0.0
 10
100.5854193541939
 20
-109.7002807342937
 30
0.0
 10
100.4331461337459
 20
-109.7171617021714
 30
0.0
 10
100.4331461337459
 20
-109.7171617021714
 30
0.0
 10
100.4331461337459
 20
-109.4887518714993
 30
0.0
 10
100.4331461337459
 20
-109.4887518714993
 30
0.0
 10
100.4672525790499
 20
-109.4952975529213
 30
0.0
 10
100.4924017760922
 20
-109.5014987247948
 30
0.0
 10
100.545456246565
 20
-109.5056328393771
 30
0.0
 10
100.6467420538314
 20
-109.512178520799
 30
0.0
 10
100.8438015155877
 20
-109.5142455780902
 30
0.0
 10
100.9282063549763
 20
-109.5142455780902
 30
0.0
 10
100.9282063549763
 20
-109.5142455780902
 30
0.0
 10
101.433946372211
 20
-109.5142455780902
 30
0.0
 10
101.433946372211
 20
-109.5142455780902
 30
0.0
 10
101.5014702437219
 20
-109.5142455780902
 30
0.0
 10
101.6475422922964
 20
-109.5101114635079
 30
0.0
 10
101.7088649919339
 20
-109.5035657820859
 30
0.0
 10
101.7808674875756
 20
-109.4952975529213
 30
0.0
 10
101.8084282514576
 20
-109.4804836423347
 30
0.0
 10
101.8421901872131
 20
-109.4570569930351
 30
0.0
 10
101.8421901872131
 20
-109.4570569930351
 30
0.0
 10
102.0072102609565
 20
-109.6241441240697
 30
0.0
 10
102.0072102609565
 20
-109.6241441240697
 30
0.0
 10
101.937274822606
 20
-109.6920125051291
 30
0.0
 10
101.8907660335551
 20
-109.7957098792351
 30
0.0
 10
101.8676838938039
 20
-109.8463527828683
 30
0.0
  0
SPLINE
  5
84
330
4E
100
AcDbEntity
  8
_U+30EC_U+30A4_U+30E4_U+30FC 1
370
     0
100
AcDbSpline
210
0.0
220
0.0
230
1.0
 70
    11
 71
     3
 72
    29
 73
    25
 74
     0
 42
0.0000000001
 43
0.0000000001
 12
1.0
 22
0.0
 32
0.0
 13
1.0
 23
0.0
 33
0.0
 40
0.0
 40
0.0
 40
0.0
 40
0.0
 40
1.0
 40
1.0
 40
1.0
 40
2.0
 40
2.0
 40
2.0
 40
3.0
 40
3.0
 40
3.0
 40
4.0
 40
4.0
 40
4.0
 40
5.0
 40
5.0
 40
5.0
 40
6.0
 40
6.0
 40
6.0
 40
7.0
 40
7.0
 40
7.0
 40
8.0
 40
8.0
 40
8.0
 40
8.0
 10
101.3746907298647
 20
-109.2200344236499
 30
0.0
 10
101.3746907298647
 20
-109.2200344236499
 30
0.0
 10
101.0339707863735
 20
-109.2200344236499
 30
0.0
 10
101.0339707863735
 20
-109.2200344236499
 30
0.0
 10
100.9199381258117
 20
-109.2200344236499
 30
0.0
 10
100.8034938984102
 20
-109.2245130477807
 30
0.0
 10
100.6891167283
 20
-109.2393269583673
 30
0.0
 10
100.6891167283
 20
-109.2393269583673
 30
0.0
 10
100.6891167283
 20
-109.0298651528641
 30
0.0
 10
100.6891167283
 20
-109.0298651528641
 30
0.0
 10
100.8076280129925
 20
-109.0446790634506
 30
0.0
 10
100.9812608254491
 20
-109.0488131780329
 30
0.0
 10
101.0339707863735
 20
-109.0488131780329
 30
0.0
 10
101.0339707863735
 20
-109.0488131780329
 30
0.0
 10
101.3746907298647
 20
-109.0488131780329
 30
0.0
 10
101.3746907298647
 20
-109.0488131780329
 30
0.0
 10
101.4911349572661
 20
-109.0488131780329
 30
0.0
 10
101.607234675119
 20
-109.0446790634506
 30
0.0
 10
101.7236789025205
 20
-109.0298651528641
 30
0.0
 10
101.7236789025205
 20
-109.0298651528641
 30
0.0
 10
101.7236789025205
 20
-109.2393269583673
 30
0.0
 10
101.7236789025205
 20
-109.2393269583673
 30
0.0
 10
101.5734727393636
 20
-109.2200344236499
 30
0.0
 10
101.3895046404512
 20
-109.2200344236499
 30
0.0
 10
101.3746907298647
 20
-109.2200344236499
 30
0.0
  0
HATCH
  5
85
330
4E
100
AcDbEntity
  8
_U+30EC_U+30A4_U+30E4_U+30FC 1
 62
   179
420
  2234388
100
AcDbHatch
 10
0.0
 20
0.0
 30
0.0
210
0.0
220
0.0
230
1.0
  2
SOLID
 70
     1
 71
     0
 91
        2
 92
        1
 93
        1
 72
     4
 94
        3
 73
     0
 74
     1
 95
       50
 96
       46
 40
0.0
 40
0.0
 40
0.0
 40
0.0
 40
1.0
 40
1.0
 40
1.0
 40
2.0
 40
2.0
 40
2.0
 40
3.0
 40
3.0
 40
3.0
 40
4.0
 40
4.0
 40
4.0
 40
5.0
 40
5.0
 40
5.0
 40
6.0
 40
6.0
 40
6.0
 40
7.0
 40
7.0
 40
7.0
 40
8.0
 40
8.0
 40
8.0
 40
9.0
 40
9.0
 40
9.0
 40
10.0
 40
10.0
 40
10.0
 40
11.0
 40
11.0
 40
11.0
 40
12.0
 40
12.0
 40
12.0
 40
13.0
 40
13.0
 40
13.0
 40
14.0
 40
14.0
 40
14.0
 40
15.0
 40
15.0
 40
15.0
 40
15.0
 10
101.8676838938039
 20
-109.8463527828683
 10
101.7891357167402
 20
-110.0241197099072
 10
101.6537434641699
 20
-110.2311699485707
 10
101.5162841543084
 20
-110.3710408252718
 10
101.3471299659827
 20
-110.5422620708887
 10
101.1841769495304
 20
-110.6311455344082
 10
100.8648165980477
 20
-110.772738958852
 10
100.8648165980477
 20
-110.772738958852
 10
100.6956624097219
 20
-110.5846367453573
 10
100.6956624097219
 20
-110.5846367453573
 10
100.8816975659254
 20
-110.5612100960576
 10
101.0529188115423
 20
-110.4747381993779
 10
101.2055365415389
 20
-110.3689737679807
 10
101.4677083079664
 20
-110.1870727263595
 10
101.6582220883007
 20
-109.8739135467503
 10
101.7067979346428
 20
-109.6920125051291
 10
101.7067979346428
 20
-109.6920125051291
 10
101.0360378436646
 20
-109.6920125051291
 10
101.0360378436646
 20
-109.6920125051291
 10
100.8775634513431
 20
-109.6920125051291
 10
100.5854193541939
 20
-109.7002807342937
 10
100.4331461337459
 20
-109.7171617021714
 10
100.4331461337459
 20
-109.7171617021714
 10
100.4331461337459
 20
-109.4887518714993
 10
100.4331461337459
 20
-109.4887518714993
 10
100.4672525790499
 20
-109.4952975529213
 10
100.4924017760922
 20
-109.5014987247948
 10
100.545456246565
 20
-109.5056328393771
 10
100.6467420538314
 20
-109.512178520799
 10
100.8438015155877
 20
-109.5142455780902
 10
100.9282063549763
 20
-109.5142455780902
 10
100.9282063549763
 20
-109.5142455780902
 10
101.433946372211
 20
-109.5142455780902
 10
101.433946372211
 20
-109.5142455780902
 10
101.5014702437219
 20
-109.5142455780902
 10
101.6475422922964
 20
-109.5101114635079
 10
101.7088649919339
 20
-109.5035657820859
 10
101.7808674875756
 20
-109.4952975529213
 10
101.8084282514576
 20
-109.4804836423347
 10
101.8421901872131
 20
-109.4570569930351
 10
101.8421901872131
 20
-109.4570569930351
 10
102.0072102609565
 20
-109.6241441240697
 10
102.0072102609565
 20
-109.6241441240697
 10
101.937274822606
 20
-109.6920125051291
 10
101.8907660335551
 20
-109.7957098792351
 10
101.8676838938039
 20
-109.8463527828683
 97
        0
 97
        0
 92
        1
 93
        1
 72
     4
 94
        3
 73
     0
 74
     1
 95
       29
 96
       25
 40
0.0
 40
0.0
 40
0.0
 40
0.0
 40
1.0
 40
1.0
 40
1.0
 40
2.0
 40
2.0
 40
2.0
 40
3.0
 40
3.0
 40
3.0
 40
4.0
 40
4.0
 40
4.0
 40
5.0
 40
5.0
 40
5.0
 40
6.0
 40
6.0
 40
6.0
 40
7.0
 40
7.0
 40
7.0
 40
8.0
 40
8.0
 40
8.0
 40
8.0
 10
101.3746907298647
 20
-109.2200344236499
 10
101.3746907298647
 20
-109.2200344236499
 10
101.0339707863735
 20
-109.2200344236499
 10
101.0339707863735
 20
-109.2200344236499
 10
100.9199381258117
 20
-109.2200344236499
 10
100.8034938984102
 20
-109.2245130477807
 10
100.6891167283
 20
-109.2393269583673
 10
100.6891167283
 20
-109.2393269583673
 10
100.6891167283
 20
-109.0298651528641
 10
100.6891167283
 20
-109.0298651528641
 10
100.8076280129925
 20
-109.0446790634506
 10
100.9812608254491
 20
-109.0488131780329
 10
101.0339707863735
 20
-109.0488131780329
 10
101.0339707863735
 20
-109.0488131780329
 10
101.3746907298647
 20
-109.0488131780329
 10
101.3746907298647
 20
-109.0488131780329
 10
101.4911349572661
 20
-109.0488131780329
 10
101.607234675119
 20
-109.0446790634506
 10
101.7236789025205
 20
-109.0298651528641
 10
101.7236789025205
 20
-109.0298651528641
 10
101.7236789025205
 20
-109.2393269583673
 10
101.7236789025205
 20
-109.2393269583673
 10
101.5734727393636
 20
-109.2200344236499
 10
101.3895046404512
 20
-109.2200344236499
 10
101.3746907298647
 20
-109.2200344236499
 97
        0
 97
        0
 75
     2
 76
     1
 98
        0
  0
SPLINE
  5
86
330
4E
100
AcDbEntity
  8
_U+30EC_U+30A4_U+30E4_U+30FC 1
370
     0
100
AcDbSpline
210
0.0
220
0.0
230
1.0
 70
    11
 71
     3
 72
    50
 73
    46
 74
     0
 42
0.0000000001
 43
0.0000000001
 12
1.0
 22
0.0
 32
0.0
 13
1.0
 23
0.0
 33
0.0
 40
0.0
 40
0.0
 40
0.0
 40
0.0
 40
1.0
 40
1.0
 40
1.0
 40
2.0
 40
2.0
 40
2.0
 40
3.0
 40
3.0
 40
3.0
 40
4.0
 40
4.0
 40
4.0
 40
5.0
 40
5.0
 40
5.0
 40
6.0
 40
6.0
 40
6.0
 40
7.0
 40
7.0
 40
7.0
 40
8.0
 40
8.0
 40
8.0
 40
9.0
 40
9.0
 40
9.0
 40
10.0
 40
10.0
 40
10.0
 40
11.0
 40
11.0
 40
11.0
 40
12.0
 40
12.0
 40
12.0
 40
13.0
 40
13.0
 40
13.0
 40
14.0
 40
14.0
 40
14.0
 40
15.0
 40
15.0
 40
15.0
 40
15.0
 10
103.5778292926819
 20
-109.2052205130633
 30
0.0
 10
103.3683674871787
 20
-109.4188164331488
 30
0.0
 10
103.2967095010855
 20
-109.4908189287905
 30
0.0
 10
103.1547715670933
 20
-109.6093302134831
 30
0.0
 10
103.1547715670933
 20
-109.6093302134831
 30
0.0
 10
103.1547715670933
 20
-110.1763929303552
 30
0.0
 10
103.1547715670933
 20
-110.1763929303552
 30
0.0
 10
103.1547715670933
 20
-110.3265990935121
 30
0.0
 10
103.1613172485152
 20
-110.345547118681
 30
0.0
 10
103.1654513630975
 20
-110.5233140457199
 30
0.0
 10
103.1675184203887
 20
-110.6545721837079
 30
0.0
 10
103.1737195922621
 20
-110.7031480300499
 30
0.0
 10
103.1802652736841
 20
-110.7624036723962
 30
0.0
 10
103.1802652736841
 20
-110.7624036723962
 30
0.0
 10
102.9539225003032
 20
-110.7624036723962
 30
0.0
 10
102.9539225003032
 20
-110.7624036723962
 30
0.0
 10
102.9580566148855
 20
-110.7179619406365
 30
0.0
 10
102.9621907294678
 20
-110.6714531515856
 30
0.0
 10
102.9621907294678
 20
-110.6628404128725
 30
0.0
 10
102.9621907294678
 20
-110.5825696880662
 30
0.0
 10
102.9666693535986
 20
-110.2311699485707
 30
0.0
 10
102.9666693535986
 20
-110.1595119624775
 30
0.0
 10
102.9666693535986
 20
-110.1595119624775
 30
0.0
 10
102.9666693535986
 20
-109.7533352047665
 30
0.0
 10
102.9666693535986
 20
-109.7533352047665
 30
0.0
 10
102.7847683119774
 20
-109.8780476613326
 30
0.0
 10
102.5901204170608
 20
-109.987946207312
 30
0.0
 10
102.3868597834311
 20
-110.0747626135403
 30
0.0
 10
102.3868597834311
 20
-110.0747626135403
 30
0.0
 10
102.1839436593499
 20
-109.911809597088
 30
0.0
 10
102.1839436593499
 20
-109.911809597088
 30
0.0
 10
102.3065890586248
 20
-109.8759806040414
 30
0.0
 10
102.5625596531788
 20
-109.8019110511086
 30
0.0
 10
102.9074137112523
 20
-109.5459404565545
 30
0.0
 10
103.123076688629
 20
-109.3871215546845
 30
0.0
 10
103.3156575262544
 20
-109.1990193411898
 30
0.0
 10
103.4679307467025
 20
-108.9788777396824
 30
0.0
 10
103.4679307467025
 20
-108.9788777396824
 30
0.0
 10
103.6605115843279
 20
-109.1228827309658
 30
0.0
 10
103.6605115843279
 20
-109.1228827309658
 30
0.0
 10
103.6732584376234
 20
-109.1335625269701
 30
0.0
 10
103.681526666788
 20
-109.1480319280081
 30
0.0
 10
103.681526666788
 20
-109.1607787813036
 30
0.0
 10
103.681526666788
 20
-109.201086398481
 30
0.0
 10
103.6436306164502
 20
-109.201086398481
 30
0.0
 10
103.5778292926819
 20
-109.2052205130633
 30
0.0
  0
HATCH
  5
87
330
4E
100
AcDbEntity
  8
_U+30EC_U+30A4_U+30E4_U+30FC 1
 62
   179
420
  2234388
100
AcDbHatch
 10
0.0
 20
0.0
 30
0.0
210
0.0
220
0.0
230
1.0
  2
SOLID
 70
     1
 71
     0
 91
        1
 92
        1
 93
        1
 72
     4
 94
        3
 73
     0
 74
     1
 95
       50
 96
       46
 40
0.0
 40
0.0
 40
0.0
 40
0.0
 40
1.0
 40
1.0
 40
1.0
 40
2.0
 40
2.0
 40
2.0
 40
3.0
 40
3.0
 40
3.0
 40
4.0
 40
4.0
 40
4.0
 40
5.0
 40
5.0
 40
5.0
 40
6.0
 40
6.0
 40
6.0
 40
7.0
 40
7.0
 40
7.0
 40
8.0
 40
8.0
 40
8.0
 40
9.0
 40
9.0
 40
9.0
 40
10.0
 40
10.0
 40
10.0
 40
11.0
 40
11.0
 40
11.0
 40
12.0
 40
12.0
 40
12.0
 40
13.0
 40
13.0
 40
13.0
 40
14.0
 40
14.0
 40
14.0
 40
15.0
 40
15.0
 40
15.0
 40
15.0
 10
103.5778292926819
 20
-109.2052205130633
 10
103.3683674871787
 20
-109.4188164331488
 10
103.2967095010855
 20
-109.4908189287905
 10
103.1547715670933
 20
-109.6093302134831
 10
103.1547715670933
 20
-109.6093302134831
 10
103.1547715670933
 20
-110.1763929303552
 10
103.1547715670933
 20
-110.1763929303552
 10
103.1547715670933
 20
-110.3265990935121
 10
103.1613172485152
 20
-110.345547118681
 10
103.1654513630975
 20
-110.5233140457199
 10
103.1675184203887
 20
-110.6545721837079
 10
103.1737195922621
 20
-110.7031480300499
 10
103.1802652736841
 20
-110.7624036723962
 10
103.1802652736841
 20
-110.7624036723962
 10
102.9539225003032
 20
-110.7624036723962
 10
102.9539225003032
 20
-110.7624036723962
 10
102.9580566148855
 20
-110.7179619406365
 10
102.9621907294678
 20
-110.6714531515856
 10
102.9621907294678
 20
-110.6628404128725
 10
102.9621907294678
 20
-110.5825696880662
 10
102.9666693535986
 20
-110.2311699485707
 10
102.9666693535986
 20
-110.1595119624775
 10
102.9666693535986
 20
-110.1595119624775
 10
102.9666693535986
 20
-109.7533352047665
 10
102.9666693535986
 20
-109.7533352047665
 10
102.7847683119774
 20
-109.8780476613326
 10
102.5901204170608
 20
-109.987946207312
 10
102.3868597834311
 20
-110.0747626135403
 10
102.3868597834311
 20
-110.0747626135403
 10
102.1839436593499
 20
-109.911809597088
 10
102.1839436593499
 20
-109.911809597088
 10
102.3065890586248
 20
-109.8759806040414
 10
102.5625596531788
 20
-109.8019110511086
 10
102.9074137112523
 20
-109.5459404565545
 10
103.123076688629
 20
-109.3871215546845
 10
103.3156575262544
 20
-109.1990193411898
 10
103.4679307467025
 20
-108.9788777396824
 10
103.4679307467025
 20
-108.9788777396824
 10
103.6605115843279
 20
-109.1228827309658
 10
103.6605115843279
 20
-109.1228827309658
 10
103.6732584376234
 20
-109.1335625269701
 10
103.681526666788
 20
-109.1480319280081
 10
103.681526666788
 20
-109.1607787813036
 10
103.681526666788
 20
-109.201086398481
 10
103.6436306164502
 20
-109.201086398481
 10
103.5778292926819
 20
-109.2052205130633
 97
        0
 97
        0
 75
     2
 76
     1
 98
        0
  0
SPLINE
  5
88
330
4E
100
AcDbEntity
  8
_U+30EC_U+30A4_U+30E4_U+30FC 1
370
     0
100
AcDbSpline
210
0.0
220
0.0
230
1.0
 70
    11
 71
     3
 72
    50
 73
    46
 74
     0
 42
0.0000000001
 43
0.0000000001
 12
1.0
 22
0.0
 32
0.0
 13
1.0
 23
0.0
 33
0.0
 40
0.0
 40
0.0
 40
0.0
 40
0.0
 40
1.0
 40
1.0
 40
1.0
 40
2.0
 40
2.0
 40
2.0
 40
3.0
 40
3.0
 40
3.0
 40
4.0
 40
4.0
 40
4.0
 40
5.0
 40
5.0
 40
5.0
 40
6.0
 40
6.0
 40
6.0
 40
7.0
 40
7.0
 40
7.0
 40
8.0
 40
8.0
 40
8.0
 40
9.0
 40
9.0
 40
9.0
 40
10.0
 40
10.0
 40
10.0
 40
11.0
 40
11.0
 40
11.0
 40
12.0
 40
12.0
 40
12.0
 40
13.0
 40
13.0
 40
13.0
 40
14.0
 40
14.0
 40
14.0
 40
15.0
 40
15.0
 40
15.0
 40
15.0
 10
105.2862521438173
 20
-109.731975612758
 30
0.0
 10
105.2249294441799
 20
-109.8039781083997
 30
0.0
 10
104.964480225495
 20
-110.1212714025912
 30
0.0
 10
104.9076361499884
 20
-110.1846611595198
 30
0.0
 10
104.992040989377
 20
-110.2821573617524
 30
0.0
 10
105.0430284025587
 20
-110.345547118681
 30
0.0
 10
105.1084852167784
 20
-110.4364976394916
 30
0.0
 10
105.1084852167784
 20
-110.4364976394916
 30
0.0
 10
104.9245171178661
 20
-110.573956949353
 30
0.0
 10
104.9245171178661
 20
-110.573956949353
 30
0.0
 10
104.7891248652958
 20
-110.3624280865587
 30
0.0
 10
104.6175591101303
 20
-110.1381523704689
 30
0.0
 10
104.3236924652385
 20
-109.93937036097
 30
0.0
 10
104.3236924652385
 20
-109.93937036097
 30
0.0
 10
104.4718315711043
 20
-109.7850300832308
 30
0.0
 10
104.4718315711043
 20
-109.7850300832308
 30
0.0
 10
104.5817301170837
 20
-109.8653008080371
 30
0.0
 10
104.6854274911898
 20
-109.9541842715566
 30
0.0
 10
104.7825791838738
 20
-110.0492689069495
 30
0.0
 10
104.8504475649332
 20
-109.9731322967255
 30
0.0
 10
105.0533636890144
 20
-109.7299085554668
 30
0.0
 10
105.1866888842936
 20
-109.5014987247948
 30
0.0
 10
105.1866888842936
 20
-109.5014987247948
 30
0.0
 10
104.5138617360243
 20
-109.5014987247948
 30
0.0
 10
104.5138617360243
 20
-109.5014987247948
 30
0.0
 10
104.3891492794583
 20
-109.5014987247948
 30
0.0
 10
104.1373127994865
 20
-109.5101114635079
 30
0.0
 10
103.9278509939833
 20
-109.5204467499636
 30
0.0
 10
103.9278509939833
 20
-109.5204467499636
 30
0.0
 10
103.9278509939833
 20
-109.3006496580047
 30
0.0
 10
103.9278509939833
 20
-109.3006496580047
 30
0.0
 10
104.1121636024442
 20
-109.3195976831736
 30
0.0
 10
104.3171467838166
 20
-109.3237317977559
 30
0.0
 10
104.5055935068597
 20
-109.3237317977559
 30
0.0
 10
104.5055935068597
 20
-109.3237317977559
 30
0.0
 10
105.0089219572547
 20
-109.3237317977559
 30
0.0
 10
105.0089219572547
 20
-109.3237317977559
 30
0.0
 10
105.3475748434548
 20
-109.3237317977559
 30
0.0
 10
105.3920165752145
 20
-109.3089178871693
 30
0.0
 10
105.474354357312
 20
-109.2686102699919
 30
0.0
 10
105.474354357312
 20
-109.2686102699919
 30
0.0
 10
105.6414414883466
 20
-109.4274291718619
 30
0.0
 10
105.6414414883466
 20
-109.4274291718619
 30
0.0
 10
105.4891682678985
 20
-109.4994316675036
 30
0.0
 10
105.3455077861636
 20
-109.6623846839559
 30
0.0
 10
105.2862521438173
 20
-109.731975612758
 30
0.0
  0
HATCH
  5
89
330
4E
100
AcDbEntity
  8
_U+30EC_U+30A4_U+30E4_U+30FC 1
 62
   179
420
  2234388
100
AcDbHatch
 10
0.0
 20
0.0
 30
0.0
210
0.0
220
0.0
230
1.0
  2
SOLID
 70
     1
 71
     0
 91
        1
 92
        1
 93
        1
 72
     4
 94
        3
 73
     0
 74
     1
 95
       50
 96
       46
 40
0.0
 40
0.0
 40
0.0
 40
0.0
 40
1.0
 40
1.0
 40
1.0
 40
2.0
 40
2.0
 40
2.0
 40
3.0
 40
3.0
 40
3.0
 40
4.0
 40
4.0
 40
4.0
 40
5.0
 40
5.0
 40
5.0
 40
6.0
 40
6.0
 40
6.0
 40
7.0
 40
7.0
 40
7.0
 40
8.0
 40
8.0
 40
8.0
 40
9.0
 40
9.0
 40
9.0
 40
10.0
 40
10.0
 40
10.0
 40
11.0
 40
11.0
 40
11.0
 40
12.0
 40
12.0
 40
12.0
 40
13.0
 40
13.0
 40
13.0
 40
14.0
 40
14.0
 40
14.0
 40
15.0
 40
15.0
 40
15.0
 40
15.0
 10
105.2862521438173
 20
-109.731975612758
 10
105.2249294441799
 20
-109.8039781083997
 10
104.964480225495
 20
-110.1212714025912
 10
104.9076361499884
 20
-110.1846611595198
 10
104.992040989377
 20
-110.2821573617524
 10
105.0430284025587
 20
-110.345547118681
 10
105.1084852167784
 20
-110.4364976394916
 10
105.1084852167784
 20
-110.4364976394916
 10
104.9245171178661
 20
-110.573956949353
 10
104.9245171178661
 20
-110.573956949353
 10
104.7891248652958
 20
-110.3624280865587
 10
104.6175591101303
 20
-110.1381523704689
 10
104.3236924652385
 20
-109.93937036097
 10
104.3236924652385
 20
-109.93937036097
 10
104.4718315711043
 20
-109.7850300832308
 10
104.4718315711043
 20
-109.7850300832308
 10
104.5817301170837
 20
-109.8653008080371
 10
104.6854274911898
 20
-109.9541842715566
 10
104.7825791838738
 20
-110.0492689069495
 10
104.8504475649332
 20
-109.9731322967255
 10
105.0533636890144
 20
-109.7299085554668
 10
105.1866888842936
 20
-109.5014987247948
 10
105.1866888842936
 20
-109.5014987247948
 10
104.5138617360243
 20
-109.5014987247948
 10
104.5138617360243
 20
-109.5014987247948
 10
104.3891492794583
 20
-109.5014987247948
 10
104.1373127994865
 20
-109.5101114635079
 10
103.9278509939833
 20
-109.5204467499636
 10
103.9278509939833
 20
-109.5204467499636
 10
103.9278509939833
 20
-109.3006496580047
 10
103.9278509939833
 20
-109.3006496580047
 10
104.1121636024442
 20
-109.3195976831736
 10
104.3171467838166
 20
-109.3237317977559
 10
104.5055935068597
 20
-109.3237317977559
 10
104.5055935068597
 20
-109.3237317977559
 10
105.0089219572547
 20
-109.3237317977559
 10
105.0089219572547
 20
-109.3237317977559
 10
105.3475748434548
 20
-109.3237317977559
 10
105.3920165752145
 20
-109.3089178871693
 10
105.474354357312
 20
-109.2686102699919
 10
105.474354357312
 20
-109.2686102699919
 10
105.6414414883466
 20
-109.4274291718619
 10
105.6414414883466
 20
-109.4274291718619
 10
105.4891682678985
 20
-109.4994316675036
 10
105.3455077861636
 20
-109.6623846839559
 10
105.2862521438173
 20
-109.731975612758
 97
        0
 97
        0
 75
     2
 76
     1
 98
        0
  0
SPLINE
  5
8A
330
4E
100
AcDbEntity
  8
_U+30EC_U+30A4_U+30E4_U+30FC 1
370
     0
100
AcDbSpline
210
0.0
220
0.0
230
1.0
 70
    11
 71
     3
 72
    29
 73
    25
 74
     0
 42
0.0000000001
 43
0.0000000001
 12
1.0
 22
0.0
 32
0.0
 13
1.0
 23
0.0
 33
0.0
 40
0.0
 40
0.0
 40
0.0
 40
0.0
 40
1.0
 40
1.0
 40
1.0
 40
2.0
 40
2.0
 40
2.0
 40
3.0
 40
3.0
 40
3.0
 40
4.0
 40
4.0
 40
4.0
 40
5.0
 40
5.0
 40
5.0
 40
6.0
 40
6.0
 40
6.0
 40
7.0
 40
7.0
 40
7.0
 40
8.0
 40
8.0
 40
8.0
 40
8.0
 10
106.9095811364671
 20
-109.9751993540166
 30
0.0
 10
106.9095811364671
 20
-109.9751993540166
 30
0.0
 10
106.4252007112409
 20
-109.9751993540166
 30
0.0
 10
106.4252007112409
 20
-109.9751993540166
 30
0.0
 10
106.3976399473589
 20
-109.9751993540166
 30
0.0
 10
106.0803466531674
 20
-109.9751993540166
 30
0.0
 10
105.8688177903731
 20
-110.0006930606075
 30
0.0
 10
105.8688177903731
 20
-110.0006930606075
 30
0.0
 10
105.8688177903731
 20
-109.7702161726443
 30
0.0
 10
105.8688177903731
 20
-109.7702161726443
 30
0.0
 10
106.0272921826946
 20
-109.7932983123954
 30
0.0
 10
106.2178059630289
 20
-109.7957098792351
 30
0.0
 10
106.4252007112409
 20
-109.7957098792351
 30
0.0
 10
106.4252007112409
 20
-109.7957098792351
 30
0.0
 10
106.9095811364671
 20
-109.7957098792351
 30
0.0
 10
106.9095811364671
 20
-109.7957098792351
 30
0.0
 10
107.0956162926705
 20
-109.7957098792351
 30
0.0
 10
107.2819959584226
 20
-109.7932983123954
 30
0.0
 10
107.4659640573349
 20
-109.7702161726443
 30
0.0
 10
107.4659640573349
 20
-109.7702161726443
 30
0.0
 10
107.4659640573349
 20
-110.0006930606075
 30
0.0
 10
107.4659640573349
 20
-110.0006930606075
 30
0.0
 10
107.2819959584226
 20
-109.9776109208563
 30
0.0
 10
107.0342935930331
 20
-109.9751993540166
 30
0.0
 10
106.9095811364671
 20
-109.9751993540166
 30
0.0
  0
HATCH
  5
8B
330
4E
100
AcDbEntity
  8
_U+30EC_U+30A4_U+30E4_U+30FC 1
 62
   179
420
  2234388
100
AcDbHatch
 10
0.0
 20
0.0
 30
0.0
210
0.0
220
0.0
230
1.0
  2
SOLID
 70
     1
 71
     0
 91
        1
 92
        1
 93
        1
 72
     4
 94
        3
 73
     0
 74
     1
 95
       29
 96
       25
 40
0.0
 40
0.0
 40
0.0
 40
0.0
 40
1.0
 40
1.0
 40
1.0
 40
2.0
 40
2.0
 40
2.0
 40
3.0
 40
3.0
 40
3.0
 40
4.0
 40
4.0
 40
4.0
 40
5.0
 40
5.0
 40
5.0
 40
6.0
 40
6.0
 40
6.0
 40
7.0
 40
7.0
 40
7.0
 40
8.0
 40
8.0
 40
8.0
 40
8.0
 10
106.9095811364671
 20
-109.9751993540166
 10
106.9095811364671
 20
-109.9751993540166
 10
106.4252007112409
 20
-109.9751993540166
 10
106.4252007112409
 20
-109.9751993540166
 10
106.3976399473589
 20
-109.9751993540166
 10
106.0803466531674
 20
-109.9751993540166
 10
105.8688177903731
 20
-110.0006930606075
 10
105.8688177903731
 20
-110.0006930606075
 10
105.8688177903731
 20
-109.7702161726443
 10
105.8688177903731
 20
-109.7702161726443
 10
106.0272921826946
 20
-109.7932983123954
 10
106.2178059630289
 20
-109.7957098792351
 10
106.4252007112409
 20
-109.7957098792351
 10
106.4252007112409
 20
-109.7957098792351
 10
106.9095811364671
 20
-109.7957098792351
 10
106.9095811364671
 20
-109.7957098792351
 10
107.0956162926705
 20
-109.7957098792351
 10
107.2819959584226
 20
-109.7932983123954
 10
107.4659640573349
 20
-109.7702161726443
 10
107.4659640573349
 20
-109.7702161726443
 10
107.4659640573349
 20
-110.0006930606075
 10
107.4659640573349
 20
-110.0006930606075
 10
107.2819959584226
 20
-109.9776109208563
 10
107.0342935930331
 20
-109.9751993540166
 10
106.9095811364671
 20
-109.9751993540166
 97
        0
 97
        0
 75
     2
 76
     1
 98
        0
  0
ENDBLK
  5
51
330
4E
100
AcDbEntity
  8
0
100
AcDbBlockEnd
  0
BLOCK
  5
C7
330
C5
100
AcDbEntity
  8
0
100
AcDbBlockBegin
  2
block 3
 70
     0
 10
0.0
 20
0.0
 30
0.0
  3
block 3
  1

  0
SPLINE
  5
C9
330
C5
100
AcDbEntity
  8
_U+30EC_U+30A4_U+30E4_U+30FC 1
370
     0
100
AcDbSpline
210
0.0
220
0.0
230
1.0
 70
    11
 71
     3
 72
    26
 73
    22
 74
     0
 42
0.0000000001
 43
0.0000000001
 12
1.0
 22
0.0
 32
0.0
 13
1.0
 23
0.0
 33
0.0
 40
0.0
 40
0.0
 40
0.0
 40
0.0
 40
1.0
 40
1.0
 40
1.0
 40
2.0
 40
2.0
 40
2.0
 40
3.0
 40
3.0
 40
3.0
 40
4.0
 40
4.0
 40
4.0
 40
5.0
 40
5.0
 40
5.0
 40
6.0
 40
6.0
 40
6.0
 40
7.0
 40
7.0
 40
7.0
 40
7.0
 10
84.64771862033113
 20
-117.4519178308801
 30
0.0
 10
84.64771862033113
 20
-117.4519178308801
 30
0.0
 10
84.64771862033113
 20
-116.3475924730833
 30
0.0
 10
84.64771862033113
 20
-116.3475924730833
 30
0.0
 10
84.64771862033113
 20
-116.3475924730833
 30
0.0
 10
84.29494084264155
 20
-116.3475924730833
 30
0.0
 10
84.29494084264155
 20
-116.3475924730833
 30
0.0
 10
84.29494084264155
 20
-116.3475924730833
 30
0.0
 10
84.29494084264155
 20
-116.1996256219918
 30
0.0
 10
84.29494084264155
 20
-116.1996256219918
 30
0.0
 10
84.64995793239655
 20
-116.1848117114052
 30
0.0
 10
84.6997395621584
 20
-116.0218586949529
 30
0.0
 10
84.7314344406227
 20
-115.9076537796168
 30
0.0
 10
84.7314344406227
 20
-115.9076537796168
 30
0.0
 10
84.88732501133026
 20
-115.9076537796168
 30
0.0
 10
84.88732501133026
 20
-115.9076537796168
 30
0.0
 10
84.88732501133026
 20
-115.9076537796168
 30
0.0
 10
84.88732501133026
 20
-117.4519178308801
 30
0.0
 10
84.88732501133026
 20
-117.4519178308801
 30
0.0
 10
84.88732501133026
 20
-117.4519178308801
 30
0.0
 10
84.64771862033113
 20
-117.4519178308801
 30
0.0
 10
84.64771862033113
 20
-117.4519178308801
 30
0.0
  0
HATCH
  5
CA
330
C5
100
AcDbEntity
  8
_U+30EC_U+30A4_U+30E4_U+30FC 1
 62
     7
420
 16777215
100
AcDbHatch
 10
0.0
 20
0.0
 30
0.0
210
0.0
220
0.0
230
1.0
  2
SOLID
 70
     1
 71
     0
 91
        1
 92
        1
 93
        1
 72
     4
 94
        3
 73
     0
 74
     1
 95
       26
 96
       22
 40
0.0
 40
0.0
 40
0.0
 40
0.0
 40
1.0
 40
1.0
 40
1.0
 40
2.0
 40
2.0
 40
2.0
 40
3.0
 40
3.0
 40
3.0
 40
4.0
 40
4.0
 40
4.0
 40
5.0
 40
5.0
 40
5.0
 40
6.0
 40
6.0
 40
6.0
 40
7.0
 40
7.0
 40
7.0
 40
7.0
 10
84.64771862033113
 20
-117.4519178308801
 10
84.64771862033113
 20
-117.4519178308801
 10
84.64771862033113
 20
-116.3475924730833
 10
84.64771862033113
 20
-116.3475924730833
 10
84.64771862033113
 20
-116.3475924730833
 10
84.29494084264155
 20
-116.3475924730833
 10
84.29494084264155
 20
-116.3475924730833
 10
84.29494084264155
 20
-116.3475924730833
 10
84.29494084264155
 20
-116.1996256219918
 10
84.29494084264155
 20
-116.1996256219918
 10
84.64995793239655
 20
-116.1848117114052
 10
84.6997395621584
 20
-116.0218586949529
 10
84.7314344406227
 20
-115.9076537796168
 10
84.7314344406227
 20
-115.9076537796168
 10
84.88732501133026
 20
-115.9076537796168
 10
84.88732501133026
 20
-115.9076537796168
 10
84.88732501133026
 20
-115.9076537796168
 10
84.88732501133026
 20
-117.4519178308801
 10
84.88732501133026
 20
-117.4519178308801
 10
84.88732501133026
 20
-117.4519178308801
 10
84.64771862033113
 20
-117.4519178308801
 10
84.64771862033113
 20
-117.4519178308801
 97
        0
 97
        0
 75
     2
 76
     1
 98
        0
  0
ENDBLK
  5
C8
330
C5
100
AcDbEntity
  8
0
100
AcDbBlockEnd
  0
BLOCK
  5
D9
330
D7
100
AcDbEntity
  8
0
100
AcDbBlockBegin
  2
block 4
 70
     0
 10
0.0
 20
0.0
 30
0.0
  3
block 4
  1

  0
SPLINE
  5
DB
330
D7
100
AcDbEntity
  8
_U+30EC_U+30A4_U+30E4_U+30FC 1
370
     0
100
AcDbSpline
210
0.0
220
0.0
230
1.0
 70
    11
 71
     3
 72
    26
 73
    22
 74
     0
 42
0.0000000001
 43
0.0000000001
 12
1.0
 22
0.0
 32
0.0
 13
1.0
 23
0.0
 33
0.0
 40
0.0
 40
0.0
 40
0.0
 40
0.0
 40
1.0
 40
1.0
 40
1.0
 40
2.0
 40
2.0
 40
2.0
 40
3.0
 40
3.0
 40
3.0
 40
4.0
 40
4.0
 40
4.0
 40
5.0
 40
5.0
 40
5.0
 40
6.0
 40
6.0
 40
6.0
 40
7.0
 40
7.0
 40
7.0
 40
7.0
 10
86.9757418944887
 20
-146.5705538913087
 30
0.0
 10
86.9757418944887
 20
-146.5705538913087
 30
0.0
 10
86.9757418944887
 20
-145.4664007882862
 30
0.0
 10
86.9757418944887
 20
-145.4664007882862
 30
0.0
 10
86.9757418944887
 20
-145.4664007882862
 30
0.0
 10
86.62330862634765
 20
-145.4664007882862
 30
0.0
 10
86.62330862634765
 20
-145.4664007882862
 30
0.0
 10
86.62330862634765
 20
-145.4664007882862
 30
0.0
 10
86.62330862634765
 20
-145.3182616824204
 30
0.0
 10
86.62330862634765
 20
-145.3182616824204
 30
0.0
 10
86.97815346132838
 20
-145.3034477718339
 30
0.0
 10
87.02776283631599
 20
-145.1404947553816
 30
0.0
 10
87.05945771478028
 20
-145.0261175852713
 30
0.0
 10
87.05945771478028
 20
-145.0261175852713
 30
0.0
 10
87.21552054026209
 20
-145.0261175852713
 30
0.0
 10
87.21552054026209
 20
-145.0261175852713
 30
0.0
 10
87.21552054026209
 20
-145.0261175852713
 30
0.0
 10
87.21552054026209
 20
-146.5705538913087
 30
0.0
 10
87.21552054026209
 20
-146.5705538913087
 30
0.0
 10
87.21552054026209
 20
-146.5705538913087
 30
0.0
 10
86.9757418944887
 20
-146.5705538913087
 30
0.0
 10
86.9757418944887
 20
-146.5705538913087
 30
0.0
  0
HATCH
  5
DC
330
D7
100
AcDbEntity
  8
_U+30EC_U+30A4_U+30E4_U+30FC 1
 62
     7
420
 16777215
100
AcDbHatch
 10
0.0
 20
0.0
 30
0.0
210
0.0
220
0.0
230
1.0
  2
SOLID
 70
     1
 71
     0
 91
        1
 92
        1
 93
        1
 72
     4
 94
        3
 73
     0
 74
     1
 95
       26
 96
       22
 40
0.0
 40
0.0
 40
0.0
 40
0.0
 40
1.0
 40
1.0
 40
1.0
 40
2.0
 40
2.0
 40
2.0
 40
3.0
 40
3.0
 40
3.0
 40
4.0
 40
4.0
 40
4.0
 40
5.0
 40
5.0
 40
5.0
 40
6.0
 40
6.0
 40
6.0
 40
7.0
 40
7.0
 40
7.0
 40
7.0
 10
86.9757418944887
 20
-146.5705538913087
 10
86.9757418944887
 20
-146.5705538913087
 10
86.9757418944887
 20
-145.4664007882862
 10
86.9757418944887
 20
-145.4664007882862
 10
86.9757418944887
 20
-145.4664007882862
 10
86.62330862634765
 20
-145.4664007882862
 10
86.62330862634765
 20
-145.4664007882862
 10
86.62330862634765
 20
-145.4664007882862
 10
86.62330862634765
 20
-145.3182616824204
 10
86.62330862634765
 20
-145.3182616824204
 10
86.97815346132838
 20
-145.3034477718339
 10
87.02776283631599
 20
-145.1404947553816
 10
87.05945771478028
 20
-145.0261175852713
 10
87.05945771478028
 20
-145.0261175852713
 10
87.21552054026209
 20
-145.0261175852713
 10
87.21552054026209
 20
-145.0261175852713
 10
87.21552054026209
 20
-145.0261175852713
 10
87.21552054026209
 20
-146.5705538913087
 10
87.21552054026209
 20
-146.5705538913087
 10
87.21552054026209
 20
-146.5705538913087
 10
86.9757418944887
 20
-146.5705538913087
 10
86.9757418944887
 20
-146.5705538913087
 97
        0
 97
        0
 75
     2
 76
     1
 98
        0
  0
POLYLINE
  5
DD
330
D7
100
AcDbEntity
  8
_U+30EC_U+30A4_U+30E4_U+30FC 1
370
     0
100
AcDb2dPolyline
 66
     1
 10
0.0
 20
0.0
 30
0.0
  0
VERTEX
  5
DE
330
DD
100
AcDbEntity
  8
_U+30EC_U+30A4_U+30E4_U+30FC 1
370
     0
100
AcDbVertex
100
AcDb2dVertex
 10
88.64075654250995
 20
-146.2236327759441
 30
0.0
  0
VERTEX
  5
DF
330
DD
100
AcDbEntity
  8
_U+30EC_U+30A4_U+30E4_U+30FC 1
370
     0
100
AcDbVertex
100
AcDb2dVertex
 10
88.64075654250995
 20
-146.5705538913087
 30
0.0
  0
VERTEX
  5
E0
330
DD
100
AcDbEntity
  8
_U+30EC_U+30A4_U+30E4_U+30FC 1
370
     0
100
AcDbVertex
100
AcDb2dVertex
 10
88.40786808770706
 20
-146.5705538913087
 30
0.0
  0
VERTEX
  5
E1
330
DD
100
AcDbEntity
  8
_U+30EC_U+30A4_U+30E4_U+30FC 1
370
     0
100
AcDbVertex
100
AcDb2dVertex
 10
88.40786808770706
 20
-146.2236327759441
 30
0.0
  0
VERTEX
  5
E2
330
DD
100
AcDbEntity
  8
_U+30EC_U+30A4_U+30E4_U+30FC 1
370
     0
100
AcDbVertex
100
AcDb2dVertex
 10
87.70679115645872
 20
-146.2236327759441
 30
0.0
  0
VERTEX
  5
E3
330
DD
100
AcDbEntity
  8
_U+30EC_U+30A4_U+30E4_U+30FC 1
370
     0
100
AcDbVertex
100
AcDb2dVertex
 10
87.70679115645872
 20
-145.9993570598543
 30
0.0
  0
VERTEX
  5
E4
330
DD
100
AcDbEntity
  8
_U+30EC_U+30A4_U+30E4_U+30FC 1
370
     0
100
AcDbVertex
100
AcDb2dVertex
 10
88.43267277520086
 20
-145.0261175852713
 30
0.0
  0
VERTEX
  5
E5
330
DD
100
AcDbEntity
  8
_U+30EC_U+30A4_U+30E4_U+30FC 1
370
     0
100
AcDbVertex
100
AcDb2dVertex
 10
88.64075654250995
 20
-145.0261175852713
 30
0.0
  0
VERTEX
  5
E6
330
DD
100
AcDbEntity
  8
_U+30EC_U+30A4_U+30E4_U+30FC 1
370
     0
100
AcDbVertex
100
AcDb2dVertex
 10
88.64075654250995
 20
-146.0248507664452
 30
0.0
  0
VERTEX
  5
E7
330
DD
100
AcDbEntity
  8
_U+30EC_U+30A4_U+30E4_U+30FC 1
370
     0
100
AcDbVertex
100
AcDb2dVertex
 10
88.86227618221152
 20
-146.0248507664452
 30
0.0
  0
VERTEX
  5
E8
330
DD
100
AcDbEntity
  8
_U+30EC_U+30A4_U+30E4_U+30FC 1
370
     0
100
AcDbVertex
100
AcDb2dVertex
 10
88.86227618221152
 20
-146.2236327759441
 30
0.0
  0
VERTEX
  5
E9
330
DD
100
AcDbEntity
  8
_U+30EC_U+30A4_U+30E4_U+30FC 1
370
     0
100
AcDbVertex
100
AcDb2dVertex
 10
88.64075654250995
 20
-146.2236327759441
 30
0.0
  0
SEQEND
  5
EA
330
DD
100
AcDbEntity
  8
_U+30EC_U+30A4_U+30E4_U+30FC 1
370
     0
  0
POLYLINE
  5
EB
330
D7
100
AcDbEntity
  8
_U+30EC_U+30A4_U+30E4_U+30FC 1
370
     0
100
AcDb2dPolyline
 66
     1
 10
0.0
 20
0.0
 30
0.0
  0
VERTEX
  5
EC
330
EB
100
AcDbEntity
  8
_U+30EC_U+30A4_U+30E4_U+30FC 1
370
     0
100
AcDbVertex
100
AcDb2dVertex
 10
88.40786808770706
 20
-145.3689045860536
 30
0.0
  0
VERTEX
  5
ED
330
EB
100
AcDbEntity
  8
_U+30EC_U+30A4_U+30E4_U+30FC 1
370
     0
100
AcDbVertex
100
AcDb2dVertex
 10
87.91935354789864
 20
-146.0248507664452
 30
0.0
  0
VERTEX
  5
EE
330
EB
100
AcDbEntity
  8
_U+30EC_U+30A4_U+30E4_U+30FC 1
370
     0
100
AcDbVertex
100
AcDb2dVertex
 10
88.40786808770706
 20
-146.0248507664452
 30
0.0
  0
VERTEX
  5
EF
330
EB
100
AcDbEntity
  8
_U+30EC_U+30A4_U+30E4_U+30FC 1
370
     0
100
AcDbVertex
100
AcDb2dVertex
 10
88.40786808770706
 20
-145.3689045860536
 30
0.0
  0
SEQEND
  5
F0
330
EB
100
AcDbEntity
  8
_U+30EC_U+30A4_U+30E4_U+30FC 1
370
     0
  0
HATCH
  5
F1
330
D7
100
AcDbEntity
  8
_U+30EC_U+30A4_U+30E4_U+30FC 1
 62
     7
420
 16777215
100
AcDbHatch
 10
0.0
 20
0.0
 30
0.0
210
0.0
220
0.0
230
1.0
  2
SOLID
 70
     1
 71
     0
 91
        2
 92
        1
 93
       11
 72
     1
 10
88.64075654250995
 20
-146.2236327759441
 11
88.64075654250995
 21
-146.5705538913087
 72
     1
 10
88.64075654250995
 20
-146.5705538913087
 11
88.40786808770706
 21
-146.5705538913087
 72
     1
 10
88.40786808770706
 20
-146.5705538913087
 11
88.40786808770706
 21
-146.2236327759441
 72
     1
 10
88.40786808770706
 20
-146.2236327759441
 11
87.70679115645872
 21
-146.2236327759441
 72
     1
 10
87.70679115645872
 20
-146.2236327759441
 11
87.70679115645872
 21
-145.9993570598543
 72
     1
 10
87.70679115645872
 20
-145.9993570598543
 11
88.43267277520086
 21
-145.0261175852713
 72
     1
 10
88.43267277520086
 20
-145.0261175852713
 11
88.64075654250995
 21
-145.0261175852713
 72
     1
 10
88.64075654250995
 20
-145.0261175852713
 11
88.64075654250995
 21
-146.0248507664452
 72
     1
 10
88.64075654250995
 20
-146.0248507664452
 11
88.86227618221152
 21
-146.0248507664452
 72
     1
 10
88.86227618221152
 20
-146.0248507664452
 11
88.86227618221152
 21
-146.2236327759441
 72
     1
 10
88.86227618221152
 20
-146.2236327759441
 11
88.64075654250995
 21
-146.2236327759441
 97
        0
 92
        1
 93
        3
 72
     1
 10
88.40786808770706
 20
-145.3689045860536
 11
87.91935354789864
 21
-146.0248507664452
 72
     1
 10
87.91935354789864
 20
-146.0248507664452
 11
88.40786808770706
 21
-146.0248507664452
 72
     1
 10
88.40786808770706
 20
-146.0248507664452
 11
88.40786808770706
 21
-145.3689045860536
 97
        0
 75
     2
 76
     1
 98
        0
  0
ENDBLK
  5
DA
330
D7
100
AcDbEntity
  8
0
100
AcDbBlockEnd
  0
BLOCK
  5
102
330
100
100
AcDbEntity
  8
0
100
AcDbBlockBegin
  2
block 5
 70
     0
 10
0.0
 20
0.0
 30
0.0
  3
block 5
  1

  0
SPLINE
  5
104
330
100
100
AcDbEntity
  8
_U+30EC_U+30A4_U+30E4_U+30FC 1
370
     0
100
AcDbSpline
210
0.0
220
0.0
230
1.0
 70
    11
 71
     3
 72
    32
 73
    28
 74
     0
 42
0.0000000001
 43
0.0000000001
 12
1.0
 22
0.0
 32
0.0
 13
1.0
 23
0.0
 33
0.0
 40
0.0
 40
0.0
 40
0.0
 40
0.0
 40
1.0
 40
1.0
 40
1.0
 40
2.0
 40
2.0
 40
2.0
 40
3.0
 40
3.0
 40
3.0
 40
4.0
 40
4.0
 40
4.0
 40
5.0
 40
5.0
 40
5.0
 40
6.0
 40
6.0
 40
6.0
 40
7.0
 40
7.0
 40
7.0
 40
8.0
 40
8.0
 40
8.0
 40
9.0
 40
9.0
 40
9.0
 40
9.0
 10
84.76123451657011
 20
-111.0157904453363
 30
0.0
 10
84.20967472938162
 20
-111.0157904453363
 30
0.0
 10
84.20071748111997
 20
-110.4618190913082
 30
0.0
 10
84.20071748111997
 20
-110.2478786616742
 30
0.0
 10
84.20071748111997
 20
-110.0174017737109
 30
0.0
 10
84.22104354448294
 20
-109.3700683320325
 30
0.0
 10
84.80223115284458
 20
-109.3700683320325
 30
0.0
 10
84.98757728995102
 20
-109.3700683320325
 30
0.0
 10
85.24974905637853
 20
-109.4400037703831
 30
0.0
 10
85.29040118310449
 20
-109.7721109751611
 30
0.0
 10
85.29040118310449
 20
-109.7721109751611
 30
0.0
 10
85.06199135243243
 20
-109.7721109751611
 30
0.0
 10
85.06199135243243
 20
-109.7721109751611
 30
0.0
 10
85.0506225373311
 20
-109.714922390106
 30
0.0
 10
85.01686060157564
 20
-109.5667832842403
 30
0.0
 10
84.79981958600492
 20
-109.5667832842403
 30
0.0
 10
84.48769393504128
 20
-109.5667832842403
 30
0.0
 10
84.44497475102418
 20
-109.894756374436
 30
0.0
 10
84.43119436908317
 20
-110.0997395558084
 30
0.0
 10
84.53075762860689
 20
-110.0215358882932
 30
0.0
 10
84.60310463379714
 20
-109.9622802459469
 30
0.0
 10
84.79775252871376
 20
-109.9622802459469
 30
0.0
 10
84.98964434724218
 20
-109.9622802459469
 30
0.0
 10
85.31313881330713
 20
-110.0704562441838
 30
0.0
 10
85.31313881330713
 20
-110.4766330018947
 30
0.0
 10
85.31313881330713
 20
-110.7959933533774
 30
0.0
 10
85.10057642186722
 20
-111.0157904453363
 30
0.0
 10
84.76123451657011
 20
-111.0157904453363
 30
0.0
  0
SPLINE
  5
105
330
100
100
AcDbEntity
  8
_U+30EC_U+30A4_U+30E4_U+30FC 1
370
     0
100
AcDbSpline
210
0.0
220
0.0
230
1.0
 70
    11
 71
     3
 72
    17
 73
    13
 74
     0
 42
0.0000000001
 43
0.0000000001
 12
1.0
 22
0.0
 32
0.0
 13
1.0
 23
0.0
 33
0.0
 40
0.0
 40
0.0
 40
0.0
 40
0.0
 40
1.0
 40
1.0
 40
1.0
 40
2.0
 40
2.0
 40
2.0
 40
3.0
 40
3.0
 40
3.0
 40
4.0
 40
4.0
 40
4.0
 40
4.0
 10
84.77949352264194
 20
-110.1569281408636
 30
0.0
 10
84.4990627501426
 20
-110.1569281408636
 30
0.0
 10
84.45841062341665
 20
-110.3684570036579
 30
0.0
 10
84.45841062341665
 20
-110.4849012310593
 30
0.0
 10
84.45841062341665
 20
-110.6606011008071
 30
0.0
 10
84.56004094023152
 20
-110.8235541172594
 30
0.0
 10
84.75675589243929
 20
-110.8235541172594
 30
0.0
 10
84.88560246358763
 20
-110.8235541172594
 30
0.0
 10
85.07336016753375
 20
-110.7642984749131
 30
0.0
 10
85.07336016753375
 20
-110.4787000591859
 30
0.0
 10
85.07336016753375
 20
-110.2544243430961
 30
0.0
 10
84.92418753302243
 20
-110.1569281408636
 30
0.0
 10
84.77949352264194
 20
-110.1569281408636
 30
0.0
  0
HATCH
  5
106
330
100
100
AcDbEntity
  8
_U+30EC_U+30A4_U+30E4_U+30FC 1
 62
     7
420
 16777215
100
AcDbHatch
 10
0.0
 20
0.0
 30
0.0
210
0.0
220
0.0
230
1.0
  2
SOLID
 70
     1
 71
     0
 91
        2
 92
        1
 93
        1
 72
     4
 94
        3
 73
     0
 74
     1
 95
       32
 96
       28
 40
0.0
 40
0.0
 40
0.0
 40
0.0
 40
1.0
 40
1.0
 40
1.0
 40
2.0
 40
2.0
 40
2.0
 40
3.0
 40
3.0
 40
3.0
 40
4.0
 40
4.0
 40
4.0
 40
5.0
 40
5.0
 40
5.0
 40
6.0
 40
6.0
 40
6.0
 40
7.0
 40
7.0
 40
7.0
 40
8.0
 40
8.0
 40
8.0
 40
9.0
 40
9.0
 40
9.0
 40
9.0
 10
84.76123451657011
 20
-111.0157904453363
 10
84.20967472938162
 20
-111.0157904453363
 10
84.20071748111997
 20
-110.4618190913082
 10
84.20071748111997
 20
-110.2478786616742
 10
84.20071748111997
 20
-110.0174017737109
 10
84.22104354448294
 20
-109.3700683320325
 10
84.80223115284458
 20
-109.3700683320325
 10
84.98757728995102
 20
-109.3700683320325
 10
85.24974905637853
 20
-109.4400037703831
 10
85.29040118310449
 20
-109.7721109751611
 10
85.29040118310449
 20
-109.7721109751611
 10
85.06199135243243
 20
-109.7721109751611
 10
85.06199135243243
 20
-109.7721109751611
 10
85.0506225373311
 20
-109.714922390106
 10
85.01686060157564
 20
-109.5667832842403
 10
84.79981958600492
 20
-109.5667832842403
 10
84.48769393504128
 20
-109.5667832842403
 10
84.44497475102418
 20
-109.894756374436
 10
84.43119436908317
 20
-110.0997395558084
 10
84.53075762860689
 20
-110.0215358882932
 10
84.60310463379714
 20
-109.9622802459469
 10
84.79775252871376
 20
-109.9622802459469
 10
84.98964434724218
 20
-109.9622802459469
 10
85.31313881330713
 20
-110.0704562441838
 10
85.31313881330713
 20
-110.4766330018947
 10
85.31313881330713
 20
-110.7959933533774
 10
85.10057642186722
 20
-111.0157904453363
 10
84.76123451657011
 20
-111.0157904453363
 97
        0
 97
        0
 92
        1
 93
        1
 72
     4
 94
        3
 73
     0
 74
     1
 95
       17
 96
       13
 40
0.0
 40
0.0
 40
0.0
 40
0.0
 40
1.0
 40
1.0
 40
1.0
 40
2.0
 40
2.0
 40
2.0
 40
3.0
 40
3.0
 40
3.0
 40
4.0
 40
4.0
 40
4.0
 40
4.0
 10
84.77949352264194
 20
-110.1569281408636
 10
84.4990627501426
 20
-110.1569281408636
 10
84.45841062341665
 20
-110.3684570036579
 10
84.45841062341665
 20
-110.4849012310593
 10
84.45841062341665
 20
-110.6606011008071
 10
84.56004094023152
 20
-110.8235541172594
 10
84.75675589243929
 20
-110.8235541172594
 10
84.88560246358763
 20
-110.8235541172594
 10
85.07336016753375
 20
-110.7642984749131
 10
85.07336016753375
 20
-110.4787000591859
 10
85.07336016753375
 20
-110.2544243430961
 10
84.92418753302243
 20
-110.1569281408636
 10
84.77949352264194
 20
-110.1569281408636
 97
        0
 97
        0
 75
     2
 76
     1
 98
        0
  0
ENDBLK
  5
103
330
100
100
AcDbEntity
  8
0
100
AcDbBlockEnd
  0
BLOCK
  5
115
330
113
100
AcDbEntity
  8
0
100
AcDbBlockBegin
  2
block 6
 70
     0
 10
0.0
 20
0.0
 30
0.0
  3
block 6
  1

  0
SPLINE
  5
117
330
113
100
AcDbEntity
  8
_U+30EC_U+30A4_U+30E4_U+30FC 1
370
     0
100
AcDbSpline
210
0.0
220
0.0
230
1.0
 70
    11
 71
     3
 72
    44
 73
    40
 74
     0
 42
0.0000000001
 43
0.0000000001
 12
1.0
 22
0.0
 32
0.0
 13
1.0
 23
0.0
 33
0.0
 40
0.0
 40
0.0
 40
0.0
 40
0.0
 40
1.0
 40
1.0
 40
1.0
 40
2.0
 40
2.0
 40
2.0
 40
3.0
 40
3.0
 40
3.0
 40
4.0
 40
4.0
 40
4.0
 40
5.0
 40
5.0
 40
5.0
 40
6.0
 40
6.0
 40
6.0
 40
7.0
 40
7.0
 40
7.0
 40
8.0
 40
8.0
 40
8.0
 40
9.0
 40
9.0
 40
9.0
 40
10.0
 40
10.0
 40
10.0
 40
11.0
 40
11.0
 40
11.0
 40
12.0
 40
12.0
 40
12.0
 40
13.0
 40
13.0
 40
13.0
 40
13.0
 10
75.47894149588721
 20
-129.8687309788176
 30
0.0
 10
75.63758814298296
 20
-130.1016194336204
 30
0.0
 10
75.71165769591583
 20
-130.2011826931441
 30
0.0
 10
75.85549043242501
 20
-130.2532036349714
 30
0.0
 10
75.85549043242501
 20
-130.2532036349714
 30
0.0
 10
75.85549043242501
 20
-129.4212130752836
 30
0.0
 10
75.85549043242501
 20
-129.4212130752836
 30
0.0
 10
75.85549043242501
 20
-129.4212130752836
 30
0.0
 10
76.06064586857165
 20
-129.4212130752836
 30
0.0
 10
76.06064586857165
 20
-129.4212130752836
 30
0.0
 10
76.06064586857165
 20
-129.4212130752836
 30
0.0
 10
76.06064586857165
 20
-130.5198540255298
 30
0.0
 10
76.06064586857165
 20
-130.5198540255298
 30
0.0
 10
75.70304495720272
 20
-130.4860920897743
 30
0.0
 10
75.62484128968754
 20
-130.4158121418752
 30
0.0
 10
75.3264960206649
 20
-130.0044677409364
 30
0.0
 10
75.12771401116599
 20
-129.7309271594075
 30
0.0
 10
75.06001788488084
 20
-129.6606472115085
 30
0.0
 10
74.92255857501937
 20
-129.6606472115085
 30
0.0
 10
74.80404729032676
 20
-129.6606472115085
 30
0.0
 10
74.67278915233875
 20
-129.737817350378
 30
0.0
 10
74.67278915233875
 20
-129.9479681749783
 30
0.0
 10
74.67278915233875
 20
-130.2259873806379
 30
0.0
 10
74.90343829507623
 20
-130.2349446288996
 30
0.0
 10
75.01988252247767
 20
-130.2394232530304
 30
0.0
 10
75.01988252247767
 20
-130.2394232530304
 30
0.0
 10
75.01988252247767
 20
-130.4792018988038
 30
0.0
 10
75.01988252247767
 20
-130.4792018988038
 30
0.0
 10
74.89293075384622
 20
-130.4702446505422
 30
0.0
 10
74.78079289580133
 20
-130.4588758354408
 30
0.0
 10
74.66228161110874
 20
-130.3730929578581
 30
0.0
 10
74.50156790672183
 20
-130.2552706922626
 30
0.0
 10
74.46763371619213
 20
-130.0564886827637
 30
0.0
 10
74.46763371619213
 20
-129.9321207357461
 30
0.0
 10
74.46763371619213
 20
-129.6358425240147
 30
0.0
 10
74.65177406987873
 20
-129.4143228843131
 30
0.0
 10
74.92462563231051
 20
-129.4143228843131
 30
0.0
 10
75.15303546298257
 20
-129.4143228843131
 30
0.0
 10
75.25259872250629
 20
-129.5386908313306
 30
0.0
 10
75.47894149588721
 20
-129.8687309788176
 30
0.0
  0
HATCH
  5
118
330
113
100
AcDbEntity
  8
_U+30EC_U+30A4_U+30E4_U+30FC 1
 62
     7
420
 16777215
100
AcDbHatch
 10
0.0
 20
0.0
 30
0.0
210
0.0
220
0.0
230
1.0
  2
SOLID
 70
     1
 71
     0
 91
        1
 92
        1
 93
        1
 72
     4
 94
        3
 73
     0
 74
     1
 95
       44
 96
       40
 40
0.0
 40
0.0
 40
0.0
 40
0.0
 40
1.0
 40
1.0
 40
1.0
 40
2.0
 40
2.0
 40
2.0
 40
3.0
 40
3.0
 40
3.0
 40
4.0
 40
4.0
 40
4.0
 40
5.0
 40
5.0
 40
5.0
 40
6.0
 40
6.0
 40
6.0
 40
7.0
 40
7.0
 40
7.0
 40
8.0
 40
8.0
 40
8.0
 40
9.0
 40
9.0
 40
9.0
 40
10.0
 40
10.0
 40
10.0
 40
11.0
 40
11.0
 40
11.0
 40
12.0
 40
12.0
 40
12.0
 40
13.0
 40
13.0
 40
13.0
 40
13.0
 10
75.47894149588721
 20
-129.8687309788176
 10
75.63758814298296
 20
-130.1016194336204
 10
75.71165769591583
 20
-130.2011826931441
 10
75.85549043242501
 20
-130.2532036349714
 10
75.85549043242501
 20
-130.2532036349714
 10
75.85549043242501
 20
-129.4212130752836
 10
75.85549043242501
 20
-129.4212130752836
 10
75.85549043242501
 20
-129.4212130752836
 10
76.06064586857165
 20
-129.4212130752836
 10
76.06064586857165
 20
-129.4212130752836
 10
76.06064586857165
 20
-129.4212130752836
 10
76.06064586857165
 20
-130.5198540255298
 10
76.06064586857165
 20
-130.5198540255298
 10
75.70304495720272
 20
-130.4860920897743
 10
75.62484128968754
 20
-130.4158121418752
 10
75.3264960206649
 20
-130.0044677409364
 10
75.12771401116599
 20
-129.7309271594075
 10
75.06001788488084
 20
-129.6606472115085
 10
74.92255857501937
 20
-129.6606472115085
 10
74.80404729032676
 20
-129.6606472115085
 10
74.67278915233875
 20
-129.737817350378
 10
74.67278915233875
 20
-129.9479681749783
 10
74.67278915233875
 20
-130.2259873806379
 10
74.90343829507623
 20
-130.2349446288996
 10
75.01988252247767
 20
-130.2394232530304
 10
75.01988252247767
 20
-130.2394232530304
 10
75.01988252247767
 20
-130.4792018988038
 10
75.01988252247767
 20
-130.4792018988038
 10
74.89293075384622
 20
-130.4702446505422
 10
74.78079289580133
 20
-130.4588758354408
 10
74.66228161110874
 20
-130.3730929578581
 10
74.50156790672183
 20
-130.2552706922626
 10
74.46763371619213
 20
-130.0564886827637
 10
74.46763371619213
 20
-129.9321207357461
 10
74.46763371619213
 20
-129.6358425240147
 10
74.65177406987873
 20
-129.4143228843131
 10
74.92462563231051
 20
-129.4143228843131
 10
75.15303546298257
 20
-129.4143228843131
 10
75.25259872250629
 20
-129.5386908313306
 10
75.47894149588721
 20
-129.8687309788176
 97
        0
 97
        0
 75
     2
 76
     1
 98
        0
  0
SPLINE
  5
119
330
113
100
AcDbEntity
  8
_U+30EC_U+30A4_U+30E4_U+30FC 1
370
     0
100
AcDbSpline
210
0.0
220
0.0
230
1.0
 70
    11
 71
     3
 72
    32
 73
    28
 74
     0
 42
0.0000000001
 43
0.0000000001
 12
1.0
 22
0.0
 32
0.0
 13
1.0
 23
0.0
 33
0.0
 40
0.0
 40
0.0
 40
0.0
 40
0.0
 40
1.0
 40
1.0
 40
1.0
 40
2.0
 40
2.0
 40
2.0
 40
3.0
 40
3.0
 40
3.0
 40
4.0
 40
4.0
 40
4.0
 40
5.0
 40
5.0
 40
5.0
 40
6.0
 40
6.0
 40
6.0
 40
7.0
 40
7.0
 40
7.0
 40
8.0
 40
8.0
 40
8.0
 40
9.0
 40
9.0
 40
9.0
 40
9.0
 10
76.11146102697909
 20
-128.7557928823076
 30
0.0
 10
76.11146102697909
 20
-128.9409667646398
 30
0.0
 10
76.04152558862852
 20
-129.2034830406158
 30
0.0
 10
75.70941838385043
 20
-129.2441351673417
 30
0.0
 10
75.70941838385043
 20
-129.2441351673417
 30
0.0
 10
75.70941838385043
 20
-129.0157253366697
 30
0.0
 10
75.70941838385043
 20
-129.0157253366697
 30
0.0
 10
75.76867402619672
 20
-129.0043565215684
 30
0.0
 10
75.91681313206247
 20
-128.9705945858129
 30
0.0
 10
75.91681313206247
 20
-128.7535535702422
 30
0.0
 10
75.91681313206247
 20
-128.4414279192785
 30
0.0
 10
75.58677298457553
 20
-128.4007757925526
 30
0.0
 10
75.3816175484289
 20
-128.3871676653858
 30
0.0
 10
75.46188827323523
 20
-128.4844916128442
 30
0.0
 10
75.51907685829038
 20
-128.5568386180344
 30
0.0
 10
75.51907685829038
 20
-128.7511420034025
 30
0.0
 10
75.51907685829038
 20
-128.9433783314794
 30
0.0
 10
75.4133124268932
 20
-129.2665282879959
 30
0.0
 10
75.00713566918225
 20
-129.2665282879959
 30
0.0
 10
74.68760306292532
 20
-129.2665282879959
 30
0.0
 10
74.46763371619213
 20
-129.053965896556
 30
0.0
 10
74.46763371619213
 20
-128.7149685008074
 30
0.0
 10
74.46763371619213
 20
-128.1656480256843
 30
0.0
 10
75.02194957976882
 20
-128.1544514653572
 30
0.0
 10
75.23554549985431
 20
-128.1544514653572
 30
0.0
 10
75.46619464259179
 20
-128.1544514653572
 30
0.0
 10
76.11146102697909
 20
-128.1747775287202
 30
0.0
 10
76.11146102697909
 20
-128.7557928823076
 30
0.0
  0
SPLINE
  5
11A
330
113
100
AcDbEntity
  8
_U+30EC_U+30A4_U+30E4_U+30FC 1
370
     0
100
AcDbSpline
210
0.0
220
0.0
230
1.0
 70
    11
 71
     3
 72
    17
 73
    13
 74
     0
 42
0.0000000001
 43
0.0000000001
 12
1.0
 22
0.0
 32
0.0
 13
1.0
 23
0.0
 33
0.0
 40
0.0
 40
0.0
 40
0.0
 40
0.0
 40
1.0
 40
1.0
 40
1.0
 40
2.0
 40
2.0
 40
2.0
 40
3.0
 40
3.0
 40
3.0
 40
4.0
 40
4.0
 40
4.0
 40
4.0
 10
74.66021455381758
 20
-128.712729188742
 30
0.0
 10
74.66021455381758
 20
-128.8393364478249
 30
0.0
 10
74.71723088409847
 20
-129.027094151771
 30
0.0
 10
75.00282929982569
 20
-129.027094151771
 30
0.0
 10
75.2291720732066
 20
-129.027094151771
 30
0.0
 10
75.32442896337376
 20
-128.8779215172597
 30
0.0
 10
75.32442896337376
 20
-128.7332275068792
 30
0.0
 10
75.32442896337376
 20
-128.4527967343799
 30
0.0
 10
75.11496715787057
 20
-128.4121446076539
 30
0.0
 10
74.99869518524339
 20
-128.4121446076539
 30
0.0
 10
74.82299531549565
 20
-128.4121446076539
 30
0.0
 10
74.66021455381758
 20
-128.5137749244688
 30
0.0
 10
74.66021455381758
 20
-128.712729188742
 30
0.0
  0
HATCH
  5
11B
330
113
100
AcDbEntity
  8
_U+30EC_U+30A4_U+30E4_U+30FC 1
 62
     7
420
 16777215
100
AcDbHatch
 10
0.0
 20
0.0
 30
0.0
210
0.0
220
0.0
230
1.0
  2
SOLID
 70
     1
 71
     0
 91
        2
 92
        1
 93
        1
 72
     4
 94
        3
 73
     0
 74
     1
 95
       32
 96
       28
 40
0.0
 40
0.0
 40
0.0
 40
0.0
 40
1.0
 40
1.0
 40
1.0
 40
2.0
 40
2.0
 40
2.0
 40
3.0
 40
3.0
 40
3.0
 40
4.0
 40
4.0
 40
4.0
 40
5.0
 40
5.0
 40
5.0
 40
6.0
 40
6.0
 40
6.0
 40
7.0
 40
7.0
 40
7.0
 40
8.0
 40
8.0
 40
8.0
 40
9.0
 40
9.0
 40
9.0
 40
9.0
 10
76.11146102697909
 20
-128.7557928823076
 10
76.11146102697909
 20
-128.9409667646398
 10
76.04152558862852
 20
-129.2034830406158
 10
75.70941838385043
 20
-129.2441351673417
 10
75.70941838385043
 20
-129.2441351673417
 10
75.70941838385043
 20
-129.0157253366697
 10
75.70941838385043
 20
-129.0157253366697
 10
75.76867402619672
 20
-129.0043565215684
 10
75.91681313206247
 20
-128.9705945858129
 10
75.91681313206247
 20
-128.7535535702422
 10
75.91681313206247
 20
-128.4414279192785
 10
75.58677298457553
 20
-128.4007757925526
 10
75.3816175484289
 20
-128.3871676653858
 10
75.46188827323523
 20
-128.4844916128442
 10
75.51907685829038
 20
-128.5568386180344
 10
75.51907685829038
 20
-128.7511420034025
 10
75.51907685829038
 20
-128.9433783314794
 10
75.4133124268932
 20
-129.2665282879959
 10
75.00713566918225
 20
-129.2665282879959
 10
74.68760306292532
 20
-129.2665282879959
 10
74.46763371619213
 20
-129.053965896556
 10
74.46763371619213
 20
-128.7149685008074
 10
74.46763371619213
 20
-128.1656480256843
 10
75.02194957976882
 20
-128.1544514653572
 10
75.23554549985431
 20
-128.1544514653572
 10
75.46619464259179
 20
-128.1544514653572
 10
76.11146102697909
 20
-128.1747775287202
 10
76.11146102697909
 20
-128.7557928823076
 97
        0
 97
        0
 92
        1
 93
        1
 72
     4
 94
        3
 73
     0
 74
     1
 95
       17
 96
       13
 40
0.0
 40
0.0
 40
0.0
 40
0.0
 40
1.0
 40
1.0
 40
1.0
 40
2.0
 40
2.0
 40
2.0
 40
3.0
 40
3.0
 40
3.0
 40
4.0
 40
4.0
 40
4.0
 40
4.0
 10
74.66021455381758
 20
-128.712729188742
 10
74.66021455381758
 20
-128.8393364478249
 10
74.71723088409847
 20
-129.027094151771
 10
75.00282929982569
 20
-129.027094151771
 10
75.2291720732066
 20
-129.027094151771
 10
75.32442896337376
 20
-128.8779215172597
 10
75.32442896337376
 20
-128.7332275068792
 10
75.32442896337376
 20
-128.4527967343799
 10
75.11496715787057
 20
-128.4121446076539
 10
74.99869518524339
 20
-128.4121446076539
 10
74.82299531549565
 20
-128.4121446076539
 10
74.66021455381758
 20
-128.5137749244688
 10
74.66021455381758
 20
-128.712729188742
 97
        0
 97
        0
 75
     2
 76
     1
 98
        0
  0
POLYLINE
  5
11C
330
113
100
AcDbEntity
  8
_U+30EC_U+30A4_U+30E4_U+30FC 1
370
     0
100
AcDb2dPolyline
 66
     1
 10
0.0
 20
0.0
 30
0.0
  0
VERTEX
  5
11D
330
11C
100
AcDbEntity
  8
_U+30EC_U+30A4_U+30E4_U+30FC 1
370
     0
100
AcDbVertex
100
AcDb2dVertex
 10
76.06064586857165
 20
-127.9229410487484
 30
0.0
  0
VERTEX
  5
11E
330
11C
100
AcDbEntity
  8
_U+30EC_U+30A4_U+30E4_U+30FC 1
370
     0
100
AcDbVertex
100
AcDb2dVertex
 10
75.80898164337415
 20
-127.9229410487484
 30
0.0
  0
VERTEX
  5
11F
330
11C
100
AcDbEntity
  8
_U+30EC_U+30A4_U+30E4_U+30FC 1
370
     0
100
AcDbVertex
100
AcDb2dVertex
 10
75.80898164337415
 20
-127.6538790913504
 30
0.0
  0
VERTEX
  5
120
330
11C
100
AcDbEntity
  8
_U+30EC_U+30A4_U+30E4_U+30FC 1
370
     0
100
AcDbVertex
100
AcDb2dVertex
 10
76.06064586857165
 20
-127.6538790913504
 30
0.0
  0
VERTEX
  5
121
330
11C
100
AcDbEntity
  8
_U+30EC_U+30A4_U+30E4_U+30FC 1
370
     0
100
AcDbVertex
100
AcDb2dVertex
 10
76.06064586857165
 20
-127.9229410487484
 30
0.0
  0
SEQEND
  5
122
330
11C
100
AcDbEntity
  8
_U+30EC_U+30A4_U+30E4_U+30FC 1
370
     0
  0
HATCH
  5
123
330
113
100
AcDbEntity
  8
_U+30EC_U+30A4_U+30E4_U+30FC 1
 62
     7
420
 16777215
100
AcDbHatch
 10
0.0
 20
0.0
 30
0.0
210
0.0
220
0.0
230
1.0
  2
SOLID
 70
     1
 71
     0
 91
        1
 92
        1
 93
        4
 72
     1
 10
76.06064586857165
 20
-127.9229410487484
 11
75.80898164337415
 21
-127.9229410487484
 72
     1
 10
75.80898164337415
 20
-127.9229410487484
 11
75.80898164337415
 21
-127.6538790913504
 72
     1
 10
75.80898164337415
 20
-127.6538790913504
 11
76.06064586857165
 21
-127.6538790913504
 72
     1
 10
76.06064586857165
 20
-127.6538790913504
 11
76.06064586857165
 21
-127.9229410487484
 97
        0
 75
     2
 76
     1
 98
        0
  0
SPLINE
  5
124
330
113
100
AcDbEntity
  8
_U+30EC_U+30A4_U+30E4_U+30FC 1
370
     0
100
AcDbSpline
210
0.0
220
0.0
230
1.0
 70
    11
 71
     3
 72
    53
 73
    49
 74
     0
 42
0.0000000001
 43
0.0000000001
 12
1.0
 22
0.0
 32
0.0
 13
1.0
 23
0.0
 33
0.0
 40
0.0
 40
0.0
 40
0.0
 40
0.0
 40
1.0
 40
1.0
 40
1.0
 40
2.0
 40
2.0
 40
2.0
 40
3.0
 40
3.0
 40
3.0
 40
4.0
 40
4.0
 40
4.0
 40
5.0
 40
5.0
 40
5.0
 40
6.0
 40
6.0
 40
6.0
 40
7.0
 40
7.0
 40
7.0
 40
8.0
 40
8.0
 40
8.0
 40
9.0
 40
9.0
 40
9.0
 40
10.0
 40
10.0
 40
10.0
 40
11.0
 40
11.0
 40
11.0
 40
12.0
 40
12.0
 40
12.0
 40
13.0
 40
13.0
 40
13.0
 40
14.0
 40
14.0
 40
14.0
 40
15.0
 40
15.0
 40
15.0
 40
16.0
 40
16.0
 40
16.0
 40
16.0
 10
76.11146102697909
 20
-126.8870008363338
 30
0.0
 10
76.11146102697909
 20
-126.9707166566254
 30
0.0
 10
76.09458005910136
 20
-127.0792371644108
 30
0.0
 10
76.0310180473985
 20
-127.1877576721961
 30
0.0
 10
75.92094724664477
 20
-127.3731038093026
 30
0.0
 10
75.78986136343102
 20
-127.3958414395052
 30
0.0
 10
75.6820298747427
 20
-127.4161675028682
 30
0.0
 10
75.6820298747427
 20
-127.4161675028682
 30
0.0
 10
75.6820298747427
 20
-127.1788004239345
 30
0.0
 10
75.6820298747427
 20
-127.1788004239345
 30
0.0
 10
75.88081188424161
 20
-127.1198892911367
 30
0.0
 10
75.91043970541476
 20
-126.9843247837921
 30
0.0
 10
75.91043970541476
 20
-126.8847615242684
 30
0.0
 10
75.91043970541476
 20
-126.7355888897571
 30
0.0
 10
75.8110487006653
 20
-126.572808128079
 30
0.0
 10
75.57833250063668
 20
-126.572808128079
 30
0.0
 10
75.3223619060826
 20
-126.572808128079
 30
0.0
 10
75.25259872250629
 20
-126.765044456156
 30
0.0
 10
75.25259872250629
 20
-126.8938910273043
 30
0.0
 10
75.25259872250629
 20
-126.927825217834
 30
0.0
 10
75.25259872250629
 20
-127.0792371644108
 30
0.0
 10
75.3816175484289
 20
-127.1741495450294
 30
0.0
 10
75.3816175484289
 20
-127.1741495450294
 30
0.0
 10
75.36249726848577
 20
-127.3619072489755
 30
0.0
 10
75.36249726848577
 20
-127.3619072489755
 30
0.0
 10
75.36249726848577
 20
-127.3619072489755
 30
0.0
 10
74.51638181730841
 20
-127.2328884230529
 30
0.0
 10
74.51638181730841
 20
-127.2328884230529
 30
0.0
 10
74.51638181730841
 20
-127.2328884230529
 30
0.0
 10
74.51638181730841
 20
-126.4008978633651
 30
0.0
 10
74.51638181730841
 20
-126.4008978633651
 30
0.0
 10
74.51638181730841
 20
-126.4008978633651
 30
0.0
 10
74.71102971222503
 20
-126.4008978633651
 30
0.0
 10
74.71102971222503
 20
-126.4008978633651
 30
0.0
 10
74.71102971222503
 20
-126.4008978633651
 30
0.0
 10
74.71102971222503
 20
-127.0589111010478
 30
0.0
 10
74.71102971222503
 20
-127.0589111010478
 30
0.0
 10
74.71102971222503
 20
-127.0589111010478
 30
0.0
 10
75.1340874378137
 20
-127.1290187941726
 30
0.0
 10
75.1340874378137
 20
-127.1290187941726
 30
0.0
 10
75.100153247284
 20
-127.0633897251786
 30
0.0
 10
75.06001788488084
 20
-126.9751952807562
 30
0.0
 10
75.06001788488084
 20
-126.8485880216733
 30
0.0
 10
75.06001788488084
 20
-126.5772867522098
 30
0.0
 10
75.24622529585858
 20
-126.324072234044
 30
0.0
 10
75.55921222069354
 20
-126.324072234044
 30
0.0
 10
75.87667776965931
 20
-126.324072234044
 30
0.0
 10
76.11146102697909
 20
-126.5638508798174
 30
0.0
 10
76.11146102697909
 20
-126.8870008363338
 30
0.0
  0
HATCH
  5
125
330
113
100
AcDbEntity
  8
_U+30EC_U+30A4_U+30E4_U+30FC 1
 62
     7
420
 16777215
100
AcDbHatch
 10
0.0
 20
0.0
 30
0.0
210
0.0
220
0.0
230
1.0
  2
SOLID
 70
     1
 71
     0
 91
        1
 92
        1
 93
        1
 72
     4
 94
        3
 73
     0
 74
     1
 95
       53
 96
       49
 40
0.0
 40
0.0
 40
0.0
 40
0.0
 40
1.0
 40
1.0
 40
1.0
 40
2.0
 40
2.0
 40
2.0
 40
3.0
 40
3.0
 40
3.0
 40
4.0
 40
4.0
 40
4.0
 40
5.0
 40
5.0
 40
5.0
 40
6.0
 40
6.0
 40
6.0
 40
7.0
 40
7.0
 40
7.0
 40
8.0
 40
8.0
 40
8.0
 40
9.0
 40
9.0
 40
9.0
 40
10.0
 40
10.0
 40
10.0
 40
11.0
 40
11.0
 40
11.0
 40
12.0
 40
12.0
 40
12.0
 40
13.0
 40
13.0
 40
13.0
 40
14.0
 40
14.0
 40
14.0
 40
15.0
 40
15.0
 40
15.0
 40
16.0
 40
16.0
 40
16.0
 40
16.0
 10
76.11146102697909
 20
-126.8870008363338
 10
76.11146102697909
 20
-126.9707166566254
 10
76.09458005910136
 20
-127.0792371644108
 10
76.0310180473985
 20
-127.1877576721961
 10
75.92094724664477
 20
-127.3731038093026
 10
75.78986136343102
 20
-127.3958414395052
 10
75.6820298747427
 20
-127.4161675028682
 10
75.6820298747427
 20
-127.4161675028682
 10
75.6820298747427
 20
-127.1788004239345
 10
75.6820298747427
 20
-127.1788004239345
 10
75.88081188424161
 20
-127.1198892911367
 10
75.91043970541476
 20
-126.9843247837921
 10
75.91043970541476
 20
-126.8847615242684
 10
75.91043970541476
 20
-126.7355888897571
 10
75.8110487006653
 20
-126.572808128079
 10
75.57833250063668
 20
-126.572808128079
 10
75.3223619060826
 20
-126.572808128079
 10
75.25259872250629
 20
-126.765044456156
 10
75.25259872250629
 20
-126.8938910273043
 10
75.25259872250629
 20
-126.927825217834
 10
75.25259872250629
 20
-127.0792371644108
 10
75.3816175484289
 20
-127.1741495450294
 10
75.3816175484289
 20
-127.1741495450294
 10
75.36249726848577
 20
-127.3619072489755
 10
75.36249726848577
 20
-127.3619072489755
 10
75.36249726848577
 20
-127.3619072489755
 10
74.51638181730841
 20
-127.2328884230529
 10
74.51638181730841
 20
-127.2328884230529
 10
74.51638181730841
 20
-127.2328884230529
 10
74.51638181730841
 20
-126.4008978633651
 10
74.51638181730841
 20
-126.4008978633651
 10
74.51638181730841
 20
-126.4008978633651
 10
74.71102971222503
 20
-126.4008978633651
 10
74.71102971222503
 20
-126.4008978633651
 10
74.71102971222503
 20
-126.4008978633651
 10
74.71102971222503
 20
-127.0589111010478
 10
74.71102971222503
 20
-127.0589111010478
 10
74.71102971222503
 20
-127.0589111010478
 10
75.1340874378137
 20
-127.1290187941726
 10
75.1340874378137
 20
-127.1290187941726
 10
75.100153247284
 20
-127.0633897251786
 10
75.06001788488084
 20
-126.9751952807562
 10
75.06001788488084
 20
-126.8485880216733
 10
75.06001788488084
 20
-126.5772867522098
 10
75.24622529585858
 20
-126.324072234044
 10
75.55921222069354
 20
-126.324072234044
 10
75.87667776965931
 20
-126.324072234044
 10
76.11146102697909
 20
-126.5638508798174
 10
76.11146102697909
 20
-126.8870008363338
 97
        0
 97
        0
 75
     2
 76
     1
 98
        0
  0
ENDBLK
  5
116
330
113
100
AcDbEntity
  8
0
100
AcDbBlockEnd
  0
BLOCK
  5
139
330
137
100
AcDbEntity
  8
0
100
AcDbBlockBegin
  2
block 7
 70
     0
 10
0.0
 20
0.0
 30
0.0
  3
block 7
  1

  0
SPLINE
  5
13B
330
137
100
AcDbEntity
  8
_U+30EC_U+30A4_U+30E4_U+30FC 1
370
     0
100
AcDbSpline
210
0.0
220
0.0
230
1.0
 70
    11
 71
     3
 72
    44
 73
    40
 74
     0
 42
0.0000000001
 43
0.0000000001
 12
1.0
 22
0.0
 32
0.0
 13
1.0
 23
0.0
 33
0.0
 40
0.0
 40
0.0
 40
0.0
 40
0.0
 40
1.0
 40
1.0
 40
1.0
 40
2.0
 40
2.0
 40
2.0
 40
3.0
 40
3.0
 40
3.0
 40
4.0
 40
4.0
 40
4.0
 40
5.0
 40
5.0
 40
5.0
 40
6.0
 40
6.0
 40
6.0
 40
7.0
 40
7.0
 40
7.0
 40
8.0
 40
8.0
 40
8.0
 40
9.0
 40
9.0
 40
9.0
 40
10.0
 40
10.0
 40
10.0
 40
11.0
 40
11.0
 40
11.0
 40
12.0
 40
12.0
 40
12.0
 40
13.0
 40
13.0
 40
13.0
 40
13.0
 10
95.89147675554102
 20
-132.8687201273731
 30
0.0
 10
96.05029565741104
 20
-133.101608582176
 30
0.0
 10
96.12436521034391
 20
-133.2011718416997
 30
0.0
 10
96.26802569207884
 20
-133.2528482739785
 30
0.0
 10
96.26802569207884
 20
-133.2528482739785
 30
0.0
 10
96.26802569207884
 20
-132.4212022238391
 30
0.0
 10
96.26802569207884
 20
-132.4212022238391
 30
0.0
 10
96.26802569207884
 20
-132.4212022238391
 30
0.0
 10
96.47335338299972
 20
-132.4212022238391
 30
0.0
 10
96.47335338299972
 20
-132.4212022238391
 30
0.0
 10
96.47335338299972
 20
-132.4212022238391
 30
0.0
 10
96.47335338299972
 20
-133.5198431740853
 30
0.0
 10
96.47335338299972
 20
-133.5198431740853
 30
0.0
 10
96.11575247163078
 20
-133.4857367287813
 30
0.0
 10
96.03754880411562
 20
-133.4158012904308
 30
0.0
 10
95.73920353509298
 20
-133.0044568894919
 30
0.0
 10
95.54042152559407
 20
-132.7309163079631
 30
0.0
 10
95.47255314453464
 20
-132.660636360064
 30
0.0
 10
95.33509383467317
 20
-132.660636360064
 30
0.0
 10
95.21658254998059
 20
-132.660636360064
 30
0.0
 10
95.08566892154109
 20
-132.7374619893851
 30
0.0
 10
95.08566892154109
 20
-132.9479573235338
 30
0.0
 10
95.08566892154109
 20
-133.2259765291935
 30
0.0
 10
95.3161458095043
 20
-133.2349337774552
 30
0.0
 10
95.43259003690575
 20
-133.239412401586
 30
0.0
 10
95.43259003690575
 20
-133.239412401586
 30
0.0
 10
95.43259003690575
 20
-133.4791910473594
 30
0.0
 10
95.43259003690575
 20
-133.4791910473594
 30
0.0
 10
95.30546601350002
 20
-133.4698892895492
 30
0.0
 10
95.1935004102294
 20
-133.4588649839964
 30
0.0
 10
95.07498912553682
 20
-133.3727375968652
 30
0.0
 10
94.91410316637564
 20
-133.2552598408181
 30
0.0
 10
94.8803412306202
 20
-133.0564778313192
 30
0.0
 10
94.8803412306202
 20
-132.9321098843017
 30
0.0
 10
94.8803412306202
 20
-132.6358316725702
 30
0.0
 10
95.06430932953253
 20
-132.4143120328687
 30
0.0
 10
95.33716089196433
 20
-132.4143120328687
 30
0.0
 10
95.56591523218492
 20
-132.4143120328687
 30
0.0
 10
95.66513398216011
 20
-132.5386799798862
 30
0.0
 10
95.89147675554102
 20
-132.8687201273731
 30
0.0
  0
HATCH
  5
13C
330
137
100
AcDbEntity
  8
_U+30EC_U+30A4_U+30E4_U+30FC 1
 62
     7
420
 16777215
100
AcDbHatch
 10
0.0
 20
0.0
 30
0.0
210
0.0
220
0.0
230
1.0
  2
SOLID
 70
     1
 71
     0
 91
        1
 92
        1
 93
        1
 72
     4
 94
        3
 73
     0
 74
     1
 95
       44
 96
       40
 40
0.0
 40
0.0
 40
0.0
 40
0.0
 40
1.0
 40
1.0
 40
1.0
 40
2.0
 40
2.0
 40
2.0
 40
3.0
 40
3.0
 40
3.0
 40
4.0
 40
4.0
 40
4.0
 40
5.0
 40
5.0
 40
5.0
 40
6.0
 40
6.0
 40
6.0
 40
7.0
 40
7.0
 40
7.0
 40
8.0
 40
8.0
 40
8.0
 40
9.0
 40
9.0
 40
9.0
 40
10.0
 40
10.0
 40
10.0
 40
11.0
 40
11.0
 40
11.0
 40
12.0
 40
12.0
 40
12.0
 40
13.0
 40
13.0
 40
13.0
 40
13.0
 10
95.89147675554102
 20
-132.8687201273731
 10
96.05029565741104
 20
-133.101608582176
 10
96.12436521034391
 20
-133.2011718416997
 10
96.26802569207884
 20
-133.2528482739785
 10
96.26802569207884
 20
-133.2528482739785
 10
96.26802569207884
 20
-132.4212022238391
 10
96.26802569207884
 20
-132.4212022238391
 10
96.26802569207884
 20
-132.4212022238391
 10
96.47335338299972
 20
-132.4212022238391
 10
96.47335338299972
 20
-132.4212022238391
 10
96.47335338299972
 20
-132.4212022238391
 10
96.47335338299972
 20
-133.5198431740853
 10
96.47335338299972
 20
-133.5198431740853
 10
96.11575247163078
 20
-133.4857367287813
 10
96.03754880411562
 20
-133.4158012904308
 10
95.73920353509298
 20
-133.0044568894919
 10
95.54042152559407
 20
-132.7309163079631
 10
95.47255314453464
 20
-132.660636360064
 10
95.33509383467317
 20
-132.660636360064
 10
95.21658254998059
 20
-132.660636360064
 10
95.08566892154109
 20
-132.7374619893851
 10
95.08566892154109
 20
-132.9479573235338
 10
95.08566892154109
 20
-133.2259765291935
 10
95.3161458095043
 20
-133.2349337774552
 10
95.43259003690575
 20
-133.239412401586
 10
95.43259003690575
 20
-133.239412401586
 10
95.43259003690575
 20
-133.4791910473594
 10
95.43259003690575
 20
-133.4791910473594
 10
95.30546601350002
 20
-133.4698892895492
 10
95.1935004102294
 20
-133.4588649839964
 10
95.07498912553682
 20
-133.3727375968652
 10
94.91410316637564
 20
-133.2552598408181
 10
94.8803412306202
 20
-133.0564778313192
 10
94.8803412306202
 20
-132.9321098843017
 10
94.8803412306202
 20
-132.6358316725702
 10
95.06430932953253
 20
-132.4143120328687
 10
95.33716089196433
 20
-132.4143120328687
 10
95.56591523218492
 20
-132.4143120328687
 10
95.66513398216011
 20
-132.5386799798862
 10
95.89147675554102
 20
-132.8687201273731
 97
        0
 97
        0
 75
     2
 76
     1
 98
        0
  0
SPLINE
  5
13D
330
137
100
AcDbEntity
  8
_U+30EC_U+30A4_U+30E4_U+30FC 1
370
     0
100
AcDbSpline
210
0.0
220
0.0
230
1.0
 70
    11
 71
     3
 72
    26
 73
    22
 74
     0
 42
0.0000000001
 43
0.0000000001
 12
1.0
 22
0.0
 32
0.0
 13
1.0
 23
0.0
 33
0.0
 40
0.0
 40
0.0
 40
0.0
 40
0.0
 40
1.0
 40
1.0
 40
1.0
 40
2.0
 40
2.0
 40
2.0
 40
3.0
 40
3.0
 40
3.0
 40
4.0
 40
4.0
 40
4.0
 40
5.0
 40
5.0
 40
5.0
 40
6.0
 40
6.0
 40
6.0
 40
7.0
 40
7.0
 40
7.0
 40
7.0
 10
96.47335338299972
 20
-131.7624999670594
 30
0.0
 10
96.47335338299972
 20
-131.7624999670594
 30
0.0
 10
95.36920027997715
 20
-131.7624999670594
 30
0.0
 10
95.36920027997715
 20
-131.7624999670594
 30
0.0
 10
95.36920027997715
 20
-131.7624999670594
 30
0.0
 10
95.36920027997715
 20
-132.1149332352005
 30
0.0
 10
95.36920027997715
 20
-132.1149332352005
 30
0.0
 10
95.36920027997715
 20
-132.1149332352005
 30
0.0
 10
95.22106117411141
 20
-132.1149332352005
 30
0.0
 10
95.22106117411141
 20
-132.1149332352005
 30
0.0
 10
95.20624726352483
 20
-131.7600884002197
 30
0.0
 10
95.04329424707251
 20
-131.7104790252321
 30
0.0
 10
94.92891707696222
 20
-131.6787841467678
 30
0.0
 10
94.92891707696222
 20
-131.6787841467678
 30
0.0
 10
94.92891707696222
 20
-131.522721321286
 30
0.0
 10
94.92891707696222
 20
-131.522721321286
 30
0.0
 10
94.92891707696222
 20
-131.522721321286
 30
0.0
 10
96.47335338299972
 20
-131.522721321286
 30
0.0
 10
96.47335338299972
 20
-131.522721321286
 30
0.0
 10
96.47335338299972
 20
-131.522721321286
 30
0.0
 10
96.47335338299972
 20
-131.7624999670594
 30
0.0
 10
96.47335338299972
 20
-131.7624999670594
 30
0.0
  0
HATCH
  5
13E
330
137
100
AcDbEntity
  8
_U+30EC_U+30A4_U+30E4_U+30FC 1
 62
     7
420
 16777215
100
AcDbHatch
 10
0.0
 20
0.0
 30
0.0
210
0.0
220
0.0
230
1.0
  2
SOLID
 70
     1
 71
     0
 91
        1
 92
        1
 93
        1
 72
     4
 94
        3
 73
     0
 74
     1
 95
       26
 96
       22
 40
0.0
 40
0.0
 40
0.0
 40
0.0
 40
1.0
 40
1.0
 40
1.0
 40
2.0
 40
2.0
 40
2.0
 40
3.0
 40
3.0
 40
3.0
 40
4.0
 40
4.0
 40
4.0
 40
5.0
 40
5.0
 40
5.0
 40
6.0
 40
6.0
 40
6.0
 40
7.0
 40
7.0
 40
7.0
 40
7.0
 10
96.47335338299972
 20
-131.7624999670594
 10
96.47335338299972
 20
-131.7624999670594
 10
95.36920027997715
 20
-131.7624999670594
 10
95.36920027997715
 20
-131.7624999670594
 10
95.36920027997715
 20
-131.7624999670594
 10
95.36920027997715
 20
-132.1149332352005
 10
95.36920027997715
 20
-132.1149332352005
 10
95.36920027997715
 20
-132.1149332352005
 10
95.22106117411141
 20
-132.1149332352005
 10
95.22106117411141
 20
-132.1149332352005
 10
95.20624726352483
 20
-131.7600884002197
 10
95.04329424707251
 20
-131.7104790252321
 10
94.92891707696222
 20
-131.6787841467678
 10
94.92891707696222
 20
-131.6787841467678
 10
94.92891707696222
 20
-131.522721321286
 10
94.92891707696222
 20
-131.522721321286
 10
94.92891707696222
 20
-131.522721321286
 10
96.47335338299972
 20
-131.522721321286
 10
96.47335338299972
 20
-131.522721321286
 10
96.47335338299972
 20
-131.522721321286
 10
96.47335338299972
 20
-131.7624999670594
 10
96.47335338299972
 20
-131.7624999670594
 97
        0
 97
        0
 75
     2
 76
     1
 98
        0
  0
POLYLINE
  5
13F
330
137
100
AcDbEntity
  8
_U+30EC_U+30A4_U+30E4_U+30FC 1
370
     0
100
AcDb2dPolyline
 66
     1
 10
0.0
 20
0.0
 30
0.0
  0
VERTEX
  5
140
330
13F
100
AcDbEntity
  8
_U+30EC_U+30A4_U+30E4_U+30FC 1
370
     0
100
AcDbVertex
100
AcDb2dVertex
 10
96.47335338299972
 20
-130.922930197304
 30
0.0
  0
VERTEX
  5
141
330
13F
100
AcDbEntity
  8
_U+30EC_U+30A4_U+30E4_U+30FC 1
370
     0
100
AcDbVertex
100
AcDb2dVertex
 10
96.22151690302796
 20
-130.922930197304
 30
0.0
  0
VERTEX
  5
142
330
13F
100
AcDbEntity
  8
_U+30EC_U+30A4_U+30E4_U+30FC 1
370
     0
100
AcDbVertex
100
AcDb2dVertex
 10
96.22151690302796
 20
-130.653868239906
 30
0.0
  0
VERTEX
  5
143
330
13F
100
AcDbEntity
  8
_U+30EC_U+30A4_U+30E4_U+30FC 1
370
     0
100
AcDbVertex
100
AcDb2dVertex
 10
96.47335338299972
 20
-130.653868239906
 30
0.0
  0
VERTEX
  5
144
330
13F
100
AcDbEntity
  8
_U+30EC_U+30A4_U+30E4_U+30FC 1
370
     0
100
AcDbVertex
100
AcDb2dVertex
 10
96.47335338299972
 20
-130.922930197304
 30
0.0
  0
SEQEND
  5
145
330
13F
100
AcDbEntity
  8
_U+30EC_U+30A4_U+30E4_U+30FC 1
370
     0
  0
HATCH
  5
146
330
137
100
AcDbEntity
  8
_U+30EC_U+30A4_U+30E4_U+30FC 1
 62
     7
420
 16777215
100
AcDbHatch
 10
0.0
 20
0.0
 30
0.0
210
0.0
220
0.0
230
1.0
  2
SOLID
 70
     1
 71
     0
 91
        1
 92
        1
 93
        4
 72
     1
 10
96.47335338299972
 20
-130.922930197304
 11
96.22151690302796
 21
-130.922930197304
 72
     1
 10
96.22151690302796
 20
-130.922930197304
 11
96.22151690302796
 21
-130.653868239906
 72
     1
 10
96.22151690302796
 20
-130.653868239906
 11
96.47335338299972
 21
-130.653868239906
 72
     1
 10
96.47335338299972
 20
-130.653868239906
 11
96.47335338299972
 21
-130.922930197304
 97
        0
 75
     2
 76
     1
 98
        0
  0
SPLINE
  5
147
330
137
100
AcDbEntity
  8
_U+30EC_U+30A4_U+30E4_U+30FC 1
370
     0
100
AcDbSpline
210
0.0
220
0.0
230
1.0
 70
    11
 71
     3
 72
    53
 73
    49
 74
     0
 42
0.0000000001
 43
0.0000000001
 12
1.0
 22
0.0
 32
0.0
 13
1.0
 23
0.0
 33
0.0
 40
0.0
 40
0.0
 40
0.0
 40
0.0
 40
1.0
 40
1.0
 40
1.0
 40
2.0
 40
2.0
 40
2.0
 40
3.0
 40
3.0
 40
3.0
 40
4.0
 40
4.0
 40
4.0
 40
5.0
 40
5.0
 40
5.0
 40
6.0
 40
6.0
 40
6.0
 40
7.0
 40
7.0
 40
7.0
 40
8.0
 40
8.0
 40
8.0
 40
9.0
 40
9.0
 40
9.0
 40
10.0
 40
10.0
 40
10.0
 40
11.0
 40
11.0
 40
11.0
 40
12.0
 40
12.0
 40
12.0
 40
13.0
 40
13.0
 40
13.0
 40
14.0
 40
14.0
 40
14.0
 40
15.0
 40
15.0
 40
15.0
 40
16.0
 40
16.0
 40
16.0
 40
16.0
 10
96.5239962866329
 20
-129.8869899848894
 30
0.0
 10
96.5239962866329
 20
-129.9707058051809
 30
0.0
 10
96.50711531875517
 20
-130.0792263129663
 30
0.0
 10
96.44372556182657
 20
-130.1877468207517
 30
0.0
 10
96.3338270158471
 20
-130.3730929578581
 30
0.0
 10
96.20256887785908
 20
-130.3954860785122
 30
0.0
 10
96.09473738917076
 20
-130.4161566514237
 30
0.0
 10
96.09473738917076
 20
-130.4161566514237
 30
0.0
 10
96.09473738917076
 20
-130.1784450629415
 30
0.0
 10
96.09473738917076
 20
-130.1784450629415
 30
0.0
 10
96.29351939866967
 20
-130.1198784396923
 30
0.0
 10
96.32314721984282
 20
-129.9841416775734
 30
0.0
 10
96.32314721984282
 20
-129.8845784180497
 30
0.0
 10
96.32314721984282
 20
-129.7354057835384
 30
0.0
 10
96.2235839603191
 20
-129.5727972766346
 30
0.0
 10
95.99104001506474
 20
-129.5727972766346
 30
0.0
 10
95.73506942051068
 20
-129.5727972766346
 30
0.0
 10
95.66513398216011
 20
-129.7650336047115
 30
0.0
 10
95.66513398216011
 20
-129.8938801758599
 30
0.0
 10
95.66513398216011
 20
-129.9276421116153
 30
0.0
 10
95.66513398216011
 20
-130.0792263129663
 30
0.0
 10
95.79432506285698
 20
-130.1739664388107
 30
0.0
 10
95.79432506285698
 20
-130.1739664388107
 30
0.0
 10
95.7753770376881
 20
-130.3617241427568
 30
0.0
 10
95.7753770376881
 20
-130.3617241427568
 30
0.0
 10
95.7753770376881
 20
-130.3617241427568
 30
0.0
 10
94.92891707696222
 20
-130.2328775716084
 30
0.0
 10
94.92891707696222
 20
-130.2328775716084
 30
0.0
 10
94.92891707696222
 20
-130.2328775716084
 30
0.0
 10
94.92891707696222
 20
-129.4008870119206
 30
0.0
 10
94.92891707696222
 20
-129.4008870119206
 30
0.0
 10
94.92891707696222
 20
-129.4008870119206
 30
0.0
 10
95.12356497187884
 20
-129.4008870119206
 30
0.0
 10
95.12356497187884
 20
-129.4008870119206
 30
0.0
 10
95.12356497187884
 20
-129.4008870119206
 30
0.0
 10
95.12356497187884
 20
-130.0589002496033
 30
0.0
 10
95.12356497187884
 20
-130.0589002496033
 30
0.0
 10
95.12356497187884
 20
-130.0589002496033
 30
0.0
 10
95.54662269746751
 20
-130.1288356879539
 30
0.0
 10
95.54662269746751
 20
-130.1288356879539
 30
0.0
 10
95.51286076171206
 20
-130.0633788737342
 30
0.0
 10
95.47255314453464
 20
-129.9751844293118
 30
0.0
 10
95.47255314453464
 20
-129.8484049154546
 30
0.0
 10
95.47255314453464
 20
-129.5772759007654
 30
0.0
 10
95.65893281028666
 20
-129.3240613825996
 30
0.0
 10
95.97209198989587
 20
-129.3240613825996
 30
0.0
 10
96.28938528408737
 20
-129.3240613825996
 30
0.0
 10
96.5239962866329
 20
-129.5634955188244
 30
0.0
 10
96.5239962866329
 20
-129.8869899848894
 30
0.0
  0
HATCH
  5
148
330
137
100
AcDbEntity
  8
_U+30EC_U+30A4_U+30E4_U+30FC 1
 62
     7
420
 16777215
100
AcDbHatch
 10
0.0
 20
0.0
 30
0.0
210
0.0
220
0.0
230
1.0
  2
SOLID
 70
     1
 71
     0
 91
        1
 92
        1
 93
        1
 72
     4
 94
        3
 73
     0
 74
     1
 95
       53
 96
       49
 40
0.0
 40
0.0
 40
0.0
 40
0.0
 40
1.0
 40
1.0
 40
1.0
 40
2.0
 40
2.0
 40
2.0
 40
3.0
 40
3.0
 40
3.0
 40
4.0
 40
4.0
 40
4.0
 40
5.0
 40
5.0
 40
5.0
 40
6.0
 40
6.0
 40
6.0
 40
7.0
 40
7.0
 40
7.0
 40
8.0
 40
8.0
 40
8.0
 40
9.0
 40
9.0
 40
9.0
 40
10.0
 40
10.0
 40
10.0
 40
11.0
 40
11.0
 40
11.0
 40
12.0
 40
12.0
 40
12.0
 40
13.0
 40
13.0
 40
13.0
 40
14.0
 40
14.0
 40
14.0
 40
15.0
 40
15.0
 40
15.0
 40
16.0
 40
16.0
 40
16.0
 40
16.0
 10
96.5239962866329
 20
-129.8869899848894
 10
96.5239962866329
 20
-129.9707058051809
 10
96.50711531875517
 20
-130.0792263129663
 10
96.44372556182657
 20
-130.1877468207517
 10
96.3338270158471
 20
-130.3730929578581
 10
96.20256887785908
 20
-130.3954860785122
 10
96.09473738917076
 20
-130.4161566514237
 10
96.09473738917076
 20
-130.4161566514237
 10
96.09473738917076
 20
-130.1784450629415
 10
96.09473738917076
 20
-130.1784450629415
 10
96.29351939866967
 20
-130.1198784396923
 10
96.32314721984282
 20
-129.9841416775734
 10
96.32314721984282
 20
-129.8845784180497
 10
96.32314721984282
 20
-129.7354057835384
 10
96.2235839603191
 20
-129.5727972766346
 10
95.99104001506474
 20
-129.5727972766346
 10
95.73506942051068
 20
-129.5727972766346
 10
95.66513398216011
 20
-129.7650336047115
 10
95.66513398216011
 20
-129.8938801758599
 10
95.66513398216011
 20
-129.9276421116153
 10
95.66513398216011
 20
-130.0792263129663
 10
95.79432506285698
 20
-130.1739664388107
 10
95.79432506285698
 20
-130.1739664388107
 10
95.7753770376881
 20
-130.3617241427568
 10
95.7753770376881
 20
-130.3617241427568
 10
95.7753770376881
 20
-130.3617241427568
 10
94.92891707696222
 20
-130.2328775716084
 10
94.92891707696222
 20
-130.2328775716084
 10
94.92891707696222
 20
-130.2328775716084
 10
94.92891707696222
 20
-129.4008870119206
 10
94.92891707696222
 20
-129.4008870119206
 10
94.92891707696222
 20
-129.4008870119206
 10
95.12356497187884
 20
-129.4008870119206
 10
95.12356497187884
 20
-129.4008870119206
 10
95.12356497187884
 20
-129.4008870119206
 10
95.12356497187884
 20
-130.0589002496033
 10
95.12356497187884
 20
-130.0589002496033
 10
95.12356497187884
 20
-130.0589002496033
 10
95.54662269746751
 20
-130.1288356879539
 10
95.54662269746751
 20
-130.1288356879539
 10
95.51286076171206
 20
-130.0633788737342
 10
95.47255314453464
 20
-129.9751844293118
 10
95.47255314453464
 20
-129.8484049154546
 10
95.47255314453464
 20
-129.5772759007654
 10
95.65893281028666
 20
-129.3240613825996
 10
95.97209198989587
 20
-129.3240613825996
 10
96.28938528408737
 20
-129.3240613825996
 10
96.5239962866329
 20
-129.5634955188244
 10
96.5239962866329
 20
-129.8869899848894
 97
        0
 97
        0
 75
     2
 76
     1
 98
        0
  0
ENDBLK
  5
13A
330
137
100
AcDbEntity
  8
0
100
AcDbBlockEnd
  0
BLOCK
  5
153
330
151
100
AcDbEntity
  8
0
100
AcDbBlockBegin
  2
block 8
 70
     0
 10
0.0
 20
0.0
 30
0.0
  3
block 8
  1

  0
SPLINE
  5
155
330
151
100
AcDbEntity
  8
_U+30EC_U+30A4_U+30E4_U+30FC 1
370
     0
100
AcDbSpline
210
0.0
220
0.0
230
1.0
 70
    11
 71
     3
 72
    32
 73
    28
 74
     0
 42
0.0000000001
 43
0.0000000001
 12
1.0
 22
0.0
 32
0.0
 13
1.0
 23
0.0
 33
0.0
 40
0.0
 40
0.0
 40
0.0
 40
0.0
 40
1.0
 40
1.0
 40
1.0
 40
2.0
 40
2.0
 40
2.0
 40
3.0
 40
3.0
 40
3.0
 40
4.0
 40
4.0
 40
4.0
 40
5.0
 40
5.0
 40
5.0
 40
6.0
 40
6.0
 40
6.0
 40
7.0
 40
7.0
 40
7.0
 40
8.0
 40
8.0
 40
8.0
 40
9.0
 40
9.0
 40
9.0
 40
9.0
 10
96.52434079618142
 20
-116.8216376118536
 30
0.0
 10
96.52434079618142
 20
-117.3733696538164
 30
0.0
 10
95.97036944215324
 20
-117.382326902078
 30
0.0
 10
95.75642901251923
 20
-117.382326902078
 30
0.0
 10
95.52595212455601
 20
-117.382326902078
 30
0.0
 10
94.87861868287757
 20
-117.3620008387151
 30
0.0
 10
94.87861868287757
 20
-116.7809854851277
 30
0.0
 10
94.87861868287757
 20
-116.595467093247
 30
0.0
 10
94.94855412122814
 20
-116.3332953268195
 30
0.0
 10
95.28066132600622
 20
-116.2926432000935
 30
0.0
 10
95.28066132600622
 20
-116.2926432000935
 30
0.0
 10
95.28066132600622
 20
-116.5208807759913
 30
0.0
 10
95.28066132600622
 20
-116.5208807759913
 30
0.0
 10
95.22347274095108
 20
-116.5322495910926
 30
0.0
 10
95.07533363508534
 20
-116.5661837816223
 30
0.0
 10
95.07533363508534
 20
-116.7832247971931
 30
0.0
 10
95.07533363508534
 20
-117.0951781933825
 30
0.0
 10
95.40330672528113
 20
-117.1380696321738
 30
0.0
 10
95.60828990665348
 20
-117.1516777593406
 30
0.0
 10
95.53008623913831
 20
-117.0522867545911
 30
0.0
 10
95.47083059679201
 20
-116.9799397494009
 30
0.0
 10
95.47083059679201
 20
-116.7854641092585
 30
0.0
 10
95.47083059679201
 20
-116.5932277811816
 30
0.0
 10
95.57900659502886
 20
-116.2699055698909
 30
0.0
 10
95.98518335273982
 20
-116.2699055698909
 30
0.0
 10
96.30454370422248
 20
-116.2699055698909
 30
0.0
 10
96.52434079618142
 20
-116.4824679613308
 30
0.0
 10
96.52434079618142
 20
-116.8216376118536
 30
0.0
  0
SPLINE
  5
156
330
151
100
AcDbEntity
  8
_U+30EC_U+30A4_U+30E4_U+30FC 1
370
     0
100
AcDbSpline
210
0.0
220
0.0
230
1.0
 70
    11
 71
     3
 72
    17
 73
    13
 74
     0
 42
0.0000000001
 43
0.0000000001
 12
1.0
 22
0.0
 32
0.0
 13
1.0
 23
0.0
 33
0.0
 40
0.0
 40
0.0
 40
0.0
 40
0.0
 40
1.0
 40
1.0
 40
1.0
 40
2.0
 40
2.0
 40
2.0
 40
3.0
 40
3.0
 40
3.0
 40
4.0
 40
4.0
 40
4.0
 40
4.0
 10
95.66547849170864
 20
-116.8035508605561
 30
0.0
 10
95.66547849170864
 20
-117.0839816330554
 30
0.0
 10
95.87700735450298
 20
-117.1246337597813
 30
0.0
 10
95.99345158190442
 20
-117.1246337597813
 30
0.0
 10
96.16915145165216
 20
-117.1246337597813
 30
0.0
 10
96.33210446810448
 20
-117.0228311881922
 30
0.0
 10
96.33210446810448
 20
-116.8261162359844
 30
0.0
 10
96.33210446810448
 20
-116.6972696648361
 30
0.0
 10
96.27284882575817
 20
-116.5096842156643
 30
0.0
 10
95.98725041003097
 20
-116.5096842156643
 30
0.0
 10
95.7629746939412
 20
-116.5096842156643
 30
0.0
 10
95.66547849170864
 20
-116.6588568501756
 30
0.0
 10
95.66547849170864
 20
-116.8035508605561
 30
0.0
  0
HATCH
  5
157
330
151
100
AcDbEntity
  8
_U+30EC_U+30A4_U+30E4_U+30FC 1
 62
     7
420
 16777215
100
AcDbHatch
 10
0.0
 20
0.0
 30
0.0
210
0.0
220
0.0
230
1.0
  2
SOLID
 70
     1
 71
     0
 91
        2
 92
        1
 93
        1
 72
     4
 94
        3
 73
     0
 74
     1
 95
       32
 96
       28
 40
0.0
 40
0.0
 40
0.0
 40
0.0
 40
1.0
 40
1.0
 40
1.0
 40
2.0
 40
2.0
 40
2.0
 40
3.0
 40
3.0
 40
3.0
 40
4.0
 40
4.0
 40
4.0
 40
5.0
 40
5.0
 40
5.0
 40
6.0
 40
6.0
 40
6.0
 40
7.0
 40
7.0
 40
7.0
 40
8.0
 40
8.0
 40
8.0
 40
9.0
 40
9.0
 40
9.0
 40
9.0
 10
96.52434079618142
 20
-116.8216376118536
 10
96.52434079618142
 20
-117.3733696538164
 10
95.97036944215324
 20
-117.382326902078
 10
95.75642901251923
 20
-117.382326902078
 10
95.52595212455601
 20
-117.382326902078
 10
94.87861868287757
 20
-117.3620008387151
 10
94.87861868287757
 20
-116.7809854851277
 10
94.87861868287757
 20
-116.595467093247
 10
94.94855412122814
 20
-116.3332953268195
 10
95.28066132600622
 20
-116.2926432000935
 10
95.28066132600622
 20
-116.2926432000935
 10
95.28066132600622
 20
-116.5208807759913
 10
95.28066132600622
 20
-116.5208807759913
 10
95.22347274095108
 20
-116.5322495910926
 10
95.07533363508534
 20
-116.5661837816223
 10
95.07533363508534
 20
-116.7832247971931
 10
95.07533363508534
 20
-117.0951781933825
 10
95.40330672528113
 20
-117.1380696321738
 10
95.60828990665348
 20
-117.1516777593406
 10
95.53008623913831
 20
-117.0522867545911
 10
95.47083059679201
 20
-116.9799397494009
 10
95.47083059679201
 20
-116.7854641092585
 10
95.47083059679201
 20
-116.5932277811816
 10
95.57900659502886
 20
-116.2699055698909
 10
95.98518335273982
 20
-116.2699055698909
 10
96.30454370422248
 20
-116.2699055698909
 10
96.52434079618142
 20
-116.4824679613308
 10
96.52434079618142
 20
-116.8216376118536
 97
        0
 97
        0
 92
        1
 93
        1
 72
     4
 94
        3
 73
     0
 74
     1
 95
       17
 96
       13
 40
0.0
 40
0.0
 40
0.0
 40
0.0
 40
1.0
 40
1.0
 40
1.0
 40
2.0
 40
2.0
 40
2.0
 40
3.0
 40
3.0
 40
3.0
 40
4.0
 40
4.0
 40
4.0
 40
4.0
 10
95.66547849170864
 20
-116.8035508605561
 10
95.66547849170864
 20
-117.0839816330554
 10
95.87700735450298
 20
-117.1246337597813
 10
95.99345158190442
 20
-117.1246337597813
 10
96.16915145165216
 20
-117.1246337597813
 10
96.33210446810448
 20
-117.0228311881922
 10
96.33210446810448
 20
-116.8261162359844
 10
96.33210446810448
 20
-116.6972696648361
 10
96.27284882575817
 20
-116.5096842156643
 10
95.98725041003097
 20
-116.5096842156643
 10
95.7629746939412
 20
-116.5096842156643
 10
95.66547849170864
 20
-116.6588568501756
 10
95.66547849170864
 20
-116.8035508605561
 97
        0
 97
        0
 75
     2
 76
     1
 98
        0
  0
ENDBLK
  5
154
330
151
100
AcDbEntity
  8
0
100
AcDbBlockEnd
  0
ENDSEC
  0
SECTION
  2
ENTITIES
  0
POLYLINE
  5
41
330
1F
100
AcDbEntity
  8
_U+30EC_U+30A4_U+30E4_U+30FC 1
  6
AI-Linetype-1
 62
   154
420
    23468
370
    25
100
AcDb2dPolyline
 66
     1
 10
0.0
 20
0.0
 30
0.0
  0
VERTEX
  5
42
330
41
100
AcDbEntity
  8
_U+30EC_U+30A4_U+30E4_U+30FC 1
  6
AI-Linetype-1
 62
   154
420
    23468
370
    25
100
AcDbVertex
100
AcDb2dVertex
 10
80.63864997984047
 20
-112.923355249547
 30
0.0
  0
VERTEX
  5
43
330
41
100
AcDbEntity
  8
_U+30EC_U+30A4_U+30E4_U+30FC 1
  6
AI-Linetype-1
 62
   154
420
    23468
370
    25
100
AcDbVertex
100
AcDb2dVertex
 10
82.26784623450573
 20
-112.923355249547
 30
0.0
  0
VERTEX
  5
44
330
41
100
AcDbEntity
  8
_U+30EC_U+30A4_U+30E4_U+30FC 1
  6
AI-Linetype-1
 62
   154
420
    23468
370
    25
100
AcDbVertex
100
AcDb2dVertex
 10
82.26784623450573
 20
-118.9205774702699
 30
0.0
  0
VERTEX
  5
45
330
41
100
AcDbEntity
  8
_U+30EC_U+30A4_U+30E4_U+30FC 1
  6
AI-Linetype-1
 62
   154
420
    23468
370
    25
100
AcDbVertex
100
AcDb2dVertex
 10
88.27367608128424
 20
-118.9205774702699
 30
0.0
  0
VERTEX
  5
46
330
41
100
AcDbEntity
  8
_U+30EC_U+30A4_U+30E4_U+30FC 1
  6
AI-Linetype-1
 62
   154
420
    23468
370
    25
100
AcDbVertex
100
AcDb2dVertex
 10
88.27367608128424
 20
-120.4074652476759
 30
0.0
  0
SEQEND
  5
48
330
41
100
AcDbEntity
  8
_U+30EC_U+30A4_U+30E4_U+30FC 1
  6
AI-Linetype-1
 62
   154
420
    23468
370
    25
  0
POLYLINE
  5
49
330
1F
100
AcDbEntity
  8
_U+30EC_U+30A4_U+30E4_U+30FC 1
 62
   179
420
  2234388
370
     9
100
AcDb2dPolyline
 66
     1
 10
0.0
 20
0.0
 30
0.0
  0
VERTEX
  5
4A
330
49
100
AcDbEntity
  8
_U+30EC_U+30A4_U+30E4_U+30FC 1
 62
   179
420
  2234388
370
     9
100
AcDbVertex
100
AcDb2dVertex
 10
86.20971664511417
 20
-118.7917077480798
 30
0.0
  0
VERTEX
  5
4B
330
49
100
AcDbEntity
  8
_U+30EC_U+30A4_U+30E4_U+30FC 1
 62
   179
420
  2234388
370
     9
100
AcDbVertex
100
AcDb2dVertex
 10
91.58957775488031
 20
-111.1466958055466
 30
0.0
  0
VERTEX
  5
4C
330
49
100
AcDbEntity
  8
_U+30EC_U+30A4_U+30E4_U+30FC 1
 62
   179
420
  2234388
370
     9
100
AcDbVertex
100
AcDb2dVertex
 10
107.949294417457
 20
-111.1466958055466
 30
0.0
  0
SEQEND
  5
4D
330
49
100
AcDbEntity
  8
_U+30EC_U+30A4_U+30E4_U+30FC 1
 62
   179
420
  2234388
370
     9
  0
INSERT
  5
4F
330
1F
100
AcDbEntity
  8
_U+30EC_U+30A4_U+30E4_U+30FC 1
100
AcDbBlockReference
  2
block 2
 10
0.0
 20
0.0
 30
0.0
  0
POLYLINE
  5
8C
330
1F
100
AcDbEntity
  8
_U+30EC_U+30A4_U+30E4_U+30FC 1
 62
     7
420
 16777215
370
    25
100
AcDb2dPolyline
 66
     1
 10
0.0
 20
0.0
 30
0.0
  0
VERTEX
  5
8D
330
8C
100
AcDbEntity
  8
_U+30EC_U+30A4_U+30E4_U+30FC 1
 62
     7
420
 16777215
370
    25
100
AcDbVertex
100
AcDb2dVertex
 10
81.65718791675158
 20
-142.1666927422363
 30
0.0
  0
VERTEX
  5
8E
330
8C
100
AcDbEntity
  8
_U+30EC_U+30A4_U+30E4_U+30FC 1
 62
     7
420
 16777215
370
    25
100
AcDbVertex
100
AcDb2dVertex
 10
87.65719693034526
 20
-142.1666927422363
 30
0.0
  0
SEQEND
  5
8F
330
8C
100
AcDbEntity
  8
_U+30EC_U+30A4_U+30E4_U+30FC 1
 62
     7
420
 16777215
370
    25
  0
POLYLINE
  5
90
330
1F
100
AcDbEntity
  8
_U+30EC_U+30A4_U+30E4_U+30FC 1
 62
     7
420
 16777215
370
    25
100
AcDb2dPolyline
 66
     1
 10
0.0
 20
0.0
 30
0.0
  0
VERTEX
  5
91
330
90
100
AcDbEntity
  8
_U+30EC_U+30A4_U+30E4_U+30FC 1
 62
     7
420
 16777215
370
    25
100
AcDbVertex
100
AcDb2dVertex
 10
81.65718791675158
 20
-120.6668980253887
 30
0.0
  0
VERTEX
  5
92
330
90
100
AcDbEntity
  8
_U+30EC_U+30A4_U+30E4_U+30FC 1
 62
     7
420
 16777215
370
    25
100
AcDbVertex
100
AcDb2dVertex
 10
87.65719693034526
 20
-120.6668980253887
 30
0.0
  0
SEQEND
  5
93
330
90
100
AcDbEntity
  8
_U+30EC_U+30A4_U+30E4_U+30FC 1
 62
     7
420
 16777215
370
    25
  0
POLYLINE
  5
94
330
1F
100
AcDbEntity
  8
_U+30EC_U+30A4_U+30E4_U+30FC 1
 62
     7
420
 16777215
370
    25
100
AcDb2dPolyline
 66
     1
 10
0.0
 20
0.0
 30
0.0
  0
VERTEX
  5
95
330
94
100
AcDbEntity
  8
_U+30EC_U+30A4_U+30E4_U+30FC 1
 62
     7
420
 16777215
370
    25
100
AcDbVertex
100
AcDb2dVertex
 10
81.65718791675158
 20
-143.1671352419862
 30
0.0
  0
VERTEX
  5
96
330
94
100
AcDbEntity
  8
_U+30EC_U+30A4_U+30E4_U+30FC 1
 62
     7
420
 16777215
370
    25
100
AcDbVertex
100
AcDb2dVertex
 10
94.65676647399359
 20
-143.1671352419862
 30
0.0
  0
SEQEND
  5
97
330
94
100
AcDbEntity
  8
_U+30EC_U+30A4_U+30E4_U+30FC 1
 62
     7
420
 16777215
370
    25
  0
POLYLINE
  5
98
330
1F
100
AcDbEntity
  8
_U+30EC_U+30A4_U+30E4_U+30FC 1
 62
     7
420
 16777215
370
    25
100
AcDb2dPolyline
 66
     1
 10
0.0
 20
0.0
 30
0.0
  0
VERTEX
  5
99
330
98
100
AcDbEntity
  8
_U+30EC_U+30A4_U+30E4_U+30FC 1
 62
     7
420
 16777215
370
    25
100
AcDbVertex
100
AcDb2dVertex
 10
80.656745442275
 20
-113.6671519160278
 30
0.0
  0
VERTEX
  5
9A
330
98
100
AcDbEntity
  8
_U+30EC_U+30A4_U+30E4_U+30FC 1
 62
     7
420
 16777215
370
    25
100
AcDbVertex
100
AcDb2dVertex
 10
80.656745442275
 20
-142.1666927422363
 30
0.0
  0
SEQEND
  5
9B
330
98
100
AcDbEntity
  8
_U+30EC_U+30A4_U+30E4_U+30FC 1
 62
     7
420
 16777215
370
    25
  0
POLYLINE
  5
9C
330
1F
100
AcDbEntity
  8
_U+30EC_U+30A4_U+30E4_U+30FC 1
 62
     7
420
 16777215
370
    25
100
AcDb2dPolyline
 66
     1
 10
0.0
 20
0.0
 30
0.0
  0
VERTEX
  5
9D
330
9C
100
AcDbEntity
  8
_U+30EC_U+30A4_U+30E4_U+30FC 1
 62
     7
420
 16777215
370
    25
100
AcDbVertex
100
AcDb2dVertex
 10
81.65718791675158
 20
-114.6668888602222
 30
0.0
  0
VERTEX
  5
9E
330
9C
100
AcDbEntity
  8
_U+30EC_U+30A4_U+30E4_U+30FC 1
 62
     7
420
 16777215
370
    25
100
AcDbVertex
100
AcDb2dVertex
 10
81.65718791675158
 20
-119.6664202478613
 30
0.0
  0
SEQEND
  5
9F
330
9C
100
AcDbEntity
  8
_U+30EC_U+30A4_U+30E4_U+30FC 1
 62
     7
420
 16777215
370
    25
  0
POLYLINE
  5
A0
330
1F
100
AcDbEntity
  8
_U+30EC_U+30A4_U+30E4_U+30FC 1
 62
     7
420
 16777215
370
    25
100
AcDb2dPolyline
 66
     1
 10
0.0
 20
0.0
 30
0.0
  0
VERTEX
  5
A1
330
A0
100
AcDbEntity
  8
_U+30EC_U+30A4_U+30E4_U+30FC 1
 62
     7
420
 16777215
370
    25
100
AcDbVertex
100
AcDb2dVertex
 10
81.65718791675158
 20
-119.6664202478613
 30
0.0
  0
VERTEX
  5
A2
330
A0
100
AcDbEntity
  8
_U+30EC_U+30A4_U+30E4_U+30FC 1
 62
     7
420
 16777215
370
    25
100
AcDbVertex
100
AcDb2dVertex
 10
86.65707195586057
 20
-119.6664202478613
 30
0.0
  0
SEQEND
  5
A3
330
A0
100
AcDbEntity
  8
_U+30EC_U+30A4_U+30E4_U+30FC 1
 62
     7
420
 16777215
370
    25
  0
POLYLINE
  5
A4
330
1F
100
AcDbEntity
  8
_U+30EC_U+30A4_U+30E4_U+30FC 1
 62
     7
420
 16777215
370
    25
100
AcDb2dPolyline
 66
     1
 10
0.0
 20
0.0
 30
0.0
  0
VERTEX
  5
A5
330
A4
100
AcDbEntity
  8
_U+30EC_U+30A4_U+30E4_U+30FC 1
 62
     7
420
 16777215
370
    25
100
AcDbVertex
100
AcDb2dVertex
 10
81.65718791675158
 20
-120.6668980253887
 30
0.0
  0
VERTEX
  5
A6
330
A4
100
AcDbEntity
  8
_U+30EC_U+30A4_U+30E4_U+30FC 1
 62
     7
420
 16777215
370
    25
100
AcDbVertex
100
AcDb2dVertex
 10
81.65718791675158
 20
-142.1666927422363
 30
0.0
  0
SEQEND
  5
A7
330
A4
100
AcDbEntity
  8
_U+30EC_U+30A4_U+30E4_U+30FC 1
 62
     7
420
 16777215
370
    25
  0
POLYLINE
  5
A8
330
1F
100
AcDbEntity
  8
_U+30EC_U+30A4_U+30E4_U+30FC 1
 62
     7
420
 16777215
370
    25
100
AcDb2dPolyline
 66
     1
 10
0.0
 20
0.0
 30
0.0
  0
VERTEX
  5
A9
330
A8
100
AcDbEntity
  8
_U+30EC_U+30A4_U+30E4_U+30FC 1
 62
     7
420
 16777215
370
    25
100
AcDbVertex
100
AcDb2dVertex
 10
88.01547803231587
 20
-142.367176353297
 30
0.0
  0
VERTEX
  5
AA
330
A8
100
AcDbEntity
  8
_U+30EC_U+30A4_U+30E4_U+30FC 1
 62
     7
420
 16777215
370
    25
100
AcDbVertex
100
AcDb2dVertex
 10
93.85680760551335
 20
-142.367176353297
 30
0.0
  0
SEQEND
  5
AB
330
A8
100
AcDbEntity
  8
_U+30EC_U+30A4_U+30E4_U+30FC 1
 62
     7
420
 16777215
370
    25
  0
POLYLINE
  5
AC
330
1F
100
AcDbEntity
  8
_U+30EC_U+30A4_U+30E4_U+30FC 1
 62
     7
420
 16777215
370
    25
100
AcDb2dPolyline
 66
     1
 10
0.0
 20
0.0
 30
0.0
  0
VERTEX
  5
AD
330
AC
100
AcDbEntity
  8
_U+30EC_U+30A4_U+30E4_U+30FC 1
 62
     7
420
 16777215
370
    25
100
AcDbVertex
100
AcDb2dVertex
 10
87.65719693034526
 20
-142.1666927422363
 30
0.0
  0
VERTEX
  5
AE
330
AC
100
AcDbEntity
  8
_U+30EC_U+30A4_U+30E4_U+30FC 1
 62
     7
420
 16777215
370
    25
100
AcDbVertex
100
AcDb2dVertex
 10
88.00306025485489
 20
-142.367176353297
 30
0.0
  0
SEQEND
  5
AF
330
AC
100
AcDbEntity
  8
_U+30EC_U+30A4_U+30E4_U+30FC 1
 62
     7
420
 16777215
370
    25
  0
SPLINE
  5
B0
330
1F
100
AcDbEntity
  8
_U+30EC_U+30A4_U+30E4_U+30FC 1
 62
     7
420
 16777215
370
    25
100
AcDbSpline
210
0.0
220
0.0
230
1.0
 70
     8
 71
     3
 72
     8
 73
     4
 74
     0
 42
0.0000000001
 43
0.0000000001
 12
1.0
 22
0.0
 32
0.0
 13
1.0
 23
0.0
 33
0.0
 40
0.0
 40
0.0
 40
0.0
 40
0.0
 40
1.0
 40
1.0
 40
1.0
 40
1.0
 10
80.656745442275
 20
-142.1666927422363
 30
0.0
 10
80.656745442275
 20
-142.7192838532092
 30
0.0
 10
81.10459681973825
 20
-143.1671352419862
 30
0.0
 10
81.65718791675158
 20
-143.1671352419862
 30
0.0
  0
SPLINE
  5
B1
330
1F
100
AcDbEntity
  8
_U+30EC_U+30A4_U+30E4_U+30FC 1
 62
     7
420
 16777215
370
     9
100
AcDbSpline
210
0.0
220
0.0
230
1.0
 70
    11
 71
     3
 72
    17
 73
    13
 74
     0
 42
0.0000000001
 43
0.0000000001
 12
1.0
 22
0.0
 32
0.0
 13
1.0
 23
0.0
 33
0.0
 40
0.0
 40
0.0
 40
0.0
 40
0.0
 40
1.0
 40
1.0
 40
1.0
 40
2.0
 40
2.0
 40
2.0
 40
3.0
 40
3.0
 40
3.0
 40
4.0
 40
4.0
 40
4.0
 40
4.0
 10
80.7570048841616
 20
-117.9011555260801
 30
0.0
 10
80.7570048841616
 20
-117.8460516372052
 30
0.0
 10
80.71220210752685
 20
-117.8012488594385
 30
0.0
 10
80.656745442275
 20
-117.8012488594385
 30
0.0
 10
80.60164155479193
 20
-117.8012488594385
 30
0.0
 10
80.55683877815716
 20
-117.8460516372052
 30
0.0
 10
80.55683877815716
 20
-117.9011555260801
 30
0.0
 10
80.55683877815716
 20
-117.9562946927332
 30
0.0
 10
80.60164155479193
 20
-118.0010621927221
 30
0.0
 10
80.656745442275
 20
-118.0010621927221
 30
0.0
 10
80.71220210752685
 20
-118.0010621927221
 30
0.0
 10
80.7570048841616
 20
-117.9562946927332
 30
0.0
 10
80.7570048841616
 20
-117.9011555260801
 30
0.0
  0
SPLINE
  5
B2
330
1F
100
AcDbEntity
  8
_U+30EC_U+30A4_U+30E4_U+30FC 1
 62
     7
420
 16777215
370
     9
100
AcDbSpline
210
0.0
220
0.0
230
1.0
 70
    11
 71
     3
 72
    17
 73
    13
 74
     0
 42
0.0000000001
 43
0.0000000001
 12
1.0
 22
0.0
 32
0.0
 13
1.0
 23
0.0
 33
0.0
 40
0.0
 40
0.0
 40
0.0
 40
0.0
 40
1.0
 40
1.0
 40
1.0
 40
2.0
 40
2.0
 40
2.0
 40
3.0
 40
3.0
 40
3.0
 40
4.0
 40
4.0
 40
4.0
 40
4.0
 10
81.75709458086942
 20
-117.9011555260801
 30
0.0
 10
81.75709458086942
 20
-117.8460516372052
 30
0.0
 10
81.71232708201153
 20
-117.8012488594385
 30
0.0
 10
81.65718791675158
 20
-117.8012488594385
 30
0.0
 10
81.60173331293286
 20
-117.8012488594385
 30
0.0
 10
81.55696375264185
 20
-117.8460516372052
 30
0.0
 10
81.55696375264185
 20
-117.9011555260801
 30
0.0
 10
81.55696375264185
 20
-117.9562946927332
 30
0.0
 10
81.60173331293286
 20
-118.0010621927221
 30
0.0
 10
81.65718791675158
 20
-118.0010621927221
 30
0.0
 10
81.71232708201153
 20
-118.0010621927221
 30
0.0
 10
81.75709458086942
 20
-117.9562946927332
 30
0.0
 10
81.75709458086942
 20
-117.9011555260801
 30
0.0
  0
SPLINE
  5
B3
330
1F
100
AcDbEntity
  8
_U+30EC_U+30A4_U+30E4_U+30FC 1
 62
     7
420
 16777215
370
     9
100
AcDbSpline
210
0.0
220
0.0
230
1.0
 70
    11
 71
     3
 72
    17
 73
    13
 74
     0
 42
0.0000000001
 43
0.0000000001
 12
1.0
 22
0.0
 32
0.0
 13
1.0
 23
0.0
 33
0.0
 40
0.0
 40
0.0
 40
0.0
 40
0.0
 40
1.0
 40
1.0
 40
1.0
 40
2.0
 40
2.0
 40
2.0
 40
3.0
 40
3.0
 40
3.0
 40
4.0
 40
4.0
 40
4.0
 40
4.0
 10
94.65676647399359
 20
-147.1668944076525
 30
0.0
 10
94.65676647399359
 20
-147.1117905187776
 30
0.0
 10
94.61196369735883
 20
-147.0669877410108
 30
0.0
 10
94.55685980987576
 20
-147.0669877410108
 30
0.0
 10
94.5017206446158
 20
-147.0669877410108
 30
0.0
 10
94.45695553194146
 20
-147.1117905187776
 30
0.0
 10
94.45695553194146
 20
-147.1668944076525
 30
0.0
 10
94.45695553194146
 20
-147.2220335743056
 30
0.0
 10
94.5017206446158
 20
-147.2668010742941
 30
0.0
 10
94.55685980987576
 20
-147.2668010742941
 30
0.0
 10
94.61196369735883
 20
-147.2668010742941
 30
0.0
 10
94.65676647399359
 20
-147.2220335743056
 30
0.0
 10
94.65676647399359
 20
-147.1668944076525
 30
0.0
  0
SPLINE
  5
B4
330
1F
100
AcDbEntity
  8
_U+30EC_U+30A4_U+30E4_U+30FC 1
 62
     7
420
 16777215
370
     9
100
AcDbSpline
210
0.0
220
0.0
230
1.0
 70
    11
 71
     3
 72
    17
 73
    13
 74
     0
 42
0.0000000001
 43
0.0000000001
 12
1.0
 22
0.0
 32
0.0
 13
1.0
 23
0.0
 33
0.0
 40
0.0
 40
0.0
 40
0.0
 40
0.0
 40
1.0
 40
1.0
 40
1.0
 40
2.0
 40
2.0
 40
2.0
 40
3.0
 40
3.0
 40
3.0
 40
4.0
 40
4.0
 40
4.0
 40
4.0
 10
80.7570048841616
 20
-147.1668944076525
 30
0.0
 10
80.7570048841616
 20
-147.1117905187776
 30
0.0
 10
80.71220210752685
 20
-147.0669877410108
 30
0.0
 10
80.656745442275
 20
-147.0669877410108
 30
0.0
 10
80.60164155479193
 20
-147.0669877410108
 30
0.0
 10
80.55683877815716
 20
-147.1117905187776
 30
0.0
 10
80.55683877815716
 20
-147.1668944076525
 30
0.0
 10
80.55683877815716
 20
-147.2220335743056
 30
0.0
 10
80.60164155479193
 20
-147.2668010742941
 30
0.0
 10
80.656745442275
 20
-147.2668010742941
 30
0.0
 10
80.71220210752685
 20
-147.2668010742941
 30
0.0
 10
80.7570048841616
 20
-147.2220335743056
 30
0.0
 10
80.7570048841616
 20
-147.1668944076525
 30
0.0
  0
SPLINE
  5
B5
330
1F
100
AcDbEntity
  8
_U+30EC_U+30A4_U+30E4_U+30FC 1
 62
     7
420
 16777215
370
    25
100
AcDbSpline
210
0.0
220
0.0
230
1.0
 70
     8
 71
     3
 72
     8
 73
     4
 74
     0
 42
0.0000000001
 43
0.0000000001
 12
1.0
 22
0.0
 32
0.0
 13
1.0
 23
0.0
 33
0.0
 40
0.0
 40
0.0
 40
0.0
 40
0.0
 40
1.0
 40
1.0
 40
1.0
 40
1.0
 10
81.65718791675158
 20
-114.6668888602222
 30
0.0
 10
81.65718791675158
 20
-114.1150033048045
 30
0.0
 10
81.20933653928833
 20
-113.6671519160278
 30
0.0
 10
80.656745442275
 20
-113.6671519160278
 30
0.0
  0
SPLINE
  5
B6
330
1F
100
AcDbEntity
  8
_U+30EC_U+30A4_U+30E4_U+30FC 1
 62
     7
420
 16777215
370
    25
100
AcDbSpline
210
0.0
220
0.0
230
1.0
 70
     8
 71
     3
 72
     8
 73
     4
 74
     0
 42
0.0000000001
 43
0.0000000001
 12
1.0
 22
0.0
 32
0.0
 13
1.0
 23
0.0
 33
0.0
 40
0.0
 40
0.0
 40
0.0
 40
0.0
 40
1.0
 40
1.0
 40
1.0
 40
1.0
 10
87.65719693034526
 20
-120.6668980253887
 30
0.0
 10
87.65719693034526
 20
-120.114271636638
 30
0.0
 10
87.20931027510514
 20
-119.6664202478613
 30
0.0
 10
86.65707195586057
 20
-119.6664202478613
 30
0.0
  0
SPLINE
  5
B7
330
1F
100
AcDbEntity
  8
_U+30EC_U+30A4_U+30E4_U+30FC 1
 62
     7
420
 16777215
370
    25
100
AcDbSpline
210
0.0
220
0.0
230
1.0
 70
     8
 71
     3
 72
     8
 73
     4
 74
     0
 42
0.0000000001
 43
0.0000000001
 12
1.0
 22
0.0
 32
0.0
 13
1.0
 23
0.0
 33
0.0
 40
0.0
 40
0.0
 40
0.0
 40
0.0
 40
1.0
 40
1.0
 40
1.0
 40
1.0
 10
94.65676647399359
 20
-143.1671352419862
 30
0.0
 10
94.65676647399359
 20
-142.7254927420962
 30
0.0
 10
94.2984500942461
 20
-142.367176353297
 30
0.0
 10
93.85680760551335
 20
-142.367176353297
 30
0.0
  0
SPLINE
  5
B8
330
1F
100
AcDbEntity
  8
_U+30EC_U+30A4_U+30E4_U+30FC 1
 62
     7
420
 16777215
370
     9
100
AcDbSpline
210
0.0
220
0.0
230
1.0
 70
    11
 71
     3
 72
    17
 73
    13
 74
     0
 42
0.0000000001
 43
0.0000000001
 12
1.0
 22
0.0
 32
0.0
 13
1.0
 23
0.0
 33
0.0
 40
0.0
 40
0.0
 40
0.0
 40
0.0
 40
1.0
 40
1.0
 40
1.0
 40
2.0
 40
2.0
 40
2.0
 40
3.0
 40
3.0
 40
3.0
 40
4.0
 40
4.0
 40
4.0
 40
4.0
 10
76.75689304176852
 20
-113.6671519160278
 30
0.0
 10
76.75689304176852
 20
-113.6120127493747
 30
0.0
 10
76.71212554291063
 20
-113.5672452493858
 30
0.0
 10
76.65698637765068
 20
-113.5672452493858
 30
0.0
 10
76.60188249016761
 20
-113.5672452493858
 30
0.0
 10
76.55707971353284
 20
-113.6120127493747
 30
0.0
 10
76.55707971353284
 20
-113.6671519160278
 30
0.0
 10
76.55707971353284
 20
-113.7222558049027
 30
0.0
 10
76.60188249016761
 20
-113.7670585826694
 30
0.0
 10
76.65698637765068
 20
-113.7670585826694
 30
0.0
 10
76.71212554291063
 20
-113.7670585826694
 30
0.0
 10
76.75689304176852
 20
-113.7222558049027
 30
0.0
 10
76.75689304176852
 20
-113.6671519160278
 30
0.0
  0
SPLINE
  5
B9
330
1F
100
AcDbEntity
  8
_U+30EC_U+30A4_U+30E4_U+30FC 1
 62
     7
420
 16777215
370
     9
100
AcDbSpline
210
0.0
220
0.0
230
1.0
 70
    11
 71
     3
 72
    17
 73
    13
 74
     0
 42
0.0000000001
 43
0.0000000001
 12
1.0
 22
0.0
 32
0.0
 13
1.0
 23
0.0
 33
0.0
 40
0.0
 40
0.0
 40
0.0
 40
0.0
 40
1.0
 40
1.0
 40
1.0
 40
2.0
 40
2.0
 40
2.0
 40
3.0
 40
3.0
 40
3.0
 40
4.0
 40
4.0
 40
4.0
 40
4.0
 10
76.75689304176852
 20
-143.1671352419862
 30
0.0
 10
76.75689304176852
 20
-143.1120313531107
 30
0.0
 10
76.71212554291063
 20
-143.0672285753446
 30
0.0
 10
76.65698637765068
 20
-143.0672285753446
 30
0.0
 10
76.60188249016761
 20
-143.0672285753446
 30
0.0
 10
76.55707971353284
 20
-143.1120313531107
 30
0.0
 10
76.55707971353284
 20
-143.1671352419862
 30
0.0
 10
76.55707971353284
 20
-143.2222744086387
 30
0.0
 10
76.60188249016761
 20
-143.2670419086279
 30
0.0
 10
76.65698637765068
 20
-143.2670419086279
 30
0.0
 10
76.71212554291063
 20
-143.2670419086279
 30
0.0
 10
76.75689304176852
 20
-143.2222744086387
 30
0.0
 10
76.75689304176852
 20
-143.1671352419862
 30
0.0
  0
SPLINE
  5
BA
330
1F
100
AcDbEntity
  8
_U+30EC_U+30A4_U+30E4_U+30FC 1
 62
     7
420
 16777215
370
     9
100
AcDbSpline
210
0.0
220
0.0
230
1.0
 70
    11
 71
     3
 72
    17
 73
    13
 74
     0
 42
0.0000000001
 43
0.0000000001
 12
1.0
 22
0.0
 32
0.0
 13
1.0
 23
0.0
 33
0.0
 40
0.0
 40
0.0
 40
0.0
 40
0.0
 40
1.0
 40
1.0
 40
1.0
 40
2.0
 40
2.0
 40
2.0
 40
3.0
 40
3.0
 40
3.0
 40
4.0
 40
4.0
 40
4.0
 40
4.0
 10
97.16893224323623
 20
-142.1666927422363
 30
0.0
 10
97.16893224323623
 20
-142.1115535755832
 30
0.0
 10
97.12412946660147
 20
-142.0667860755947
 30
0.0
 10
97.0690255791184
 20
-142.0667860755947
 30
0.0
 10
97.01388886463542
 20
-142.0667860755947
 30
0.0
 10
96.9690860868687
 20
-142.1115535755832
 30
0.0
 10
96.9690860868687
 20
-142.1666927422363
 30
0.0
 10
96.9690860868687
 20
-142.2225021866668
 30
0.0
 10
97.01388886463542
 20
-142.2672696866553
 30
0.0
 10
97.0690255791184
 20
-142.2672696866553
 30
0.0
 10
97.12412946660147
 20
-142.2672696866553
 30
0.0
 10
97.16893224323623
 20
-142.2225021866668
 30
0.0
 10
97.16893224323623
 20
-142.1666927422363
 30
0.0
  0
SPLINE
  5
BB
330
1F
100
AcDbEntity
  8
_U+30EC_U+30A4_U+30E4_U+30FC 1
 62
     7
420
 16777215
370
     9
100
AcDbSpline
210
0.0
220
0.0
230
1.0
 70
    11
 71
     3
 72
    17
 73
    13
 74
     0
 42
0.0000000001
 43
0.0000000001
 12
1.0
 22
0.0
 32
0.0
 13
1.0
 23
0.0
 33
0.0
 40
0.0
 40
0.0
 40
0.0
 40
0.0
 40
1.0
 40
1.0
 40
1.0
 40
2.0
 40
2.0
 40
2.0
 40
3.0
 40
3.0
 40
3.0
 40
4.0
 40
4.0
 40
4.0
 40
4.0
 10
97.16893224323623
 20
-120.7668046920306
 30
0.0
 10
97.16893224323623
 20
-120.7116655253776
 30
0.0
 10
97.12412946660147
 20
-120.6668980253887
 30
0.0
 10
97.0690255791184
 20
-120.6668980253887
 30
0.0
 10
97.01388886463542
 20
-120.6668980253887
 30
0.0
 10
96.9690860868687
 20
-120.7116655253776
 30
0.0
 10
96.9690860868687
 20
-120.7668046920306
 30
0.0
 10
96.9690860868687
 20
-120.8226141364611
 30
0.0
 10
97.01388886463542
 20
-120.86738163645
 30
0.0
 10
97.0690255791184
 20
-120.86738163645
 30
0.0
 10
97.12412946660147
 20
-120.86738163645
 30
0.0
 10
97.16893224323623
 20
-120.8226141364611
 30
0.0
 10
97.16893224323623
 20
-120.7668046920306
 30
0.0
  0
SPLINE
  5
BC
330
1F
100
AcDbEntity
  8
_U+30EC_U+30A4_U+30E4_U+30FC 1
 62
     7
420
 16777215
370
     9
100
AcDbSpline
210
0.0
220
0.0
230
1.0
 70
    11
 71
     3
 72
    17
 73
    13
 74
     0
 42
0.0000000001
 43
0.0000000001
 12
1.0
 22
0.0
 32
0.0
 13
1.0
 23
0.0
 33
0.0
 40
0.0
 40
0.0
 40
0.0
 40
0.0
 40
1.0
 40
1.0
 40
1.0
 40
2.0
 40
2.0
 40
2.0
 40
3.0
 40
3.0
 40
3.0
 40
4.0
 40
4.0
 40
4.0
 40
4.0
 10
97.16893224323623
 20
-113.7670585826694
 30
0.0
 10
97.16893224323623
 20
-113.7119194160163
 30
0.0
 10
97.12412946660147
 20
-113.6671519160278
 30
0.0
 10
97.0690255791184
 20
-113.6671519160278
 30
0.0
 10
97.01388886463542
 20
-113.6671519160278
 30
0.0
 10
96.9690860868687
 20
-113.7119194160163
 30
0.0
 10
96.9690860868687
 20
-113.7670585826694
 30
0.0
 10
96.9690860868687
 20
-113.8221624715443
 30
0.0
 10
97.01388886463542
 20
-113.8669652493111
 30
0.0
 10
97.0690255791184
 20
-113.8669652493111
 30
0.0
 10
97.12412946660147
 20
-113.8669652493111
 30
0.0
 10
97.16893224323623
 20
-113.8221624715443
 30
0.0
 10
97.16893224323623
 20
-113.7670585826694
 30
0.0
  0
POLYLINE
  5
BD
330
1F
100
AcDbEntity
  8
_U+30EC_U+30A4_U+30E4_U+30FC 1
 62
     7
420
 16777215
370
     9
100
AcDb2dPolyline
 66
     1
 10
0.0
 20
0.0
 30
0.0
  0
VERTEX
  5
BE
330
BD
100
AcDbEntity
  8
_U+30EC_U+30A4_U+30E4_U+30FC 1
 62
     7
420
 16777215
370
     9
100
AcDbVertex
100
AcDb2dVertex
 10
81.65718791675158
 20
-117.9011555260801
 30
0.0
  0
VERTEX
  5
BF
330
BD
100
AcDbEntity
  8
_U+30EC_U+30A4_U+30E4_U+30FC 1
 62
     7
420
 16777215
370
     9
100
AcDbVertex
100
AcDb2dVertex
 10
85.4275003205629
 20
-117.9011555260801
 30
0.0
  0
SEQEND
  5
C0
330
BD
100
AcDbEntity
  8
_U+30EC_U+30A4_U+30E4_U+30FC 1
 62
     7
420
 16777215
370
     9
  0
POLYLINE
  5
C1
330
1F
100
AcDbEntity
  8
_U+30EC_U+30A4_U+30E4_U+30FC 1
 62
     7
420
 16777215
370
     9
100
AcDb2dPolyline
 66
     1
 10
0.0
 20
0.0
 30
0.0
  0
VERTEX
  5
C2
330
C1
100
AcDbEntity
  8
_U+30EC_U+30A4_U+30E4_U+30FC 1
 62
     7
420
 16777215
370
     9
100
AcDbVertex
100
AcDb2dVertex
 10
79.65697324555909
 20
-117.9011555260801
 30
0.0
  0
VERTEX
  5
C3
330
C1
100
AcDbEntity
  8
_U+30EC_U+30A4_U+30E4_U+30FC 1
 62
     7
420
 16777215
370
     9
100
AcDbVertex
100
AcDb2dVertex
 10
81.65718791675158
 20
-117.9011555260801
 30
0.0
  0
SEQEND
  5
C4
330
C1
100
AcDbEntity
  8
_U+30EC_U+30A4_U+30E4_U+30FC 1
 62
     7
420
 16777215
370
     9
  0
INSERT
  5
C6
330
1F
100
AcDbEntity
  8
_U+30EC_U+30A4_U+30E4_U+30FC 1
100
AcDbBlockReference
  2
block 3
 10
0.0
 20
0.0
 30
0.0
  0
POLYLINE
  5
CB
330
1F
100
AcDbEntity
  8
_U+30EC_U+30A4_U+30E4_U+30FC 1
 62
     7
420
 16777215
370
     9
100
AcDb2dPolyline
 66
     1
 10
0.0
 20
0.0
 30
0.0
  0
VERTEX
  5
CC
330
CB
100
AcDbEntity
  8
_U+30EC_U+30A4_U+30E4_U+30FC 1
 62
     7
420
 16777215
370
     9
100
AcDbVertex
100
AcDb2dVertex
 10
80.656745442275
 20
-147.1668944076525
 30
0.0
  0
VERTEX
  5
CD
330
CB
100
AcDbEntity
  8
_U+30EC_U+30A4_U+30E4_U+30FC 1
 62
     7
420
 16777215
370
     9
100
AcDbVertex
100
AcDb2dVertex
 10
94.65676647399359
 20
-147.1668944076525
 30
0.0
  0
SEQEND
  5
CE
330
CB
100
AcDbEntity
  8
_U+30EC_U+30A4_U+30E4_U+30FC 1
 62
     7
420
 16777215
370
     9
  0
POLYLINE
  5
CF
330
1F
100
AcDbEntity
  8
_U+30EC_U+30A4_U+30E4_U+30FC 1
 62
     7
420
 16777215
370
     9
100
AcDb2dPolyline
 66
     1
 10
0.0
 20
0.0
 30
0.0
  0
VERTEX
  5
D0
330
CF
100
AcDbEntity
  8
_U+30EC_U+30A4_U+30E4_U+30FC 1
 62
     7
420
 16777215
370
     9
100
AcDbVertex
100
AcDb2dVertex
 10
80.656745442275
 20
-144.7071160749344
 30
0.0
  0
VERTEX
  5
D1
330
CF
100
AcDbEntity
  8
_U+30EC_U+30A4_U+30E4_U+30FC 1
 62
     7
420
 16777215
370
     9
100
AcDbVertex
100
AcDb2dVertex
 10
80.656745442275
 20
-148.1673721851805
 30
0.0
  0
SEQEND
  5
D2
330
CF
100
AcDbEntity
  8
_U+30EC_U+30A4_U+30E4_U+30FC 1
 62
     7
420
 16777215
370
     9
  0
POLYLINE
  5
D3
330
1F
100
AcDbEntity
  8
_U+30EC_U+30A4_U+30E4_U+30FC 1
 62
     7
420
 16777215
370
     9
100
AcDb2dPolyline
 66
     1
 10
0.0
 20
0.0
 30
0.0
  0
VERTEX
  5
D4
330
D3
100
AcDbEntity
  8
_U+30EC_U+30A4_U+30E4_U+30FC 1
 62
     7
420
 16777215
370
     9
100
AcDbVertex
100
AcDb2dVertex
 10
94.55685980987576
 20
-144.7071160749344
 30
0.0
  0
VERTEX
  5
D5
330
D3
100
AcDbEntity
  8
_U+30EC_U+30A4_U+30E4_U+30FC 1
 62
     7
420
 16777215
370
     9
100
AcDbVertex
100
AcDb2dVertex
 10
94.55685980987576
 20
-148.1673721851805
 30
0.0
  0
SEQEND
  5
D6
330
D3
100
AcDbEntity
  8
_U+30EC_U+30A4_U+30E4_U+30FC 1
 62
     7
420
 16777215
370
     9
  0
INSERT
  5
D8
330
1F
100
AcDbEntity
  8
_U+30EC_U+30A4_U+30E4_U+30FC 1
100
AcDbBlockReference
  2
block 4
 10
0.0
 20
0.0
 30
0.0
  0
SPLINE
  5
F2
330
1F
100
AcDbEntity
  8
_U+30EC_U+30A4_U+30E4_U+30FC 1
 62
     7
420
 16777215
370
     9
100
AcDbSpline
210
0.0
220
0.0
230
1.0
 70
    11
 71
     3
 72
    17
 73
    13
 74
     0
 42
0.0000000001
 43
0.0000000001
 12
1.0
 22
0.0
 32
0.0
 13
1.0
 23
0.0
 33
0.0
 40
0.0
 40
0.0
 40
0.0
 40
0.0
 40
1.0
 40
1.0
 40
1.0
 40
2.0
 40
2.0
 40
2.0
 40
3.0
 40
3.0
 40
3.0
 40
4.0
 40
4.0
 40
4.0
 40
4.0
 10
87.85701025858093
 20
-111.561491916554
 30
0.0
 10
87.85701025858093
 20
-111.5063880276791
 30
0.0
 10
87.81220748194617
 20
-111.4615852499124
 30
0.0
 10
87.7571035944631
 20
-111.4615852499124
 30
0.0
 10
87.70196664474128
 20
-111.4615852499124
 30
0.0
 10
87.65719693034526
 20
-111.5063880276791
 30
0.0
 10
87.65719693034526
 20
-111.561491916554
 30
0.0
 10
87.65719693034526
 20
-111.6166310832071
 30
0.0
 10
87.70196664474128
 20
-111.6613985831956
 30
0.0
 10
87.7571035944631
 20
-111.6613985831956
 30
0.0
 10
87.81220748194617
 20
-111.6613985831956
 30
0.0
 10
87.85701025858093
 20
-111.6166310832071
 30
0.0
 10
87.85701025858093
 20
-111.561491916554
 30
0.0
  0
SPLINE
  5
F3
330
1F
100
AcDbEntity
  8
_U+30EC_U+30A4_U+30E4_U+30FC 1
 62
     7
420
 16777215
370
     9
100
AcDbSpline
210
0.0
220
0.0
230
1.0
 70
    11
 71
     3
 72
    17
 73
    13
 74
     0
 42
0.0000000001
 43
0.0000000001
 12
1.0
 22
0.0
 32
0.0
 13
1.0
 23
0.0
 33
0.0
 40
0.0
 40
0.0
 40
0.0
 40
0.0
 40
1.0
 40
1.0
 40
1.0
 40
2.0
 40
2.0
 40
2.0
 40
3.0
 40
3.0
 40
3.0
 40
4.0
 40
4.0
 40
4.0
 40
4.0
 10
81.85700124498725
 20
-111.561491916554
 30
0.0
 10
81.85700124498725
 20
-111.5063880276791
 30
0.0
 10
81.81223374612937
 20
-111.4615852499124
 30
0.0
 10
81.75709458086942
 20
-111.4615852499124
 30
0.0
 10
81.70199069338635
 20
-111.4615852499124
 30
0.0
 10
81.65718791675158
 20
-111.5063880276791
 30
0.0
 10
81.65718791675158
 20
-111.561491916554
 30
0.0
 10
81.65718791675158
 20
-111.6166310832071
 30
0.0
 10
81.70199069338635
 20
-111.6613985831956
 30
0.0
 10
81.75709458086942
 20
-111.6613985831956
 30
0.0
 10
81.81223374612937
 20
-111.6613985831956
 30
0.0
 10
81.85700124498725
 20
-111.6166310832071
 30
0.0
 10
81.85700124498725
 20
-111.561491916554
 30
0.0
  0
POLYLINE
  5
F4
330
1F
100
AcDbEntity
  8
_U+30EC_U+30A4_U+30E4_U+30FC 1
 62
     7
420
 16777215
370
     9
100
AcDb2dPolyline
 66
     1
 10
0.0
 20
0.0
 30
0.0
  0
VERTEX
  5
F5
330
F4
100
AcDbEntity
  8
_U+30EC_U+30A4_U+30E4_U+30FC 1
 62
     7
420
 16777215
370
     9
100
AcDbVertex
100
AcDb2dVertex
 10
81.75709458086942
 20
-111.561491916554
 30
0.0
  0
VERTEX
  5
F6
330
F4
100
AcDbEntity
  8
_U+30EC_U+30A4_U+30E4_U+30FC 1
 62
     7
420
 16777215
370
     9
100
AcDbVertex
100
AcDb2dVertex
 10
87.7571035944631
 20
-111.561491916554
 30
0.0
  0
SEQEND
  5
F7
330
F4
100
AcDbEntity
  8
_U+30EC_U+30A4_U+30E4_U+30FC 1
 62
     7
420
 16777215
370
     9
  0
POLYLINE
  5
F8
330
1F
100
AcDbEntity
  8
_U+30EC_U+30A4_U+30E4_U+30FC 1
 62
     7
420
 16777215
370
     9
100
AcDb2dPolyline
 66
     1
 10
0.0
 20
0.0
 30
0.0
  0
VERTEX
  5
F9
330
F8
100
AcDbEntity
  8
_U+30EC_U+30A4_U+30E4_U+30FC 1
 62
     7
420
 16777215
370
     9
100
AcDbVertex
100
AcDb2dVertex
 10
81.75709458086942
 20
-110.1021560835855
 30
0.0
  0
VERTEX
  5
FA
330
F8
100
AcDbEntity
  8
_U+30EC_U+30A4_U+30E4_U+30FC 1
 62
     7
420
 16777215
370
     9
100
AcDbVertex
100
AcDb2dVertex
 10
81.75709458086942
 20
-112.5619344163039
 30
0.0
  0
SEQEND
  5
FB
330
F8
100
AcDbEntity
  8
_U+30EC_U+30A4_U+30E4_U+30FC 1
 62
     7
420
 16777215
370
     9
  0
POLYLINE
  5
FC
330
1F
100
AcDbEntity
  8
_U+30EC_U+30A4_U+30E4_U+30FC 1
 62
     7
420
 16777215
370
     9
100
AcDb2dPolyline
 66
     1
 10
0.0
 20
0.0
 30
0.0
  0
VERTEX
  5
FD
330
FC
100
AcDbEntity
  8
_U+30EC_U+30A4_U+30E4_U+30FC 1
 62
     7
420
 16777215
370
     9
100
AcDbVertex
100
AcDb2dVertex
 10
87.7571035944631
 20
-110.1021560835855
 30
0.0
  0
VERTEX
  5
FE
330
FC
100
AcDbEntity
  8
_U+30EC_U+30A4_U+30E4_U+30FC 1
 62
     7
420
 16777215
370
     9
100
AcDbVertex
100
AcDb2dVertex
 10
87.7571035944631
 20
-112.5619344163039
 30
0.0
  0
SEQEND
  5
FF
330
FC
100
AcDbEntity
  8
_U+30EC_U+30A4_U+30E4_U+30FC 1
 62
     7
420
 16777215
370
     9
  0
INSERT
  5
101
330
1F
100
AcDbEntity
  8
_U+30EC_U+30A4_U+30E4_U+30FC 1
100
AcDbBlockReference
  2
block 5
 10
0.0
 20
0.0
 30
0.0
  0
POLYLINE
  5
107
330
1F
100
AcDbEntity
  8
_U+30EC_U+30A4_U+30E4_U+30FC 1
 62
     7
420
 16777215
370
     9
100
AcDb2dPolyline
 66
     1
 10
0.0
 20
0.0
 30
0.0
  0
VERTEX
  5
108
330
107
100
AcDbEntity
  8
_U+30EC_U+30A4_U+30E4_U+30FC 1
 62
     7
420
 16777215
370
     9
100
AcDbVertex
100
AcDb2dVertex
 10
76.65698637765068
 20
-143.1671352419862
 30
0.0
  0
VERTEX
  5
109
330
107
100
AcDbEntity
  8
_U+30EC_U+30A4_U+30E4_U+30FC 1
 62
     7
420
 16777215
370
     9
100
AcDbVertex
100
AcDb2dVertex
 10
76.65698637765068
 20
-113.6671519160278
 30
0.0
  0
SEQEND
  5
10A
330
107
100
AcDbEntity
  8
_U+30EC_U+30A4_U+30E4_U+30FC 1
 62
     7
420
 16777215
370
     9
  0
POLYLINE
  5
10B
330
1F
100
AcDbEntity
  8
_U+30EC_U+30A4_U+30E4_U+30FC 1
 62
     7
420
 16777215
370
     9
100
AcDb2dPolyline
 66
     1
 10
0.0
 20
0.0
 30
0.0
  0
VERTEX
  5
10C
330
10B
100
AcDbEntity
  8
_U+30EC_U+30A4_U+30E4_U+30FC 1
 62
     7
420
 16777215
370
     9
100
AcDbVertex
100
AcDb2dVertex
 10
79.11679992600672
 20
-143.1671352419862
 30
0.0
  0
VERTEX
  5
10D
330
10B
100
AcDbEntity
  8
_U+30EC_U+30A4_U+30E4_U+30FC 1
 62
     7
420
 16777215
370
     9
100
AcDbVertex
100
AcDb2dVertex
 10
75.65721418093477
 20
-143.1671352419862
 30
0.0
  0
SEQEND
  5
10E
330
10B
100
AcDbEntity
  8
_U+30EC_U+30A4_U+30E4_U+30FC 1
 62
     7
420
 16777215
370
     9
  0
POLYLINE
  5
10F
330
1F
100
AcDbEntity
  8
_U+30EC_U+30A4_U+30E4_U+30FC 1
 62
     7
420
 16777215
370
     9
100
AcDb2dPolyline
 66
     1
 10
0.0
 20
0.0
 30
0.0
  0
VERTEX
  5
110
330
10F
100
AcDbEntity
  8
_U+30EC_U+30A4_U+30E4_U+30FC 1
 62
     7
420
 16777215
370
     9
100
AcDbVertex
100
AcDb2dVertex
 10
78.11702772929081
 20
-113.6671519160278
 30
0.0
  0
VERTEX
  5
111
330
10F
100
AcDbEntity
  8
_U+30EC_U+30A4_U+30E4_U+30FC 1
 62
     7
420
 16777215
370
     9
100
AcDbVertex
100
AcDb2dVertex
 10
75.65721418093477
 20
-113.6671519160278
 30
0.0
  0
SEQEND
  5
112
330
10F
100
AcDbEntity
  8
_U+30EC_U+30A4_U+30E4_U+30FC 1
 62
     7
420
 16777215
370
     9
  0
INSERT
  5
114
330
1F
100
AcDbEntity
  8
_U+30EC_U+30A4_U+30E4_U+30FC 1
100
AcDbBlockReference
  2
block 6
 10
0.0
 20
0.0
 30
0.0
  0
POLYLINE
  5
126
330
1F
100
AcDbEntity
  8
_U+30EC_U+30A4_U+30E4_U+30FC 1
 62
     7
420
 16777215
370
     9
100
AcDb2dPolyline
 66
     1
 10
0.0
 20
0.0
 30
0.0
  0
VERTEX
  5
127
330
126
100
AcDbEntity
  8
_U+30EC_U+30A4_U+30E4_U+30FC 1
 62
     7
420
 16777215
370
     9
100
AcDbVertex
100
AcDb2dVertex
 10
97.0690255791184
 20
-142.1666927422363
 30
0.0
  0
VERTEX
  5
128
330
126
100
AcDbEntity
  8
_U+30EC_U+30A4_U+30E4_U+30FC 1
 62
     7
420
 16777215
370
     9
100
AcDbVertex
100
AcDb2dVertex
 10
97.0690255791184
 20
-120.6668980253887
 30
0.0
  0
SEQEND
  5
129
330
126
100
AcDbEntity
  8
_U+30EC_U+30A4_U+30E4_U+30FC 1
 62
     7
420
 16777215
370
     9
  0
POLYLINE
  5
12A
330
1F
100
AcDbEntity
  8
_U+30EC_U+30A4_U+30E4_U+30FC 1
 62
     7
420
 16777215
370
     9
100
AcDb2dPolyline
 66
     1
 10
0.0
 20
0.0
 30
0.0
  0
VERTEX
  5
12B
330
12A
100
AcDbEntity
  8
_U+30EC_U+30A4_U+30E4_U+30FC 1
 62
     7
420
 16777215
370
     9
100
AcDbVertex
100
AcDb2dVertex
 10
90.60892379948488
 20
-142.1666927422363
 30
0.0
  0
VERTEX
  5
12C
330
12A
100
AcDbEntity
  8
_U+30EC_U+30A4_U+30E4_U+30FC 1
 62
     7
420
 16777215
370
     9
100
AcDbVertex
100
AcDb2dVertex
 10
98.06876249805742
 20
-142.1666927422363
 30
0.0
  0
SEQEND
  5
12D
330
12A
100
AcDbEntity
  8
_U+30EC_U+30A4_U+30E4_U+30FC 1
 62
     7
420
 16777215
370
     9
  0
POLYLINE
  5
12E
330
1F
100
AcDbEntity
  8
_U+30EC_U+30A4_U+30E4_U+30FC 1
 62
     7
420
 16777215
370
     9
100
AcDb2dPolyline
 66
     1
 10
0.0
 20
0.0
 30
0.0
  0
VERTEX
  5
12F
330
12E
100
AcDbEntity
  8
_U+30EC_U+30A4_U+30E4_U+30FC 1
 62
     7
420
 16777215
370
     9
100
AcDbVertex
100
AcDb2dVertex
 10
90.60892379948488
 20
-120.7668046920306
 30
0.0
  0
VERTEX
  5
130
330
12E
100
AcDbEntity
  8
_U+30EC_U+30A4_U+30E4_U+30FC 1
 62
     7
420
 16777215
370
     9
100
AcDbVertex
100
AcDb2dVertex
 10
98.06876249805742
 20
-120.7668046920306
 30
0.0
  0
SEQEND
  5
131
330
12E
100
AcDbEntity
  8
_U+30EC_U+30A4_U+30E4_U+30FC 1
 62
     7
420
 16777215
370
     9
  0
SPLINE
  5
132
330
1F
100
AcDbEntity
  8
_U+30EC_U+30A4_U+30E4_U+30FC 1
 62
     7
420
 16777215
370
     9
100
AcDbSpline
210
0.0
220
0.0
230
1.0
 70
    11
 71
     3
 72
    17
 73
    13
 74
     0
 42
0.0000000001
 43
0.0000000001
 12
1.0
 22
0.0
 32
0.0
 13
1.0
 23
0.0
 33
0.0
 40
0.0
 40
0.0
 40
0.0
 40
0.0
 40
1.0
 40
1.0
 40
1.0
 40
2.0
 40
2.0
 40
2.0
 40
3.0
 40
3.0
 40
3.0
 40
4.0
 40
4.0
 40
4.0
 40
4.0
 10
97.16893224323623
 20
-119.6664202478613
 30
0.0
 10
97.16893224323623
 20
-119.611316358986
 30
0.0
 10
97.12412946660147
 20
-119.5665135812196
 30
0.0
 10
97.0690255791184
 20
-119.5665135812196
 30
0.0
 10
97.01388886463542
 20
-119.5665135812196
 30
0.0
 10
96.9690860868687
 20
-119.611316358986
 30
0.0
 10
96.9690860868687
 20
-119.6664202478613
 30
0.0
 10
96.9690860868687
 20
-119.7222296922917
 30
0.0
 10
97.01388886463542
 20
-119.7670324700581
 30
0.0
 10
97.0690255791184
 20
-119.7670324700581
 30
0.0
 10
97.12412946660147
 20
-119.7670324700581
 30
0.0
 10
97.16893224323623
 20
-119.7222296922917
 30
0.0
 10
97.16893224323623
 20
-119.6664202478613
 30
0.0
  0
POLYLINE
  5
133
330
1F
100
AcDbEntity
  8
_U+30EC_U+30A4_U+30E4_U+30FC 1
 62
     7
420
 16777215
370
     9
100
AcDb2dPolyline
 66
     1
 10
0.0
 20
0.0
 30
0.0
  0
VERTEX
  5
134
330
133
100
AcDbEntity
  8
_U+30EC_U+30A4_U+30E4_U+30FC 1
 62
     7
420
 16777215
370
     9
100
AcDbVertex
100
AcDb2dVertex
 10
90.60892379948488
 20
-119.6664202478613
 30
0.0
  0
VERTEX
  5
135
330
133
100
AcDbEntity
  8
_U+30EC_U+30A4_U+30E4_U+30FC 1
 62
     7
420
 16777215
370
     9
100
AcDbVertex
100
AcDb2dVertex
 10
98.06876249805742
 20
-119.6664202478613
 30
0.0
  0
SEQEND
  5
136
330
133
100
AcDbEntity
  8
_U+30EC_U+30A4_U+30E4_U+30FC 1
 62
     7
420
 16777215
370
     9
  0
INSERT
  5
138
330
1F
100
AcDbEntity
  8
_U+30EC_U+30A4_U+30E4_U+30FC 1
100
AcDbBlockReference
  2
block 7
 10
0.0
 20
0.0
 30
0.0
  0
POLYLINE
  5
149
330
1F
100
AcDbEntity
  8
_U+30EC_U+30A4_U+30E4_U+30FC 1
 62
     7
420
 16777215
370
     9
100
AcDb2dPolyline
 66
     1
 10
0.0
 20
0.0
 30
0.0
  0
VERTEX
  5
14A
330
149
100
AcDbEntity
  8
_U+30EC_U+30A4_U+30E4_U+30FC 1
 62
     7
420
 16777215
370
     9
100
AcDbVertex
100
AcDb2dVertex
 10
97.0690255791184
 20
-120.7668046920306
 30
0.0
  0
VERTEX
  5
14B
330
149
100
AcDbEntity
  8
_U+30EC_U+30A4_U+30E4_U+30FC 1
 62
     7
420
 16777215
370
     9
100
AcDbVertex
100
AcDb2dVertex
 10
97.0690255791184
 20
-113.7670585826694
 30
0.0
  0
SEQEND
  5
14C
330
149
100
AcDbEntity
  8
_U+30EC_U+30A4_U+30E4_U+30FC 1
 62
     7
420
 16777215
370
     9
  0
POLYLINE
  5
14D
330
1F
100
AcDbEntity
  8
_U+30EC_U+30A4_U+30E4_U+30FC 1
 62
     7
420
 16777215
370
     9
100
AcDb2dPolyline
 66
     1
 10
0.0
 20
0.0
 30
0.0
  0
VERTEX
  5
14E
330
14D
100
AcDbEntity
  8
_U+30EC_U+30A4_U+30E4_U+30FC 1
 62
     7
420
 16777215
370
     9
100
AcDbVertex
100
AcDb2dVertex
 10
90.60892379948488
 20
-113.7670585826694
 30
0.0
  0
VERTEX
  5
14F
330
14D
100
AcDbEntity
  8
_U+30EC_U+30A4_U+30E4_U+30FC 1
 62
     7
420
 16777215
370
     9
100
AcDbVertex
100
AcDb2dVertex
 10
98.06876249805742
 20
-113.7670585826694
 30
0.0
  0
SEQEND
  5
150
330
14D
100
AcDbEntity
  8
_U+30EC_U+30A4_U+30E4_U+30FC 1
 62
     7
420
 16777215
370
     9
  0
INSERT
  5
152
330
1F
100
AcDbEntity
  8
_U+30EC_U+30A4_U+30E4_U+30FC 1
100
AcDbBlockReference
  2
block 8
 10
0.0
 20
0.0
 30
0.0
  0
ENDSEC
  0
SECTION
  2
OBJECTS
  0
DICTIONARY
  5
C
330
0
100
AcDbDictionary
281
     1
  3
ACAD_GROUP
350
D
  3
ACAD_LAYOUT
350
1A
  3
ACAD_MATERIAL
350
3B
  3
ACAD_MLEADERSTYLE
350
159
  3
ACAD_MLINESTYLE
350
17
  3
ACAD_PLOTSETTINGS
350
19
  3
ACAD_PLOTSTYLENAME
350
E
  3
ACAD_TABLESTYLE
350
158
  3
ACAD_VISUALSTYLE
350
2A
  0
SUN
  5
3F
330
29
100
AcDbSun
 90
        1
290
     0
 63
     7
421
 16777215
 40
1.0
291
     1
 91
  2455826
 92
 54000000
292
     0
 70
     2
 71
   256
280
     1
  0
DICTIONARY
  5
D
102
{ACAD_REACTORS
330
C
102
}
330
C
100
AcDbDictionary
281
     1
  0
DICTIONARY
  5
1A
102
{ACAD_REACTORS
330
C
102
}
330
C
100
AcDbDictionary
281
     1
  3
Layout1
350
1E
  3
Layout2
350
26
  3
Model
350
22
  0
DICTIONARY
  5
3B
102
{ACAD_REACTORS
330
C
102
}
330
C
100
AcDbDictionary
281
     1
  3
ByBlock
350
3D
  3
ByLayer
350
3C
  3
Global
350
3E
  0
DICTIONARY
  5
159
102
{ACAD_REACTORS
330
C
102
}
330
C
100
AcDbDictionary
281
     1
  0
DICTIONARY
  5
17
102
{ACAD_REACTORS
330
C
102
}
330
C
100
AcDbDictionary
281
     1
  3
Standard
350
18
  0
DICTIONARY
  5
19
102
{ACAD_REACTORS
330
C
102
}
330
C
100
AcDbDictionary
281
     1
  0
ACDBDICTIONARYWDFLT
  5
E
102
{ACAD_REACTORS
330
C
102
}
330
C
100
AcDbDictionary
281
     1
  3
Normal
350
F
100
AcDbDictionaryWithDefault
340
F
  0
DICTIONARY
  5
158
102
{ACAD_REACTORS
330
C
102
}
330
C
100
AcDbDictionary
281
     1
  0
DICTIONARY
  5
2A
102
{ACAD_REACTORS
330
C
102
}
330
C
100
AcDbDictionary
281
     1
  3
2dWireframe
350
2F
  3
3D Hidden
350
31
  3
3dWireframe
350
30
  3
Basic
350
32
  3
Brighten
350
36
  3
ColorChange
350
3A
  3
Conceptual
350
34
  3
Dim
350
35
  3
Facepattern
350
39
  3
Flat
350
2B
  3
FlatWithEdges
350
2C
  3
Gouraud
350
2D
  3
GouraudWithEdges
350
2E
  3
Linepattern
350
38
  3
Realistic
350
33
  3
Thicken
350
37
  0
LAYOUT
  5
1E
102
{ACAD_REACTORS
330
1A
102
}
330
1A
100
AcDbPlotSettings
  1

  2
none_device
  4

  6

 40
0.0
 41
0.0
 42
0.0
 43
0.0
 44
0.0
 45
0.0
 46
0.0
 47
0.0
 48
0.0
 49
0.0
140
0.0
141
0.0
142
1.0
143
1.0
 70
   688
 72
     0
 73
     0
 74
     5
  7

 75
    16
 76
     0
 77
     2
 78
   300
147
1.0
148
0.0
149
0.0
100
AcDbLayout
  1
Layout1
 70
     1
 71
     1
 10
0.0
 20
0.0
 11
12.0
 21
9.0
 12
0.0
 22
0.0
 32
0.0
 14
1.000000000000000E+20
 24
1.000000000000000E+20
 34
1.000000000000000E+20
 15
-1.000000000000000E+20
 25
-1.000000000000000E+20
 35
-1.000000000000000E+20
146
0.0
 13
0.0
 23
0.0
 33
0.0
 16
1.0
 26
0.0
 36
0.0
 17
0.0
 27
1.0
 37
0.0
 76
     0
330
1B
  0
LAYOUT
  5
26
102
{ACAD_REACTORS
330
1A
102
}
330
1A
100
AcDbPlotSettings
  1

  2
none_device
  4

  6

 40
0.0
 41
0.0
 42
0.0
 43
0.0
 44
0.0
 45
0.0
 46
0.0
 47
0.0
 48
0.0
 49
0.0
140
0.0
141
0.0
142
1.0
143
1.0
 70
   688
 72
     0
 73
     0
 74
     5
  7

 75
    16
 76
     0
 77
     2
 78
   300
147
1.0
148
0.0
149
0.0
100
AcDbLayout
  1
Layout2
 70
     1
 71
     2
 10
0.0
 20
0.0
 11
0.0
 21
0.0
 12
0.0
 22
0.0
 32
0.0
 14
0.0
 24
0.0
 34
0.0
 15
0.0
 25
0.0
 35
0.0
146
0.0
 13
0.0
 23
0.0
 33
0.0
 16
1.0
 26
0.0
 36
0.0
 17
0.0
 27
1.0
 37
0.0
 76
     0
330
23
  0
LAYOUT
  5
22
102
{ACAD_REACTORS
330
1A
102
}
330
1A
100
AcDbPlotSettings
  1

  2
none_device
  4

  6

 40
0.0
 41
0.0
 42
0.0
 43
0.0
 44
0.0
 45
0.0
 46
0.0
 47
0.0
 48
0.0
 49
0.0
140
0.0
141
0.0
142
1.0
143
1.0
 70
  1712
 72
     0
 73
     0
 74
     0
  7

 75
     0
 76
     0
 77
     2
 78
   300
147
1.0
148
0.0
149
0.0
100
AcDbLayout
  1
Model
 70
     1
 71
     0
 10
0.0
 20
0.0
 11
12.0
 21
9.0
 12
0.0
 22
0.0
 32
0.0
 14
1.000000000000000E+20
 24
1.000000000000000E+20
 34
1.000000000000000E+20
 15
-1.000000000000000E+20
 25
-1.000000000000000E+20
 35
-1.000000000000000E+20
146
0.0
 13
0.0
 23
0.0
 33
0.0
 16
1.0
 26
0.0
 36
0.0
 17
0.0
 27
1.0
 37
0.0
 76
     0
330
1F
331
29
  0
MATERIAL
  5
3D
102
{ACAD_REACTORS
330
3B
102
}
330
3B
100
AcDbMaterial
  1
ByBlock
 72
     1
 94
      127
  0
MATERIAL
  5
3C
102
{ACAD_REACTORS
330
3B
102
}
330
3B
100
AcDbMaterial
  1
ByLayer
 72
     1
 94
      127
  0
MATERIAL
  5
3E
102
{ACAD_REACTORS
330
3B
102
}
330
3B
100
AcDbMaterial
  1
Global
 72
     1
 94
      127
  0
MLINESTYLE
  5
18
102
{ACAD_REACTORS
330
17
102
}
330
17
100
AcDbMlineStyle
  2
Standard
 70
     0
  3

 62
   256
 51
90.0
 52
90.0
 71
     2
 49
0.5
 62
   256
  6
BYLAYER
 49
-0.5
 62
   256
  6
BYLAYER
  0
ACDBPLACEHOLDER
  5
F
102
{ACAD_REACTORS
330
E
102
}
330
E
  0
VISUALSTYLE
  5
2F
102
{ACAD_REACTORS
330
2A
102
}
330
2A
100
AcDbVisualStyle
  2
2dWireframe
 70
     4
177
     2
291
     0
 71
     0
176
     1
 72
     2
176
     1
 73
     0
176
     1
 90
        0
176
     1
 40
-0.6
176
     1
 41
-30.0
176
     1
 62
     5
 63
     7
421
 16777215
176
     1
 74
     1
176
     1
 91
        4
176
     1
 64
     7
176
     1
 65
   257
176
     1
 75
     1
176
     1
175
     1
176
     1
 42
1.0
176
     1
 92
        0
176
     1
 66
   257
176
     1
 43
1.0
176
     1
 76
     1
176
     1
 77
     6
176
     1
 78
     2
176
     1
 67
     7
176
     1
 79
     5
176
     1
170
     0
176
     1
171
     0
176
     1
290
     0
176
     1
 93
        1
176
     1
 44
0.0
176
     1
173
     0
176
     1
  0
VISUALSTYLE
  5
31
102
{ACAD_REACTORS
330
2A
102
}
330
2A
100
AcDbVisualStyle
  2
3D Hidden
 70
     6
177
     2
291
     0
 71
     1
176
     1
 72
     2
176
     1
 73
     2
176
     1
 90
        0
176
     1
 40
-0.6
176
     1
 41
-30.0
176
     1
 62
     5
 63
     7
421
 16777215
176
     1
 74
     2
176
     1
 91
        2
176
     1
 64
     7
176
     1
 65
   257
176
     1
 75
     2
176
     1
175
     1
176
     1
 42
40.0
176
     1
 92
        0
176
     1
 66
   257
176
     1
 43
1.0
176
     1
 76
     1
176
     1
 77
     6
176
     1
 78
     2
176
     1
 67
     7
176
     1
 79
     3
176
     1
170
     0
176
     1
171
     0
176
     1
290
     0
176
     1
 93
        1
176
     1
 44
0.0
176
     1
173
     0
176
     1
  0
VISUALSTYLE
  5
30
102
{ACAD_REACTORS
330
2A
102
}
330
2A
100
AcDbVisualStyle
  2
3dWireframe
 70
     5
177
     2
291
     0
 71
     0
176
     1
 72
     2
176
     1
 73
     0
176
     1
 90
        0
176
     1
 40
-0.6
176
     1
 41
-30.0
176
     1
 62
     5
 63
     7
421
 16777215
176
     1
 74
     1
176
     1
 91
        4
176
     1
 64
     7
176
     1
 65
   257
176
     1
 75
     1
176
     1
175
     1
176
     1
 42
1.0
176
     1
 92
        0
176
     1
 66
   257
176
     1
 43
1.0
176
     1
 76
     1
176
     1
 77
     6
176
     1
 78
     2
176
     1
 67
     7
176
     1
 79
     5
176
     1
170
     0
176
     1
171
     0
176
     1
290
     0
176
     1
 93
        1
176
     1
 44
0.0
176
     1
173
     0
176
     1
  0
VISUALSTYLE
  5
32
102
{ACAD_REACTORS
330
2A
102
}
330
2A
100
AcDbVisualStyle
  2
Basic
 70
     7
177
     2
291
     1
 71
     1
176
     1
 72
     0
176
     1
 73
     1
176
     1
 90
        0
176
     1
 40
-0.6
176
     1
 41
-30.0
176
     1
 62
     5
 63
     7
421
 16777215
176
     1
 74
     0
176
     1
 91
        4
176
     1
 64
     7
176
     1
 65
   257
176
     1
 75
     1
176
     1
175
     1
176
     1
 42
1.0
176
     1
 92
        8
176
     1
 66
     7
176
     1
 43
1.0
176
     1
 76
     1
176
     1
 77
     6
176
     1
 78
     2
176
     1
 67
     7
176
     1
 79
     5
176
     1
170
     0
176
     1
171
     0
176
     1
290
     0
176
     1
 93
        1
176
     1
 44
0.0
176
     1
173
     0
176
     1
  0
VISUALSTYLE
  5
36
102
{ACAD_REACTORS
330
2A
102
}
330
2A
100
AcDbVisualStyle
  2
Brighten
 70
    12
177
     2
291
     1
 71
     2
176
     1
 72
     2
176
     1
 73
     0
176
     1
 90
        0
176
     1
 40
-0.6
176
     1
 41
-30.0
176
     1
 62
     5
 63
     7
421
 16777215
176
     1
 74
     1
176
     1
 91
        4
176
     1
 64
     7
176
     1
 65
   257
176
     1
 75
     1
176
     1
175
     1
176
     1
 42
1.0
176
     1
 92
        8
176
     1
 66
     7
176
     1
 43
1.0
176
     1
 76
     1
176
     1
 77
     6
176
     1
 78
     2
176
     1
 67
     7
176
     1
 79
     5
176
     1
170
     0
176
     1
171
     0
176
     1
290
     0
176
     1
 93
        1
176
     1
 44
50.0
176
     1
173
     0
176
     1
  0
VISUALSTYLE
  5
3A
102
{ACAD_REACTORS
330
2A
102
}
330
2A
100
AcDbVisualStyle
  2
ColorChange
 70
    16
177
     2
291
     1
 71
     2
176
     1
 72
     2
176
     1
 73
     3
176
     1
 90
        0
176
     1
 40
-0.6
176
     1
 41
-30.0
176
     1
 62
     5
 63
     8
421
  8421504
176
     1
 74
     1
176
     1
 91
        4
176
     1
 64
     7
176
     1
 65
   257
176
     1
 75
     1
176
     1
175
     1
176
     1
 42
1.0
176
     1
 92
        8
176
     1
 66
     8
424
  8421504
176
     1
 43
1.0
176
     1
 76
     1
176
     1
 77
     6
176
     1
 78
     2
176
     1
 67
     7
176
     1
 79
     5
176
     1
170
     0
176
     1
171
     0
176
     1
290
     0
176
     1
 93
        1
176
     1
 44
0.0
176
     1
173
     0
176
     1
  0
VISUALSTYLE
  5
34
102
{ACAD_REACTORS
330
2A
102
}
330
2A
100
AcDbVisualStyle
  2
Conceptual
 70
     9
177
     2
291
     0
 71
     3
176
     1
 72
     2
176
     1
 73
     0
176
     1
 90
        0
176
     1
 40
-0.6
176
     1
 41
-30.0
176
     1
 62
     5
 63
     7
421
 16777215
176
     1
 74
     2
176
     1
 91
        2
176
     1
 64
     7
176
     1
 65
   257
176
     1
 75
     1
176
     1
175
     1
176
     1
 42
40.0
176
     1
 92
        8
176
     1
 66
     7
176
     1
 43
1.0
176
     1
 76
     1
176
     1
 77
     6
176
     1
 78
     2
176
     1
 67
     7
176
     1
 79
     3
176
     1
170
     0
176
     1
171
     0
176
     1
290
     0
176
     1
 93
        1
176
     1
 44
0.0
176
     1
173
     0
176
     1
  0
VISUALSTYLE
  5
35
102
{ACAD_REACTORS
330
2A
102
}
330
2A
100
AcDbVisualStyle
  2
Dim
 70
    11
177
     2
291
     1
 71
     2
176
     1
 72
     2
176
     1
 73
     0
176
     1
 90
        0
176
     1
 40
-0.6
176
     1
 41
-30.0
176
     1
 62
     5
 63
     7
421
 16777215
176
     1
 74
     1
176
     1
 91
        4
176
     1
 64
     7
176
     1
 65
   257
176
     1
 75
     1
176
     1
175
     1
176
     1
 42
1.0
176
     1
 92
        8
176
     1
 66
     7
176
     1
 43
1.0
176
     1
 76
     1
176
     1
 77
     6
176
     1
 78
     2
176
     1
 67
     7
176
     1
 79
     5
176
     1
170
     0
176
     1
171
     0
176
     1
290
     0
176
     1
 93
        1
176
     1
 44
-50.0
176
     1
173
     0
176
     1
  0
VISUALSTYLE
  5
39
102
{ACAD_REACTORS
330
2A
102
}
330
2A
100
AcDbVisualStyle
  2
Facepattern
 70
    15
177
     2
291
     1
 71
     2
176
     1
 72
     2
176
     1
 73
     0
176
     1
 90
        0
176
     1
 40
-0.6
176
     1
 41
-30.0
176
     1
 62
     5
 63
     7
421
 16777215
176
     1
 74
     1
176
     1
 91
        4
176
     1
 64
     7
176
     1
 65
   257
176
     1
 75
     1
176
     1
175
     1
176
     1
 42
1.0
176
     1
 92
        8
176
     1
 66
     7
176
     1
 43
1.0
176
     1
 76
     1
176
     1
 77
     6
176
     1
 78
     2
176
     1
 67
     7
176
     1
 79
     5
176
     1
170
     0
176
     1
171
     0
176
     1
290
     0
176
     1
 93
        1
176
     1
 44
0.0
176
     1
173
     0
176
     1
  0
VISUALSTYLE
  5
2B
102
{ACAD_REACTORS
330
2A
102
}
330
2A
100
AcDbVisualStyle
  2
Flat
 70
     0
177
     2
291
     1
 71
     2
176
     1
 72
     1
176
     1
 73
     1
176
     1
 90
        2
176
     1
 40
-0.6
176
     1
 41
30.0
176
     1
 62
     5
 63
     7
421
 16777215
176
     1
 74
     0
176
     1
 91
        4
176
     1
 64
     7
176
     1
 65
   257
176
     1
 75
     1
176
     1
175
     1
176
     1
 42
1.0
176
     1
 92
        8
176
     1
 66
     7
176
     1
 43
1.0
176
     1
 76
     1
176
     1
 77
     6
176
     1
 78
     2
176
     1
 67
     7
176
     1
 79
     5
176
     1
170
     0
176
     1
171
     0
176
     1
290
     0
176
     1
 93
       13
176
     1
 44
0.0
176
     1
173
     0
176
     1
  0
VISUALSTYLE
  5
2C
102
{ACAD_REACTORS
330
2A
102
}
330
2A
100
AcDbVisualStyle
  2
FlatWithEdges
 70
     1
177
     2
291
     1
 71
     2
176
     1
 72
     1
176
     1
 73
     1
176
     1
 90
        2
176
     1
 40
-0.6
176
     1
 41
30.0
176
     1
 62
     5
 63
     7
421
 16777215
176
     1
 74
     1
176
     1
 91
        4
176
     1
 64
     7
176
     1
 65
   257
176
     1
 75
     1
176
     1
175
     1
176
     1
 42
1.0
176
     1
 92
        0
176
     1
 66
   257
176
     1
 43
1.0
176
     1
 76
     1
176
     1
 77
     6
176
     1
 78
     2
176
     1
 67
     7
176
     1
 79
     5
176
     1
170
     0
176
     1
171
     0
176
     1
290
     0
176
     1
 93
       13
176
     1
 44
0.0
176
     1
173
     0
176
     1
  0
VISUALSTYLE
  5
2D
102
{ACAD_REACTORS
330
2A
102
}
330
2A
100
AcDbVisualStyle
  2
Gouraud
 70
     2
177
     2
291
     1
 71
     2
176
     1
 72
     2
176
     1
 73
     1
176
     1
 90
        2
176
     1
 40
-0.6
176
     1
 41
30.0
176
     1
 62
     5
 63
     7
421
 16777215
176
     1
 74
     0
176
     1
 91
        4
176
     1
 64
     7
176
     1
 65
   257
176
     1
 75
     1
176
     1
175
     1
176
     1
 42
1.0
176
     1
 92
        0
176
     1
 66
     7
176
     1
 43
1.0
176
     1
 76
     1
176
     1
 77
     6
176
     1
 78
     2
176
     1
 67
     7
176
     1
 79
     5
176
     1
170
     0
176
     1
171
     0
176
     1
290
     0
176
     1
 93
       13
176
     1
 44
0.0
176
     1
173
     0
176
     1
  0
VISUALSTYLE
  5
2E
102
{ACAD_REACTORS
330
2A
102
}
330
2A
100
AcDbVisualStyle
  2
GouraudWithEdges
 70
     3
177
     2
291
     1
 71
     2
176
     1
 72
     2
176
     1
 73
     1
176
     1
 90
        2
176
     1
 40
-0.6
176
     1
 41
30.0
176
     1
 62
     5
 63
     7
421
 16777215
176
     1
 74
     1
176
     1
 91
        4
176
     1
 64
     7
176
     1
 65
   257
176
     1
 75
     1
176
     1
175
     1
176
     1
 42
1.0
176
     1
 92
        0
176
     1
 66
   257
176
     1
 43
1.0
176
     1
 76
     1
176
     1
 77
     6
176
     1
 78
     2
176
     1
 67
     7
176
     1
 79
     5
176
     1
170
     0
176
     1
171
     0
176
     1
290
     0
176
     1
 93
       13
176
     1
 44
0.0
176
     1
173
     0
176
     1
  0
VISUALSTYLE
  5
38
102
{ACAD_REACTORS
330
2A
102
}
330
2A
100
AcDbVisualStyle
  2
Linepattern
 70
    14
177
     2
291
     1
 71
     2
176
     1
 72
     2
176
     1
 73
     0
176
     1
 90
        0
176
     1
 40
-0.6
176
     1
 41
-30.0
176
     1
 62
     5
 63
     7
421
 16777215
176
     1
 74
     1
176
     1
 91
        4
176
     1
 64
     7
176
     1
 65
   257
176
     1
 75
     7
176
     1
175
     7
176
     1
 42
1.0
176
     1
 92
        8
176
     1
 66
     7
176
     1
 43
1.0
176
     1
 76
     1
176
     1
 77
     6
176
     1
 78
     2
176
     1
 67
     7
176
     1
 79
     5
176
     1
170
     0
176
     1
171
     0
176
     1
290
     0
176
     1
 93
        1
176
     1
 44
0.0
176
     1
173
     0
176
     1
  0
VISUALSTYLE
  5
33
102
{ACAD_REACTORS
330
2A
102
}
330
2A
100
AcDbVisualStyle
  2
Realistic
 70
     8
177
     2
291
     0
 71
     2
176
     1
 72
     2
176
     1
 73
     0
176
     1
 90
        0
176
     1
 40
-0.6
176
     1
 41
-30.0
176
     1
 62
     5
 63
     7
421
 16777215
176
     1
 74
     1
176
     1
 91
        0
176
     1
 64
     7
176
     1
 65
   257
176
     1
 75
     1
176
     1
175
     1
176
     1
 42
1.0
176
     1
 92
        8
176
     1
 66
     8
424
  7895160
176
     1
 43
1.0
176
     1
 76
     1
176
     1
 77
     6
176
     1
 78
     2
176
     1
 67
     7
176
     1
 79
     5
176
     1
170
     0
176
     1
171
     0
176
     1
290
     0
176
     1
 93
       13
176
     1
 44
0.0
176
     1
173
     0
176
     1
  0
VISUALSTYLE
  5
37
102
{ACAD_REACTORS
330
2A
102
}
330
2A
100
AcDbVisualStyle
  2
Thicken
 70
    13
177
     2
291
     1
 71
     2
176
     1
 72
     2
176
     1
 73
     0
176
     1
 90
        0
176
     1
 40
-0.6
176
     1
 41
-30.0
176
     1
 62
     5
 63
     7
421
 16777215
176
     1
 74
     1
176
     1
 91
        4
176
     1
 64
     7
176
     1
 65
   257
176
     1
 75
     1
176
     1
175
     1
176
     1
 42
1.0
176
     1
 92
       12
176
     1
 66
     7
176
     1
 43
1.0
176
     1
 76
     1
176
     1
 77
     6
176
     1
 78
     2
176
     1
 67
     7
176
     1
 79
     5
176
     1
170
     0
176
     1
171
     0
176
     1
290
     0
176
     1
 93
        1
176
     1
 44
0.0
176
     1
173
     0
176
     1
  0
ENDSEC
  0
EOF
