  0
SECTION
  2
HEADER
  9
$ACADVER
  1
AC1024
  9
$ACADMAINTVER
 70
     6
  9
$DWGCODEPAGE
  3
UNDEFINED
  9
$INSBASE
 10
0.0
 20
0.0
 30
0.0
  9
$EXTMIN
 10
1.000000000000000E+20
 20
1.000000000000000E+20
 30
1.000000000000000E+20
  9
$EXTMAX
 10
-1.000000000000000E+20
 20
-1.000000000000000E+20
 30
-1.000000000000000E+20
  9
$LIMMIN
 10
0.0
 20
0.0
  9
$LIMMAX
 10
12.0
 20
9.0
  9
$ORTHOMODE
 70
     0
  9
$REGENMODE
 70
     1
  9
$FILLMODE
 70
     1
  9
$QTEXTMODE
 70
     0
  9
$MIRRTEXT
 70
     1
  9
$LTSCALE
 40
1.0
  9
$ATTMODE
 70
     1
  9
$TEXTSIZE
 40
0.2
  9
$TRACEWID
 40
0.05
  9
$TEXTSTYLE
  7
Standard
  9
$CLAYER
  8
0
  9
$CELTYPE
  6
ByLayer
  9
$CECOLOR
 62
   256
  9
$CELTSCALE
 40
1.0
  9
$DISPSILH
 70
     0
  9
$DIMSCALE
 40
1.0
  9
$DIMASZ
 40
0.18
  9
$DIMEXO
 40
0.0625
  9
$DIMDLI
 40
0.38
  9
$DIMRND
 40
0.0
  9
$DIMDLE
 40
0.0
  9
$DIMEXE
 40
0.18
  9
$DIMTP
 40
0.0
  9
$DIMTM
 40
0.0
  9
$DIMTXT
 40
0.18
  9
$DIMCEN
 40
0.09
  9
$DIMTSZ
 40
0.0
  9
$DIMTOL
 70
     0
  9
$DIMLIM
 70
     0
  9
$DIMTIH
 70
     1
  9
$DIMTOH
 70
     1
  9
$DIMSE1
 70
     0
  9
$DIMSE2
 70
     0
  9
$DIMTAD
 70
     0
  9
$DIMZIN
 70
     0
  9
$DIMBLK
  1

  9
$DIMASO
 70
     1
  9
$DIMSHO
 70
     1
  9
$DIMPOST
  1

  9
$DIMAPOST
  1

  9
$DIMALT
 70
     0
  9
$DIMALTD
 70
     2
  9
$DIMALTF
 40
25.4
  9
$DIMLFAC
 40
1.0
  9
$DIMTOFL
 70
     0
  9
$DIMTVP
 40
0.0
  9
$DIMTIX
 70
     0
  9
$DIMSOXD
 70
     0
  9
$DIMSAH
 70
     0
  9
$DIMBLK1
  1

  9
$DIMBLK2
  1

  9
$DIMSTYLE
  2
Standard
  9
$DIMCLRD
 70
     0
  9
$DIMCLRE
 70
     0
  9
$DIMCLRT
 70
     0
  9
$DIMTFAC
 40
1.0
  9
$DIMGAP
 40
0.09
  9
$DIMJUST
 70
     0
  9
$DIMSD1
 70
     0
  9
$DIMSD2
 70
     0
  9
$DIMTOLJ
 70
     1
  9
$DIMTZIN
 70
     0
  9
$DIMALTZ
 70
     0
  9
$DIMALTTZ
 70
     0
  9
$DIMUPT
 70
     0
  9
$DIMDEC
 70
     4
  9
$DIMTDEC
 70
     4
  9
$DIMALTU
 70
     2
  9
$DIMALTTD
 70
     2
  9
$DIMTXSTY
  7
Standard
  9
$DIMAUNIT
 70
     0
  9
$DIMADEC
 70
     0
  9
$DIMALTRND
 40
0.0
  9
$DIMAZIN
 70
     0
  9
$DIMDSEP
 70
    46
  9
$DIMATFIT
 70
     3
  9
$DIMFRAC
 70
     0
  9
$DIMLDRBLK
  1

  9
$DIMLUNIT
 70
     2
  9
$DIMLWD
 70
    -2
  9
$DIMLWE
 70
    -2
  9
$DIMTMOVE
 70
     0
  9
$DIMFXL
 40
1.0
  9
$DIMFXLON
 70
     0
  9
$DIMJOGANG
 40
0.7853981633974483
  9
$DIMTFILL
 70
     0
  9
$DIMTFILLCLR
 70
     0
  9
$DIMARCSYM
 70
     0
  9
$DIMLTYPE
  6

  9
$DIMLTEX1
  6

  9
$DIMLTEX2
  6

  9
$DIMTXTDIRECTION
 70
     0
  9
$LUNITS
 70
     2
  9
$LUPREC
 70
     4
  9
$SKETCHINC
 40
0.1
  9
$FILLETRAD
 40
0.5
  9
$AUNITS
 70
     0
  9
$AUPREC
 70
     0
  9
$MENU
  1
.
  9
$ELEVATION
 40
0.0
  9
$PELEVATION
 40
0.0
  9
$THICKNESS
 40
0.0
  9
$LIMCHECK
 70
     0
  9
$CHAMFERA
 40
0.5
  9
$CHAMFERB
 40
0.5
  9
$CHAMFERC
 40
1.0
  9
$CHAMFERD
 40
0.0
  9
$SKPOLY
 70
     0
  9
$TDCREATE
 40
2457917.599837963
  9
$TDUCREATE
 40
2457917.224837963
  9
$TDUPDATE
 40
2457917.599837963
  9
$TDUUPDATE
 40
2457917.224837963
  9
$TDINDWG
 40
0.0000000116
  9
$TDUSRTIMER
 40
0.0000000116
  9
$USRTIMER
 70
     1
  9
$ANGBASE
 50
0.0
  9
$ANGDIR
 70
     0
  9
$PDMODE
 70
     0
  9
$PDSIZE
 40
0.0
  9
$PLINEWID
 40
0.0
  9
$SPLFRAME
 70
     0
  9
$SPLINETYPE
 70
     6
  9
$SPLINESEGS
 70
     8
  9
$HANDSEED
  5
159
  9
$SURFTAB1
 70
     6
  9
$SURFTAB2
 70
     6
  9
$SURFTYPE
 70
     6
  9
$SURFU
 70
     6
  9
$SURFV
 70
     6
  9
$UCSBASE
  2

  9
$UCSNAME
  2

  9
$UCSORG
 10
0.0
 20
0.0
 30
0.0
  9
$UCSXDIR
 10
1.0
 20
0.0
 30
0.0
  9
$UCSYDIR
 10
0.0
 20
1.0
 30
0.0
  9
$UCSORTHOREF
  2

  9
$UCSORTHOVIEW
 70
     0
  9
$UCSORGTOP
 10
0.0
 20
0.0
 30
0.0
  9
$UCSORGBOTTOM
 10
0.0
 20
0.0
 30
0.0
  9
$UCSORGLEFT
 10
0.0
 20
0.0
 30
0.0
  9
$UCSORGRIGHT
 10
0.0
 20
0.0
 30
0.0
  9
$UCSORGFRONT
 10
0.0
 20
0.0
 30
0.0
  9
$UCSORGBACK
 10
0.0
 20
0.0
 30
0.0
  9
$PUCSBASE
  2

  9
$PUCSNAME
  2

  9
$PUCSORG
 10
0.0
 20
0.0
 30
0.0
  9
$PUCSXDIR
 10
1.0
 20
0.0
 30
0.0
  9
$PUCSYDIR
 10
0.0
 20
1.0
 30
0.0
  9
$PUCSORTHOREF
  2

  9
$PUCSORTHOVIEW
 70
     0
  9
$PUCSORGTOP
 10
0.0
 20
0.0
 30
0.0
  9
$PUCSORGBOTTOM
 10
0.0
 20
0.0
 30
0.0
  9
$PUCSORGLEFT
 10
0.0
 20
0.0
 30
0.0
  9
$PUCSORGRIGHT
 10
0.0
 20
0.0
 30
0.0
  9
$PUCSORGFRONT
 10
0.0
 20
0.0
 30
0.0
  9
$PUCSORGBACK
 10
0.0
 20
0.0
 30
0.0
  9
$USERI1
 70
     0
  9
$USERI2
 70
     0
  9
$USERI3
 70
     0
  9
$USERI4
 70
     0
  9
$USERI5
 70
     0
  9
$USERR1
 40
0.0
  9
$USERR2
 40
0.0
  9
$USERR3
 40
0.0
  9
$USERR4
 40
0.0
  9
$USERR5
 40
0.0
  9
$WORLDVIEW
 70
     1
  9
$SHADEDGE
 70
     3
  9
$SHADEDIF
 70
    70
  9
$TILEMODE
 70
     1
  9
$MAXACTVP
 70
    64
  9
$PINSBASE
 10
0.0
 20
0.0
 30
0.0
  9
$PLIMCHECK
 70
     0
  9
$PEXTMIN
 10
1.000000000000000E+20
 20
1.000000000000000E+20
 30
1.000000000000000E+20
  9
$PEXTMAX
 10
-1.000000000000000E+20
 20
-1.000000000000000E+20
 30
-1.000000000000000E+20
  9
$PLIMMIN
 10
0.0
 20
0.0
  9
$PLIMMAX
 10
12.0
 20
9.0
  9
$UNITMODE
 70
     0
  9
$VISRETAIN
 70
     1
  9
$PLINEGEN
 70
     0
  9
$PSLTSCALE
 70
     1
  9
$TREEDEPTH
 70
  3020
  9
$CMLSTYLE
  2
Standard
  9
$CMLJUST
 70
     0
  9
$CMLSCALE
 40
1.0
  9
$PROXYGRAPHICS
 70
     1
  9
$MEASUREMENT
 70
     0
  9
$CELWEIGHT
370
    -1
  9
$ENDCAPS
280
     0
  9
$JOINSTYLE
280
     0
  9
$LWDISPLAY
290
     1
  9
$INSUNITS
 70
     1
  9
$HYPERLINKBASE
  1

  9
$STYLESHEET
  1

  9
$XEDIT
290
     1
  9
$CEPSNTYPE
380
     0
  9
$PSTYLEMODE
290
     1
  9
$FINGERPRINTGUID
  2
{23A5118C-ADF1-3AB6-2BA0-8ABFDEC1201F}
  9
$VERSIONGUID
  2
{FAEB1C32-E019-11D5-929B-00C0DF256EC4}
  9
$EXTNAMES
290
     1
  9
$PSVPSCALE
 40
0.0
  9
$OLESTARTUP
290
     0
  9
$SORTENTS
280
   127
  9
$INDEXCTL
280
     0
  9
$HIDETEXT
280
     1
  9
$XCLIPFRAME
280
     2
  9
$HALOGAP
280
     0
  9
$OBSCOLOR
 70
   257
  9
$OBSLTYPE
280
     0
  9
$INTERSECTIONDISPLAY
280
     0
  9
$INTERSECTIONCOLOR
 70
   257
  9
$DIMASSOC
280
     2
  9
$PROJECTNAME
  1

  9
$CAMERADISPLAY
290
     0
  9
$LENSLENGTH
 40
50.0
  9
$CAMERAHEIGHT
 40
0.0
  9
$STEPSPERSEC
 40
2.0
  9
$STEPSIZE
 40
6.0
  9
$3DDWFPREC
 40
2.0
  9
$PSOLWIDTH
 40
0.25
  9
$PSOLHEIGHT
 40
4.0
  9
$LOFTANG1
 40
1.570796326794897
  9
$LOFTANG2
 40
1.570796326794897
  9
$LOFTMAG1
 40
0.0
  9
$LOFTMAG2
 40
0.0
  9
$LOFTPARAM
 70
     7
  9
$LOFTNORMALS
280
     1
  9
$LATITUDE
 40
37.795
  9
$LONGITUDE
 40
-122.394
  9
$NORTHDIRECTION
 40
0.0
  9
$TIMEZONE
 70
 -8000
  9
$LIGHTGLYPHDISPLAY
280
     1
  9
$TILEMODELIGHTSYNCH
280
     1
  9
$CMATERIAL
347
3C
  9
$SOLIDHIST
280
     1
  9
$SHOWHIST
280
     1
  9
$DWFFRAME
280
     2
  9
$DGNFRAME
280
     2
  9
$REALWORLDSCALE
290
     1
  9
$INTERFERECOLOR
 62
   256
  9
$CSHADOW
280
     0
  9
$SHADOWPLANELOCATION
 40
0.0
  0
ENDSEC
  0
SECTION
  2
CLASSES
  0
CLASS
  1
ACDBDICTIONARYWDFLT
  2
AcDbDictionaryWithDefault
  3
ObjectDBX Classes
 90
        0
 91
        4
280
     0
281
     0
  0
CLASS
  1
VISUALSTYLE
  2
AcDbVisualStyle
  3
ObjectDBX Classes
 90
     4095
 91
        4
280
     0
281
     0
  0
CLASS
  1
MATERIAL
  2
AcDbMaterial
  3
ObjectDBX Classes
 90
     1153
 91
        4
280
     0
281
     0
  0
CLASS
  1
SUN
  2
AcDbSun
  3
SCENEOE
 90
     1024
 91
        4
280
     0
281
     0
  0
ENDSEC
  0
SECTION
  2
TABLES
  0
TABLE
  2
VPORT
  5
8
330
0
100
AcDbSymbolTable
 70
     1
  0
VPORT
  5
29
330
8
100
AcDbSymbolTableRecord
100
AcDbViewportTableRecord
  2
*Active
 70
     0
 10
0.0
 20
0.0
 11
1.0
 21
1.0
 12
0.0
 22
0.0
 13
0.0
 23
0.0
 14
0.5
 24
0.5
 15
0.5
 25
0.5
 16
0.0
 26
0.0
 36
1.0
 17
91.00082462281999
 27
-128.4993055234307
 37
0.0
 40
256.9986110468615
 41
0.7081814508812795
 42
50.0
 43
0.0
 44
0.0
 50
0.0
 51
0.0
 71
     0
 72
   100
 73
     1
 74
     3
 75
     0
 76
     0
 77
     0
 78
     0
281
     0
 65
     1
110
0.0
120
0.0
130
0.0
111
1.0
121
0.0
131
0.0
112
0.0
122
1.0
132
0.0
 79
     0
146
0.0
 60
     3
 61
     5
292
     1
282
     1
141
0.0
142
0.0
 63
   250
361
3F
  0
ENDTAB
  0
TABLE
  2
LTYPE
  5
5
330
0
100
AcDbSymbolTable
 70
     2
  0
LTYPE
  5
14
330
5
100
AcDbSymbolTableRecord
100
AcDbLinetypeTableRecord
  2
ByBlock
 70
     0
  3

 72
    65
 73
     0
 40
0.0
  0
LTYPE
  5
15
330
5
100
AcDbSymbolTableRecord
100
AcDbLinetypeTableRecord
  2
ByLayer
 70
     0
  3

 72
    65
 73
     0
 40
0.0
  0
LTYPE
  5
16
330
5
100
AcDbSymbolTableRecord
100
AcDbLinetypeTableRecord
  2
Continuous
 70
     0
  3
Solid line
 72
    65
 73
     0
 40
0.0
  0
LTYPE
  5
47
330
5
100
AcDbSymbolTableRecord
100
AcDbLinetypeTableRecord
  2
AI-Linetype-1
 70
     0
  3
Adobe Illustrator Linetype No. 1
 72
    65
 73
     2
 40
1.411111110758333
 49
0.7055555553791667
 74
     0
 49
-0.7055555553791667
 74
     0
  0
ENDTAB
  0
TABLE
  2
LAYER
  5
2
330
0
100
AcDbSymbolTable
 70
     2
  0
LAYER
  5
10
330
2
100
AcDbSymbolTableRecord
100
AcDbLayerTableRecord
  2
0
 70
     0
 62
     7
  6
Continuous
370
    -3
390
F
347
3E
  0
LAYER
  5
40
330
2
100
AcDbSymbolTableRecord
100
AcDbLayerTableRecord
  2
_U+30EC_U+30A4_U+30E4_U+30FC 1
 70
     0
 62
     7
  6
Continuous
370
    -3
390
F
347
3E
  0
ENDTAB
  0
TABLE
  2
STYLE
  5
3
330
0
100
AcDbSymbolTable
 70
     1
  0
STYLE
  5
11
330
3
100
AcDbSymbolTableRecord
100
AcDbTextStyleTableRecord
  2
Standard
 70
     0
 40
0.0
 41
1.0
 50
0.0
 71
     0
 42
0.2
  3
txt
  4

  0
ENDTAB
  0
TABLE
  2
VIEW
  5
6
330
0
100
AcDbSymbolTable
 70
     0
  0
ENDTAB
  0
TABLE
  2
UCS
  5
7
330
0
100
AcDbSymbolTable
 70
     0
  0
ENDTAB
  0
TABLE
  2
APPID
  5
9
330
0
100
AcDbSymbolTable
 70
     1
  0
APPID
  5
12
330
9
100
AcDbSymbolTableRecord
100
AcDbRegAppTableRecord
  2
ACAD
 70
     0
  0
ENDTAB
  0
TABLE
  2
DIMSTYLE
  5
A
330
0
100
AcDbSymbolTable
 70
     1
100
AcDbDimStyleTable
  0
DIMSTYLE
105
27
330
A
100
AcDbSymbolTableRecord
100
AcDbDimStyleTableRecord
  2
Standard
 70
     0
178
     0
340
11
  0
ENDTAB
  0
TABLE
  2
BLOCK_RECORD
  5
1
330
0
100
AcDbSymbolTable
 70
     8
  0
BLOCK_RECORD
  5
1F
330
1
100
AcDbSymbolTableRecord
100
AcDbBlockTableRecord
  2
*Model_Space
340
22
 70
     0
280
     1
281
     0
  0
BLOCK_RECORD
  5
1B
330
1
100
AcDbSymbolTableRecord
100
AcDbBlockTableRecord
  2
*Paper_Space
340
1E
 70
     0
280
     1
281
     0
  0
BLOCK_RECORD
  5
23
330
1
100
AcDbSymbolTableRecord
100
AcDbBlockTableRecord
  2
*Paper_Space0
340
26
 70
     0
280
     1
281
     0
  0
BLOCK_RECORD
  5
4E
330
1
100
AcDbSymbolTableRecord
100
AcDbBlockTableRecord
  2
block 2
340
0
102
{BLKREFS
331
4F
102
}
 70
     0
280
     1
281
     0
  0
BLOCK_RECORD
  5
C5
330
1
100
AcDbSymbolTableRecord
100
AcDbBlockTableRecord
  2
block 3
340
0
102
{BLKREFS
331
C6
102
}
 70
     0
280
     1
281
     0
  0
BLOCK_RECORD
  5
D7
330
1
100
AcDbSymbolTableRecord
100
AcDbBlockTableRecord
  2
block 4
340
0
102
{BLKREFS
331
D8
102
}
 70
     0
280
     1
281
     0
  0
BLOCK_RECORD
  5
100
330
1
100
AcDbSymbolTableRecord
100
AcDbBlockTableRecord
  2
block 5
340
0
102
{BLKREFS
331
101
102
}
 70
     0
280
     1
281
     0
  0
BLOCK_RECORD
  5
113
330
1
100
AcDbSymbolTableRecord
100
AcDbBlockTableRecord
  2
block 6
340
0
102
{BLKREFS
331
114
102
}
 70
     0
280
     1
281
     0
  0
BLOCK_RECORD
  5
136
330
1
100
AcDbSymbolTableRecord
100
AcDbBlockTableRecord
  2
block 7
340
0
102
{BLKREFS
331
137
102
}
 70
     0
280
     1
281
     0
  0
BLOCK_RECORD
  5
150
330
1
100
AcDbSymbolTableRecord
100
AcDbBlockTableRecord
  2
block 8
340
0
102
{BLKREFS
331
151
102
}
 70
     0
280
     1
281
     0
  0
ENDTAB
  0
ENDSEC
  0
SECTION
  2
BLOCKS
  0
BLOCK
  5
20
330
1F
100
AcDbEntity
  8
0
100
AcDbBlockBegin
  2
*Model_Space
 70
     0
 10
0.0
 20
0.0
 30
0.0
  3
*Model_Space
  1

  0
ENDBLK
  5
21
330
1F
100
AcDbEntity
  8
0
100
AcDbBlockEnd
  0
BLOCK
  5
1C
330
1B
100
AcDbEntity
 67
     1
  8
0
100
AcDbBlockBegin
  2
*Paper_Space
 70
     0
 10
0.0
 20
0.0
 30
0.0
  3
*Paper_Space
  1

  0
ENDBLK
  5
1D
330
1B
100
AcDbEntity
 67
     1
  8
0
100
AcDbBlockEnd
  0
BLOCK
  5
24
330
23
100
AcDbEntity
  8
0
100
AcDbBlockBegin
  2
*Paper_Space0
 70
     0
 10
0.0
 20
0.0
 30
0.0
  3
*Paper_Space0
  1

  0
ENDBLK
  5
25
330
23
100
AcDbEntity
  8
0
100
AcDbBlockEnd
  0
BLOCK
  5
50
330
4E
100
AcDbEntity
  8
0
100
AcDbBlockBegin
  2
block 2
 70
     0
 10
0.0
 20
0.0
 30
0.0
  3
block 2
  1

  0
SPLINE
  5
52
330
4E
100
AcDbEntity
  8
_U+30EC_U+30A4_U+30E4_U+30FC 1
370
     0
100
AcDbSpline
210
0.0
220
0.0
230
1.0
 70
    11
 71
     3
 72
    17
 73
    13
 74
     0
 42
0.0000000001
 43
0.0000000001
 12
1.0
 22
0.0
 32
0.0
 13
1.0
 23
0.0
 33
0.0
 40
0.0
 40
0.0
 40
0.0
 40
0.0
 40
1.0
 40
1.0
 40
1.0
 40
2.0
 40
2.0
 40
2.0
 40
3.0
 40
3.0
 40
3.0
 40
4.0
 40
4.0
 40
4.0
 40
4.0
 10
92.23037378336602
 20
-112.7817463910754
 30
0.0
 10
92.12460935196886
 20
-112.6759819596782
 30
0.0
 10
92.043994117614
 20
-112.6380859093405
 30
0.0
 10
91.95097653951225
 20
-112.6060465213277
 30
0.0
 10
91.95097653951225
 20
-112.6060465213277
 30
0.0
 10
92.06087508549173
 20
-112.4410264475842
 30
0.0
 10
92.06087508549173
 20
-112.4410264475842
 30
0.0
 10
92.15837128772431
 20
-112.4834011220528
 30
0.0
 10
92.27894962970804
 20
-112.5619492991165
 30
0.0
 10
92.33165959063237
 20
-112.6167263173319
 30
0.0
 10
92.33165959063237
 20
-112.6167263173319
 30
0.0
 10
92.23037378336602
 20
-112.7817463910754
 30
0.0
 10
92.23037378336602
 20
-112.7817463910754
 30
0.0
  0
SPLINE
  5
53
330
4E
100
AcDbEntity
  8
_U+30EC_U+30A4_U+30E4_U+30FC 1
370
     0
100
AcDbSpline
210
0.0
220
0.0
230
1.0
 70
    11
 71
     3
 72
   182
 73
   178
 74
     0
 42
0.0000000001
 43
0.0000000001
 12
1.0
 22
0.0
 32
0.0
 13
1.0
 23
0.0
 33
0.0
 40
0.0
 40
0.0
 40
0.0
 40
0.0
 40
1.0
 40
1.0
 40
1.0
 40
2.0
 40
2.0
 40
2.0
 40
3.0
 40
3.0
 40
3.0
 40
4.0
 40
4.0
 40
4.0
 40
5.0
 40
5.0
 40
5.0
 40
6.0
 40
6.0
 40
6.0
 40
7.0
 40
7.0
 40
7.0
 40
8.0
 40
8.0
 40
8.0
 40
9.0
 40
9.0
 40
9.0
 40
10.0
 40
10.0
 40
10.0
 40
11.0
 40
11.0
 40
11.0
 40
12.0
 40
12.0
 40
12.0
 40
13.0
 40
13.0
 40
13.0
 40
14.0
 40
14.0
 40
14.0
 40
15.0
 40
15.0
 40
15.0
 40
16.0
 40
16.0
 40
16.0
 40
17.0
 40
17.0
 40
17.0
 40
18.0
 40
18.0
 40
18.0
 40
19.0
 40
19.0
 40
19.0
 40
20.0
 40
20.0
 40
20.0
 40
21.0
 40
21.0
 40
21.0
 40
22.0
 40
22.0
 40
22.0
 40
23.0
 40
23.0
 40
23.0
 40
24.0
 40
24.0
 40
24.0
 40
25.0
 40
25.0
 40
25.0
 40
26.0
 40
26.0
 40
26.0
 40
27.0
 40
27.0
 40
27.0
 40
28.0
 40
28.0
 40
28.0
 40
29.0
 40
29.0
 40
29.0
 40
30.0
 40
30.0
 40
30.0
 40
31.0
 40
31.0
 40
31.0
 40
32.0
 40
32.0
 40
32.0
 40
33.0
 40
33.0
 40
33.0
 40
34.0
 40
34.0
 40
34.0
 40
35.0
 40
35.0
 40
35.0
 40
36.0
 40
36.0
 40
36.0
 40
37.0
 40
37.0
 40
37.0
 40
38.0
 40
38.0
 40
38.0
 40
39.0
 40
39.0
 40
39.0
 40
40.0
 40
40.0
 40
40.0
 40
41.0
 40
41.0
 40
41.0
 40
42.0
 40
42.0
 40
42.0
 40
43.0
 40
43.0
 40
43.0
 40
44.0
 40
44.0
 40
44.0
 40
45.0
 40
45.0
 40
45.0
 40
46.0
 40
46.0
 40
46.0
 40
47.0
 40
47.0
 40
47.0
 40
48.0
 40
48.0
 40
48.0
 40
49.0
 40
49.0
 40
49.0
 40
50.0
 40
50.0
 40
50.0
 40
51.0
 40
51.0
 40
51.0
 40
52.0
 40
52.0
 40
52.0
 40
53.0
 40
53.0
 40
53.0
 40
54.0
 40
54.0
 40
54.0
 40
55.0
 40
55.0
 40
55.0
 40
56.0
 40
56.0
 40
56.0
 40
57.0
 40
57.0
 40
57.0
 40
58.0
 40
58.0
 40
58.0
 40
59.0
 40
59.0
 40
59.0
 40
59.0
 10
93.2752712440423
 20
-113.9599690470309
 30
0.0
 10
93.2752712440423
 20
-113.9599690470309
 30
0.0
 10
92.63861759836813
 20
-113.9599690470309
 30
0.0
 10
92.63861759836813
 20
-113.9599690470309
 30
0.0
 10
92.4246771687341
 20
-113.9599690470309
 30
0.0
 10
92.20901419135747
 20
-113.9644476711617
 30
0.0
 10
91.99541827127199
 20
-113.9771945244571
 30
0.0
 10
91.99541827127199
 20
-113.9771945244571
 30
0.0
 10
91.99541827127199
 20
-113.7697997762451
 30
0.0
 10
91.99541827127199
 20
-113.7697997762451
 30
0.0
 10
92.2176269300706
 20
-113.7825466295405
 30
0.0
 10
92.54112139613555
 20
-113.7866807441228
 30
0.0
 10
92.63861759836813
 20
-113.7866807441228
 30
0.0
 10
92.63861759836813
 20
-113.7866807441228
 30
0.0
 10
92.85841469032707
 20
-113.7866807441228
 30
0.0
 10
92.85841469032707
 20
-113.7866807441228
 30
0.0
 10
92.85841469032707
 20
-113.7866807441228
 30
0.0
 10
92.85841469032707
 20
-113.645087319679
 30
0.0
 10
92.85841469032707
 20
-113.645087319679
 30
0.0
 10
92.85841469032707
 20
-113.645087319679
 30
0.0
 10
92.69787324071443
 20
-113.645087319679
 30
0.0
 10
92.69787324071443
 20
-113.645087319679
 30
0.0
 10
92.53285316697095
 20
-113.645087319679
 30
0.0
 10
92.36783309322749
 20
-113.6492214342613
 30
0.0
 10
92.20281301948403
 20
-113.6640353448479
 30
0.0
 10
92.20281301948403
 20
-113.6640353448479
 30
0.0
 10
92.20281301948403
 20
-113.4545735393447
 30
0.0
 10
92.20281301948403
 20
-113.4545735393447
 30
0.0
 10
92.37403426510095
 20
-113.4693874499313
 30
0.0
 10
92.6217366304904
 20
-113.4735215645136
 30
0.0
 10
92.69787324071443
 20
-113.4735215645136
 30
0.0
 10
92.69787324071443
 20
-113.4735215645136
 30
0.0
 10
92.85841469032707
 20
-113.4735215645136
 30
0.0
 10
92.85841469032707
 20
-113.4735215645136
 30
0.0
 10
92.85428057574477
 20
-113.4015190688718
 30
0.0
 10
92.85428057574477
 20
-113.3953178969984
 30
0.0
 10
92.84807940387132
 20
-113.3422634265255
 30
0.0
 10
92.84807940387132
 20
-113.3422634265255
 30
0.0
 10
92.98760577102394
 20
-113.3570773371121
 30
0.0
 10
92.98760577102394
 20
-113.3570773371121
 30
0.0
 10
92.98760577102394
 20
-113.3570773371121
 30
0.0
 10
92.88804251150022
 20
-113.1858560914952
 30
0.0
 10
92.88804251150022
 20
-113.1858560914952
 30
0.0
 10
92.93455130055109
 20
-113.1920572633687
 30
0.0
 10
93.00862085348396
 20
-113.2006700020818
 30
0.0
 10
93.02550182136169
 20
-113.2006700020818
 30
0.0
 10
93.07648923454339
 20
-113.2006700020818
 30
0.0
 10
93.09337020242111
 20
-113.1796549196218
 30
0.0
 10
93.09337020242111
 20
-113.1224663345666
 30
0.0
 10
93.09337020242111
 20
-113.1224663345666
 30
0.0
 10
93.09337020242111
 20
-112.9850070247051
 30
0.0
 10
93.09337020242111
 20
-112.9850070247051
 30
0.0
 10
93.09337020242111
 20
-112.9850070247051
 30
0.0
 10
92.98760577102394
 20
-112.9850070247051
 30
0.0
 10
92.98760577102394
 20
-112.9850070247051
 30
0.0
 10
92.85428057574477
 20
-112.9850070247051
 30
0.0
 10
92.69787324071443
 20
-112.9850070247051
 30
0.0
 10
92.574883331891
 20
-112.997409368452
 30
0.0
 10
92.574883331891
 20
-112.997409368452
 30
0.0
 10
92.574883331891
 20
-112.8072400976663
 30
0.0
 10
92.574883331891
 20
-112.8072400976663
 30
0.0
 10
92.74231497247415
 20
-112.824121065544
 30
0.0
 10
92.97279186043737
 20
-112.8261881228351
 30
0.0
 10
92.98760577102394
 20
-112.8261881228351
 30
0.0
 10
92.98760577102394
 20
-112.8261881228351
 30
0.0
 10
93.09337020242111
 20
-112.8261881228351
 30
0.0
 10
93.09337020242111
 20
-112.8261881228351
 30
0.0
 10
93.09337020242111
 20
-112.8261881228351
 30
0.0
 10
93.09337020242111
 20
-112.6949299848471
 30
0.0
 10
93.09337020242111
 20
-112.6949299848471
 30
0.0
 10
93.09337020242111
 20
-112.6949299848471
 30
0.0
 10
93.05512964253484
 20
-112.6949299848471
 30
0.0
 10
93.05512964253484
 20
-112.6949299848471
 30
0.0
 10
93.0106879107751
 20
-112.6949299848471
 30
0.0
 10
92.88597545420906
 20
-112.6994086089779
 30
0.0
 10
92.79709199068962
 20
-112.7076768381425
 30
0.0
 10
92.79709199068962
 20
-112.7076768381425
 30
0.0
 10
92.79709199068962
 20
-112.6274061133362
 30
0.0
 10
92.79709199068962
 20
-112.6274061133362
 30
0.0
 10
92.74438202976529
 20
-112.665302163674
 30
0.0
 10
92.71888832317445
 20
-112.6801160742605
 30
0.0
 10
92.67651364870588
 20
-112.7035427235602
 30
0.0
 10
92.67651364870588
 20
-112.7035427235602
 30
0.0
 10
92.48841143521123
 20
-112.5743516428634
 30
0.0
 10
92.48841143521123
 20
-112.5743516428634
 30
0.0
 10
92.5666151027264
 20
-112.5405897071079
 30
0.0
 10
92.72302243775675
 20
-112.4771999501793
 30
0.0
 10
92.87977428233562
 20
-112.3331949588959
 30
0.0
 10
92.96211206443309
 20
-112.2549912913807
 30
0.0
 10
93.04031573194825
 20
-112.1702419424436
 30
0.0
 10
93.09337020242111
 20
-112.0689561351772
 30
0.0
 10
93.09337020242111
 20
-112.0689561351772
 30
0.0
 10
93.30489906521545
 20
-112.1302788348147
 30
0.0
 10
93.30489906521545
 20
-112.1302788348147
 30
0.0
 10
93.32384709038432
 20
-112.1364800066881
 30
0.0
 10
93.33452688638859
 20
-112.1450927454012
 30
0.0
 10
93.33452688638859
 20
-112.1578395986967
 30
0.0
 10
93.33452688638859
 20
-112.1747205665744
 30
0.0
 10
93.32178003309318
 20
-112.1809217384478
 30
0.0
 10
93.29628632650233
 20
-112.1936685917433
 30
0.0
 10
93.37690156085716
 20
-112.2911647939758
 30
0.0
 10
93.53985457730948
 20
-112.3883164866599
 30
0.0
 10
93.57361651306493
 20
-112.4072645118287
 30
0.0
 10
93.72382267622183
 20
-112.4961479753482
 30
0.0
 10
93.83785533678359
 20
-112.5237087392302
 30
0.0
 10
93.91640351384729
 20
-112.5426567643991
 30
0.0
 10
93.91640351384729
 20
-112.5426567643991
 30
0.0
 10
93.7978922291547
 20
-112.7118109527248
 30
0.0
 10
93.7978922291547
 20
-112.7118109527248
 30
0.0
 10
93.71314288021755
 20
-112.6825276411002
 30
0.0
 10
93.66249997658439
 20
-112.6632351063828
 30
0.0
 10
93.54398869189178
 20
-112.5977782921631
 30
0.0
 10
93.54398869189178
 20
-112.5977782921631
 30
0.0
 10
93.54398869189178
 20
-112.7076768381425
 30
0.0
 10
93.54398869189178
 20
-112.7076768381425
 30
0.0
 10
93.46130640024579
 20
-112.6994086089779
 30
0.0
 10
93.33452688638859
 20
-112.6949299848471
 30
0.0
 10
93.28147241591574
 20
-112.6949299848471
 30
0.0
 10
93.28147241591574
 20
-112.6949299848471
 30
0.0
 10
93.28147241591574
 20
-112.8261881228351
 30
0.0
 10
93.28147241591574
 20
-112.8261881228351
 30
0.0
 10
93.28147241591574
 20
-112.8261881228351
 30
0.0
 10
93.40205075789949
 20
-112.8261881228351
 30
0.0
 10
93.40205075789949
 20
-112.8261881228351
 30
0.0
 10
93.40446232473917
 20
-112.8261881228351
 30
0.0
 10
93.63700626999353
 20
-112.824121065544
 30
0.0
 10
93.81477319703242
 20
-112.8072400976663
 30
0.0
 10
93.81477319703242
 20
-112.8072400976663
 30
0.0
 10
93.81477319703242
 20
-112.997409368452
 30
0.0
 10
93.81477319703242
 20
-112.997409368452
 30
0.0
 10
93.68558211633555
 20
-112.9850070247051
 30
0.0
 10
93.52917478130522
 20
-112.9850070247051
 30
0.0
 10
93.40205075789949
 20
-112.9850070247051
 30
0.0
 10
93.40205075789949
 20
-112.9850070247051
 30
0.0
 10
93.28147241591574
 20
-112.9850070247051
 30
0.0
 10
93.28147241591574
 20
-112.9850070247051
 30
0.0
 10
93.28147241591574
 20
-112.9850070247051
 30
0.0
 10
93.28147241591574
 20
-113.2113497980861
 30
0.0
 10
93.28147241591574
 20
-113.2113497980861
 30
0.0
 10
93.28147241591574
 20
-113.3298610827786
 30
0.0
 10
93.25632321887342
 20
-113.3656900758253
 30
0.0
 10
93.09543725971226
 20
-113.3805039864118
 30
0.0
 10
93.09957137429456
 20
-113.3994520115807
 30
0.0
 10
93.09337020242111
 20
-113.410131807585
 30
0.0
 10
93.05512964253484
 20
-113.4332139473361
 30
0.0
 10
93.05306258524368
 20
-113.4525064820536
 30
0.0
 10
93.05306258524368
 20
-113.458707653927
 30
0.0
 10
93.05099552795254
 20
-113.4735215645136
 30
0.0
 10
93.05099552795254
 20
-113.4735215645136
 30
0.0
 10
93.188454837814
 20
-113.4735215645136
 30
0.0
 10
93.188454837814
 20
-113.4735215645136
 30
0.0
 10
93.35347491155747
 20
-113.4735215645136
 30
0.0
 10
93.52056204259209
 20
-113.4693874499313
 30
0.0
 10
93.68764917362671
 20
-113.4545735393447
 30
0.0
 10
93.68764917362671
 20
-113.4545735393447
 30
0.0
 10
93.68764917362671
 20
-113.6619682875567
 30
0.0
 10
93.68764917362671
 20
-113.6619682875567
 30
0.0
 10
93.47198619625006
 20
-113.645087319679
 30
0.0
 10
93.2077473725314
 20
-113.645087319679
 30
0.0
 10
93.188454837814
 20
-113.645087319679
 30
0.0
 10
93.188454837814
 20
-113.645087319679
 30
0.0
 10
93.04892847066138
 20
-113.645087319679
 30
0.0
 10
93.04892847066138
 20
-113.645087319679
 30
0.0
 10
93.04892847066138
 20
-113.645087319679
 30
0.0
 10
93.04892847066138
 20
-113.7866807441228
 30
0.0
 10
93.04892847066138
 20
-113.7866807441228
 30
0.0
 10
93.04892847066138
 20
-113.7866807441228
 30
0.0
 10
93.2752712440423
 20
-113.7866807441228
 30
0.0
 10
93.2752712440423
 20
-113.7866807441228
 30
0.0
 10
93.49093422141894
 20
-113.7866807441228
 30
0.0
 10
93.70900876563525
 20
-113.7825466295405
 30
0.0
 10
93.92467174301188
 20
-113.7697997762451
 30
0.0
 10
93.92467174301188
 20
-113.7697997762451
 30
0.0
 10
93.92467174301188
 20
-113.9771945244571
 30
0.0
 10
93.92467174301188
 20
-113.9771945244571
 30
0.0
 10
93.64320744186698
 20
-113.9599690470309
 30
0.0
 10
93.298697893342
 20
-113.9599690470309
 30
0.0
 10
93.2752712440423
 20
-113.9599690470309
 30
0.0
  0
SPLINE
  5
54
330
4E
100
AcDbEntity
  8
_U+30EC_U+30A4_U+30E4_U+30FC 1
370
     0
100
AcDbSpline
210
0.0
220
0.0
230
1.0
 70
    11
 71
     3
 72
    23
 73
    19
 74
     0
 42
0.0000000001
 43
0.0000000001
 12
1.0
 22
0.0
 32
0.0
 13
1.0
 23
0.0
 33
0.0
 40
0.0
 40
0.0
 40
0.0
 40
0.0
 40
1.0
 40
1.0
 40
1.0
 40
2.0
 40
2.0
 40
2.0
 40
3.0
 40
3.0
 40
3.0
 40
4.0
 40
4.0
 40
4.0
 40
5.0
 40
5.0
 40
5.0
 40
6.0
 40
6.0
 40
6.0
 40
6.0
 10
92.15630423043315
 20
-113.3319281400698
 30
0.0
 10
92.15630423043315
 20
-113.3529432225298
 30
0.0
 10
92.15837128772431
 20
-113.3911837824161
 30
0.0
 10
92.13287758113346
 20
-113.3911837824161
 30
0.0
 10
92.12219778512917
 20
-113.3911837824161
 30
0.0
 10
92.11392955596457
 20
-113.3846381009941
 30
0.0
 10
92.1032497599603
 20
-113.3677571331164
 30
0.0
 10
92.1032497599603
 20
-113.3677571331164
 30
0.0
 10
91.99955238585429
 20
-113.1858560914952
 30
0.0
 10
91.99955238585429
 20
-113.1858560914952
 30
0.0
 10
92.21555987277945
 20
-113.0566650107983
 30
0.0
 10
92.41227482498721
 20
-112.7796793337843
 30
0.0
 10
92.45878361403808
 20
-112.7076768381425
 30
0.0
 10
92.45878361403808
 20
-112.7076768381425
 30
0.0
 10
92.53078610967981
 20
-112.8875108224726
 30
0.0
 10
92.53078610967981
 20
-112.8875108224726
 30
0.0
 10
92.39746091440064
 20
-113.0842257746803
 30
0.0
 10
92.2217610446529
 20
-113.2681938735927
 30
0.0
 10
92.15630423043315
 20
-113.3319281400698
 30
0.0
  0
SPLINE
  5
55
330
4E
100
AcDbEntity
  8
_U+30EC_U+30A4_U+30E4_U+30FC 1
370
     0
100
AcDbSpline
210
0.0
220
0.0
230
1.0
 70
    11
 71
     3
 72
    17
 73
    13
 74
     0
 42
0.0000000001
 43
0.0000000001
 12
1.0
 22
0.0
 32
0.0
 13
1.0
 23
0.0
 33
0.0
 40
0.0
 40
0.0
 40
0.0
 40
0.0
 40
1.0
 40
1.0
 40
1.0
 40
2.0
 40
2.0
 40
2.0
 40
3.0
 40
3.0
 40
3.0
 40
4.0
 40
4.0
 40
4.0
 40
4.0
 10
92.41020776769606
 20
-112.4368923330019
 30
0.0
 10
92.3485405585101
 20
-112.3607557227779
 30
0.0
 10
92.21969398736175
 20
-112.2846191125539
 30
0.0
 10
92.11599661325573
 20
-112.2549912913807
 30
0.0
 10
92.11599661325573
 20
-112.2549912913807
 30
0.0
 10
92.21108124864863
 20
-112.0899712176372
 30
0.0
 10
92.21108124864863
 20
-112.0899712176372
 30
0.0
 10
92.31271156546349
 20
-112.1261447202324
 30
0.0
 10
92.41847599686066
 20
-112.182988795739
 30
0.0
 10
92.50735946038012
 20
-112.2636040300938
 30
0.0
 10
92.50735946038012
 20
-112.2636040300938
 30
0.0
 10
92.41020776769606
 20
-112.4368923330019
 30
0.0
 10
92.41020776769606
 20
-112.4368923330019
 30
0.0
  0
SPLINE
  5
56
330
4E
100
AcDbEntity
  8
_U+30EC_U+30A4_U+30E4_U+30FC 1
370
     0
100
AcDbSpline
210
0.0
220
0.0
230
1.0
 70
    11
 71
     3
 72
    23
 73
    19
 74
     0
 42
0.0000000001
 43
0.0000000001
 12
1.0
 22
0.0
 32
0.0
 13
1.0
 23
0.0
 33
0.0
 40
0.0
 40
0.0
 40
0.0
 40
0.0
 40
1.0
 40
1.0
 40
1.0
 40
2.0
 40
2.0
 40
2.0
 40
3.0
 40
3.0
 40
3.0
 40
4.0
 40
4.0
 40
4.0
 40
5.0
 40
5.0
 40
5.0
 40
6.0
 40
6.0
 40
6.0
 40
6.0
 10
92.86289331445789
 20
-113.1414143597355
 30
0.0
 10
92.84153372244934
 20
-113.1648410090352
 30
0.0
 10
92.74438202976529
 20
-113.2768066123058
 30
0.0
 10
92.60451115306415
 20
-113.3570773371121
 30
0.0
 10
92.60451115306415
 20
-113.3570773371121
 30
0.0
 10
92.43742402202953
 20
-113.2364989951284
 30
0.0
 10
92.43742402202953
 20
-113.2364989951284
 30
0.0
 10
92.58763018518643
 20
-113.1603623849044
 30
0.0
 10
92.68719344471015
 20
-113.0652777495115
 30
0.0
 10
92.73576929105218
 20
-113.0122232790386
 30
0.0
 10
92.73576929105218
 20
-113.0122232790386
 30
0.0
 10
92.90940210350877
 20
-113.0949055706846
 30
0.0
 10
92.90940210350877
 20
-113.0949055706846
 30
0.0
 10
92.91767033267337
 20
-113.0990396852669
 30
0.0
 10
92.9262830713865
 20
-113.1055853666889
 30
0.0
 10
92.9262830713865
 20
-113.1159206531446
 30
0.0
 10
92.9262830713865
 20
-113.1414143597355
 30
0.0
 10
92.89010956879136
 20
-113.1414143597355
 30
0.0
 10
92.86289331445789
 20
-113.1414143597355
 30
0.0
  0
SPLINE
  5
57
330
4E
100
AcDbEntity
  8
_U+30EC_U+30A4_U+30E4_U+30FC 1
370
     0
100
AcDbSpline
210
0.0
220
0.0
230
1.0
 70
    11
 71
     3
 72
    20
 73
    16
 74
     0
 42
0.0000000001
 43
0.0000000001
 12
1.0
 22
0.0
 32
0.0
 13
1.0
 23
0.0
 33
0.0
 40
0.0
 40
0.0
 40
0.0
 40
0.0
 40
1.0
 40
1.0
 40
1.0
 40
2.0
 40
2.0
 40
2.0
 40
3.0
 40
3.0
 40
3.0
 40
4.0
 40
4.0
 40
4.0
 40
5.0
 40
5.0
 40
5.0
 40
5.0
 10
93.160894073932
 20
-112.2994330231404
 30
0.0
 10
93.12299802359425
 20
-112.3480088694824
 30
0.0
 10
93.0616753239568
 20
-112.4265570465461
 30
0.0
 10
92.9221489568042
 20
-112.5364555925256
 30
0.0
 10
93.0024196816105
 20
-112.5405897071079
 30
0.0
 10
93.03204750278366
 20
-112.5405897071079
 30
0.0
 10
93.05512964253484
 20
-112.5405897071079
 30
0.0
 10
93.05512964253484
 20
-112.5405897071079
 30
0.0
 10
93.28388398275543
 20
-112.5405897071079
 30
0.0
 10
93.28388398275543
 20
-112.5405897071079
 30
0.0
 10
93.31557886121972
 20
-112.5405897071079
 30
0.0
 10
93.36415470756174
 20
-112.5385226498168
 30
0.0
 10
93.43822426049462
 20
-112.5364555925256
 30
0.0
 10
93.32591414767548
 20
-112.4623860395927
 30
0.0
 10
93.27733830133344
 20
-112.4158772505419
 30
0.0
 10
93.160894073932
 20
-112.2994330231404
 30
0.0
  0
SPLINE
  5
58
330
4E
100
AcDbEntity
  8
_U+30EC_U+30A4_U+30E4_U+30FC 1
370
     0
100
AcDbSpline
210
0.0
220
0.0
230
1.0
 70
    11
 71
     3
 72
    17
 73
    13
 74
     0
 42
0.0000000001
 43
0.0000000001
 12
1.0
 22
0.0
 32
0.0
 13
1.0
 23
0.0
 33
0.0
 40
0.0
 40
0.0
 40
0.0
 40
0.0
 40
1.0
 40
1.0
 40
1.0
 40
2.0
 40
2.0
 40
2.0
 40
3.0
 40
3.0
 40
3.0
 40
4.0
 40
4.0
 40
4.0
 40
4.0
 10
93.72175561893067
 20
-113.355010279821
 30
0.0
 10
93.58636336636036
 20
-113.2430446765504
 30
0.0
 10
93.48059893496318
 20
-113.1796549196218
 30
0.0
 10
93.3620876502706
 20
-113.1159206531446
 30
0.0
 10
93.3620876502706
 20
-113.1159206531446
 30
0.0
 10
93.48886716412778
 20
-113.003955049874
 30
0.0
 10
93.48886716412778
 20
-113.003955049874
 30
0.0
 10
93.62012530211581
 20
-113.0504638389249
 30
0.0
 10
93.73002384809527
 20
-113.10765242398
 30
0.0
 10
93.85508081420984
 20
-113.2092827407949
 30
0.0
 10
93.85508081420984
 20
-113.2092827407949
 30
0.0
 10
93.72175561893067
 20
-113.355010279821
 30
0.0
 10
93.72175561893067
 20
-113.355010279821
 30
0.0
  0
HATCH
  5
59
330
4E
100
AcDbEntity
  8
_U+30EC_U+30A4_U+30E4_U+30FC 1
 62
   179
420
  2234388
100
AcDbHatch
 10
0.0
 20
0.0
 30
0.0
210
0.0
220
0.0
230
1.0
  2
SOLID
 70
     1
 71
     0
 91
        7
 92
        1
 93
        1
 72
     4
 94
        3
 73
     0
 74
     1
 95
       17
 96
       13
 40
0.0
 40
0.0
 40
0.0
 40
0.0
 40
1.0
 40
1.0
 40
1.0
 40
2.0
 40
2.0
 40
2.0
 40
3.0
 40
3.0
 40
3.0
 40
4.0
 40
4.0
 40
4.0
 40
4.0
 10
92.23037378336602
 20
-112.7817463910754
 10
92.12460935196886
 20
-112.6759819596782
 10
92.043994117614
 20
-112.6380859093405
 10
91.95097653951225
 20
-112.6060465213277
 10
91.95097653951225
 20
-112.6060465213277
 10
92.06087508549173
 20
-112.4410264475842
 10
92.06087508549173
 20
-112.4410264475842
 10
92.15837128772431
 20
-112.4834011220528
 10
92.27894962970804
 20
-112.5619492991165
 10
92.33165959063237
 20
-112.6167263173319
 10
92.33165959063237
 20
-112.6167263173319
 10
92.23037378336602
 20
-112.7817463910754
 10
92.23037378336602
 20
-112.7817463910754
 97
        0
 97
        0
 92
        1
 93
        1
 72
     4
 94
        3
 73
     0
 74
     1
 95
      182
 96
      178
 40
0.0
 40
0.0
 40
0.0
 40
0.0
 40
1.0
 40
1.0
 40
1.0
 40
2.0
 40
2.0
 40
2.0
 40
3.0
 40
3.0
 40
3.0
 40
4.0
 40
4.0
 40
4.0
 40
5.0
 40
5.0
 40
5.0
 40
6.0
 40
6.0
 40
6.0
 40
7.0
 40
7.0
 40
7.0
 40
8.0
 40
8.0
 40
8.0
 40
9.0
 40
9.0
 40
9.0
 40
10.0
 40
10.0
 40
10.0
 40
11.0
 40
11.0
 40
11.0
 40
12.0
 40
12.0
 40
12.0
 40
13.0
 40
13.0
 40
13.0
 40
14.0
 40
14.0
 40
14.0
 40
15.0
 40
15.0
 40
15.0
 40
16.0
 40
16.0
 40
16.0
 40
17.0
 40
17.0
 40
17.0
 40
18.0
 40
18.0
 40
18.0
 40
19.0
 40
19.0
 40
19.0
 40
20.0
 40
20.0
 40
20.0
 40
21.0
 40
21.0
 40
21.0
 40
22.0
 40
22.0
 40
22.0
 40
23.0
 40
23.0
 40
23.0
 40
24.0
 40
24.0
 40
24.0
 40
25.0
 40
25.0
 40
25.0
 40
26.0
 40
26.0
 40
26.0
 40
27.0
 40
27.0
 40
27.0
 40
28.0
 40
28.0
 40
28.0
 40
29.0
 40
29.0
 40
29.0
 40
30.0
 40
30.0
 40
30.0
 40
31.0
 40
31.0
 40
31.0
 40
32.0
 40
32.0
 40
32.0
 40
33.0
 40
33.0
 40
33.0
 40
34.0
 40
34.0
 40
34.0
 40
35.0
 40
35.0
 40
35.0
 40
36.0
 40
36.0
 40
36.0
 40
37.0
 40
37.0
 40
37.0
 40
38.0
 40
38.0
 40
38.0
 40
39.0
 40
39.0
 40
39.0
 40
40.0
 40
40.0
 40
40.0
 40
41.0
 40
41.0
 40
41.0
 40
42.0
 40
42.0
 40
42.0
 40
43.0
 40
43.0
 40
43.0
 40
44.0
 40
44.0
 40
44.0
 40
45.0
 40
45.0
 40
45.0
 40
46.0
 40
46.0
 40
46.0
 40
47.0
 40
47.0
 40
47.0
 40
48.0
 40
48.0
 40
48.0
 40
49.0
 40
49.0
 40
49.0
 40
50.0
 40
50.0
 40
50.0
 40
51.0
 40
51.0
 40
51.0
 40
52.0
 40
52.0
 40
52.0
 40
53.0
 40
53.0
 40
53.0
 40
54.0
 40
54.0
 40
54.0
 40
55.0
 40
55.0
 40
55.0
 40
56.0
 40
56.0
 40
56.0
 40
57.0
 40
57.0
 40
57.0
 40
58.0
 40
58.0
 40
58.0
 40
59.0
 40
59.0
 40
59.0
 40
59.0
 10
93.2752712440423
 20
-113.9599690470309
 10
93.2752712440423
 20
-113.9599690470309
 10
92.63861759836813
 20
-113.9599690470309
 10
92.63861759836813
 20
-113.9599690470309
 10
92.4246771687341
 20
-113.9599690470309
 10
92.20901419135747
 20
-113.9644476711617
 10
91.99541827127199
 20
-113.9771945244571
 10
91.99541827127199
 20
-113.9771945244571
 10
91.99541827127199
 20
-113.7697997762451
 10
91.99541827127199
 20
-113.7697997762451
 10
92.2176269300706
 20
-113.7825466295405
 10
92.54112139613555
 20
-113.7866807441228
 10
92.63861759836813
 20
-113.7866807441228
 10
92.63861759836813
 20
-113.7866807441228
 10
92.85841469032707
 20
-113.7866807441228
 10
92.85841469032707
 20
-113.7866807441228
 10
92.85841469032707
 20
-113.7866807441228
 10
92.85841469032707
 20
-113.645087319679
 10
92.85841469032707
 20
-113.645087319679
 10
92.85841469032707
 20
-113.645087319679
 10
92.69787324071443
 20
-113.645087319679
 10
92.69787324071443
 20
-113.645087319679
 10
92.53285316697095
 20
-113.645087319679
 10
92.36783309322749
 20
-113.6492214342613
 10
92.20281301948403
 20
-113.6640353448479
 10
92.20281301948403
 20
-113.6640353448479
 10
92.20281301948403
 20
-113.4545735393447
 10
92.20281301948403
 20
-113.4545735393447
 10
92.37403426510095
 20
-113.4693874499313
 10
92.6217366304904
 20
-113.4735215645136
 10
92.69787324071443
 20
-113.4735215645136
 10
92.69787324071443
 20
-113.4735215645136
 10
92.85841469032707
 20
-113.4735215645136
 10
92.85841469032707
 20
-113.4735215645136
 10
92.85428057574477
 20
-113.4015190688718
 10
92.85428057574477
 20
-113.3953178969984
 10
92.84807940387132
 20
-113.3422634265255
 10
92.84807940387132
 20
-113.3422634265255
 10
92.98760577102394
 20
-113.3570773371121
 10
92.98760577102394
 20
-113.3570773371121
 10
92.98760577102394
 20
-113.3570773371121
 10
92.88804251150022
 20
-113.1858560914952
 10
92.88804251150022
 20
-113.1858560914952
 10
92.93455130055109
 20
-113.1920572633687
 10
93.00862085348396
 20
-113.2006700020818
 10
93.02550182136169
 20
-113.2006700020818
 10
93.07648923454339
 20
-113.2006700020818
 10
93.09337020242111
 20
-113.1796549196218
 10
93.09337020242111
 20
-113.1224663345666
 10
93.09337020242111
 20
-113.1224663345666
 10
93.09337020242111
 20
-112.9850070247051
 10
93.09337020242111
 20
-112.9850070247051
 10
93.09337020242111
 20
-112.9850070247051
 10
92.98760577102394
 20
-112.9850070247051
 10
92.98760577102394
 20
-112.9850070247051
 10
92.85428057574477
 20
-112.9850070247051
 10
92.69787324071443
 20
-112.9850070247051
 10
92.574883331891
 20
-112.997409368452
 10
92.574883331891
 20
-112.997409368452
 10
92.574883331891
 20
-112.8072400976663
 10
92.574883331891
 20
-112.8072400976663
 10
92.74231497247415
 20
-112.824121065544
 10
92.97279186043737
 20
-112.8261881228351
 10
92.98760577102394
 20
-112.8261881228351
 10
92.98760577102394
 20
-112.8261881228351
 10
93.09337020242111
 20
-112.8261881228351
 10
93.09337020242111
 20
-112.8261881228351
 10
93.09337020242111
 20
-112.8261881228351
 10
93.09337020242111
 20
-112.6949299848471
 10
93.09337020242111
 20
-112.6949299848471
 10
93.09337020242111
 20
-112.6949299848471
 10
93.05512964253484
 20
-112.6949299848471
 10
93.05512964253484
 20
-112.6949299848471
 10
93.0106879107751
 20
-112.6949299848471
 10
92.88597545420906
 20
-112.6994086089779
 10
92.79709199068962
 20
-112.7076768381425
 10
92.79709199068962
 20
-112.7076768381425
 10
92.79709199068962
 20
-112.6274061133362
 10
92.79709199068962
 20
-112.6274061133362
 10
92.74438202976529
 20
-112.665302163674
 10
92.71888832317445
 20
-112.6801160742605
 10
92.67651364870588
 20
-112.7035427235602
 10
92.67651364870588
 20
-112.7035427235602
 10
92.48841143521123
 20
-112.5743516428634
 10
92.48841143521123
 20
-112.5743516428634
 10
92.5666151027264
 20
-112.5405897071079
 10
92.72302243775675
 20
-112.4771999501793
 10
92.87977428233562
 20
-112.3331949588959
 10
92.96211206443309
 20
-112.2549912913807
 10
93.04031573194825
 20
-112.1702419424436
 10
93.09337020242111
 20
-112.0689561351772
 10
93.09337020242111
 20
-112.0689561351772
 10
93.30489906521545
 20
-112.1302788348147
 10
93.30489906521545
 20
-112.1302788348147
 10
93.32384709038432
 20
-112.1364800066881
 10
93.33452688638859
 20
-112.1450927454012
 10
93.33452688638859
 20
-112.1578395986967
 10
93.33452688638859
 20
-112.1747205665744
 10
93.32178003309318
 20
-112.1809217384478
 10
93.29628632650233
 20
-112.1936685917433
 10
93.37690156085716
 20
-112.2911647939758
 10
93.53985457730948
 20
-112.3883164866599
 10
93.57361651306493
 20
-112.4072645118287
 10
93.72382267622183
 20
-112.4961479753482
 10
93.83785533678359
 20
-112.5237087392302
 10
93.91640351384729
 20
-112.5426567643991
 10
93.91640351384729
 20
-112.5426567643991
 10
93.7978922291547
 20
-112.7118109527248
 10
93.7978922291547
 20
-112.7118109527248
 10
93.71314288021755
 20
-112.6825276411002
 10
93.66249997658439
 20
-112.6632351063828
 10
93.54398869189178
 20
-112.5977782921631
 10
93.54398869189178
 20
-112.5977782921631
 10
93.54398869189178
 20
-112.7076768381425
 10
93.54398869189178
 20
-112.7076768381425
 10
93.46130640024579
 20
-112.6994086089779
 10
93.33452688638859
 20
-112.6949299848471
 10
93.28147241591574
 20
-112.6949299848471
 10
93.28147241591574
 20
-112.6949299848471
 10
93.28147241591574
 20
-112.8261881228351
 10
93.28147241591574
 20
-112.8261881228351
 10
93.28147241591574
 20
-112.8261881228351
 10
93.40205075789949
 20
-112.8261881228351
 10
93.40205075789949
 20
-112.8261881228351
 10
93.40446232473917
 20
-112.8261881228351
 10
93.63700626999353
 20
-112.824121065544
 10
93.81477319703242
 20
-112.8072400976663
 10
93.81477319703242
 20
-112.8072400976663
 10
93.81477319703242
 20
-112.997409368452
 10
93.81477319703242
 20
-112.997409368452
 10
93.68558211633555
 20
-112.9850070247051
 10
93.52917478130522
 20
-112.9850070247051
 10
93.40205075789949
 20
-112.9850070247051
 10
93.40205075789949
 20
-112.9850070247051
 10
93.28147241591574
 20
-112.9850070247051
 10
93.28147241591574
 20
-112.9850070247051
 10
93.28147241591574
 20
-112.9850070247051
 10
93.28147241591574
 20
-113.2113497980861
 10
93.28147241591574
 20
-113.2113497980861
 10
93.28147241591574
 20
-113.3298610827786
 10
93.25632321887342
 20
-113.3656900758253
 10
93.09543725971226
 20
-113.3805039864118
 10
93.09957137429456
 20
-113.3994520115807
 10
93.09337020242111
 20
-113.410131807585
 10
93.05512964253484
 20
-113.4332139473361
 10
93.05306258524368
 20
-113.4525064820536
 10
93.05306258524368
 20
-113.458707653927
 10
93.05099552795254
 20
-113.4735215645136
 10
93.05099552795254
 20
-113.4735215645136
 10
93.188454837814
 20
-113.4735215645136
 10
93.188454837814
 20
-113.4735215645136
 10
93.35347491155747
 20
-113.4735215645136
 10
93.52056204259209
 20
-113.4693874499313
 10
93.68764917362671
 20
-113.4545735393447
 10
93.68764917362671
 20
-113.4545735393447
 10
93.68764917362671
 20
-113.6619682875567
 10
93.68764917362671
 20
-113.6619682875567
 10
93.47198619625006
 20
-113.645087319679
 10
93.2077473725314
 20
-113.645087319679
 10
93.188454837814
 20
-113.645087319679
 10
93.188454837814
 20
-113.645087319679
 10
93.04892847066138
 20
-113.645087319679
 10
93.04892847066138
 20
-113.645087319679
 10
93.04892847066138
 20
-113.645087319679
 10
93.04892847066138
 20
-113.7866807441228
 10
93.04892847066138
 20
-113.7866807441228
 10
93.04892847066138
 20
-113.7866807441228
 10
93.2752712440423
 20
-113.7866807441228
 10
93.2752712440423
 20
-113.7866807441228
 10
93.49093422141894
 20
-113.7866807441228
 10
93.70900876563525
 20
-113.7825466295405
 10
93.92467174301188
 20
-113.7697997762451
 10
93.92467174301188
 20
-113.7697997762451
 10
93.92467174301188
 20
-113.9771945244571
 10
93.92467174301188
 20
-113.9771945244571
 10
93.64320744186698
 20
-113.9599690470309
 10
93.298697893342
 20
-113.9599690470309
 10
93.2752712440423
 20
-113.9599690470309
 97
        0
 97
        0
 92
        1
 93
        1
 72
     4
 94
        3
 73
     0
 74
     1
 95
       23
 96
       19
 40
0.0
 40
0.0
 40
0.0
 40
0.0
 40
1.0
 40
1.0
 40
1.0
 40
2.0
 40
2.0
 40
2.0
 40
3.0
 40
3.0
 40
3.0
 40
4.0
 40
4.0
 40
4.0
 40
5.0
 40
5.0
 40
5.0
 40
6.0
 40
6.0
 40
6.0
 40
6.0
 10
92.15630423043315
 20
-113.3319281400698
 10
92.15630423043315
 20
-113.3529432225298
 10
92.15837128772431
 20
-113.3911837824161
 10
92.13287758113346
 20
-113.3911837824161
 10
92.12219778512917
 20
-113.3911837824161
 10
92.11392955596457
 20
-113.3846381009941
 10
92.1032497599603
 20
-113.3677571331164
 10
92.1032497599603
 20
-113.3677571331164
 10
91.99955238585429
 20
-113.1858560914952
 10
91.99955238585429
 20
-113.1858560914952
 10
92.21555987277945
 20
-113.0566650107983
 10
92.41227482498721
 20
-112.7796793337843
 10
92.45878361403808
 20
-112.7076768381425
 10
92.45878361403808
 20
-112.7076768381425
 10
92.53078610967981
 20
-112.8875108224726
 10
92.53078610967981
 20
-112.8875108224726
 10
92.39746091440064
 20
-113.0842257746803
 10
92.2217610446529
 20
-113.2681938735927
 10
92.15630423043315
 20
-113.3319281400698
 97
        0
 97
        0
 92
        1
 93
        1
 72
     4
 94
        3
 73
     0
 74
     1
 95
       17
 96
       13
 40
0.0
 40
0.0
 40
0.0
 40
0.0
 40
1.0
 40
1.0
 40
1.0
 40
2.0
 40
2.0
 40
2.0
 40
3.0
 40
3.0
 40
3.0
 40
4.0
 40
4.0
 40
4.0
 40
4.0
 10
92.41020776769606
 20
-112.4368923330019
 10
92.3485405585101
 20
-112.3607557227779
 10
92.21969398736175
 20
-112.2846191125539
 10
92.11599661325573
 20
-112.2549912913807
 10
92.11599661325573
 20
-112.2549912913807
 10
92.21108124864863
 20
-112.0899712176372
 10
92.21108124864863
 20
-112.0899712176372
 10
92.31271156546349
 20
-112.1261447202324
 10
92.41847599686066
 20
-112.182988795739
 10
92.50735946038012
 20
-112.2636040300938
 10
92.50735946038012
 20
-112.2636040300938
 10
92.41020776769606
 20
-112.4368923330019
 10
92.41020776769606
 20
-112.4368923330019
 97
        0
 97
        0
 92
        1
 93
        1
 72
     4
 94
        3
 73
     0
 74
     1
 95
       23
 96
       19
 40
0.0
 40
0.0
 40
0.0
 40
0.0
 40
1.0
 40
1.0
 40
1.0
 40
2.0
 40
2.0
 40
2.0
 40
3.0
 40
3.0
 40
3.0
 40
4.0
 40
4.0
 40
4.0
 40
5.0
 40
5.0
 40
5.0
 40
6.0
 40
6.0
 40
6.0
 40
6.0
 10
92.86289331445789
 20
-113.1414143597355
 10
92.84153372244934
 20
-113.1648410090352
 10
92.74438202976529
 20
-113.2768066123058
 10
92.60451115306415
 20
-113.3570773371121
 10
92.60451115306415
 20
-113.3570773371121
 10
92.43742402202953
 20
-113.2364989951284
 10
92.43742402202953
 20
-113.2364989951284
 10
92.58763018518643
 20
-113.1603623849044
 10
92.68719344471015
 20
-113.0652777495115
 10
92.73576929105218
 20
-113.0122232790386
 10
92.73576929105218
 20
-113.0122232790386
 10
92.90940210350877
 20
-113.0949055706846
 10
92.90940210350877
 20
-113.0949055706846
 10
92.91767033267337
 20
-113.0990396852669
 10
92.9262830713865
 20
-113.1055853666889
 10
92.9262830713865
 20
-113.1159206531446
 10
92.9262830713865
 20
-113.1414143597355
 10
92.89010956879136
 20
-113.1414143597355
 10
92.86289331445789
 20
-113.1414143597355
 97
        0
 97
        0
 92
        1
 93
        1
 72
     4
 94
        3
 73
     0
 74
     1
 95
       20
 96
       16
 40
0.0
 40
0.0
 40
0.0
 40
0.0
 40
1.0
 40
1.0
 40
1.0
 40
2.0
 40
2.0
 40
2.0
 40
3.0
 40
3.0
 40
3.0
 40
4.0
 40
4.0
 40
4.0
 40
5.0
 40
5.0
 40
5.0
 40
5.0
 10
93.160894073932
 20
-112.2994330231404
 10
93.12299802359425
 20
-112.3480088694824
 10
93.0616753239568
 20
-112.4265570465461
 10
92.9221489568042
 20
-112.5364555925256
 10
93.0024196816105
 20
-112.5405897071079
 10
93.03204750278366
 20
-112.5405897071079
 10
93.05512964253484
 20
-112.5405897071079
 10
93.05512964253484
 20
-112.5405897071079
 10
93.28388398275543
 20
-112.5405897071079
 10
93.28388398275543
 20
-112.5405897071079
 10
93.31557886121972
 20
-112.5405897071079
 10
93.36415470756174
 20
-112.5385226498168
 10
93.43822426049462
 20
-112.5364555925256
 10
93.32591414767548
 20
-112.4623860395927
 10
93.27733830133344
 20
-112.4158772505419
 10
93.160894073932
 20
-112.2994330231404
 97
        0
 97
        0
 92
        1
 93
        1
 72
     4
 94
        3
 73
     0
 74
     1
 95
       17
 96
       13
 40
0.0
 40
0.0
 40
0.0
 40
0.0
 40
1.0
 40
1.0
 40
1.0
 40
2.0
 40
2.0
 40
2.0
 40
3.0
 40
3.0
 40
3.0
 40
4.0
 40
4.0
 40
4.0
 40
4.0
 10
93.72175561893067
 20
-113.355010279821
 10
93.58636336636036
 20
-113.2430446765504
 10
93.48059893496318
 20
-113.1796549196218
 10
93.3620876502706
 20
-113.1159206531446
 10
93.3620876502706
 20
-113.1159206531446
 10
93.48886716412778
 20
-113.003955049874
 10
93.48886716412778
 20
-113.003955049874
 10
93.62012530211581
 20
-113.0504638389249
 10
93.73002384809527
 20
-113.10765242398
 10
93.85508081420984
 20
-113.2092827407949
 10
93.85508081420984
 20
-113.2092827407949
 10
93.72175561893067
 20
-113.355010279821
 10
93.72175561893067
 20
-113.355010279821
 97
        0
 97
        0
 75
     2
 76
     1
 98
        0
  0
SPLINE
  5
5A
330
4E
100
AcDbEntity
  8
_U+30EC_U+30A4_U+30E4_U+30FC 1
370
     0
100
AcDbSpline
210
0.0
220
0.0
230
1.0
 70
    11
 71
     3
 72
   113
 73
   109
 74
     0
 42
0.0000000001
 43
0.0000000001
 12
1.0
 22
0.0
 32
0.0
 13
1.0
 23
0.0
 33
0.0
 40
0.0
 40
0.0
 40
0.0
 40
0.0
 40
1.0
 40
1.0
 40
1.0
 40
2.0
 40
2.0
 40
2.0
 40
3.0
 40
3.0
 40
3.0
 40
4.0
 40
4.0
 40
4.0
 40
5.0
 40
5.0
 40
5.0
 40
6.0
 40
6.0
 40
6.0
 40
7.0
 40
7.0
 40
7.0
 40
8.0
 40
8.0
 40
8.0
 40
9.0
 40
9.0
 40
9.0
 40
10.0
 40
10.0
 40
10.0
 40
11.0
 40
11.0
 40
11.0
 40
12.0
 40
12.0
 40
12.0
 40
13.0
 40
13.0
 40
13.0
 40
14.0
 40
14.0
 40
14.0
 40
15.0
 40
15.0
 40
15.0
 40
16.0
 40
16.0
 40
16.0
 40
17.0
 40
17.0
 40
17.0
 40
18.0
 40
18.0
 40
18.0
 40
19.0
 40
19.0
 40
19.0
 40
20.0
 40
20.0
 40
20.0
 40
21.0
 40
21.0
 40
21.0
 40
22.0
 40
22.0
 40
22.0
 40
23.0
 40
23.0
 40
23.0
 40
24.0
 40
24.0
 40
24.0
 40
25.0
 40
25.0
 40
25.0
 40
26.0
 40
26.0
 40
26.0
 40
27.0
 40
27.0
 40
27.0
 40
28.0
 40
28.0
 40
28.0
 40
29.0
 40
29.0
 40
29.0
 40
30.0
 40
30.0
 40
30.0
 40
31.0
 40
31.0
 40
31.0
 40
32.0
 40
32.0
 40
32.0
 40
33.0
 40
33.0
 40
33.0
 40
34.0
 40
34.0
 40
34.0
 40
35.0
 40
35.0
 40
35.0
 40
36.0
 40
36.0
 40
36.0
 40
36.0
 10
95.60139971568299
 20
-113.3319281400698
 30
0.0
 10
95.60139971568299
 20
-113.3319281400698
 30
0.0
 10
95.7009629752067
 20
-113.431146890045
 30
0.0
 10
95.7009629752067
 20
-113.431146890045
 30
0.0
 10
95.71129826166246
 20
-113.4418266860493
 30
0.0
 10
95.72197805766673
 20
-113.4545735393447
 30
0.0
 10
95.72197805766673
 20
-113.4693874499313
 30
0.0
 10
95.72197805766673
 20
-113.4714545072224
 30
0.0
 10
95.72197805766673
 20
-113.5010823283956
 30
0.0
 10
95.68373749778046
 20
-113.5010823283956
 30
0.0
 10
95.67546926861586
 20
-113.5010823283956
 30
0.0
 10
95.63516165143844
 20
-113.4969482138133
 30
0.0
 10
95.62896047956498
 20
-113.4969482138133
 30
0.0
 10
95.58865286238756
 20
-113.5286430922776
 30
0.0
 10
95.54214407333669
 20
-113.562405028033
 30
0.0
 10
95.44258081381297
 20
-113.6195936130882
 30
0.0
 10
95.58865286238756
 20
-113.7274251017765
 30
0.0
 10
95.74747176425758
 20
-113.7846136868316
 30
0.0
 10
96.02032332668936
 20
-113.8225097371694
 30
0.0
 10
96.02032332668936
 20
-113.8225097371694
 30
0.0
 10
95.87011716353247
 20
-113.9982096069171
 30
0.0
 10
95.87011716353247
 20
-113.9982096069171
 30
0.0
 10
95.60760088755644
 20
-113.9262071112754
 30
0.0
 10
95.45119355252609
 20
-113.837323647756
 30
0.0
 10
95.37505694230207
 20
-113.7846136868316
 30
0.0
 10
95.22485077914519
 20
-113.6829833700168
 30
0.0
 10
95.08084578786173
 20
-113.5200303535644
 30
0.0
 10
95.00470917763772
 20
-113.355010279821
 30
0.0
 10
94.93718530612682
 20
-113.4208116035892
 30
0.0
 10
94.86311575319395
 20
-113.4735215645136
 30
0.0
 10
94.78491208567877
 20
-113.5220974108556
 30
0.0
 10
94.78491208567877
 20
-113.5220974108556
 30
0.0
 10
94.78491208567877
 20
-113.7739338908274
 30
0.0
 10
94.78491208567877
 20
-113.7739338908274
 30
0.0
 10
94.94752059258256
 20
-113.7484401842365
 30
0.0
 10
95.13390025833459
 20
-113.7039984524768
 30
0.0
 10
95.19729001526318
 20
-113.6891845418902
 30
0.0
 10
95.19729001526318
 20
-113.6891845418902
 30
0.0
 10
95.16766219409003
 20
-113.8586832397645
 30
0.0
 10
95.16766219409003
 20
-113.8586832397645
 30
0.0
 10
95.16559513679888
 20
-113.8586832397645
 30
0.0
 10
95.14664711163
 20
-113.8648844116379
 30
0.0
 10
95.14458005433886
 20
-113.8648844116379
 30
0.0
 10
94.94545353529142
 20
-113.9031249715242
 30
0.0
 10
94.6281602410999
 20
-113.968581785744
 30
0.0
 10
94.43144528889215
 20
-114.0044107787906
 30
0.0
 10
94.42076549288787
 20
-114.0216362562168
 30
0.0
 10
94.3976833531367
 20
-114.0533311346811
 30
0.0
 10
94.37425670383699
 20
-114.0533311346811
 30
0.0
 10
94.34704044950352
 20
-114.0533311346811
 30
0.0
 10
94.3425618253727
 20
-114.0340385999637
 30
0.0
 10
94.34049476808154
 20
-114.0150905747948
 30
0.0
 10
94.34049476808154
 20
-114.0150905747948
 30
0.0
 10
94.3150010614907
 20
-113.8418022718868
 30
0.0
 10
94.3150010614907
 20
-113.8418022718868
 30
0.0
 10
94.38907061442357
 20
-113.8331895331737
 30
0.0
 10
94.49724661266042
 20
-113.8204426798782
 30
0.0
 10
94.60507810134874
 20
-113.7994275974182
 30
0.0
 10
94.60507810134874
 20
-113.7994275974182
 30
0.0
 10
94.60507810134874
 20
-113.6216606703793
 30
0.0
 10
94.60507810134874
 20
-113.6216606703793
 30
0.0
 10
94.46107311006529
 20
-113.693663166021
 30
0.0
 10
94.36598847467239
 20
-113.7232909871942
 30
0.0
 10
94.20096840092893
 20
-113.7529188083673
 30
0.0
 10
94.20096840092893
 20
-113.7529188083673
 30
0.0
 10
94.08039005894518
 20
-113.583420110493
 30
0.0
 10
94.08039005894518
 20
-113.583420110493
 30
0.0
 10
94.3976833531367
 20
-113.5562038561596
 30
0.0
 10
94.59026419076216
 20
-113.4628417685093
 30
0.0
 10
94.76803111780106
 20
-113.3298610827786
 30
0.0
 10
94.62195906922646
 20
-113.3298610827786
 30
0.0
 10
94.32154674291267
 20
-113.3339951973609
 30
0.0
 10
94.1248317907049
 20
-113.3401963692344
 30
0.0
 10
94.1248317907049
 20
-113.3401963692344
 30
0.0
 10
94.1248317907049
 20
-113.1624294421955
 30
0.0
 10
94.1248317907049
 20
-113.1624294421955
 30
0.0
 10
94.2791720684441
 20
-113.1689751236175
 30
0.0
 10
94.57545028017559
 20
-113.1751762954909
 30
0.0
 10
94.75941837908793
 20
-113.1751762954909
 30
0.0
 10
94.75941837908793
 20
-113.1751762954909
 30
0.0
 10
94.97094724188227
 20
-113.1751762954909
 30
0.0
 10
94.97094724188227
 20
-113.1751762954909
 30
0.0
 10
94.97094724188227
 20
-113.080091660098
 30
0.0
 10
94.96888018459111
 20
-113.0294487564649
 30
0.0
 10
94.96233450316915
 20
-112.9825954578655
 30
0.0
 10
94.96233450316915
 20
-112.9825954578655
 30
0.0
 10
95.17834199009431
 20
-112.9998209352917
 30
0.0
 10
95.17834199009431
 20
-112.9998209352917
 30
0.0
 10
95.22691783643633
 20
-113.003955049874
 30
0.0
 10
95.23553057514945
 20
-113.0187689604606
 30
0.0
 10
95.23553057514945
 20
-113.0335828710472
 30
0.0
 10
95.23553057514945
 20
-113.059076577638
 30
0.0
 10
95.2183050977232
 20
-113.0673448068026
 30
0.0
 10
95.16766219409003
 20
-113.0928385133935
 30
0.0
 10
95.16559513679888
 20
-113.1183322199843
 30
0.0
 10
95.16559513679888
 20
-113.1245333918578
 30
0.0
 10
95.16352807950773
 20
-113.1751762954909
 30
0.0
 10
95.16352807950773
 20
-113.1751762954909
 30
0.0
 10
95.39400496747095
 20
-113.1751762954909
 30
0.0
 10
95.39400496747095
 20
-113.1751762954909
 30
0.0
 10
95.55902504121441
 20
-113.1751762954909
 30
0.0
 10
95.8511691383636
 20
-113.1689751236175
 30
0.0
 10
96.03065861314512
 20
-113.1624294421955
 30
0.0
 10
96.03065861314512
 20
-113.1624294421955
 30
0.0
 10
96.03065861314512
 20
-113.3401963692344
 30
0.0
 10
96.03065861314512
 20
-113.3401963692344
 30
0.0
 10
95.90181204199678
 20
-113.3360622546521
 30
0.0
 10
95.87838539269707
 20
-113.3360622546521
 30
0.0
 10
95.60139971568299
 20
-113.3319281400698
 30
0.0
  0
SPLINE
  5
5B
330
4E
100
AcDbEntity
  8
_U+30EC_U+30A4_U+30E4_U+30FC 1
370
     0
100
AcDbSpline
210
0.0
220
0.0
230
1.0
 70
    11
 71
     3
 72
    23
 73
    19
 74
     0
 42
0.0000000001
 43
0.0000000001
 12
1.0
 22
0.0
 32
0.0
 13
1.0
 23
0.0
 33
0.0
 40
0.0
 40
0.0
 40
0.0
 40
0.0
 40
1.0
 40
1.0
 40
1.0
 40
2.0
 40
2.0
 40
2.0
 40
3.0
 40
3.0
 40
3.0
 40
4.0
 40
4.0
 40
4.0
 40
5.0
 40
5.0
 40
5.0
 40
6.0
 40
6.0
 40
6.0
 40
6.0
 10
94.31741262833037
 20
-112.9805284005743
 30
0.0
 10
94.30018715090412
 20
-113.0208360177517
 30
0.0
 10
94.29398597903068
 20
-113.0377169856295
 30
0.0
 10
94.27297089657065
 20
-113.0377169856295
 30
0.0
 10
94.25815698598407
 20
-113.0377169856295
 30
0.0
 10
94.2474771899798
 20
-113.0208360177517
 30
0.0
 10
94.24127601810635
 20
-113.0080891644563
 30
0.0
 10
94.24127601810635
 20
-113.0080891644563
 30
0.0
 10
94.14171275858263
 20
-112.8430690907128
 30
0.0
 10
94.14171275858263
 20
-112.8430690907128
 30
0.0
 10
94.2433430753975
 20
-112.8113742122486
 30
0.0
 10
94.3935492385544
 20
-112.7562526844846
 30
0.0
 10
94.59233124805331
 20
-112.5936441775808
 30
0.0
 10
94.59233124805331
 20
-112.5936441775808
 30
0.0
 10
94.64951983310846
 20
-112.7669324804888
 30
0.0
 10
94.64951983310846
 20
-112.7669324804888
 30
0.0
 10
94.5561577454582
 20
-112.8496147721348
 30
0.0
 10
94.46761879148727
 20
-112.9064588476414
 30
0.0
 10
94.31741262833037
 20
-112.9805284005743
 30
0.0
  0
SPLINE
  5
5C
330
4E
100
AcDbEntity
  8
_U+30EC_U+30A4_U+30E4_U+30FC 1
370
     0
100
AcDbSpline
210
0.0
220
0.0
230
1.0
 70
    11
 71
     3
 72
    17
 73
    13
 74
     0
 42
0.0000000001
 43
0.0000000001
 12
1.0
 22
0.0
 32
0.0
 13
1.0
 23
0.0
 33
0.0
 40
0.0
 40
0.0
 40
0.0
 40
0.0
 40
1.0
 40
1.0
 40
1.0
 40
2.0
 40
2.0
 40
2.0
 40
3.0
 40
3.0
 40
3.0
 40
4.0
 40
4.0
 40
4.0
 40
4.0
 10
94.46968584877841
 20
-112.5150960005171
 30
0.0
 10
94.44005802760526
 20
-112.4751328928882
 30
0.0
 10
94.37218964654585
 20
-112.3776366906556
 30
0.0
 10
94.19028860492466
 20
-112.2677381446761
 30
0.0
 10
94.19028860492466
 20
-112.2677381446761
 30
0.0
 10
94.31741262833037
 20
-112.134412949397
 30
0.0
 10
94.31741262833037
 20
-112.134412949397
 30
0.0
 10
94.50344778453386
 20
-112.2360432662118
 30
0.0
 10
94.560636369589
 20
-112.3249267297313
 30
0.0
 10
94.58819713347101
 20
-112.3673014041998
 30
0.0
 10
94.58819713347101
 20
-112.3673014041998
 30
0.0
 10
94.46968584877841
 20
-112.5150960005171
 30
0.0
 10
94.46968584877841
 20
-112.5150960005171
 30
0.0
  0
SPLINE
  5
5D
330
4E
100
AcDbEntity
  8
_U+30EC_U+30A4_U+30E4_U+30FC 1
370
     0
100
AcDbSpline
210
0.0
220
0.0
230
1.0
 70
    11
 71
     3
 72
    38
 73
    34
 74
     0
 42
0.0000000001
 43
0.0000000001
 12
1.0
 22
0.0
 32
0.0
 13
1.0
 23
0.0
 33
0.0
 40
0.0
 40
0.0
 40
0.0
 40
0.0
 40
1.0
 40
1.0
 40
1.0
 40
2.0
 40
2.0
 40
2.0
 40
3.0
 40
3.0
 40
3.0
 40
4.0
 40
4.0
 40
4.0
 40
5.0
 40
5.0
 40
5.0
 40
6.0
 40
6.0
 40
6.0
 40
7.0
 40
7.0
 40
7.0
 40
8.0
 40
8.0
 40
8.0
 40
9.0
 40
9.0
 40
9.0
 40
10.0
 40
10.0
 40
10.0
 40
11.0
 40
11.0
 40
11.0
 40
11.0
 10
94.8376220466031
 20
-112.210549559621
 30
0.0
 10
94.83555498931194
 20
-112.2570583486718
 30
0.0
 10
94.8334879320208
 20
-112.3735025760733
 30
0.0
 10
94.8334879320208
 20
-112.417944307833
 30
0.0
 10
94.8334879320208
 20
-112.417944307833
 30
0.0
 10
94.8334879320208
 20
-112.7648654231977
 30
0.0
 10
94.8334879320208
 20
-112.7648654231977
 30
0.0
 10
94.8334879320208
 20
-112.851681829426
 30
0.0
 10
94.83555498931194
 20
-112.9932752538697
 30
0.0
 10
94.84623478531623
 20
-113.1138535958535
 30
0.0
 10
94.84623478531623
 20
-113.1138535958535
 30
0.0
 10
94.65572100498191
 20
-113.1138535958535
 30
0.0
 10
94.65572100498191
 20
-113.1138535958535
 30
0.0
 10
94.65985511956421
 20
-113.0504638389249
 30
0.0
 10
94.66433374369504
 20
-112.997409368452
 30
0.0
 10
94.66640080098618
 20
-112.9426323502366
 30
0.0
 10
94.66846785827734
 20
-112.8199869509617
 30
0.0
 10
94.67053491556848
 20
-112.8051730403751
 30
0.0
 10
94.67053491556848
 20
-112.7607313086154
 30
0.0
 10
94.67053491556848
 20
-112.7607313086154
 30
0.0
 10
94.67053491556848
 20
-112.438959390293
 30
0.0
 10
94.67053491556848
 20
-112.438959390293
 30
0.0
 10
94.67053491556848
 20
-112.3841823720776
 30
0.0
 10
94.65778806227306
 20
-112.1450927454012
 30
0.0
 10
94.65572100498191
 20
-112.0941053322195
 30
0.0
 10
94.65572100498191
 20
-112.0941053322195
 30
0.0
 10
94.85657007177197
 20
-112.1216660961015
 30
0.0
 10
94.85657007177197
 20
-112.1216660961015
 30
0.0
 10
94.87792966378052
 20
-112.1237331533927
 30
0.0
 10
94.90962454224481
 20
-112.1282117775235
 30
0.0
 10
94.90962454224481
 20
-112.1533609745658
 30
0.0
 10
94.90962454224481
 20
-112.1809217384478
 30
0.0
 10
94.85898163861165
 20
-112.2022813304564
 30
0.0
 10
94.8376220466031
 20
-112.210549559621
 30
0.0
  0
SPLINE
  5
5E
330
4E
100
AcDbEntity
  8
_U+30EC_U+30A4_U+30E4_U+30FC 1
370
     0
100
AcDbSpline
210
0.0
220
0.0
230
1.0
 70
    11
 71
     3
 72
    83
 73
    79
 74
     0
 42
0.0000000001
 43
0.0000000001
 12
1.0
 22
0.0
 32
0.0
 13
1.0
 23
0.0
 33
0.0
 40
0.0
 40
0.0
 40
0.0
 40
0.0
 40
1.0
 40
1.0
 40
1.0
 40
2.0
 40
2.0
 40
2.0
 40
3.0
 40
3.0
 40
3.0
 40
4.0
 40
4.0
 40
4.0
 40
5.0
 40
5.0
 40
5.0
 40
6.0
 40
6.0
 40
6.0
 40
7.0
 40
7.0
 40
7.0
 40
8.0
 40
8.0
 40
8.0
 40
9.0
 40
9.0
 40
9.0
 40
10.0
 40
10.0
 40
10.0
 40
11.0
 40
11.0
 40
11.0
 40
12.0
 40
12.0
 40
12.0
 40
13.0
 40
13.0
 40
13.0
 40
14.0
 40
14.0
 40
14.0
 40
15.0
 40
15.0
 40
15.0
 40
16.0
 40
16.0
 40
16.0
 40
17.0
 40
17.0
 40
17.0
 40
18.0
 40
18.0
 40
18.0
 40
19.0
 40
19.0
 40
19.0
 40
20.0
 40
20.0
 40
20.0
 40
21.0
 40
21.0
 40
21.0
 40
22.0
 40
22.0
 40
22.0
 40
23.0
 40
23.0
 40
23.0
 40
24.0
 40
24.0
 40
24.0
 40
25.0
 40
25.0
 40
25.0
 40
26.0
 40
26.0
 40
26.0
 40
26.0
 10
95.63929576602074
 20
-112.5323214779433
 30
0.0
 10
95.63929576602074
 20
-112.5323214779433
 30
0.0
 10
95.54214407333669
 20
-112.5323214779433
 30
0.0
 10
95.54214407333669
 20
-112.5323214779433
 30
0.0
 10
95.54214407333669
 20
-112.5323214779433
 30
0.0
 10
95.54214407333669
 20
-112.7796793337843
 30
0.0
 10
95.54214407333669
 20
-112.7796793337843
 30
0.0
 10
95.54214407333669
 20
-112.7796793337843
 30
0.0
 10
95.62448185543415
 20
-112.7796793337843
 30
0.0
 10
95.62448185543415
 20
-112.7796793337843
 30
0.0
 10
95.69028317920244
 20
-112.7796793337843
 30
0.0
 10
95.82980954635505
 20
-112.775545219202
 30
0.0
 10
95.92937280587877
 20
-112.7669324804888
 30
0.0
 10
95.92937280587877
 20
-112.7669324804888
 30
0.0
 10
95.92937280587877
 20
-112.9467664648189
 30
0.0
 10
95.92937280587877
 20
-112.9467664648189
 30
0.0
 10
95.83635522777702
 20
-112.9384982356543
 30
0.0
 10
95.68614906462014
 20
-112.9340196115234
 30
0.0
 10
95.62448185543415
 20
-112.9340196115234
 30
0.0
 10
95.62448185543415
 20
-112.9340196115234
 30
0.0
 10
95.31993541453808
 20
-112.9340196115234
 30
0.0
 10
95.31993541453808
 20
-112.9340196115234
 30
0.0
 10
95.26722545361375
 20
-112.9340196115234
 30
0.0
 10
95.12115340503917
 20
-112.9384982356543
 30
0.0
 10
95.01538897364199
 20
-112.9467664648189
 30
0.0
 10
95.01538897364199
 20
-112.9467664648189
 30
0.0
 10
95.01538897364199
 20
-112.7669324804888
 30
0.0
 10
95.01538897364199
 20
-112.7669324804888
 30
0.0
 10
95.11495223316571
 20
-112.775545219202
 30
0.0
 10
95.25447860031834
 20
-112.7796793337843
 30
0.0
 10
95.31993541453808
 20
-112.7796793337843
 30
0.0
 10
95.31993541453808
 20
-112.7796793337843
 30
0.0
 10
95.3643771462978
 20
-112.7796793337843
 30
0.0
 10
95.3643771462978
 20
-112.7796793337843
 30
0.0
 10
95.3643771462978
 20
-112.7796793337843
 30
0.0
 10
95.3643771462978
 20
-112.5323214779433
 30
0.0
 10
95.3643771462978
 20
-112.5323214779433
 30
0.0
 10
95.3643771462978
 20
-112.5323214779433
 30
0.0
 10
95.29030759336493
 20
-112.5323214779433
 30
0.0
 10
95.29030759336493
 20
-112.5323214779433
 30
0.0
 10
95.22898489372749
 20
-112.5323214779433
 30
0.0
 10
95.06189776269287
 20
-112.5364555925256
 30
0.0
 10
94.94131942070912
 20
-112.5447238216902
 30
0.0
 10
94.94131942070912
 20
-112.5447238216902
 30
0.0
 10
94.94131942070912
 20
-112.3673014041998
 30
0.0
 10
94.94131942070912
 20
-112.3673014041998
 30
0.0
 10
95.05569659081941
 20
-112.3735025760733
 30
0.0
 10
95.2141709831409
 20
-112.3776366906556
 30
0.0
 10
95.29030759336493
 20
-112.3776366906556
 30
0.0
 10
95.29030759336493
 20
-112.3776366906556
 30
0.0
 10
95.36231008900666
 20
-112.3776366906556
 30
0.0
 10
95.36231008900666
 20
-112.3776366906556
 30
0.0
 10
95.35817597442436
 20
-112.2253634702076
 30
0.0
 10
95.3561089171332
 20
-112.1916015344521
 30
0.0
 10
95.34956323571123
 20
-112.0985839563504
 30
0.0
 10
95.34956323571123
 20
-112.0985839563504
 30
0.0
 10
95.56109209850557
 20
-112.1216660961015
 30
0.0
 10
95.56109209850557
 20
-112.1216660961015
 30
0.0
 10
95.58658580509642
 20
-112.1237331533927
 30
0.0
 10
95.61001245439611
 20
-112.1282117775235
 30
0.0
 10
95.61001245439611
 20
-112.1512939172747
 30
0.0
 10
95.61001245439611
 20
-112.182988795739
 30
0.0
 10
95.5655707226364
 20
-112.1998697636167
 30
0.0
 10
95.54214407333669
 20
-112.2084825023298
 30
0.0
 10
95.54214407333669
 20
-112.2084825023298
 30
0.0
 10
95.54214407333669
 20
-112.3776366906556
 30
0.0
 10
95.54214407333669
 20
-112.3776366906556
 30
0.0
 10
95.54214407333669
 20
-112.3776366906556
 30
0.0
 10
95.63929576602074
 20
-112.3776366906556
 30
0.0
 10
95.63929576602074
 20
-112.3776366906556
 30
0.0
 10
95.71577688579329
 20
-112.3776366906556
 30
0.0
 10
95.87425127811477
 20
-112.3735025760733
 30
0.0
 10
95.99069550551621
 20
-112.3673014041998
 30
0.0
 10
95.99069550551621
 20
-112.3673014041998
 30
0.0
 10
95.99069550551621
 20
-112.5447238216902
 30
0.0
 10
95.99069550551621
 20
-112.5447238216902
 30
0.0
 10
95.8828640168279
 20
-112.5385226498168
 30
0.0
 10
95.7092312043713
 20
-112.5323214779433
 30
0.0
 10
95.63929576602074
 20
-112.5323214779433
 30
0.0
  0
SPLINE
  5
5F
330
4E
100
AcDbEntity
  8
_U+30EC_U+30A4_U+30E4_U+30FC 1
370
     0
100
AcDbSpline
210
0.0
220
0.0
230
1.0
 70
    11
 71
     3
 72
    17
 73
    13
 74
     0
 42
0.0000000001
 43
0.0000000001
 12
1.0
 22
0.0
 32
0.0
 13
1.0
 23
0.0
 33
0.0
 40
0.0
 40
0.0
 40
0.0
 40
0.0
 40
1.0
 40
1.0
 40
1.0
 40
2.0
 40
2.0
 40
2.0
 40
3.0
 40
3.0
 40
3.0
 40
4.0
 40
4.0
 40
4.0
 40
4.0
 10
95.39400496747095
 20
-113.3298610827786
 30
0.0
 10
95.39400496747095
 20
-113.3298610827786
 30
0.0
 10
95.19108884338974
 20
-113.3298610827786
 30
0.0
 10
95.19108884338974
 20
-113.3298610827786
 30
0.0
 10
95.2183050977232
 20
-113.3891167251249
 30
0.0
 10
95.2734266254872
 20
-113.4607747112181
 30
0.0
 10
95.3009873893692
 20
-113.4904025323913
 30
0.0
 10
95.3285481532512
 20
-113.4755886218047
 30
0.0
 10
95.44258081381297
 20
-113.4121988648761
 30
0.0
 10
95.53353133462356
 20
-113.3298610827786
 30
0.0
 10
95.53353133462356
 20
-113.3298610827786
 30
0.0
 10
95.39400496747095
 20
-113.3298610827786
 30
0.0
 10
95.39400496747095
 20
-113.3298610827786
 30
0.0
  0
HATCH
  5
60
330
4E
100
AcDbEntity
  8
_U+30EC_U+30A4_U+30E4_U+30FC 1
 62
   179
420
  2234388
100
AcDbHatch
 10
0.0
 20
0.0
 30
0.0
210
0.0
220
0.0
230
1.0
  2
SOLID
 70
     1
 71
     0
 91
        6
 92
        1
 93
        1
 72
     4
 94
        3
 73
     0
 74
     1
 95
      113
 96
      109
 40
0.0
 40
0.0
 40
0.0
 40
0.0
 40
1.0
 40
1.0
 40
1.0
 40
2.0
 40
2.0
 40
2.0
 40
3.0
 40
3.0
 40
3.0
 40
4.0
 40
4.0
 40
4.0
 40
5.0
 40
5.0
 40
5.0
 40
6.0
 40
6.0
 40
6.0
 40
7.0
 40
7.0
 40
7.0
 40
8.0
 40
8.0
 40
8.0
 40
9.0
 40
9.0
 40
9.0
 40
10.0
 40
10.0
 40
10.0
 40
11.0
 40
11.0
 40
11.0
 40
12.0
 40
12.0
 40
12.0
 40
13.0
 40
13.0
 40
13.0
 40
14.0
 40
14.0
 40
14.0
 40
15.0
 40
15.0
 40
15.0
 40
16.0
 40
16.0
 40
16.0
 40
17.0
 40
17.0
 40
17.0
 40
18.0
 40
18.0
 40
18.0
 40
19.0
 40
19.0
 40
19.0
 40
20.0
 40
20.0
 40
20.0
 40
21.0
 40
21.0
 40
21.0
 40
22.0
 40
22.0
 40
22.0
 40
23.0
 40
23.0
 40
23.0
 40
24.0
 40
24.0
 40
24.0
 40
25.0
 40
25.0
 40
25.0
 40
26.0
 40
26.0
 40
26.0
 40
27.0
 40
27.0
 40
27.0
 40
28.0
 40
28.0
 40
28.0
 40
29.0
 40
29.0
 40
29.0
 40
30.0
 40
30.0
 40
30.0
 40
31.0
 40
31.0
 40
31.0
 40
32.0
 40
32.0
 40
32.0
 40
33.0
 40
33.0
 40
33.0
 40
34.0
 40
34.0
 40
34.0
 40
35.0
 40
35.0
 40
35.0
 40
36.0
 40
36.0
 40
36.0
 40
36.0
 10
95.60139971568299
 20
-113.3319281400698
 10
95.60139971568299
 20
-113.3319281400698
 10
95.7009629752067
 20
-113.431146890045
 10
95.7009629752067
 20
-113.431146890045
 10
95.71129826166246
 20
-113.4418266860493
 10
95.72197805766673
 20
-113.4545735393447
 10
95.72197805766673
 20
-113.4693874499313
 10
95.72197805766673
 20
-113.4714545072224
 10
95.72197805766673
 20
-113.5010823283956
 10
95.68373749778046
 20
-113.5010823283956
 10
95.67546926861586
 20
-113.5010823283956
 10
95.63516165143844
 20
-113.4969482138133
 10
95.62896047956498
 20
-113.4969482138133
 10
95.58865286238756
 20
-113.5286430922776
 10
95.54214407333669
 20
-113.562405028033
 10
95.44258081381297
 20
-113.6195936130882
 10
95.58865286238756
 20
-113.7274251017765
 10
95.74747176425758
 20
-113.7846136868316
 10
96.02032332668936
 20
-113.8225097371694
 10
96.02032332668936
 20
-113.8225097371694
 10
95.87011716353247
 20
-113.9982096069171
 10
95.87011716353247
 20
-113.9982096069171
 10
95.60760088755644
 20
-113.9262071112754
 10
95.45119355252609
 20
-113.837323647756
 10
95.37505694230207
 20
-113.7846136868316
 10
95.22485077914519
 20
-113.6829833700168
 10
95.08084578786173
 20
-113.5200303535644
 10
95.00470917763772
 20
-113.355010279821
 10
94.93718530612682
 20
-113.4208116035892
 10
94.86311575319395
 20
-113.4735215645136
 10
94.78491208567877
 20
-113.5220974108556
 10
94.78491208567877
 20
-113.5220974108556
 10
94.78491208567877
 20
-113.7739338908274
 10
94.78491208567877
 20
-113.7739338908274
 10
94.94752059258256
 20
-113.7484401842365
 10
95.13390025833459
 20
-113.7039984524768
 10
95.19729001526318
 20
-113.6891845418902
 10
95.19729001526318
 20
-113.6891845418902
 10
95.16766219409003
 20
-113.8586832397645
 10
95.16766219409003
 20
-113.8586832397645
 10
95.16559513679888
 20
-113.8586832397645
 10
95.14664711163
 20
-113.8648844116379
 10
95.14458005433886
 20
-113.8648844116379
 10
94.94545353529142
 20
-113.9031249715242
 10
94.6281602410999
 20
-113.968581785744
 10
94.43144528889215
 20
-114.0044107787906
 10
94.42076549288787
 20
-114.0216362562168
 10
94.3976833531367
 20
-114.0533311346811
 10
94.37425670383699
 20
-114.0533311346811
 10
94.34704044950352
 20
-114.0533311346811
 10
94.3425618253727
 20
-114.0340385999637
 10
94.34049476808154
 20
-114.0150905747948
 10
94.34049476808154
 20
-114.0150905747948
 10
94.3150010614907
 20
-113.8418022718868
 10
94.3150010614907
 20
-113.8418022718868
 10
94.38907061442357
 20
-113.8331895331737
 10
94.49724661266042
 20
-113.8204426798782
 10
94.60507810134874
 20
-113.7994275974182
 10
94.60507810134874
 20
-113.7994275974182
 10
94.60507810134874
 20
-113.6216606703793
 10
94.60507810134874
 20
-113.6216606703793
 10
94.46107311006529
 20
-113.693663166021
 10
94.36598847467239
 20
-113.7232909871942
 10
94.20096840092893
 20
-113.7529188083673
 10
94.20096840092893
 20
-113.7529188083673
 10
94.08039005894518
 20
-113.583420110493
 10
94.08039005894518
 20
-113.583420110493
 10
94.3976833531367
 20
-113.5562038561596
 10
94.59026419076216
 20
-113.4628417685093
 10
94.76803111780106
 20
-113.3298610827786
 10
94.62195906922646
 20
-113.3298610827786
 10
94.32154674291267
 20
-113.3339951973609
 10
94.1248317907049
 20
-113.3401963692344
 10
94.1248317907049
 20
-113.3401963692344
 10
94.1248317907049
 20
-113.1624294421955
 10
94.1248317907049
 20
-113.1624294421955
 10
94.2791720684441
 20
-113.1689751236175
 10
94.57545028017559
 20
-113.1751762954909
 10
94.75941837908793
 20
-113.1751762954909
 10
94.75941837908793
 20
-113.1751762954909
 10
94.97094724188227
 20
-113.1751762954909
 10
94.97094724188227
 20
-113.1751762954909
 10
94.97094724188227
 20
-113.080091660098
 10
94.96888018459111
 20
-113.0294487564649
 10
94.96233450316915
 20
-112.9825954578655
 10
94.96233450316915
 20
-112.9825954578655
 10
95.17834199009431
 20
-112.9998209352917
 10
95.17834199009431
 20
-112.9998209352917
 10
95.22691783643633
 20
-113.003955049874
 10
95.23553057514945
 20
-113.0187689604606
 10
95.23553057514945
 20
-113.0335828710472
 10
95.23553057514945
 20
-113.059076577638
 10
95.2183050977232
 20
-113.0673448068026
 10
95.16766219409003
 20
-113.0928385133935
 10
95.16559513679888
 20
-113.1183322199843
 10
95.16559513679888
 20
-113.1245333918578
 10
95.16352807950773
 20
-113.1751762954909
 10
95.16352807950773
 20
-113.1751762954909
 10
95.39400496747095
 20
-113.1751762954909
 10
95.39400496747095
 20
-113.1751762954909
 10
95.55902504121441
 20
-113.1751762954909
 10
95.8511691383636
 20
-113.1689751236175
 10
96.03065861314512
 20
-113.1624294421955
 10
96.03065861314512
 20
-113.1624294421955
 10
96.03065861314512
 20
-113.3401963692344
 10
96.03065861314512
 20
-113.3401963692344
 10
95.90181204199678
 20
-113.3360622546521
 10
95.87838539269707
 20
-113.3360622546521
 10
95.60139971568299
 20
-113.3319281400698
 97
        0
 97
        0
 92
        1
 93
        1
 72
     4
 94
        3
 73
     0
 74
     1
 95
       23
 96
       19
 40
0.0
 40
0.0
 40
0.0
 40
0.0
 40
1.0
 40
1.0
 40
1.0
 40
2.0
 40
2.0
 40
2.0
 40
3.0
 40
3.0
 40
3.0
 40
4.0
 40
4.0
 40
4.0
 40
5.0
 40
5.0
 40
5.0
 40
6.0
 40
6.0
 40
6.0
 40
6.0
 10
94.31741262833037
 20
-112.9805284005743
 10
94.30018715090412
 20
-113.0208360177517
 10
94.29398597903068
 20
-113.0377169856295
 10
94.27297089657065
 20
-113.0377169856295
 10
94.25815698598407
 20
-113.0377169856295
 10
94.2474771899798
 20
-113.0208360177517
 10
94.24127601810635
 20
-113.0080891644563
 10
94.24127601810635
 20
-113.0080891644563
 10
94.14171275858263
 20
-112.8430690907128
 10
94.14171275858263
 20
-112.8430690907128
 10
94.2433430753975
 20
-112.8113742122486
 10
94.3935492385544
 20
-112.7562526844846
 10
94.59233124805331
 20
-112.5936441775808
 10
94.59233124805331
 20
-112.5936441775808
 10
94.64951983310846
 20
-112.7669324804888
 10
94.64951983310846
 20
-112.7669324804888
 10
94.5561577454582
 20
-112.8496147721348
 10
94.46761879148727
 20
-112.9064588476414
 10
94.31741262833037
 20
-112.9805284005743
 97
        0
 97
        0
 92
        1
 93
        1
 72
     4
 94
        3
 73
     0
 74
     1
 95
       17
 96
       13
 40
0.0
 40
0.0
 40
0.0
 40
0.0
 40
1.0
 40
1.0
 40
1.0
 40
2.0
 40
2.0
 40
2.0
 40
3.0
 40
3.0
 40
3.0
 40
4.0
 40
4.0
 40
4.0
 40
4.0
 10
94.46968584877841
 20
-112.5150960005171
 10
94.44005802760526
 20
-112.4751328928882
 10
94.37218964654585
 20
-112.3776366906556
 10
94.19028860492466
 20
-112.2677381446761
 10
94.19028860492466
 20
-112.2677381446761
 10
94.31741262833037
 20
-112.134412949397
 10
94.31741262833037
 20
-112.134412949397
 10
94.50344778453386
 20
-112.2360432662118
 10
94.560636369589
 20
-112.3249267297313
 10
94.58819713347101
 20
-112.3673014041998
 10
94.58819713347101
 20
-112.3673014041998
 10
94.46968584877841
 20
-112.5150960005171
 10
94.46968584877841
 20
-112.5150960005171
 97
        0
 97
        0
 92
        1
 93
        1
 72
     4
 94
        3
 73
     0
 74
     1
 95
       38
 96
       34
 40
0.0
 40
0.0
 40
0.0
 40
0.0
 40
1.0
 40
1.0
 40
1.0
 40
2.0
 40
2.0
 40
2.0
 40
3.0
 40
3.0
 40
3.0
 40
4.0
 40
4.0
 40
4.0
 40
5.0
 40
5.0
 40
5.0
 40
6.0
 40
6.0
 40
6.0
 40
7.0
 40
7.0
 40
7.0
 40
8.0
 40
8.0
 40
8.0
 40
9.0
 40
9.0
 40
9.0
 40
10.0
 40
10.0
 40
10.0
 40
11.0
 40
11.0
 40
11.0
 40
11.0
 10
94.8376220466031
 20
-112.210549559621
 10
94.83555498931194
 20
-112.2570583486718
 10
94.8334879320208
 20
-112.3735025760733
 10
94.8334879320208
 20
-112.417944307833
 10
94.8334879320208
 20
-112.417944307833
 10
94.8334879320208
 20
-112.7648654231977
 10
94.8334879320208
 20
-112.7648654231977
 10
94.8334879320208
 20
-112.851681829426
 10
94.83555498931194
 20
-112.9932752538697
 10
94.84623478531623
 20
-113.1138535958535
 10
94.84623478531623
 20
-113.1138535958535
 10
94.65572100498191
 20
-113.1138535958535
 10
94.65572100498191
 20
-113.1138535958535
 10
94.65985511956421
 20
-113.0504638389249
 10
94.66433374369504
 20
-112.997409368452
 10
94.66640080098618
 20
-112.9426323502366
 10
94.66846785827734
 20
-112.8199869509617
 10
94.67053491556848
 20
-112.8051730403751
 10
94.67053491556848
 20
-112.7607313086154
 10
94.67053491556848
 20
-112.7607313086154
 10
94.67053491556848
 20
-112.438959390293
 10
94.67053491556848
 20
-112.438959390293
 10
94.67053491556848
 20
-112.3841823720776
 10
94.65778806227306
 20
-112.1450927454012
 10
94.65572100498191
 20
-112.0941053322195
 10
94.65572100498191
 20
-112.0941053322195
 10
94.85657007177197
 20
-112.1216660961015
 10
94.85657007177197
 20
-112.1216660961015
 10
94.87792966378052
 20
-112.1237331533927
 10
94.90962454224481
 20
-112.1282117775235
 10
94.90962454224481
 20
-112.1533609745658
 10
94.90962454224481
 20
-112.1809217384478
 10
94.85898163861165
 20
-112.2022813304564
 10
94.8376220466031
 20
-112.210549559621
 97
        0
 97
        0
 92
        1
 93
        1
 72
     4
 94
        3
 73
     0
 74
     1
 95
       83
 96
       79
 40
0.0
 40
0.0
 40
0.0
 40
0.0
 40
1.0
 40
1.0
 40
1.0
 40
2.0
 40
2.0
 40
2.0
 40
3.0
 40
3.0
 40
3.0
 40
4.0
 40
4.0
 40
4.0
 40
5.0
 40
5.0
 40
5.0
 40
6.0
 40
6.0
 40
6.0
 40
7.0
 40
7.0
 40
7.0
 40
8.0
 40
8.0
 40
8.0
 40
9.0
 40
9.0
 40
9.0
 40
10.0
 40
10.0
 40
10.0
 40
11.0
 40
11.0
 40
11.0
 40
12.0
 40
12.0
 40
12.0
 40
13.0
 40
13.0
 40
13.0
 40
14.0
 40
14.0
 40
14.0
 40
15.0
 40
15.0
 40
15.0
 40
16.0
 40
16.0
 40
16.0
 40
17.0
 40
17.0
 40
17.0
 40
18.0
 40
18.0
 40
18.0
 40
19.0
 40
19.0
 40
19.0
 40
20.0
 40
20.0
 40
20.0
 40
21.0
 40
21.0
 40
21.0
 40
22.0
 40
22.0
 40
22.0
 40
23.0
 40
23.0
 40
23.0
 40
24.0
 40
24.0
 40
24.0
 40
25.0
 40
25.0
 40
25.0
 40
26.0
 40
26.0
 40
26.0
 40
26.0
 10
95.63929576602074
 20
-112.5323214779433
 10
95.63929576602074
 20
-112.5323214779433
 10
95.54214407333669
 20
-112.5323214779433
 10
95.54214407333669
 20
-112.5323214779433
 10
95.54214407333669
 20
-112.5323214779433
 10
95.54214407333669
 20
-112.7796793337843
 10
95.54214407333669
 20
-112.7796793337843
 10
95.54214407333669
 20
-112.7796793337843
 10
95.62448185543415
 20
-112.7796793337843
 10
95.62448185543415
 20
-112.7796793337843
 10
95.69028317920244
 20
-112.7796793337843
 10
95.82980954635505
 20
-112.775545219202
 10
95.92937280587877
 20
-112.7669324804888
 10
95.92937280587877
 20
-112.7669324804888
 10
95.92937280587877
 20
-112.9467664648189
 10
95.92937280587877
 20
-112.9467664648189
 10
95.83635522777702
 20
-112.9384982356543
 10
95.68614906462014
 20
-112.9340196115234
 10
95.62448185543415
 20
-112.9340196115234
 10
95.62448185543415
 20
-112.9340196115234
 10
95.31993541453808
 20
-112.9340196115234
 10
95.31993541453808
 20
-112.9340196115234
 10
95.26722545361375
 20
-112.9340196115234
 10
95.12115340503917
 20
-112.9384982356543
 10
95.01538897364199
 20
-112.9467664648189
 10
95.01538897364199
 20
-112.9467664648189
 10
95.01538897364199
 20
-112.7669324804888
 10
95.01538897364199
 20
-112.7669324804888
 10
95.11495223316571
 20
-112.775545219202
 10
95.25447860031834
 20
-112.7796793337843
 10
95.31993541453808
 20
-112.7796793337843
 10
95.31993541453808
 20
-112.7796793337843
 10
95.3643771462978
 20
-112.7796793337843
 10
95.3643771462978
 20
-112.7796793337843
 10
95.3643771462978
 20
-112.7796793337843
 10
95.3643771462978
 20
-112.5323214779433
 10
95.3643771462978
 20
-112.5323214779433
 10
95.3643771462978
 20
-112.5323214779433
 10
95.29030759336493
 20
-112.5323214779433
 10
95.29030759336493
 20
-112.5323214779433
 10
95.22898489372749
 20
-112.5323214779433
 10
95.06189776269287
 20
-112.5364555925256
 10
94.94131942070912
 20
-112.5447238216902
 10
94.94131942070912
 20
-112.5447238216902
 10
94.94131942070912
 20
-112.3673014041998
 10
94.94131942070912
 20
-112.3673014041998
 10
95.05569659081941
 20
-112.3735025760733
 10
95.2141709831409
 20
-112.3776366906556
 10
95.29030759336493
 20
-112.3776366906556
 10
95.29030759336493
 20
-112.3776366906556
 10
95.36231008900666
 20
-112.3776366906556
 10
95.36231008900666
 20
-112.3776366906556
 10
95.35817597442436
 20
-112.2253634702076
 10
95.3561089171332
 20
-112.1916015344521
 10
95.34956323571123
 20
-112.0985839563504
 10
95.34956323571123
 20
-112.0985839563504
 10
95.56109209850557
 20
-112.1216660961015
 10
95.56109209850557
 20
-112.1216660961015
 10
95.58658580509642
 20
-112.1237331533927
 10
95.61001245439611
 20
-112.1282117775235
 10
95.61001245439611
 20
-112.1512939172747
 10
95.61001245439611
 20
-112.182988795739
 10
95.5655707226364
 20
-112.1998697636167
 10
95.54214407333669
 20
-112.2084825023298
 10
95.54214407333669
 20
-112.2084825023298
 10
95.54214407333669
 20
-112.3776366906556
 10
95.54214407333669
 20
-112.3776366906556
 10
95.54214407333669
 20
-112.3776366906556
 10
95.63929576602074
 20
-112.3776366906556
 10
95.63929576602074
 20
-112.3776366906556
 10
95.71577688579329
 20
-112.3776366906556
 10
95.87425127811477
 20
-112.3735025760733
 10
95.99069550551621
 20
-112.3673014041998
 10
95.99069550551621
 20
-112.3673014041998
 10
95.99069550551621
 20
-112.5447238216902
 10
95.99069550551621
 20
-112.5447238216902
 10
95.8828640168279
 20
-112.5385226498168
 10
95.7092312043713
 20
-112.5323214779433
 10
95.63929576602074
 20
-112.5323214779433
 97
        0
 97
        0
 92
        1
 93
        1
 72
     4
 94
        3
 73
     0
 74
     1
 95
       17
 96
       13
 40
0.0
 40
0.0
 40
0.0
 40
0.0
 40
1.0
 40
1.0
 40
1.0
 40
2.0
 40
2.0
 40
2.0
 40
3.0
 40
3.0
 40
3.0
 40
4.0
 40
4.0
 40
4.0
 40
4.0
 10
95.39400496747095
 20
-113.3298610827786
 10
95.39400496747095
 20
-113.3298610827786
 10
95.19108884338974
 20
-113.3298610827786
 10
95.19108884338974
 20
-113.3298610827786
 10
95.2183050977232
 20
-113.3891167251249
 10
95.2734266254872
 20
-113.4607747112181
 10
95.3009873893692
 20
-113.4904025323913
 10
95.3285481532512
 20
-113.4755886218047
 10
95.44258081381297
 20
-113.4121988648761
 10
95.53353133462356
 20
-113.3298610827786
 10
95.53353133462356
 20
-113.3298610827786
 10
95.39400496747095
 20
-113.3298610827786
 10
95.39400496747095
 20
-113.3298610827786
 97
        0
 97
        0
 75
     2
 76
     1
 98
        0
  0
SPLINE
  5
61
330
4E
100
AcDbEntity
  8
_U+30EC_U+30A4_U+30E4_U+30FC 1
370
     0
100
AcDbSpline
210
0.0
220
0.0
230
1.0
 70
    11
 71
     3
 72
    77
 73
    73
 74
     0
 42
0.0000000001
 43
0.0000000001
 12
1.0
 22
0.0
 32
0.0
 13
1.0
 23
0.0
 33
0.0
 40
0.0
 40
0.0
 40
0.0
 40
0.0
 40
1.0
 40
1.0
 40
1.0
 40
2.0
 40
2.0
 40
2.0
 40
3.0
 40
3.0
 40
3.0
 40
4.0
 40
4.0
 40
4.0
 40
5.0
 40
5.0
 40
5.0
 40
6.0
 40
6.0
 40
6.0
 40
7.0
 40
7.0
 40
7.0
 40
8.0
 40
8.0
 40
8.0
 40
9.0
 40
9.0
 40
9.0
 40
10.0
 40
10.0
 40
10.0
 40
11.0
 40
11.0
 40
11.0
 40
12.0
 40
12.0
 40
12.0
 40
13.0
 40
13.0
 40
13.0
 40
14.0
 40
14.0
 40
14.0
 40
15.0
 40
15.0
 40
15.0
 40
16.0
 40
16.0
 40
16.0
 40
17.0
 40
17.0
 40
17.0
 40
18.0
 40
18.0
 40
18.0
 40
19.0
 40
19.0
 40
19.0
 40
20.0
 40
20.0
 40
20.0
 40
21.0
 40
21.0
 40
21.0
 40
22.0
 40
22.0
 40
22.0
 40
23.0
 40
23.0
 40
23.0
 40
24.0
 40
24.0
 40
24.0
 40
24.0
 10
97.88515351285511
 20
-113.9599690470309
 30
0.0
 10
97.83864472380424
 20
-113.9854627536217
 30
0.0
 10
97.71393226723819
 20
-113.9982096069171
 30
0.0
 10
97.63572859972302
 20
-113.9982096069171
 30
0.0
 10
97.6229817464276
 20
-113.9982096069171
 30
0.0
 10
97.59748803983675
 20
-113.9982096069171
 30
0.0
 10
97.5637261040813
 20
-113.9940754923348
 30
0.0
 10
97.5637261040813
 20
-113.9940754923348
 30
0.0
 10
97.46622990184872
 20
-113.7677327189539
 30
0.0
 10
97.46622990184872
 20
-113.7677327189539
 30
0.0
 10
97.49585772302187
 20
-113.7739338908274
 30
0.0
 10
97.55304630807701
 20
-113.7825466295405
 30
0.0
 10
97.66949053547846
 20
-113.7825466295405
 30
0.0
 10
97.74769420299364
 20
-113.7825466295405
 30
0.0
 10
97.74976126028479
 20
-113.7401719550719
 30
0.0
 10
97.74976126028479
 20
-113.6829833700168
 30
0.0
 10
97.74976126028479
 20
-113.6829833700168
 30
0.0
 10
97.74976126028479
 20
-113.3339951973609
 30
0.0
 10
97.74976126028479
 20
-113.3339951973609
 30
0.0
 10
97.74976126028479
 20
-113.3339951973609
 30
0.0
 10
97.29087454164952
 20
-113.3339951973609
 30
0.0
 10
97.29087454164952
 20
-113.3339951973609
 30
0.0
 10
97.29294159894066
 20
-113.4714545072224
 30
0.0
 10
97.29500865623181
 20
-113.6702365167213
 30
0.0
 10
97.30120982810526
 20
-113.8035617120005
 30
0.0
 10
97.30362139494493
 20
-113.8311224758825
 30
0.0
 10
97.30362139494493
 20
-113.8755642076422
 30
0.0
 10
97.31602373869183
 20
-113.9368869072797
 30
0.0
 10
97.31602373869183
 20
-113.9368869072797
 30
0.0
 10
97.07486705472434
 20
-113.9368869072797
 30
0.0
 10
97.07486705472434
 20
-113.9368869072797
 30
0.0
 10
97.10036076131519
 20
-113.8121744507136
 30
0.0
 10
97.10036076131519
 20
-113.4714545072224
 30
0.0
 10
97.10036076131519
 20
-113.3339951973609
 30
0.0
 10
97.10036076131519
 20
-113.3339951973609
 30
0.0
 10
96.65835501055764
 20
-113.3339951973609
 30
0.0
 10
96.65835501055764
 20
-113.3339951973609
 30
0.0
 10
96.63492836125793
 20
-113.541389945573
 30
0.0
 10
96.56947154703819
 20
-113.809762883874
 30
0.0
 10
96.37275659483042
 20
-113.9940754923348
 30
0.0
 10
96.37275659483042
 20
-113.9940754923348
 30
0.0
 10
96.18430987178726
 20
-113.8714300930599
 30
0.0
 10
96.18430987178726
 20
-113.8714300930599
 30
0.0
 10
96.43821340905018
 20
-113.6512884915525
 30
0.0
 10
96.46990828751447
 20
-113.3191812867744
 30
0.0
 10
96.46990828751447
 20
-112.9870740819963
 30
0.0
 10
96.46990828751447
 20
-112.9870740819963
 30
0.0
 10
96.46990828751447
 20
-112.5512695031122
 30
0.0
 10
96.46990828751447
 20
-112.5512695031122
 30
0.0
 10
96.46990828751447
 20
-112.5150960005171
 30
0.0
 10
96.46784123022333
 20
-112.2825520552627
 30
0.0
 10
96.4592284915102
 20
-112.1809217384478
 30
0.0
 10
96.59909936821134
 20
-112.1916015344521
 30
0.0
 10
96.84025605217883
 20
-112.1916015344521
 30
0.0
 10
96.98391653391374
 20
-112.1916015344521
 30
0.0
 10
96.98391653391374
 20
-112.1916015344521
 30
0.0
 10
97.44314776209755
 20
-112.1916015344521
 30
0.0
 10
97.44314776209755
 20
-112.1916015344521
 30
0.0
 10
97.45796167268412
 20
-112.1916015344521
 30
0.0
 10
97.80694984533993
 20
-112.1916015344521
 30
0.0
 10
97.96576874720995
 20
-112.1809217384478
 30
0.0
 10
97.96335718037028
 20
-112.2339762089207
 30
0.0
 10
97.95715600849682
 20
-112.3945176585333
 30
0.0
 10
97.95715600849682
 20
-112.445505071715
 30
0.0
 10
97.95715600849682
 20
-112.445505071715
 30
0.0
 10
97.95715600849682
 20
-113.052530896216
 30
0.0
 10
97.95715600849682
 20
-113.052530896216
 30
0.0
 10
97.95715600849682
 20
-113.0714789213849
 30
0.0
 10
97.9678358045011
 20
-113.6426757528393
 30
0.0
 10
97.9678358045011
 20
-113.7549858656585
 30
0.0
 10
97.9678358045011
 20
-113.8121744507136
 30
0.0
 10
97.9678358045011
 20
-113.91346025798
 30
0.0
 10
97.88515351285511
 20
-113.9599690470309
 30
0.0
  0
POLYLINE
  5
62
330
4E
100
AcDbEntity
  8
_U+30EC_U+30A4_U+30E4_U+30FC 1
370
     0
100
AcDb2dPolyline
 66
     1
 10
0.0
 20
0.0
 30
0.0
  0
VERTEX
  5
63
330
62
100
AcDbEntity
  8
_U+30EC_U+30A4_U+30E4_U+30FC 1
370
     0
100
AcDbVertex
100
AcDb2dVertex
 10
97.10036076131519
 20
-112.3735025760733
 30
0.0
  0
VERTEX
  5
64
330
62
100
AcDbEntity
  8
_U+30EC_U+30A4_U+30E4_U+30FC 1
370
     0
100
AcDbVertex
100
AcDb2dVertex
 10
96.66248912513994
 20
-112.3735025760733
 30
0.0
  0
VERTEX
  5
65
330
62
100
AcDbEntity
  8
_U+30EC_U+30A4_U+30E4_U+30FC 1
370
     0
100
AcDbVertex
100
AcDb2dVertex
 10
96.66248912513994
 20
-112.6780490169694
 30
0.0
  0
VERTEX
  5
66
330
62
100
AcDbEntity
  8
_U+30EC_U+30A4_U+30E4_U+30FC 1
370
     0
100
AcDbVertex
100
AcDb2dVertex
 10
97.10036076131519
 20
-112.6780490169694
 30
0.0
  0
VERTEX
  5
67
330
62
100
AcDbEntity
  8
_U+30EC_U+30A4_U+30E4_U+30FC 1
370
     0
100
AcDbVertex
100
AcDb2dVertex
 10
97.10036076131519
 20
-112.3735025760733
 30
0.0
  0
SEQEND
  5
68
330
62
100
AcDbEntity
  8
_U+30EC_U+30A4_U+30E4_U+30FC 1
370
     0
  0
POLYLINE
  5
69
330
4E
100
AcDbEntity
  8
_U+30EC_U+30A4_U+30E4_U+30FC 1
370
     0
100
AcDb2dPolyline
 66
     1
 10
0.0
 20
0.0
 30
0.0
  0
VERTEX
  5
6A
330
69
100
AcDbEntity
  8
_U+30EC_U+30A4_U+30E4_U+30FC 1
370
     0
100
AcDbVertex
100
AcDb2dVertex
 10
97.10036076131519
 20
-112.845136148004
 30
0.0
  0
VERTEX
  5
6B
330
69
100
AcDbEntity
  8
_U+30EC_U+30A4_U+30E4_U+30FC 1
370
     0
100
AcDbVertex
100
AcDb2dVertex
 10
96.66248912513994
 20
-112.845136148004
 30
0.0
  0
VERTEX
  5
6C
330
69
100
AcDbEntity
  8
_U+30EC_U+30A4_U+30E4_U+30FC 1
370
     0
100
AcDbVertex
100
AcDb2dVertex
 10
96.66248912513994
 20
-113.1541612130309
 30
0.0
  0
VERTEX
  5
6D
330
69
100
AcDbEntity
  8
_U+30EC_U+30A4_U+30E4_U+30FC 1
370
     0
100
AcDbVertex
100
AcDb2dVertex
 10
97.10036076131519
 20
-113.1541612130309
 30
0.0
  0
VERTEX
  5
6E
330
69
100
AcDbEntity
  8
_U+30EC_U+30A4_U+30E4_U+30FC 1
370
     0
100
AcDbVertex
100
AcDb2dVertex
 10
97.10036076131519
 20
-112.845136148004
 30
0.0
  0
SEQEND
  5
6F
330
69
100
AcDbEntity
  8
_U+30EC_U+30A4_U+30E4_U+30FC 1
370
     0
  0
POLYLINE
  5
70
330
4E
100
AcDbEntity
  8
_U+30EC_U+30A4_U+30E4_U+30FC 1
370
     0
100
AcDb2dPolyline
 66
     1
 10
0.0
 20
0.0
 30
0.0
  0
VERTEX
  5
71
330
70
100
AcDbEntity
  8
_U+30EC_U+30A4_U+30E4_U+30FC 1
370
     0
100
AcDbVertex
100
AcDb2dVertex
 10
97.74976126028479
 20
-112.3735025760733
 30
0.0
  0
VERTEX
  5
72
330
70
100
AcDbEntity
  8
_U+30EC_U+30A4_U+30E4_U+30FC 1
370
     0
100
AcDbVertex
100
AcDb2dVertex
 10
97.29087454164952
 20
-112.3735025760733
 30
0.0
  0
VERTEX
  5
73
330
70
100
AcDbEntity
  8
_U+30EC_U+30A4_U+30E4_U+30FC 1
370
     0
100
AcDbVertex
100
AcDb2dVertex
 10
97.29087454164952
 20
-112.6780490169694
 30
0.0
  0
VERTEX
  5
74
330
70
100
AcDbEntity
  8
_U+30EC_U+30A4_U+30E4_U+30FC 1
370
     0
100
AcDbVertex
100
AcDb2dVertex
 10
97.74976126028479
 20
-112.6780490169694
 30
0.0
  0
VERTEX
  5
75
330
70
100
AcDbEntity
  8
_U+30EC_U+30A4_U+30E4_U+30FC 1
370
     0
100
AcDbVertex
100
AcDb2dVertex
 10
97.74976126028479
 20
-112.3735025760733
 30
0.0
  0
SEQEND
  5
76
330
70
100
AcDbEntity
  8
_U+30EC_U+30A4_U+30E4_U+30FC 1
370
     0
  0
POLYLINE
  5
77
330
4E
100
AcDbEntity
  8
_U+30EC_U+30A4_U+30E4_U+30FC 1
370
     0
100
AcDb2dPolyline
 66
     1
 10
0.0
 20
0.0
 30
0.0
  0
VERTEX
  5
78
330
77
100
AcDbEntity
  8
_U+30EC_U+30A4_U+30E4_U+30FC 1
370
     0
100
AcDbVertex
100
AcDb2dVertex
 10
97.74976126028479
 20
-112.845136148004
 30
0.0
  0
VERTEX
  5
79
330
77
100
AcDbEntity
  8
_U+30EC_U+30A4_U+30E4_U+30FC 1
370
     0
100
AcDbVertex
100
AcDb2dVertex
 10
97.29087454164952
 20
-112.845136148004
 30
0.0
  0
VERTEX
  5
7A
330
77
100
AcDbEntity
  8
_U+30EC_U+30A4_U+30E4_U+30FC 1
370
     0
100
AcDbVertex
100
AcDb2dVertex
 10
97.29087454164952
 20
-113.1541612130309
 30
0.0
  0
VERTEX
  5
7B
330
77
100
AcDbEntity
  8
_U+30EC_U+30A4_U+30E4_U+30FC 1
370
     0
100
AcDbVertex
100
AcDb2dVertex
 10
97.74976126028479
 20
-113.1541612130309
 30
0.0
  0
VERTEX
  5
7C
330
77
100
AcDbEntity
  8
_U+30EC_U+30A4_U+30E4_U+30FC 1
370
     0
100
AcDbVertex
100
AcDb2dVertex
 10
97.74976126028479
 20
-112.845136148004
 30
0.0
  0
SEQEND
  5
7D
330
77
100
AcDbEntity
  8
_U+30EC_U+30A4_U+30E4_U+30FC 1
370
     0
  0
HATCH
  5
7E
330
4E
100
AcDbEntity
  8
_U+30EC_U+30A4_U+30E4_U+30FC 1
 62
   179
420
  2234388
100
AcDbHatch
 10
0.0
 20
0.0
 30
0.0
210
0.0
220
0.0
230
1.0
  2
SOLID
 70
     1
 71
     0
 91
        5
 92
        1
 93
        1
 72
     4
 94
        3
 73
     0
 74
     1
 95
       77
 96
       73
 40
0.0
 40
0.0
 40
0.0
 40
0.0
 40
1.0
 40
1.0
 40
1.0
 40
2.0
 40
2.0
 40
2.0
 40
3.0
 40
3.0
 40
3.0
 40
4.0
 40
4.0
 40
4.0
 40
5.0
 40
5.0
 40
5.0
 40
6.0
 40
6.0
 40
6.0
 40
7.0
 40
7.0
 40
7.0
 40
8.0
 40
8.0
 40
8.0
 40
9.0
 40
9.0
 40
9.0
 40
10.0
 40
10.0
 40
10.0
 40
11.0
 40
11.0
 40
11.0
 40
12.0
 40
12.0
 40
12.0
 40
13.0
 40
13.0
 40
13.0
 40
14.0
 40
14.0
 40
14.0
 40
15.0
 40
15.0
 40
15.0
 40
16.0
 40
16.0
 40
16.0
 40
17.0
 40
17.0
 40
17.0
 40
18.0
 40
18.0
 40
18.0
 40
19.0
 40
19.0
 40
19.0
 40
20.0
 40
20.0
 40
20.0
 40
21.0
 40
21.0
 40
21.0
 40
22.0
 40
22.0
 40
22.0
 40
23.0
 40
23.0
 40
23.0
 40
24.0
 40
24.0
 40
24.0
 40
24.0
 10
97.88515351285511
 20
-113.9599690470309
 10
97.83864472380424
 20
-113.9854627536217
 10
97.71393226723819
 20
-113.9982096069171
 10
97.63572859972302
 20
-113.9982096069171
 10
97.6229817464276
 20
-113.9982096069171
 10
97.59748803983675
 20
-113.9982096069171
 10
97.5637261040813
 20
-113.9940754923348
 10
97.5637261040813
 20
-113.9940754923348
 10
97.46622990184872
 20
-113.7677327189539
 10
97.46622990184872
 20
-113.7677327189539
 10
97.49585772302187
 20
-113.7739338908274
 10
97.55304630807701
 20
-113.7825466295405
 10
97.66949053547846
 20
-113.7825466295405
 10
97.74769420299364
 20
-113.7825466295405
 10
97.74976126028479
 20
-113.7401719550719
 10
97.74976126028479
 20
-113.6829833700168
 10
97.74976126028479
 20
-113.6829833700168
 10
97.74976126028479
 20
-113.3339951973609
 10
97.74976126028479
 20
-113.3339951973609
 10
97.74976126028479
 20
-113.3339951973609
 10
97.29087454164952
 20
-113.3339951973609
 10
97.29087454164952
 20
-113.3339951973609
 10
97.29294159894066
 20
-113.4714545072224
 10
97.29500865623181
 20
-113.6702365167213
 10
97.30120982810526
 20
-113.8035617120005
 10
97.30362139494493
 20
-113.8311224758825
 10
97.30362139494493
 20
-113.8755642076422
 10
97.31602373869183
 20
-113.9368869072797
 10
97.31602373869183
 20
-113.9368869072797
 10
97.07486705472434
 20
-113.9368869072797
 10
97.07486705472434
 20
-113.9368869072797
 10
97.10036076131519
 20
-113.8121744507136
 10
97.10036076131519
 20
-113.4714545072224
 10
97.10036076131519
 20
-113.3339951973609
 10
97.10036076131519
 20
-113.3339951973609
 10
96.65835501055764
 20
-113.3339951973609
 10
96.65835501055764
 20
-113.3339951973609
 10
96.63492836125793
 20
-113.541389945573
 10
96.56947154703819
 20
-113.809762883874
 10
96.37275659483042
 20
-113.9940754923348
 10
96.37275659483042
 20
-113.9940754923348
 10
96.18430987178726
 20
-113.8714300930599
 10
96.18430987178726
 20
-113.8714300930599
 10
96.43821340905018
 20
-113.6512884915525
 10
96.46990828751447
 20
-113.3191812867744
 10
96.46990828751447
 20
-112.9870740819963
 10
96.46990828751447
 20
-112.9870740819963
 10
96.46990828751447
 20
-112.5512695031122
 10
96.46990828751447
 20
-112.5512695031122
 10
96.46990828751447
 20
-112.5150960005171
 10
96.46784123022333
 20
-112.2825520552627
 10
96.4592284915102
 20
-112.1809217384478
 10
96.59909936821134
 20
-112.1916015344521
 10
96.84025605217883
 20
-112.1916015344521
 10
96.98391653391374
 20
-112.1916015344521
 10
96.98391653391374
 20
-112.1916015344521
 10
97.44314776209755
 20
-112.1916015344521
 10
97.44314776209755
 20
-112.1916015344521
 10
97.45796167268412
 20
-112.1916015344521
 10
97.80694984533993
 20
-112.1916015344521
 10
97.96576874720995
 20
-112.1809217384478
 10
97.96335718037028
 20
-112.2339762089207
 10
97.95715600849682
 20
-112.3945176585333
 10
97.95715600849682
 20
-112.445505071715
 10
97.95715600849682
 20
-112.445505071715
 10
97.95715600849682
 20
-113.052530896216
 10
97.95715600849682
 20
-113.052530896216
 10
97.95715600849682
 20
-113.0714789213849
 10
97.9678358045011
 20
-113.6426757528393
 10
97.9678358045011
 20
-113.7549858656585
 10
97.9678358045011
 20
-113.8121744507136
 10
97.9678358045011
 20
-113.91346025798
 10
97.88515351285511
 20
-113.9599690470309
 97
        0
 97
        0
 92
        1
 93
        4
 72
     1
 10
97.10036076131519
 20
-112.3735025760733
 11
96.66248912513994
 21
-112.3735025760733
 72
     1
 10
96.66248912513994
 20
-112.3735025760733
 11
96.66248912513994
 21
-112.6780490169694
 72
     1
 10
96.66248912513994
 20
-112.6780490169694
 11
97.10036076131519
 21
-112.6780490169694
 72
     1
 10
97.10036076131519
 20
-112.6780490169694
 11
97.10036076131519
 21
-112.3735025760733
 97
        0
 92
        1
 93
        4
 72
     1
 10
97.10036076131519
 20
-112.845136148004
 11
96.66248912513994
 21
-112.845136148004
 72
     1
 10
96.66248912513994
 20
-112.845136148004
 11
96.66248912513994
 21
-113.1541612130309
 72
     1
 10
96.66248912513994
 20
-113.1541612130309
 11
97.10036076131519
 21
-113.1541612130309
 72
     1
 10
97.10036076131519
 20
-113.1541612130309
 11
97.10036076131519
 21
-112.845136148004
 97
        0
 92
        1
 93
        4
 72
     1
 10
97.74976126028479
 20
-112.3735025760733
 11
97.29087454164952
 21
-112.3735025760733
 72
     1
 10
97.29087454164952
 20
-112.3735025760733
 11
97.29087454164952
 21
-112.6780490169694
 72
     1
 10
97.29087454164952
 20
-112.6780490169694
 11
97.74976126028479
 21
-112.6780490169694
 72
     1
 10
97.74976126028479
 20
-112.6780490169694
 11
97.74976126028479
 21
-112.3735025760733
 97
        0
 92
        1
 93
        4
 72
     1
 10
97.74976126028479
 20
-112.845136148004
 11
97.29087454164952
 21
-112.845136148004
 72
     1
 10
97.29087454164952
 20
-112.845136148004
 11
97.29087454164952
 21
-113.1541612130309
 72
     1
 10
97.29087454164952
 20
-113.1541612130309
 11
97.74976126028479
 21
-113.1541612130309
 72
     1
 10
97.74976126028479
 20
-113.1541612130309
 11
97.74976126028479
 21
-112.845136148004
 97
        0
 75
     2
 76
     1
 98
        0
  0
SPLINE
  5
7F
330
4E
100
AcDbEntity
  8
_U+30EC_U+30A4_U+30E4_U+30FC 1
370
     0
100
AcDbSpline
210
0.0
220
0.0
230
1.0
 70
    11
 71
     3
 72
    44
 73
    40
 74
     0
 42
0.0000000001
 43
0.0000000001
 12
1.0
 22
0.0
 32
0.0
 13
1.0
 23
0.0
 33
0.0
 40
0.0
 40
0.0
 40
0.0
 40
0.0
 40
1.0
 40
1.0
 40
1.0
 40
2.0
 40
2.0
 40
2.0
 40
3.0
 40
3.0
 40
3.0
 40
4.0
 40
4.0
 40
4.0
 40
5.0
 40
5.0
 40
5.0
 40
6.0
 40
6.0
 40
6.0
 40
7.0
 40
7.0
 40
7.0
 40
8.0
 40
8.0
 40
8.0
 40
9.0
 40
9.0
 40
9.0
 40
10.0
 40
10.0
 40
10.0
 40
11.0
 40
11.0
 40
11.0
 40
12.0
 40
12.0
 40
12.0
 40
13.0
 40
13.0
 40
13.0
 40
13.0
 10
99.76273055231627
 20
-112.7097438954337
 30
0.0
 10
99.65076494904565
 20
-113.0780246028069
 30
0.0
 10
99.59977753586395
 20
-113.2364989951284
 30
0.0
 10
99.40306258365618
 20
-113.486268417809
 30
0.0
 10
99.21909448474385
 20
-113.7167453057722
 30
0.0
 10
98.98207191535866
 20
-113.9031249715242
 30
0.0
 10
98.70301918105342
 20
-113.996142549626
 30
0.0
 10
98.70301918105342
 20
-113.996142549626
 30
0.0
 10
98.51043834342795
 20
-113.8163085652959
 30
0.0
 10
98.51043834342795
 20
-113.8163085652959
 30
0.0
 10
99.15157061323295
 20
-113.6640353448479
 30
0.0
 10
99.48126625117135
 20
-113.10765242398
 30
0.0
 10
99.54500051764848
 20
-112.6677137305136
 30
0.0
 10
99.54500051764848
 20
-112.6677137305136
 30
0.0
 10
98.77915579127743
 20
-112.6677137305136
 30
0.0
 10
98.77915579127743
 20
-112.6677137305136
 30
0.0
 10
98.6861382131757
 20
-112.6677137305136
 30
0.0
 10
98.50182560471482
 20
-112.6718478450959
 30
0.0
 10
98.34541826968449
 20
-112.6907958702648
 30
0.0
 10
98.34541826968449
 20
-112.6907958702648
 30
0.0
 10
98.34541826968449
 20
-112.4706542687573
 30
0.0
 10
98.34541826968449
 20
-112.4706542687573
 30
0.0
 10
98.43223467591278
 20
-112.4920138607659
 30
0.0
 10
98.68372664633601
 20
-112.4920138607659
 30
0.0
 10
98.78328990585973
 20
-112.4920138607659
 30
0.0
 10
98.78328990585973
 20
-112.4920138607659
 30
0.0
 10
99.21496037016155
 20
-112.4920138607659
 30
0.0
 10
99.21496037016155
 20
-112.4920138607659
 30
0.0
 10
99.25733504463011
 20
-112.4920138607659
 30
0.0
 10
99.49194604717563
 20
-112.4899468034747
 30
0.0
 10
99.5301866070619
 20
-112.4834011220528
 30
0.0
 10
99.57256128153047
 20
-112.4771999501793
 30
0.0
 10
99.57462833882163
 20
-112.4751328928882
 30
0.0
 10
99.63595103845907
 20
-112.4348252757108
 30
0.0
 10
99.63595103845907
 20
-112.4348252757108
 30
0.0
 10
99.82405325195371
 20
-112.5891655534499
 30
0.0
 10
99.82405325195371
 20
-112.5891655534499
 30
0.0
 10
99.79442543078056
 20
-112.6187933746231
 30
0.0
 10
99.779611520194
 20
-112.6504882530874
 30
0.0
 10
99.76273055231627
 20
-112.7097438954337
 30
0.0
  0
SPLINE
  5
80
330
4E
100
AcDbEntity
  8
_U+30EC_U+30A4_U+30E4_U+30FC 1
370
     0
100
AcDbSpline
210
0.0
220
0.0
230
1.0
 70
    11
 71
     3
 72
    17
 73
    13
 74
     0
 42
0.0000000001
 43
0.0000000001
 12
1.0
 22
0.0
 32
0.0
 13
1.0
 23
0.0
 33
0.0
 40
0.0
 40
0.0
 40
0.0
 40
0.0
 40
1.0
 40
1.0
 40
1.0
 40
2.0
 40
2.0
 40
2.0
 40
3.0
 40
3.0
 40
3.0
 40
4.0
 40
4.0
 40
4.0
 40
4.0
 10
99.97219235781945
 20
-112.5109618859348
 30
0.0
 10
99.84541284396227
 20
-112.5109618859348
 30
0.0
 10
99.74378252714739
 20
-112.4093315691199
 30
0.0
 10
99.74378252714739
 20
-112.2825520552627
 30
0.0
 10
99.74378252714739
 20
-112.1557725414055
 30
0.0
 10
99.84541284396227
 20
-112.0520751672995
 30
0.0
 10
99.97219235781945
 20
-112.0520751672995
 30
0.0
 10
100.0993163812252
 20
-112.0520751672995
 30
0.0
 10
100.2030137553312
 20
-112.1557725414055
 30
0.0
 10
100.2030137553312
 20
-112.2825520552627
 30
0.0
 10
100.2030137553312
 20
-112.4093315691199
 30
0.0
 10
100.0993163812252
 20
-112.5109618859348
 30
0.0
 10
99.97219235781945
 20
-112.5109618859348
 30
0.0
  0
SPLINE
  5
81
330
4E
100
AcDbEntity
  8
_U+30EC_U+30A4_U+30E4_U+30FC 1
370
     0
100
AcDbSpline
210
0.0
220
0.0
230
1.0
 70
    11
 71
     3
 72
    17
 73
    13
 74
     0
 42
0.0000000001
 43
0.0000000001
 12
1.0
 22
0.0
 32
0.0
 13
1.0
 23
0.0
 33
0.0
 40
0.0
 40
0.0
 40
0.0
 40
0.0
 40
1.0
 40
1.0
 40
1.0
 40
2.0
 40
2.0
 40
2.0
 40
3.0
 40
3.0
 40
3.0
 40
4.0
 40
4.0
 40
4.0
 40
4.0
 10
99.97012530052831
 20
-112.1809217384478
 30
0.0
 10
99.91500377276431
 20
-112.1809217384478
 30
0.0
 10
99.87056204100459
 20
-112.2253634702076
 30
0.0
 10
99.87056204100459
 20
-112.2804849979716
 30
0.0
 10
99.87056204100459
 20
-112.3376735830267
 30
0.0
 10
99.91500377276431
 20
-112.3862494293687
 30
0.0
 10
99.97425941511061
 20
-112.3862494293687
 30
0.0
 10
100.0335150574569
 20
-112.3862494293687
 30
0.0
 10
100.0738226746343
 20
-112.335262016187
 30
0.0
 10
100.0738226746343
 20
-112.2825520552627
 30
0.0
 10
100.0738226746343
 20
-112.2253634702076
 30
0.0
 10
100.0273138855835
 20
-112.1809217384478
 30
0.0
 10
99.97012530052831
 20
-112.1809217384478
 30
0.0
  0
HATCH
  5
82
330
4E
100
AcDbEntity
  8
_U+30EC_U+30A4_U+30E4_U+30FC 1
 62
   179
420
  2234388
100
AcDbHatch
 10
0.0
 20
0.0
 30
0.0
210
0.0
220
0.0
230
1.0
  2
SOLID
 70
     1
 71
     0
 91
        3
 92
        1
 93
        1
 72
     4
 94
        3
 73
     0
 74
     1
 95
       44
 96
       40
 40
0.0
 40
0.0
 40
0.0
 40
0.0
 40
1.0
 40
1.0
 40
1.0
 40
2.0
 40
2.0
 40
2.0
 40
3.0
 40
3.0
 40
3.0
 40
4.0
 40
4.0
 40
4.0
 40
5.0
 40
5.0
 40
5.0
 40
6.0
 40
6.0
 40
6.0
 40
7.0
 40
7.0
 40
7.0
 40
8.0
 40
8.0
 40
8.0
 40
9.0
 40
9.0
 40
9.0
 40
10.0
 40
10.0
 40
10.0
 40
11.0
 40
11.0
 40
11.0
 40
12.0
 40
12.0
 40
12.0
 40
13.0
 40
13.0
 40
13.0
 40
13.0
 10
99.76273055231627
 20
-112.7097438954337
 10
99.65076494904565
 20
-113.0780246028069
 10
99.59977753586395
 20
-113.2364989951284
 10
99.40306258365618
 20
-113.486268417809
 10
99.21909448474385
 20
-113.7167453057722
 10
98.98207191535866
 20
-113.9031249715242
 10
98.70301918105342
 20
-113.996142549626
 10
98.70301918105342
 20
-113.996142549626
 10
98.51043834342795
 20
-113.8163085652959
 10
98.51043834342795
 20
-113.8163085652959
 10
99.15157061323295
 20
-113.6640353448479
 10
99.48126625117135
 20
-113.10765242398
 10
99.54500051764848
 20
-112.6677137305136
 10
99.54500051764848
 20
-112.6677137305136
 10
98.77915579127743
 20
-112.6677137305136
 10
98.77915579127743
 20
-112.6677137305136
 10
98.6861382131757
 20
-112.6677137305136
 10
98.50182560471482
 20
-112.6718478450959
 10
98.34541826968449
 20
-112.6907958702648
 10
98.34541826968449
 20
-112.6907958702648
 10
98.34541826968449
 20
-112.4706542687573
 10
98.34541826968449
 20
-112.4706542687573
 10
98.43223467591278
 20
-112.4920138607659
 10
98.68372664633601
 20
-112.4920138607659
 10
98.78328990585973
 20
-112.4920138607659
 10
98.78328990585973
 20
-112.4920138607659
 10
99.21496037016155
 20
-112.4920138607659
 10
99.21496037016155
 20
-112.4920138607659
 10
99.25733504463011
 20
-112.4920138607659
 10
99.49194604717563
 20
-112.4899468034747
 10
99.5301866070619
 20
-112.4834011220528
 10
99.57256128153047
 20
-112.4771999501793
 10
99.57462833882163
 20
-112.4751328928882
 10
99.63595103845907
 20
-112.4348252757108
 10
99.63595103845907
 20
-112.4348252757108
 10
99.82405325195371
 20
-112.5891655534499
 10
99.82405325195371
 20
-112.5891655534499
 10
99.79442543078056
 20
-112.6187933746231
 10
99.779611520194
 20
-112.6504882530874
 10
99.76273055231627
 20
-112.7097438954337
 97
        0
 97
        0
 92
        1
 93
        1
 72
     4
 94
        3
 73
     0
 74
     1
 95
       17
 96
       13
 40
0.0
 40
0.0
 40
0.0
 40
0.0
 40
1.0
 40
1.0
 40
1.0
 40
2.0
 40
2.0
 40
2.0
 40
3.0
 40
3.0
 40
3.0
 40
4.0
 40
4.0
 40
4.0
 40
4.0
 10
99.97219235781945
 20
-112.5109618859348
 10
99.84541284396227
 20
-112.5109618859348
 10
99.74378252714739
 20
-112.4093315691199
 10
99.74378252714739
 20
-112.2825520552627
 10
99.74378252714739
 20
-112.1557725414055
 10
99.84541284396227
 20
-112.0520751672995
 10
99.97219235781945
 20
-112.0520751672995
 10
100.0993163812252
 20
-112.0520751672995
 10
100.2030137553312
 20
-112.1557725414055
 10
100.2030137553312
 20
-112.2825520552627
 10
100.2030137553312
 20
-112.4093315691199
 10
100.0993163812252
 20
-112.5109618859348
 10
99.97219235781945
 20
-112.5109618859348
 97
        0
 97
        0
 92
        1
 93
        1
 72
     4
 94
        3
 73
     0
 74
     1
 95
       17
 96
       13
 40
0.0
 40
0.0
 40
0.0
 40
0.0
 40
1.0
 40
1.0
 40
1.0
 40
2.0
 40
2.0
 40
2.0
 40
3.0
 40
3.0
 40
3.0
 40
4.0
 40
4.0
 40
4.0
 40
4.0
 10
99.97012530052831
 20
-112.1809217384478
 10
99.91500377276431
 20
-112.1809217384478
 10
99.87056204100459
 20
-112.2253634702076
 10
99.87056204100459
 20
-112.2804849979716
 10
99.87056204100459
 20
-112.3376735830267
 10
99.91500377276431
 20
-112.3862494293687
 10
99.97425941511061
 20
-112.3862494293687
 10
100.0335150574569
 20
-112.3862494293687
 10
100.0738226746343
 20
-112.335262016187
 10
100.0738226746343
 20
-112.2825520552627
 10
100.0738226746343
 20
-112.2253634702076
 10
100.0273138855835
 20
-112.1809217384478
 10
99.97012530052831
 20
-112.1809217384478
 97
        0
 97
        0
 75
     2
 76
     1
 98
        0
  0
SPLINE
  5
83
330
4E
100
AcDbEntity
  8
_U+30EC_U+30A4_U+30E4_U+30FC 1
370
     0
100
AcDbSpline
210
0.0
220
0.0
230
1.0
 70
    11
 71
     3
 72
    50
 73
    46
 74
     0
 42
0.0000000001
 43
0.0000000001
 12
1.0
 22
0.0
 32
0.0
 13
1.0
 23
0.0
 33
0.0
 40
0.0
 40
0.0
 40
0.0
 40
0.0
 40
1.0
 40
1.0
 40
1.0
 40
2.0
 40
2.0
 40
2.0
 40
3.0
 40
3.0
 40
3.0
 40
4.0
 40
4.0
 40
4.0
 40
5.0
 40
5.0
 40
5.0
 40
6.0
 40
6.0
 40
6.0
 40
7.0
 40
7.0
 40
7.0
 40
8.0
 40
8.0
 40
8.0
 40
9.0
 40
9.0
 40
9.0
 40
10.0
 40
10.0
 40
10.0
 40
11.0
 40
11.0
 40
11.0
 40
12.0
 40
12.0
 40
12.0
 40
13.0
 40
13.0
 40
13.0
 40
14.0
 40
14.0
 40
14.0
 40
15.0
 40
15.0
 40
15.0
 40
15.0
 10
101.7674316151831
 20
-113.0187689604606
 30
0.0
 10
101.6888834381194
 20
-113.1965358874995
 30
0.0
 10
101.5534911855491
 20
-113.403586126163
 30
0.0
 10
101.4160318756877
 20
-113.5434570028641
 30
0.0
 10
101.2468776873619
 20
-113.7146782484811
 30
0.0
 10
101.0839246709096
 20
-113.8035617120005
 30
0.0
 10
100.7645643194269
 20
-113.9451551364443
 30
0.0
 10
100.7645643194269
 20
-113.9451551364443
 30
0.0
 10
100.5954101311011
 20
-113.7570529229496
 30
0.0
 10
100.5954101311011
 20
-113.7570529229496
 30
0.0
 10
100.7814452873046
 20
-113.7336262736499
 30
0.0
 10
100.9526665329216
 20
-113.6471543769702
 30
0.0
 10
101.1052842629181
 20
-113.541389945573
 30
0.0
 10
101.3674560293456
 20
-113.3594889039518
 30
0.0
 10
101.55796980968
 20
-113.0463297243426
 30
0.0
 10
101.606545656022
 20
-112.8644286827214
 30
0.0
 10
101.606545656022
 20
-112.8644286827214
 30
0.0
 10
100.9357855650438
 20
-112.8644286827214
 30
0.0
 10
100.9357855650438
 20
-112.8644286827214
 30
0.0
 10
100.7773111727223
 20
-112.8644286827214
 30
0.0
 10
100.4851670755732
 20
-112.872696911886
 30
0.0
 10
100.3328938551251
 20
-112.8895778797637
 30
0.0
 10
100.3328938551251
 20
-112.8895778797637
 30
0.0
 10
100.3328938551251
 20
-112.6611680490917
 30
0.0
 10
100.3328938551251
 20
-112.6611680490917
 30
0.0
 10
100.3670003004291
 20
-112.6677137305136
 30
0.0
 10
100.3921494974714
 20
-112.6739149023871
 30
0.0
 10
100.4452039679443
 20
-112.6780490169694
 30
0.0
 10
100.5464897752106
 20
-112.6845946983914
 30
0.0
 10
100.7435492369669
 20
-112.6866617556825
 30
0.0
 10
100.8279540763555
 20
-112.6866617556825
 30
0.0
 10
100.8279540763555
 20
-112.6866617556825
 30
0.0
 10
101.3336940935902
 20
-112.6866617556825
 30
0.0
 10
101.3336940935902
 20
-112.6866617556825
 30
0.0
 10
101.4012179651011
 20
-112.6866617556825
 30
0.0
 10
101.5472900136757
 20
-112.6825276411002
 30
0.0
 10
101.6086127133131
 20
-112.6759819596782
 30
0.0
 10
101.6806152089548
 20
-112.6677137305136
 30
0.0
 10
101.7081759728369
 20
-112.6528998199271
 30
0.0
 10
101.7419379085923
 20
-112.6294731706274
 30
0.0
 10
101.7419379085923
 20
-112.6294731706274
 30
0.0
 10
101.9069579823358
 20
-112.796560301662
 30
0.0
 10
101.9069579823358
 20
-112.796560301662
 30
0.0
 10
101.8370225439852
 20
-112.8644286827214
 30
0.0
 10
101.7905137549343
 20
-112.9681260568274
 30
0.0
 10
101.7674316151831
 20
-113.0187689604606
 30
0.0
  0
SPLINE
  5
84
330
4E
100
AcDbEntity
  8
_U+30EC_U+30A4_U+30E4_U+30FC 1
370
     0
100
AcDbSpline
210
0.0
220
0.0
230
1.0
 70
    11
 71
     3
 72
    29
 73
    25
 74
     0
 42
0.0000000001
 43
0.0000000001
 12
1.0
 22
0.0
 32
0.0
 13
1.0
 23
0.0
 33
0.0
 40
0.0
 40
0.0
 40
0.0
 40
0.0
 40
1.0
 40
1.0
 40
1.0
 40
2.0
 40
2.0
 40
2.0
 40
3.0
 40
3.0
 40
3.0
 40
4.0
 40
4.0
 40
4.0
 40
5.0
 40
5.0
 40
5.0
 40
6.0
 40
6.0
 40
6.0
 40
7.0
 40
7.0
 40
7.0
 40
8.0
 40
8.0
 40
8.0
 40
8.0
 10
101.2744384512439
 20
-112.3924506012422
 30
0.0
 10
101.2744384512439
 20
-112.3924506012422
 30
0.0
 10
100.9337185077527
 20
-112.3924506012422
 30
0.0
 10
100.9337185077527
 20
-112.3924506012422
 30
0.0
 10
100.8196858471909
 20
-112.3924506012422
 30
0.0
 10
100.7032416197895
 20
-112.396929225373
 30
0.0
 10
100.5888644496792
 20
-112.4117431359596
 30
0.0
 10
100.5888644496792
 20
-112.4117431359596
 30
0.0
 10
100.5888644496792
 20
-112.2022813304564
 30
0.0
 10
100.5888644496792
 20
-112.2022813304564
 30
0.0
 10
100.7073757343718
 20
-112.217095241043
 30
0.0
 10
100.8810085468284
 20
-112.2212293556253
 30
0.0
 10
100.9337185077527
 20
-112.2212293556253
 30
0.0
 10
100.9337185077527
 20
-112.2212293556253
 30
0.0
 10
101.2744384512439
 20
-112.2212293556253
 30
0.0
 10
101.2744384512439
 20
-112.2212293556253
 30
0.0
 10
101.3908826786453
 20
-112.2212293556253
 30
0.0
 10
101.5069823964983
 20
-112.217095241043
 30
0.0
 10
101.6234266238997
 20
-112.2022813304564
 30
0.0
 10
101.6234266238997
 20
-112.2022813304564
 30
0.0
 10
101.6234266238997
 20
-112.4117431359596
 30
0.0
 10
101.6234266238997
 20
-112.4117431359596
 30
0.0
 10
101.4732204607428
 20
-112.3924506012422
 30
0.0
 10
101.2892523618305
 20
-112.3924506012422
 30
0.0
 10
101.2744384512439
 20
-112.3924506012422
 30
0.0
  0
HATCH
  5
85
330
4E
100
AcDbEntity
  8
_U+30EC_U+30A4_U+30E4_U+30FC 1
 62
   179
420
  2234388
100
AcDbHatch
 10
0.0
 20
0.0
 30
0.0
210
0.0
220
0.0
230
1.0
  2
SOLID
 70
     1
 71
     0
 91
        2
 92
        1
 93
        1
 72
     4
 94
        3
 73
     0
 74
     1
 95
       50
 96
       46
 40
0.0
 40
0.0
 40
0.0
 40
0.0
 40
1.0
 40
1.0
 40
1.0
 40
2.0
 40
2.0
 40
2.0
 40
3.0
 40
3.0
 40
3.0
 40
4.0
 40
4.0
 40
4.0
 40
5.0
 40
5.0
 40
5.0
 40
6.0
 40
6.0
 40
6.0
 40
7.0
 40
7.0
 40
7.0
 40
8.0
 40
8.0
 40
8.0
 40
9.0
 40
9.0
 40
9.0
 40
10.0
 40
10.0
 40
10.0
 40
11.0
 40
11.0
 40
11.0
 40
12.0
 40
12.0
 40
12.0
 40
13.0
 40
13.0
 40
13.0
 40
14.0
 40
14.0
 40
14.0
 40
15.0
 40
15.0
 40
15.0
 40
15.0
 10
101.7674316151831
 20
-113.0187689604606
 10
101.6888834381194
 20
-113.1965358874995
 10
101.5534911855491
 20
-113.403586126163
 10
101.4160318756877
 20
-113.5434570028641
 10
101.2468776873619
 20
-113.7146782484811
 10
101.0839246709096
 20
-113.8035617120005
 10
100.7645643194269
 20
-113.9451551364443
 10
100.7645643194269
 20
-113.9451551364443
 10
100.5954101311011
 20
-113.7570529229496
 10
100.5954101311011
 20
-113.7570529229496
 10
100.7814452873046
 20
-113.7336262736499
 10
100.9526665329216
 20
-113.6471543769702
 10
101.1052842629181
 20
-113.541389945573
 10
101.3674560293456
 20
-113.3594889039518
 10
101.55796980968
 20
-113.0463297243426
 10
101.606545656022
 20
-112.8644286827214
 10
101.606545656022
 20
-112.8644286827214
 10
100.9357855650438
 20
-112.8644286827214
 10
100.9357855650438
 20
-112.8644286827214
 10
100.7773111727223
 20
-112.8644286827214
 10
100.4851670755732
 20
-112.872696911886
 10
100.3328938551251
 20
-112.8895778797637
 10
100.3328938551251
 20
-112.8895778797637
 10
100.3328938551251
 20
-112.6611680490917
 10
100.3328938551251
 20
-112.6611680490917
 10
100.3670003004291
 20
-112.6677137305136
 10
100.3921494974714
 20
-112.6739149023871
 10
100.4452039679443
 20
-112.6780490169694
 10
100.5464897752106
 20
-112.6845946983914
 10
100.7435492369669
 20
-112.6866617556825
 10
100.8279540763555
 20
-112.6866617556825
 10
100.8279540763555
 20
-112.6866617556825
 10
101.3336940935902
 20
-112.6866617556825
 10
101.3336940935902
 20
-112.6866617556825
 10
101.4012179651011
 20
-112.6866617556825
 10
101.5472900136757
 20
-112.6825276411002
 10
101.6086127133131
 20
-112.6759819596782
 10
101.6806152089548
 20
-112.6677137305136
 10
101.7081759728369
 20
-112.6528998199271
 10
101.7419379085923
 20
-112.6294731706274
 10
101.7419379085923
 20
-112.6294731706274
 10
101.9069579823358
 20
-112.796560301662
 10
101.9069579823358
 20
-112.796560301662
 10
101.8370225439852
 20
-112.8644286827214
 10
101.7905137549343
 20
-112.9681260568274
 10
101.7674316151831
 20
-113.0187689604606
 97
        0
 97
        0
 92
        1
 93
        1
 72
     4
 94
        3
 73
     0
 74
     1
 95
       29
 96
       25
 40
0.0
 40
0.0
 40
0.0
 40
0.0
 40
1.0
 40
1.0
 40
1.0
 40
2.0
 40
2.0
 40
2.0
 40
3.0
 40
3.0
 40
3.0
 40
4.0
 40
4.0
 40
4.0
 40
5.0
 40
5.0
 40
5.0
 40
6.0
 40
6.0
 40
6.0
 40
7.0
 40
7.0
 40
7.0
 40
8.0
 40
8.0
 40
8.0
 40
8.0
 10
101.2744384512439
 20
-112.3924506012422
 10
101.2744384512439
 20
-112.3924506012422
 10
100.9337185077527
 20
-112.3924506012422
 10
100.9337185077527
 20
-112.3924506012422
 10
100.8196858471909
 20
-112.3924506012422
 10
100.7032416197895
 20
-112.396929225373
 10
100.5888644496792
 20
-112.4117431359596
 10
100.5888644496792
 20
-112.4117431359596
 10
100.5888644496792
 20
-112.2022813304564
 10
100.5888644496792
 20
-112.2022813304564
 10
100.7073757343718
 20
-112.217095241043
 10
100.8810085468284
 20
-112.2212293556253
 10
100.9337185077527
 20
-112.2212293556253
 10
100.9337185077527
 20
-112.2212293556253
 10
101.2744384512439
 20
-112.2212293556253
 10
101.2744384512439
 20
-112.2212293556253
 10
101.3908826786453
 20
-112.2212293556253
 10
101.5069823964983
 20
-112.217095241043
 10
101.6234266238997
 20
-112.2022813304564
 10
101.6234266238997
 20
-112.2022813304564
 10
101.6234266238997
 20
-112.4117431359596
 10
101.6234266238997
 20
-112.4117431359596
 10
101.4732204607428
 20
-112.3924506012422
 10
101.2892523618305
 20
-112.3924506012422
 10
101.2744384512439
 20
-112.3924506012422
 97
        0
 97
        0
 75
     2
 76
     1
 98
        0
  0
SPLINE
  5
86
330
4E
100
AcDbEntity
  8
_U+30EC_U+30A4_U+30E4_U+30FC 1
370
     0
100
AcDbSpline
210
0.0
220
0.0
230
1.0
 70
    11
 71
     3
 72
    50
 73
    46
 74
     0
 42
0.0000000001
 43
0.0000000001
 12
1.0
 22
0.0
 32
0.0
 13
1.0
 23
0.0
 33
0.0
 40
0.0
 40
0.0
 40
0.0
 40
0.0
 40
1.0
 40
1.0
 40
1.0
 40
2.0
 40
2.0
 40
2.0
 40
3.0
 40
3.0
 40
3.0
 40
4.0
 40
4.0
 40
4.0
 40
5.0
 40
5.0
 40
5.0
 40
6.0
 40
6.0
 40
6.0
 40
7.0
 40
7.0
 40
7.0
 40
8.0
 40
8.0
 40
8.0
 40
9.0
 40
9.0
 40
9.0
 40
10.0
 40
10.0
 40
10.0
 40
11.0
 40
11.0
 40
11.0
 40
12.0
 40
12.0
 40
12.0
 40
13.0
 40
13.0
 40
13.0
 40
14.0
 40
14.0
 40
14.0
 40
15.0
 40
15.0
 40
15.0
 40
15.0
 10
103.4775770140612
 20
-112.3776366906556
 30
0.0
 10
103.268115208558
 20
-112.5912326107411
 30
0.0
 10
103.1964572224648
 20
-112.6632351063828
 30
0.0
 10
103.0545192884725
 20
-112.7817463910754
 30
0.0
 10
103.0545192884725
 20
-112.7817463910754
 30
0.0
 10
103.0545192884725
 20
-113.3488091079475
 30
0.0
 10
103.0545192884725
 20
-113.3488091079475
 30
0.0
 10
103.0545192884725
 20
-113.4990152711044
 30
0.0
 10
103.0610649698945
 20
-113.5179632962733
 30
0.0
 10
103.0651990844768
 20
-113.6957302233122
 30
0.0
 10
103.0672661417679
 20
-113.8269883613002
 30
0.0
 10
103.0734673136414
 20
-113.8755642076422
 30
0.0
 10
103.0800129950633
 20
-113.9348198499885
 30
0.0
 10
103.0800129950633
 20
-113.9348198499885
 30
0.0
 10
102.8536702216824
 20
-113.9348198499885
 30
0.0
 10
102.8536702216824
 20
-113.9348198499885
 30
0.0
 10
102.8578043362647
 20
-113.8903781182288
 30
0.0
 10
102.861938450847
 20
-113.8438693291779
 30
0.0
 10
102.861938450847
 20
-113.8352565904648
 30
0.0
 10
102.861938450847
 20
-113.7549858656585
 30
0.0
 10
102.8664170749778
 20
-113.403586126163
 30
0.0
 10
102.8664170749778
 20
-113.3319281400698
 30
0.0
 10
102.8664170749778
 20
-113.3319281400698
 30
0.0
 10
102.8664170749778
 20
-112.9257513823588
 30
0.0
 10
102.8664170749778
 20
-112.9257513823588
 30
0.0
 10
102.6845160333567
 20
-113.0504638389249
 30
0.0
 10
102.48986813844
 20
-113.1603623849044
 30
0.0
 10
102.2866075048103
 20
-113.2471787911327
 30
0.0
 10
102.2866075048103
 20
-113.2471787911327
 30
0.0
 10
102.0836913807291
 20
-113.0842257746803
 30
0.0
 10
102.0836913807291
 20
-113.0842257746803
 30
0.0
 10
102.206336780004
 20
-113.0483967816337
 30
0.0
 10
102.462307374558
 20
-112.9743272287009
 30
0.0
 10
102.8071614326315
 20
-112.7183566341468
 30
0.0
 10
103.0228244100082
 20
-112.5595377322768
 30
0.0
 10
103.2154052476337
 20
-112.3714355187821
 30
0.0
 10
103.3676784680817
 20
-112.1512939172747
 30
0.0
 10
103.3676784680817
 20
-112.1512939172747
 30
0.0
 10
103.5602593057072
 20
-112.2952989085581
 30
0.0
 10
103.5602593057072
 20
-112.2952989085581
 30
0.0
 10
103.5730061590026
 20
-112.3059787045624
 30
0.0
 10
103.5812743881672
 20
-112.3204481056004
 30
0.0
 10
103.5812743881672
 20
-112.3331949588959
 30
0.0
 10
103.5812743881672
 20
-112.3735025760733
 30
0.0
 10
103.5433783378294
 20
-112.3735025760733
 30
0.0
 10
103.4775770140612
 20
-112.3776366906556
 30
0.0
  0
HATCH
  5
87
330
4E
100
AcDbEntity
  8
_U+30EC_U+30A4_U+30E4_U+30FC 1
 62
   179
420
  2234388
100
AcDbHatch
 10
0.0
 20
0.0
 30
0.0
210
0.0
220
0.0
230
1.0
  2
SOLID
 70
     1
 71
     0
 91
        1
 92
        1
 93
        1
 72
     4
 94
        3
 73
     0
 74
     1
 95
       50
 96
       46
 40
0.0
 40
0.0
 40
0.0
 40
0.0
 40
1.0
 40
1.0
 40
1.0
 40
2.0
 40
2.0
 40
2.0
 40
3.0
 40
3.0
 40
3.0
 40
4.0
 40
4.0
 40
4.0
 40
5.0
 40
5.0
 40
5.0
 40
6.0
 40
6.0
 40
6.0
 40
7.0
 40
7.0
 40
7.0
 40
8.0
 40
8.0
 40
8.0
 40
9.0
 40
9.0
 40
9.0
 40
10.0
 40
10.0
 40
10.0
 40
11.0
 40
11.0
 40
11.0
 40
12.0
 40
12.0
 40
12.0
 40
13.0
 40
13.0
 40
13.0
 40
14.0
 40
14.0
 40
14.0
 40
15.0
 40
15.0
 40
15.0
 40
15.0
 10
103.4775770140612
 20
-112.3776366906556
 10
103.268115208558
 20
-112.5912326107411
 10
103.1964572224648
 20
-112.6632351063828
 10
103.0545192884725
 20
-112.7817463910754
 10
103.0545192884725
 20
-112.7817463910754
 10
103.0545192884725
 20
-113.3488091079475
 10
103.0545192884725
 20
-113.3488091079475
 10
103.0545192884725
 20
-113.4990152711044
 10
103.0610649698945
 20
-113.5179632962733
 10
103.0651990844768
 20
-113.6957302233122
 10
103.0672661417679
 20
-113.8269883613002
 10
103.0734673136414
 20
-113.8755642076422
 10
103.0800129950633
 20
-113.9348198499885
 10
103.0800129950633
 20
-113.9348198499885
 10
102.8536702216824
 20
-113.9348198499885
 10
102.8536702216824
 20
-113.9348198499885
 10
102.8578043362647
 20
-113.8903781182288
 10
102.861938450847
 20
-113.8438693291779
 10
102.861938450847
 20
-113.8352565904648
 10
102.861938450847
 20
-113.7549858656585
 10
102.8664170749778
 20
-113.403586126163
 10
102.8664170749778
 20
-113.3319281400698
 10
102.8664170749778
 20
-113.3319281400698
 10
102.8664170749778
 20
-112.9257513823588
 10
102.8664170749778
 20
-112.9257513823588
 10
102.6845160333567
 20
-113.0504638389249
 10
102.48986813844
 20
-113.1603623849044
 10
102.2866075048103
 20
-113.2471787911327
 10
102.2866075048103
 20
-113.2471787911327
 10
102.0836913807291
 20
-113.0842257746803
 10
102.0836913807291
 20
-113.0842257746803
 10
102.206336780004
 20
-113.0483967816337
 10
102.462307374558
 20
-112.9743272287009
 10
102.8071614326315
 20
-112.7183566341468
 10
103.0228244100082
 20
-112.5595377322768
 10
103.2154052476337
 20
-112.3714355187821
 10
103.3676784680817
 20
-112.1512939172747
 10
103.3676784680817
 20
-112.1512939172747
 10
103.5602593057072
 20
-112.2952989085581
 10
103.5602593057072
 20
-112.2952989085581
 10
103.5730061590026
 20
-112.3059787045624
 10
103.5812743881672
 20
-112.3204481056004
 10
103.5812743881672
 20
-112.3331949588959
 10
103.5812743881672
 20
-112.3735025760733
 10
103.5433783378294
 20
-112.3735025760733
 10
103.4775770140612
 20
-112.3776366906556
 97
        0
 97
        0
 75
     2
 76
     1
 98
        0
  0
SPLINE
  5
88
330
4E
100
AcDbEntity
  8
_U+30EC_U+30A4_U+30E4_U+30FC 1
370
     0
100
AcDbSpline
210
0.0
220
0.0
230
1.0
 70
    11
 71
     3
 72
    50
 73
    46
 74
     0
 42
0.0000000001
 43
0.0000000001
 12
1.0
 22
0.0
 32
0.0
 13
1.0
 23
0.0
 33
0.0
 40
0.0
 40
0.0
 40
0.0
 40
0.0
 40
1.0
 40
1.0
 40
1.0
 40
2.0
 40
2.0
 40
2.0
 40
3.0
 40
3.0
 40
3.0
 40
4.0
 40
4.0
 40
4.0
 40
5.0
 40
5.0
 40
5.0
 40
6.0
 40
6.0
 40
6.0
 40
7.0
 40
7.0
 40
7.0
 40
8.0
 40
8.0
 40
8.0
 40
9.0
 40
9.0
 40
9.0
 40
10.0
 40
10.0
 40
10.0
 40
11.0
 40
11.0
 40
11.0
 40
12.0
 40
12.0
 40
12.0
 40
13.0
 40
13.0
 40
13.0
 40
14.0
 40
14.0
 40
14.0
 40
15.0
 40
15.0
 40
15.0
 40
15.0
 10
105.1859998651966
 20
-112.9043917903503
 30
0.0
 10
105.1246771655591
 20
-112.976394285992
 30
0.0
 10
104.8642279468742
 20
-113.2936875801835
 30
0.0
 10
104.8073838713676
 20
-113.3570773371121
 30
0.0
 10
104.8917887107562
 20
-113.4545735393447
 30
0.0
 10
104.9427761239379
 20
-113.5179632962733
 30
0.0
 10
105.0082329381577
 20
-113.6089138170839
 30
0.0
 10
105.0082329381577
 20
-113.6089138170839
 30
0.0
 10
104.8242648392453
 20
-113.7463731269454
 30
0.0
 10
104.8242648392453
 20
-113.7463731269454
 30
0.0
 10
104.688872586675
 20
-113.534844264151
 30
0.0
 10
104.5173068315096
 20
-113.3105685480613
 30
0.0
 10
104.2234401866178
 20
-113.1117865385623
 30
0.0
 10
104.2234401866178
 20
-113.1117865385623
 30
0.0
 10
104.3715792924835
 20
-112.9574462608231
 30
0.0
 10
104.3715792924835
 20
-112.9574462608231
 30
0.0
 10
104.481477838463
 20
-113.0377169856295
 30
0.0
 10
104.585175212569
 20
-113.1266004491489
 30
0.0
 10
104.682326905253
 20
-113.2216850845418
 30
0.0
 10
104.7501952863125
 20
-113.1455484743178
 30
0.0
 10
104.9531114103937
 20
-112.9023247330591
 30
0.0
 10
105.0864366056728
 20
-112.6739149023871
 30
0.0
 10
105.0864366056728
 20
-112.6739149023871
 30
0.0
 10
104.4136094574036
 20
-112.6739149023871
 30
0.0
 10
104.4136094574036
 20
-112.6739149023871
 30
0.0
 10
104.2888970008375
 20
-112.6739149023871
 30
0.0
 10
104.0370605208657
 20
-112.6825276411002
 30
0.0
 10
103.8275987153626
 20
-112.692862927556
 30
0.0
 10
103.8275987153626
 20
-112.692862927556
 30
0.0
 10
103.8275987153626
 20
-112.473065835597
 30
0.0
 10
103.8275987153626
 20
-112.473065835597
 30
0.0
 10
104.0119113238234
 20
-112.4920138607659
 30
0.0
 10
104.2168945051958
 20
-112.4961479753482
 30
0.0
 10
104.405341228239
 20
-112.4961479753482
 30
0.0
 10
104.405341228239
 20
-112.4961479753482
 30
0.0
 10
104.9086696786339
 20
-112.4961479753482
 30
0.0
 10
104.9086696786339
 20
-112.4961479753482
 30
0.0
 10
105.247322564834
 20
-112.4961479753482
 30
0.0
 10
105.2917642965937
 20
-112.4813340647616
 30
0.0
 10
105.3741020786912
 20
-112.4410264475842
 30
0.0
 10
105.3741020786912
 20
-112.4410264475842
 30
0.0
 10
105.5411892097258
 20
-112.5998453494542
 30
0.0
 10
105.5411892097258
 20
-112.5998453494542
 30
0.0
 10
105.3889159892778
 20
-112.6718478450959
 30
0.0
 10
105.2452555075429
 20
-112.8348008615482
 30
0.0
 10
105.1859998651966
 20
-112.9043917903503
 30
0.0
  0
HATCH
  5
89
330
4E
100
AcDbEntity
  8
_U+30EC_U+30A4_U+30E4_U+30FC 1
 62
   179
420
  2234388
100
AcDbHatch
 10
0.0
 20
0.0
 30
0.0
210
0.0
220
0.0
230
1.0
  2
SOLID
 70
     1
 71
     0
 91
        1
 92
        1
 93
        1
 72
     4
 94
        3
 73
     0
 74
     1
 95
       50
 96
       46
 40
0.0
 40
0.0
 40
0.0
 40
0.0
 40
1.0
 40
1.0
 40
1.0
 40
2.0
 40
2.0
 40
2.0
 40
3.0
 40
3.0
 40
3.0
 40
4.0
 40
4.0
 40
4.0
 40
5.0
 40
5.0
 40
5.0
 40
6.0
 40
6.0
 40
6.0
 40
7.0
 40
7.0
 40
7.0
 40
8.0
 40
8.0
 40
8.0
 40
9.0
 40
9.0
 40
9.0
 40
10.0
 40
10.0
 40
10.0
 40
11.0
 40
11.0
 40
11.0
 40
12.0
 40
12.0
 40
12.0
 40
13.0
 40
13.0
 40
13.0
 40
14.0
 40
14.0
 40
14.0
 40
15.0
 40
15.0
 40
15.0
 40
15.0
 10
105.1859998651966
 20
-112.9043917903503
 10
105.1246771655591
 20
-112.976394285992
 10
104.8642279468742
 20
-113.2936875801835
 10
104.8073838713676
 20
-113.3570773371121
 10
104.8917887107562
 20
-113.4545735393447
 10
104.9427761239379
 20
-113.5179632962733
 10
105.0082329381577
 20
-113.6089138170839
 10
105.0082329381577
 20
-113.6089138170839
 10
104.8242648392453
 20
-113.7463731269454
 10
104.8242648392453
 20
-113.7463731269454
 10
104.688872586675
 20
-113.534844264151
 10
104.5173068315096
 20
-113.3105685480613
 10
104.2234401866178
 20
-113.1117865385623
 10
104.2234401866178
 20
-113.1117865385623
 10
104.3715792924835
 20
-112.9574462608231
 10
104.3715792924835
 20
-112.9574462608231
 10
104.481477838463
 20
-113.0377169856295
 10
104.585175212569
 20
-113.1266004491489
 10
104.682326905253
 20
-113.2216850845418
 10
104.7501952863125
 20
-113.1455484743178
 10
104.9531114103937
 20
-112.9023247330591
 10
105.0864366056728
 20
-112.6739149023871
 10
105.0864366056728
 20
-112.6739149023871
 10
104.4136094574036
 20
-112.6739149023871
 10
104.4136094574036
 20
-112.6739149023871
 10
104.2888970008375
 20
-112.6739149023871
 10
104.0370605208657
 20
-112.6825276411002
 10
103.8275987153626
 20
-112.692862927556
 10
103.8275987153626
 20
-112.692862927556
 10
103.8275987153626
 20
-112.473065835597
 10
103.8275987153626
 20
-112.473065835597
 10
104.0119113238234
 20
-112.4920138607659
 10
104.2168945051958
 20
-112.4961479753482
 10
104.405341228239
 20
-112.4961479753482
 10
104.405341228239
 20
-112.4961479753482
 10
104.9086696786339
 20
-112.4961479753482
 10
104.9086696786339
 20
-112.4961479753482
 10
105.247322564834
 20
-112.4961479753482
 10
105.2917642965937
 20
-112.4813340647616
 10
105.3741020786912
 20
-112.4410264475842
 10
105.3741020786912
 20
-112.4410264475842
 10
105.5411892097258
 20
-112.5998453494542
 10
105.5411892097258
 20
-112.5998453494542
 10
105.3889159892778
 20
-112.6718478450959
 10
105.2452555075429
 20
-112.8348008615482
 10
105.1859998651966
 20
-112.9043917903503
 97
        0
 97
        0
 75
     2
 76
     1
 98
        0
  0
SPLINE
  5
8A
330
4E
100
AcDbEntity
  8
_U+30EC_U+30A4_U+30E4_U+30FC 1
370
     0
100
AcDbSpline
210
0.0
220
0.0
230
1.0
 70
    11
 71
     3
 72
    29
 73
    25
 74
     0
 42
0.0000000001
 43
0.0000000001
 12
1.0
 22
0.0
 32
0.0
 13
1.0
 23
0.0
 33
0.0
 40
0.0
 40
0.0
 40
0.0
 40
0.0
 40
1.0
 40
1.0
 40
1.0
 40
2.0
 40
2.0
 40
2.0
 40
3.0
 40
3.0
 40
3.0
 40
4.0
 40
4.0
 40
4.0
 40
5.0
 40
5.0
 40
5.0
 40
6.0
 40
6.0
 40
6.0
 40
7.0
 40
7.0
 40
7.0
 40
8.0
 40
8.0
 40
8.0
 40
8.0
 10
106.8093288578463
 20
-113.1476155316089
 30
0.0
 10
106.8093288578463
 20
-113.1476155316089
 30
0.0
 10
106.3249484326202
 20
-113.1476155316089
 30
0.0
 10
106.3249484326202
 20
-113.1476155316089
 30
0.0
 10
106.2973876687382
 20
-113.1476155316089
 30
0.0
 10
105.9800943745467
 20
-113.1476155316089
 30
0.0
 10
105.7685655117523
 20
-113.1731092381998
 30
0.0
 10
105.7685655117523
 20
-113.1731092381998
 30
0.0
 10
105.7685655117523
 20
-112.9426323502366
 30
0.0
 10
105.7685655117523
 20
-112.9426323502366
 30
0.0
 10
105.9270399040738
 20
-112.9657144899877
 30
0.0
 10
106.1175536844081
 20
-112.9681260568274
 30
0.0
 10
106.3249484326202
 20
-112.9681260568274
 30
0.0
 10
106.3249484326202
 20
-112.9681260568274
 30
0.0
 10
106.8093288578463
 20
-112.9681260568274
 30
0.0
 10
106.8093288578463
 20
-112.9681260568274
 30
0.0
 10
106.9953640140498
 20
-112.9681260568274
 30
0.0
 10
107.1817436798018
 20
-112.9657144899877
 30
0.0
 10
107.3657117787141
 20
-112.9426323502366
 30
0.0
 10
107.3657117787141
 20
-112.9426323502366
 30
0.0
 10
107.3657117787141
 20
-113.1731092381998
 30
0.0
 10
107.3657117787141
 20
-113.1731092381998
 30
0.0
 10
107.1817436798018
 20
-113.1500270984486
 30
0.0
 10
106.9340413144123
 20
-113.1476155316089
 30
0.0
 10
106.8093288578463
 20
-113.1476155316089
 30
0.0
  0
HATCH
  5
8B
330
4E
100
AcDbEntity
  8
_U+30EC_U+30A4_U+30E4_U+30FC 1
 62
   179
420
  2234388
100
AcDbHatch
 10
0.0
 20
0.0
 30
0.0
210
0.0
220
0.0
230
1.0
  2
SOLID
 70
     1
 71
     0
 91
        1
 92
        1
 93
        1
 72
     4
 94
        3
 73
     0
 74
     1
 95
       29
 96
       25
 40
0.0
 40
0.0
 40
0.0
 40
0.0
 40
1.0
 40
1.0
 40
1.0
 40
2.0
 40
2.0
 40
2.0
 40
3.0
 40
3.0
 40
3.0
 40
4.0
 40
4.0
 40
4.0
 40
5.0
 40
5.0
 40
5.0
 40
6.0
 40
6.0
 40
6.0
 40
7.0
 40
7.0
 40
7.0
 40
8.0
 40
8.0
 40
8.0
 40
8.0
 10
106.8093288578463
 20
-113.1476155316089
 10
106.8093288578463
 20
-113.1476155316089
 10
106.3249484326202
 20
-113.1476155316089
 10
106.3249484326202
 20
-113.1476155316089
 10
106.2973876687382
 20
-113.1476155316089
 10
105.9800943745467
 20
-113.1476155316089
 10
105.7685655117523
 20
-113.1731092381998
 10
105.7685655117523
 20
-113.1731092381998
 10
105.7685655117523
 20
-112.9426323502366
 10
105.7685655117523
 20
-112.9426323502366
 10
105.9270399040738
 20
-112.9657144899877
 10
106.1175536844081
 20
-112.9681260568274
 10
106.3249484326202
 20
-112.9681260568274
 10
106.3249484326202
 20
-112.9681260568274
 10
106.8093288578463
 20
-112.9681260568274
 10
106.8093288578463
 20
-112.9681260568274
 10
106.9953640140498
 20
-112.9681260568274
 10
107.1817436798018
 20
-112.9657144899877
 10
107.3657117787141
 20
-112.9426323502366
 10
107.3657117787141
 20
-112.9426323502366
 10
107.3657117787141
 20
-113.1731092381998
 10
107.3657117787141
 20
-113.1731092381998
 10
107.1817436798018
 20
-113.1500270984486
 10
106.9340413144123
 20
-113.1476155316089
 10
106.8093288578463
 20
-113.1476155316089
 97
        0
 97
        0
 75
     2
 76
     1
 98
        0
  0
ENDBLK
  5
51
330
4E
100
AcDbEntity
  8
0
100
AcDbBlockEnd
  0
BLOCK
  5
C7
330
C5
100
AcDbEntity
  8
0
100
AcDbBlockBegin
  2
block 3
 70
     0
 10
0.0
 20
0.0
 30
0.0
  3
block 3
  1

  0
SPLINE
  5
C9
330
C5
100
AcDbEntity
  8
_U+30EC_U+30A4_U+30E4_U+30FC 1
370
     0
100
AcDbSpline
210
0.0
220
0.0
230
1.0
 70
    11
 71
     3
 72
    26
 73
    22
 74
     0
 42
0.0000000001
 43
0.0000000001
 12
1.0
 22
0.0
 32
0.0
 13
1.0
 23
0.0
 33
0.0
 40
0.0
 40
0.0
 40
0.0
 40
0.0
 40
1.0
 40
1.0
 40
1.0
 40
2.0
 40
2.0
 40
2.0
 40
3.0
 40
3.0
 40
3.0
 40
4.0
 40
4.0
 40
4.0
 40
5.0
 40
5.0
 40
5.0
 40
6.0
 40
6.0
 40
6.0
 40
7.0
 40
7.0
 40
7.0
 40
7.0
 10
84.50509166724179
 20
-120.6246785180209
 30
0.0
 10
84.50509166724179
 20
-120.6246785180209
 30
0.0
 10
84.50509166724179
 20
-119.5203531602241
 30
0.0
 10
84.50509166724179
 20
-119.5203531602241
 30
0.0
 10
84.50509166724179
 20
-119.5203531602241
 30
0.0
 10
84.1523138895522
 20
-119.5203531602241
 30
0.0
 10
84.1523138895522
 20
-119.5203531602241
 30
0.0
 10
84.1523138895522
 20
-119.5203531602241
 30
0.0
 10
84.1523138895522
 20
-119.3722140543583
 30
0.0
 10
84.1523138895522
 20
-119.3722140543583
 30
0.0
 10
84.5073309793072
 20
-119.357572398546
 30
0.0
 10
84.55711260906907
 20
-119.1946193820937
 30
0.0
 10
84.58880748753336
 20
-119.0804144667577
 30
0.0
 10
84.58880748753336
 20
-119.0804144667577
 30
0.0
 10
84.74469805824091
 20
-119.0804144667577
 30
0.0
 10
84.74469805824091
 20
-119.0804144667577
 30
0.0
 10
84.74469805824091
 20
-119.0804144667577
 30
0.0
 10
84.74469805824091
 20
-120.6246785180209
 30
0.0
 10
84.74469805824091
 20
-120.6246785180209
 30
0.0
 10
84.74469805824091
 20
-120.6246785180209
 30
0.0
 10
84.50509166724179
 20
-120.6246785180209
 30
0.0
 10
84.50509166724179
 20
-120.6246785180209
 30
0.0
  0
HATCH
  5
CA
330
C5
100
AcDbEntity
  8
_U+30EC_U+30A4_U+30E4_U+30FC 1
 62
     7
420
 16777215
100
AcDbHatch
 10
0.0
 20
0.0
 30
0.0
210
0.0
220
0.0
230
1.0
  2
SOLID
 70
     1
 71
     0
 91
        1
 92
        1
 93
        1
 72
     4
 94
        3
 73
     0
 74
     1
 95
       26
 96
       22
 40
0.0
 40
0.0
 40
0.0
 40
0.0
 40
1.0
 40
1.0
 40
1.0
 40
2.0
 40
2.0
 40
2.0
 40
3.0
 40
3.0
 40
3.0
 40
4.0
 40
4.0
 40
4.0
 40
5.0
 40
5.0
 40
5.0
 40
6.0
 40
6.0
 40
6.0
 40
7.0
 40
7.0
 40
7.0
 40
7.0
 10
84.50509166724179
 20
-120.6246785180209
 10
84.50509166724179
 20
-120.6246785180209
 10
84.50509166724179
 20
-119.5203531602241
 10
84.50509166724179
 20
-119.5203531602241
 10
84.50509166724179
 20
-119.5203531602241
 10
84.1523138895522
 20
-119.5203531602241
 10
84.1523138895522
 20
-119.5203531602241
 10
84.1523138895522
 20
-119.5203531602241
 10
84.1523138895522
 20
-119.3722140543583
 10
84.1523138895522
 20
-119.3722140543583
 10
84.5073309793072
 20
-119.357572398546
 10
84.55711260906907
 20
-119.1946193820937
 10
84.58880748753336
 20
-119.0804144667577
 10
84.58880748753336
 20
-119.0804144667577
 10
84.74469805824091
 20
-119.0804144667577
 10
84.74469805824091
 20
-119.0804144667577
 10
84.74469805824091
 20
-119.0804144667577
 10
84.74469805824091
 20
-120.6246785180209
 10
84.74469805824091
 20
-120.6246785180209
 10
84.74469805824091
 20
-120.6246785180209
 10
84.50509166724179
 20
-120.6246785180209
 10
84.50509166724179
 20
-120.6246785180209
 97
        0
 97
        0
 75
     2
 76
     1
 98
        0
  0
ENDBLK
  5
C8
330
C5
100
AcDbEntity
  8
0
100
AcDbBlockEnd
  0
BLOCK
  5
D9
330
D7
100
AcDbEntity
  8
0
100
AcDbBlockBegin
  2
block 4
 70
     0
 10
0.0
 20
0.0
 30
0.0
  3
block 4
  1

  0
SPLINE
  5
DB
330
D7
100
AcDbEntity
  8
_U+30EC_U+30A4_U+30E4_U+30FC 1
370
     0
100
AcDbSpline
210
0.0
220
0.0
230
1.0
 70
    11
 71
     3
 72
    26
 73
    22
 74
     0
 42
0.0000000001
 43
0.0000000001
 12
1.0
 22
0.0
 32
0.0
 13
1.0
 23
0.0
 33
0.0
 40
0.0
 40
0.0
 40
0.0
 40
0.0
 40
1.0
 40
1.0
 40
1.0
 40
2.0
 40
2.0
 40
2.0
 40
3.0
 40
3.0
 40
3.0
 40
4.0
 40
4.0
 40
4.0
 40
5.0
 40
5.0
 40
5.0
 40
6.0
 40
6.0
 40
6.0
 40
7.0
 40
7.0
 40
7.0
 40
7.0
 10
86.83328719617363
 20
-143.7431640265642
 30
0.0
 10
86.83328719617363
 20
-143.7431640265642
 30
0.0
 10
86.83328719617363
 20
-142.6390109235416
 30
0.0
 10
86.83328719617363
 20
-142.6390109235416
 30
0.0
 10
86.83328719617363
 20
-142.6390109235416
 30
0.0
 10
86.48085392803257
 20
-142.6390109235416
 30
0.0
 10
86.48085392803257
 20
-142.6390109235416
 30
0.0
 10
86.48085392803257
 20
-142.6390109235416
 30
0.0
 10
86.48085392803257
 20
-142.4908718176759
 30
0.0
 10
86.48085392803257
 20
-142.4908718176759
 30
0.0
 10
86.8356987630133
 20
-142.4760579070893
 30
0.0
 10
86.8853081380009
 20
-142.313104890637
 30
0.0
 10
86.9170030164652
 20
-142.1987277205267
 30
0.0
 10
86.9170030164652
 20
-142.1987277205267
 30
0.0
 10
87.07306584194701
 20
-142.1987277205267
 30
0.0
 10
87.07306584194701
 20
-142.1987277205267
 30
0.0
 10
87.07306584194701
 20
-142.1987277205267
 30
0.0
 10
87.07306584194701
 20
-143.7431640265642
 30
0.0
 10
87.07306584194701
 20
-143.7431640265642
 30
0.0
 10
87.07306584194701
 20
-143.7431640265642
 30
0.0
 10
86.83328719617363
 20
-143.7431640265642
 30
0.0
 10
86.83328719617363
 20
-143.7431640265642
 30
0.0
  0
HATCH
  5
DC
330
D7
100
AcDbEntity
  8
_U+30EC_U+30A4_U+30E4_U+30FC 1
 62
     7
420
 16777215
100
AcDbHatch
 10
0.0
 20
0.0
 30
0.0
210
0.0
220
0.0
230
1.0
  2
SOLID
 70
     1
 71
     0
 91
        1
 92
        1
 93
        1
 72
     4
 94
        3
 73
     0
 74
     1
 95
       26
 96
       22
 40
0.0
 40
0.0
 40
0.0
 40
0.0
 40
1.0
 40
1.0
 40
1.0
 40
2.0
 40
2.0
 40
2.0
 40
3.0
 40
3.0
 40
3.0
 40
4.0
 40
4.0
 40
4.0
 40
5.0
 40
5.0
 40
5.0
 40
6.0
 40
6.0
 40
6.0
 40
7.0
 40
7.0
 40
7.0
 40
7.0
 10
86.83328719617363
 20
-143.7431640265642
 10
86.83328719617363
 20
-143.7431640265642
 10
86.83328719617363
 20
-142.6390109235416
 10
86.83328719617363
 20
-142.6390109235416
 10
86.83328719617363
 20
-142.6390109235416
 10
86.48085392803257
 20
-142.6390109235416
 10
86.48085392803257
 20
-142.6390109235416
 10
86.48085392803257
 20
-142.6390109235416
 10
86.48085392803257
 20
-142.4908718176759
 10
86.48085392803257
 20
-142.4908718176759
 10
86.8356987630133
 20
-142.4760579070893
 10
86.8853081380009
 20
-142.313104890637
 10
86.9170030164652
 20
-142.1987277205267
 10
86.9170030164652
 20
-142.1987277205267
 10
87.07306584194701
 20
-142.1987277205267
 10
87.07306584194701
 20
-142.1987277205267
 10
87.07306584194701
 20
-142.1987277205267
 10
87.07306584194701
 20
-143.7431640265642
 10
87.07306584194701
 20
-143.7431640265642
 10
87.07306584194701
 20
-143.7431640265642
 10
86.83328719617363
 20
-143.7431640265642
 10
86.83328719617363
 20
-143.7431640265642
 97
        0
 97
        0
 75
     2
 76
     1
 98
        0
  0
POLYLINE
  5
DD
330
D7
100
AcDbEntity
  8
_U+30EC_U+30A4_U+30E4_U+30FC 1
370
     0
100
AcDb2dPolyline
 66
     1
 10
0.0
 20
0.0
 30
0.0
  0
VERTEX
  5
DE
330
DD
100
AcDbEntity
  8
_U+30EC_U+30A4_U+30E4_U+30FC 1
370
     0
100
AcDbVertex
100
AcDb2dVertex
 10
88.49830184419487
 20
-143.3962429111996
 30
0.0
  0
VERTEX
  5
DF
330
DD
100
AcDbEntity
  8
_U+30EC_U+30A4_U+30E4_U+30FC 1
370
     0
100
AcDbVertex
100
AcDb2dVertex
 10
88.49830184419487
 20
-143.7431640265642
 30
0.0
  0
VERTEX
  5
E0
330
DD
100
AcDbEntity
  8
_U+30EC_U+30A4_U+30E4_U+30FC 1
370
     0
100
AcDbVertex
100
AcDb2dVertex
 10
88.26541338939198
 20
-143.7431640265642
 30
0.0
  0
VERTEX
  5
E1
330
DD
100
AcDbEntity
  8
_U+30EC_U+30A4_U+30E4_U+30FC 1
370
     0
100
AcDbVertex
100
AcDb2dVertex
 10
88.26541338939198
 20
-143.3962429111996
 30
0.0
  0
VERTEX
  5
E2
330
DD
100
AcDbEntity
  8
_U+30EC_U+30A4_U+30E4_U+30FC 1
370
     0
100
AcDbVertex
100
AcDb2dVertex
 10
87.56433645814364
 20
-143.3962429111996
 30
0.0
  0
VERTEX
  5
E3
330
DD
100
AcDbEntity
  8
_U+30EC_U+30A4_U+30E4_U+30FC 1
370
     0
100
AcDbVertex
100
AcDb2dVertex
 10
87.56433645814364
 20
-143.1719671951098
 30
0.0
  0
VERTEX
  5
E4
330
DD
100
AcDbEntity
  8
_U+30EC_U+30A4_U+30E4_U+30FC 1
370
     0
100
AcDbVertex
100
AcDb2dVertex
 10
88.29021807688578
 20
-142.1987277205267
 30
0.0
  0
VERTEX
  5
E5
330
DD
100
AcDbEntity
  8
_U+30EC_U+30A4_U+30E4_U+30FC 1
370
     0
100
AcDbVertex
100
AcDb2dVertex
 10
88.49830184419487
 20
-142.1987277205267
 30
0.0
  0
VERTEX
  5
E6
330
DD
100
AcDbEntity
  8
_U+30EC_U+30A4_U+30E4_U+30FC 1
370
     0
100
AcDbVertex
100
AcDb2dVertex
 10
88.49830184419487
 20
-143.1974609017007
 30
0.0
  0
VERTEX
  5
E7
330
DD
100
AcDbEntity
  8
_U+30EC_U+30A4_U+30E4_U+30FC 1
370
     0
100
AcDbVertex
100
AcDb2dVertex
 10
88.71982148389644
 20
-143.1974609017007
 30
0.0
  0
VERTEX
  5
E8
330
DD
100
AcDbEntity
  8
_U+30EC_U+30A4_U+30E4_U+30FC 1
370
     0
100
AcDbVertex
100
AcDb2dVertex
 10
88.71982148389644
 20
-143.3962429111996
 30
0.0
  0
VERTEX
  5
E9
330
DD
100
AcDbEntity
  8
_U+30EC_U+30A4_U+30E4_U+30FC 1
370
     0
100
AcDbVertex
100
AcDb2dVertex
 10
88.49830184419487
 20
-143.3962429111996
 30
0.0
  0
SEQEND
  5
EA
330
DD
100
AcDbEntity
  8
_U+30EC_U+30A4_U+30E4_U+30FC 1
370
     0
  0
POLYLINE
  5
EB
330
D7
100
AcDbEntity
  8
_U+30EC_U+30A4_U+30E4_U+30FC 1
370
     0
100
AcDb2dPolyline
 66
     1
 10
0.0
 20
0.0
 30
0.0
  0
VERTEX
  5
EC
330
EB
100
AcDbEntity
  8
_U+30EC_U+30A4_U+30E4_U+30FC 1
370
     0
100
AcDbVertex
100
AcDb2dVertex
 10
88.26541338939198
 20
-142.5415147213091
 30
0.0
  0
VERTEX
  5
ED
330
EB
100
AcDbEntity
  8
_U+30EC_U+30A4_U+30E4_U+30FC 1
370
     0
100
AcDbVertex
100
AcDb2dVertex
 10
87.77689884958356
 20
-143.1974609017007
 30
0.0
  0
VERTEX
  5
EE
330
EB
100
AcDbEntity
  8
_U+30EC_U+30A4_U+30E4_U+30FC 1
370
     0
100
AcDbVertex
100
AcDb2dVertex
 10
88.26541338939198
 20
-143.1974609017007
 30
0.0
  0
VERTEX
  5
EF
330
EB
100
AcDbEntity
  8
_U+30EC_U+30A4_U+30E4_U+30FC 1
370
     0
100
AcDbVertex
100
AcDb2dVertex
 10
88.26541338939198
 20
-142.5415147213091
 30
0.0
  0
SEQEND
  5
F0
330
EB
100
AcDbEntity
  8
_U+30EC_U+30A4_U+30E4_U+30FC 1
370
     0
  0
HATCH
  5
F1
330
D7
100
AcDbEntity
  8
_U+30EC_U+30A4_U+30E4_U+30FC 1
 62
     7
420
 16777215
100
AcDbHatch
 10
0.0
 20
0.0
 30
0.0
210
0.0
220
0.0
230
1.0
  2
SOLID
 70
     1
 71
     0
 91
        2
 92
        1
 93
       11
 72
     1
 10
88.49830184419487
 20
-143.3962429111996
 11
88.49830184419487
 21
-143.7431640265642
 72
     1
 10
88.49830184419487
 20
-143.7431640265642
 11
88.26541338939198
 21
-143.7431640265642
 72
     1
 10
88.26541338939198
 20
-143.7431640265642
 11
88.26541338939198
 21
-143.3962429111996
 72
     1
 10
88.26541338939198
 20
-143.3962429111996
 11
87.56433645814364
 21
-143.3962429111996
 72
     1
 10
87.56433645814364
 20
-143.3962429111996
 11
87.56433645814364
 21
-143.1719671951098
 72
     1
 10
87.56433645814364
 20
-143.1719671951098
 11
88.29021807688578
 21
-142.1987277205267
 72
     1
 10
88.29021807688578
 20
-142.1987277205267
 11
88.49830184419487
 21
-142.1987277205267
 72
     1
 10
88.49830184419487
 20
-142.1987277205267
 11
88.49830184419487
 21
-143.1974609017007
 72
     1
 10
88.49830184419487
 20
-143.1974609017007
 11
88.71982148389644
 21
-143.1974609017007
 72
     1
 10
88.71982148389644
 20
-143.1974609017007
 11
88.71982148389644
 21
-143.3962429111996
 72
     1
 10
88.71982148389644
 20
-143.3962429111996
 11
88.49830184419487
 21
-143.3962429111996
 97
        0
 92
        1
 93
        3
 72
     1
 10
88.26541338939198
 20
-142.5415147213091
 11
87.77689884958356
 21
-143.1974609017007
 72
     1
 10
87.77689884958356
 20
-143.1974609017007
 11
88.26541338939198
 21
-143.1974609017007
 72
     1
 10
88.26541338939198
 20
-143.1974609017007
 11
88.26541338939198
 21
-142.5415147213091
 97
        0
 75
     2
 76
     1
 98
        0
  0
ENDBLK
  5
DA
330
D7
100
AcDbEntity
  8
0
100
AcDbBlockEnd
  0
BLOCK
  5
102
330
100
100
AcDbEntity
  8
0
100
AcDbBlockBegin
  2
block 5
 70
     0
 10
0.0
 20
0.0
 30
0.0
  3
block 5
  1

  0
SPLINE
  5
104
330
100
100
AcDbEntity
  8
_U+30EC_U+30A4_U+30E4_U+30FC 1
370
     0
100
AcDbSpline
210
0.0
220
0.0
230
1.0
 70
    11
 71
     3
 72
    32
 73
    28
 74
     0
 42
0.0000000001
 43
0.0000000001
 12
1.0
 22
0.0
 32
0.0
 13
1.0
 23
0.0
 33
0.0
 40
0.0
 40
0.0
 40
0.0
 40
0.0
 40
1.0
 40
1.0
 40
1.0
 40
2.0
 40
2.0
 40
2.0
 40
3.0
 40
3.0
 40
3.0
 40
4.0
 40
4.0
 40
4.0
 40
5.0
 40
5.0
 40
5.0
 40
6.0
 40
6.0
 40
6.0
 40
7.0
 40
7.0
 40
7.0
 40
8.0
 40
8.0
 40
8.0
 40
9.0
 40
9.0
 40
9.0
 40
9.0
 10
84.61877981825504
 20
-114.1883788777029
 30
0.0
 10
84.06722003106653
 20
-114.1883788777029
 30
0.0
 10
84.05826278280489
 20
-113.6344075236747
 30
0.0
 10
84.05826278280489
 20
-113.4204670940407
 30
0.0
 10
84.05826278280489
 20
-113.1899902060775
 30
0.0
 10
84.07858884616786
 20
-112.5426567643991
 30
0.0
 10
84.6597764545295
 20
-112.5426567643991
 30
0.0
 10
84.84512259163594
 20
-112.5426567643991
 30
0.0
 10
85.10729435806346
 20
-112.6125922027496
 30
0.0
 10
85.1479464847894
 20
-112.9446994075277
 30
0.0
 10
85.1479464847894
 20
-112.9446994075277
 30
0.0
 10
84.91953665411734
 20
-112.9446994075277
 30
0.0
 10
84.91953665411734
 20
-112.9446994075277
 30
0.0
 10
84.90816783901602
 20
-112.8875108224726
 30
0.0
 10
84.87440590326057
 20
-112.7393717166068
 30
0.0
 10
84.65736488768982
 20
-112.7393717166068
 30
0.0
 10
84.3452392367262
 20
-112.7393717166068
 30
0.0
 10
84.3025200527091
 20
-113.0673448068026
 30
0.0
 10
84.2887396707681
 20
-113.272327988175
 30
0.0
 10
84.38830293029181
 20
-113.1941243206598
 30
0.0
 10
84.46064993548207
 20
-113.1348686783135
 30
0.0
 10
84.65529783039868
 20
-113.1348686783135
 30
0.0
 10
84.8471896489271
 20
-113.1348686783135
 30
0.0
 10
85.17068411499206
 20
-113.2430446765504
 30
0.0
 10
85.17068411499206
 20
-113.6492214342613
 30
0.0
 10
85.17068411499206
 20
-113.968581785744
 30
0.0
 10
84.95812172355214
 20
-114.1883788777029
 30
0.0
 10
84.61877981825504
 20
-114.1883788777029
 30
0.0
  0
SPLINE
  5
105
330
100
100
AcDbEntity
  8
_U+30EC_U+30A4_U+30E4_U+30FC 1
370
     0
100
AcDbSpline
210
0.0
220
0.0
230
1.0
 70
    11
 71
     3
 72
    17
 73
    13
 74
     0
 42
0.0000000001
 43
0.0000000001
 12
1.0
 22
0.0
 32
0.0
 13
1.0
 23
0.0
 33
0.0
 40
0.0
 40
0.0
 40
0.0
 40
0.0
 40
1.0
 40
1.0
 40
1.0
 40
2.0
 40
2.0
 40
2.0
 40
3.0
 40
3.0
 40
3.0
 40
4.0
 40
4.0
 40
4.0
 40
4.0
 10
84.63703882432685
 20
-113.3295165732301
 30
0.0
 10
84.35660805182752
 20
-113.3295165732301
 30
0.0
 10
84.31595592510158
 20
-113.5410454360245
 30
0.0
 10
84.31595592510158
 20
-113.6574896634259
 30
0.0
 10
84.31595592510158
 20
-113.8331895331737
 30
0.0
 10
84.41758624191644
 20
-113.996142549626
 30
0.0
 10
84.61430119412421
 20
-113.996142549626
 30
0.0
 10
84.74314776527255
 20
-113.996142549626
 30
0.0
 10
84.93090546921867
 20
-113.9368869072797
 30
0.0
 10
84.93090546921867
 20
-113.6512884915525
 30
0.0
 10
84.93090546921867
 20
-113.4270127754627
 30
0.0
 10
84.78173283470734
 20
-113.3295165732301
 30
0.0
 10
84.63703882432685
 20
-113.3295165732301
 30
0.0
  0
HATCH
  5
106
330
100
100
AcDbEntity
  8
_U+30EC_U+30A4_U+30E4_U+30FC 1
 62
     7
420
 16777215
100
AcDbHatch
 10
0.0
 20
0.0
 30
0.0
210
0.0
220
0.0
230
1.0
  2
SOLID
 70
     1
 71
     0
 91
        2
 92
        1
 93
        1
 72
     4
 94
        3
 73
     0
 74
     1
 95
       32
 96
       28
 40
0.0
 40
0.0
 40
0.0
 40
0.0
 40
1.0
 40
1.0
 40
1.0
 40
2.0
 40
2.0
 40
2.0
 40
3.0
 40
3.0
 40
3.0
 40
4.0
 40
4.0
 40
4.0
 40
5.0
 40
5.0
 40
5.0
 40
6.0
 40
6.0
 40
6.0
 40
7.0
 40
7.0
 40
7.0
 40
8.0
 40
8.0
 40
8.0
 40
9.0
 40
9.0
 40
9.0
 40
9.0
 10
84.61877981825504
 20
-114.1883788777029
 10
84.06722003106653
 20
-114.1883788777029
 10
84.05826278280489
 20
-113.6344075236747
 10
84.05826278280489
 20
-113.4204670940407
 10
84.05826278280489
 20
-113.1899902060775
 10
84.07858884616786
 20
-112.5426567643991
 10
84.6597764545295
 20
-112.5426567643991
 10
84.84512259163594
 20
-112.5426567643991
 10
85.10729435806346
 20
-112.6125922027496
 10
85.1479464847894
 20
-112.9446994075277
 10
85.1479464847894
 20
-112.9446994075277
 10
84.91953665411734
 20
-112.9446994075277
 10
84.91953665411734
 20
-112.9446994075277
 10
84.90816783901602
 20
-112.8875108224726
 10
84.87440590326057
 20
-112.7393717166068
 10
84.65736488768982
 20
-112.7393717166068
 10
84.3452392367262
 20
-112.7393717166068
 10
84.3025200527091
 20
-113.0673448068026
 10
84.2887396707681
 20
-113.272327988175
 10
84.38830293029181
 20
-113.1941243206598
 10
84.46064993548207
 20
-113.1348686783135
 10
84.65529783039868
 20
-113.1348686783135
 10
84.8471896489271
 20
-113.1348686783135
 10
85.17068411499206
 20
-113.2430446765504
 10
85.17068411499206
 20
-113.6492214342613
 10
85.17068411499206
 20
-113.968581785744
 10
84.95812172355214
 20
-114.1883788777029
 10
84.61877981825504
 20
-114.1883788777029
 97
        0
 97
        0
 92
        1
 93
        1
 72
     4
 94
        3
 73
     0
 74
     1
 95
       17
 96
       13
 40
0.0
 40
0.0
 40
0.0
 40
0.0
 40
1.0
 40
1.0
 40
1.0
 40
2.0
 40
2.0
 40
2.0
 40
3.0
 40
3.0
 40
3.0
 40
4.0
 40
4.0
 40
4.0
 40
4.0
 10
84.63703882432685
 20
-113.3295165732301
 10
84.35660805182752
 20
-113.3295165732301
 10
84.31595592510158
 20
-113.5410454360245
 10
84.31595592510158
 20
-113.6574896634259
 10
84.31595592510158
 20
-113.8331895331737
 10
84.41758624191644
 20
-113.996142549626
 10
84.61430119412421
 20
-113.996142549626
 10
84.74314776527255
 20
-113.996142549626
 10
84.93090546921867
 20
-113.9368869072797
 10
84.93090546921867
 20
-113.6512884915525
 10
84.93090546921867
 20
-113.4270127754627
 10
84.78173283470734
 20
-113.3295165732301
 10
84.63703882432685
 20
-113.3295165732301
 97
        0
 97
        0
 75
     2
 76
     1
 98
        0
  0
ENDBLK
  5
103
330
100
100
AcDbEntity
  8
0
100
AcDbBlockEnd
  0
BLOCK
  5
115
330
113
100
AcDbEntity
  8
0
100
AcDbBlockBegin
  2
block 6
 70
     0
 10
0.0
 20
0.0
 30
0.0
  3
block 6
  1

  0
SPLINE
  5
117
330
113
100
AcDbEntity
  8
_U+30EC_U+30A4_U+30E4_U+30FC 1
370
     0
100
AcDbSpline
210
0.0
220
0.0
230
1.0
 70
    11
 71
     3
 72
    44
 73
    40
 74
     0
 42
0.0000000001
 43
0.0000000001
 12
1.0
 22
0.0
 32
0.0
 13
1.0
 23
0.0
 33
0.0
 40
0.0
 40
0.0
 40
0.0
 40
0.0
 40
1.0
 40
1.0
 40
1.0
 40
2.0
 40
2.0
 40
2.0
 40
3.0
 40
3.0
 40
3.0
 40
4.0
 40
4.0
 40
4.0
 40
5.0
 40
5.0
 40
5.0
 40
6.0
 40
6.0
 40
6.0
 40
7.0
 40
7.0
 40
7.0
 40
8.0
 40
8.0
 40
8.0
 40
9.0
 40
9.0
 40
9.0
 40
10.0
 40
10.0
 40
10.0
 40
11.0
 40
11.0
 40
11.0
 40
12.0
 40
12.0
 40
12.0
 40
13.0
 40
13.0
 40
13.0
 40
13.0
 10
75.33648679757214
 20
-130.0413302626285
 30
0.0
 10
75.49513344466789
 20
-130.2742187174314
 30
0.0
 10
75.56920299760075
 20
-130.3737819769552
 30
0.0
 10
75.71303573410994
 20
-130.4258029187824
 30
0.0
 10
75.71303573410994
 20
-130.4258029187824
 30
0.0
 10
75.71303573410994
 20
-129.5938123590946
 30
0.0
 10
75.71303573410994
 20
-129.5938123590946
 30
0.0
 10
75.71303573410994
 20
-129.5938123590946
 30
0.0
 10
75.91819117025656
 20
-129.5938123590946
 30
0.0
 10
75.91819117025656
 20
-129.5938123590946
 30
0.0
 10
75.91819117025656
 20
-129.5938123590946
 30
0.0
 10
75.91819117025656
 20
-130.6924533093408
 30
0.0
 10
75.91819117025656
 20
-130.6924533093408
 30
0.0
 10
75.56059025888763
 20
-130.6586913735853
 30
0.0
 10
75.48238659137246
 20
-130.5884114256862
 30
0.0
 10
75.18404132234983
 20
-130.1770670247474
 30
0.0
 10
74.98525931285091
 20
-129.9035264432186
 30
0.0
 10
74.91756318656576
 20
-129.8332464953195
 30
0.0
 10
74.78010387670429
 20
-129.8332464953195
 30
0.0
 10
74.66159259201169
 20
-129.8332464953195
 30
0.0
 10
74.53033445402367
 20
-129.9104166341891
 30
0.0
 10
74.53033445402367
 20
-130.1205674587893
 30
0.0
 10
74.53033445402367
 20
-130.398586664449
 30
0.0
 10
74.76098359676115
 20
-130.4078884222591
 30
0.0
 10
74.8774278241626
 20
-130.4120225368414
 30
0.0
 10
74.8774278241626
 20
-130.4120225368414
 30
0.0
 10
74.8774278241626
 20
-130.6518011826148
 30
0.0
 10
74.8774278241626
 20
-130.6518011826148
 30
0.0
 10
74.75047605553114
 20
-130.6428439343532
 30
0.0
 10
74.63833819748625
 20
-130.6314751192519
 30
0.0
 10
74.51982691279366
 20
-130.5456922416691
 30
0.0
 10
74.35911320840675
 20
-130.4278699760736
 30
0.0
 10
74.32517901787705
 20
-130.2290879665747
 30
0.0
 10
74.32517901787705
 20
-130.1047200195572
 30
0.0
 10
74.32517901787705
 20
-129.8084418078257
 30
0.0
 10
74.50931937156365
 20
-129.5872666776726
 30
0.0
 10
74.78217093399543
 20
-129.5872666776726
 30
0.0
 10
75.0105807646675
 20
-129.5872666776726
 30
0.0
 10
75.11014402419121
 20
-129.7112901151416
 30
0.0
 10
75.33648679757214
 20
-130.0413302626285
 30
0.0
  0
HATCH
  5
118
330
113
100
AcDbEntity
  8
_U+30EC_U+30A4_U+30E4_U+30FC 1
 62
     7
420
 16777215
100
AcDbHatch
 10
0.0
 20
0.0
 30
0.0
210
0.0
220
0.0
230
1.0
  2
SOLID
 70
     1
 71
     0
 91
        1
 92
        1
 93
        1
 72
     4
 94
        3
 73
     0
 74
     1
 95
       44
 96
       40
 40
0.0
 40
0.0
 40
0.0
 40
0.0
 40
1.0
 40
1.0
 40
1.0
 40
2.0
 40
2.0
 40
2.0
 40
3.0
 40
3.0
 40
3.0
 40
4.0
 40
4.0
 40
4.0
 40
5.0
 40
5.0
 40
5.0
 40
6.0
 40
6.0
 40
6.0
 40
7.0
 40
7.0
 40
7.0
 40
8.0
 40
8.0
 40
8.0
 40
9.0
 40
9.0
 40
9.0
 40
10.0
 40
10.0
 40
10.0
 40
11.0
 40
11.0
 40
11.0
 40
12.0
 40
12.0
 40
12.0
 40
13.0
 40
13.0
 40
13.0
 40
13.0
 10
75.33648679757214
 20
-130.0413302626285
 10
75.49513344466789
 20
-130.2742187174314
 10
75.56920299760075
 20
-130.3737819769552
 10
75.71303573410994
 20
-130.4258029187824
 10
75.71303573410994
 20
-130.4258029187824
 10
75.71303573410994
 20
-129.5938123590946
 10
75.71303573410994
 20
-129.5938123590946
 10
75.71303573410994
 20
-129.5938123590946
 10
75.91819117025656
 20
-129.5938123590946
 10
75.91819117025656
 20
-129.5938123590946
 10
75.91819117025656
 20
-129.5938123590946
 10
75.91819117025656
 20
-130.6924533093408
 10
75.91819117025656
 20
-130.6924533093408
 10
75.56059025888763
 20
-130.6586913735853
 10
75.48238659137246
 20
-130.5884114256862
 10
75.18404132234983
 20
-130.1770670247474
 10
74.98525931285091
 20
-129.9035264432186
 10
74.91756318656576
 20
-129.8332464953195
 10
74.78010387670429
 20
-129.8332464953195
 10
74.66159259201169
 20
-129.8332464953195
 10
74.53033445402367
 20
-129.9104166341891
 10
74.53033445402367
 20
-130.1205674587893
 10
74.53033445402367
 20
-130.398586664449
 10
74.76098359676115
 20
-130.4078884222591
 10
74.8774278241626
 20
-130.4120225368414
 10
74.8774278241626
 20
-130.4120225368414
 10
74.8774278241626
 20
-130.6518011826148
 10
74.8774278241626
 20
-130.6518011826148
 10
74.75047605553114
 20
-130.6428439343532
 10
74.63833819748625
 20
-130.6314751192519
 10
74.51982691279366
 20
-130.5456922416691
 10
74.35911320840675
 20
-130.4278699760736
 10
74.32517901787705
 20
-130.2290879665747
 10
74.32517901787705
 20
-130.1047200195572
 10
74.32517901787705
 20
-129.8084418078257
 10
74.50931937156365
 20
-129.5872666776726
 10
74.78217093399543
 20
-129.5872666776726
 10
75.0105807646675
 20
-129.5872666776726
 10
75.11014402419121
 20
-129.7112901151416
 10
75.33648679757214
 20
-130.0413302626285
 97
        0
 97
        0
 75
     2
 76
     1
 98
        0
  0
SPLINE
  5
119
330
113
100
AcDbEntity
  8
_U+30EC_U+30A4_U+30E4_U+30FC 1
370
     0
100
AcDbSpline
210
0.0
220
0.0
230
1.0
 70
    11
 71
     3
 72
    62
 73
    58
 74
     0
 42
0.0000000001
 43
0.0000000001
 12
1.0
 22
0.0
 32
0.0
 13
1.0
 23
0.0
 33
0.0
 40
0.0
 40
0.0
 40
0.0
 40
0.0
 40
1.0
 40
1.0
 40
1.0
 40
2.0
 40
2.0
 40
2.0
 40
3.0
 40
3.0
 40
3.0
 40
4.0
 40
4.0
 40
4.0
 40
5.0
 40
5.0
 40
5.0
 40
6.0
 40
6.0
 40
6.0
 40
7.0
 40
7.0
 40
7.0
 40
8.0
 40
8.0
 40
8.0
 40
9.0
 40
9.0
 40
9.0
 40
10.0
 40
10.0
 40
10.0
 40
11.0
 40
11.0
 40
11.0
 40
12.0
 40
12.0
 40
12.0
 40
13.0
 40
13.0
 40
13.0
 40
14.0
 40
14.0
 40
14.0
 40
15.0
 40
15.0
 40
15.0
 40
16.0
 40
16.0
 40
16.0
 40
17.0
 40
17.0
 40
17.0
 40
18.0
 40
18.0
 40
18.0
 40
19.0
 40
19.0
 40
19.0
 40
19.0
 10
75.96900632866401
 20
-128.8920464087492
 30
0.0
 10
75.96900632866401
 20
-128.9940212351126
 30
0.0
 10
75.94781899142971
 20
-129.2269096899155
 30
0.0
 10
75.76161158045196
 20
-129.3602348851947
 30
0.0
 10
75.64947372240708
 20
-129.4391275718069
 30
0.0
 10
75.55008271765762
 20
-129.4439507054862
 30
0.0
 10
75.46550562349474
 20
-129.4484293296171
 30
0.0
 10
75.46550562349474
 20
-129.4484293296171
 30
0.0
 10
75.46550562349474
 20
-129.2131293079745
 30
0.0
 10
75.46550562349474
 20
-129.2131293079745
 30
0.0
 10
75.5395751764276
 20
-129.2110622506833
 30
0.0
 10
75.77435843374738
 20
-129.199693435582
 30
0.0
 10
75.77435843374738
 20
-128.8968695424286
 30
0.0
 10
75.77435843374738
 20
-128.7497639652084
 30
0.0
 10
75.70459525017108
 20
-128.5869832035303
 30
0.0
 10
75.47601316472475
 20
-128.5869832035303
 30
0.0
 10
75.35974119209757
 20
-128.5869832035303
 30
0.0
 10
75.31099309098128
 20
-128.6276353302563
 30
0.0
 10
75.27929821251699
 20
-128.661569520786
 30
0.0
 10
75.20522865958411
 20
-128.7406344621725
 30
0.0
 10
75.19265406106295
 20
-128.8651746639643
 30
0.0
 10
75.19265406106295
 20
-128.9237412872135
 30
0.0
 10
75.19265406106295
 20
-128.944411860125
 30
0.0
 10
75.1947211183541
 20
-128.9826524200113
 30
0.0
 10
75.1988552329364
 20
-129.0119357316359
 30
0.0
 10
75.1988552329364
 20
-129.0119357316359
 30
0.0
 10
75.00437959279405
 20
-129.0119357316359
 30
0.0
 10
75.00437959279405
 20
-129.0119357316359
 30
0.0
 10
75.0105807646675
 20
-128.97128360491
 30
0.0
 10
75.01282007673291
 20
-128.9261528540532
 30
0.0
 10
75.01282007673291
 20
-128.9192626630827
 30
0.0
 10
75.01282007673291
 20
-128.8493272247321
 30
0.0
 10
74.99163273949863
 20
-128.6367648332922
 30
0.0
 10
74.75461017011344
 20
-128.6367648332922
 30
0.0
 10
74.5770154978488
 20
-128.6367648332922
 30
0.0
 10
74.5218939700848
 20
-128.7769802195419
 30
0.0
 10
74.5218939700848
 20
-128.8944579755889
 30
0.0
 10
74.5218939700848
 20
-129.1769558053794
 30
0.0
 10
74.75461017011344
 20
-129.1862575631895
 30
0.0
 10
74.82661266575515
 20
-129.1903916777719
 30
0.0
 10
74.82661266575515
 20
-129.1903916777719
 30
0.0
 10
74.82661266575515
 20
-129.4074326933426
 30
0.0
 10
74.82661266575515
 20
-129.4074326933426
 30
0.0
 10
74.70172795441485
 20
-129.3984754450809
 30
0.0
 10
74.32517901787705
 20
-129.3691921334563
 30
0.0
 10
74.32517901787705
 20
-128.8810221031964
 30
0.0
 10
74.32517901787705
 20
-128.641243457423
 30
0.0
 10
74.4521307865085
 20
-128.3835503151263
 30
0.0
 10
74.74823674346572
 20
-128.3835503151263
 30
0.0
 10
74.93444415444347
 20
-128.3835503151263
 30
0.0
 10
75.01695419131521
 20
-128.4851806319412
 30
0.0
 10
75.07827689095265
 20
-128.5914618276612
 30
0.0
 10
75.10583765483466
 20
-128.5258327586671
 30
0.0
 10
75.18628063441524
 20
-128.3315293732991
 30
0.0
 10
75.46343856620359
 20
-128.3315293732991
 30
0.0
 10
75.80191919762939
 20
-128.3315293732991
 30
0.0
 10
75.96900632866401
 20
-128.595940451792
 30
0.0
 10
75.96900632866401
 20
-128.8920464087492
 30
0.0
  0
HATCH
  5
11A
330
113
100
AcDbEntity
  8
_U+30EC_U+30A4_U+30E4_U+30FC 1
 62
     7
420
 16777215
100
AcDbHatch
 10
0.0
 20
0.0
 30
0.0
210
0.0
220
0.0
230
1.0
  2
SOLID
 70
     1
 71
     0
 91
        1
 92
        1
 93
        1
 72
     4
 94
        3
 73
     0
 74
     1
 95
       62
 96
       58
 40
0.0
 40
0.0
 40
0.0
 40
0.0
 40
1.0
 40
1.0
 40
1.0
 40
2.0
 40
2.0
 40
2.0
 40
3.0
 40
3.0
 40
3.0
 40
4.0
 40
4.0
 40
4.0
 40
5.0
 40
5.0
 40
5.0
 40
6.0
 40
6.0
 40
6.0
 40
7.0
 40
7.0
 40
7.0
 40
8.0
 40
8.0
 40
8.0
 40
9.0
 40
9.0
 40
9.0
 40
10.0
 40
10.0
 40
10.0
 40
11.0
 40
11.0
 40
11.0
 40
12.0
 40
12.0
 40
12.0
 40
13.0
 40
13.0
 40
13.0
 40
14.0
 40
14.0
 40
14.0
 40
15.0
 40
15.0
 40
15.0
 40
16.0
 40
16.0
 40
16.0
 40
17.0
 40
17.0
 40
17.0
 40
18.0
 40
18.0
 40
18.0
 40
19.0
 40
19.0
 40
19.0
 40
19.0
 10
75.96900632866401
 20
-128.8920464087492
 10
75.96900632866401
 20
-128.9940212351126
 10
75.94781899142971
 20
-129.2269096899155
 10
75.76161158045196
 20
-129.3602348851947
 10
75.64947372240708
 20
-129.4391275718069
 10
75.55008271765762
 20
-129.4439507054862
 10
75.46550562349474
 20
-129.4484293296171
 10
75.46550562349474
 20
-129.4484293296171
 10
75.46550562349474
 20
-129.2131293079745
 10
75.46550562349474
 20
-129.2131293079745
 10
75.5395751764276
 20
-129.2110622506833
 10
75.77435843374738
 20
-129.199693435582
 10
75.77435843374738
 20
-128.8968695424286
 10
75.77435843374738
 20
-128.7497639652084
 10
75.70459525017108
 20
-128.5869832035303
 10
75.47601316472475
 20
-128.5869832035303
 10
75.35974119209757
 20
-128.5869832035303
 10
75.31099309098128
 20
-128.6276353302563
 10
75.27929821251699
 20
-128.661569520786
 10
75.20522865958411
 20
-128.7406344621725
 10
75.19265406106295
 20
-128.8651746639643
 10
75.19265406106295
 20
-128.9237412872135
 10
75.19265406106295
 20
-128.944411860125
 10
75.1947211183541
 20
-128.9826524200113
 10
75.1988552329364
 20
-129.0119357316359
 10
75.1988552329364
 20
-129.0119357316359
 10
75.00437959279405
 20
-129.0119357316359
 10
75.00437959279405
 20
-129.0119357316359
 10
75.0105807646675
 20
-128.97128360491
 10
75.01282007673291
 20
-128.9261528540532
 10
75.01282007673291
 20
-128.9192626630827
 10
75.01282007673291
 20
-128.8493272247321
 10
74.99163273949863
 20
-128.6367648332922
 10
74.75461017011344
 20
-128.6367648332922
 10
74.5770154978488
 20
-128.6367648332922
 10
74.5218939700848
 20
-128.7769802195419
 10
74.5218939700848
 20
-128.8944579755889
 10
74.5218939700848
 20
-129.1769558053794
 10
74.75461017011344
 20
-129.1862575631895
 10
74.82661266575515
 20
-129.1903916777719
 10
74.82661266575515
 20
-129.1903916777719
 10
74.82661266575515
 20
-129.4074326933426
 10
74.82661266575515
 20
-129.4074326933426
 10
74.70172795441485
 20
-129.3984754450809
 10
74.32517901787705
 20
-129.3691921334563
 10
74.32517901787705
 20
-128.8810221031964
 10
74.32517901787705
 20
-128.641243457423
 10
74.4521307865085
 20
-128.3835503151263
 10
74.74823674346572
 20
-128.3835503151263
 10
74.93444415444347
 20
-128.3835503151263
 10
75.01695419131521
 20
-128.4851806319412
 10
75.07827689095265
 20
-128.5914618276612
 10
75.10583765483466
 20
-128.5258327586671
 10
75.18628063441524
 20
-128.3315293732991
 10
75.46343856620359
 20
-128.3315293732991
 10
75.80191919762939
 20
-128.3315293732991
 10
75.96900632866401
 20
-128.595940451792
 10
75.96900632866401
 20
-128.8920464087492
 97
        0
 97
        0
 75
     2
 76
     1
 98
        0
  0
POLYLINE
  5
11B
330
113
100
AcDbEntity
  8
_U+30EC_U+30A4_U+30E4_U+30FC 1
370
     0
100
AcDb2dPolyline
 66
     1
 10
0.0
 20
0.0
 30
0.0
  0
VERTEX
  5
11C
330
11B
100
AcDbEntity
  8
_U+30EC_U+30A4_U+30E4_U+30FC 1
370
     0
100
AcDbVertex
100
AcDb2dVertex
 10
75.91819117025656
 20
-128.0955403325595
 30
0.0
  0
VERTEX
  5
11D
330
11B
100
AcDbEntity
  8
_U+30EC_U+30A4_U+30E4_U+30FC 1
370
     0
100
AcDbVertex
100
AcDb2dVertex
 10
75.66652694505906
 20
-128.0955403325595
 30
0.0
  0
VERTEX
  5
11E
330
11B
100
AcDbEntity
  8
_U+30EC_U+30A4_U+30E4_U+30FC 1
370
     0
100
AcDbVertex
100
AcDb2dVertex
 10
75.66652694505906
 20
-127.8264783751614
 30
0.0
  0
VERTEX
  5
11F
330
11B
100
AcDbEntity
  8
_U+30EC_U+30A4_U+30E4_U+30FC 1
370
     0
100
AcDbVertex
100
AcDb2dVertex
 10
75.91819117025656
 20
-127.8264783751614
 30
0.0
  0
VERTEX
  5
120
330
11B
100
AcDbEntity
  8
_U+30EC_U+30A4_U+30E4_U+30FC 1
370
     0
100
AcDbVertex
100
AcDb2dVertex
 10
75.91819117025656
 20
-128.0955403325595
 30
0.0
  0
SEQEND
  5
121
330
11B
100
AcDbEntity
  8
_U+30EC_U+30A4_U+30E4_U+30FC 1
370
     0
  0
HATCH
  5
122
330
113
100
AcDbEntity
  8
_U+30EC_U+30A4_U+30E4_U+30FC 1
 62
     7
420
 16777215
100
AcDbHatch
 10
0.0
 20
0.0
 30
0.0
210
0.0
220
0.0
230
1.0
  2
SOLID
 70
     1
 71
     0
 91
        1
 92
        1
 93
        4
 72
     1
 10
75.91819117025656
 20
-128.0955403325595
 11
75.66652694505906
 21
-128.0955403325595
 72
     1
 10
75.66652694505906
 20
-128.0955403325595
 11
75.66652694505906
 21
-127.8264783751614
 72
     1
 10
75.66652694505906
 20
-127.8264783751614
 11
75.91819117025656
 21
-127.8264783751614
 72
     1
 10
75.91819117025656
 20
-127.8264783751614
 11
75.91819117025656
 21
-128.0955403325595
 97
        0
 75
     2
 76
     1
 98
        0
  0
SPLINE
  5
123
330
113
100
AcDbEntity
  8
_U+30EC_U+30A4_U+30E4_U+30FC 1
370
     0
100
AcDbSpline
210
0.0
220
0.0
230
1.0
 70
    11
 71
     3
 72
    53
 73
    49
 74
     0
 42
0.0000000001
 43
0.0000000001
 12
1.0
 22
0.0
 32
0.0
 13
1.0
 23
0.0
 33
0.0
 40
0.0
 40
0.0
 40
0.0
 40
0.0
 40
1.0
 40
1.0
 40
1.0
 40
2.0
 40
2.0
 40
2.0
 40
3.0
 40
3.0
 40
3.0
 40
4.0
 40
4.0
 40
4.0
 40
5.0
 40
5.0
 40
5.0
 40
6.0
 40
6.0
 40
6.0
 40
7.0
 40
7.0
 40
7.0
 40
8.0
 40
8.0
 40
8.0
 40
9.0
 40
9.0
 40
9.0
 40
10.0
 40
10.0
 40
10.0
 40
11.0
 40
11.0
 40
11.0
 40
12.0
 40
12.0
 40
12.0
 40
13.0
 40
13.0
 40
13.0
 40
14.0
 40
14.0
 40
14.0
 40
15.0
 40
15.0
 40
15.0
 40
16.0
 40
16.0
 40
16.0
 40
16.0
 10
75.96900632866401
 20
-127.0596001201448
 30
0.0
 10
75.96900632866401
 20
-127.1433159404364
 30
0.0
 10
75.95212536078628
 20
-127.2518364482218
 30
0.0
 10
75.88856334908341
 20
-127.3603569560071
 30
0.0
 10
75.77849254832968
 20
-127.5457030931136
 30
0.0
 10
75.64740666511592
 20
-127.5684407233162
 30
0.0
 10
75.5395751764276
 20
-127.5887667866792
 30
0.0
 10
75.5395751764276
 20
-127.5887667866792
 30
0.0
 10
75.5395751764276
 20
-127.3513997077455
 30
0.0
 10
75.5395751764276
 20
-127.3513997077455
 30
0.0
 10
75.73835718592653
 20
-127.2924885749477
 30
0.0
 10
75.76798500709967
 20
-127.1569240676031
 30
0.0
 10
75.76798500709967
 20
-127.0573608080794
 30
0.0
 10
75.76798500709967
 20
-126.9081881735681
 30
0.0
 10
75.66859400235022
 20
-126.74540741189
 30
0.0
 10
75.43587780232158
 20
-126.74540741189
 30
0.0
 10
75.17990720776753
 20
-126.74540741189
 30
0.0
 10
75.11014402419121
 20
-126.937643739967
 30
0.0
 10
75.11014402419121
 20
-127.0664903111153
 30
0.0
 10
75.11014402419121
 20
-127.100424501645
 30
0.0
 10
75.11014402419121
 20
-127.2518364482218
 30
0.0
 10
75.23916285011383
 20
-127.3467488288404
 30
0.0
 10
75.23916285011383
 20
-127.3467488288404
 30
0.0
 10
75.22004257017069
 20
-127.5345065327865
 30
0.0
 10
75.22004257017069
 20
-127.5345065327865
 30
0.0
 10
75.22004257017069
 20
-127.5345065327865
 30
0.0
 10
74.37392711899332
 20
-127.4054877068639
 30
0.0
 10
74.37392711899332
 20
-127.4054877068639
 30
0.0
 10
74.37392711899332
 20
-127.4054877068639
 30
0.0
 10
74.37392711899332
 20
-126.5734971471761
 30
0.0
 10
74.37392711899332
 20
-126.5734971471761
 30
0.0
 10
74.37392711899332
 20
-126.5734971471761
 30
0.0
 10
74.56857501390995
 20
-126.5734971471761
 30
0.0
 10
74.56857501390995
 20
-126.5734971471761
 30
0.0
 10
74.56857501390995
 20
-126.5734971471761
 30
0.0
 10
74.56857501390995
 20
-127.2315103848588
 30
0.0
 10
74.56857501390995
 20
-127.2315103848588
 30
0.0
 10
74.56857501390995
 20
-127.2315103848588
 30
0.0
 10
74.99163273949863
 20
-127.3016180779836
 30
0.0
 10
74.99163273949863
 20
-127.3016180779836
 30
0.0
 10
74.9576985489689
 20
-127.2359890089896
 30
0.0
 10
74.91756318656576
 20
-127.1477945645672
 30
0.0
 10
74.91756318656576
 20
-127.0211873054843
 30
0.0
 10
74.91756318656576
 20
-126.7498860360209
 30
0.0
 10
75.1037705975435
 20
-126.496671517855
 30
0.0
 10
75.41675752237845
 20
-126.496671517855
 30
0.0
 10
75.73422307134423
 20
-126.496671517855
 30
0.0
 10
75.96900632866401
 20
-126.7364501636284
 30
0.0
 10
75.96900632866401
 20
-127.0596001201448
 30
0.0
  0
HATCH
  5
124
330
113
100
AcDbEntity
  8
_U+30EC_U+30A4_U+30E4_U+30FC 1
 62
     7
420
 16777215
100
AcDbHatch
 10
0.0
 20
0.0
 30
0.0
210
0.0
220
0.0
230
1.0
  2
SOLID
 70
     1
 71
     0
 91
        1
 92
        1
 93
        1
 72
     4
 94
        3
 73
     0
 74
     1
 95
       53
 96
       49
 40
0.0
 40
0.0
 40
0.0
 40
0.0
 40
1.0
 40
1.0
 40
1.0
 40
2.0
 40
2.0
 40
2.0
 40
3.0
 40
3.0
 40
3.0
 40
4.0
 40
4.0
 40
4.0
 40
5.0
 40
5.0
 40
5.0
 40
6.0
 40
6.0
 40
6.0
 40
7.0
 40
7.0
 40
7.0
 40
8.0
 40
8.0
 40
8.0
 40
9.0
 40
9.0
 40
9.0
 40
10.0
 40
10.0
 40
10.0
 40
11.0
 40
11.0
 40
11.0
 40
12.0
 40
12.0
 40
12.0
 40
13.0
 40
13.0
 40
13.0
 40
14.0
 40
14.0
 40
14.0
 40
15.0
 40
15.0
 40
15.0
 40
16.0
 40
16.0
 40
16.0
 40
16.0
 10
75.96900632866401
 20
-127.0596001201448
 10
75.96900632866401
 20
-127.1433159404364
 10
75.95212536078628
 20
-127.2518364482218
 10
75.88856334908341
 20
-127.3603569560071
 10
75.77849254832968
 20
-127.5457030931136
 10
75.64740666511592
 20
-127.5684407233162
 10
75.5395751764276
 20
-127.5887667866792
 10
75.5395751764276
 20
-127.5887667866792
 10
75.5395751764276
 20
-127.3513997077455
 10
75.5395751764276
 20
-127.3513997077455
 10
75.73835718592653
 20
-127.2924885749477
 10
75.76798500709967
 20
-127.1569240676031
 10
75.76798500709967
 20
-127.0573608080794
 10
75.76798500709967
 20
-126.9081881735681
 10
75.66859400235022
 20
-126.74540741189
 10
75.43587780232158
 20
-126.74540741189
 10
75.17990720776753
 20
-126.74540741189
 10
75.11014402419121
 20
-126.937643739967
 10
75.11014402419121
 20
-127.0664903111153
 10
75.11014402419121
 20
-127.100424501645
 10
75.11014402419121
 20
-127.2518364482218
 10
75.23916285011383
 20
-127.3467488288404
 10
75.23916285011383
 20
-127.3467488288404
 10
75.22004257017069
 20
-127.5345065327865
 10
75.22004257017069
 20
-127.5345065327865
 10
75.22004257017069
 20
-127.5345065327865
 10
74.37392711899332
 20
-127.4054877068639
 10
74.37392711899332
 20
-127.4054877068639
 10
74.37392711899332
 20
-127.4054877068639
 10
74.37392711899332
 20
-126.5734971471761
 10
74.37392711899332
 20
-126.5734971471761
 10
74.37392711899332
 20
-126.5734971471761
 10
74.56857501390995
 20
-126.5734971471761
 10
74.56857501390995
 20
-126.5734971471761
 10
74.56857501390995
 20
-126.5734971471761
 10
74.56857501390995
 20
-127.2315103848588
 10
74.56857501390995
 20
-127.2315103848588
 10
74.56857501390995
 20
-127.2315103848588
 10
74.99163273949863
 20
-127.3016180779836
 10
74.99163273949863
 20
-127.3016180779836
 10
74.9576985489689
 20
-127.2359890089896
 10
74.91756318656576
 20
-127.1477945645672
 10
74.91756318656576
 20
-127.0211873054843
 10
74.91756318656576
 20
-126.7498860360209
 10
75.1037705975435
 20
-126.496671517855
 10
75.41675752237845
 20
-126.496671517855
 10
75.73422307134423
 20
-126.496671517855
 10
75.96900632866401
 20
-126.7364501636284
 10
75.96900632866401
 20
-127.0596001201448
 97
        0
 97
        0
 75
     2
 76
     1
 98
        0
  0
ENDBLK
  5
116
330
113
100
AcDbEntity
  8
0
100
AcDbBlockEnd
  0
BLOCK
  5
138
330
136
100
AcDbEntity
  8
0
100
AcDbBlockBegin
  2
block 7
 70
     0
 10
0.0
 20
0.0
 30
0.0
  3
block 7
  1

  0
SPLINE
  5
13A
330
136
100
AcDbEntity
  8
_U+30EC_U+30A4_U+30E4_U+30FC 1
370
     0
100
AcDbSpline
210
0.0
220
0.0
230
1.0
 70
    11
 71
     3
 72
    26
 73
    22
 74
     0
 42
0.0000000001
 43
0.0000000001
 12
1.0
 22
0.0
 32
0.0
 13
1.0
 23
0.0
 33
0.0
 40
0.0
 40
0.0
 40
0.0
 40
0.0
 40
1.0
 40
1.0
 40
1.0
 40
2.0
 40
2.0
 40
2.0
 40
3.0
 40
3.0
 40
3.0
 40
4.0
 40
4.0
 40
4.0
 40
5.0
 40
5.0
 40
5.0
 40
6.0
 40
6.0
 40
6.0
 40
7.0
 40
7.0
 40
7.0
 40
7.0
 10
96.33072642991038
 20
-133.1925591029866
 30
0.0
 10
96.33072642991038
 20
-133.1925591029866
 30
0.0
 10
95.2265733268878
 20
-133.1925591029866
 30
0.0
 10
95.2265733268878
 20
-133.1925591029866
 30
0.0
 10
95.2265733268878
 20
-133.1925591029866
 30
0.0
 10
95.2265733268878
 20
-133.5449923711276
 30
0.0
 10
95.2265733268878
 20
-133.5449923711276
 30
0.0
 10
95.2265733268878
 20
-133.5449923711276
 30
0.0
 10
95.07843422102206
 20
-133.5449923711276
 30
0.0
 10
95.07843422102206
 20
-133.5449923711276
 30
0.0
 10
95.06362031043548
 20
-133.1901475361469
 30
0.0
 10
94.90066729398318
 20
-133.1405381611593
 30
0.0
 10
94.78629012387287
 20
-133.108843282695
 30
0.0
 10
94.78629012387287
 20
-133.108843282695
 30
0.0
 10
94.78629012387287
 20
-132.9527804572132
 30
0.0
 10
94.78629012387287
 20
-132.9527804572132
 30
0.0
 10
94.78629012387287
 20
-132.9527804572132
 30
0.0
 10
96.33072642991038
 20
-132.9527804572132
 30
0.0
 10
96.33072642991038
 20
-132.9527804572132
 30
0.0
 10
96.33072642991038
 20
-132.9527804572132
 30
0.0
 10
96.33072642991038
 20
-133.1925591029866
 30
0.0
 10
96.33072642991038
 20
-133.1925591029866
 30
0.0
  0
HATCH
  5
13B
330
136
100
AcDbEntity
  8
_U+30EC_U+30A4_U+30E4_U+30FC 1
 62
     7
420
 16777215
100
AcDbHatch
 10
0.0
 20
0.0
 30
0.0
210
0.0
220
0.0
230
1.0
  2
SOLID
 70
     1
 71
     0
 91
        1
 92
        1
 93
        1
 72
     4
 94
        3
 73
     0
 74
     1
 95
       26
 96
       22
 40
0.0
 40
0.0
 40
0.0
 40
0.0
 40
1.0
 40
1.0
 40
1.0
 40
2.0
 40
2.0
 40
2.0
 40
3.0
 40
3.0
 40
3.0
 40
4.0
 40
4.0
 40
4.0
 40
5.0
 40
5.0
 40
5.0
 40
6.0
 40
6.0
 40
6.0
 40
7.0
 40
7.0
 40
7.0
 40
7.0
 10
96.33072642991038
 20
-133.1925591029866
 10
96.33072642991038
 20
-133.1925591029866
 10
95.2265733268878
 20
-133.1925591029866
 10
95.2265733268878
 20
-133.1925591029866
 10
95.2265733268878
 20
-133.1925591029866
 10
95.2265733268878
 20
-133.5449923711276
 10
95.2265733268878
 20
-133.5449923711276
 10
95.2265733268878
 20
-133.5449923711276
 10
95.07843422102206
 20
-133.5449923711276
 10
95.07843422102206
 20
-133.5449923711276
 10
95.06362031043548
 20
-133.1901475361469
 10
94.90066729398318
 20
-133.1405381611593
 10
94.78629012387287
 20
-133.108843282695
 10
94.78629012387287
 20
-133.108843282695
 10
94.78629012387287
 20
-132.9527804572132
 10
94.78629012387287
 20
-132.9527804572132
 10
94.78629012387287
 20
-132.9527804572132
 10
96.33072642991038
 20
-132.9527804572132
 10
96.33072642991038
 20
-132.9527804572132
 10
96.33072642991038
 20
-132.9527804572132
 10
96.33072642991038
 20
-133.1925591029866
 10
96.33072642991038
 20
-133.1925591029866
 97
        0
 97
        0
 75
     2
 76
     1
 98
        0
  0
SPLINE
  5
13C
330
136
100
AcDbEntity
  8
_U+30EC_U+30A4_U+30E4_U+30FC 1
370
     0
100
AcDbSpline
210
0.0
220
0.0
230
1.0
 70
    11
 71
     3
 72
    53
 73
    49
 74
     0
 42
0.0000000001
 43
0.0000000001
 12
1.0
 22
0.0
 32
0.0
 13
1.0
 23
0.0
 33
0.0
 40
0.0
 40
0.0
 40
0.0
 40
0.0
 40
1.0
 40
1.0
 40
1.0
 40
2.0
 40
2.0
 40
2.0
 40
3.0
 40
3.0
 40
3.0
 40
4.0
 40
4.0
 40
4.0
 40
5.0
 40
5.0
 40
5.0
 40
6.0
 40
6.0
 40
6.0
 40
7.0
 40
7.0
 40
7.0
 40
8.0
 40
8.0
 40
8.0
 40
9.0
 40
9.0
 40
9.0
 40
10.0
 40
10.0
 40
10.0
 40
11.0
 40
11.0
 40
11.0
 40
12.0
 40
12.0
 40
12.0
 40
13.0
 40
13.0
 40
13.0
 40
14.0
 40
14.0
 40
14.0
 40
15.0
 40
15.0
 40
15.0
 40
16.0
 40
16.0
 40
16.0
 40
16.0
 10
96.38136933354355
 20
-131.9030598628576
 30
0.0
 10
96.38136933354355
 20
-131.9864311736006
 30
0.0
 10
96.36448836566582
 20
-132.0952961909345
 30
0.0
 10
96.30109860873723
 20
-132.2034721891714
 30
0.0
 10
96.19120006275776
 20
-132.3891628358263
 30
0.0
 10
96.05994192476975
 20
-132.4115559564804
 30
0.0
 10
95.95211043608143
 20
-132.4318820198434
 30
0.0
 10
95.95211043608143
 20
-132.4318820198434
 30
0.0
 10
95.95211043608143
 20
-132.1945149409097
 30
0.0
 10
95.95211043608143
 20
-132.1945149409097
 30
0.0
 10
96.15089244558034
 20
-132.1359483176604
 30
0.0
 10
96.18052026675349
 20
-132.0002115555416
 30
0.0
 10
96.18052026675349
 20
-131.9006482960179
 30
0.0
 10
96.18052026675349
 20
-131.7514756615066
 30
0.0
 10
96.08095700722977
 20
-131.5888671546028
 30
0.0
 10
95.8484130619754
 20
-131.5888671546028
 30
0.0
 10
95.59244246742134
 20
-131.5888671546028
 30
0.0
 10
95.52250702907077
 20
-131.7807589731312
 30
0.0
 10
95.52250702907077
 20
-131.9096055442795
 30
0.0
 10
95.52250702907077
 20
-131.9437119895835
 30
0.0
 10
95.52250702907077
 20
-132.0952961909345
 30
0.0
 10
95.65169810976764
 20
-132.1900363167789
 30
0.0
 10
95.65169810976764
 20
-132.1900363167789
 30
0.0
 10
95.63275008459875
 20
-132.377794020725
 30
0.0
 10
95.63275008459875
 20
-132.377794020725
 30
0.0
 10
95.63275008459875
 20
-132.377794020725
 30
0.0
 10
94.78629012387287
 20
-132.2489474495767
 30
0.0
 10
94.78629012387287
 20
-132.2489474495767
 30
0.0
 10
94.78629012387287
 20
-132.2489474495767
 30
0.0
 10
94.78629012387287
 20
-131.4169568898888
 30
0.0
 10
94.78629012387287
 20
-131.4169568898888
 30
0.0
 10
94.78629012387287
 20
-131.4169568898888
 30
0.0
 10
94.98093801878949
 20
-131.4169568898888
 30
0.0
 10
94.98093801878949
 20
-131.4169568898888
 30
0.0
 10
94.98093801878949
 20
-131.4169568898888
 30
0.0
 10
94.98093801878949
 20
-132.074625618023
 30
0.0
 10
94.98093801878949
 20
-132.074625618023
 30
0.0
 10
94.98093801878949
 20
-132.074625618023
 30
0.0
 10
95.40399574437818
 20
-132.1449055659221
 30
0.0
 10
95.40399574437818
 20
-132.1449055659221
 30
0.0
 10
95.37023380862273
 20
-132.0794487517024
 30
0.0
 10
95.3299261914453
 20
-131.99125430728
 30
0.0
 10
95.3299261914453
 20
-131.8644747934228
 30
0.0
 10
95.3299261914453
 20
-131.5933457787336
 30
0.0
 10
95.51630585719732
 20
-131.3401312605677
 30
0.0
 10
95.82946503680652
 20
-131.3401312605677
 30
0.0
 10
96.14675833099804
 20
-131.3401312605677
 30
0.0
 10
96.38136933354355
 20
-131.5795653967926
 30
0.0
 10
96.38136933354355
 20
-131.9030598628576
 30
0.0
  0
HATCH
  5
13D
330
136
100
AcDbEntity
  8
_U+30EC_U+30A4_U+30E4_U+30FC 1
 62
     7
420
 16777215
100
AcDbHatch
 10
0.0
 20
0.0
 30
0.0
210
0.0
220
0.0
230
1.0
  2
SOLID
 70
     1
 71
     0
 91
        1
 92
        1
 93
        1
 72
     4
 94
        3
 73
     0
 74
     1
 95
       53
 96
       49
 40
0.0
 40
0.0
 40
0.0
 40
0.0
 40
1.0
 40
1.0
 40
1.0
 40
2.0
 40
2.0
 40
2.0
 40
3.0
 40
3.0
 40
3.0
 40
4.0
 40
4.0
 40
4.0
 40
5.0
 40
5.0
 40
5.0
 40
6.0
 40
6.0
 40
6.0
 40
7.0
 40
7.0
 40
7.0
 40
8.0
 40
8.0
 40
8.0
 40
9.0
 40
9.0
 40
9.0
 40
10.0
 40
10.0
 40
10.0
 40
11.0
 40
11.0
 40
11.0
 40
12.0
 40
12.0
 40
12.0
 40
13.0
 40
13.0
 40
13.0
 40
14.0
 40
14.0
 40
14.0
 40
15.0
 40
15.0
 40
15.0
 40
16.0
 40
16.0
 40
16.0
 40
16.0
 10
96.38136933354355
 20
-131.9030598628576
 10
96.38136933354355
 20
-131.9864311736006
 10
96.36448836566582
 20
-132.0952961909345
 10
96.30109860873723
 20
-132.2034721891714
 10
96.19120006275776
 20
-132.3891628358263
 10
96.05994192476975
 20
-132.4115559564804
 10
95.95211043608143
 20
-132.4318820198434
 10
95.95211043608143
 20
-132.4318820198434
 10
95.95211043608143
 20
-132.1945149409097
 10
95.95211043608143
 20
-132.1945149409097
 10
96.15089244558034
 20
-132.1359483176604
 10
96.18052026675349
 20
-132.0002115555416
 10
96.18052026675349
 20
-131.9006482960179
 10
96.18052026675349
 20
-131.7514756615066
 10
96.08095700722977
 20
-131.5888671546028
 10
95.8484130619754
 20
-131.5888671546028
 10
95.59244246742134
 20
-131.5888671546028
 10
95.52250702907077
 20
-131.7807589731312
 10
95.52250702907077
 20
-131.9096055442795
 10
95.52250702907077
 20
-131.9437119895835
 10
95.52250702907077
 20
-132.0952961909345
 10
95.65169810976764
 20
-132.1900363167789
 10
95.65169810976764
 20
-132.1900363167789
 10
95.63275008459875
 20
-132.377794020725
 10
95.63275008459875
 20
-132.377794020725
 10
95.63275008459875
 20
-132.377794020725
 10
94.78629012387287
 20
-132.2489474495767
 10
94.78629012387287
 20
-132.2489474495767
 10
94.78629012387287
 20
-132.2489474495767
 10
94.78629012387287
 20
-131.4169568898888
 10
94.78629012387287
 20
-131.4169568898888
 10
94.78629012387287
 20
-131.4169568898888
 10
94.98093801878949
 20
-131.4169568898888
 10
94.98093801878949
 20
-131.4169568898888
 10
94.98093801878949
 20
-131.4169568898888
 10
94.98093801878949
 20
-132.074625618023
 10
94.98093801878949
 20
-132.074625618023
 10
94.98093801878949
 20
-132.074625618023
 10
95.40399574437818
 20
-132.1449055659221
 10
95.40399574437818
 20
-132.1449055659221
 10
95.37023380862273
 20
-132.0794487517024
 10
95.3299261914453
 20
-131.99125430728
 10
95.3299261914453
 20
-131.8644747934228
 10
95.3299261914453
 20
-131.5933457787336
 10
95.51630585719732
 20
-131.3401312605677
 10
95.82946503680652
 20
-131.3401312605677
 10
96.14675833099804
 20
-131.3401312605677
 10
96.38136933354355
 20
-131.5795653967926
 10
96.38136933354355
 20
-131.9030598628576
 97
        0
 97
        0
 75
     2
 76
     1
 98
        0
  0
POLYLINE
  5
13E
330
136
100
AcDbEntity
  8
_U+30EC_U+30A4_U+30E4_U+30FC 1
370
     0
100
AcDb2dPolyline
 66
     1
 10
0.0
 20
0.0
 30
0.0
  0
VERTEX
  5
13F
330
13E
100
AcDbEntity
  8
_U+30EC_U+30A4_U+30E4_U+30FC 1
370
     0
100
AcDbVertex
100
AcDb2dVertex
 10
96.33072642991038
 20
-131.0951849715665
 30
0.0
  0
VERTEX
  5
140
330
13E
100
AcDbEntity
  8
_U+30EC_U+30A4_U+30E4_U+30FC 1
370
     0
100
AcDbVertex
100
AcDb2dVertex
 10
96.07888994993861
 20
-131.0951849715665
 30
0.0
  0
VERTEX
  5
141
330
13E
100
AcDbEntity
  8
_U+30EC_U+30A4_U+30E4_U+30FC 1
370
     0
100
AcDbVertex
100
AcDb2dVertex
 10
96.07888994993861
 20
-130.8261230141685
 30
0.0
  0
VERTEX
  5
142
330
13E
100
AcDbEntity
  8
_U+30EC_U+30A4_U+30E4_U+30FC 1
370
     0
100
AcDbVertex
100
AcDb2dVertex
 10
96.33072642991038
 20
-130.8261230141685
 30
0.0
  0
VERTEX
  5
143
330
13E
100
AcDbEntity
  8
_U+30EC_U+30A4_U+30E4_U+30FC 1
370
     0
100
AcDbVertex
100
AcDb2dVertex
 10
96.33072642991038
 20
-131.0951849715665
 30
0.0
  0
SEQEND
  5
144
330
13E
100
AcDbEntity
  8
_U+30EC_U+30A4_U+30E4_U+30FC 1
370
     0
  0
HATCH
  5
145
330
136
100
AcDbEntity
  8
_U+30EC_U+30A4_U+30E4_U+30FC 1
 62
     7
420
 16777215
100
AcDbHatch
 10
0.0
 20
0.0
 30
0.0
210
0.0
220
0.0
230
1.0
  2
SOLID
 70
     1
 71
     0
 91
        1
 92
        1
 93
        4
 72
     1
 10
96.33072642991038
 20
-131.0951849715665
 11
96.07888994993861
 21
-131.0951849715665
 72
     1
 10
96.07888994993861
 20
-131.0951849715665
 11
96.07888994993861
 21
-130.8261230141685
 72
     1
 10
96.07888994993861
 20
-130.8261230141685
 11
96.33072642991038
 21
-130.8261230141685
 72
     1
 10
96.33072642991038
 20
-130.8261230141685
 11
96.33072642991038
 21
-131.0951849715665
 97
        0
 75
     2
 76
     1
 98
        0
  0
SPLINE
  5
146
330
136
100
AcDbEntity
  8
_U+30EC_U+30A4_U+30E4_U+30FC 1
370
     0
100
AcDbSpline
210
0.0
220
0.0
230
1.0
 70
    11
 71
     3
 72
    53
 73
    49
 74
     0
 42
0.0000000001
 43
0.0000000001
 12
1.0
 22
0.0
 32
0.0
 13
1.0
 23
0.0
 33
0.0
 40
0.0
 40
0.0
 40
0.0
 40
0.0
 40
1.0
 40
1.0
 40
1.0
 40
2.0
 40
2.0
 40
2.0
 40
3.0
 40
3.0
 40
3.0
 40
4.0
 40
4.0
 40
4.0
 40
5.0
 40
5.0
 40
5.0
 40
6.0
 40
6.0
 40
6.0
 40
7.0
 40
7.0
 40
7.0
 40
8.0
 40
8.0
 40
8.0
 40
9.0
 40
9.0
 40
9.0
 40
10.0
 40
10.0
 40
10.0
 40
11.0
 40
11.0
 40
11.0
 40
12.0
 40
12.0
 40
12.0
 40
13.0
 40
13.0
 40
13.0
 40
14.0
 40
14.0
 40
14.0
 40
15.0
 40
15.0
 40
15.0
 40
16.0
 40
16.0
 40
16.0
 40
16.0
 10
96.38136933354355
 20
-130.0592447591519
 30
0.0
 10
96.38136933354355
 20
-130.1429605794434
 30
0.0
 10
96.36448836566582
 20
-130.2514810872288
 30
0.0
 10
96.30109860873723
 20
-130.3600015950142
 30
0.0
 10
96.19120006275776
 20
-130.5453477321206
 30
0.0
 10
96.05994192476975
 20
-130.5677408527747
 30
0.0
 10
95.95211043608143
 20
-130.5884114256862
 30
0.0
 10
95.95211043608143
 20
-130.5884114256862
 30
0.0
 10
95.95211043608143
 20
-130.350699837204
 30
0.0
 10
95.95211043608143
 20
-130.350699837204
 30
0.0
 10
96.15089244558034
 20
-130.2921332139547
 30
0.0
 10
96.18052026675349
 20
-130.1563964518359
 30
0.0
 10
96.18052026675349
 20
-130.0568331923122
 30
0.0
 10
96.18052026675349
 20
-129.9076605578009
 30
0.0
 10
96.08095700722977
 20
-129.7450520508971
 30
0.0
 10
95.8484130619754
 20
-129.7450520508971
 30
0.0
 10
95.59244246742134
 20
-129.7450520508971
 30
0.0
 10
95.52250702907077
 20
-129.937288378974
 30
0.0
 10
95.52250702907077
 20
-130.0661349501223
 30
0.0
 10
95.52250702907077
 20
-130.0998968858778
 30
0.0
 10
95.52250702907077
 20
-130.2514810872288
 30
0.0
 10
95.65169810976764
 20
-130.3462212130732
 30
0.0
 10
95.65169810976764
 20
-130.3462212130732
 30
0.0
 10
95.63275008459875
 20
-130.5339789170193
 30
0.0
 10
95.63275008459875
 20
-130.5339789170193
 30
0.0
 10
95.63275008459875
 20
-130.5339789170193
 30
0.0
 10
94.78629012387287
 20
-130.405132345871
 30
0.0
 10
94.78629012387287
 20
-130.405132345871
 30
0.0
 10
94.78629012387287
 20
-130.405132345871
 30
0.0
 10
94.78629012387287
 20
-129.5731417861831
 30
0.0
 10
94.78629012387287
 20
-129.5731417861831
 30
0.0
 10
94.78629012387287
 20
-129.5731417861831
 30
0.0
 10
94.98093801878949
 20
-129.5731417861831
 30
0.0
 10
94.98093801878949
 20
-129.5731417861831
 30
0.0
 10
94.98093801878949
 20
-129.5731417861831
 30
0.0
 10
94.98093801878949
 20
-130.2311550238658
 30
0.0
 10
94.98093801878949
 20
-130.2311550238658
 30
0.0
 10
94.98093801878949
 20
-130.2311550238658
 30
0.0
 10
95.40399574437818
 20
-130.3010904622164
 30
0.0
 10
95.40399574437818
 20
-130.3010904622164
 30
0.0
 10
95.37023380862273
 20
-130.2356336479967
 30
0.0
 10
95.3299261914453
 20
-130.1474392035743
 30
0.0
 10
95.3299261914453
 20
-130.0206596897171
 30
0.0
 10
95.3299261914453
 20
-129.7495306750279
 30
0.0
 10
95.51630585719732
 20
-129.496316156862
 30
0.0
 10
95.82946503680652
 20
-129.496316156862
 30
0.0
 10
96.14675833099804
 20
-129.496316156862
 30
0.0
 10
96.38136933354355
 20
-129.7357502930869
 30
0.0
 10
96.38136933354355
 20
-130.0592447591519
 30
0.0
  0
HATCH
  5
147
330
136
100
AcDbEntity
  8
_U+30EC_U+30A4_U+30E4_U+30FC 1
 62
     7
420
 16777215
100
AcDbHatch
 10
0.0
 20
0.0
 30
0.0
210
0.0
220
0.0
230
1.0
  2
SOLID
 70
     1
 71
     0
 91
        1
 92
        1
 93
        1
 72
     4
 94
        3
 73
     0
 74
     1
 95
       53
 96
       49
 40
0.0
 40
0.0
 40
0.0
 40
0.0
 40
1.0
 40
1.0
 40
1.0
 40
2.0
 40
2.0
 40
2.0
 40
3.0
 40
3.0
 40
3.0
 40
4.0
 40
4.0
 40
4.0
 40
5.0
 40
5.0
 40
5.0
 40
6.0
 40
6.0
 40
6.0
 40
7.0
 40
7.0
 40
7.0
 40
8.0
 40
8.0
 40
8.0
 40
9.0
 40
9.0
 40
9.0
 40
10.0
 40
10.0
 40
10.0
 40
11.0
 40
11.0
 40
11.0
 40
12.0
 40
12.0
 40
12.0
 40
13.0
 40
13.0
 40
13.0
 40
14.0
 40
14.0
 40
14.0
 40
15.0
 40
15.0
 40
15.0
 40
16.0
 40
16.0
 40
16.0
 40
16.0
 10
96.38136933354355
 20
-130.0592447591519
 10
96.38136933354355
 20
-130.1429605794434
 10
96.36448836566582
 20
-130.2514810872288
 10
96.30109860873723
 20
-130.3600015950142
 10
96.19120006275776
 20
-130.5453477321206
 10
96.05994192476975
 20
-130.5677408527747
 10
95.95211043608143
 20
-130.5884114256862
 10
95.95211043608143
 20
-130.5884114256862
 10
95.95211043608143
 20
-130.350699837204
 10
95.95211043608143
 20
-130.350699837204
 10
96.15089244558034
 20
-130.2921332139547
 10
96.18052026675349
 20
-130.1563964518359
 10
96.18052026675349
 20
-130.0568331923122
 10
96.18052026675349
 20
-129.9076605578009
 10
96.08095700722977
 20
-129.7450520508971
 10
95.8484130619754
 20
-129.7450520508971
 10
95.59244246742134
 20
-129.7450520508971
 10
95.52250702907077
 20
-129.937288378974
 10
95.52250702907077
 20
-130.0661349501223
 10
95.52250702907077
 20
-130.0998968858778
 10
95.52250702907077
 20
-130.2514810872288
 10
95.65169810976764
 20
-130.3462212130732
 10
95.65169810976764
 20
-130.3462212130732
 10
95.63275008459875
 20
-130.5339789170193
 10
95.63275008459875
 20
-130.5339789170193
 10
95.63275008459875
 20
-130.5339789170193
 10
94.78629012387287
 20
-130.405132345871
 10
94.78629012387287
 20
-130.405132345871
 10
94.78629012387287
 20
-130.405132345871
 10
94.78629012387287
 20
-129.5731417861831
 10
94.78629012387287
 20
-129.5731417861831
 10
94.78629012387287
 20
-129.5731417861831
 10
94.98093801878949
 20
-129.5731417861831
 10
94.98093801878949
 20
-129.5731417861831
 10
94.98093801878949
 20
-129.5731417861831
 10
94.98093801878949
 20
-130.2311550238658
 10
94.98093801878949
 20
-130.2311550238658
 10
94.98093801878949
 20
-130.2311550238658
 10
95.40399574437818
 20
-130.3010904622164
 10
95.40399574437818
 20
-130.3010904622164
 10
95.37023380862273
 20
-130.2356336479967
 10
95.3299261914453
 20
-130.1474392035743
 10
95.3299261914453
 20
-130.0206596897171
 10
95.3299261914453
 20
-129.7495306750279
 10
95.51630585719732
 20
-129.496316156862
 10
95.82946503680652
 20
-129.496316156862
 10
96.14675833099804
 20
-129.496316156862
 10
96.38136933354355
 20
-129.7357502930869
 10
96.38136933354355
 20
-130.0592447591519
 97
        0
 97
        0
 75
     2
 76
     1
 98
        0
  0
ENDBLK
  5
139
330
136
100
AcDbEntity
  8
0
100
AcDbBlockEnd
  0
BLOCK
  5
152
330
150
100
AcDbEntity
  8
0
100
AcDbBlockBegin
  2
block 8
 70
     0
 10
0.0
 20
0.0
 30
0.0
  3
block 8
  1

  0
SPLINE
  5
154
330
150
100
AcDbEntity
  8
_U+30EC_U+30A4_U+30E4_U+30FC 1
370
     0
100
AcDbSpline
210
0.0
220
0.0
230
1.0
 70
    11
 71
     3
 72
    32
 73
    28
 74
     0
 42
0.0000000001
 43
0.0000000001
 12
1.0
 22
0.0
 32
0.0
 13
1.0
 23
0.0
 33
0.0
 40
0.0
 40
0.0
 40
0.0
 40
0.0
 40
1.0
 40
1.0
 40
1.0
 40
2.0
 40
2.0
 40
2.0
 40
3.0
 40
3.0
 40
3.0
 40
4.0
 40
4.0
 40
4.0
 40
5.0
 40
5.0
 40
5.0
 40
6.0
 40
6.0
 40
6.0
 40
7.0
 40
7.0
 40
7.0
 40
8.0
 40
8.0
 40
8.0
 40
9.0
 40
9.0
 40
9.0
 40
9.0
 10
96.38171384309207
 20
-119.9943982989945
 30
0.0
 10
96.38171384309207
 20
-120.545958086183
 30
0.0
 10
95.82774248906391
 20
-120.5550875892189
 30
0.0
 10
95.61380205942989
 20
-120.5550875892189
 30
0.0
 10
95.38332517146668
 20
-120.5550875892189
 30
0.0
 10
94.73599172978822
 20
-120.5347615258559
 30
0.0
 10
94.73599172978822
 20
-119.9537461722685
 30
0.0
 10
94.73599172978822
 20
-119.7684000351621
 30
0.0
 10
94.8059271681388
 20
-119.5060560139603
 30
0.0
 10
95.13803437291689
 20
-119.4654038872343
 30
0.0
 10
95.13803437291689
 20
-119.4654038872343
 30
0.0
 10
95.13803437291689
 20
-119.6936414631322
 30
0.0
 10
95.13803437291689
 20
-119.6936414631322
 30
0.0
 10
95.08084578786173
 20
-119.7050102782335
 30
0.0
 10
94.932706681996
 20
-119.7389444687632
 30
0.0
 10
94.932706681996
 20
-119.9559854843339
 30
0.0
 10
94.932706681996
 20
-120.2679388805233
 30
0.0
 10
95.26067977219178
 20
-120.3110025740889
 30
0.0
 10
95.46566295356415
 20
-120.3244384464814
 30
0.0
 10
95.38745928604898
 20
-120.2250474417319
 30
0.0
 10
95.32820364370268
 20
-120.1527004365417
 30
0.0
 10
95.32820364370268
 20
-119.9582247963993
 30
0.0
 10
95.32820364370268
 20
-119.7659884683224
 30
0.0
 10
95.43637964193952
 20
-119.442838511806
 30
0.0
 10
95.84255639965048
 20
-119.442838511806
 30
0.0
 10
96.16191675113313
 20
-119.442838511806
 30
0.0
 10
96.38171384309207
 20
-119.6552286484716
 30
0.0
 10
96.38171384309207
 20
-119.9943982989945
 30
0.0
  0
SPLINE
  5
155
330
150
100
AcDbEntity
  8
_U+30EC_U+30A4_U+30E4_U+30FC 1
370
     0
100
AcDbSpline
210
0.0
220
0.0
230
1.0
 70
    11
 71
     3
 72
    17
 73
    13
 74
     0
 42
0.0000000001
 43
0.0000000001
 12
1.0
 22
0.0
 32
0.0
 13
1.0
 23
0.0
 33
0.0
 40
0.0
 40
0.0
 40
0.0
 40
0.0
 40
1.0
 40
1.0
 40
1.0
 40
2.0
 40
2.0
 40
2.0
 40
3.0
 40
3.0
 40
3.0
 40
4.0
 40
4.0
 40
4.0
 40
4.0
 10
95.52285153861929
 20
-119.9763115476969
 30
0.0
 10
95.52285153861929
 20
-120.256570065422
 30
0.0
 10
95.73438040141363
 20
-120.2973944469222
 30
0.0
 10
95.85082462881508
 20
-120.2973944469222
 30
0.0
 10
96.02652449856282
 20
-120.2973944469222
 30
0.0
 10
96.18947751501514
 20
-120.1955918753331
 30
0.0
 10
96.18947751501514
 20
-119.9988769231253
 30
0.0
 10
96.18947751501514
 20
-119.8700303519769
 30
0.0
 10
96.13022187266884
 20
-119.6824449028051
 30
0.0
 10
95.84462345694163
 20
-119.6824449028051
 30
0.0
 10
95.62034774085186
 20
-119.6824449028051
 30
0.0
 10
95.52285153861929
 20
-119.8316175373164
 30
0.0
 10
95.52285153861929
 20
-119.9763115476969
 30
0.0
  0
HATCH
  5
156
330
150
100
AcDbEntity
  8
_U+30EC_U+30A4_U+30E4_U+30FC 1
 62
     7
420
 16777215
100
AcDbHatch
 10
0.0
 20
0.0
 30
0.0
210
0.0
220
0.0
230
1.0
  2
SOLID
 70
     1
 71
     0
 91
        2
 92
        1
 93
        1
 72
     4
 94
        3
 73
     0
 74
     1
 95
       32
 96
       28
 40
0.0
 40
0.0
 40
0.0
 40
0.0
 40
1.0
 40
1.0
 40
1.0
 40
2.0
 40
2.0
 40
2.0
 40
3.0
 40
3.0
 40
3.0
 40
4.0
 40
4.0
 40
4.0
 40
5.0
 40
5.0
 40
5.0
 40
6.0
 40
6.0
 40
6.0
 40
7.0
 40
7.0
 40
7.0
 40
8.0
 40
8.0
 40
8.0
 40
9.0
 40
9.0
 40
9.0
 40
9.0
 10
96.38171384309207
 20
-119.9943982989945
 10
96.38171384309207
 20
-120.545958086183
 10
95.82774248906391
 20
-120.5550875892189
 10
95.61380205942989
 20
-120.5550875892189
 10
95.38332517146668
 20
-120.5550875892189
 10
94.73599172978822
 20
-120.5347615258559
 10
94.73599172978822
 20
-119.9537461722685
 10
94.73599172978822
 20
-119.7684000351621
 10
94.8059271681388
 20
-119.5060560139603
 10
95.13803437291689
 20
-119.4654038872343
 10
95.13803437291689
 20
-119.4654038872343
 10
95.13803437291689
 20
-119.6936414631322
 10
95.13803437291689
 20
-119.6936414631322
 10
95.08084578786173
 20
-119.7050102782335
 10
94.932706681996
 20
-119.7389444687632
 10
94.932706681996
 20
-119.9559854843339
 10
94.932706681996
 20
-120.2679388805233
 10
95.26067977219178
 20
-120.3110025740889
 10
95.46566295356415
 20
-120.3244384464814
 10
95.38745928604898
 20
-120.2250474417319
 10
95.32820364370268
 20
-120.1527004365417
 10
95.32820364370268
 20
-119.9582247963993
 10
95.32820364370268
 20
-119.7659884683224
 10
95.43637964193952
 20
-119.442838511806
 10
95.84255639965048
 20
-119.442838511806
 10
96.16191675113313
 20
-119.442838511806
 10
96.38171384309207
 20
-119.6552286484716
 10
96.38171384309207
 20
-119.9943982989945
 97
        0
 97
        0
 92
        1
 93
        1
 72
     4
 94
        3
 73
     0
 74
     1
 95
       17
 96
       13
 40
0.0
 40
0.0
 40
0.0
 40
0.0
 40
1.0
 40
1.0
 40
1.0
 40
2.0
 40
2.0
 40
2.0
 40
3.0
 40
3.0
 40
3.0
 40
4.0
 40
4.0
 40
4.0
 40
4.0
 10
95.52285153861929
 20
-119.9763115476969
 10
95.52285153861929
 20
-120.256570065422
 10
95.73438040141363
 20
-120.2973944469222
 10
95.85082462881508
 20
-120.2973944469222
 10
96.02652449856282
 20
-120.2973944469222
 10
96.18947751501514
 20
-120.1955918753331
 10
96.18947751501514
 20
-119.9988769231253
 10
96.18947751501514
 20
-119.8700303519769
 10
96.13022187266884
 20
-119.6824449028051
 10
95.84462345694163
 20
-119.6824449028051
 10
95.62034774085186
 20
-119.6824449028051
 10
95.52285153861929
 20
-119.8316175373164
 10
95.52285153861929
 20
-119.9763115476969
 97
        0
 97
        0
 75
     2
 76
     1
 98
        0
  0
ENDBLK
  5
153
330
150
100
AcDbEntity
  8
0
100
AcDbBlockEnd
  0
ENDSEC
  0
SECTION
  2
ENTITIES
  0
POLYLINE
  5
41
330
1F
100
AcDbEntity
  8
_U+30EC_U+30A4_U+30E4_U+30FC 1
  6
AI-Linetype-1
 62
   154
420
    23468
370
    25
100
AcDb2dPolyline
 66
     1
 10
0.0
 20
0.0
 30
0.0
  0
VERTEX
  5
42
330
41
100
AcDbEntity
  8
_U+30EC_U+30A4_U+30E4_U+30FC 1
  6
AI-Linetype-1
 62
   154
420
    23468
370
    25
100
AcDbVertex
100
AcDb2dVertex
 10
80.53824738974258
 20
-116.0957446931982
 30
0.0
  0
VERTEX
  5
43
330
41
100
AcDbEntity
  8
_U+30EC_U+30A4_U+30E4_U+30FC 1
  6
AI-Linetype-1
 62
   154
420
    23468
370
    25
100
AcDbVertex
100
AcDb2dVertex
 10
82.16709290374281
 20
-116.0957446931982
 30
0.0
  0
VERTEX
  5
44
330
41
100
AcDbEntity
  8
_U+30EC_U+30A4_U+30E4_U+30FC 1
  6
AI-Linetype-1
 62
   154
420
    23468
370
    25
100
AcDbVertex
100
AcDb2dVertex
 10
82.16709290374281
 20
-122.0926494139212
 30
0.0
  0
VERTEX
  5
45
330
41
100
AcDbEntity
  8
_U+30EC_U+30A4_U+30E4_U+30FC 1
  6
AI-Linetype-1
 62
   154
420
    23468
370
    25
100
AcDbVertex
100
AcDb2dVertex
 10
88.17292497795688
 20
-122.0926494139212
 30
0.0
  0
VERTEX
  5
46
330
41
100
AcDbEntity
  8
_U+30EC_U+30A4_U+30E4_U+30FC 1
  6
AI-Linetype-1
 62
   154
420
    23468
370
    25
100
AcDbVertex
100
AcDb2dVertex
 10
88.17292497795688
 20
-123.5795371913275
 30
0.0
  0
SEQEND
  5
48
330
41
100
AcDbEntity
  8
_U+30EC_U+30A4_U+30E4_U+30FC 1
  6
AI-Linetype-1
 62
   154
420
    23468
370
    25
  0
POLYLINE
  5
49
330
1F
100
AcDbEntity
  8
_U+30EC_U+30A4_U+30E4_U+30FC 1
 62
   179
420
  2234388
370
     9
100
AcDb2dPolyline
 66
     1
 10
0.0
 20
0.0
 30
0.0
  0
VERTEX
  5
4A
330
49
100
AcDbEntity
  8
_U+30EC_U+30A4_U+30E4_U+30FC 1
 62
   179
420
  2234388
370
     9
100
AcDbVertex
100
AcDb2dVertex
 10
86.06521669318228
 20
-121.9486455250684
 30
0.0
  0
VERTEX
  5
4B
330
49
100
AcDbEntity
  8
_U+30EC_U+30A4_U+30E4_U+30FC 1
 62
   179
420
  2234388
370
     9
100
AcDbVertex
100
AcDb2dVertex
 10
91.48931599924643
 20
-114.319120526976
 30
0.0
  0
VERTEX
  5
4C
330
49
100
AcDbEntity
  8
_U+30EC_U+30A4_U+30E4_U+30FC 1
 62
   179
420
  2234388
370
     9
100
AcDbVertex
100
AcDb2dVertex
 10
107.8493850263107
 20
-114.319120526976
 30
0.0
  0
SEQEND
  5
4D
330
49
100
AcDbEntity
  8
_U+30EC_U+30A4_U+30E4_U+30FC 1
 62
   179
420
  2234388
370
     9
  0
INSERT
  5
4F
330
1F
100
AcDbEntity
  8
_U+30EC_U+30A4_U+30E4_U+30FC 1
100
AcDbBlockReference
  2
block 2
 10
0.0
 20
0.0
 30
0.0
  0
POLYLINE
  5
8C
330
1F
100
AcDbEntity
  8
_U+30EC_U+30A4_U+30E4_U+30FC 1
 62
     7
420
 16777215
370
    25
100
AcDb2dPolyline
 66
     1
 10
0.0
 20
0.0
 30
0.0
  0
VERTEX
  5
8D
330
8C
100
AcDbEntity
  8
_U+30EC_U+30A4_U+30E4_U+30FC 1
 62
     7
420
 16777215
370
    25
100
AcDbVertex
100
AcDb2dVertex
 10
81.51491264260355
 20
-139.3392846873877
 30
0.0
  0
VERTEX
  5
8E
330
8C
100
AcDbEntity
  8
_U+30EC_U+30A4_U+30E4_U+30FC 1
 62
     7
420
 16777215
370
    25
100
AcDbVertex
100
AcDb2dVertex
 10
87.51488637842036
 20
-139.3392846873877
 30
0.0
  0
SEQEND
  5
8F
330
8C
100
AcDbEntity
  8
_U+30EC_U+30A4_U+30E4_U+30FC 1
 62
     7
420
 16777215
370
    25
  0
POLYLINE
  5
90
330
1F
100
AcDbEntity
  8
_U+30EC_U+30A4_U+30E4_U+30FC 1
 62
     7
420
 16777215
370
    25
100
AcDb2dPolyline
 66
     1
 10
0.0
 20
0.0
 30
0.0
  0
VERTEX
  5
91
330
90
100
AcDbEntity
  8
_U+30EC_U+30A4_U+30E4_U+30FC 1
 62
     7
420
 16777215
370
    25
100
AcDbVertex
100
AcDb2dVertex
 10
81.51491264260355
 20
-123.839640246818
 30
0.0
  0
VERTEX
  5
92
330
90
100
AcDbEntity
  8
_U+30EC_U+30A4_U+30E4_U+30FC 1
 62
     7
420
 16777215
370
    25
100
AcDbVertex
100
AcDb2dVertex
 10
87.51488637842036
 20
-123.839640246818
 30
0.0
  0
SEQEND
  5
93
330
90
100
AcDbEntity
  8
_U+30EC_U+30A4_U+30E4_U+30FC 1
 62
     7
420
 16777215
370
    25
  0
POLYLINE
  5
94
330
1F
100
AcDbEntity
  8
_U+30EC_U+30A4_U+30E4_U+30FC 1
 62
     7
420
 16777215
370
    25
100
AcDb2dPolyline
 66
     1
 10
0.0
 20
0.0
 30
0.0
  0
VERTEX
  5
95
330
94
100
AcDbEntity
  8
_U+30EC_U+30A4_U+30E4_U+30FC 1
 62
     7
420
 16777215
370
    25
100
AcDbVertex
100
AcDb2dVertex
 10
81.51491264260355
 20
-140.3397624649151
 30
0.0
  0
VERTEX
  5
96
330
94
100
AcDbEntity
  8
_U+30EC_U+30A4_U+30E4_U+30FC 1
 62
     7
420
 16777215
370
    25
100
AcDbVertex
100
AcDb2dVertex
 10
94.51481108748214
 20
-140.3397624649151
 30
0.0
  0
SEQEND
  5
97
330
94
100
AcDbEntity
  8
_U+30EC_U+30A4_U+30E4_U+30FC 1
 62
     7
420
 16777215
370
    25
  0
POLYLINE
  5
98
330
1F
100
AcDbEntity
  8
_U+30EC_U+30A4_U+30E4_U+30FC 1
 62
     7
420
 16777215
370
    25
100
AcDb2dPolyline
 66
     1
 10
0.0
 20
0.0
 30
0.0
  0
VERTEX
  5
99
330
98
100
AcDbEntity
  8
_U+30EC_U+30A4_U+30E4_U+30FC 1
 62
     7
420
 16777215
370
    25
100
AcDbVertex
100
AcDb2dVertex
 10
80.51447220209346
 20
-116.839541359679
 30
0.0
  0
VERTEX
  5
9A
330
98
100
AcDbEntity
  8
_U+30EC_U+30A4_U+30E4_U+30FC 1
 62
     7
420
 16777215
370
    25
100
AcDbVertex
100
AcDb2dVertex
 10
80.51447220209346
 20
-139.3392846873877
 30
0.0
  0
SEQEND
  5
9B
330
98
100
AcDbEntity
  8
_U+30EC_U+30A4_U+30E4_U+30FC 1
 62
     7
420
 16777215
370
    25
  0
POLYLINE
  5
9C
330
1F
100
AcDbEntity
  8
_U+30EC_U+30A4_U+30E4_U+30FC 1
 62
     7
420
 16777215
370
    25
100
AcDb2dPolyline
 66
     1
 10
0.0
 20
0.0
 30
0.0
  0
VERTEX
  5
9D
330
9C
100
AcDbEntity
  8
_U+30EC_U+30A4_U+30E4_U+30FC 1
 62
     7
420
 16777215
370
    25
100
AcDbVertex
100
AcDb2dVertex
 10
81.51491264260355
 20
-117.8393135816512
 30
0.0
  0
VERTEX
  5
9E
330
9C
100
AcDbEntity
  8
_U+30EC_U+30A4_U+30E4_U+30FC 1
 62
     7
420
 16777215
370
    25
100
AcDbVertex
100
AcDb2dVertex
 10
81.51491264260355
 20
-122.8391977470681
 30
0.0
  0
SEQEND
  5
9F
330
9C
100
AcDbEntity
  8
_U+30EC_U+30A4_U+30E4_U+30FC 1
 62
     7
420
 16777215
370
    25
  0
POLYLINE
  5
A0
330
1F
100
AcDbEntity
  8
_U+30EC_U+30A4_U+30E4_U+30FC 1
 62
     7
420
 16777215
370
    25
100
AcDb2dPolyline
 66
     1
 10
0.0
 20
0.0
 30
0.0
  0
VERTEX
  5
A1
330
A0
100
AcDbEntity
  8
_U+30EC_U+30A4_U+30E4_U+30FC 1
 62
     7
420
 16777215
370
    25
100
AcDbVertex
100
AcDb2dVertex
 10
81.51491264260355
 20
-122.8391977470681
 30
0.0
  0
VERTEX
  5
A2
330
A0
100
AcDbEntity
  8
_U+30EC_U+30A4_U+30E4_U+30FC 1
 62
     7
420
 16777215
370
    25
100
AcDbVertex
100
AcDb2dVertex
 10
86.51444390394377
 20
-122.8391977470681
 30
0.0
  0
SEQEND
  5
A3
330
A0
100
AcDbEntity
  8
_U+30EC_U+30A4_U+30E4_U+30FC 1
 62
     7
420
 16777215
370
    25
  0
POLYLINE
  5
A4
330
1F
100
AcDbEntity
  8
_U+30EC_U+30A4_U+30E4_U+30FC 1
 62
     7
420
 16777215
370
    25
100
AcDb2dPolyline
 66
     1
 10
0.0
 20
0.0
 30
0.0
  0
VERTEX
  5
A5
330
A4
100
AcDbEntity
  8
_U+30EC_U+30A4_U+30E4_U+30FC 1
 62
     7
420
 16777215
370
    25
100
AcDbVertex
100
AcDb2dVertex
 10
81.51491264260355
 20
-123.839640246818
 30
0.0
  0
VERTEX
  5
A6
330
A4
100
AcDbEntity
  8
_U+30EC_U+30A4_U+30E4_U+30FC 1
 62
     7
420
 16777215
370
    25
100
AcDbVertex
100
AcDb2dVertex
 10
81.51491264260355
 20
-139.3392846873877
 30
0.0
  0
SEQEND
  5
A7
330
A4
100
AcDbEntity
  8
_U+30EC_U+30A4_U+30E4_U+30FC 1
 62
     7
420
 16777215
370
    25
  0
POLYLINE
  5
A8
330
1F
100
AcDbEntity
  8
_U+30EC_U+30A4_U+30E4_U+30FC 1
 62
     7
420
 16777215
370
    25
100
AcDb2dPolyline
 66
     1
 10
0.0
 20
0.0
 30
0.0
  0
VERTEX
  5
A9
330
A8
100
AcDbEntity
  8
_U+30EC_U+30A4_U+30E4_U+30FC 1
 62
     7
420
 16777215
370
    25
100
AcDbVertex
100
AcDb2dVertex
 10
87.87320275816784
 20
-139.5398035762259
 30
0.0
  0
VERTEX
  5
AA
330
A8
100
AcDbEntity
  8
_U+30EC_U+30A4_U+30E4_U+30FC 1
 62
     7
420
 16777215
370
    25
100
AcDbVertex
100
AcDb2dVertex
 10
93.71484983135721
 20
-139.5398035762259
 30
0.0
  0
SEQEND
  5
AB
330
A8
100
AcDbEntity
  8
_U+30EC_U+30A4_U+30E4_U+30FC 1
 62
     7
420
 16777215
370
    25
  0
POLYLINE
  5
AC
330
1F
100
AcDbEntity
  8
_U+30EC_U+30A4_U+30E4_U+30FC 1
 62
     7
420
 16777215
370
    25
100
AcDb2dPolyline
 66
     1
 10
0.0
 20
0.0
 30
0.0
  0
VERTEX
  5
AD
330
AC
100
AcDbEntity
  8
_U+30EC_U+30A4_U+30E4_U+30FC 1
 62
     7
420
 16777215
370
    25
100
AcDbVertex
100
AcDb2dVertex
 10
87.51488637842036
 20
-139.3392846873877
 30
0.0
  0
VERTEX
  5
AE
330
AC
100
AcDbEntity
  8
_U+30EC_U+30A4_U+30E4_U+30FC 1
 62
     7
420
 16777215
370
    25
100
AcDbVertex
100
AcDb2dVertex
 10
87.86078498070685
 20
-139.5398035762259
 30
0.0
  0
SEQEND
  5
AF
330
AC
100
AcDbEntity
  8
_U+30EC_U+30A4_U+30E4_U+30FC 1
 62
     7
420
 16777215
370
    25
  0
SPLINE
  5
B0
330
1F
100
AcDbEntity
  8
_U+30EC_U+30A4_U+30E4_U+30FC 1
 62
     7
420
 16777215
370
    25
100
AcDbSpline
210
0.0
220
0.0
230
1.0
 70
     8
 71
     3
 72
     8
 73
     4
 74
     0
 42
0.0000000001
 43
0.0000000001
 12
1.0
 22
0.0
 32
0.0
 13
1.0
 23
0.0
 33
0.0
 40
0.0
 40
0.0
 40
0.0
 40
0.0
 40
1.0
 40
1.0
 40
1.0
 40
1.0
 10
80.51447220209346
 20
-139.3392846873877
 30
0.0
 10
80.51447220209346
 20
-139.8918757983606
 30
0.0
 10
80.96232154559021
 20
-140.3397624649151
 30
0.0
 10
81.51491264260355
 20
-140.3397624649151
 30
0.0
  0
SPLINE
  5
B1
330
1F
100
AcDbEntity
  8
_U+30EC_U+30A4_U+30E4_U+30FC 1
 62
     7
420
 16777215
370
     9
100
AcDbSpline
210
0.0
220
0.0
230
1.0
 70
    11
 71
     3
 72
    17
 73
    13
 74
     0
 42
0.0000000001
 43
0.0000000001
 12
1.0
 22
0.0
 32
0.0
 13
1.0
 23
0.0
 33
0.0
 40
0.0
 40
0.0
 40
0.0
 40
0.0
 40
1.0
 40
1.0
 40
1.0
 40
2.0
 40
2.0
 40
2.0
 40
3.0
 40
3.0
 40
3.0
 40
4.0
 40
4.0
 40
4.0
 40
4.0
 10
80.6143768322448
 20
-121.0739330252869
 30
0.0
 10
80.6143768322448
 20
-121.0187938586342
 30
0.0
 10
80.56957405561003
 20
-120.9740263586453
 30
0.0
 10
80.51447220209346
 20
-120.9740263586453
 30
0.0
 10
80.45933100286702
 20
-120.9740263586453
 30
0.0
 10
80.41456350400912
 20
-121.0187938586342
 30
0.0
 10
80.41456350400912
 20
-121.0739330252869
 30
0.0
 10
80.41456350400912
 20
-121.1290369141622
 30
0.0
 10
80.45933100286702
 20
-121.1738396919289
 30
0.0
 10
80.51447220209346
 20
-121.1738396919289
 30
0.0
 10
80.56957405561003
 20
-121.1738396919289
 30
0.0
 10
80.6143768322448
 20
-121.1290369141622
 30
0.0
 10
80.6143768322448
 20
-121.0739330252869
 30
0.0
  0
SPLINE
  5
B2
330
1F
100
AcDbEntity
  8
_U+30EC_U+30A4_U+30E4_U+30FC 1
 62
     7
420
 16777215
370
     9
100
AcDbSpline
210
0.0
220
0.0
230
1.0
 70
    11
 71
     3
 72
    17
 73
    13
 74
     0
 42
0.0000000001
 43
0.0000000001
 12
1.0
 22
0.0
 32
0.0
 13
1.0
 23
0.0
 33
0.0
 40
0.0
 40
0.0
 40
0.0
 40
0.0
 40
1.0
 40
1.0
 40
1.0
 40
2.0
 40
2.0
 40
2.0
 40
3.0
 40
3.0
 40
3.0
 40
4.0
 40
4.0
 40
4.0
 40
4.0
 10
81.61481930672139
 20
-121.0739330252869
 30
0.0
 10
81.61481930672139
 20
-121.0187938586342
 30
0.0
 10
81.57005180786349
 20
-120.9740263586453
 30
0.0
 10
81.51491264260355
 20
-120.9740263586453
 30
0.0
 10
81.45910319958291
 20
-120.9740263586453
 30
0.0
 10
81.41433570072503
 20
-121.0187938586342
 30
0.0
 10
81.41433570072503
 20
-121.0739330252869
 30
0.0
 10
81.41433570072503
 20
-121.1290369141622
 30
0.0
 10
81.45910319958291
 20
-121.1738396919289
 30
0.0
 10
81.51491264260355
 20
-121.1738396919289
 30
0.0
 10
81.57005180786349
 20
-121.1738396919289
 30
0.0
 10
81.61481930672139
 20
-121.1290369141622
 30
0.0
 10
81.61481930672139
 20
-121.0739330252869
 30
0.0
  0
SPLINE
  5
B3
330
1F
100
AcDbEntity
  8
_U+30EC_U+30A4_U+30E4_U+30FC 1
 62
     7
420
 16777215
370
     9
100
AcDbSpline
210
0.0
220
0.0
230
1.0
 70
    11
 71
     3
 72
    17
 73
    13
 74
     0
 42
0.0000000001
 43
0.0000000001
 12
1.0
 22
0.0
 32
0.0
 13
1.0
 23
0.0
 33
0.0
 40
0.0
 40
0.0
 40
0.0
 40
0.0
 40
1.0
 40
1.0
 40
1.0
 40
2.0
 40
2.0
 40
2.0
 40
3.0
 40
3.0
 40
3.0
 40
4.0
 40
4.0
 40
4.0
 40
4.0
 10
94.51481108748214
 20
-144.339521630582
 30
0.0
 10
94.51481108748214
 20
-144.2843824639289
 30
0.0
 10
94.47004120097957
 20
-144.2396149639404
 30
0.0
 10
94.41490203571962
 20
-144.2396149639404
 30
0.0
 10
94.35979814823655
 20
-144.2396149639404
 30
0.0
 10
94.31499537160178
 20
-144.2843824639289
 30
0.0
 10
94.31499537160178
 20
-144.339521630582
 30
0.0
 10
94.31499537160178
 20
-144.394625519457
 30
0.0
 10
94.35979814823655
 20
-144.4394282972237
 30
0.0
 10
94.41490203571962
 20
-144.4394282972237
 30
0.0
 10
94.47004120097957
 20
-144.4394282972237
 30
0.0
 10
94.51481108748214
 20
-144.394625519457
 30
0.0
 10
94.51481108748214
 20
-144.339521630582
 30
0.0
  0
SPLINE
  5
B4
330
1F
100
AcDbEntity
  8
_U+30EC_U+30A4_U+30E4_U+30FC 1
 62
     7
420
 16777215
370
     9
100
AcDbSpline
210
0.0
220
0.0
230
1.0
 70
    11
 71
     3
 72
    17
 73
    13
 74
     0
 42
0.0000000001
 43
0.0000000001
 12
1.0
 22
0.0
 32
0.0
 13
1.0
 23
0.0
 33
0.0
 40
0.0
 40
0.0
 40
0.0
 40
0.0
 40
1.0
 40
1.0
 40
1.0
 40
2.0
 40
2.0
 40
2.0
 40
3.0
 40
3.0
 40
3.0
 40
4.0
 40
4.0
 40
4.0
 40
4.0
 10
80.6143768322448
 20
-144.339521630582
 30
0.0
 10
80.6143768322448
 20
-144.2843824639289
 30
0.0
 10
80.56957405561003
 20
-144.2396149639404
 30
0.0
 10
80.51447220209346
 20
-144.2396149639404
 30
0.0
 10
80.45933100286702
 20
-144.2396149639404
 30
0.0
 10
80.41456350400912
 20
-144.2843824639289
 30
0.0
 10
80.41456350400912
 20
-144.339521630582
 30
0.0
 10
80.41456350400912
 20
-144.394625519457
 30
0.0
 10
80.45933100286702
 20
-144.4394282972237
 30
0.0
 10
80.51447220209346
 20
-144.4394282972237
 30
0.0
 10
80.56957405561003
 20
-144.4394282972237
 30
0.0
 10
80.6143768322448
 20
-144.394625519457
 30
0.0
 10
80.6143768322448
 20
-144.339521630582
 30
0.0
  0
SPLINE
  5
B5
330
1F
100
AcDbEntity
  8
_U+30EC_U+30A4_U+30E4_U+30FC 1
 62
     7
420
 16777215
370
    25
100
AcDbSpline
210
0.0
220
0.0
230
1.0
 70
     8
 71
     3
 72
     8
 73
     4
 74
     0
 42
0.0000000001
 43
0.0000000001
 12
1.0
 22
0.0
 32
0.0
 13
1.0
 23
0.0
 33
0.0
 40
0.0
 40
0.0
 40
0.0
 40
0.0
 40
1.0
 40
1.0
 40
1.0
 40
1.0
 10
81.51491264260355
 20
-117.8393135816512
 30
0.0
 10
81.51491264260355
 20
-117.2874280262339
 30
0.0
 10
81.0670612651403
 20
-116.839541359679
 30
0.0
 10
80.51447220209346
 20
-116.839541359679
 30
0.0
  0
SPLINE
  5
B6
330
1F
100
AcDbEntity
  8
_U+30EC_U+30A4_U+30E4_U+30FC 1
 62
     7
420
 16777215
370
    25
100
AcDbSpline
210
0.0
220
0.0
230
1.0
 70
     8
 71
     3
 72
     8
 73
     4
 74
     0
 42
0.0000000001
 43
0.0000000001
 12
1.0
 22
0.0
 32
0.0
 13
1.0
 23
0.0
 33
0.0
 40
0.0
 40
0.0
 40
0.0
 40
0.0
 40
1.0
 40
1.0
 40
1.0
 40
1.0
 10
87.51488637842036
 20
-123.839640246818
 30
0.0
 10
87.51488637842036
 20
-123.2870491358448
 30
0.0
 10
87.0670350009571
 20
-122.8391977470681
 30
0.0
 10
86.51444390394377
 20
-122.8391977470681
 30
0.0
  0
SPLINE
  5
B7
330
1F
100
AcDbEntity
  8
_U+30EC_U+30A4_U+30E4_U+30FC 1
 62
     7
420
 16777215
370
    25
100
AcDbSpline
210
0.0
220
0.0
230
1.0
 70
     8
 71
     3
 72
     8
 73
     4
 74
     0
 42
0.0000000001
 43
0.0000000001
 12
1.0
 22
0.0
 32
0.0
 13
1.0
 23
0.0
 33
0.0
 40
0.0
 40
0.0
 40
0.0
 40
0.0
 40
1.0
 40
1.0
 40
1.0
 40
1.0
 10
94.51481108748214
 20
-140.3397624649151
 30
0.0
 10
94.51481108748214
 20
-139.8980846872476
 30
0.0
 10
94.15652759786686
 20
-139.5398035762259
 30
0.0
 10
93.71484983135721
 20
-139.5398035762259
 30
0.0
  0
SPLINE
  5
B8
330
1F
100
AcDbEntity
  8
_U+30EC_U+30A4_U+30E4_U+30FC 1
 62
     7
420
 16777215
370
     9
100
AcDbSpline
210
0.0
220
0.0
230
1.0
 70
    11
 71
     3
 72
    17
 73
    13
 74
     0
 42
0.0000000001
 43
0.0000000001
 12
1.0
 22
0.0
 32
0.0
 13
1.0
 23
0.0
 33
0.0
 40
0.0
 40
0.0
 40
0.0
 40
0.0
 40
1.0
 40
1.0
 40
1.0
 40
2.0
 40
2.0
 40
2.0
 40
3.0
 40
3.0
 40
3.0
 40
4.0
 40
4.0
 40
4.0
 40
4.0
 10
76.61461776762049
 20
-116.8398941374567
 30
0.0
 10
76.61461776762049
 20
-116.7847902485815
 30
0.0
 10
76.56981499098572
 20
-116.7399874708151
 30
0.0
 10
76.51471110350265
 20
-116.7399874708151
 30
0.0
 10
76.4595719382427
 20
-116.7399874708151
 30
0.0
 10
76.41480443938481
 20
-116.7847902485815
 30
0.0
 10
76.41480443938481
 20
-116.8398941374567
 30
0.0
 10
76.41480443938481
 20
-116.8950333041095
 30
0.0
 10
76.4595719382427
 20
-116.9398008040984
 30
0.0
 10
76.51471110350265
 20
-116.9398008040984
 30
0.0
 10
76.56981499098572
 20
-116.9398008040984
 30
0.0
 10
76.61461776762049
 20
-116.8950333041095
 30
0.0
 10
76.61461776762049
 20
-116.8398941374567
 30
0.0
  0
SPLINE
  5
B9
330
1F
100
AcDbEntity
  8
_U+30EC_U+30A4_U+30E4_U+30FC 1
 62
     7
420
 16777215
370
     9
100
AcDbSpline
210
0.0
220
0.0
230
1.0
 70
    11
 71
     3
 72
    17
 73
    13
 74
     0
 42
0.0000000001
 43
0.0000000001
 12
1.0
 22
0.0
 32
0.0
 13
1.0
 23
0.0
 33
0.0
 40
0.0
 40
0.0
 40
0.0
 40
0.0
 40
1.0
 40
1.0
 40
1.0
 40
2.0
 40
2.0
 40
2.0
 40
3.0
 40
3.0
 40
3.0
 40
4.0
 40
4.0
 40
4.0
 40
4.0
 10
76.61461776762049
 20
-140.3397624649151
 30
0.0
 10
76.61461776762049
 20
-140.2846232982621
 30
0.0
 10
76.56981499098572
 20
-140.2398557982735
 30
0.0
 10
76.51471110350265
 20
-140.2398557982735
 30
0.0
 10
76.4595719382427
 20
-140.2398557982735
 30
0.0
 10
76.41480443938481
 20
-140.2846232982621
 30
0.0
 10
76.41480443938481
 20
-140.3397624649151
 30
0.0
 10
76.41480443938481
 20
-140.3948663537901
 30
0.0
 10
76.4595719382427
 20
-140.4396691315568
 30
0.0
 10
76.51471110350265
 20
-140.4396691315568
 30
0.0
 10
76.56981499098572
 20
-140.4396691315568
 30
0.0
 10
76.61461776762049
 20
-140.3948663537901
 30
0.0
 10
76.61461776762049
 20
-140.3397624649151
 30
0.0
  0
SPLINE
  5
BA
330
1F
100
AcDbEntity
  8
_U+30EC_U+30A4_U+30E4_U+30FC 1
 62
     7
420
 16777215
370
     9
100
AcDbSpline
210
0.0
220
0.0
230
1.0
 70
    11
 71
     3
 72
    17
 73
    13
 74
     0
 42
0.0000000001
 43
0.0000000001
 12
1.0
 22
0.0
 32
0.0
 13
1.0
 23
0.0
 33
0.0
 40
0.0
 40
0.0
 40
0.0
 40
0.0
 40
1.0
 40
1.0
 40
1.0
 40
2.0
 40
2.0
 40
2.0
 40
3.0
 40
3.0
 40
3.0
 40
4.0
 40
4.0
 40
4.0
 40
4.0
 10
97.0269744690801
 20
-139.3392846873877
 30
0.0
 10
97.0269744690801
 20
-139.2841807985122
 30
0.0
 10
96.98220697022222
 20
-139.2393780207454
 30
0.0
 10
96.92706780496226
 20
-139.2393780207454
 30
0.0
 10
96.87196391747919
 20
-139.2393780207454
 30
0.0
 10
96.82716114084442
 20
-139.2841807985122
 30
0.0
 10
96.82716114084442
 20
-139.3392846873877
 30
0.0
 10
96.82716114084442
 20
-139.3950941318182
 30
0.0
 10
96.87196391747919
 20
-139.4398969095842
 30
0.0
 10
96.92706780496226
 20
-139.4398969095842
 30
0.0
 10
96.98220697022222
 20
-139.4398969095842
 30
0.0
 10
97.0269744690801
 20
-139.3950941318182
 30
0.0
 10
97.0269744690801
 20
-139.3392846873877
 30
0.0
  0
SPLINE
  5
BB
330
1F
100
AcDbEntity
  8
_U+30EC_U+30A4_U+30E4_U+30FC 1
 62
     7
420
 16777215
370
     9
100
AcDbSpline
210
0.0
220
0.0
230
1.0
 70
    11
 71
     3
 72
    17
 73
    13
 74
     0
 42
0.0000000001
 43
0.0000000001
 12
1.0
 22
0.0
 32
0.0
 13
1.0
 23
0.0
 33
0.0
 40
0.0
 40
0.0
 40
0.0
 40
0.0
 40
1.0
 40
1.0
 40
1.0
 40
2.0
 40
2.0
 40
2.0
 40
3.0
 40
3.0
 40
3.0
 40
4.0
 40
4.0
 40
4.0
 40
4.0
 10
97.0269744690801
 20
-123.9395469134596
 30
0.0
 10
97.0269744690801
 20
-123.8844430245844
 30
0.0
 10
96.98220697022222
 20
-123.839640246818
 30
0.0
 10
96.92706780496226
 20
-123.839640246818
 30
0.0
 10
96.87196391747919
 20
-123.839640246818
 30
0.0
 10
96.82716114084442
 20
-123.8844430245844
 30
0.0
 10
96.82716114084442
 20
-123.9395469134596
 30
0.0
 10
96.82716114084442
 20
-123.9950035801123
 30
0.0
 10
96.87196391747919
 20
-124.039806357879
 30
0.0
 10
96.92706780496226
 20
-124.039806357879
 30
0.0
 10
96.98220697022222
 20
-124.039806357879
 30
0.0
 10
97.0269744690801
 20
-123.9950035801123
 30
0.0
 10
97.0269744690801
 20
-123.9395469134596
 30
0.0
  0
SPLINE
  5
BC
330
1F
100
AcDbEntity
  8
_U+30EC_U+30A4_U+30E4_U+30FC 1
 62
     7
420
 16777215
370
     9
100
AcDbSpline
210
0.0
220
0.0
230
1.0
 70
    11
 71
     3
 72
    17
 73
    13
 74
     0
 42
0.0000000001
 43
0.0000000001
 12
1.0
 22
0.0
 32
0.0
 13
1.0
 23
0.0
 33
0.0
 40
0.0
 40
0.0
 40
0.0
 40
0.0
 40
1.0
 40
1.0
 40
1.0
 40
2.0
 40
2.0
 40
2.0
 40
3.0
 40
3.0
 40
3.0
 40
4.0
 40
4.0
 40
4.0
 40
4.0
 10
97.0269744690801
 20
-116.9394480263206
 30
0.0
 10
97.0269744690801
 20
-116.8843441374457
 30
0.0
 10
96.98220697022222
 20
-116.839541359679
 30
0.0
 10
96.92706780496226
 20
-116.839541359679
 30
0.0
 10
96.87196391747919
 20
-116.839541359679
 30
0.0
 10
96.82716114084442
 20
-116.8843441374457
 30
0.0
 10
96.82716114084442
 20
-116.9394480263206
 30
0.0
 10
96.82716114084442
 20
-116.9945871929737
 30
0.0
 10
96.87196391747919
 20
-117.0393546929622
 30
0.0
 10
96.92706780496226
 20
-117.0393546929622
 30
0.0
 10
96.98220697022222
 20
-117.0393546929622
 30
0.0
 10
97.0269744690801
 20
-116.9945871929737
 30
0.0
 10
97.0269744690801
 20
-116.9394480263206
 30
0.0
  0
POLYLINE
  5
BD
330
1F
100
AcDbEntity
  8
_U+30EC_U+30A4_U+30E4_U+30FC 1
 62
     7
420
 16777215
370
     9
100
AcDb2dPolyline
 66
     1
 10
0.0
 20
0.0
 30
0.0
  0
VERTEX
  5
BE
330
BD
100
AcDbEntity
  8
_U+30EC_U+30A4_U+30E4_U+30FC 1
 62
     7
420
 16777215
370
     9
100
AcDbVertex
100
AcDb2dVertex
 10
81.51491264260355
 20
-121.0739330252869
 30
0.0
  0
VERTEX
  5
BF
330
BD
100
AcDbEntity
  8
_U+30EC_U+30A4_U+30E4_U+30FC 1
 62
     7
420
 16777215
370
     9
100
AcDbVertex
100
AcDb2dVertex
 10
85.28522504641487
 20
-121.0739330252869
 30
0.0
  0
SEQEND
  5
C0
330
BD
100
AcDbEntity
  8
_U+30EC_U+30A4_U+30E4_U+30FC 1
 62
     7
420
 16777215
370
     9
  0
POLYLINE
  5
C1
330
1F
100
AcDbEntity
  8
_U+30EC_U+30A4_U+30E4_U+30FC 1
 62
     7
420
 16777215
370
     9
100
AcDb2dPolyline
 66
     1
 10
0.0
 20
0.0
 30
0.0
  0
VERTEX
  5
C2
330
C1
100
AcDbEntity
  8
_U+30EC_U+30A4_U+30E4_U+30FC 1
 62
     7
420
 16777215
370
     9
100
AcDbVertex
100
AcDb2dVertex
 10
79.51469998012124
 20
-121.0739330252869
 30
0.0
  0
VERTEX
  5
C3
330
C1
100
AcDbEntity
  8
_U+30EC_U+30A4_U+30E4_U+30FC 1
 62
     7
420
 16777215
370
     9
100
AcDbVertex
100
AcDb2dVertex
 10
81.51491264260355
 20
-121.0739330252869
 30
0.0
  0
SEQEND
  5
C4
330
C1
100
AcDbEntity
  8
_U+30EC_U+30A4_U+30E4_U+30FC 1
 62
     7
420
 16777215
370
     9
  0
INSERT
  5
C6
330
1F
100
AcDbEntity
  8
_U+30EC_U+30A4_U+30E4_U+30FC 1
100
AcDbBlockReference
  2
block 3
 10
0.0
 20
0.0
 30
0.0
  0
POLYLINE
  5
CB
330
1F
100
AcDbEntity
  8
_U+30EC_U+30A4_U+30E4_U+30FC 1
 62
     7
420
 16777215
370
     9
100
AcDb2dPolyline
 66
     1
 10
0.0
 20
0.0
 30
0.0
  0
VERTEX
  5
CC
330
CB
100
AcDbEntity
  8
_U+30EC_U+30A4_U+30E4_U+30FC 1
 62
     7
420
 16777215
370
     9
100
AcDbVertex
100
AcDb2dVertex
 10
80.51447220209346
 20
-144.339521630582
 30
0.0
  0
VERTEX
  5
CD
330
CB
100
AcDbEntity
  8
_U+30EC_U+30A4_U+30E4_U+30FC 1
 62
     7
420
 16777215
370
     9
100
AcDbVertex
100
AcDb2dVertex
 10
94.51481108748214
 20
-144.339521630582
 30
0.0
  0
SEQEND
  5
CE
330
CB
100
AcDbEntity
  8
_U+30EC_U+30A4_U+30E4_U+30FC 1
 62
     7
420
 16777215
370
     9
  0
POLYLINE
  5
CF
330
1F
100
AcDbEntity
  8
_U+30EC_U+30A4_U+30E4_U+30FC 1
 62
     7
420
 16777215
370
     9
100
AcDb2dPolyline
 66
     1
 10
0.0
 20
0.0
 30
0.0
  0
VERTEX
  5
D0
330
CF
100
AcDbEntity
  8
_U+30EC_U+30A4_U+30E4_U+30FC 1
 62
     7
420
 16777215
370
     9
100
AcDbVertex
100
AcDb2dVertex
 10
80.51447220209346
 20
-141.8797080200858
 30
0.0
  0
VERTEX
  5
D1
330
CF
100
AcDbEntity
  8
_U+30EC_U+30A4_U+30E4_U+30FC 1
 62
     7
420
 16777215
370
     9
100
AcDbVertex
100
AcDb2dVertex
 10
80.51447220209346
 20
-145.3399641303319
 30
0.0
  0
SEQEND
  5
D2
330
CF
100
AcDbEntity
  8
_U+30EC_U+30A4_U+30E4_U+30FC 1
 62
     7
420
 16777215
370
     9
  0
POLYLINE
  5
D3
330
1F
100
AcDbEntity
  8
_U+30EC_U+30A4_U+30E4_U+30FC 1
 62
     7
420
 16777215
370
     9
100
AcDb2dPolyline
 66
     1
 10
0.0
 20
0.0
 30
0.0
  0
VERTEX
  5
D4
330
D3
100
AcDbEntity
  8
_U+30EC_U+30A4_U+30E4_U+30FC 1
 62
     7
420
 16777215
370
     9
100
AcDbVertex
100
AcDb2dVertex
 10
94.41490203571962
 20
-141.8797080200858
 30
0.0
  0
VERTEX
  5
D5
330
D3
100
AcDbEntity
  8
_U+30EC_U+30A4_U+30E4_U+30FC 1
 62
     7
420
 16777215
370
     9
100
AcDbVertex
100
AcDb2dVertex
 10
94.41490203571962
 20
-145.3399641303319
 30
0.0
  0
SEQEND
  5
D6
330
D3
100
AcDbEntity
  8
_U+30EC_U+30A4_U+30E4_U+30FC 1
 62
     7
420
 16777215
370
     9
  0
INSERT
  5
D8
330
1F
100
AcDbEntity
  8
_U+30EC_U+30A4_U+30E4_U+30FC 1
100
AcDbBlockReference
  2
block 4
 10
0.0
 20
0.0
 30
0.0
  0
SPLINE
  5
F2
330
1F
100
AcDbEntity
  8
_U+30EC_U+30A4_U+30E4_U+30FC 1
 62
     7
420
 16777215
370
     9
100
AcDbSpline
210
0.0
220
0.0
230
1.0
 70
    11
 71
     3
 72
    17
 73
    13
 74
     0
 42
0.0000000001
 43
0.0000000001
 12
1.0
 22
0.0
 32
0.0
 13
1.0
 23
0.0
 33
0.0
 40
0.0
 40
0.0
 40
0.0
 40
0.0
 40
1.0
 40
1.0
 40
1.0
 40
2.0
 40
2.0
 40
2.0
 40
3.0
 40
3.0
 40
3.0
 40
4.0
 40
4.0
 40
4.0
 40
4.0
 10
87.71469970665602
 20
-114.7342694157608
 30
0.0
 10
87.71469970665602
 20
-114.679130249108
 30
0.0
 10
87.66993220779814
 20
-114.6343627491192
 30
0.0
 10
87.61479304253818
 20
-114.6343627491192
 30
0.0
 10
87.55968915505511
 20
-114.6343627491192
 30
0.0
 10
87.51488637842036
 20
-114.679130249108
 30
0.0
 10
87.51488637842036
 20
-114.7342694157608
 30
0.0
 10
87.51488637842036
 20
-114.789373304636
 30
0.0
 10
87.55968915505511
 20
-114.8341760824024
 30
0.0
 10
87.61479304253818
 20
-114.8341760824024
 30
0.0
 10
87.66993220779814
 20
-114.8341760824024
 30
0.0
 10
87.71469970665602
 20
-114.789373304636
 30
0.0
 10
87.71469970665602
 20
-114.7342694157608
 30
0.0
  0
SPLINE
  5
F3
330
1F
100
AcDbEntity
  8
_U+30EC_U+30A4_U+30E4_U+30FC 1
 62
     7
420
 16777215
370
     9
100
AcDbSpline
210
0.0
220
0.0
230
1.0
 70
    11
 71
     3
 72
    17
 73
    13
 74
     0
 42
0.0000000001
 43
0.0000000001
 12
1.0
 22
0.0
 32
0.0
 13
1.0
 23
0.0
 33
0.0
 40
0.0
 40
0.0
 40
0.0
 40
0.0
 40
1.0
 40
1.0
 40
1.0
 40
2.0
 40
2.0
 40
2.0
 40
3.0
 40
3.0
 40
3.0
 40
4.0
 40
4.0
 40
4.0
 40
4.0
 10
81.71472597083921
 20
-114.7342694157608
 30
0.0
 10
81.71472597083921
 20
-114.679130249108
 30
0.0
 10
81.66995847198133
 20
-114.6343627491192
 30
0.0
 10
81.61481930672139
 20
-114.6343627491192
 30
0.0
 10
81.55971541923832
 20
-114.6343627491192
 30
0.0
 10
81.51491264260355
 20
-114.679130249108
 30
0.0
 10
81.51491264260355
 20
-114.7342694157608
 30
0.0
 10
81.51491264260355
 20
-114.789373304636
 30
0.0
 10
81.55971541923832
 20
-114.8341760824024
 30
0.0
 10
81.61481930672139
 20
-114.8341760824024
 30
0.0
 10
81.66995847198133
 20
-114.8341760824024
 30
0.0
 10
81.71472597083921
 20
-114.789373304636
 30
0.0
 10
81.71472597083921
 20
-114.7342694157608
 30
0.0
  0
POLYLINE
  5
F4
330
1F
100
AcDbEntity
  8
_U+30EC_U+30A4_U+30E4_U+30FC 1
 62
     7
420
 16777215
370
     9
100
AcDb2dPolyline
 66
     1
 10
0.0
 20
0.0
 30
0.0
  0
VERTEX
  5
F5
330
F4
100
AcDbEntity
  8
_U+30EC_U+30A4_U+30E4_U+30FC 1
 62
     7
420
 16777215
370
     9
100
AcDbVertex
100
AcDb2dVertex
 10
81.61481930672139
 20
-114.7342694157608
 30
0.0
  0
VERTEX
  5
F6
330
F4
100
AcDbEntity
  8
_U+30EC_U+30A4_U+30E4_U+30FC 1
 62
     7
420
 16777215
370
     9
100
AcDbVertex
100
AcDb2dVertex
 10
87.61479304253818
 20
-114.7342694157608
 30
0.0
  0
SEQEND
  5
F7
330
F4
100
AcDbEntity
  8
_U+30EC_U+30A4_U+30E4_U+30FC 1
 62
     7
420
 16777215
370
     9
  0
POLYLINE
  5
F8
330
1F
100
AcDbEntity
  8
_U+30EC_U+30A4_U+30E4_U+30FC 1
 62
     7
420
 16777215
370
     9
100
AcDb2dPolyline
 66
     1
 10
0.0
 20
0.0
 30
0.0
  0
VERTEX
  5
F9
330
F8
100
AcDbEntity
  8
_U+30EC_U+30A4_U+30E4_U+30FC 1
 62
     7
420
 16777215
370
     9
100
AcDbVertex
100
AcDb2dVertex
 10
81.61481930672139
 20
-113.2745808050148
 30
0.0
  0
VERTEX
  5
FA
330
F8
100
AcDbEntity
  8
_U+30EC_U+30A4_U+30E4_U+30FC 1
 62
     7
420
 16777215
370
     9
100
AcDbVertex
100
AcDb2dVertex
 10
81.61481930672139
 20
-115.7347119155107
 30
0.0
  0
SEQEND
  5
FB
330
F8
100
AcDbEntity
  8
_U+30EC_U+30A4_U+30E4_U+30FC 1
 62
     7
420
 16777215
370
     9
  0
POLYLINE
  5
FC
330
1F
100
AcDbEntity
  8
_U+30EC_U+30A4_U+30E4_U+30FC 1
 62
     7
420
 16777215
370
     9
100
AcDb2dPolyline
 66
     1
 10
0.0
 20
0.0
 30
0.0
  0
VERTEX
  5
FD
330
FC
100
AcDbEntity
  8
_U+30EC_U+30A4_U+30E4_U+30FC 1
 62
     7
420
 16777215
370
     9
100
AcDbVertex
100
AcDb2dVertex
 10
87.61479304253818
 20
-113.2745808050148
 30
0.0
  0
VERTEX
  5
FE
330
FC
100
AcDbEntity
  8
_U+30EC_U+30A4_U+30E4_U+30FC 1
 62
     7
420
 16777215
370
     9
100
AcDbVertex
100
AcDb2dVertex
 10
87.61479304253818
 20
-115.7347119155107
 30
0.0
  0
SEQEND
  5
FF
330
FC
100
AcDbEntity
  8
_U+30EC_U+30A4_U+30E4_U+30FC 1
 62
     7
420
 16777215
370
     9
  0
INSERT
  5
101
330
1F
100
AcDbEntity
  8
_U+30EC_U+30A4_U+30E4_U+30FC 1
100
AcDbBlockReference
  2
block 5
 10
0.0
 20
0.0
 30
0.0
  0
POLYLINE
  5
107
330
1F
100
AcDbEntity
  8
_U+30EC_U+30A4_U+30E4_U+30FC 1
 62
     7
420
 16777215
370
     9
100
AcDb2dPolyline
 66
     1
 10
0.0
 20
0.0
 30
0.0
  0
VERTEX
  5
108
330
107
100
AcDbEntity
  8
_U+30EC_U+30A4_U+30E4_U+30FC 1
 62
     7
420
 16777215
370
     9
100
AcDbVertex
100
AcDb2dVertex
 10
76.51471110350265
 20
-140.3397624649151
 30
0.0
  0
VERTEX
  5
109
330
107
100
AcDbEntity
  8
_U+30EC_U+30A4_U+30E4_U+30FC 1
 62
     7
420
 16777215
370
     9
100
AcDbVertex
100
AcDb2dVertex
 10
76.51471110350265
 20
-116.8398941374567
 30
0.0
  0
SEQEND
  5
10A
330
107
100
AcDbEntity
  8
_U+30EC_U+30A4_U+30E4_U+30FC 1
 62
     7
420
 16777215
370
     9
  0
POLYLINE
  5
10B
330
1F
100
AcDbEntity
  8
_U+30EC_U+30A4_U+30E4_U+30FC 1
 62
     7
420
 16777215
370
     9
100
AcDb2dPolyline
 66
     1
 10
0.0
 20
0.0
 30
0.0
  0
VERTEX
  5
10C
330
10B
100
AcDbEntity
  8
_U+30EC_U+30A4_U+30E4_U+30FC 1
 62
     7
420
 16777215
370
     9
100
AcDbVertex
100
AcDb2dVertex
 10
78.97448937408181
 20
-140.3397624649151
 30
0.0
  0
VERTEX
  5
10D
330
10B
100
AcDbEntity
  8
_U+30EC_U+30A4_U+30E4_U+30FC 1
 62
     7
420
 16777215
370
     9
100
AcDbVertex
100
AcDb2dVertex
 10
75.51493890678674
 20
-140.3397624649151
 30
0.0
  0
SEQEND
  5
10E
330
10B
100
AcDbEntity
  8
_U+30EC_U+30A4_U+30E4_U+30FC 1
 62
     7
420
 16777215
370
     9
  0
POLYLINE
  5
10F
330
1F
100
AcDbEntity
  8
_U+30EC_U+30A4_U+30E4_U+30FC 1
 62
     7
420
 16777215
370
     9
100
AcDb2dPolyline
 66
     1
 10
0.0
 20
0.0
 30
0.0
  0
VERTEX
  5
110
330
10F
100
AcDbEntity
  8
_U+30EC_U+30A4_U+30E4_U+30FC 1
 62
     7
420
 16777215
370
     9
100
AcDbVertex
100
AcDb2dVertex
 10
77.97475245514278
 20
-116.8398941374567
 30
0.0
  0
VERTEX
  5
111
330
10F
100
AcDbEntity
  8
_U+30EC_U+30A4_U+30E4_U+30FC 1
 62
     7
420
 16777215
370
     9
100
AcDbVertex
100
AcDb2dVertex
 10
75.51493890678674
 20
-116.8398941374567
 30
0.0
  0
SEQEND
  5
112
330
10F
100
AcDbEntity
  8
_U+30EC_U+30A4_U+30E4_U+30FC 1
 62
     7
420
 16777215
370
     9
  0
INSERT
  5
114
330
1F
100
AcDbEntity
  8
_U+30EC_U+30A4_U+30E4_U+30FC 1
100
AcDbBlockReference
  2
block 6
 10
0.0
 20
0.0
 30
0.0
  0
POLYLINE
  5
125
330
1F
100
AcDbEntity
  8
_U+30EC_U+30A4_U+30E4_U+30FC 1
 62
     7
420
 16777215
370
     9
100
AcDb2dPolyline
 66
     1
 10
0.0
 20
0.0
 30
0.0
  0
VERTEX
  5
126
330
125
100
AcDbEntity
  8
_U+30EC_U+30A4_U+30E4_U+30FC 1
 62
     7
420
 16777215
370
     9
100
AcDbVertex
100
AcDb2dVertex
 10
96.92706780496226
 20
-139.3392846873877
 30
0.0
  0
VERTEX
  5
127
330
125
100
AcDbEntity
  8
_U+30EC_U+30A4_U+30E4_U+30FC 1
 62
     7
420
 16777215
370
     9
100
AcDbVertex
100
AcDb2dVertex
 10
96.92706780496226
 20
-123.839640246818
 30
0.0
  0
SEQEND
  5
128
330
125
100
AcDbEntity
  8
_U+30EC_U+30A4_U+30E4_U+30FC 1
 62
     7
420
 16777215
370
     9
  0
POLYLINE
  5
129
330
1F
100
AcDbEntity
  8
_U+30EC_U+30A4_U+30E4_U+30FC 1
 62
     7
420
 16777215
370
     9
100
AcDb2dPolyline
 66
     1
 10
0.0
 20
0.0
 30
0.0
  0
VERTEX
  5
12A
330
129
100
AcDbEntity
  8
_U+30EC_U+30A4_U+30E4_U+30FC 1
 62
     7
420
 16777215
370
     9
100
AcDbVertex
100
AcDb2dVertex
 10
90.46664852533685
 20
-139.3392846873877
 30
0.0
  0
VERTEX
  5
12B
330
129
100
AcDbEntity
  8
_U+30EC_U+30A4_U+30E4_U+30FC 1
 62
     7
420
 16777215
370
     9
100
AcDbVertex
100
AcDb2dVertex
 10
97.92684000167817
 20
-139.3392846873877
 30
0.0
  0
SEQEND
  5
12C
330
129
100
AcDbEntity
  8
_U+30EC_U+30A4_U+30E4_U+30FC 1
 62
     7
420
 16777215
370
     9
  0
POLYLINE
  5
12D
330
1F
100
AcDbEntity
  8
_U+30EC_U+30A4_U+30E4_U+30FC 1
 62
     7
420
 16777215
370
     9
100
AcDb2dPolyline
 66
     1
 10
0.0
 20
0.0
 30
0.0
  0
VERTEX
  5
12E
330
12D
100
AcDbEntity
  8
_U+30EC_U+30A4_U+30E4_U+30FC 1
 62
     7
420
 16777215
370
     9
100
AcDbVertex
100
AcDb2dVertex
 10
90.46664852533685
 20
-123.9395469134596
 30
0.0
  0
VERTEX
  5
12F
330
12D
100
AcDbEntity
  8
_U+30EC_U+30A4_U+30E4_U+30FC 1
 62
     7
420
 16777215
370
     9
100
AcDbVertex
100
AcDb2dVertex
 10
97.92684000167817
 20
-123.9395469134596
 30
0.0
  0
SEQEND
  5
130
330
12D
100
AcDbEntity
  8
_U+30EC_U+30A4_U+30E4_U+30FC 1
 62
     7
420
 16777215
370
     9
  0
SPLINE
  5
131
330
1F
100
AcDbEntity
  8
_U+30EC_U+30A4_U+30E4_U+30FC 1
 62
     7
420
 16777215
370
     9
100
AcDbSpline
210
0.0
220
0.0
230
1.0
 70
    11
 71
     3
 72
    17
 73
    13
 74
     0
 42
0.0000000001
 43
0.0000000001
 12
1.0
 22
0.0
 32
0.0
 13
1.0
 23
0.0
 33
0.0
 40
0.0
 40
0.0
 40
0.0
 40
0.0
 40
1.0
 40
1.0
 40
1.0
 40
2.0
 40
2.0
 40
2.0
 40
3.0
 40
3.0
 40
3.0
 40
4.0
 40
4.0
 40
4.0
 40
4.0
 10
97.0269744690801
 20
-122.8391977470681
 30
0.0
 10
97.0269744690801
 20
-122.784058580415
 30
0.0
 10
96.98220697022222
 20
-122.7392910804264
 30
0.0
 10
96.92706780496226
 20
-122.7392910804264
 30
0.0
 10
96.87196391747919
 20
-122.7392910804264
 30
0.0
 10
96.82716114084442
 20
-122.784058580415
 30
0.0
 10
96.82716114084442
 20
-122.8391977470681
 30
0.0
 10
96.82716114084442
 20
-122.8946544137207
 30
0.0
 10
96.87196391747919
 20
-122.9394219137096
 30
0.0
 10
96.92706780496226
 20
-122.9394219137096
 30
0.0
 10
96.98220697022222
 20
-122.9394219137096
 30
0.0
 10
97.0269744690801
 20
-122.8946544137207
 30
0.0
 10
97.0269744690801
 20
-122.8391977470681
 30
0.0
  0
POLYLINE
  5
132
330
1F
100
AcDbEntity
  8
_U+30EC_U+30A4_U+30E4_U+30FC 1
 62
     7
420
 16777215
370
     9
100
AcDb2dPolyline
 66
     1
 10
0.0
 20
0.0
 30
0.0
  0
VERTEX
  5
133
330
132
100
AcDbEntity
  8
_U+30EC_U+30A4_U+30E4_U+30FC 1
 62
     7
420
 16777215
370
     9
100
AcDbVertex
100
AcDb2dVertex
 10
90.46664852533685
 20
-122.8391977470681
 30
0.0
  0
VERTEX
  5
134
330
132
100
AcDbEntity
  8
_U+30EC_U+30A4_U+30E4_U+30FC 1
 62
     7
420
 16777215
370
     9
100
AcDbVertex
100
AcDb2dVertex
 10
97.92684000167817
 20
-122.8391977470681
 30
0.0
  0
SEQEND
  5
135
330
132
100
AcDbEntity
  8
_U+30EC_U+30A4_U+30E4_U+30FC 1
 62
     7
420
 16777215
370
     9
  0
INSERT
  5
137
330
1F
100
AcDbEntity
  8
_U+30EC_U+30A4_U+30E4_U+30FC 1
100
AcDbBlockReference
  2
block 7
 10
0.0
 20
0.0
 30
0.0
  0
POLYLINE
  5
148
330
1F
100
AcDbEntity
  8
_U+30EC_U+30A4_U+30E4_U+30FC 1
 62
     7
420
 16777215
370
     9
100
AcDb2dPolyline
 66
     1
 10
0.0
 20
0.0
 30
0.0
  0
VERTEX
  5
149
330
148
100
AcDbEntity
  8
_U+30EC_U+30A4_U+30E4_U+30FC 1
 62
     7
420
 16777215
370
     9
100
AcDbVertex
100
AcDb2dVertex
 10
96.92706780496226
 20
-123.9395469134596
 30
0.0
  0
VERTEX
  5
14A
330
148
100
AcDbEntity
  8
_U+30EC_U+30A4_U+30E4_U+30FC 1
 62
     7
420
 16777215
370
     9
100
AcDbVertex
100
AcDb2dVertex
 10
96.92706780496226
 20
-116.9394480263206
 30
0.0
  0
SEQEND
  5
14B
330
148
100
AcDbEntity
  8
_U+30EC_U+30A4_U+30E4_U+30FC 1
 62
     7
420
 16777215
370
     9
  0
POLYLINE
  5
14C
330
1F
100
AcDbEntity
  8
_U+30EC_U+30A4_U+30E4_U+30FC 1
 62
     7
420
 16777215
370
     9
100
AcDb2dPolyline
 66
     1
 10
0.0
 20
0.0
 30
0.0
  0
VERTEX
  5
14D
330
14C
100
AcDbEntity
  8
_U+30EC_U+30A4_U+30E4_U+30FC 1
 62
     7
420
 16777215
370
     9
100
AcDbVertex
100
AcDb2dVertex
 10
90.46664852533685
 20
-116.9394480263206
 30
0.0
  0
VERTEX
  5
14E
330
14C
100
AcDbEntity
  8
_U+30EC_U+30A4_U+30E4_U+30FC 1
 62
     7
420
 16777215
370
     9
100
AcDbVertex
100
AcDb2dVertex
 10
97.92684000167817
 20
-116.9394480263206
 30
0.0
  0
SEQEND
  5
14F
330
14C
100
AcDbEntity
  8
_U+30EC_U+30A4_U+30E4_U+30FC 1
 62
     7
420
 16777215
370
     9
  0
INSERT
  5
151
330
1F
100
AcDbEntity
  8
_U+30EC_U+30A4_U+30E4_U+30FC 1
100
AcDbBlockReference
  2
block 8
 10
0.0
 20
0.0
 30
0.0
  0
ENDSEC
  0
SECTION
  2
OBJECTS
  0
DICTIONARY
  5
C
330
0
100
AcDbDictionary
281
     1
  3
ACAD_GROUP
350
D
  3
ACAD_LAYOUT
350
1A
  3
ACAD_MATERIAL
350
3B
  3
ACAD_MLEADERSTYLE
350
158
  3
ACAD_MLINESTYLE
350
17
  3
ACAD_PLOTSETTINGS
350
19
  3
ACAD_PLOTSTYLENAME
350
E
  3
ACAD_TABLESTYLE
350
157
  3
ACAD_VISUALSTYLE
350
2A
  0
SUN
  5
3F
330
29
100
AcDbSun
 90
        1
290
     0
 63
     7
421
 16777215
 40
1.0
291
     1
 91
  2455826
 92
 54000000
292
     0
 70
     2
 71
   256
280
     1
  0
DICTIONARY
  5
D
102
{ACAD_REACTORS
330
C
102
}
330
C
100
AcDbDictionary
281
     1
  0
DICTIONARY
  5
1A
102
{ACAD_REACTORS
330
C
102
}
330
C
100
AcDbDictionary
281
     1
  3
Layout1
350
1E
  3
Layout2
350
26
  3
Model
350
22
  0
DICTIONARY
  5
3B
102
{ACAD_REACTORS
330
C
102
}
330
C
100
AcDbDictionary
281
     1
  3
ByBlock
350
3D
  3
ByLayer
350
3C
  3
Global
350
3E
  0
DICTIONARY
  5
158
102
{ACAD_REACTORS
330
C
102
}
330
C
100
AcDbDictionary
281
     1
  0
DICTIONARY
  5
17
102
{ACAD_REACTORS
330
C
102
}
330
C
100
AcDbDictionary
281
     1
  3
Standard
350
18
  0
DICTIONARY
  5
19
102
{ACAD_REACTORS
330
C
102
}
330
C
100
AcDbDictionary
281
     1
  0
ACDBDICTIONARYWDFLT
  5
E
102
{ACAD_REACTORS
330
C
102
}
330
C
100
AcDbDictionary
281
     1
  3
Normal
350
F
100
AcDbDictionaryWithDefault
340
F
  0
DICTIONARY
  5
157
102
{ACAD_REACTORS
330
C
102
}
330
C
100
AcDbDictionary
281
     1
  0
DICTIONARY
  5
2A
102
{ACAD_REACTORS
330
C
102
}
330
C
100
AcDbDictionary
281
     1
  3
2dWireframe
350
2F
  3
3D Hidden
350
31
  3
3dWireframe
350
30
  3
Basic
350
32
  3
Brighten
350
36
  3
ColorChange
350
3A
  3
Conceptual
350
34
  3
Dim
350
35
  3
Facepattern
350
39
  3
Flat
350
2B
  3
FlatWithEdges
350
2C
  3
Gouraud
350
2D
  3
GouraudWithEdges
350
2E
  3
Linepattern
350
38
  3
Realistic
350
33
  3
Thicken
350
37
  0
LAYOUT
  5
1E
102
{ACAD_REACTORS
330
1A
102
}
330
1A
100
AcDbPlotSettings
  1

  2
none_device
  4

  6

 40
0.0
 41
0.0
 42
0.0
 43
0.0
 44
0.0
 45
0.0
 46
0.0
 47
0.0
 48
0.0
 49
0.0
140
0.0
141
0.0
142
1.0
143
1.0
 70
   688
 72
     0
 73
     0
 74
     5
  7

 75
    16
 76
     0
 77
     2
 78
   300
147
1.0
148
0.0
149
0.0
100
AcDbLayout
  1
Layout1
 70
     1
 71
     1
 10
0.0
 20
0.0
 11
12.0
 21
9.0
 12
0.0
 22
0.0
 32
0.0
 14
1.000000000000000E+20
 24
1.000000000000000E+20
 34
1.000000000000000E+20
 15
-1.000000000000000E+20
 25
-1.000000000000000E+20
 35
-1.000000000000000E+20
146
0.0
 13
0.0
 23
0.0
 33
0.0
 16
1.0
 26
0.0
 36
0.0
 17
0.0
 27
1.0
 37
0.0
 76
     0
330
1B
  0
LAYOUT
  5
26
102
{ACAD_REACTORS
330
1A
102
}
330
1A
100
AcDbPlotSettings
  1

  2
none_device
  4

  6

 40
0.0
 41
0.0
 42
0.0
 43
0.0
 44
0.0
 45
0.0
 46
0.0
 47
0.0
 48
0.0
 49
0.0
140
0.0
141
0.0
142
1.0
143
1.0
 70
   688
 72
     0
 73
     0
 74
     5
  7

 75
    16
 76
     0
 77
     2
 78
   300
147
1.0
148
0.0
149
0.0
100
AcDbLayout
  1
Layout2
 70
     1
 71
     2
 10
0.0
 20
0.0
 11
0.0
 21
0.0
 12
0.0
 22
0.0
 32
0.0
 14
0.0
 24
0.0
 34
0.0
 15
0.0
 25
0.0
 35
0.0
146
0.0
 13
0.0
 23
0.0
 33
0.0
 16
1.0
 26
0.0
 36
0.0
 17
0.0
 27
1.0
 37
0.0
 76
     0
330
23
  0
LAYOUT
  5
22
102
{ACAD_REACTORS
330
1A
102
}
330
1A
100
AcDbPlotSettings
  1

  2
none_device
  4

  6

 40
0.0
 41
0.0
 42
0.0
 43
0.0
 44
0.0
 45
0.0
 46
0.0
 47
0.0
 48
0.0
 49
0.0
140
0.0
141
0.0
142
1.0
143
1.0
 70
  1712
 72
     0
 73
     0
 74
     0
  7

 75
     0
 76
     0
 77
     2
 78
   300
147
1.0
148
0.0
149
0.0
100
AcDbLayout
  1
Model
 70
     1
 71
     0
 10
0.0
 20
0.0
 11
12.0
 21
9.0
 12
0.0
 22
0.0
 32
0.0
 14
1.000000000000000E+20
 24
1.000000000000000E+20
 34
1.000000000000000E+20
 15
-1.000000000000000E+20
 25
-1.000000000000000E+20
 35
-1.000000000000000E+20
146
0.0
 13
0.0
 23
0.0
 33
0.0
 16
1.0
 26
0.0
 36
0.0
 17
0.0
 27
1.0
 37
0.0
 76
     0
330
1F
331
29
  0
MATERIAL
  5
3D
102
{ACAD_REACTORS
330
3B
102
}
330
3B
100
AcDbMaterial
  1
ByBlock
 72
     1
 94
      127
  0
MATERIAL
  5
3C
102
{ACAD_REACTORS
330
3B
102
}
330
3B
100
AcDbMaterial
  1
ByLayer
 72
     1
 94
      127
  0
MATERIAL
  5
3E
102
{ACAD_REACTORS
330
3B
102
}
330
3B
100
AcDbMaterial
  1
Global
 72
     1
 94
      127
  0
MLINESTYLE
  5
18
102
{ACAD_REACTORS
330
17
102
}
330
17
100
AcDbMlineStyle
  2
Standard
 70
     0
  3

 62
   256
 51
90.0
 52
90.0
 71
     2
 49
0.5
 62
   256
  6
BYLAYER
 49
-0.5
 62
   256
  6
BYLAYER
  0
ACDBPLACEHOLDER
  5
F
102
{ACAD_REACTORS
330
E
102
}
330
E
  0
VISUALSTYLE
  5
2F
102
{ACAD_REACTORS
330
2A
102
}
330
2A
100
AcDbVisualStyle
  2
2dWireframe
 70
     4
177
     2
291
     0
 71
     0
176
     1
 72
     2
176
     1
 73
     0
176
     1
 90
        0
176
     1
 40
-0.6
176
     1
 41
-30.0
176
     1
 62
     5
 63
     7
421
 16777215
176
     1
 74
     1
176
     1
 91
        4
176
     1
 64
     7
176
     1
 65
   257
176
     1
 75
     1
176
     1
175
     1
176
     1
 42
1.0
176
     1
 92
        0
176
     1
 66
   257
176
     1
 43
1.0
176
     1
 76
     1
176
     1
 77
     6
176
     1
 78
     2
176
     1
 67
     7
176
     1
 79
     5
176
     1
170
     0
176
     1
171
     0
176
     1
290
     0
176
     1
 93
        1
176
     1
 44
0.0
176
     1
173
     0
176
     1
  0
VISUALSTYLE
  5
31
102
{ACAD_REACTORS
330
2A
102
}
330
2A
100
AcDbVisualStyle
  2
3D Hidden
 70
     6
177
     2
291
     0
 71
     1
176
     1
 72
     2
176
     1
 73
     2
176
     1
 90
        0
176
     1
 40
-0.6
176
     1
 41
-30.0
176
     1
 62
     5
 63
     7
421
 16777215
176
     1
 74
     2
176
     1
 91
        2
176
     1
 64
     7
176
     1
 65
   257
176
     1
 75
     2
176
     1
175
     1
176
     1
 42
40.0
176
     1
 92
        0
176
     1
 66
   257
176
     1
 43
1.0
176
     1
 76
     1
176
     1
 77
     6
176
     1
 78
     2
176
     1
 67
     7
176
     1
 79
     3
176
     1
170
     0
176
     1
171
     0
176
     1
290
     0
176
     1
 93
        1
176
     1
 44
0.0
176
     1
173
     0
176
     1
  0
VISUALSTYLE
  5
30
102
{ACAD_REACTORS
330
2A
102
}
330
2A
100
AcDbVisualStyle
  2
3dWireframe
 70
     5
177
     2
291
     0
 71
     0
176
     1
 72
     2
176
     1
 73
     0
176
     1
 90
        0
176
     1
 40
-0.6
176
     1
 41
-30.0
176
     1
 62
     5
 63
     7
421
 16777215
176
     1
 74
     1
176
     1
 91
        4
176
     1
 64
     7
176
     1
 65
   257
176
     1
 75
     1
176
     1
175
     1
176
     1
 42
1.0
176
     1
 92
        0
176
     1
 66
   257
176
     1
 43
1.0
176
     1
 76
     1
176
     1
 77
     6
176
     1
 78
     2
176
     1
 67
     7
176
     1
 79
     5
176
     1
170
     0
176
     1
171
     0
176
     1
290
     0
176
     1
 93
        1
176
     1
 44
0.0
176
     1
173
     0
176
     1
  0
VISUALSTYLE
  5
32
102
{ACAD_REACTORS
330
2A
102
}
330
2A
100
AcDbVisualStyle
  2
Basic
 70
     7
177
     2
291
     1
 71
     1
176
     1
 72
     0
176
     1
 73
     1
176
     1
 90
        0
176
     1
 40
-0.6
176
     1
 41
-30.0
176
     1
 62
     5
 63
     7
421
 16777215
176
     1
 74
     0
176
     1
 91
        4
176
     1
 64
     7
176
     1
 65
   257
176
     1
 75
     1
176
     1
175
     1
176
     1
 42
1.0
176
     1
 92
        8
176
     1
 66
     7
176
     1
 43
1.0
176
     1
 76
     1
176
     1
 77
     6
176
     1
 78
     2
176
     1
 67
     7
176
     1
 79
     5
176
     1
170
     0
176
     1
171
     0
176
     1
290
     0
176
     1
 93
        1
176
     1
 44
0.0
176
     1
173
     0
176
     1
  0
VISUALSTYLE
  5
36
102
{ACAD_REACTORS
330
2A
102
}
330
2A
100
AcDbVisualStyle
  2
Brighten
 70
    12
177
     2
291
     1
 71
     2
176
     1
 72
     2
176
     1
 73
     0
176
     1
 90
        0
176
     1
 40
-0.6
176
     1
 41
-30.0
176
     1
 62
     5
 63
     7
421
 16777215
176
     1
 74
     1
176
     1
 91
        4
176
     1
 64
     7
176
     1
 65
   257
176
     1
 75
     1
176
     1
175
     1
176
     1
 42
1.0
176
     1
 92
        8
176
     1
 66
     7
176
     1
 43
1.0
176
     1
 76
     1
176
     1
 77
     6
176
     1
 78
     2
176
     1
 67
     7
176
     1
 79
     5
176
     1
170
     0
176
     1
171
     0
176
     1
290
     0
176
     1
 93
        1
176
     1
 44
50.0
176
     1
173
     0
176
     1
  0
VISUALSTYLE
  5
3A
102
{ACAD_REACTORS
330
2A
102
}
330
2A
100
AcDbVisualStyle
  2
ColorChange
 70
    16
177
     2
291
     1
 71
     2
176
     1
 72
     2
176
     1
 73
     3
176
     1
 90
        0
176
     1
 40
-0.6
176
     1
 41
-30.0
176
     1
 62
     5
 63
     8
421
  8421504
176
     1
 74
     1
176
     1
 91
        4
176
     1
 64
     7
176
     1
 65
   257
176
     1
 75
     1
176
     1
175
     1
176
     1
 42
1.0
176
     1
 92
        8
176
     1
 66
     8
424
  8421504
176
     1
 43
1.0
176
     1
 76
     1
176
     1
 77
     6
176
     1
 78
     2
176
     1
 67
     7
176
     1
 79
     5
176
     1
170
     0
176
     1
171
     0
176
     1
290
     0
176
     1
 93
        1
176
     1
 44
0.0
176
     1
173
     0
176
     1
  0
VISUALSTYLE
  5
34
102
{ACAD_REACTORS
330
2A
102
}
330
2A
100
AcDbVisualStyle
  2
Conceptual
 70
     9
177
     2
291
     0
 71
     3
176
     1
 72
     2
176
     1
 73
     0
176
     1
 90
        0
176
     1
 40
-0.6
176
     1
 41
-30.0
176
     1
 62
     5
 63
     7
421
 16777215
176
     1
 74
     2
176
     1
 91
        2
176
     1
 64
     7
176
     1
 65
   257
176
     1
 75
     1
176
     1
175
     1
176
     1
 42
40.0
176
     1
 92
        8
176
     1
 66
     7
176
     1
 43
1.0
176
     1
 76
     1
176
     1
 77
     6
176
     1
 78
     2
176
     1
 67
     7
176
     1
 79
     3
176
     1
170
     0
176
     1
171
     0
176
     1
290
     0
176
     1
 93
        1
176
     1
 44
0.0
176
     1
173
     0
176
     1
  0
VISUALSTYLE
  5
35
102
{ACAD_REACTORS
330
2A
102
}
330
2A
100
AcDbVisualStyle
  2
Dim
 70
    11
177
     2
291
     1
 71
     2
176
     1
 72
     2
176
     1
 73
     0
176
     1
 90
        0
176
     1
 40
-0.6
176
     1
 41
-30.0
176
     1
 62
     5
 63
     7
421
 16777215
176
     1
 74
     1
176
     1
 91
        4
176
     1
 64
     7
176
     1
 65
   257
176
     1
 75
     1
176
     1
175
     1
176
     1
 42
1.0
176
     1
 92
        8
176
     1
 66
     7
176
     1
 43
1.0
176
     1
 76
     1
176
     1
 77
     6
176
     1
 78
     2
176
     1
 67
     7
176
     1
 79
     5
176
     1
170
     0
176
     1
171
     0
176
     1
290
     0
176
     1
 93
        1
176
     1
 44
-50.0
176
     1
173
     0
176
     1
  0
VISUALSTYLE
  5
39
102
{ACAD_REACTORS
330
2A
102
}
330
2A
100
AcDbVisualStyle
  2
Facepattern
 70
    15
177
     2
291
     1
 71
     2
176
     1
 72
     2
176
     1
 73
     0
176
     1
 90
        0
176
     1
 40
-0.6
176
     1
 41
-30.0
176
     1
 62
     5
 63
     7
421
 16777215
176
     1
 74
     1
176
     1
 91
        4
176
     1
 64
     7
176
     1
 65
   257
176
     1
 75
     1
176
     1
175
     1
176
     1
 42
1.0
176
     1
 92
        8
176
     1
 66
     7
176
     1
 43
1.0
176
     1
 76
     1
176
     1
 77
     6
176
     1
 78
     2
176
     1
 67
     7
176
     1
 79
     5
176
     1
170
     0
176
     1
171
     0
176
     1
290
     0
176
     1
 93
        1
176
     1
 44
0.0
176
     1
173
     0
176
     1
  0
VISUALSTYLE
  5
2B
102
{ACAD_REACTORS
330
2A
102
}
330
2A
100
AcDbVisualStyle
  2
Flat
 70
     0
177
     2
291
     1
 71
     2
176
     1
 72
     1
176
     1
 73
     1
176
     1
 90
        2
176
     1
 40
-0.6
176
     1
 41
30.0
176
     1
 62
     5
 63
     7
421
 16777215
176
     1
 74
     0
176
     1
 91
        4
176
     1
 64
     7
176
     1
 65
   257
176
     1
 75
     1
176
     1
175
     1
176
     1
 42
1.0
176
     1
 92
        8
176
     1
 66
     7
176
     1
 43
1.0
176
     1
 76
     1
176
     1
 77
     6
176
     1
 78
     2
176
     1
 67
     7
176
     1
 79
     5
176
     1
170
     0
176
     1
171
     0
176
     1
290
     0
176
     1
 93
       13
176
     1
 44
0.0
176
     1
173
     0
176
     1
  0
VISUALSTYLE
  5
2C
102
{ACAD_REACTORS
330
2A
102
}
330
2A
100
AcDbVisualStyle
  2
FlatWithEdges
 70
     1
177
     2
291
     1
 71
     2
176
     1
 72
     1
176
     1
 73
     1
176
     1
 90
        2
176
     1
 40
-0.6
176
     1
 41
30.0
176
     1
 62
     5
 63
     7
421
 16777215
176
     1
 74
     1
176
     1
 91
        4
176
     1
 64
     7
176
     1
 65
   257
176
     1
 75
     1
176
     1
175
     1
176
     1
 42
1.0
176
     1
 92
        0
176
     1
 66
   257
176
     1
 43
1.0
176
     1
 76
     1
176
     1
 77
     6
176
     1
 78
     2
176
     1
 67
     7
176
     1
 79
     5
176
     1
170
     0
176
     1
171
     0
176
     1
290
     0
176
     1
 93
       13
176
     1
 44
0.0
176
     1
173
     0
176
     1
  0
VISUALSTYLE
  5
2D
102
{ACAD_REACTORS
330
2A
102
}
330
2A
100
AcDbVisualStyle
  2
Gouraud
 70
     2
177
     2
291
     1
 71
     2
176
     1
 72
     2
176
     1
 73
     1
176
     1
 90
        2
176
     1
 40
-0.6
176
     1
 41
30.0
176
     1
 62
     5
 63
     7
421
 16777215
176
     1
 74
     0
176
     1
 91
        4
176
     1
 64
     7
176
     1
 65
   257
176
     1
 75
     1
176
     1
175
     1
176
     1
 42
1.0
176
     1
 92
        0
176
     1
 66
     7
176
     1
 43
1.0
176
     1
 76
     1
176
     1
 77
     6
176
     1
 78
     2
176
     1
 67
     7
176
     1
 79
     5
176
     1
170
     0
176
     1
171
     0
176
     1
290
     0
176
     1
 93
       13
176
     1
 44
0.0
176
     1
173
     0
176
     1
  0
VISUALSTYLE
  5
2E
102
{ACAD_REACTORS
330
2A
102
}
330
2A
100
AcDbVisualStyle
  2
GouraudWithEdges
 70
     3
177
     2
291
     1
 71
     2
176
     1
 72
     2
176
     1
 73
     1
176
     1
 90
        2
176
     1
 40
-0.6
176
     1
 41
30.0
176
     1
 62
     5
 63
     7
421
 16777215
176
     1
 74
     1
176
     1
 91
        4
176
     1
 64
     7
176
     1
 65
   257
176
     1
 75
     1
176
     1
175
     1
176
     1
 42
1.0
176
     1
 92
        0
176
     1
 66
   257
176
     1
 43
1.0
176
     1
 76
     1
176
     1
 77
     6
176
     1
 78
     2
176
     1
 67
     7
176
     1
 79
     5
176
     1
170
     0
176
     1
171
     0
176
     1
290
     0
176
     1
 93
       13
176
     1
 44
0.0
176
     1
173
     0
176
     1
  0
VISUALSTYLE
  5
38
102
{ACAD_REACTORS
330
2A
102
}
330
2A
100
AcDbVisualStyle
  2
Linepattern
 70
    14
177
     2
291
     1
 71
     2
176
     1
 72
     2
176
     1
 73
     0
176
     1
 90
        0
176
     1
 40
-0.6
176
     1
 41
-30.0
176
     1
 62
     5
 63
     7
421
 16777215
176
     1
 74
     1
176
     1
 91
        4
176
     1
 64
     7
176
     1
 65
   257
176
     1
 75
     7
176
     1
175
     7
176
     1
 42
1.0
176
     1
 92
        8
176
     1
 66
     7
176
     1
 43
1.0
176
     1
 76
     1
176
     1
 77
     6
176
     1
 78
     2
176
     1
 67
     7
176
     1
 79
     5
176
     1
170
     0
176
     1
171
     0
176
     1
290
     0
176
     1
 93
        1
176
     1
 44
0.0
176
     1
173
     0
176
     1
  0
VISUALSTYLE
  5
33
102
{ACAD_REACTORS
330
2A
102
}
330
2A
100
AcDbVisualStyle
  2
Realistic
 70
     8
177
     2
291
     0
 71
     2
176
     1
 72
     2
176
     1
 73
     0
176
     1
 90
        0
176
     1
 40
-0.6
176
     1
 41
-30.0
176
     1
 62
     5
 63
     7
421
 16777215
176
     1
 74
     1
176
     1
 91
        0
176
     1
 64
     7
176
     1
 65
   257
176
     1
 75
     1
176
     1
175
     1
176
     1
 42
1.0
176
     1
 92
        8
176
     1
 66
     8
424
  7895160
176
     1
 43
1.0
176
     1
 76
     1
176
     1
 77
     6
176
     1
 78
     2
176
     1
 67
     7
176
     1
 79
     5
176
     1
170
     0
176
     1
171
     0
176
     1
290
     0
176
     1
 93
       13
176
     1
 44
0.0
176
     1
173
     0
176
     1
  0
VISUALSTYLE
  5
37
102
{ACAD_REACTORS
330
2A
102
}
330
2A
100
AcDbVisualStyle
  2
Thicken
 70
    13
177
     2
291
     1
 71
     2
176
     1
 72
     2
176
     1
 73
     0
176
     1
 90
        0
176
     1
 40
-0.6
176
     1
 41
-30.0
176
     1
 62
     5
 63
     7
421
 16777215
176
     1
 74
     1
176
     1
 91
        4
176
     1
 64
     7
176
     1
 65
   257
176
     1
 75
     1
176
     1
175
     1
176
     1
 42
1.0
176
     1
 92
       12
176
     1
 66
     7
176
     1
 43
1.0
176
     1
 76
     1
176
     1
 77
     6
176
     1
 78
     2
176
     1
 67
     7
176
     1
 79
     5
176
     1
170
     0
176
     1
171
     0
176
     1
290
     0
176
     1
 93
        1
176
     1
 44
0.0
176
     1
173
     0
176
     1
  0
ENDSEC
  0
EOF
