  0
SECTION
  2
HEADER
  9
$ACADVER
  1
AC1024
  9
$ACADMAINTVER
 70
     6
  9
$DWGCODEPAGE
  3
UNDEFINED
  9
$INSBASE
 10
0.0
 20
0.0
 30
0.0
  9
$EXTMIN
 10
1.000000000000000E+20
 20
1.000000000000000E+20
 30
1.000000000000000E+20
  9
$EXTMAX
 10
-1.000000000000000E+20
 20
-1.000000000000000E+20
 30
-1.000000000000000E+20
  9
$LIMMIN
 10
0.0
 20
0.0
  9
$LIMMAX
 10
12.0
 20
9.0
  9
$ORTHOMODE
 70
     0
  9
$REGENMODE
 70
     1
  9
$FILLMODE
 70
     1
  9
$QTEXTMODE
 70
     0
  9
$MIRRTEXT
 70
     1
  9
$LTSCALE
 40
1.0
  9
$ATTMODE
 70
     1
  9
$TEXTSIZE
 40
0.2
  9
$TRACEWID
 40
0.05
  9
$TEXTSTYLE
  7
Standard
  9
$CLAYER
  8
0
  9
$CELTYPE
  6
ByLayer
  9
$CECOLOR
 62
   256
  9
$CELTSCALE
 40
1.0
  9
$DISPSILH
 70
     0
  9
$DIMSCALE
 40
1.0
  9
$DIMASZ
 40
0.18
  9
$DIMEXO
 40
0.0625
  9
$DIMDLI
 40
0.38
  9
$DIMRND
 40
0.0
  9
$DIMDLE
 40
0.0
  9
$DIMEXE
 40
0.18
  9
$DIMTP
 40
0.0
  9
$DIMTM
 40
0.0
  9
$DIMTXT
 40
0.18
  9
$DIMCEN
 40
0.09
  9
$DIMTSZ
 40
0.0
  9
$DIMTOL
 70
     0
  9
$DIMLIM
 70
     0
  9
$DIMTIH
 70
     1
  9
$DIMTOH
 70
     1
  9
$DIMSE1
 70
     0
  9
$DIMSE2
 70
     0
  9
$DIMTAD
 70
     0
  9
$DIMZIN
 70
     0
  9
$DIMBLK
  1

  9
$DIMASO
 70
     1
  9
$DIMSHO
 70
     1
  9
$DIMPOST
  1

  9
$DIMAPOST
  1

  9
$DIMALT
 70
     0
  9
$DIMALTD
 70
     2
  9
$DIMALTF
 40
25.4
  9
$DIMLFAC
 40
1.0
  9
$DIMTOFL
 70
     0
  9
$DIMTVP
 40
0.0
  9
$DIMTIX
 70
     0
  9
$DIMSOXD
 70
     0
  9
$DIMSAH
 70
     0
  9
$DIMBLK1
  1

  9
$DIMBLK2
  1

  9
$DIMSTYLE
  2
Standard
  9
$DIMCLRD
 70
     0
  9
$DIMCLRE
 70
     0
  9
$DIMCLRT
 70
     0
  9
$DIMTFAC
 40
1.0
  9
$DIMGAP
 40
0.09
  9
$DIMJUST
 70
     0
  9
$DIMSD1
 70
     0
  9
$DIMSD2
 70
     0
  9
$DIMTOLJ
 70
     1
  9
$DIMTZIN
 70
     0
  9
$DIMALTZ
 70
     0
  9
$DIMALTTZ
 70
     0
  9
$DIMUPT
 70
     0
  9
$DIMDEC
 70
     4
  9
$DIMTDEC
 70
     4
  9
$DIMALTU
 70
     2
  9
$DIMALTTD
 70
     2
  9
$DIMTXSTY
  7
Standard
  9
$DIMAUNIT
 70
     0
  9
$DIMADEC
 70
     0
  9
$DIMALTRND
 40
0.0
  9
$DIMAZIN
 70
     0
  9
$DIMDSEP
 70
    46
  9
$DIMATFIT
 70
     3
  9
$DIMFRAC
 70
     0
  9
$DIMLDRBLK
  1

  9
$DIMLUNIT
 70
     2
  9
$DIMLWD
 70
    -2
  9
$DIMLWE
 70
    -2
  9
$DIMTMOVE
 70
     0
  9
$DIMFXL
 40
1.0
  9
$DIMFXLON
 70
     0
  9
$DIMJOGANG
 40
0.7853981633974483
  9
$DIMTFILL
 70
     0
  9
$DIMTFILLCLR
 70
     0
  9
$DIMARCSYM
 70
     0
  9
$DIMLTYPE
  6

  9
$DIMLTEX1
  6

  9
$DIMLTEX2
  6

  9
$DIMTXTDIRECTION
 70
     0
  9
$LUNITS
 70
     2
  9
$LUPREC
 70
     4
  9
$SKETCHINC
 40
0.1
  9
$FILLETRAD
 40
0.5
  9
$AUNITS
 70
     0
  9
$AUPREC
 70
     0
  9
$MENU
  1
.
  9
$ELEVATION
 40
0.0
  9
$PELEVATION
 40
0.0
  9
$THICKNESS
 40
0.0
  9
$LIMCHECK
 70
     0
  9
$CHAMFERA
 40
0.5
  9
$CHAMFERB
 40
0.5
  9
$CHAMFERC
 40
1.0
  9
$CHAMFERD
 40
0.0
  9
$SKPOLY
 70
     0
  9
$TDCREATE
 40
2457917.599768507
  9
$TDUCREATE
 40
2457917.224768518
  9
$TDUPDATE
 40
2457917.599768507
  9
$TDUUPDATE
 40
2457917.224768518
  9
$TDINDWG
 40
0.0000000116
  9
$TDUSRTIMER
 40
0.0000000116
  9
$USRTIMER
 70
     1
  9
$ANGBASE
 50
0.0
  9
$ANGDIR
 70
     0
  9
$PDMODE
 70
     0
  9
$PDSIZE
 40
0.0
  9
$PLINEWID
 40
0.0
  9
$SPLFRAME
 70
     0
  9
$SPLINETYPE
 70
     6
  9
$SPLINESEGS
 70
     8
  9
$HANDSEED
  5
148
  9
$SURFTAB1
 70
     6
  9
$SURFTAB2
 70
     6
  9
$SURFTYPE
 70
     6
  9
$SURFU
 70
     6
  9
$SURFV
 70
     6
  9
$UCSBASE
  2

  9
$UCSNAME
  2

  9
$UCSORG
 10
0.0
 20
0.0
 30
0.0
  9
$UCSXDIR
 10
1.0
 20
0.0
 30
0.0
  9
$UCSYDIR
 10
0.0
 20
1.0
 30
0.0
  9
$UCSORTHOREF
  2

  9
$UCSORTHOVIEW
 70
     0
  9
$UCSORGTOP
 10
0.0
 20
0.0
 30
0.0
  9
$UCSORGBOTTOM
 10
0.0
 20
0.0
 30
0.0
  9
$UCSORGLEFT
 10
0.0
 20
0.0
 30
0.0
  9
$UCSORGRIGHT
 10
0.0
 20
0.0
 30
0.0
  9
$UCSORGFRONT
 10
0.0
 20
0.0
 30
0.0
  9
$UCSORGBACK
 10
0.0
 20
0.0
 30
0.0
  9
$PUCSBASE
  2

  9
$PUCSNAME
  2

  9
$PUCSORG
 10
0.0
 20
0.0
 30
0.0
  9
$PUCSXDIR
 10
1.0
 20
0.0
 30
0.0
  9
$PUCSYDIR
 10
0.0
 20
1.0
 30
0.0
  9
$PUCSORTHOREF
  2

  9
$PUCSORTHOVIEW
 70
     0
  9
$PUCSORGTOP
 10
0.0
 20
0.0
 30
0.0
  9
$PUCSORGBOTTOM
 10
0.0
 20
0.0
 30
0.0
  9
$PUCSORGLEFT
 10
0.0
 20
0.0
 30
0.0
  9
$PUCSORGRIGHT
 10
0.0
 20
0.0
 30
0.0
  9
$PUCSORGFRONT
 10
0.0
 20
0.0
 30
0.0
  9
$PUCSORGBACK
 10
0.0
 20
0.0
 30
0.0
  9
$USERI1
 70
     0
  9
$USERI2
 70
     0
  9
$USERI3
 70
     0
  9
$USERI4
 70
     0
  9
$USERI5
 70
     0
  9
$USERR1
 40
0.0
  9
$USERR2
 40
0.0
  9
$USERR3
 40
0.0
  9
$USERR4
 40
0.0
  9
$USERR5
 40
0.0
  9
$WORLDVIEW
 70
     1
  9
$SHADEDGE
 70
     3
  9
$SHADEDIF
 70
    70
  9
$TILEMODE
 70
     1
  9
$MAXACTVP
 70
    64
  9
$PINSBASE
 10
0.0
 20
0.0
 30
0.0
  9
$PLIMCHECK
 70
     0
  9
$PEXTMIN
 10
1.000000000000000E+20
 20
1.000000000000000E+20
 30
1.000000000000000E+20
  9
$PEXTMAX
 10
-1.000000000000000E+20
 20
-1.000000000000000E+20
 30
-1.000000000000000E+20
  9
$PLIMMIN
 10
0.0
 20
0.0
  9
$PLIMMAX
 10
12.0
 20
9.0
  9
$UNITMODE
 70
     0
  9
$VISRETAIN
 70
     1
  9
$PLINEGEN
 70
     0
  9
$PSLTSCALE
 70
     1
  9
$TREEDEPTH
 70
  3020
  9
$CMLSTYLE
  2
Standard
  9
$CMLJUST
 70
     0
  9
$CMLSCALE
 40
1.0
  9
$PROXYGRAPHICS
 70
     1
  9
$MEASUREMENT
 70
     0
  9
$CELWEIGHT
370
    -1
  9
$ENDCAPS
280
     0
  9
$JOINSTYLE
280
     0
  9
$LWDISPLAY
290
     1
  9
$INSUNITS
 70
     1
  9
$HYPERLINKBASE
  1

  9
$STYLESHEET
  1

  9
$XEDIT
290
     1
  9
$CEPSNTYPE
380
     0
  9
$PSTYLEMODE
290
     1
  9
$FINGERPRINTGUID
  2
{E14C0FFD-78A2-4253-2246-DF05DD6F2317}
  9
$VERSIONGUID
  2
{FAEB1C32-E019-11D5-929B-00C0DF256EC4}
  9
$EXTNAMES
290
     1
  9
$PSVPSCALE
 40
0.0
  9
$OLESTARTUP
290
     0
  9
$SORTENTS
280
   127
  9
$INDEXCTL
280
     0
  9
$HIDETEXT
280
     1
  9
$XCLIPFRAME
280
     2
  9
$HALOGAP
280
     0
  9
$OBSCOLOR
 70
   257
  9
$OBSLTYPE
280
     0
  9
$INTERSECTIONDISPLAY
280
     0
  9
$INTERSECTIONCOLOR
 70
   257
  9
$DIMASSOC
280
     2
  9
$PROJECTNAME
  1

  9
$CAMERADISPLAY
290
     0
  9
$LENSLENGTH
 40
50.0
  9
$CAMERAHEIGHT
 40
0.0
  9
$STEPSPERSEC
 40
2.0
  9
$STEPSIZE
 40
6.0
  9
$3DDWFPREC
 40
2.0
  9
$PSOLWIDTH
 40
0.25
  9
$PSOLHEIGHT
 40
4.0
  9
$LOFTANG1
 40
1.570796326794897
  9
$LOFTANG2
 40
1.570796326794897
  9
$LOFTMAG1
 40
0.0
  9
$LOFTMAG2
 40
0.0
  9
$LOFTPARAM
 70
     7
  9
$LOFTNORMALS
280
     1
  9
$LATITUDE
 40
37.795
  9
$LONGITUDE
 40
-122.394
  9
$NORTHDIRECTION
 40
0.0
  9
$TIMEZONE
 70
 -8000
  9
$LIGHTGLYPHDISPLAY
280
     1
  9
$TILEMODELIGHTSYNCH
280
     1
  9
$CMATERIAL
347
3C
  9
$SOLIDHIST
280
     1
  9
$SHOWHIST
280
     1
  9
$DWFFRAME
280
     2
  9
$DGNFRAME
280
     2
  9
$REALWORLDSCALE
290
     1
  9
$INTERFERECOLOR
 62
   256
  9
$CSHADOW
280
     0
  9
$SHADOWPLANELOCATION
 40
0.0
  0
ENDSEC
  0
SECTION
  2
CLASSES
  0
CLASS
  1
ACDBDICTIONARYWDFLT
  2
AcDbDictionaryWithDefault
  3
ObjectDBX Classes
 90
        0
 91
        4
280
     0
281
     0
  0
CLASS
  1
VISUALSTYLE
  2
AcDbVisualStyle
  3
ObjectDBX Classes
 90
     4095
 91
        4
280
     0
281
     0
  0
CLASS
  1
MATERIAL
  2
AcDbMaterial
  3
ObjectDBX Classes
 90
     1153
 91
        4
280
     0
281
     0
  0
CLASS
  1
SUN
  2
AcDbSun
  3
SCENEOE
 90
     1024
 91
        4
280
     0
281
     0
  0
ENDSEC
  0
SECTION
  2
TABLES
  0
TABLE
  2
VPORT
  5
8
330
0
100
AcDbSymbolTable
 70
     1
  0
VPORT
  5
29
330
8
100
AcDbSymbolTableRecord
100
AcDbViewportTableRecord
  2
*Active
 70
     0
 10
0.0
 20
0.0
 11
1.0
 21
1.0
 12
0.0
 22
0.0
 13
0.0
 23
0.0
 14
0.5
 24
0.5
 15
0.5
 25
0.5
 16
0.0
 26
0.0
 36
1.0
 17
91.00082462281999
 27
-128.4993055234307
 37
0.0
 40
256.9986110468615
 41
0.7081814508812795
 42
50.0
 43
0.0
 44
0.0
 50
0.0
 51
0.0
 71
     0
 72
   100
 73
     1
 74
     3
 75
     0
 76
     0
 77
     0
 78
     0
281
     0
 65
     1
110
0.0
120
0.0
130
0.0
111
1.0
121
0.0
131
0.0
112
0.0
122
1.0
132
0.0
 79
     0
146
0.0
 60
     3
 61
     5
292
     1
282
     1
141
0.0
142
0.0
 63
   250
361
3F
  0
ENDTAB
  0
TABLE
  2
LTYPE
  5
5
330
0
100
AcDbSymbolTable
 70
     2
  0
LTYPE
  5
14
330
5
100
AcDbSymbolTableRecord
100
AcDbLinetypeTableRecord
  2
ByBlock
 70
     0
  3

 72
    65
 73
     0
 40
0.0
  0
LTYPE
  5
15
330
5
100
AcDbSymbolTableRecord
100
AcDbLinetypeTableRecord
  2
ByLayer
 70
     0
  3

 72
    65
 73
     0
 40
0.0
  0
LTYPE
  5
16
330
5
100
AcDbSymbolTableRecord
100
AcDbLinetypeTableRecord
  2
Continuous
 70
     0
  3
Solid line
 72
    65
 73
     0
 40
0.0
  0
LTYPE
  5
47
330
5
100
AcDbSymbolTableRecord
100
AcDbLinetypeTableRecord
  2
AI-Linetype-1
 70
     0
  3
Adobe Illustrator Linetype No. 1
 72
    65
 73
     2
 40
1.411111110758333
 49
0.7055555553791667
 74
     0
 49
-0.7055555553791667
 74
     0
  0
ENDTAB
  0
TABLE
  2
LAYER
  5
2
330
0
100
AcDbSymbolTable
 70
     2
  0
LAYER
  5
10
330
2
100
AcDbSymbolTableRecord
100
AcDbLayerTableRecord
  2
0
 70
     0
 62
     7
  6
Continuous
370
    -3
390
F
347
3E
  0
LAYER
  5
40
330
2
100
AcDbSymbolTableRecord
100
AcDbLayerTableRecord
  2
_U+30EC_U+30A4_U+30E4_U+30FC 1
 70
     0
 62
     7
  6
Continuous
370
    -3
390
F
347
3E
  0
ENDTAB
  0
TABLE
  2
STYLE
  5
3
330
0
100
AcDbSymbolTable
 70
     1
  0
STYLE
  5
11
330
3
100
AcDbSymbolTableRecord
100
AcDbTextStyleTableRecord
  2
Standard
 70
     0
 40
0.0
 41
1.0
 50
0.0
 71
     0
 42
0.2
  3
txt
  4

  0
ENDTAB
  0
TABLE
  2
VIEW
  5
6
330
0
100
AcDbSymbolTable
 70
     0
  0
ENDTAB
  0
TABLE
  2
UCS
  5
7
330
0
100
AcDbSymbolTable
 70
     0
  0
ENDTAB
  0
TABLE
  2
APPID
  5
9
330
0
100
AcDbSymbolTable
 70
     1
  0
APPID
  5
12
330
9
100
AcDbSymbolTableRecord
100
AcDbRegAppTableRecord
  2
ACAD
 70
     0
  0
ENDTAB
  0
TABLE
  2
DIMSTYLE
  5
A
330
0
100
AcDbSymbolTable
 70
     1
100
AcDbDimStyleTable
  0
DIMSTYLE
105
27
330
A
100
AcDbSymbolTableRecord
100
AcDbDimStyleTableRecord
  2
Standard
 70
     0
178
     0
340
11
  0
ENDTAB
  0
TABLE
  2
BLOCK_RECORD
  5
1
330
0
100
AcDbSymbolTable
 70
     8
  0
BLOCK_RECORD
  5
1F
330
1
100
AcDbSymbolTableRecord
100
AcDbBlockTableRecord
  2
*Model_Space
340
22
 70
     0
280
     1
281
     0
  0
BLOCK_RECORD
  5
1B
330
1
100
AcDbSymbolTableRecord
100
AcDbBlockTableRecord
  2
*Paper_Space
340
1E
 70
     0
280
     1
281
     0
  0
BLOCK_RECORD
  5
23
330
1
100
AcDbSymbolTableRecord
100
AcDbBlockTableRecord
  2
*Paper_Space0
340
26
 70
     0
280
     1
281
     0
  0
BLOCK_RECORD
  5
4E
330
1
100
AcDbSymbolTableRecord
100
AcDbBlockTableRecord
  2
block 2
340
0
102
{BLKREFS
331
4F
102
}
 70
     0
280
     1
281
     0
  0
BLOCK_RECORD
  5
C5
330
1
100
AcDbSymbolTableRecord
100
AcDbBlockTableRecord
  2
block 3
340
0
102
{BLKREFS
331
C6
102
}
 70
     0
280
     1
281
     0
  0
BLOCK_RECORD
  5
D7
330
1
100
AcDbSymbolTableRecord
100
AcDbBlockTableRecord
  2
block 4
340
0
102
{BLKREFS
331
D8
102
}
 70
     0
280
     1
281
     0
  0
BLOCK_RECORD
  5
100
330
1
100
AcDbSymbolTableRecord
100
AcDbBlockTableRecord
  2
block 5
340
0
102
{BLKREFS
331
101
102
}
 70
     0
280
     1
281
     0
  0
BLOCK_RECORD
  5
113
330
1
100
AcDbSymbolTableRecord
100
AcDbBlockTableRecord
  2
block 6
340
0
102
{BLKREFS
331
114
102
}
 70
     0
280
     1
281
     0
  0
BLOCK_RECORD
  5
12E
330
1
100
AcDbSymbolTableRecord
100
AcDbBlockTableRecord
  2
block 7
340
0
102
{BLKREFS
331
12F
102
}
 70
     0
280
     1
281
     0
  0
BLOCK_RECORD
  5
13F
330
1
100
AcDbSymbolTableRecord
100
AcDbBlockTableRecord
  2
block 8
340
0
102
{BLKREFS
331
140
102
}
 70
     0
280
     1
281
     0
  0
ENDTAB
  0
ENDSEC
  0
SECTION
  2
BLOCKS
  0
BLOCK
  5
20
330
1F
100
AcDbEntity
  8
0
100
AcDbBlockBegin
  2
*Model_Space
 70
     0
 10
0.0
 20
0.0
 30
0.0
  3
*Model_Space
  1

  0
ENDBLK
  5
21
330
1F
100
AcDbEntity
  8
0
100
AcDbBlockEnd
  0
BLOCK
  5
1C
330
1B
100
AcDbEntity
 67
     1
  8
0
100
AcDbBlockBegin
  2
*Paper_Space
 70
     0
 10
0.0
 20
0.0
 30
0.0
  3
*Paper_Space
  1

  0
ENDBLK
  5
1D
330
1B
100
AcDbEntity
 67
     1
  8
0
100
AcDbBlockEnd
  0
BLOCK
  5
24
330
23
100
AcDbEntity
  8
0
100
AcDbBlockBegin
  2
*Paper_Space0
 70
     0
 10
0.0
 20
0.0
 30
0.0
  3
*Paper_Space0
  1

  0
ENDBLK
  5
25
330
23
100
AcDbEntity
  8
0
100
AcDbBlockEnd
  0
BLOCK
  5
50
330
4E
100
AcDbEntity
  8
0
100
AcDbBlockBegin
  2
block 2
 70
     0
 10
0.0
 20
0.0
 30
0.0
  3
block 2
  1

  0
SPLINE
  5
52
330
4E
100
AcDbEntity
  8
_U+30EC_U+30A4_U+30E4_U+30FC 1
370
     0
100
AcDbSpline
210
0.0
220
0.0
230
1.0
 70
    11
 71
     3
 72
    17
 73
    13
 74
     0
 42
0.0000000001
 43
0.0000000001
 12
1.0
 22
0.0
 32
0.0
 13
1.0
 23
0.0
 33
0.0
 40
0.0
 40
0.0
 40
0.0
 40
0.0
 40
1.0
 40
1.0
 40
1.0
 40
2.0
 40
2.0
 40
2.0
 40
3.0
 40
3.0
 40
3.0
 40
4.0
 40
4.0
 40
4.0
 40
4.0
 10
92.33062606198679
 20
-115.5419568938576
 30
0.0
 10
92.22486163058963
 20
-115.4361924624604
 30
0.0
 10
92.1445909057833
 20
-115.3982964121226
 30
0.0
 10
92.05122881813303
 20
-115.3662570241098
 30
0.0
 10
92.05122881813303
 20
-115.3662570241098
 30
0.0
 10
92.16147187366103
 20
-115.2012369503664
 30
0.0
 10
92.16147187366103
 20
-115.2012369503664
 30
0.0
 10
92.25862356634507
 20
-115.2436116248349
 30
0.0
 10
92.37920190832881
 20
-115.3221598018986
 30
0.0
 10
92.43225637880167
 20
-115.3769368201141
 30
0.0
 10
92.43225637880167
 20
-115.3769368201141
 30
0.0
 10
92.33062606198679
 20
-115.5419568938576
 30
0.0
 10
92.33062606198679
 20
-115.5419568938576
 30
0.0
  0
SPLINE
  5
53
330
4E
100
AcDbEntity
  8
_U+30EC_U+30A4_U+30E4_U+30FC 1
370
     0
100
AcDbSpline
210
0.0
220
0.0
230
1.0
 70
    11
 71
     3
 72
   182
 73
   178
 74
     0
 42
0.0000000001
 43
0.0000000001
 12
1.0
 22
0.0
 32
0.0
 13
1.0
 23
0.0
 33
0.0
 40
0.0
 40
0.0
 40
0.0
 40
0.0
 40
1.0
 40
1.0
 40
1.0
 40
2.0
 40
2.0
 40
2.0
 40
3.0
 40
3.0
 40
3.0
 40
4.0
 40
4.0
 40
4.0
 40
5.0
 40
5.0
 40
5.0
 40
6.0
 40
6.0
 40
6.0
 40
7.0
 40
7.0
 40
7.0
 40
8.0
 40
8.0
 40
8.0
 40
9.0
 40
9.0
 40
9.0
 40
10.0
 40
10.0
 40
10.0
 40
11.0
 40
11.0
 40
11.0
 40
12.0
 40
12.0
 40
12.0
 40
13.0
 40
13.0
 40
13.0
 40
14.0
 40
14.0
 40
14.0
 40
15.0
 40
15.0
 40
15.0
 40
16.0
 40
16.0
 40
16.0
 40
17.0
 40
17.0
 40
17.0
 40
18.0
 40
18.0
 40
18.0
 40
19.0
 40
19.0
 40
19.0
 40
20.0
 40
20.0
 40
20.0
 40
21.0
 40
21.0
 40
21.0
 40
22.0
 40
22.0
 40
22.0
 40
23.0
 40
23.0
 40
23.0
 40
24.0
 40
24.0
 40
24.0
 40
25.0
 40
25.0
 40
25.0
 40
26.0
 40
26.0
 40
26.0
 40
27.0
 40
27.0
 40
27.0
 40
28.0
 40
28.0
 40
28.0
 40
29.0
 40
29.0
 40
29.0
 40
30.0
 40
30.0
 40
30.0
 40
31.0
 40
31.0
 40
31.0
 40
32.0
 40
32.0
 40
32.0
 40
33.0
 40
33.0
 40
33.0
 40
34.0
 40
34.0
 40
34.0
 40
35.0
 40
35.0
 40
35.0
 40
36.0
 40
36.0
 40
36.0
 40
37.0
 40
37.0
 40
37.0
 40
38.0
 40
38.0
 40
38.0
 40
39.0
 40
39.0
 40
39.0
 40
40.0
 40
40.0
 40
40.0
 40
41.0
 40
41.0
 40
41.0
 40
42.0
 40
42.0
 40
42.0
 40
43.0
 40
43.0
 40
43.0
 40
44.0
 40
44.0
 40
44.0
 40
45.0
 40
45.0
 40
45.0
 40
46.0
 40
46.0
 40
46.0
 40
47.0
 40
47.0
 40
47.0
 40
48.0
 40
48.0
 40
48.0
 40
49.0
 40
49.0
 40
49.0
 40
50.0
 40
50.0
 40
50.0
 40
51.0
 40
51.0
 40
51.0
 40
52.0
 40
52.0
 40
52.0
 40
53.0
 40
53.0
 40
53.0
 40
54.0
 40
54.0
 40
54.0
 40
55.0
 40
55.0
 40
55.0
 40
56.0
 40
56.0
 40
56.0
 40
57.0
 40
57.0
 40
57.0
 40
58.0
 40
58.0
 40
58.0
 40
59.0
 40
59.0
 40
59.0
 40
59.0
 10
93.3758680322116
 20
-116.720179549813
 30
0.0
 10
93.3758680322116
 20
-116.720179549813
 30
0.0
 10
92.7388698769889
 20
-116.720179549813
 30
0.0
 10
92.7388698769889
 20
-116.720179549813
 30
0.0
 10
92.5252739569034
 20
-116.720179549813
 30
0.0
 10
92.30961097952677
 20
-116.7246581739438
 30
0.0
 10
92.09567054989276
 20
-116.7374050272393
 30
0.0
 10
92.09567054989276
 20
-116.7374050272393
 30
0.0
 10
92.09567054989276
 20
-116.5300102790272
 30
0.0
 10
92.09567054989276
 20
-116.5300102790272
 30
0.0
 10
92.31787920869137
 20
-116.5427571323226
 30
0.0
 10
92.64171818430485
 20
-116.5468912469049
 30
0.0
 10
92.7388698769889
 20
-116.5468912469049
 30
0.0
 10
92.7388698769889
 20
-116.5468912469049
 30
0.0
 10
92.95901147849636
 20
-116.5468912469049
 30
0.0
 10
92.95901147849636
 20
-116.5468912469049
 30
0.0
 10
92.95901147849636
 20
-116.5468912469049
 30
0.0
 10
92.95901147849636
 20
-116.4052978224612
 30
0.0
 10
92.95901147849636
 20
-116.4052978224612
 30
0.0
 10
92.95901147849636
 20
-116.4052978224612
 30
0.0
 10
92.7981255193352
 20
-116.4052978224612
 30
0.0
 10
92.7981255193352
 20
-116.4052978224612
 30
0.0
 10
92.63310544559172
 20
-116.4052978224612
 30
0.0
 10
92.46808537184826
 20
-116.4094319370435
 30
0.0
 10
92.3030652981048
 20
-116.4242458476301
 30
0.0
 10
92.3030652981048
 20
-116.4242458476301
 30
0.0
 10
92.3030652981048
 20
-116.2147840421269
 30
0.0
 10
92.3030652981048
 20
-116.2147840421269
 30
0.0
 10
92.47463105327023
 20
-116.2295979527134
 30
0.0
 10
92.72198890911118
 20
-116.2337320672957
 30
0.0
 10
92.7981255193352
 20
-116.2337320672957
 30
0.0
 10
92.7981255193352
 20
-116.2337320672957
 30
0.0
 10
92.95901147849636
 20
-116.2337320672957
 30
0.0
 10
92.95901147849636
 20
-116.2337320672957
 30
0.0
 10
92.95487736391406
 20
-116.161729571654
 30
0.0
 10
92.95487736391406
 20
-116.1555283997806
 30
0.0
 10
92.94833168249208
 20
-116.1024739293077
 30
0.0
 10
92.94833168249208
 20
-116.1024739293077
 30
0.0
 10
93.08785804964471
 20
-116.1172878398943
 30
0.0
 10
93.08785804964471
 20
-116.1172878398943
 30
0.0
 10
93.08785804964471
 20
-116.1172878398943
 30
0.0
 10
92.98863929966952
 20
-115.9460665942774
 30
0.0
 10
92.98863929966952
 20
-115.9460665942774
 30
0.0
 10
93.03514808872039
 20
-115.9522677661508
 30
0.0
 10
93.10921764165326
 20
-115.960880504864
 30
0.0
 10
93.12609860953098
 20
-115.960880504864
 30
0.0
 10
93.17674151316415
 20
-115.960880504864
 30
0.0
 10
93.19362248104187
 20
-115.9398654224039
 30
0.0
 10
93.19362248104187
 20
-115.8826768373488
 30
0.0
 10
93.19362248104187
 20
-115.8826768373488
 30
0.0
 10
93.19362248104187
 20
-115.7452175274873
 30
0.0
 10
93.19362248104187
 20
-115.7452175274873
 30
0.0
 10
93.19362248104187
 20
-115.7452175274873
 30
0.0
 10
93.08785804964471
 20
-115.7452175274873
 30
0.0
 10
93.08785804964471
 20
-115.7452175274873
 30
0.0
 10
92.95487736391406
 20
-115.7452175274873
 30
0.0
 10
92.7981255193352
 20
-115.7452175274873
 30
0.0
 10
92.6754801200603
 20
-115.7576198712342
 30
0.0
 10
92.6754801200603
 20
-115.7576198712342
 30
0.0
 10
92.6754801200603
 20
-115.5674506004484
 30
0.0
 10
92.6754801200603
 20
-115.5674506004484
 30
0.0
 10
92.84256725109492
 20
-115.5843315683261
 30
0.0
 10
93.07304413905813
 20
-115.5863986256173
 30
0.0
 10
93.08785804964471
 20
-115.5863986256173
 30
0.0
 10
93.08785804964471
 20
-115.5863986256173
 30
0.0
 10
93.19362248104187
 20
-115.5863986256173
 30
0.0
 10
93.19362248104187
 20
-115.5863986256173
 30
0.0
 10
93.19362248104187
 20
-115.5863986256173
 30
0.0
 10
93.19362248104187
 20
-115.4551404876293
 30
0.0
 10
93.19362248104187
 20
-115.4551404876293
 30
0.0
 10
93.19362248104187
 20
-115.4551404876293
 30
0.0
 10
93.15572643070414
 20
-115.4551404876293
 30
0.0
 10
93.15572643070414
 20
-115.4551404876293
 30
0.0
 10
93.1112846989444
 20
-115.4551404876293
 30
0.0
 10
92.98657224237836
 20
-115.4596191117601
 30
0.0
 10
92.89768877885892
 20
-115.4678873409247
 30
0.0
 10
92.89768877885892
 20
-115.4678873409247
 30
0.0
 10
92.89768877885892
 20
-115.3876166161184
 30
0.0
 10
92.89768877885892
 20
-115.3876166161184
 30
0.0
 10
92.84463430838606
 20
-115.4255126664561
 30
0.0
 10
92.81948511134374
 20
-115.4403265770427
 30
0.0
 10
92.77711043687518
 20
-115.4637532263424
 30
0.0
 10
92.77711043687518
 20
-115.4637532263424
 30
0.0
 10
92.588663713832
 20
-115.3345621456455
 30
0.0
 10
92.588663713832
 20
-115.3345621456455
 30
0.0
 10
92.66686738134717
 20
-115.3008002098901
 30
0.0
 10
92.82361922592604
 20
-115.2374104529615
 30
0.0
 10
92.98002656095639
 20
-115.093405461678
 30
0.0
 10
93.06270885260238
 20
-115.0152017941629
 30
0.0
 10
93.14091252011755
 20
-114.9304524452257
 30
0.0
 10
93.19362248104187
 20
-114.8291666379594
 30
0.0
 10
93.19362248104187
 20
-114.8291666379594
 30
0.0
 10
93.40515134383622
 20
-114.8904893375968
 30
0.0
 10
93.40515134383622
 20
-114.8904893375968
 30
0.0
 10
93.42444387855362
 20
-114.8966905094703
 30
0.0
 10
93.43477916500936
 20
-114.9053032481834
 30
0.0
 10
93.43477916500936
 20
-114.9180501014788
 30
0.0
 10
93.43477916500936
 20
-114.9349310693566
 30
0.0
 10
93.42237682126246
 20
-114.94113224123
 30
0.0
 10
93.39688311467161
 20
-114.9538790945254
 30
0.0
 10
93.47715383947794
 20
-115.051375296758
 30
0.0
 10
93.64010685593026
 20
-115.148526989442
 30
0.0
 10
93.6738687916857
 20
-115.1674750146109
 30
0.0
 10
93.8240749548426
 20
-115.2563584781304
 30
0.0
 10
93.93845212495289
 20
-115.2839192420124
 30
0.0
 10
94.01665579246806
 20
-115.3028672671812
 30
0.0
 10
94.01665579246806
 20
-115.3028672671812
 30
0.0
 10
93.89814450777547
 20
-115.472021455507
 30
0.0
 10
93.89814450777547
 20
-115.472021455507
 30
0.0
 10
93.81373966838684
 20
-115.4427381438824
 30
0.0
 10
93.76275225520514
 20
-115.423445609165
 30
0.0
 10
93.64424097051256
 20
-115.3579887949452
 30
0.0
 10
93.64424097051256
 20
-115.3579887949452
 30
0.0
 10
93.64424097051256
 20
-115.4678873409247
 30
0.0
 10
93.64424097051256
 20
-115.4678873409247
 30
0.0
 10
93.56190318841509
 20
-115.4596191117601
 30
0.0
 10
93.43477916500936
 20
-115.4551404876293
 30
0.0
 10
93.38206920408504
 20
-115.4551404876293
 30
0.0
 10
93.38206920408504
 20
-115.4551404876293
 30
0.0
 10
93.38206920408504
 20
-115.5863986256173
 30
0.0
 10
93.38206920408504
 20
-115.5863986256173
 30
0.0
 10
93.38206920408504
 20
-115.5863986256173
 30
0.0
 10
93.50264754606879
 20
-115.5863986256173
 30
0.0
 10
93.50264754606879
 20
-115.5863986256173
 30
0.0
 10
93.50471460335994
 20
-115.5863986256173
 30
0.0
 10
93.73760305816283
 20
-115.5843315683261
 30
0.0
 10
93.9150254756532
 20
-115.5674506004484
 30
0.0
 10
93.9150254756532
 20
-115.5674506004484
 30
0.0
 10
93.9150254756532
 20
-115.7576198712342
 30
0.0
 10
93.9150254756532
 20
-115.7576198712342
 30
0.0
 10
93.78617890450485
 20
-115.7452175274873
 30
0.0
 10
93.62942705992599
 20
-115.7452175274873
 30
0.0
 10
93.50264754606879
 20
-115.7452175274873
 30
0.0
 10
93.50264754606879
 20
-115.7452175274873
 30
0.0
 10
93.38206920408504
 20
-115.7452175274873
 30
0.0
 10
93.38206920408504
 20
-115.7452175274873
 30
0.0
 10
93.38206920408504
 20
-115.7452175274873
 30
0.0
 10
93.38206920408504
 20
-115.9715603008682
 30
0.0
 10
93.38206920408504
 20
-115.9715603008682
 30
0.0
 10
93.38206920408504
 20
-116.0900715855608
 30
0.0
 10
93.35657549749419
 20
-116.1259005786074
 30
0.0
 10
93.19603404788155
 20
-116.140714489194
 30
0.0
 10
93.20016816246385
 20
-116.1596625143629
 30
0.0
 10
93.19362248104187
 20
-116.1703423103671
 30
0.0
 10
93.15572643070414
 20
-116.1934244501183
 30
0.0
 10
93.15365937341298
 20
-116.2127169848357
 30
0.0
 10
93.15365937341298
 20
-116.2189181567092
 30
0.0
 10
93.15159231612184
 20
-116.2337320672957
 30
0.0
 10
93.15159231612184
 20
-116.2337320672957
 30
0.0
 10
93.28905162598329
 20
-116.2337320672957
 30
0.0
 10
93.28905162598329
 20
-116.2337320672957
 30
0.0
 10
93.45407169972677
 20
-116.2337320672957
 30
0.0
 10
93.62115883076139
 20
-116.2295979527134
 30
0.0
 10
93.788245961796
 20
-116.2147840421269
 30
0.0
 10
93.788245961796
 20
-116.2147840421269
 30
0.0
 10
93.788245961796
 20
-116.4221787903389
 30
0.0
 10
93.788245961796
 20
-116.4221787903389
 30
0.0
 10
93.57258298441936
 20
-116.4052978224612
 30
0.0
 10
93.30799965115217
 20
-116.4052978224612
 30
0.0
 10
93.28905162598329
 20
-116.4052978224612
 30
0.0
 10
93.28905162598329
 20
-116.4052978224612
 30
0.0
 10
93.14918074928215
 20
-116.4052978224612
 30
0.0
 10
93.14918074928215
 20
-116.4052978224612
 30
0.0
 10
93.14918074928215
 20
-116.4052978224612
 30
0.0
 10
93.14918074928215
 20
-116.5468912469049
 30
0.0
 10
93.14918074928215
 20
-116.5468912469049
 30
0.0
 10
93.14918074928215
 20
-116.5468912469049
 30
0.0
 10
93.3758680322116
 20
-116.5468912469049
 30
0.0
 10
93.3758680322116
 20
-116.5468912469049
 30
0.0
 10
93.59153100958824
 20
-116.5468912469049
 30
0.0
 10
93.80926104425602
 20
-116.5427571323226
 30
0.0
 10
94.02526853118118
 20
-116.5300102790272
 30
0.0
 10
94.02526853118118
 20
-116.5300102790272
 30
0.0
 10
94.02526853118118
 20
-116.7374050272393
 30
0.0
 10
94.02526853118118
 20
-116.7374050272393
 30
0.0
 10
93.74380423003628
 20
-116.720179549813
 30
0.0
 10
93.39895017196277
 20
-116.720179549813
 30
0.0
 10
93.3758680322116
 20
-116.720179549813
 30
0.0
  0
SPLINE
  5
54
330
4E
100
AcDbEntity
  8
_U+30EC_U+30A4_U+30E4_U+30FC 1
370
     0
100
AcDbSpline
210
0.0
220
0.0
230
1.0
 70
    11
 71
     3
 72
    23
 73
    19
 74
     0
 42
0.0000000001
 43
0.0000000001
 12
1.0
 22
0.0
 32
0.0
 13
1.0
 23
0.0
 33
0.0
 40
0.0
 40
0.0
 40
0.0
 40
0.0
 40
1.0
 40
1.0
 40
1.0
 40
2.0
 40
2.0
 40
2.0
 40
3.0
 40
3.0
 40
3.0
 40
4.0
 40
4.0
 40
4.0
 40
5.0
 40
5.0
 40
5.0
 40
6.0
 40
6.0
 40
6.0
 40
6.0
 10
92.25655650905392
 20
-116.092138642852
 30
0.0
 10
92.25655650905392
 20
-116.113153725312
 30
0.0
 10
92.25862356634507
 20
-116.1513942851983
 30
0.0
 10
92.23347436930274
 20
-116.1513942851983
 30
0.0
 10
92.22279457329847
 20
-116.1513942851983
 30
0.0
 10
92.21418183458535
 20
-116.1448486037763
 30
0.0
 10
92.2038465481296
 20
-116.1279676358986
 30
0.0
 10
92.2038465481296
 20
-116.1279676358986
 30
0.0
 10
92.10014917402358
 20
-115.9460665942774
 30
0.0
 10
92.10014917402358
 20
-115.9460665942774
 30
0.0
 10
92.31581215140022
 20
-115.8168755135805
 30
0.0
 10
92.51252710360798
 20
-115.5398898365664
 30
0.0
 10
92.55903589265886
 20
-115.4678873409247
 30
0.0
 10
92.55903589265886
 20
-115.4678873409247
 30
0.0
 10
92.63103838830058
 20
-115.6477213252547
 30
0.0
 10
92.63103838830058
 20
-115.6477213252547
 30
0.0
 10
92.49771319302141
 20
-115.8444362774625
 30
0.0
 10
92.32201332327367
 20
-116.0284043763749
 30
0.0
 10
92.25655650905392
 20
-116.092138642852
 30
0.0
  0
SPLINE
  5
55
330
4E
100
AcDbEntity
  8
_U+30EC_U+30A4_U+30E4_U+30FC 1
370
     0
100
AcDbSpline
210
0.0
220
0.0
230
1.0
 70
    11
 71
     3
 72
    17
 73
    13
 74
     0
 42
0.0000000001
 43
0.0000000001
 12
1.0
 22
0.0
 32
0.0
 13
1.0
 23
0.0
 33
0.0
 40
0.0
 40
0.0
 40
0.0
 40
0.0
 40
1.0
 40
1.0
 40
1.0
 40
2.0
 40
2.0
 40
2.0
 40
3.0
 40
3.0
 40
3.0
 40
4.0
 40
4.0
 40
4.0
 40
4.0
 10
92.51046004631684
 20
-115.1971028357841
 30
0.0
 10
92.4491373466794
 20
-115.12096622556
 30
0.0
 10
92.31994626598252
 20
-115.044829615336
 30
0.0
 10
92.2162488918765
 20
-115.0152017941629
 30
0.0
 10
92.2162488918765
 20
-115.0152017941629
 30
0.0
 10
92.31167803681792
 20
-114.8501817204194
 30
0.0
 10
92.31167803681792
 20
-114.8501817204194
 30
0.0
 10
92.41330835363279
 20
-114.8863552230145
 30
0.0
 10
92.51907278502996
 20
-114.9431992985212
 30
0.0
 10
92.60761173900087
 20
-115.023814532876
 30
0.0
 10
92.60761173900087
 20
-115.023814532876
 30
0.0
 10
92.51046004631684
 20
-115.1971028357841
 30
0.0
 10
92.51046004631684
 20
-115.1971028357841
 30
0.0
  0
SPLINE
  5
56
330
4E
100
AcDbEntity
  8
_U+30EC_U+30A4_U+30E4_U+30FC 1
370
     0
100
AcDbSpline
210
0.0
220
0.0
230
1.0
 70
    11
 71
     3
 72
    23
 73
    19
 74
     0
 42
0.0000000001
 43
0.0000000001
 12
1.0
 22
0.0
 32
0.0
 13
1.0
 23
0.0
 33
0.0
 40
0.0
 40
0.0
 40
0.0
 40
0.0
 40
1.0
 40
1.0
 40
1.0
 40
2.0
 40
2.0
 40
2.0
 40
3.0
 40
3.0
 40
3.0
 40
4.0
 40
4.0
 40
4.0
 40
5.0
 40
5.0
 40
5.0
 40
6.0
 40
6.0
 40
6.0
 40
6.0
 10
92.96314559307866
 20
-115.9016248625177
 30
0.0
 10
92.94213051061864
 20
-115.9250515118174
 30
0.0
 10
92.84463430838606
 20
-116.037017115088
 30
0.0
 10
92.70510794123345
 20
-116.1172878398943
 30
0.0
 10
92.70510794123345
 20
-116.1172878398943
 30
0.0
 10
92.53802081019883
 20
-115.9967094979105
 30
0.0
 10
92.53802081019883
 20
-115.9967094979105
 30
0.0
 10
92.68822697335573
 20
-115.9205728876865
 30
0.0
 10
92.78744572333092
 20
-115.8254882522936
 30
0.0
 10
92.83636607922146
 20
-115.7724337818208
 30
0.0
 10
92.83636607922146
 20
-115.7724337818208
 30
0.0
 10
93.00965438212954
 20
-115.8551160734668
 30
0.0
 10
93.00965438212954
 20
-115.8551160734668
 30
0.0
 10
93.01826712084267
 20
-115.8592501880491
 30
0.0
 10
93.02653535000726
 20
-115.8657958694711
 30
0.0
 10
93.02653535000726
 20
-115.8761311559268
 30
0.0
 10
93.02653535000726
 20
-115.9016248625177
 30
0.0
 10
92.99070635696066
 20
-115.9016248625177
 30
0.0
 10
92.96314559307866
 20
-115.9016248625177
 30
0.0
  0
SPLINE
  5
57
330
4E
100
AcDbEntity
  8
_U+30EC_U+30A4_U+30E4_U+30FC 1
370
     0
100
AcDbSpline
210
0.0
220
0.0
230
1.0
 70
    11
 71
     3
 72
    20
 73
    16
 74
     0
 42
0.0000000001
 43
0.0000000001
 12
1.0
 22
0.0
 32
0.0
 13
1.0
 23
0.0
 33
0.0
 40
0.0
 40
0.0
 40
0.0
 40
0.0
 40
1.0
 40
1.0
 40
1.0
 40
2.0
 40
2.0
 40
2.0
 40
3.0
 40
3.0
 40
3.0
 40
4.0
 40
4.0
 40
4.0
 40
5.0
 40
5.0
 40
5.0
 40
5.0
 10
93.2614908621013
 20
-115.0596435259226
 30
0.0
 10
93.22325030221502
 20
-115.1082193722646
 30
0.0
 10
93.16192760257758
 20
-115.1867675493283
 30
0.0
 10
93.02240123542497
 20
-115.2966660953078
 30
0.0
 10
93.10267196023128
 20
-115.3008002098901
 30
0.0
 10
93.13229978140443
 20
-115.3008002098901
 30
0.0
 10
93.15572643070414
 20
-115.3008002098901
 30
0.0
 10
93.15572643070414
 20
-115.3008002098901
 30
0.0
 10
93.3841362613762
 20
-115.3008002098901
 30
0.0
 10
93.3841362613762
 20
-115.3008002098901
 30
0.0
 10
93.41583113984049
 20
-115.3008002098901
 30
0.0
 10
93.46440698618251
 20
-115.2987331525989
 30
0.0
 10
93.53847653911538
 20
-115.2966660953078
 30
0.0
 10
93.42651093584476
 20
-115.2225965423749
 30
0.0
 10
93.37793508950274
 20
-115.176087753324
 30
0.0
 10
93.2614908621013
 20
-115.0596435259226
 30
0.0
  0
SPLINE
  5
58
330
4E
100
AcDbEntity
  8
_U+30EC_U+30A4_U+30E4_U+30FC 1
370
     0
100
AcDbSpline
210
0.0
220
0.0
230
1.0
 70
    11
 71
     3
 72
    17
 73
    13
 74
     0
 42
0.0000000001
 43
0.0000000001
 12
1.0
 22
0.0
 32
0.0
 13
1.0
 23
0.0
 33
0.0
 40
0.0
 40
0.0
 40
0.0
 40
0.0
 40
1.0
 40
1.0
 40
1.0
 40
2.0
 40
2.0
 40
2.0
 40
3.0
 40
3.0
 40
3.0
 40
4.0
 40
4.0
 40
4.0
 40
4.0
 10
93.82200789755144
 20
-116.1152207826031
 30
0.0
 10
93.68661564498113
 20
-116.0032551793325
 30
0.0
 10
93.58085121358395
 20
-115.9398654224039
 30
0.0
 10
93.46233992889137
 20
-115.8761311559268
 30
0.0
 10
93.46233992889137
 20
-115.8761311559268
 30
0.0
 10
93.58946395229708
 20
-115.7641655526562
 30
0.0
 10
93.58946395229708
 20
-115.7641655526562
 30
0.0
 10
93.72037758073658
 20
-115.8106743417071
 30
0.0
 10
93.83062063626457
 20
-115.8678629267622
 30
0.0
 10
93.95533309283061
 20
-115.9694932435771
 30
0.0
 10
93.95533309283061
 20
-115.9694932435771
 30
0.0
 10
93.82200789755144
 20
-116.1152207826031
 30
0.0
 10
93.82200789755144
 20
-116.1152207826031
 30
0.0
  0
HATCH
  5
59
330
4E
100
AcDbEntity
  8
_U+30EC_U+30A4_U+30E4_U+30FC 1
 62
   179
420
  2234388
100
AcDbHatch
 10
0.0
 20
0.0
 30
0.0
210
0.0
220
0.0
230
1.0
  2
SOLID
 70
     1
 71
     0
 91
        7
 92
        1
 93
        1
 72
     4
 94
        3
 73
     0
 74
     1
 95
       17
 96
       13
 40
0.0
 40
0.0
 40
0.0
 40
0.0
 40
1.0
 40
1.0
 40
1.0
 40
2.0
 40
2.0
 40
2.0
 40
3.0
 40
3.0
 40
3.0
 40
4.0
 40
4.0
 40
4.0
 40
4.0
 10
92.33062606198679
 20
-115.5419568938576
 10
92.22486163058963
 20
-115.4361924624604
 10
92.1445909057833
 20
-115.3982964121226
 10
92.05122881813303
 20
-115.3662570241098
 10
92.05122881813303
 20
-115.3662570241098
 10
92.16147187366103
 20
-115.2012369503664
 10
92.16147187366103
 20
-115.2012369503664
 10
92.25862356634507
 20
-115.2436116248349
 10
92.37920190832881
 20
-115.3221598018986
 10
92.43225637880167
 20
-115.3769368201141
 10
92.43225637880167
 20
-115.3769368201141
 10
92.33062606198679
 20
-115.5419568938576
 10
92.33062606198679
 20
-115.5419568938576
 97
        0
 97
        0
 92
        1
 93
        1
 72
     4
 94
        3
 73
     0
 74
     1
 95
      182
 96
      178
 40
0.0
 40
0.0
 40
0.0
 40
0.0
 40
1.0
 40
1.0
 40
1.0
 40
2.0
 40
2.0
 40
2.0
 40
3.0
 40
3.0
 40
3.0
 40
4.0
 40
4.0
 40
4.0
 40
5.0
 40
5.0
 40
5.0
 40
6.0
 40
6.0
 40
6.0
 40
7.0
 40
7.0
 40
7.0
 40
8.0
 40
8.0
 40
8.0
 40
9.0
 40
9.0
 40
9.0
 40
10.0
 40
10.0
 40
10.0
 40
11.0
 40
11.0
 40
11.0
 40
12.0
 40
12.0
 40
12.0
 40
13.0
 40
13.0
 40
13.0
 40
14.0
 40
14.0
 40
14.0
 40
15.0
 40
15.0
 40
15.0
 40
16.0
 40
16.0
 40
16.0
 40
17.0
 40
17.0
 40
17.0
 40
18.0
 40
18.0
 40
18.0
 40
19.0
 40
19.0
 40
19.0
 40
20.0
 40
20.0
 40
20.0
 40
21.0
 40
21.0
 40
21.0
 40
22.0
 40
22.0
 40
22.0
 40
23.0
 40
23.0
 40
23.0
 40
24.0
 40
24.0
 40
24.0
 40
25.0
 40
25.0
 40
25.0
 40
26.0
 40
26.0
 40
26.0
 40
27.0
 40
27.0
 40
27.0
 40
28.0
 40
28.0
 40
28.0
 40
29.0
 40
29.0
 40
29.0
 40
30.0
 40
30.0
 40
30.0
 40
31.0
 40
31.0
 40
31.0
 40
32.0
 40
32.0
 40
32.0
 40
33.0
 40
33.0
 40
33.0
 40
34.0
 40
34.0
 40
34.0
 40
35.0
 40
35.0
 40
35.0
 40
36.0
 40
36.0
 40
36.0
 40
37.0
 40
37.0
 40
37.0
 40
38.0
 40
38.0
 40
38.0
 40
39.0
 40
39.0
 40
39.0
 40
40.0
 40
40.0
 40
40.0
 40
41.0
 40
41.0
 40
41.0
 40
42.0
 40
42.0
 40
42.0
 40
43.0
 40
43.0
 40
43.0
 40
44.0
 40
44.0
 40
44.0
 40
45.0
 40
45.0
 40
45.0
 40
46.0
 40
46.0
 40
46.0
 40
47.0
 40
47.0
 40
47.0
 40
48.0
 40
48.0
 40
48.0
 40
49.0
 40
49.0
 40
49.0
 40
50.0
 40
50.0
 40
50.0
 40
51.0
 40
51.0
 40
51.0
 40
52.0
 40
52.0
 40
52.0
 40
53.0
 40
53.0
 40
53.0
 40
54.0
 40
54.0
 40
54.0
 40
55.0
 40
55.0
 40
55.0
 40
56.0
 40
56.0
 40
56.0
 40
57.0
 40
57.0
 40
57.0
 40
58.0
 40
58.0
 40
58.0
 40
59.0
 40
59.0
 40
59.0
 40
59.0
 10
93.3758680322116
 20
-116.720179549813
 10
93.3758680322116
 20
-116.720179549813
 10
92.7388698769889
 20
-116.720179549813
 10
92.7388698769889
 20
-116.720179549813
 10
92.5252739569034
 20
-116.720179549813
 10
92.30961097952677
 20
-116.7246581739438
 10
92.09567054989276
 20
-116.7374050272393
 10
92.09567054989276
 20
-116.7374050272393
 10
92.09567054989276
 20
-116.5300102790272
 10
92.09567054989276
 20
-116.5300102790272
 10
92.31787920869137
 20
-116.5427571323226
 10
92.64171818430485
 20
-116.5468912469049
 10
92.7388698769889
 20
-116.5468912469049
 10
92.7388698769889
 20
-116.5468912469049
 10
92.95901147849636
 20
-116.5468912469049
 10
92.95901147849636
 20
-116.5468912469049
 10
92.95901147849636
 20
-116.5468912469049
 10
92.95901147849636
 20
-116.4052978224612
 10
92.95901147849636
 20
-116.4052978224612
 10
92.95901147849636
 20
-116.4052978224612
 10
92.7981255193352
 20
-116.4052978224612
 10
92.7981255193352
 20
-116.4052978224612
 10
92.63310544559172
 20
-116.4052978224612
 10
92.46808537184826
 20
-116.4094319370435
 10
92.3030652981048
 20
-116.4242458476301
 10
92.3030652981048
 20
-116.4242458476301
 10
92.3030652981048
 20
-116.2147840421269
 10
92.3030652981048
 20
-116.2147840421269
 10
92.47463105327023
 20
-116.2295979527134
 10
92.72198890911118
 20
-116.2337320672957
 10
92.7981255193352
 20
-116.2337320672957
 10
92.7981255193352
 20
-116.2337320672957
 10
92.95901147849636
 20
-116.2337320672957
 10
92.95901147849636
 20
-116.2337320672957
 10
92.95487736391406
 20
-116.161729571654
 10
92.95487736391406
 20
-116.1555283997806
 10
92.94833168249208
 20
-116.1024739293077
 10
92.94833168249208
 20
-116.1024739293077
 10
93.08785804964471
 20
-116.1172878398943
 10
93.08785804964471
 20
-116.1172878398943
 10
93.08785804964471
 20
-116.1172878398943
 10
92.98863929966952
 20
-115.9460665942774
 10
92.98863929966952
 20
-115.9460665942774
 10
93.03514808872039
 20
-115.9522677661508
 10
93.10921764165326
 20
-115.960880504864
 10
93.12609860953098
 20
-115.960880504864
 10
93.17674151316415
 20
-115.960880504864
 10
93.19362248104187
 20
-115.9398654224039
 10
93.19362248104187
 20
-115.8826768373488
 10
93.19362248104187
 20
-115.8826768373488
 10
93.19362248104187
 20
-115.7452175274873
 10
93.19362248104187
 20
-115.7452175274873
 10
93.19362248104187
 20
-115.7452175274873
 10
93.08785804964471
 20
-115.7452175274873
 10
93.08785804964471
 20
-115.7452175274873
 10
92.95487736391406
 20
-115.7452175274873
 10
92.7981255193352
 20
-115.7452175274873
 10
92.6754801200603
 20
-115.7576198712342
 10
92.6754801200603
 20
-115.7576198712342
 10
92.6754801200603
 20
-115.5674506004484
 10
92.6754801200603
 20
-115.5674506004484
 10
92.84256725109492
 20
-115.5843315683261
 10
93.07304413905813
 20
-115.5863986256173
 10
93.08785804964471
 20
-115.5863986256173
 10
93.08785804964471
 20
-115.5863986256173
 10
93.19362248104187
 20
-115.5863986256173
 10
93.19362248104187
 20
-115.5863986256173
 10
93.19362248104187
 20
-115.5863986256173
 10
93.19362248104187
 20
-115.4551404876293
 10
93.19362248104187
 20
-115.4551404876293
 10
93.19362248104187
 20
-115.4551404876293
 10
93.15572643070414
 20
-115.4551404876293
 10
93.15572643070414
 20
-115.4551404876293
 10
93.1112846989444
 20
-115.4551404876293
 10
92.98657224237836
 20
-115.4596191117601
 10
92.89768877885892
 20
-115.4678873409247
 10
92.89768877885892
 20
-115.4678873409247
 10
92.89768877885892
 20
-115.3876166161184
 10
92.89768877885892
 20
-115.3876166161184
 10
92.84463430838606
 20
-115.4255126664561
 10
92.81948511134374
 20
-115.4403265770427
 10
92.77711043687518
 20
-115.4637532263424
 10
92.77711043687518
 20
-115.4637532263424
 10
92.588663713832
 20
-115.3345621456455
 10
92.588663713832
 20
-115.3345621456455
 10
92.66686738134717
 20
-115.3008002098901
 10
92.82361922592604
 20
-115.2374104529615
 10
92.98002656095639
 20
-115.093405461678
 10
93.06270885260238
 20
-115.0152017941629
 10
93.14091252011755
 20
-114.9304524452257
 10
93.19362248104187
 20
-114.8291666379594
 10
93.19362248104187
 20
-114.8291666379594
 10
93.40515134383622
 20
-114.8904893375968
 10
93.40515134383622
 20
-114.8904893375968
 10
93.42444387855362
 20
-114.8966905094703
 10
93.43477916500936
 20
-114.9053032481834
 10
93.43477916500936
 20
-114.9180501014788
 10
93.43477916500936
 20
-114.9349310693566
 10
93.42237682126246
 20
-114.94113224123
 10
93.39688311467161
 20
-114.9538790945254
 10
93.47715383947794
 20
-115.051375296758
 10
93.64010685593026
 20
-115.148526989442
 10
93.6738687916857
 20
-115.1674750146109
 10
93.8240749548426
 20
-115.2563584781304
 10
93.93845212495289
 20
-115.2839192420124
 10
94.01665579246806
 20
-115.3028672671812
 10
94.01665579246806
 20
-115.3028672671812
 10
93.89814450777547
 20
-115.472021455507
 10
93.89814450777547
 20
-115.472021455507
 10
93.81373966838684
 20
-115.4427381438824
 10
93.76275225520514
 20
-115.423445609165
 10
93.64424097051256
 20
-115.3579887949452
 10
93.64424097051256
 20
-115.3579887949452
 10
93.64424097051256
 20
-115.4678873409247
 10
93.64424097051256
 20
-115.4678873409247
 10
93.56190318841509
 20
-115.4596191117601
 10
93.43477916500936
 20
-115.4551404876293
 10
93.38206920408504
 20
-115.4551404876293
 10
93.38206920408504
 20
-115.4551404876293
 10
93.38206920408504
 20
-115.5863986256173
 10
93.38206920408504
 20
-115.5863986256173
 10
93.38206920408504
 20
-115.5863986256173
 10
93.50264754606879
 20
-115.5863986256173
 10
93.50264754606879
 20
-115.5863986256173
 10
93.50471460335994
 20
-115.5863986256173
 10
93.73760305816283
 20
-115.5843315683261
 10
93.9150254756532
 20
-115.5674506004484
 10
93.9150254756532
 20
-115.5674506004484
 10
93.9150254756532
 20
-115.7576198712342
 10
93.9150254756532
 20
-115.7576198712342
 10
93.78617890450485
 20
-115.7452175274873
 10
93.62942705992599
 20
-115.7452175274873
 10
93.50264754606879
 20
-115.7452175274873
 10
93.50264754606879
 20
-115.7452175274873
 10
93.38206920408504
 20
-115.7452175274873
 10
93.38206920408504
 20
-115.7452175274873
 10
93.38206920408504
 20
-115.7452175274873
 10
93.38206920408504
 20
-115.9715603008682
 10
93.38206920408504
 20
-115.9715603008682
 10
93.38206920408504
 20
-116.0900715855608
 10
93.35657549749419
 20
-116.1259005786074
 10
93.19603404788155
 20
-116.140714489194
 10
93.20016816246385
 20
-116.1596625143629
 10
93.19362248104187
 20
-116.1703423103671
 10
93.15572643070414
 20
-116.1934244501183
 10
93.15365937341298
 20
-116.2127169848357
 10
93.15365937341298
 20
-116.2189181567092
 10
93.15159231612184
 20
-116.2337320672957
 10
93.15159231612184
 20
-116.2337320672957
 10
93.28905162598329
 20
-116.2337320672957
 10
93.28905162598329
 20
-116.2337320672957
 10
93.45407169972677
 20
-116.2337320672957
 10
93.62115883076139
 20
-116.2295979527134
 10
93.788245961796
 20
-116.2147840421269
 10
93.788245961796
 20
-116.2147840421269
 10
93.788245961796
 20
-116.4221787903389
 10
93.788245961796
 20
-116.4221787903389
 10
93.57258298441936
 20
-116.4052978224612
 10
93.30799965115217
 20
-116.4052978224612
 10
93.28905162598329
 20
-116.4052978224612
 10
93.28905162598329
 20
-116.4052978224612
 10
93.14918074928215
 20
-116.4052978224612
 10
93.14918074928215
 20
-116.4052978224612
 10
93.14918074928215
 20
-116.4052978224612
 10
93.14918074928215
 20
-116.5468912469049
 10
93.14918074928215
 20
-116.5468912469049
 10
93.14918074928215
 20
-116.5468912469049
 10
93.3758680322116
 20
-116.5468912469049
 10
93.3758680322116
 20
-116.5468912469049
 10
93.59153100958824
 20
-116.5468912469049
 10
93.80926104425602
 20
-116.5427571323226
 10
94.02526853118118
 20
-116.5300102790272
 10
94.02526853118118
 20
-116.5300102790272
 10
94.02526853118118
 20
-116.7374050272393
 10
94.02526853118118
 20
-116.7374050272393
 10
93.74380423003628
 20
-116.720179549813
 10
93.39895017196277
 20
-116.720179549813
 10
93.3758680322116
 20
-116.720179549813
 97
        0
 97
        0
 92
        1
 93
        1
 72
     4
 94
        3
 73
     0
 74
     1
 95
       23
 96
       19
 40
0.0
 40
0.0
 40
0.0
 40
0.0
 40
1.0
 40
1.0
 40
1.0
 40
2.0
 40
2.0
 40
2.0
 40
3.0
 40
3.0
 40
3.0
 40
4.0
 40
4.0
 40
4.0
 40
5.0
 40
5.0
 40
5.0
 40
6.0
 40
6.0
 40
6.0
 40
6.0
 10
92.25655650905392
 20
-116.092138642852
 10
92.25655650905392
 20
-116.113153725312
 10
92.25862356634507
 20
-116.1513942851983
 10
92.23347436930274
 20
-116.1513942851983
 10
92.22279457329847
 20
-116.1513942851983
 10
92.21418183458535
 20
-116.1448486037763
 10
92.2038465481296
 20
-116.1279676358986
 10
92.2038465481296
 20
-116.1279676358986
 10
92.10014917402358
 20
-115.9460665942774
 10
92.10014917402358
 20
-115.9460665942774
 10
92.31581215140022
 20
-115.8168755135805
 10
92.51252710360798
 20
-115.5398898365664
 10
92.55903589265886
 20
-115.4678873409247
 10
92.55903589265886
 20
-115.4678873409247
 10
92.63103838830058
 20
-115.6477213252547
 10
92.63103838830058
 20
-115.6477213252547
 10
92.49771319302141
 20
-115.8444362774625
 10
92.32201332327367
 20
-116.0284043763749
 10
92.25655650905392
 20
-116.092138642852
 97
        0
 97
        0
 92
        1
 93
        1
 72
     4
 94
        3
 73
     0
 74
     1
 95
       17
 96
       13
 40
0.0
 40
0.0
 40
0.0
 40
0.0
 40
1.0
 40
1.0
 40
1.0
 40
2.0
 40
2.0
 40
2.0
 40
3.0
 40
3.0
 40
3.0
 40
4.0
 40
4.0
 40
4.0
 40
4.0
 10
92.51046004631684
 20
-115.1971028357841
 10
92.4491373466794
 20
-115.12096622556
 10
92.31994626598252
 20
-115.044829615336
 10
92.2162488918765
 20
-115.0152017941629
 10
92.2162488918765
 20
-115.0152017941629
 10
92.31167803681792
 20
-114.8501817204194
 10
92.31167803681792
 20
-114.8501817204194
 10
92.41330835363279
 20
-114.8863552230145
 10
92.51907278502996
 20
-114.9431992985212
 10
92.60761173900087
 20
-115.023814532876
 10
92.60761173900087
 20
-115.023814532876
 10
92.51046004631684
 20
-115.1971028357841
 10
92.51046004631684
 20
-115.1971028357841
 97
        0
 97
        0
 92
        1
 93
        1
 72
     4
 94
        3
 73
     0
 74
     1
 95
       23
 96
       19
 40
0.0
 40
0.0
 40
0.0
 40
0.0
 40
1.0
 40
1.0
 40
1.0
 40
2.0
 40
2.0
 40
2.0
 40
3.0
 40
3.0
 40
3.0
 40
4.0
 40
4.0
 40
4.0
 40
5.0
 40
5.0
 40
5.0
 40
6.0
 40
6.0
 40
6.0
 40
6.0
 10
92.96314559307866
 20
-115.9016248625177
 10
92.94213051061864
 20
-115.9250515118174
 10
92.84463430838606
 20
-116.037017115088
 10
92.70510794123345
 20
-116.1172878398943
 10
92.70510794123345
 20
-116.1172878398943
 10
92.53802081019883
 20
-115.9967094979105
 10
92.53802081019883
 20
-115.9967094979105
 10
92.68822697335573
 20
-115.9205728876865
 10
92.78744572333092
 20
-115.8254882522936
 10
92.83636607922146
 20
-115.7724337818208
 10
92.83636607922146
 20
-115.7724337818208
 10
93.00965438212954
 20
-115.8551160734668
 10
93.00965438212954
 20
-115.8551160734668
 10
93.01826712084267
 20
-115.8592501880491
 10
93.02653535000726
 20
-115.8657958694711
 10
93.02653535000726
 20
-115.8761311559268
 10
93.02653535000726
 20
-115.9016248625177
 10
92.99070635696066
 20
-115.9016248625177
 10
92.96314559307866
 20
-115.9016248625177
 97
        0
 97
        0
 92
        1
 93
        1
 72
     4
 94
        3
 73
     0
 74
     1
 95
       20
 96
       16
 40
0.0
 40
0.0
 40
0.0
 40
0.0
 40
1.0
 40
1.0
 40
1.0
 40
2.0
 40
2.0
 40
2.0
 40
3.0
 40
3.0
 40
3.0
 40
4.0
 40
4.0
 40
4.0
 40
5.0
 40
5.0
 40
5.0
 40
5.0
 10
93.2614908621013
 20
-115.0596435259226
 10
93.22325030221502
 20
-115.1082193722646
 10
93.16192760257758
 20
-115.1867675493283
 10
93.02240123542497
 20
-115.2966660953078
 10
93.10267196023128
 20
-115.3008002098901
 10
93.13229978140443
 20
-115.3008002098901
 10
93.15572643070414
 20
-115.3008002098901
 10
93.15572643070414
 20
-115.3008002098901
 10
93.3841362613762
 20
-115.3008002098901
 10
93.3841362613762
 20
-115.3008002098901
 10
93.41583113984049
 20
-115.3008002098901
 10
93.46440698618251
 20
-115.2987331525989
 10
93.53847653911538
 20
-115.2966660953078
 10
93.42651093584476
 20
-115.2225965423749
 10
93.37793508950274
 20
-115.176087753324
 10
93.2614908621013
 20
-115.0596435259226
 97
        0
 97
        0
 92
        1
 93
        1
 72
     4
 94
        3
 73
     0
 74
     1
 95
       17
 96
       13
 40
0.0
 40
0.0
 40
0.0
 40
0.0
 40
1.0
 40
1.0
 40
1.0
 40
2.0
 40
2.0
 40
2.0
 40
3.0
 40
3.0
 40
3.0
 40
4.0
 40
4.0
 40
4.0
 40
4.0
 10
93.82200789755144
 20
-116.1152207826031
 10
93.68661564498113
 20
-116.0032551793325
 10
93.58085121358395
 20
-115.9398654224039
 10
93.46233992889137
 20
-115.8761311559268
 10
93.46233992889137
 20
-115.8761311559268
 10
93.58946395229708
 20
-115.7641655526562
 10
93.58946395229708
 20
-115.7641655526562
 10
93.72037758073658
 20
-115.8106743417071
 10
93.83062063626457
 20
-115.8678629267622
 10
93.95533309283061
 20
-115.9694932435771
 10
93.95533309283061
 20
-115.9694932435771
 10
93.82200789755144
 20
-116.1152207826031
 10
93.82200789755144
 20
-116.1152207826031
 97
        0
 97
        0
 75
     2
 76
     1
 98
        0
  0
SPLINE
  5
5A
330
4E
100
AcDbEntity
  8
_U+30EC_U+30A4_U+30E4_U+30FC 1
370
     0
100
AcDbSpline
210
0.0
220
0.0
230
1.0
 70
    11
 71
     3
 72
   113
 73
   109
 74
     0
 42
0.0000000001
 43
0.0000000001
 12
1.0
 22
0.0
 32
0.0
 13
1.0
 23
0.0
 33
0.0
 40
0.0
 40
0.0
 40
0.0
 40
0.0
 40
1.0
 40
1.0
 40
1.0
 40
2.0
 40
2.0
 40
2.0
 40
3.0
 40
3.0
 40
3.0
 40
4.0
 40
4.0
 40
4.0
 40
5.0
 40
5.0
 40
5.0
 40
6.0
 40
6.0
 40
6.0
 40
7.0
 40
7.0
 40
7.0
 40
8.0
 40
8.0
 40
8.0
 40
9.0
 40
9.0
 40
9.0
 40
10.0
 40
10.0
 40
10.0
 40
11.0
 40
11.0
 40
11.0
 40
12.0
 40
12.0
 40
12.0
 40
13.0
 40
13.0
 40
13.0
 40
14.0
 40
14.0
 40
14.0
 40
15.0
 40
15.0
 40
15.0
 40
16.0
 40
16.0
 40
16.0
 40
17.0
 40
17.0
 40
17.0
 40
18.0
 40
18.0
 40
18.0
 40
19.0
 40
19.0
 40
19.0
 40
20.0
 40
20.0
 40
20.0
 40
21.0
 40
21.0
 40
21.0
 40
22.0
 40
22.0
 40
22.0
 40
23.0
 40
23.0
 40
23.0
 40
24.0
 40
24.0
 40
24.0
 40
25.0
 40
25.0
 40
25.0
 40
26.0
 40
26.0
 40
26.0
 40
27.0
 40
27.0
 40
27.0
 40
28.0
 40
28.0
 40
28.0
 40
29.0
 40
29.0
 40
29.0
 40
30.0
 40
30.0
 40
30.0
 40
31.0
 40
31.0
 40
31.0
 40
32.0
 40
32.0
 40
32.0
 40
33.0
 40
33.0
 40
33.0
 40
34.0
 40
34.0
 40
34.0
 40
35.0
 40
35.0
 40
35.0
 40
36.0
 40
36.0
 40
36.0
 40
36.0
 10
95.70165199430376
 20
-116.092138642852
 30
0.0
 10
95.70165199430376
 20
-116.092138642852
 30
0.0
 10
95.80121525382748
 20
-116.1913573928272
 30
0.0
 10
95.80121525382748
 20
-116.1913573928272
 30
0.0
 10
95.81189504983175
 20
-116.2020371888314
 30
0.0
 10
95.8222303362875
 20
-116.2147840421269
 30
0.0
 10
95.8222303362875
 20
-116.2295979527134
 30
0.0
 10
95.8222303362875
 20
-116.2316650100046
 30
0.0
 10
95.8222303362875
 20
-116.2612928311777
 30
0.0
 10
95.78433428594975
 20
-116.2612928311777
 30
0.0
 10
95.77572154723663
 20
-116.2612928311777
 30
0.0
 10
95.73575843960774
 20
-116.2571587165954
 30
0.0
 10
95.72921275818575
 20
-116.2571587165954
 30
0.0
 10
95.68924965055686
 20
-116.2888535950597
 30
0.0
 10
95.64239635195746
 20
-116.3226155308152
 30
0.0
 10
95.54317760198226
 20
-116.3798041158703
 30
0.0
 10
95.68924965055686
 20
-116.4876356045586
 30
0.0
 10
95.84772404287835
 20
-116.5448241896138
 30
0.0
 10
96.12057560531014
 20
-116.5827202399515
 30
0.0
 10
96.12057560531014
 20
-116.5827202399515
 30
0.0
 10
95.97036944215324
 20
-116.7584201096993
 30
0.0
 10
95.97036944215324
 20
-116.7584201096993
 30
0.0
 10
95.70819767572573
 20
-116.6864176140576
 30
0.0
 10
95.55144583114686
 20
-116.5975341505381
 30
0.0
 10
95.47530922092284
 20
-116.5448241896138
 30
0.0
 10
95.32510305776596
 20
-116.4431938727989
 30
0.0
 10
95.18144257603103
 20
-116.2802408563466
 30
0.0
 10
95.105305965807
 20
-116.1152207826031
 30
0.0
 10
95.0374375847476
 20
-116.1810221063714
 30
0.0
 10
94.96336803181472
 20
-116.2337320672957
 30
0.0
 10
94.88516436429954
 20
-116.2823079136378
 30
0.0
 10
94.88516436429954
 20
-116.2823079136378
 30
0.0
 10
94.88516436429954
 20
-116.5341443936095
 30
0.0
 10
94.88516436429954
 20
-116.5341443936095
 30
0.0
 10
95.04811738075186
 20
-116.5086506870187
 30
0.0
 10
95.23415253695535
 20
-116.464208955259
 30
0.0
 10
95.29788680343248
 20
-116.4493950446724
 30
0.0
 10
95.29788680343248
 20
-116.4493950446724
 30
0.0
 10
95.26825898225933
 20
-116.6188937425467
 30
0.0
 10
95.26825898225933
 20
-116.6188937425467
 30
0.0
 10
95.26584741541966
 20
-116.6188937425467
 30
0.0
 10
95.24689939025077
 20
-116.6250949144201
 30
0.0
 10
95.24483233295963
 20
-116.6250949144201
 30
0.0
 10
95.04605032346072
 20
-116.6633354743064
 30
0.0
 10
94.7287570292692
 20
-116.7287922885261
 30
0.0
 10
94.53204207706143
 20
-116.7646212815727
 30
0.0
 10
94.52136228105716
 20
-116.781846758999
 30
0.0
 10
94.49793563175747
 20
-116.8135416374633
 30
0.0
 10
94.47485349200629
 20
-116.8135416374633
 30
0.0
 10
94.4472927281243
 20
-116.8135416374633
 30
0.0
 10
94.443158613542
 20
-116.7942491027459
 30
0.0
 10
94.44109155625084
 20
-116.775301077577
 30
0.0
 10
94.44109155625084
 20
-116.775301077577
 30
0.0
 10
94.41559784965999
 20
-116.6020127746689
 30
0.0
 10
94.41559784965999
 20
-116.6020127746689
 30
0.0
 10
94.48966740259287
 20
-116.5934000359558
 30
0.0
 10
94.59749889128119
 20
-116.5806531826604
 30
0.0
 10
94.70533037996951
 20
-116.5596381002004
 30
0.0
 10
94.70533037996951
 20
-116.5596381002004
 30
0.0
 10
94.70533037996951
 20
-116.3818711731615
 30
0.0
 10
94.70533037996951
 20
-116.3818711731615
 30
0.0
 10
94.56166989823458
 20
-116.4538736688032
 30
0.0
 10
94.46624075329316
 20
-116.4835014899763
 30
0.0
 10
94.3012206795497
 20
-116.5131293111495
 30
0.0
 10
94.3012206795497
 20
-116.5131293111495
 30
0.0
 10
94.18064233756596
 20
-116.3436306132752
 30
0.0
 10
94.18064233756596
 20
-116.3436306132752
 30
0.0
 10
94.49793563175747
 20
-116.3164143589417
 30
0.0
 10
94.69051646938293
 20
-116.2230522712915
 30
0.0
 10
94.86828339642182
 20
-116.0900715855608
 30
0.0
 10
94.72221134784724
 20
-116.0900715855608
 30
0.0
 10
94.42179902153345
 20
-116.0942057001431
 30
0.0
 10
94.22508406932567
 20
-116.1004068720166
 30
0.0
 10
94.22508406932567
 20
-116.1004068720166
 30
0.0
 10
94.22508406932567
 20
-115.9226399449777
 30
0.0
 10
94.22508406932567
 20
-115.9226399449777
 30
0.0
 10
94.3797688566134
 20
-115.9291856263997
 30
0.0
 10
94.67570255879636
 20
-115.9353867982731
 30
0.0
 10
94.8596706577087
 20
-115.9353867982731
 30
0.0
 10
94.8596706577087
 20
-115.9353867982731
 30
0.0
 10
95.07154403005157
 20
-115.9353867982731
 30
0.0
 10
95.07154403005157
 20
-115.9353867982731
 30
0.0
 10
95.07154403005157
 20
-115.8403021628802
 30
0.0
 10
95.06913246321189
 20
-115.789659259247
 30
0.0
 10
95.06293129133844
 20
-115.7428059606476
 30
0.0
 10
95.06293129133844
 20
-115.7428059606476
 30
0.0
 10
95.27859426871508
 20
-115.7600314380739
 30
0.0
 10
95.27859426871508
 20
-115.7600314380739
 30
0.0
 10
95.32751462460563
 20
-115.7641655526562
 30
0.0
 10
95.33578285377023
 20
-115.7789794632428
 30
0.0
 10
95.33578285377023
 20
-115.7937933738293
 30
0.0
 10
95.33578285377023
 20
-115.8192870804202
 30
0.0
 10
95.3189018858925
 20
-115.8275553095848
 30
0.0
 10
95.26825898225933
 20
-115.8530490161756
 30
0.0
 10
95.26584741541966
 20
-115.8785427227665
 30
0.0
 10
95.26584741541966
 20
-115.8847438946399
 30
0.0
 10
95.2637803581285
 20
-115.9353867982731
 30
0.0
 10
95.2637803581285
 20
-115.9353867982731
 30
0.0
 10
95.49460175564025
 20
-115.9353867982731
 30
0.0
 10
95.49460175564025
 20
-115.9353867982731
 30
0.0
 10
95.65962182938371
 20
-115.9353867982731
 30
0.0
 10
95.95142141698437
 20
-115.9291856263997
 30
0.0
 10
96.13125540131442
 20
-115.9226399449777
 30
0.0
 10
96.13125540131442
 20
-115.9226399449777
 30
0.0
 10
96.13125540131442
 20
-116.1004068720166
 30
0.0
 10
96.13125540131442
 20
-116.1004068720166
 30
0.0
 10
96.00206432061755
 20
-116.0962727574343
 30
0.0
 10
95.97898218086637
 20
-116.0962727574343
 30
0.0
 10
95.70165199430376
 20
-116.092138642852
 30
0.0
  0
SPLINE
  5
5B
330
4E
100
AcDbEntity
  8
_U+30EC_U+30A4_U+30E4_U+30FC 1
370
     0
100
AcDbSpline
210
0.0
220
0.0
230
1.0
 70
    11
 71
     3
 72
    23
 73
    19
 74
     0
 42
0.0000000001
 43
0.0000000001
 12
1.0
 22
0.0
 32
0.0
 13
1.0
 23
0.0
 33
0.0
 40
0.0
 40
0.0
 40
0.0
 40
0.0
 40
1.0
 40
1.0
 40
1.0
 40
2.0
 40
2.0
 40
2.0
 40
3.0
 40
3.0
 40
3.0
 40
4.0
 40
4.0
 40
4.0
 40
5.0
 40
5.0
 40
5.0
 40
6.0
 40
6.0
 40
6.0
 40
6.0
 10
94.41766490695115
 20
-115.7407389033565
 30
0.0
 10
94.40078393907342
 20
-115.7810465205339
 30
0.0
 10
94.39458276719996
 20
-115.7979274884116
 30
0.0
 10
94.37322317519143
 20
-115.7979274884116
 30
0.0
 10
94.35840926460484
 20
-115.7979274884116
 30
0.0
 10
94.34772946860058
 20
-115.7810465205339
 30
0.0
 10
94.34152829672712
 20
-115.7682996672385
 30
0.0
 10
94.34152829672712
 20
-115.7682996672385
 30
0.0
 10
94.2419650372034
 20
-115.603279593495
 30
0.0
 10
94.2419650372034
 20
-115.603279593495
 30
0.0
 10
94.34359535401828
 20
-115.5715847150307
 30
0.0
 10
94.49380151717517
 20
-115.5164631872667
 30
0.0
 10
94.69258352667408
 20
-115.3538546803629
 30
0.0
 10
94.69258352667408
 20
-115.3538546803629
 30
0.0
 10
94.74977211172923
 20
-115.527142983271
 30
0.0
 10
94.74977211172923
 20
-115.527142983271
 30
0.0
 10
94.65675453362748
 20
-115.609825274917
 30
0.0
 10
94.56787107010804
 20
-115.6666693504236
 30
0.0
 10
94.41766490695115
 20
-115.7407389033565
 30
0.0
  0
SPLINE
  5
5C
330
4E
100
AcDbEntity
  8
_U+30EC_U+30A4_U+30E4_U+30FC 1
370
     0
100
AcDbSpline
210
0.0
220
0.0
230
1.0
 70
    11
 71
     3
 72
    17
 73
    13
 74
     0
 42
0.0000000001
 43
0.0000000001
 12
1.0
 22
0.0
 32
0.0
 13
1.0
 23
0.0
 33
0.0
 40
0.0
 40
0.0
 40
0.0
 40
0.0
 40
1.0
 40
1.0
 40
1.0
 40
2.0
 40
2.0
 40
2.0
 40
3.0
 40
3.0
 40
3.0
 40
4.0
 40
4.0
 40
4.0
 40
4.0
 10
94.56993812739918
 20
-115.2753065032992
 30
0.0
 10
94.54031030622603
 20
-115.2353433956703
 30
0.0
 10
94.47278643471515
 20
-115.1378471934378
 30
0.0
 10
94.29088539309394
 20
-115.0279486474583
 30
0.0
 10
94.29088539309394
 20
-115.0279486474583
 30
0.0
 10
94.41766490695115
 20
-114.8946234521791
 30
0.0
 10
94.41766490695115
 20
-114.8946234521791
 30
0.0
 10
94.60370006315463
 20
-114.996253768994
 30
0.0
 10
94.66088864820978
 20
-115.0851372325134
 30
0.0
 10
94.68844941209179
 20
-115.127511906982
 30
0.0
 10
94.68844941209179
 20
-115.127511906982
 30
0.0
 10
94.56993812739918
 20
-115.2753065032992
 30
0.0
 10
94.56993812739918
 20
-115.2753065032992
 30
0.0
  0
SPLINE
  5
5D
330
4E
100
AcDbEntity
  8
_U+30EC_U+30A4_U+30E4_U+30FC 1
370
     0
100
AcDbSpline
210
0.0
220
0.0
230
1.0
 70
    11
 71
     3
 72
    38
 73
    34
 74
     0
 42
0.0000000001
 43
0.0000000001
 12
1.0
 22
0.0
 32
0.0
 13
1.0
 23
0.0
 33
0.0
 40
0.0
 40
0.0
 40
0.0
 40
0.0
 40
1.0
 40
1.0
 40
1.0
 40
2.0
 40
2.0
 40
2.0
 40
3.0
 40
3.0
 40
3.0
 40
4.0
 40
4.0
 40
4.0
 40
5.0
 40
5.0
 40
5.0
 40
6.0
 40
6.0
 40
6.0
 40
7.0
 40
7.0
 40
7.0
 40
8.0
 40
8.0
 40
8.0
 40
9.0
 40
9.0
 40
9.0
 40
10.0
 40
10.0
 40
10.0
 40
11.0
 40
11.0
 40
11.0
 40
11.0
 10
94.9382188347724
 20
-114.9707600624031
 30
0.0
 10
94.93615177748124
 20
-115.017268851454
 30
0.0
 10
94.93374021064157
 20
-115.1337130788555
 30
0.0
 10
94.93374021064157
 20
-115.1781548106152
 30
0.0
 10
94.93374021064157
 20
-115.1781548106152
 30
0.0
 10
94.93374021064157
 20
-115.5250759259798
 30
0.0
 10
94.93374021064157
 20
-115.5250759259798
 30
0.0
 10
94.93374021064157
 20
-115.6118923322081
 30
0.0
 10
94.93615177748124
 20
-115.7534857566519
 30
0.0
 10
94.946487063937
 20
-115.8740640986357
 30
0.0
 10
94.946487063937
 20
-115.8740640986357
 30
0.0
 10
94.7563177931512
 20
-115.8740640986357
 30
0.0
 10
94.7563177931512
 20
-115.8740640986357
 30
0.0
 10
94.7604519077335
 20
-115.8106743417071
 30
0.0
 10
94.7645860223158
 20
-115.7576198712342
 30
0.0
 10
94.76665307960695
 20
-115.7028428530187
 30
0.0
 10
94.7687201368981
 20
-115.5801974537438
 30
0.0
 10
94.77113170373778
 20
-115.5653835431573
 30
0.0
 10
94.77113170373778
 20
-115.5209418113975
 30
0.0
 10
94.77113170373778
 20
-115.5209418113975
 30
0.0
 10
94.77113170373778
 20
-115.1991698930752
 30
0.0
 10
94.77113170373778
 20
-115.1991698930752
 30
0.0
 10
94.77113170373778
 20
-115.1443928748597
 30
0.0
 10
94.75838485044235
 20
-114.9053032481834
 30
0.0
 10
94.7563177931512
 20
-114.8543158350017
 30
0.0
 10
94.7563177931512
 20
-114.8543158350017
 30
0.0
 10
94.95716685994127
 20
-114.8818765988837
 30
0.0
 10
94.95716685994127
 20
-114.8818765988837
 30
0.0
 10
94.97818194240129
 20
-114.8839436561748
 30
0.0
 10
95.00987682086559
 20
-114.8884222803057
 30
0.0
 10
95.00987682086559
 20
-114.913571477348
 30
0.0
 10
95.00987682086559
 20
-114.94113224123
 30
0.0
 10
94.95923391723242
 20
-114.9624918332385
 30
0.0
 10
94.9382188347724
 20
-114.9707600624031
 30
0.0
  0
SPLINE
  5
5E
330
4E
100
AcDbEntity
  8
_U+30EC_U+30A4_U+30E4_U+30FC 1
370
     0
100
AcDbSpline
210
0.0
220
0.0
230
1.0
 70
    11
 71
     3
 72
    83
 73
    79
 74
     0
 42
0.0000000001
 43
0.0000000001
 12
1.0
 22
0.0
 32
0.0
 13
1.0
 23
0.0
 33
0.0
 40
0.0
 40
0.0
 40
0.0
 40
0.0
 40
1.0
 40
1.0
 40
1.0
 40
2.0
 40
2.0
 40
2.0
 40
3.0
 40
3.0
 40
3.0
 40
4.0
 40
4.0
 40
4.0
 40
5.0
 40
5.0
 40
5.0
 40
6.0
 40
6.0
 40
6.0
 40
7.0
 40
7.0
 40
7.0
 40
8.0
 40
8.0
 40
8.0
 40
9.0
 40
9.0
 40
9.0
 40
10.0
 40
10.0
 40
10.0
 40
11.0
 40
11.0
 40
11.0
 40
12.0
 40
12.0
 40
12.0
 40
13.0
 40
13.0
 40
13.0
 40
14.0
 40
14.0
 40
14.0
 40
15.0
 40
15.0
 40
15.0
 40
16.0
 40
16.0
 40
16.0
 40
17.0
 40
17.0
 40
17.0
 40
18.0
 40
18.0
 40
18.0
 40
19.0
 40
19.0
 40
19.0
 40
20.0
 40
20.0
 40
20.0
 40
21.0
 40
21.0
 40
21.0
 40
22.0
 40
22.0
 40
22.0
 40
23.0
 40
23.0
 40
23.0
 40
24.0
 40
24.0
 40
24.0
 40
25.0
 40
25.0
 40
25.0
 40
26.0
 40
26.0
 40
26.0
 40
26.0
 10
95.73989255419004
 20
-115.2925319807255
 30
0.0
 10
95.73989255419004
 20
-115.2925319807255
 30
0.0
 10
95.64239635195746
 20
-115.2925319807255
 30
0.0
 10
95.64239635195746
 20
-115.2925319807255
 30
0.0
 10
95.64239635195746
 20
-115.2925319807255
 30
0.0
 10
95.64239635195746
 20
-115.5398898365664
 30
0.0
 10
95.64239635195746
 20
-115.5398898365664
 30
0.0
 10
95.64239635195746
 20
-115.5398898365664
 30
0.0
 10
95.72507864360345
 20
-115.5398898365664
 30
0.0
 10
95.72507864360345
 20
-115.5398898365664
 30
0.0
 10
95.79053545782321
 20
-115.5398898365664
 30
0.0
 10
95.93040633452435
 20
-115.5357557219841
 30
0.0
 10
96.02962508449954
 20
-115.527142983271
 30
0.0
 10
96.02962508449954
 20
-115.527142983271
 30
0.0
 10
96.02962508449954
 20
-115.706976967601
 30
0.0
 10
96.02962508449954
 20
-115.706976967601
 30
0.0
 10
95.93660750639779
 20
-115.6987087384364
 30
0.0
 10
95.78640134324091
 20
-115.6942301143056
 30
0.0
 10
95.72507864360345
 20
-115.6942301143056
 30
0.0
 10
95.72507864360345
 20
-115.6942301143056
 30
0.0
 10
95.42053220270738
 20
-115.6942301143056
 30
0.0
 10
95.42053220270738
 20
-115.6942301143056
 30
0.0
 10
95.36747773223452
 20
-115.6942301143056
 30
0.0
 10
95.22175019320845
 20
-115.6987087384364
 30
0.0
 10
95.11564125226276
 20
-115.706976967601
 30
0.0
 10
95.11564125226276
 20
-115.706976967601
 30
0.0
 10
95.11564125226276
 20
-115.527142983271
 30
0.0
 10
95.11564125226276
 20
-115.527142983271
 30
0.0
 10
95.21520451178648
 20
-115.5357557219841
 30
0.0
 10
95.3547308789391
 20
-115.5398898365664
 30
0.0
 10
95.42053220270738
 20
-115.5398898365664
 30
0.0
 10
95.42053220270738
 20
-115.5398898365664
 30
0.0
 10
95.4649739344671
 20
-115.5398898365664
 30
0.0
 10
95.4649739344671
 20
-115.5398898365664
 30
0.0
 10
95.4649739344671
 20
-115.5398898365664
 30
0.0
 10
95.4649739344671
 20
-115.2925319807255
 30
0.0
 10
95.4649739344671
 20
-115.2925319807255
 30
0.0
 10
95.4649739344671
 20
-115.2925319807255
 30
0.0
 10
95.39090438153423
 20
-115.2925319807255
 30
0.0
 10
95.39090438153423
 20
-115.2925319807255
 30
0.0
 10
95.32958168189677
 20
-115.2925319807255
 30
0.0
 10
95.16249455086216
 20
-115.2966660953078
 30
0.0
 10
95.04191620887842
 20
-115.3049343244724
 30
0.0
 10
95.04191620887842
 20
-115.3049343244724
 30
0.0
 10
95.04191620887842
 20
-115.127511906982
 30
0.0
 10
95.04191620887842
 20
-115.127511906982
 30
0.0
 10
95.15594886944018
 20
-115.1337130788555
 30
0.0
 10
95.3147677713102
 20
-115.1378471934378
 30
0.0
 10
95.39090438153423
 20
-115.1378471934378
 30
0.0
 10
95.39090438153423
 20
-115.1378471934378
 30
0.0
 10
95.46290687717594
 20
-115.1378471934378
 30
0.0
 10
95.46290687717594
 20
-115.1378471934378
 30
0.0
 10
95.45842825304511
 20
-114.9855739729897
 30
0.0
 10
95.45636119575397
 20
-114.9518120372343
 30
0.0
 10
95.45016002388051
 20
-114.8587944591325
 30
0.0
 10
95.45016002388051
 20
-114.8587944591325
 30
0.0
 10
95.66168888667487
 20
-114.8818765988837
 30
0.0
 10
95.66168888667487
 20
-114.8818765988837
 30
0.0
 10
95.68683808371718
 20
-114.8839436561748
 30
0.0
 10
95.71026473301688
 20
-114.8884222803057
 30
0.0
 10
95.71026473301688
 20
-114.9115044200569
 30
0.0
 10
95.71026473301688
 20
-114.9431992985212
 30
0.0
 10
95.66582300125717
 20
-114.9600802663989
 30
0.0
 10
95.64239635195746
 20
-114.968693005112
 30
0.0
 10
95.64239635195746
 20
-114.968693005112
 30
0.0
 10
95.64239635195746
 20
-115.1378471934378
 30
0.0
 10
95.64239635195746
 20
-115.1378471934378
 30
0.0
 10
95.64239635195746
 20
-115.1378471934378
 30
0.0
 10
95.73989255419004
 20
-115.1378471934378
 30
0.0
 10
95.73989255419004
 20
-115.1378471934378
 30
0.0
 10
95.81602916441405
 20
-115.1378471934378
 30
0.0
 10
95.97484806628407
 20
-115.1337130788555
 30
0.0
 10
96.09094778413699
 20
-115.127511906982
 30
0.0
 10
96.09094778413699
 20
-115.127511906982
 30
0.0
 10
96.09094778413699
 20
-115.3049343244724
 30
0.0
 10
96.09094778413699
 20
-115.3049343244724
 30
0.0
 10
95.98311629544867
 20
-115.2987331525989
 30
0.0
 10
95.8098279925406
 20
-115.2925319807255
 30
0.0
 10
95.73989255419004
 20
-115.2925319807255
 30
0.0
  0
SPLINE
  5
5F
330
4E
100
AcDbEntity
  8
_U+30EC_U+30A4_U+30E4_U+30FC 1
370
     0
100
AcDbSpline
210
0.0
220
0.0
230
1.0
 70
    11
 71
     3
 72
    17
 73
    13
 74
     0
 42
0.0000000001
 43
0.0000000001
 12
1.0
 22
0.0
 32
0.0
 13
1.0
 23
0.0
 33
0.0
 40
0.0
 40
0.0
 40
0.0
 40
0.0
 40
1.0
 40
1.0
 40
1.0
 40
2.0
 40
2.0
 40
2.0
 40
3.0
 40
3.0
 40
3.0
 40
4.0
 40
4.0
 40
4.0
 40
4.0
 10
95.49460175564025
 20
-116.0900715855608
 30
0.0
 10
95.49460175564025
 20
-116.0900715855608
 30
0.0
 10
95.29134112201051
 20
-116.0900715855608
 30
0.0
 10
95.29134112201051
 20
-116.0900715855608
 30
0.0
 10
95.3189018858925
 20
-116.1493272279071
 30
0.0
 10
95.3740234136565
 20
-116.2209852140003
 30
0.0
 10
95.40123966798997
 20
-116.2506130351735
 30
0.0
 10
95.42880043187198
 20
-116.2357991245869
 30
0.0
 10
95.54317760198226
 20
-116.1724093676583
 30
0.0
 10
95.63412812279286
 20
-116.0900715855608
 30
0.0
 10
95.63412812279286
 20
-116.0900715855608
 30
0.0
 10
95.49460175564025
 20
-116.0900715855608
 30
0.0
 10
95.49460175564025
 20
-116.0900715855608
 30
0.0
  0
HATCH
  5
60
330
4E
100
AcDbEntity
  8
_U+30EC_U+30A4_U+30E4_U+30FC 1
 62
   179
420
  2234388
100
AcDbHatch
 10
0.0
 20
0.0
 30
0.0
210
0.0
220
0.0
230
1.0
  2
SOLID
 70
     1
 71
     0
 91
        6
 92
        1
 93
        1
 72
     4
 94
        3
 73
     0
 74
     1
 95
      113
 96
      109
 40
0.0
 40
0.0
 40
0.0
 40
0.0
 40
1.0
 40
1.0
 40
1.0
 40
2.0
 40
2.0
 40
2.0
 40
3.0
 40
3.0
 40
3.0
 40
4.0
 40
4.0
 40
4.0
 40
5.0
 40
5.0
 40
5.0
 40
6.0
 40
6.0
 40
6.0
 40
7.0
 40
7.0
 40
7.0
 40
8.0
 40
8.0
 40
8.0
 40
9.0
 40
9.0
 40
9.0
 40
10.0
 40
10.0
 40
10.0
 40
11.0
 40
11.0
 40
11.0
 40
12.0
 40
12.0
 40
12.0
 40
13.0
 40
13.0
 40
13.0
 40
14.0
 40
14.0
 40
14.0
 40
15.0
 40
15.0
 40
15.0
 40
16.0
 40
16.0
 40
16.0
 40
17.0
 40
17.0
 40
17.0
 40
18.0
 40
18.0
 40
18.0
 40
19.0
 40
19.0
 40
19.0
 40
20.0
 40
20.0
 40
20.0
 40
21.0
 40
21.0
 40
21.0
 40
22.0
 40
22.0
 40
22.0
 40
23.0
 40
23.0
 40
23.0
 40
24.0
 40
24.0
 40
24.0
 40
25.0
 40
25.0
 40
25.0
 40
26.0
 40
26.0
 40
26.0
 40
27.0
 40
27.0
 40
27.0
 40
28.0
 40
28.0
 40
28.0
 40
29.0
 40
29.0
 40
29.0
 40
30.0
 40
30.0
 40
30.0
 40
31.0
 40
31.0
 40
31.0
 40
32.0
 40
32.0
 40
32.0
 40
33.0
 40
33.0
 40
33.0
 40
34.0
 40
34.0
 40
34.0
 40
35.0
 40
35.0
 40
35.0
 40
36.0
 40
36.0
 40
36.0
 40
36.0
 10
95.70165199430376
 20
-116.092138642852
 10
95.70165199430376
 20
-116.092138642852
 10
95.80121525382748
 20
-116.1913573928272
 10
95.80121525382748
 20
-116.1913573928272
 10
95.81189504983175
 20
-116.2020371888314
 10
95.8222303362875
 20
-116.2147840421269
 10
95.8222303362875
 20
-116.2295979527134
 10
95.8222303362875
 20
-116.2316650100046
 10
95.8222303362875
 20
-116.2612928311777
 10
95.78433428594975
 20
-116.2612928311777
 10
95.77572154723663
 20
-116.2612928311777
 10
95.73575843960774
 20
-116.2571587165954
 10
95.72921275818575
 20
-116.2571587165954
 10
95.68924965055686
 20
-116.2888535950597
 10
95.64239635195746
 20
-116.3226155308152
 10
95.54317760198226
 20
-116.3798041158703
 10
95.68924965055686
 20
-116.4876356045586
 10
95.84772404287835
 20
-116.5448241896138
 10
96.12057560531014
 20
-116.5827202399515
 10
96.12057560531014
 20
-116.5827202399515
 10
95.97036944215324
 20
-116.7584201096993
 10
95.97036944215324
 20
-116.7584201096993
 10
95.70819767572573
 20
-116.6864176140576
 10
95.55144583114686
 20
-116.5975341505381
 10
95.47530922092284
 20
-116.5448241896138
 10
95.32510305776596
 20
-116.4431938727989
 10
95.18144257603103
 20
-116.2802408563466
 10
95.105305965807
 20
-116.1152207826031
 10
95.0374375847476
 20
-116.1810221063714
 10
94.96336803181472
 20
-116.2337320672957
 10
94.88516436429954
 20
-116.2823079136378
 10
94.88516436429954
 20
-116.2823079136378
 10
94.88516436429954
 20
-116.5341443936095
 10
94.88516436429954
 20
-116.5341443936095
 10
95.04811738075186
 20
-116.5086506870187
 10
95.23415253695535
 20
-116.464208955259
 10
95.29788680343248
 20
-116.4493950446724
 10
95.29788680343248
 20
-116.4493950446724
 10
95.26825898225933
 20
-116.6188937425467
 10
95.26825898225933
 20
-116.6188937425467
 10
95.26584741541966
 20
-116.6188937425467
 10
95.24689939025077
 20
-116.6250949144201
 10
95.24483233295963
 20
-116.6250949144201
 10
95.04605032346072
 20
-116.6633354743064
 10
94.7287570292692
 20
-116.7287922885261
 10
94.53204207706143
 20
-116.7646212815727
 10
94.52136228105716
 20
-116.781846758999
 10
94.49793563175747
 20
-116.8135416374633
 10
94.47485349200629
 20
-116.8135416374633
 10
94.4472927281243
 20
-116.8135416374633
 10
94.443158613542
 20
-116.7942491027459
 10
94.44109155625084
 20
-116.775301077577
 10
94.44109155625084
 20
-116.775301077577
 10
94.41559784965999
 20
-116.6020127746689
 10
94.41559784965999
 20
-116.6020127746689
 10
94.48966740259287
 20
-116.5934000359558
 10
94.59749889128119
 20
-116.5806531826604
 10
94.70533037996951
 20
-116.5596381002004
 10
94.70533037996951
 20
-116.5596381002004
 10
94.70533037996951
 20
-116.3818711731615
 10
94.70533037996951
 20
-116.3818711731615
 10
94.56166989823458
 20
-116.4538736688032
 10
94.46624075329316
 20
-116.4835014899763
 10
94.3012206795497
 20
-116.5131293111495
 10
94.3012206795497
 20
-116.5131293111495
 10
94.18064233756596
 20
-116.3436306132752
 10
94.18064233756596
 20
-116.3436306132752
 10
94.49793563175747
 20
-116.3164143589417
 10
94.69051646938293
 20
-116.2230522712915
 10
94.86828339642182
 20
-116.0900715855608
 10
94.72221134784724
 20
-116.0900715855608
 10
94.42179902153345
 20
-116.0942057001431
 10
94.22508406932567
 20
-116.1004068720166
 10
94.22508406932567
 20
-116.1004068720166
 10
94.22508406932567
 20
-115.9226399449777
 10
94.22508406932567
 20
-115.9226399449777
 10
94.3797688566134
 20
-115.9291856263997
 10
94.67570255879636
 20
-115.9353867982731
 10
94.8596706577087
 20
-115.9353867982731
 10
94.8596706577087
 20
-115.9353867982731
 10
95.07154403005157
 20
-115.9353867982731
 10
95.07154403005157
 20
-115.9353867982731
 10
95.07154403005157
 20
-115.8403021628802
 10
95.06913246321189
 20
-115.789659259247
 10
95.06293129133844
 20
-115.7428059606476
 10
95.06293129133844
 20
-115.7428059606476
 10
95.27859426871508
 20
-115.7600314380739
 10
95.27859426871508
 20
-115.7600314380739
 10
95.32751462460563
 20
-115.7641655526562
 10
95.33578285377023
 20
-115.7789794632428
 10
95.33578285377023
 20
-115.7937933738293
 10
95.33578285377023
 20
-115.8192870804202
 10
95.3189018858925
 20
-115.8275553095848
 10
95.26825898225933
 20
-115.8530490161756
 10
95.26584741541966
 20
-115.8785427227665
 10
95.26584741541966
 20
-115.8847438946399
 10
95.2637803581285
 20
-115.9353867982731
 10
95.2637803581285
 20
-115.9353867982731
 10
95.49460175564025
 20
-115.9353867982731
 10
95.49460175564025
 20
-115.9353867982731
 10
95.65962182938371
 20
-115.9353867982731
 10
95.95142141698437
 20
-115.9291856263997
 10
96.13125540131442
 20
-115.9226399449777
 10
96.13125540131442
 20
-115.9226399449777
 10
96.13125540131442
 20
-116.1004068720166
 10
96.13125540131442
 20
-116.1004068720166
 10
96.00206432061755
 20
-116.0962727574343
 10
95.97898218086637
 20
-116.0962727574343
 10
95.70165199430376
 20
-116.092138642852
 97
        0
 97
        0
 92
        1
 93
        1
 72
     4
 94
        3
 73
     0
 74
     1
 95
       23
 96
       19
 40
0.0
 40
0.0
 40
0.0
 40
0.0
 40
1.0
 40
1.0
 40
1.0
 40
2.0
 40
2.0
 40
2.0
 40
3.0
 40
3.0
 40
3.0
 40
4.0
 40
4.0
 40
4.0
 40
5.0
 40
5.0
 40
5.0
 40
6.0
 40
6.0
 40
6.0
 40
6.0
 10
94.41766490695115
 20
-115.7407389033565
 10
94.40078393907342
 20
-115.7810465205339
 10
94.39458276719996
 20
-115.7979274884116
 10
94.37322317519143
 20
-115.7979274884116
 10
94.35840926460484
 20
-115.7979274884116
 10
94.34772946860058
 20
-115.7810465205339
 10
94.34152829672712
 20
-115.7682996672385
 10
94.34152829672712
 20
-115.7682996672385
 10
94.2419650372034
 20
-115.603279593495
 10
94.2419650372034
 20
-115.603279593495
 10
94.34359535401828
 20
-115.5715847150307
 10
94.49380151717517
 20
-115.5164631872667
 10
94.69258352667408
 20
-115.3538546803629
 10
94.69258352667408
 20
-115.3538546803629
 10
94.74977211172923
 20
-115.527142983271
 10
94.74977211172923
 20
-115.527142983271
 10
94.65675453362748
 20
-115.609825274917
 10
94.56787107010804
 20
-115.6666693504236
 10
94.41766490695115
 20
-115.7407389033565
 97
        0
 97
        0
 92
        1
 93
        1
 72
     4
 94
        3
 73
     0
 74
     1
 95
       17
 96
       13
 40
0.0
 40
0.0
 40
0.0
 40
0.0
 40
1.0
 40
1.0
 40
1.0
 40
2.0
 40
2.0
 40
2.0
 40
3.0
 40
3.0
 40
3.0
 40
4.0
 40
4.0
 40
4.0
 40
4.0
 10
94.56993812739918
 20
-115.2753065032992
 10
94.54031030622603
 20
-115.2353433956703
 10
94.47278643471515
 20
-115.1378471934378
 10
94.29088539309394
 20
-115.0279486474583
 10
94.29088539309394
 20
-115.0279486474583
 10
94.41766490695115
 20
-114.8946234521791
 10
94.41766490695115
 20
-114.8946234521791
 10
94.60370006315463
 20
-114.996253768994
 10
94.66088864820978
 20
-115.0851372325134
 10
94.68844941209179
 20
-115.127511906982
 10
94.68844941209179
 20
-115.127511906982
 10
94.56993812739918
 20
-115.2753065032992
 10
94.56993812739918
 20
-115.2753065032992
 97
        0
 97
        0
 92
        1
 93
        1
 72
     4
 94
        3
 73
     0
 74
     1
 95
       38
 96
       34
 40
0.0
 40
0.0
 40
0.0
 40
0.0
 40
1.0
 40
1.0
 40
1.0
 40
2.0
 40
2.0
 40
2.0
 40
3.0
 40
3.0
 40
3.0
 40
4.0
 40
4.0
 40
4.0
 40
5.0
 40
5.0
 40
5.0
 40
6.0
 40
6.0
 40
6.0
 40
7.0
 40
7.0
 40
7.0
 40
8.0
 40
8.0
 40
8.0
 40
9.0
 40
9.0
 40
9.0
 40
10.0
 40
10.0
 40
10.0
 40
11.0
 40
11.0
 40
11.0
 40
11.0
 10
94.9382188347724
 20
-114.9707600624031
 10
94.93615177748124
 20
-115.017268851454
 10
94.93374021064157
 20
-115.1337130788555
 10
94.93374021064157
 20
-115.1781548106152
 10
94.93374021064157
 20
-115.1781548106152
 10
94.93374021064157
 20
-115.5250759259798
 10
94.93374021064157
 20
-115.5250759259798
 10
94.93374021064157
 20
-115.6118923322081
 10
94.93615177748124
 20
-115.7534857566519
 10
94.946487063937
 20
-115.8740640986357
 10
94.946487063937
 20
-115.8740640986357
 10
94.7563177931512
 20
-115.8740640986357
 10
94.7563177931512
 20
-115.8740640986357
 10
94.7604519077335
 20
-115.8106743417071
 10
94.7645860223158
 20
-115.7576198712342
 10
94.76665307960695
 20
-115.7028428530187
 10
94.7687201368981
 20
-115.5801974537438
 10
94.77113170373778
 20
-115.5653835431573
 10
94.77113170373778
 20
-115.5209418113975
 10
94.77113170373778
 20
-115.5209418113975
 10
94.77113170373778
 20
-115.1991698930752
 10
94.77113170373778
 20
-115.1991698930752
 10
94.77113170373778
 20
-115.1443928748597
 10
94.75838485044235
 20
-114.9053032481834
 10
94.7563177931512
 20
-114.8543158350017
 10
94.7563177931512
 20
-114.8543158350017
 10
94.95716685994127
 20
-114.8818765988837
 10
94.95716685994127
 20
-114.8818765988837
 10
94.97818194240129
 20
-114.8839436561748
 10
95.00987682086559
 20
-114.8884222803057
 10
95.00987682086559
 20
-114.913571477348
 10
95.00987682086559
 20
-114.94113224123
 10
94.95923391723242
 20
-114.9624918332385
 10
94.9382188347724
 20
-114.9707600624031
 97
        0
 97
        0
 92
        1
 93
        1
 72
     4
 94
        3
 73
     0
 74
     1
 95
       83
 96
       79
 40
0.0
 40
0.0
 40
0.0
 40
0.0
 40
1.0
 40
1.0
 40
1.0
 40
2.0
 40
2.0
 40
2.0
 40
3.0
 40
3.0
 40
3.0
 40
4.0
 40
4.0
 40
4.0
 40
5.0
 40
5.0
 40
5.0
 40
6.0
 40
6.0
 40
6.0
 40
7.0
 40
7.0
 40
7.0
 40
8.0
 40
8.0
 40
8.0
 40
9.0
 40
9.0
 40
9.0
 40
10.0
 40
10.0
 40
10.0
 40
11.0
 40
11.0
 40
11.0
 40
12.0
 40
12.0
 40
12.0
 40
13.0
 40
13.0
 40
13.0
 40
14.0
 40
14.0
 40
14.0
 40
15.0
 40
15.0
 40
15.0
 40
16.0
 40
16.0
 40
16.0
 40
17.0
 40
17.0
 40
17.0
 40
18.0
 40
18.0
 40
18.0
 40
19.0
 40
19.0
 40
19.0
 40
20.0
 40
20.0
 40
20.0
 40
21.0
 40
21.0
 40
21.0
 40
22.0
 40
22.0
 40
22.0
 40
23.0
 40
23.0
 40
23.0
 40
24.0
 40
24.0
 40
24.0
 40
25.0
 40
25.0
 40
25.0
 40
26.0
 40
26.0
 40
26.0
 40
26.0
 10
95.73989255419004
 20
-115.2925319807255
 10
95.73989255419004
 20
-115.2925319807255
 10
95.64239635195746
 20
-115.2925319807255
 10
95.64239635195746
 20
-115.2925319807255
 10
95.64239635195746
 20
-115.2925319807255
 10
95.64239635195746
 20
-115.5398898365664
 10
95.64239635195746
 20
-115.5398898365664
 10
95.64239635195746
 20
-115.5398898365664
 10
95.72507864360345
 20
-115.5398898365664
 10
95.72507864360345
 20
-115.5398898365664
 10
95.79053545782321
 20
-115.5398898365664
 10
95.93040633452435
 20
-115.5357557219841
 10
96.02962508449954
 20
-115.527142983271
 10
96.02962508449954
 20
-115.527142983271
 10
96.02962508449954
 20
-115.706976967601
 10
96.02962508449954
 20
-115.706976967601
 10
95.93660750639779
 20
-115.6987087384364
 10
95.78640134324091
 20
-115.6942301143056
 10
95.72507864360345
 20
-115.6942301143056
 10
95.72507864360345
 20
-115.6942301143056
 10
95.42053220270738
 20
-115.6942301143056
 10
95.42053220270738
 20
-115.6942301143056
 10
95.36747773223452
 20
-115.6942301143056
 10
95.22175019320845
 20
-115.6987087384364
 10
95.11564125226276
 20
-115.706976967601
 10
95.11564125226276
 20
-115.706976967601
 10
95.11564125226276
 20
-115.527142983271
 10
95.11564125226276
 20
-115.527142983271
 10
95.21520451178648
 20
-115.5357557219841
 10
95.3547308789391
 20
-115.5398898365664
 10
95.42053220270738
 20
-115.5398898365664
 10
95.42053220270738
 20
-115.5398898365664
 10
95.4649739344671
 20
-115.5398898365664
 10
95.4649739344671
 20
-115.5398898365664
 10
95.4649739344671
 20
-115.5398898365664
 10
95.4649739344671
 20
-115.2925319807255
 10
95.4649739344671
 20
-115.2925319807255
 10
95.4649739344671
 20
-115.2925319807255
 10
95.39090438153423
 20
-115.2925319807255
 10
95.39090438153423
 20
-115.2925319807255
 10
95.32958168189677
 20
-115.2925319807255
 10
95.16249455086216
 20
-115.2966660953078
 10
95.04191620887842
 20
-115.3049343244724
 10
95.04191620887842
 20
-115.3049343244724
 10
95.04191620887842
 20
-115.127511906982
 10
95.04191620887842
 20
-115.127511906982
 10
95.15594886944018
 20
-115.1337130788555
 10
95.3147677713102
 20
-115.1378471934378
 10
95.39090438153423
 20
-115.1378471934378
 10
95.39090438153423
 20
-115.1378471934378
 10
95.46290687717594
 20
-115.1378471934378
 10
95.46290687717594
 20
-115.1378471934378
 10
95.45842825304511
 20
-114.9855739729897
 10
95.45636119575397
 20
-114.9518120372343
 10
95.45016002388051
 20
-114.8587944591325
 10
95.45016002388051
 20
-114.8587944591325
 10
95.66168888667487
 20
-114.8818765988837
 10
95.66168888667487
 20
-114.8818765988837
 10
95.68683808371718
 20
-114.8839436561748
 10
95.71026473301688
 20
-114.8884222803057
 10
95.71026473301688
 20
-114.9115044200569
 10
95.71026473301688
 20
-114.9431992985212
 10
95.66582300125717
 20
-114.9600802663989
 10
95.64239635195746
 20
-114.968693005112
 10
95.64239635195746
 20
-114.968693005112
 10
95.64239635195746
 20
-115.1378471934378
 10
95.64239635195746
 20
-115.1378471934378
 10
95.64239635195746
 20
-115.1378471934378
 10
95.73989255419004
 20
-115.1378471934378
 10
95.73989255419004
 20
-115.1378471934378
 10
95.81602916441405
 20
-115.1378471934378
 10
95.97484806628407
 20
-115.1337130788555
 10
96.09094778413699
 20
-115.127511906982
 10
96.09094778413699
 20
-115.127511906982
 10
96.09094778413699
 20
-115.3049343244724
 10
96.09094778413699
 20
-115.3049343244724
 10
95.98311629544867
 20
-115.2987331525989
 10
95.8098279925406
 20
-115.2925319807255
 10
95.73989255419004
 20
-115.2925319807255
 97
        0
 97
        0
 92
        1
 93
        1
 72
     4
 94
        3
 73
     0
 74
     1
 95
       17
 96
       13
 40
0.0
 40
0.0
 40
0.0
 40
0.0
 40
1.0
 40
1.0
 40
1.0
 40
2.0
 40
2.0
 40
2.0
 40
3.0
 40
3.0
 40
3.0
 40
4.0
 40
4.0
 40
4.0
 40
4.0
 10
95.49460175564025
 20
-116.0900715855608
 10
95.49460175564025
 20
-116.0900715855608
 10
95.29134112201051
 20
-116.0900715855608
 10
95.29134112201051
 20
-116.0900715855608
 10
95.3189018858925
 20
-116.1493272279071
 10
95.3740234136565
 20
-116.2209852140003
 10
95.40123966798997
 20
-116.2506130351735
 10
95.42880043187198
 20
-116.2357991245869
 10
95.54317760198226
 20
-116.1724093676583
 10
95.63412812279286
 20
-116.0900715855608
 10
95.63412812279286
 20
-116.0900715855608
 10
95.49460175564025
 20
-116.0900715855608
 10
95.49460175564025
 20
-116.0900715855608
 97
        0
 97
        0
 75
     2
 76
     1
 98
        0
  0
SPLINE
  5
61
330
4E
100
AcDbEntity
  8
_U+30EC_U+30A4_U+30E4_U+30FC 1
370
     0
100
AcDbSpline
210
0.0
220
0.0
230
1.0
 70
    11
 71
     3
 72
    77
 73
    73
 74
     0
 42
0.0000000001
 43
0.0000000001
 12
1.0
 22
0.0
 32
0.0
 13
1.0
 23
0.0
 33
0.0
 40
0.0
 40
0.0
 40
0.0
 40
0.0
 40
1.0
 40
1.0
 40
1.0
 40
2.0
 40
2.0
 40
2.0
 40
3.0
 40
3.0
 40
3.0
 40
4.0
 40
4.0
 40
4.0
 40
5.0
 40
5.0
 40
5.0
 40
6.0
 40
6.0
 40
6.0
 40
7.0
 40
7.0
 40
7.0
 40
8.0
 40
8.0
 40
8.0
 40
9.0
 40
9.0
 40
9.0
 40
10.0
 40
10.0
 40
10.0
 40
11.0
 40
11.0
 40
11.0
 40
12.0
 40
12.0
 40
12.0
 40
13.0
 40
13.0
 40
13.0
 40
14.0
 40
14.0
 40
14.0
 40
15.0
 40
15.0
 40
15.0
 40
16.0
 40
16.0
 40
16.0
 40
17.0
 40
17.0
 40
17.0
 40
18.0
 40
18.0
 40
18.0
 40
19.0
 40
19.0
 40
19.0
 40
20.0
 40
20.0
 40
20.0
 40
21.0
 40
21.0
 40
21.0
 40
22.0
 40
22.0
 40
22.0
 40
23.0
 40
23.0
 40
23.0
 40
24.0
 40
24.0
 40
24.0
 40
24.0
 10
97.9857503010244
 20
-116.720179549813
 30
0.0
 10
97.93924151197352
 20
-116.7456732564039
 30
0.0
 10
97.81418454585896
 20
-116.7584201096993
 30
0.0
 10
97.73598087834378
 20
-116.7584201096993
 30
0.0
 10
97.72323402504836
 20
-116.7584201096993
 30
0.0
 10
97.69808482800605
 20
-116.7584201096993
 30
0.0
 10
97.66397838270207
 20
-116.754285995117
 30
0.0
 10
97.66397838270207
 20
-116.754285995117
 30
0.0
 10
97.56682669001802
 20
-116.5279432217361
 30
0.0
 10
97.56682669001802
 20
-116.5279432217361
 30
0.0
 10
97.59645451119117
 20
-116.5341443936095
 30
0.0
 10
97.65364309624631
 20
-116.5427571323226
 30
0.0
 10
97.76974281409923
 20
-116.5427571323226
 30
0.0
 10
97.84829099116293
 20
-116.5427571323226
 30
0.0
 10
97.85035804845408
 20
-116.5003824578541
 30
0.0
 10
97.85035804845408
 20
-116.4431938727989
 30
0.0
 10
97.85035804845408
 20
-116.4431938727989
 30
0.0
 10
97.85035804845408
 20
-116.0942057001431
 30
0.0
 10
97.85035804845408
 20
-116.0942057001431
 30
0.0
 10
97.85035804845408
 20
-116.0942057001431
 30
0.0
 10
97.39112682027027
 20
-116.0942057001431
 30
0.0
 10
97.39112682027027
 20
-116.0942057001431
 30
0.0
 10
97.39319387756143
 20
-116.2316650100046
 30
0.0
 10
97.3956054444011
 20
-116.4304470195035
 30
0.0
 10
97.40180661627456
 20
-116.5637722147827
 30
0.0
 10
97.4038736735657
 20
-116.5913329786647
 30
0.0
 10
97.4038736735657
 20
-116.6357747104244
 30
0.0
 10
97.41662052686112
 20
-116.6970974100618
 30
0.0
 10
97.41662052686112
 20
-116.6970974100618
 30
0.0
 10
97.17546384289363
 20
-116.6970974100618
 30
0.0
 10
97.17546384289363
 20
-116.6970974100618
 30
0.0
 10
97.20095754948449
 20
-116.5723849534958
 30
0.0
 10
97.20095754948449
 20
-116.2316650100046
 30
0.0
 10
97.20095754948449
 20
-116.0942057001431
 30
0.0
 10
97.20095754948449
 20
-116.0942057001431
 30
0.0
 10
96.75860728917841
 20
-116.0942057001431
 30
0.0
 10
96.75860728917841
 20
-116.0942057001431
 30
0.0
 10
96.73552514942723
 20
-116.3016004483552
 30
0.0
 10
96.66972382565896
 20
-116.5699733866561
 30
0.0
 10
96.47300887345119
 20
-116.754285995117
 30
0.0
 10
96.47300887345119
 20
-116.754285995117
 30
0.0
 10
96.28490665995656
 20
-116.6316405958421
 30
0.0
 10
96.28490665995656
 20
-116.6316405958421
 30
0.0
 10
96.53881019721946
 20
-116.4114989943346
 30
0.0
 10
96.57050507568377
 20
-116.0793917895566
 30
0.0
 10
96.57050507568377
 20
-115.7472845847785
 30
0.0
 10
96.57050507568377
 20
-115.7472845847785
 30
0.0
 10
96.57050507568377
 20
-115.3114800058944
 30
0.0
 10
96.57050507568377
 20
-115.3114800058944
 30
0.0
 10
96.57050507568377
 20
-115.2753065032992
 30
0.0
 10
96.56843801839261
 20
-115.0427625580449
 30
0.0
 10
96.55982527967949
 20
-114.94113224123
 30
0.0
 10
96.69935164683211
 20
-114.9518120372343
 30
0.0
 10
96.9405083307996
 20
-114.9518120372343
 30
0.0
 10
97.08451332208304
 20
-114.9518120372343
 30
0.0
 10
97.08451332208304
 20
-114.9518120372343
 30
0.0
 10
97.54340004071832
 20
-114.9518120372343
 30
0.0
 10
97.54340004071832
 20
-114.9518120372343
 30
0.0
 10
97.5582139513049
 20
-114.9518120372343
 30
0.0
 10
97.90754663350923
 20
-114.9518120372343
 30
0.0
 10
98.06602102583072
 20
-114.94113224123
 30
0.0
 10
98.06395396853956
 20
-114.9941867117029
 30
0.0
 10
98.05775279666612
 20
-115.1547281613155
 30
0.0
 10
98.05775279666612
 20
-115.2057155744972
 30
0.0
 10
98.05775279666612
 20
-115.2057155744972
 30
0.0
 10
98.05775279666612
 20
-115.8127413989982
 30
0.0
 10
98.05775279666612
 20
-115.8127413989982
 30
0.0
 10
98.05775279666612
 20
-115.8316894241671
 30
0.0
 10
98.06808808312186
 20
-116.4028862556215
 30
0.0
 10
98.06808808312186
 20
-116.5151963684407
 30
0.0
 10
98.06808808312186
 20
-116.5723849534958
 30
0.0
 10
98.06808808312186
 20
-116.6736707607621
 30
0.0
 10
97.9857503010244
 20
-116.720179549813
 30
0.0
  0
POLYLINE
  5
62
330
4E
100
AcDbEntity
  8
_U+30EC_U+30A4_U+30E4_U+30FC 1
370
     0
100
AcDb2dPolyline
 66
     1
 10
0.0
 20
0.0
 30
0.0
  0
VERTEX
  5
63
330
62
100
AcDbEntity
  8
_U+30EC_U+30A4_U+30E4_U+30FC 1
370
     0
100
AcDbVertex
100
AcDb2dVertex
 10
97.20095754948449
 20
-115.1337130788555
 30
0.0
  0
VERTEX
  5
64
330
62
100
AcDbEntity
  8
_U+30EC_U+30A4_U+30E4_U+30FC 1
370
     0
100
AcDbVertex
100
AcDb2dVertex
 10
96.76274140376071
 20
-115.1337130788555
 30
0.0
  0
VERTEX
  5
65
330
62
100
AcDbEntity
  8
_U+30EC_U+30A4_U+30E4_U+30FC 1
370
     0
100
AcDbVertex
100
AcDb2dVertex
 10
96.76274140376071
 20
-115.4382595197516
 30
0.0
  0
VERTEX
  5
66
330
62
100
AcDbEntity
  8
_U+30EC_U+30A4_U+30E4_U+30FC 1
370
     0
100
AcDbVertex
100
AcDb2dVertex
 10
97.20095754948449
 20
-115.4382595197516
 30
0.0
  0
VERTEX
  5
67
330
62
100
AcDbEntity
  8
_U+30EC_U+30A4_U+30E4_U+30FC 1
370
     0
100
AcDbVertex
100
AcDb2dVertex
 10
97.20095754948449
 20
-115.1337130788555
 30
0.0
  0
SEQEND
  5
68
330
62
100
AcDbEntity
  8
_U+30EC_U+30A4_U+30E4_U+30FC 1
370
     0
  0
POLYLINE
  5
69
330
4E
100
AcDbEntity
  8
_U+30EC_U+30A4_U+30E4_U+30FC 1
370
     0
100
AcDb2dPolyline
 66
     1
 10
0.0
 20
0.0
 30
0.0
  0
VERTEX
  5
6A
330
69
100
AcDbEntity
  8
_U+30EC_U+30A4_U+30E4_U+30FC 1
370
     0
100
AcDbVertex
100
AcDb2dVertex
 10
97.20095754948449
 20
-115.6053466507862
 30
0.0
  0
VERTEX
  5
6B
330
69
100
AcDbEntity
  8
_U+30EC_U+30A4_U+30E4_U+30FC 1
370
     0
100
AcDbVertex
100
AcDb2dVertex
 10
96.76274140376071
 20
-115.6053466507862
 30
0.0
  0
VERTEX
  5
6C
330
69
100
AcDbEntity
  8
_U+30EC_U+30A4_U+30E4_U+30FC 1
370
     0
100
AcDbVertex
100
AcDb2dVertex
 10
96.76274140376071
 20
-115.9143717158131
 30
0.0
  0
VERTEX
  5
6D
330
69
100
AcDbEntity
  8
_U+30EC_U+30A4_U+30E4_U+30FC 1
370
     0
100
AcDbVertex
100
AcDb2dVertex
 10
97.20095754948449
 20
-115.9143717158131
 30
0.0
  0
VERTEX
  5
6E
330
69
100
AcDbEntity
  8
_U+30EC_U+30A4_U+30E4_U+30FC 1
370
     0
100
AcDbVertex
100
AcDb2dVertex
 10
97.20095754948449
 20
-115.6053466507862
 30
0.0
  0
SEQEND
  5
6F
330
69
100
AcDbEntity
  8
_U+30EC_U+30A4_U+30E4_U+30FC 1
370
     0
  0
POLYLINE
  5
70
330
4E
100
AcDbEntity
  8
_U+30EC_U+30A4_U+30E4_U+30FC 1
370
     0
100
AcDb2dPolyline
 66
     1
 10
0.0
 20
0.0
 30
0.0
  0
VERTEX
  5
71
330
70
100
AcDbEntity
  8
_U+30EC_U+30A4_U+30E4_U+30FC 1
370
     0
100
AcDbVertex
100
AcDb2dVertex
 10
97.85035804845408
 20
-115.1337130788555
 30
0.0
  0
VERTEX
  5
72
330
70
100
AcDbEntity
  8
_U+30EC_U+30A4_U+30E4_U+30FC 1
370
     0
100
AcDbVertex
100
AcDb2dVertex
 10
97.39112682027027
 20
-115.1337130788555
 30
0.0
  0
VERTEX
  5
73
330
70
100
AcDbEntity
  8
_U+30EC_U+30A4_U+30E4_U+30FC 1
370
     0
100
AcDbVertex
100
AcDb2dVertex
 10
97.39112682027027
 20
-115.4382595197516
 30
0.0
  0
VERTEX
  5
74
330
70
100
AcDbEntity
  8
_U+30EC_U+30A4_U+30E4_U+30FC 1
370
     0
100
AcDbVertex
100
AcDb2dVertex
 10
97.85035804845408
 20
-115.4382595197516
 30
0.0
  0
VERTEX
  5
75
330
70
100
AcDbEntity
  8
_U+30EC_U+30A4_U+30E4_U+30FC 1
370
     0
100
AcDbVertex
100
AcDb2dVertex
 10
97.85035804845408
 20
-115.1337130788555
 30
0.0
  0
SEQEND
  5
76
330
70
100
AcDbEntity
  8
_U+30EC_U+30A4_U+30E4_U+30FC 1
370
     0
  0
POLYLINE
  5
77
330
4E
100
AcDbEntity
  8
_U+30EC_U+30A4_U+30E4_U+30FC 1
370
     0
100
AcDb2dPolyline
 66
     1
 10
0.0
 20
0.0
 30
0.0
  0
VERTEX
  5
78
330
77
100
AcDbEntity
  8
_U+30EC_U+30A4_U+30E4_U+30FC 1
370
     0
100
AcDbVertex
100
AcDb2dVertex
 10
97.85035804845408
 20
-115.6053466507862
 30
0.0
  0
VERTEX
  5
79
330
77
100
AcDbEntity
  8
_U+30EC_U+30A4_U+30E4_U+30FC 1
370
     0
100
AcDbVertex
100
AcDb2dVertex
 10
97.39112682027027
 20
-115.6053466507862
 30
0.0
  0
VERTEX
  5
7A
330
77
100
AcDbEntity
  8
_U+30EC_U+30A4_U+30E4_U+30FC 1
370
     0
100
AcDbVertex
100
AcDb2dVertex
 10
97.39112682027027
 20
-115.9143717158131
 30
0.0
  0
VERTEX
  5
7B
330
77
100
AcDbEntity
  8
_U+30EC_U+30A4_U+30E4_U+30FC 1
370
     0
100
AcDbVertex
100
AcDb2dVertex
 10
97.85035804845408
 20
-115.9143717158131
 30
0.0
  0
VERTEX
  5
7C
330
77
100
AcDbEntity
  8
_U+30EC_U+30A4_U+30E4_U+30FC 1
370
     0
100
AcDbVertex
100
AcDb2dVertex
 10
97.85035804845408
 20
-115.6053466507862
 30
0.0
  0
SEQEND
  5
7D
330
77
100
AcDbEntity
  8
_U+30EC_U+30A4_U+30E4_U+30FC 1
370
     0
  0
HATCH
  5
7E
330
4E
100
AcDbEntity
  8
_U+30EC_U+30A4_U+30E4_U+30FC 1
 62
   179
420
  2234388
100
AcDbHatch
 10
0.0
 20
0.0
 30
0.0
210
0.0
220
0.0
230
1.0
  2
SOLID
 70
     1
 71
     0
 91
        5
 92
        1
 93
        1
 72
     4
 94
        3
 73
     0
 74
     1
 95
       77
 96
       73
 40
0.0
 40
0.0
 40
0.0
 40
0.0
 40
1.0
 40
1.0
 40
1.0
 40
2.0
 40
2.0
 40
2.0
 40
3.0
 40
3.0
 40
3.0
 40
4.0
 40
4.0
 40
4.0
 40
5.0
 40
5.0
 40
5.0
 40
6.0
 40
6.0
 40
6.0
 40
7.0
 40
7.0
 40
7.0
 40
8.0
 40
8.0
 40
8.0
 40
9.0
 40
9.0
 40
9.0
 40
10.0
 40
10.0
 40
10.0
 40
11.0
 40
11.0
 40
11.0
 40
12.0
 40
12.0
 40
12.0
 40
13.0
 40
13.0
 40
13.0
 40
14.0
 40
14.0
 40
14.0
 40
15.0
 40
15.0
 40
15.0
 40
16.0
 40
16.0
 40
16.0
 40
17.0
 40
17.0
 40
17.0
 40
18.0
 40
18.0
 40
18.0
 40
19.0
 40
19.0
 40
19.0
 40
20.0
 40
20.0
 40
20.0
 40
21.0
 40
21.0
 40
21.0
 40
22.0
 40
22.0
 40
22.0
 40
23.0
 40
23.0
 40
23.0
 40
24.0
 40
24.0
 40
24.0
 40
24.0
 10
97.9857503010244
 20
-116.720179549813
 10
97.93924151197352
 20
-116.7456732564039
 10
97.81418454585896
 20
-116.7584201096993
 10
97.73598087834378
 20
-116.7584201096993
 10
97.72323402504836
 20
-116.7584201096993
 10
97.69808482800605
 20
-116.7584201096993
 10
97.66397838270207
 20
-116.754285995117
 10
97.66397838270207
 20
-116.754285995117
 10
97.56682669001802
 20
-116.5279432217361
 10
97.56682669001802
 20
-116.5279432217361
 10
97.59645451119117
 20
-116.5341443936095
 10
97.65364309624631
 20
-116.5427571323226
 10
97.76974281409923
 20
-116.5427571323226
 10
97.84829099116293
 20
-116.5427571323226
 10
97.85035804845408
 20
-116.5003824578541
 10
97.85035804845408
 20
-116.4431938727989
 10
97.85035804845408
 20
-116.4431938727989
 10
97.85035804845408
 20
-116.0942057001431
 10
97.85035804845408
 20
-116.0942057001431
 10
97.85035804845408
 20
-116.0942057001431
 10
97.39112682027027
 20
-116.0942057001431
 10
97.39112682027027
 20
-116.0942057001431
 10
97.39319387756143
 20
-116.2316650100046
 10
97.3956054444011
 20
-116.4304470195035
 10
97.40180661627456
 20
-116.5637722147827
 10
97.4038736735657
 20
-116.5913329786647
 10
97.4038736735657
 20
-116.6357747104244
 10
97.41662052686112
 20
-116.6970974100618
 10
97.41662052686112
 20
-116.6970974100618
 10
97.17546384289363
 20
-116.6970974100618
 10
97.17546384289363
 20
-116.6970974100618
 10
97.20095754948449
 20
-116.5723849534958
 10
97.20095754948449
 20
-116.2316650100046
 10
97.20095754948449
 20
-116.0942057001431
 10
97.20095754948449
 20
-116.0942057001431
 10
96.75860728917841
 20
-116.0942057001431
 10
96.75860728917841
 20
-116.0942057001431
 10
96.73552514942723
 20
-116.3016004483552
 10
96.66972382565896
 20
-116.5699733866561
 10
96.47300887345119
 20
-116.754285995117
 10
96.47300887345119
 20
-116.754285995117
 10
96.28490665995656
 20
-116.6316405958421
 10
96.28490665995656
 20
-116.6316405958421
 10
96.53881019721946
 20
-116.4114989943346
 10
96.57050507568377
 20
-116.0793917895566
 10
96.57050507568377
 20
-115.7472845847785
 10
96.57050507568377
 20
-115.7472845847785
 10
96.57050507568377
 20
-115.3114800058944
 10
96.57050507568377
 20
-115.3114800058944
 10
96.57050507568377
 20
-115.2753065032992
 10
96.56843801839261
 20
-115.0427625580449
 10
96.55982527967949
 20
-114.94113224123
 10
96.69935164683211
 20
-114.9518120372343
 10
96.9405083307996
 20
-114.9518120372343
 10
97.08451332208304
 20
-114.9518120372343
 10
97.08451332208304
 20
-114.9518120372343
 10
97.54340004071832
 20
-114.9518120372343
 10
97.54340004071832
 20
-114.9518120372343
 10
97.5582139513049
 20
-114.9518120372343
 10
97.90754663350923
 20
-114.9518120372343
 10
98.06602102583072
 20
-114.94113224123
 10
98.06395396853956
 20
-114.9941867117029
 10
98.05775279666612
 20
-115.1547281613155
 10
98.05775279666612
 20
-115.2057155744972
 10
98.05775279666612
 20
-115.2057155744972
 10
98.05775279666612
 20
-115.8127413989982
 10
98.05775279666612
 20
-115.8127413989982
 10
98.05775279666612
 20
-115.8316894241671
 10
98.06808808312186
 20
-116.4028862556215
 10
98.06808808312186
 20
-116.5151963684407
 10
98.06808808312186
 20
-116.5723849534958
 10
98.06808808312186
 20
-116.6736707607621
 10
97.9857503010244
 20
-116.720179549813
 97
        0
 97
        0
 92
        1
 93
        4
 72
     1
 10
97.20095754948449
 20
-115.1337130788555
 11
96.76274140376071
 21
-115.1337130788555
 72
     1
 10
96.76274140376071
 20
-115.1337130788555
 11
96.76274140376071
 21
-115.4382595197516
 72
     1
 10
96.76274140376071
 20
-115.4382595197516
 11
97.20095754948449
 21
-115.4382595197516
 72
     1
 10
97.20095754948449
 20
-115.4382595197516
 11
97.20095754948449
 21
-115.1337130788555
 97
        0
 92
        1
 93
        4
 72
     1
 10
97.20095754948449
 20
-115.6053466507862
 11
96.76274140376071
 21
-115.6053466507862
 72
     1
 10
96.76274140376071
 20
-115.6053466507862
 11
96.76274140376071
 21
-115.9143717158131
 72
     1
 10
96.76274140376071
 20
-115.9143717158131
 11
97.20095754948449
 21
-115.9143717158131
 72
     1
 10
97.20095754948449
 20
-115.9143717158131
 11
97.20095754948449
 21
-115.6053466507862
 97
        0
 92
        1
 93
        4
 72
     1
 10
97.85035804845408
 20
-115.1337130788555
 11
97.39112682027027
 21
-115.1337130788555
 72
     1
 10
97.39112682027027
 20
-115.1337130788555
 11
97.39112682027027
 21
-115.4382595197516
 72
     1
 10
97.39112682027027
 20
-115.4382595197516
 11
97.85035804845408
 21
-115.4382595197516
 72
     1
 10
97.85035804845408
 20
-115.4382595197516
 11
97.85035804845408
 21
-115.1337130788555
 97
        0
 92
        1
 93
        4
 72
     1
 10
97.85035804845408
 20
-115.6053466507862
 11
97.39112682027027
 21
-115.6053466507862
 72
     1
 10
97.39112682027027
 20
-115.6053466507862
 11
97.39112682027027
 21
-115.9143717158131
 72
     1
 10
97.39112682027027
 20
-115.9143717158131
 11
97.85035804845408
 21
-115.9143717158131
 72
     1
 10
97.85035804845408
 20
-115.9143717158131
 11
97.85035804845408
 21
-115.6053466507862
 97
        0
 75
     2
 76
     1
 98
        0
  0
SPLINE
  5
7F
330
4E
100
AcDbEntity
  8
_U+30EC_U+30A4_U+30E4_U+30FC 1
370
     0
100
AcDbSpline
210
0.0
220
0.0
230
1.0
 70
    11
 71
     3
 72
    44
 73
    40
 74
     0
 42
0.0000000001
 43
0.0000000001
 12
1.0
 22
0.0
 32
0.0
 13
1.0
 23
0.0
 33
0.0
 40
0.0
 40
0.0
 40
0.0
 40
0.0
 40
1.0
 40
1.0
 40
1.0
 40
2.0
 40
2.0
 40
2.0
 40
3.0
 40
3.0
 40
3.0
 40
4.0
 40
4.0
 40
4.0
 40
5.0
 40
5.0
 40
5.0
 40
6.0
 40
6.0
 40
6.0
 40
7.0
 40
7.0
 40
7.0
 40
8.0
 40
8.0
 40
8.0
 40
9.0
 40
9.0
 40
9.0
 40
10.0
 40
10.0
 40
10.0
 40
11.0
 40
11.0
 40
11.0
 40
12.0
 40
12.0
 40
12.0
 40
13.0
 40
13.0
 40
13.0
 40
13.0
 10
99.86332734048557
 20
-115.4699543982158
 30
0.0
 10
99.75101722766642
 20
-115.8382351055891
 30
0.0
 10
99.70037432403325
 20
-115.9967094979105
 30
0.0
 10
99.50365937182548
 20
-116.2464789205912
 30
0.0
 10
99.31969127291313
 20
-116.4769558085544
 30
0.0
 10
99.08266870352794
 20
-116.6633354743064
 30
0.0
 10
98.80327145967419
 20
-116.7563530524081
 30
0.0
 10
98.80327145967419
 20
-116.7563530524081
 30
0.0
 10
98.61069062204872
 20
-116.5765190680781
 30
0.0
 10
98.61069062204872
 20
-116.5765190680781
 30
0.0
 10
99.25182289185372
 20
-116.4242458476301
 30
0.0
 10
99.58186303934065
 20
-115.8678629267622
 30
0.0
 10
99.64525279626925
 20
-115.4279242332958
 30
0.0
 10
99.64525279626925
 20
-115.4279242332958
 30
0.0
 10
98.8794080698982
 20
-115.4279242332958
 30
0.0
 10
98.8794080698982
 20
-115.4279242332958
 30
0.0
 10
98.78639049179647
 20
-115.4279242332958
 30
0.0
 10
98.60242239288412
 20
-115.4320583478781
 30
0.0
 10
98.44567054830526
 20
-115.451006373047
 30
0.0
 10
98.44567054830526
 20
-115.451006373047
 30
0.0
 10
98.44567054830526
 20
-115.2308647715395
 30
0.0
 10
98.44567054830526
 20
-115.2308647715395
 30
0.0
 10
98.53248695453355
 20
-115.2522243635481
 30
0.0
 10
98.78432343450531
 20
-115.2522243635481
 30
0.0
 10
98.88388669402903
 20
-115.2522243635481
 30
0.0
 10
98.88388669402903
 20
-115.2522243635481
 30
0.0
 10
99.3152126487823
 20
-115.2522243635481
 30
0.0
 10
99.3152126487823
 20
-115.2522243635481
 30
0.0
 10
99.35758732325088
 20
-115.2522243635481
 30
0.0
 10
99.59254283534493
 20
-115.2501573062569
 30
0.0
 10
99.63043888568268
 20
-115.2436116248349
 30
0.0
 10
99.67281356015124
 20
-115.2374104529615
 30
0.0
 10
99.6748806174424
 20
-115.2353433956703
 30
0.0
 10
99.73620331707984
 20
-115.1950357784929
 30
0.0
 10
99.73620331707984
 20
-115.1950357784929
 30
0.0
 10
99.92465004012301
 20
-115.3493760562321
 30
0.0
 10
99.92465004012301
 20
-115.3493760562321
 30
0.0
 10
99.89502221894986
 20
-115.3790038774053
 30
0.0
 10
99.88020830836328
 20
-115.4106987558695
 30
0.0
 10
99.86332734048557
 20
-115.4699543982158
 30
0.0
  0
SPLINE
  5
80
330
4E
100
AcDbEntity
  8
_U+30EC_U+30A4_U+30E4_U+30FC 1
370
     0
100
AcDbSpline
210
0.0
220
0.0
230
1.0
 70
    11
 71
     3
 72
    17
 73
    13
 74
     0
 42
0.0000000001
 43
0.0000000001
 12
1.0
 22
0.0
 32
0.0
 13
1.0
 23
0.0
 33
0.0
 40
0.0
 40
0.0
 40
0.0
 40
0.0
 40
1.0
 40
1.0
 40
1.0
 40
2.0
 40
2.0
 40
2.0
 40
3.0
 40
3.0
 40
3.0
 40
4.0
 40
4.0
 40
4.0
 40
4.0
 10
100.0727891459888
 20
-115.2711723887169
 30
0.0
 10
99.94566512258304
 20
-115.2711723887169
 30
0.0
 10
99.84403480576816
 20
-115.1695420719021
 30
0.0
 10
99.84403480576816
 20
-115.0427625580449
 30
0.0
 10
99.84403480576816
 20
-114.9159830441877
 30
0.0
 10
99.94566512258304
 20
-114.8122856700816
 30
0.0
 10
100.0727891459888
 20
-114.8122856700816
 30
0.0
 10
100.199568659846
 20
-114.8122856700816
 30
0.0
 10
100.303266033952
 20
-114.9159830441877
 30
0.0
 10
100.303266033952
 20
-115.0427625580449
 30
0.0
 10
100.303266033952
 20
-115.1695420719021
 30
0.0
 10
100.199568659846
 20
-115.2711723887169
 30
0.0
 10
100.0727891459888
 20
-115.2711723887169
 30
0.0
  0
SPLINE
  5
81
330
4E
100
AcDbEntity
  8
_U+30EC_U+30A4_U+30E4_U+30FC 1
370
     0
100
AcDbSpline
210
0.0
220
0.0
230
1.0
 70
    11
 71
     3
 72
    17
 73
    13
 74
     0
 42
0.0000000001
 43
0.0000000001
 12
1.0
 22
0.0
 32
0.0
 13
1.0
 23
0.0
 33
0.0
 40
0.0
 40
0.0
 40
0.0
 40
0.0
 40
1.0
 40
1.0
 40
1.0
 40
2.0
 40
2.0
 40
2.0
 40
3.0
 40
3.0
 40
3.0
 40
4.0
 40
4.0
 40
4.0
 40
4.0
 10
100.0703775791491
 20
-114.94113224123
 30
0.0
 10
100.0156005609336
 20
-114.94113224123
 30
0.0
 10
99.97115882917389
 20
-114.9855739729897
 30
0.0
 10
99.97115882917389
 20
-115.0406955007537
 30
0.0
 10
99.97115882917389
 20
-115.0978840858089
 30
0.0
 10
100.0156005609336
 20
-115.1464599321509
 30
0.0
 10
100.0748562032799
 20
-115.1464599321509
 30
0.0
 10
100.1341118456262
 20
-115.1464599321509
 30
0.0
 10
100.1740749532551
 20
-115.0954725189692
 30
0.0
 10
100.1740749532551
 20
-115.0427625580449
 30
0.0
 10
100.1740749532551
 20
-114.9855739729897
 30
0.0
 10
100.1275661642042
 20
-114.94113224123
 30
0.0
 10
100.0703775791491
 20
-114.94113224123
 30
0.0
  0
HATCH
  5
82
330
4E
100
AcDbEntity
  8
_U+30EC_U+30A4_U+30E4_U+30FC 1
 62
   179
420
  2234388
100
AcDbHatch
 10
0.0
 20
0.0
 30
0.0
210
0.0
220
0.0
230
1.0
  2
SOLID
 70
     1
 71
     0
 91
        3
 92
        1
 93
        1
 72
     4
 94
        3
 73
     0
 74
     1
 95
       44
 96
       40
 40
0.0
 40
0.0
 40
0.0
 40
0.0
 40
1.0
 40
1.0
 40
1.0
 40
2.0
 40
2.0
 40
2.0
 40
3.0
 40
3.0
 40
3.0
 40
4.0
 40
4.0
 40
4.0
 40
5.0
 40
5.0
 40
5.0
 40
6.0
 40
6.0
 40
6.0
 40
7.0
 40
7.0
 40
7.0
 40
8.0
 40
8.0
 40
8.0
 40
9.0
 40
9.0
 40
9.0
 40
10.0
 40
10.0
 40
10.0
 40
11.0
 40
11.0
 40
11.0
 40
12.0
 40
12.0
 40
12.0
 40
13.0
 40
13.0
 40
13.0
 40
13.0
 10
99.86332734048557
 20
-115.4699543982158
 10
99.75101722766642
 20
-115.8382351055891
 10
99.70037432403325
 20
-115.9967094979105
 10
99.50365937182548
 20
-116.2464789205912
 10
99.31969127291313
 20
-116.4769558085544
 10
99.08266870352794
 20
-116.6633354743064
 10
98.80327145967419
 20
-116.7563530524081
 10
98.80327145967419
 20
-116.7563530524081
 10
98.61069062204872
 20
-116.5765190680781
 10
98.61069062204872
 20
-116.5765190680781
 10
99.25182289185372
 20
-116.4242458476301
 10
99.58186303934065
 20
-115.8678629267622
 10
99.64525279626925
 20
-115.4279242332958
 10
99.64525279626925
 20
-115.4279242332958
 10
98.8794080698982
 20
-115.4279242332958
 10
98.8794080698982
 20
-115.4279242332958
 10
98.78639049179647
 20
-115.4279242332958
 10
98.60242239288412
 20
-115.4320583478781
 10
98.44567054830526
 20
-115.451006373047
 10
98.44567054830526
 20
-115.451006373047
 10
98.44567054830526
 20
-115.2308647715395
 10
98.44567054830526
 20
-115.2308647715395
 10
98.53248695453355
 20
-115.2522243635481
 10
98.78432343450531
 20
-115.2522243635481
 10
98.88388669402903
 20
-115.2522243635481
 10
98.88388669402903
 20
-115.2522243635481
 10
99.3152126487823
 20
-115.2522243635481
 10
99.3152126487823
 20
-115.2522243635481
 10
99.35758732325088
 20
-115.2522243635481
 10
99.59254283534493
 20
-115.2501573062569
 10
99.63043888568268
 20
-115.2436116248349
 10
99.67281356015124
 20
-115.2374104529615
 10
99.6748806174424
 20
-115.2353433956703
 10
99.73620331707984
 20
-115.1950357784929
 10
99.73620331707984
 20
-115.1950357784929
 10
99.92465004012301
 20
-115.3493760562321
 10
99.92465004012301
 20
-115.3493760562321
 10
99.89502221894986
 20
-115.3790038774053
 10
99.88020830836328
 20
-115.4106987558695
 10
99.86332734048557
 20
-115.4699543982158
 97
        0
 97
        0
 92
        1
 93
        1
 72
     4
 94
        3
 73
     0
 74
     1
 95
       17
 96
       13
 40
0.0
 40
0.0
 40
0.0
 40
0.0
 40
1.0
 40
1.0
 40
1.0
 40
2.0
 40
2.0
 40
2.0
 40
3.0
 40
3.0
 40
3.0
 40
4.0
 40
4.0
 40
4.0
 40
4.0
 10
100.0727891459888
 20
-115.2711723887169
 10
99.94566512258304
 20
-115.2711723887169
 10
99.84403480576816
 20
-115.1695420719021
 10
99.84403480576816
 20
-115.0427625580449
 10
99.84403480576816
 20
-114.9159830441877
 10
99.94566512258304
 20
-114.8122856700816
 10
100.0727891459888
 20
-114.8122856700816
 10
100.199568659846
 20
-114.8122856700816
 10
100.303266033952
 20
-114.9159830441877
 10
100.303266033952
 20
-115.0427625580449
 10
100.303266033952
 20
-115.1695420719021
 10
100.199568659846
 20
-115.2711723887169
 10
100.0727891459888
 20
-115.2711723887169
 97
        0
 97
        0
 92
        1
 93
        1
 72
     4
 94
        3
 73
     0
 74
     1
 95
       17
 96
       13
 40
0.0
 40
0.0
 40
0.0
 40
0.0
 40
1.0
 40
1.0
 40
1.0
 40
2.0
 40
2.0
 40
2.0
 40
3.0
 40
3.0
 40
3.0
 40
4.0
 40
4.0
 40
4.0
 40
4.0
 10
100.0703775791491
 20
-114.94113224123
 10
100.0156005609336
 20
-114.94113224123
 10
99.97115882917389
 20
-114.9855739729897
 10
99.97115882917389
 20
-115.0406955007537
 10
99.97115882917389
 20
-115.0978840858089
 10
100.0156005609336
 20
-115.1464599321509
 10
100.0748562032799
 20
-115.1464599321509
 10
100.1341118456262
 20
-115.1464599321509
 10
100.1740749532551
 20
-115.0954725189692
 10
100.1740749532551
 20
-115.0427625580449
 10
100.1740749532551
 20
-114.9855739729897
 10
100.1275661642042
 20
-114.94113224123
 10
100.0703775791491
 20
-114.94113224123
 97
        0
 97
        0
 75
     2
 76
     1
 98
        0
  0
SPLINE
  5
83
330
4E
100
AcDbEntity
  8
_U+30EC_U+30A4_U+30E4_U+30FC 1
370
     0
100
AcDbSpline
210
0.0
220
0.0
230
1.0
 70
    11
 71
     3
 72
    50
 73
    46
 74
     0
 42
0.0000000001
 43
0.0000000001
 12
1.0
 22
0.0
 32
0.0
 13
1.0
 23
0.0
 33
0.0
 40
0.0
 40
0.0
 40
0.0
 40
0.0
 40
1.0
 40
1.0
 40
1.0
 40
2.0
 40
2.0
 40
2.0
 40
3.0
 40
3.0
 40
3.0
 40
4.0
 40
4.0
 40
4.0
 40
5.0
 40
5.0
 40
5.0
 40
6.0
 40
6.0
 40
6.0
 40
7.0
 40
7.0
 40
7.0
 40
8.0
 40
8.0
 40
8.0
 40
9.0
 40
9.0
 40
9.0
 40
10.0
 40
10.0
 40
10.0
 40
11.0
 40
11.0
 40
11.0
 40
12.0
 40
12.0
 40
12.0
 40
13.0
 40
13.0
 40
13.0
 40
14.0
 40
14.0
 40
14.0
 40
15.0
 40
15.0
 40
15.0
 40
15.0
 10
101.8676838938039
 20
-115.7789794632428
 30
0.0
 10
101.7891357167402
 20
-115.9567463902817
 30
0.0
 10
101.6537434641699
 20
-116.1637966289452
 30
0.0
 10
101.5162841543084
 20
-116.3036675056463
 30
0.0
 10
101.3471299659827
 20
-116.4748887512632
 30
0.0
 10
101.1841769495304
 20
-116.5637722147827
 30
0.0
 10
100.8648165980477
 20
-116.7053656392264
 30
0.0
 10
100.8648165980477
 20
-116.7053656392264
 30
0.0
 10
100.6956624097219
 20
-116.5172634257318
 30
0.0
 10
100.6956624097219
 20
-116.5172634257318
 30
0.0
 10
100.8816975659254
 20
-116.4938367764321
 30
0.0
 10
101.0529188115423
 20
-116.4073648797523
 30
0.0
 10
101.2055365415389
 20
-116.3016004483552
 30
0.0
 10
101.4677083079664
 20
-116.119699406734
 30
0.0
 10
101.6582220883007
 20
-115.8065402271248
 30
0.0
 10
101.7067979346428
 20
-115.6246391855036
 30
0.0
 10
101.7067979346428
 20
-115.6246391855036
 30
0.0
 10
101.0360378436646
 20
-115.6246391855036
 30
0.0
 10
101.0360378436646
 20
-115.6246391855036
 30
0.0
 10
100.8775634513431
 20
-115.6246391855036
 30
0.0
 10
100.5854193541939
 20
-115.6329074146682
 30
0.0
 10
100.4331461337459
 20
-115.6497883825459
 30
0.0
 10
100.4331461337459
 20
-115.6497883825459
 30
0.0
 10
100.4331461337459
 20
-115.4213785518738
 30
0.0
 10
100.4331461337459
 20
-115.4213785518738
 30
0.0
 10
100.4672525790499
 20
-115.4279242332958
 30
0.0
 10
100.4924017760922
 20
-115.4341254051693
 30
0.0
 10
100.545456246565
 20
-115.4382595197516
 30
0.0
 10
100.6467420538314
 20
-115.4448052011735
 30
0.0
 10
100.8438015155877
 20
-115.4468722584647
 30
0.0
 10
100.9282063549763
 20
-115.4468722584647
 30
0.0
 10
100.9282063549763
 20
-115.4468722584647
 30
0.0
 10
101.433946372211
 20
-115.4468722584647
 30
0.0
 10
101.433946372211
 20
-115.4468722584647
 30
0.0
 10
101.5014702437219
 20
-115.4468722584647
 30
0.0
 10
101.6475422922964
 20
-115.4427381438824
 30
0.0
 10
101.7088649919339
 20
-115.4361924624604
 30
0.0
 10
101.7808674875756
 20
-115.4279242332958
 30
0.0
 10
101.8084282514576
 20
-115.4131103227092
 30
0.0
 10
101.8421901872131
 20
-115.3896836734095
 30
0.0
 10
101.8421901872131
 20
-115.3896836734095
 30
0.0
 10
102.0072102609565
 20
-115.5567708044441
 30
0.0
 10
102.0072102609565
 20
-115.5567708044441
 30
0.0
 10
101.937274822606
 20
-115.6246391855036
 30
0.0
 10
101.8907660335551
 20
-115.7283365596096
 30
0.0
 10
101.8676838938039
 20
-115.7789794632428
 30
0.0
  0
SPLINE
  5
84
330
4E
100
AcDbEntity
  8
_U+30EC_U+30A4_U+30E4_U+30FC 1
370
     0
100
AcDbSpline
210
0.0
220
0.0
230
1.0
 70
    11
 71
     3
 72
    29
 73
    25
 74
     0
 42
0.0000000001
 43
0.0000000001
 12
1.0
 22
0.0
 32
0.0
 13
1.0
 23
0.0
 33
0.0
 40
0.0
 40
0.0
 40
0.0
 40
0.0
 40
1.0
 40
1.0
 40
1.0
 40
2.0
 40
2.0
 40
2.0
 40
3.0
 40
3.0
 40
3.0
 40
4.0
 40
4.0
 40
4.0
 40
5.0
 40
5.0
 40
5.0
 40
6.0
 40
6.0
 40
6.0
 40
7.0
 40
7.0
 40
7.0
 40
8.0
 40
8.0
 40
8.0
 40
8.0
 10
101.3746907298647
 20
-115.1526611040243
 30
0.0
 10
101.3746907298647
 20
-115.1526611040243
 30
0.0
 10
101.0339707863735
 20
-115.1526611040243
 30
0.0
 10
101.0339707863735
 20
-115.1526611040243
 30
0.0
 10
100.9199381258117
 20
-115.1526611040243
 30
0.0
 10
100.8034938984102
 20
-115.1571397281552
 30
0.0
 10
100.6891167283
 20
-115.1719536387417
 30
0.0
 10
100.6891167283
 20
-115.1719536387417
 30
0.0
 10
100.6891167283
 20
-114.9624918332385
 30
0.0
 10
100.6891167283
 20
-114.9624918332385
 30
0.0
 10
100.8076280129925
 20
-114.9773057438251
 30
0.0
 10
100.9812608254491
 20
-114.9814398584074
 30
0.0
 10
101.0339707863735
 20
-114.9814398584074
 30
0.0
 10
101.0339707863735
 20
-114.9814398584074
 30
0.0
 10
101.3746907298647
 20
-114.9814398584074
 30
0.0
 10
101.3746907298647
 20
-114.9814398584074
 30
0.0
 10
101.4911349572661
 20
-114.9814398584074
 30
0.0
 10
101.607234675119
 20
-114.9773057438251
 30
0.0
 10
101.7236789025205
 20
-114.9624918332385
 30
0.0
 10
101.7236789025205
 20
-114.9624918332385
 30
0.0
 10
101.7236789025205
 20
-115.1719536387417
 30
0.0
 10
101.7236789025205
 20
-115.1719536387417
 30
0.0
 10
101.5734727393636
 20
-115.1526611040243
 30
0.0
 10
101.3895046404512
 20
-115.1526611040243
 30
0.0
 10
101.3746907298647
 20
-115.1526611040243
 30
0.0
  0
HATCH
  5
85
330
4E
100
AcDbEntity
  8
_U+30EC_U+30A4_U+30E4_U+30FC 1
 62
   179
420
  2234388
100
AcDbHatch
 10
0.0
 20
0.0
 30
0.0
210
0.0
220
0.0
230
1.0
  2
SOLID
 70
     1
 71
     0
 91
        2
 92
        1
 93
        1
 72
     4
 94
        3
 73
     0
 74
     1
 95
       50
 96
       46
 40
0.0
 40
0.0
 40
0.0
 40
0.0
 40
1.0
 40
1.0
 40
1.0
 40
2.0
 40
2.0
 40
2.0
 40
3.0
 40
3.0
 40
3.0
 40
4.0
 40
4.0
 40
4.0
 40
5.0
 40
5.0
 40
5.0
 40
6.0
 40
6.0
 40
6.0
 40
7.0
 40
7.0
 40
7.0
 40
8.0
 40
8.0
 40
8.0
 40
9.0
 40
9.0
 40
9.0
 40
10.0
 40
10.0
 40
10.0
 40
11.0
 40
11.0
 40
11.0
 40
12.0
 40
12.0
 40
12.0
 40
13.0
 40
13.0
 40
13.0
 40
14.0
 40
14.0
 40
14.0
 40
15.0
 40
15.0
 40
15.0
 40
15.0
 10
101.8676838938039
 20
-115.7789794632428
 10
101.7891357167402
 20
-115.9567463902817
 10
101.6537434641699
 20
-116.1637966289452
 10
101.5162841543084
 20
-116.3036675056463
 10
101.3471299659827
 20
-116.4748887512632
 10
101.1841769495304
 20
-116.5637722147827
 10
100.8648165980477
 20
-116.7053656392264
 10
100.8648165980477
 20
-116.7053656392264
 10
100.6956624097219
 20
-116.5172634257318
 10
100.6956624097219
 20
-116.5172634257318
 10
100.8816975659254
 20
-116.4938367764321
 10
101.0529188115423
 20
-116.4073648797523
 10
101.2055365415389
 20
-116.3016004483552
 10
101.4677083079664
 20
-116.119699406734
 10
101.6582220883007
 20
-115.8065402271248
 10
101.7067979346428
 20
-115.6246391855036
 10
101.7067979346428
 20
-115.6246391855036
 10
101.0360378436646
 20
-115.6246391855036
 10
101.0360378436646
 20
-115.6246391855036
 10
100.8775634513431
 20
-115.6246391855036
 10
100.5854193541939
 20
-115.6329074146682
 10
100.4331461337459
 20
-115.6497883825459
 10
100.4331461337459
 20
-115.6497883825459
 10
100.4331461337459
 20
-115.4213785518738
 10
100.4331461337459
 20
-115.4213785518738
 10
100.4672525790499
 20
-115.4279242332958
 10
100.4924017760922
 20
-115.4341254051693
 10
100.545456246565
 20
-115.4382595197516
 10
100.6467420538314
 20
-115.4448052011735
 10
100.8438015155877
 20
-115.4468722584647
 10
100.9282063549763
 20
-115.4468722584647
 10
100.9282063549763
 20
-115.4468722584647
 10
101.433946372211
 20
-115.4468722584647
 10
101.433946372211
 20
-115.4468722584647
 10
101.5014702437219
 20
-115.4468722584647
 10
101.6475422922964
 20
-115.4427381438824
 10
101.7088649919339
 20
-115.4361924624604
 10
101.7808674875756
 20
-115.4279242332958
 10
101.8084282514576
 20
-115.4131103227092
 10
101.8421901872131
 20
-115.3896836734095
 10
101.8421901872131
 20
-115.3896836734095
 10
102.0072102609565
 20
-115.5567708044441
 10
102.0072102609565
 20
-115.5567708044441
 10
101.937274822606
 20
-115.6246391855036
 10
101.8907660335551
 20
-115.7283365596096
 10
101.8676838938039
 20
-115.7789794632428
 97
        0
 97
        0
 92
        1
 93
        1
 72
     4
 94
        3
 73
     0
 74
     1
 95
       29
 96
       25
 40
0.0
 40
0.0
 40
0.0
 40
0.0
 40
1.0
 40
1.0
 40
1.0
 40
2.0
 40
2.0
 40
2.0
 40
3.0
 40
3.0
 40
3.0
 40
4.0
 40
4.0
 40
4.0
 40
5.0
 40
5.0
 40
5.0
 40
6.0
 40
6.0
 40
6.0
 40
7.0
 40
7.0
 40
7.0
 40
8.0
 40
8.0
 40
8.0
 40
8.0
 10
101.3746907298647
 20
-115.1526611040243
 10
101.3746907298647
 20
-115.1526611040243
 10
101.0339707863735
 20
-115.1526611040243
 10
101.0339707863735
 20
-115.1526611040243
 10
100.9199381258117
 20
-115.1526611040243
 10
100.8034938984102
 20
-115.1571397281552
 10
100.6891167283
 20
-115.1719536387417
 10
100.6891167283
 20
-115.1719536387417
 10
100.6891167283
 20
-114.9624918332385
 10
100.6891167283
 20
-114.9624918332385
 10
100.8076280129925
 20
-114.9773057438251
 10
100.9812608254491
 20
-114.9814398584074
 10
101.0339707863735
 20
-114.9814398584074
 10
101.0339707863735
 20
-114.9814398584074
 10
101.3746907298647
 20
-114.9814398584074
 10
101.3746907298647
 20
-114.9814398584074
 10
101.4911349572661
 20
-114.9814398584074
 10
101.607234675119
 20
-114.9773057438251
 10
101.7236789025205
 20
-114.9624918332385
 10
101.7236789025205
 20
-114.9624918332385
 10
101.7236789025205
 20
-115.1719536387417
 10
101.7236789025205
 20
-115.1719536387417
 10
101.5734727393636
 20
-115.1526611040243
 10
101.3895046404512
 20
-115.1526611040243
 10
101.3746907298647
 20
-115.1526611040243
 97
        0
 97
        0
 75
     2
 76
     1
 98
        0
  0
SPLINE
  5
86
330
4E
100
AcDbEntity
  8
_U+30EC_U+30A4_U+30E4_U+30FC 1
370
     0
100
AcDbSpline
210
0.0
220
0.0
230
1.0
 70
    11
 71
     3
 72
    50
 73
    46
 74
     0
 42
0.0000000001
 43
0.0000000001
 12
1.0
 22
0.0
 32
0.0
 13
1.0
 23
0.0
 33
0.0
 40
0.0
 40
0.0
 40
0.0
 40
0.0
 40
1.0
 40
1.0
 40
1.0
 40
2.0
 40
2.0
 40
2.0
 40
3.0
 40
3.0
 40
3.0
 40
4.0
 40
4.0
 40
4.0
 40
5.0
 40
5.0
 40
5.0
 40
6.0
 40
6.0
 40
6.0
 40
7.0
 40
7.0
 40
7.0
 40
8.0
 40
8.0
 40
8.0
 40
9.0
 40
9.0
 40
9.0
 40
10.0
 40
10.0
 40
10.0
 40
11.0
 40
11.0
 40
11.0
 40
12.0
 40
12.0
 40
12.0
 40
13.0
 40
13.0
 40
13.0
 40
14.0
 40
14.0
 40
14.0
 40
15.0
 40
15.0
 40
15.0
 40
15.0
 10
103.5778292926819
 20
-115.1378471934378
 30
0.0
 10
103.3683674871787
 20
-115.3514431135233
 30
0.0
 10
103.2967095010855
 20
-115.423445609165
 30
0.0
 10
103.1547715670933
 20
-115.5419568938576
 30
0.0
 10
103.1547715670933
 20
-115.5419568938576
 30
0.0
 10
103.1547715670933
 20
-116.1090196107297
 30
0.0
 10
103.1547715670933
 20
-116.1090196107297
 30
0.0
 10
103.1547715670933
 20
-116.2592257738866
 30
0.0
 10
103.1613172485152
 20
-116.2781737990555
 30
0.0
 10
103.1654513630975
 20
-116.4559407260944
 30
0.0
 10
103.1675184203887
 20
-116.5871988640824
 30
0.0
 10
103.1737195922621
 20
-116.6357747104244
 30
0.0
 10
103.1802652736841
 20
-116.6950303527707
 30
0.0
 10
103.1802652736841
 20
-116.6950303527707
 30
0.0
 10
102.9539225003032
 20
-116.6950303527707
 30
0.0
 10
102.9539225003032
 20
-116.6950303527707
 30
0.0
 10
102.9580566148855
 20
-116.650588621011
 30
0.0
 10
102.9621907294678
 20
-116.6040798319601
 30
0.0
 10
102.9621907294678
 20
-116.595467093247
 30
0.0
 10
102.9621907294678
 20
-116.5151963684407
 30
0.0
 10
102.9666693535986
 20
-116.1637966289452
 30
0.0
 10
102.9666693535986
 20
-116.092138642852
 30
0.0
 10
102.9666693535986
 20
-116.092138642852
 30
0.0
 10
102.9666693535986
 20
-115.685961885141
 30
0.0
 10
102.9666693535986
 20
-115.685961885141
 30
0.0
 10
102.7847683119774
 20
-115.8106743417071
 30
0.0
 10
102.5901204170608
 20
-115.9205728876865
 30
0.0
 10
102.3868597834311
 20
-116.0073892939148
 30
0.0
 10
102.3868597834311
 20
-116.0073892939148
 30
0.0
 10
102.1839436593499
 20
-115.8444362774625
 30
0.0
 10
102.1839436593499
 20
-115.8444362774625
 30
0.0
 10
102.3065890586248
 20
-115.8086072844159
 30
0.0
 10
102.5625596531788
 20
-115.734537731483
 30
0.0
 10
102.9074137112523
 20
-115.478567136929
 30
0.0
 10
103.123076688629
 20
-115.319748235059
 30
0.0
 10
103.3156575262544
 20
-115.1316460215643
 30
0.0
 10
103.4679307467025
 20
-114.9115044200569
 30
0.0
 10
103.4679307467025
 20
-114.9115044200569
 30
0.0
 10
103.6605115843279
 20
-115.0555094113403
 30
0.0
 10
103.6605115843279
 20
-115.0555094113403
 30
0.0
 10
103.6732584376234
 20
-115.0661892073446
 30
0.0
 10
103.681526666788
 20
-115.0806586083826
 30
0.0
 10
103.681526666788
 20
-115.093405461678
 30
0.0
 10
103.681526666788
 20
-115.1337130788555
 30
0.0
 10
103.6436306164502
 20
-115.1337130788555
 30
0.0
 10
103.5778292926819
 20
-115.1378471934378
 30
0.0
  0
HATCH
  5
87
330
4E
100
AcDbEntity
  8
_U+30EC_U+30A4_U+30E4_U+30FC 1
 62
   179
420
  2234388
100
AcDbHatch
 10
0.0
 20
0.0
 30
0.0
210
0.0
220
0.0
230
1.0
  2
SOLID
 70
     1
 71
     0
 91
        1
 92
        1
 93
        1
 72
     4
 94
        3
 73
     0
 74
     1
 95
       50
 96
       46
 40
0.0
 40
0.0
 40
0.0
 40
0.0
 40
1.0
 40
1.0
 40
1.0
 40
2.0
 40
2.0
 40
2.0
 40
3.0
 40
3.0
 40
3.0
 40
4.0
 40
4.0
 40
4.0
 40
5.0
 40
5.0
 40
5.0
 40
6.0
 40
6.0
 40
6.0
 40
7.0
 40
7.0
 40
7.0
 40
8.0
 40
8.0
 40
8.0
 40
9.0
 40
9.0
 40
9.0
 40
10.0
 40
10.0
 40
10.0
 40
11.0
 40
11.0
 40
11.0
 40
12.0
 40
12.0
 40
12.0
 40
13.0
 40
13.0
 40
13.0
 40
14.0
 40
14.0
 40
14.0
 40
15.0
 40
15.0
 40
15.0
 40
15.0
 10
103.5778292926819
 20
-115.1378471934378
 10
103.3683674871787
 20
-115.3514431135233
 10
103.2967095010855
 20
-115.423445609165
 10
103.1547715670933
 20
-115.5419568938576
 10
103.1547715670933
 20
-115.5419568938576
 10
103.1547715670933
 20
-116.1090196107297
 10
103.1547715670933
 20
-116.1090196107297
 10
103.1547715670933
 20
-116.2592257738866
 10
103.1613172485152
 20
-116.2781737990555
 10
103.1654513630975
 20
-116.4559407260944
 10
103.1675184203887
 20
-116.5871988640824
 10
103.1737195922621
 20
-116.6357747104244
 10
103.1802652736841
 20
-116.6950303527707
 10
103.1802652736841
 20
-116.6950303527707
 10
102.9539225003032
 20
-116.6950303527707
 10
102.9539225003032
 20
-116.6950303527707
 10
102.9580566148855
 20
-116.650588621011
 10
102.9621907294678
 20
-116.6040798319601
 10
102.9621907294678
 20
-116.595467093247
 10
102.9621907294678
 20
-116.5151963684407
 10
102.9666693535986
 20
-116.1637966289452
 10
102.9666693535986
 20
-116.092138642852
 10
102.9666693535986
 20
-116.092138642852
 10
102.9666693535986
 20
-115.685961885141
 10
102.9666693535986
 20
-115.685961885141
 10
102.7847683119774
 20
-115.8106743417071
 10
102.5901204170608
 20
-115.9205728876865
 10
102.3868597834311
 20
-116.0073892939148
 10
102.3868597834311
 20
-116.0073892939148
 10
102.1839436593499
 20
-115.8444362774625
 10
102.1839436593499
 20
-115.8444362774625
 10
102.3065890586248
 20
-115.8086072844159
 10
102.5625596531788
 20
-115.734537731483
 10
102.9074137112523
 20
-115.478567136929
 10
103.123076688629
 20
-115.319748235059
 10
103.3156575262544
 20
-115.1316460215643
 10
103.4679307467025
 20
-114.9115044200569
 10
103.4679307467025
 20
-114.9115044200569
 10
103.6605115843279
 20
-115.0555094113403
 10
103.6605115843279
 20
-115.0555094113403
 10
103.6732584376234
 20
-115.0661892073446
 10
103.681526666788
 20
-115.0806586083826
 10
103.681526666788
 20
-115.093405461678
 10
103.681526666788
 20
-115.1337130788555
 10
103.6436306164502
 20
-115.1337130788555
 10
103.5778292926819
 20
-115.1378471934378
 97
        0
 97
        0
 75
     2
 76
     1
 98
        0
  0
SPLINE
  5
88
330
4E
100
AcDbEntity
  8
_U+30EC_U+30A4_U+30E4_U+30FC 1
370
     0
100
AcDbSpline
210
0.0
220
0.0
230
1.0
 70
    11
 71
     3
 72
    50
 73
    46
 74
     0
 42
0.0000000001
 43
0.0000000001
 12
1.0
 22
0.0
 32
0.0
 13
1.0
 23
0.0
 33
0.0
 40
0.0
 40
0.0
 40
0.0
 40
0.0
 40
1.0
 40
1.0
 40
1.0
 40
2.0
 40
2.0
 40
2.0
 40
3.0
 40
3.0
 40
3.0
 40
4.0
 40
4.0
 40
4.0
 40
5.0
 40
5.0
 40
5.0
 40
6.0
 40
6.0
 40
6.0
 40
7.0
 40
7.0
 40
7.0
 40
8.0
 40
8.0
 40
8.0
 40
9.0
 40
9.0
 40
9.0
 40
10.0
 40
10.0
 40
10.0
 40
11.0
 40
11.0
 40
11.0
 40
12.0
 40
12.0
 40
12.0
 40
13.0
 40
13.0
 40
13.0
 40
14.0
 40
14.0
 40
14.0
 40
15.0
 40
15.0
 40
15.0
 40
15.0
 10
105.2862521438173
 20
-115.6646022931325
 30
0.0
 10
105.2249294441799
 20
-115.7366047887742
 30
0.0
 10
104.964480225495
 20
-116.0538980829657
 30
0.0
 10
104.9076361499884
 20
-116.1172878398943
 30
0.0
 10
104.992040989377
 20
-116.2147840421269
 30
0.0
 10
105.0430284025587
 20
-116.2781737990555
 30
0.0
 10
105.1084852167784
 20
-116.3691243198661
 30
0.0
 10
105.1084852167784
 20
-116.3691243198661
 30
0.0
 10
104.9245171178661
 20
-116.5065836297275
 30
0.0
 10
104.9245171178661
 20
-116.5065836297275
 30
0.0
 10
104.7891248652958
 20
-116.2950547669332
 30
0.0
 10
104.6175591101303
 20
-116.0707790508434
 30
0.0
 10
104.3236924652385
 20
-115.8719970413445
 30
0.0
 10
104.3236924652385
 20
-115.8719970413445
 30
0.0
 10
104.4718315711043
 20
-115.7176567636053
 30
0.0
 10
104.4718315711043
 20
-115.7176567636053
 30
0.0
 10
104.5817301170837
 20
-115.7979274884116
 30
0.0
 10
104.6854274911898
 20
-115.8868109519311
 30
0.0
 10
104.7825791838738
 20
-115.981895587324
 30
0.0
 10
104.8504475649332
 20
-115.9057589770999
 30
0.0
 10
105.0533636890144
 20
-115.6625352358413
 30
0.0
 10
105.1866888842936
 20
-115.4341254051693
 30
0.0
 10
105.1866888842936
 20
-115.4341254051693
 30
0.0
 10
104.5138617360243
 20
-115.4341254051693
 30
0.0
 10
104.5138617360243
 20
-115.4341254051693
 30
0.0
 10
104.3891492794583
 20
-115.4341254051693
 30
0.0
 10
104.1373127994865
 20
-115.4427381438824
 30
0.0
 10
103.9278509939833
 20
-115.4530734303381
 30
0.0
 10
103.9278509939833
 20
-115.4530734303381
 30
0.0
 10
103.9278509939833
 20
-115.2332763383792
 30
0.0
 10
103.9278509939833
 20
-115.2332763383792
 30
0.0
 10
104.1121636024442
 20
-115.2522243635481
 30
0.0
 10
104.3171467838166
 20
-115.2563584781304
 30
0.0
 10
104.5055935068597
 20
-115.2563584781304
 30
0.0
 10
104.5055935068597
 20
-115.2563584781304
 30
0.0
 10
105.0089219572547
 20
-115.2563584781304
 30
0.0
 10
105.0089219572547
 20
-115.2563584781304
 30
0.0
 10
105.3475748434548
 20
-115.2563584781304
 30
0.0
 10
105.3920165752145
 20
-115.2415445675438
 30
0.0
 10
105.474354357312
 20
-115.2012369503664
 30
0.0
 10
105.474354357312
 20
-115.2012369503664
 30
0.0
 10
105.6414414883466
 20
-115.3600558522364
 30
0.0
 10
105.6414414883466
 20
-115.3600558522364
 30
0.0
 10
105.4891682678985
 20
-115.4320583478781
 30
0.0
 10
105.3455077861636
 20
-115.5950113643304
 30
0.0
 10
105.2862521438173
 20
-115.6646022931325
 30
0.0
  0
HATCH
  5
89
330
4E
100
AcDbEntity
  8
_U+30EC_U+30A4_U+30E4_U+30FC 1
 62
   179
420
  2234388
100
AcDbHatch
 10
0.0
 20
0.0
 30
0.0
210
0.0
220
0.0
230
1.0
  2
SOLID
 70
     1
 71
     0
 91
        1
 92
        1
 93
        1
 72
     4
 94
        3
 73
     0
 74
     1
 95
       50
 96
       46
 40
0.0
 40
0.0
 40
0.0
 40
0.0
 40
1.0
 40
1.0
 40
1.0
 40
2.0
 40
2.0
 40
2.0
 40
3.0
 40
3.0
 40
3.0
 40
4.0
 40
4.0
 40
4.0
 40
5.0
 40
5.0
 40
5.0
 40
6.0
 40
6.0
 40
6.0
 40
7.0
 40
7.0
 40
7.0
 40
8.0
 40
8.0
 40
8.0
 40
9.0
 40
9.0
 40
9.0
 40
10.0
 40
10.0
 40
10.0
 40
11.0
 40
11.0
 40
11.0
 40
12.0
 40
12.0
 40
12.0
 40
13.0
 40
13.0
 40
13.0
 40
14.0
 40
14.0
 40
14.0
 40
15.0
 40
15.0
 40
15.0
 40
15.0
 10
105.2862521438173
 20
-115.6646022931325
 10
105.2249294441799
 20
-115.7366047887742
 10
104.964480225495
 20
-116.0538980829657
 10
104.9076361499884
 20
-116.1172878398943
 10
104.992040989377
 20
-116.2147840421269
 10
105.0430284025587
 20
-116.2781737990555
 10
105.1084852167784
 20
-116.3691243198661
 10
105.1084852167784
 20
-116.3691243198661
 10
104.9245171178661
 20
-116.5065836297275
 10
104.9245171178661
 20
-116.5065836297275
 10
104.7891248652958
 20
-116.2950547669332
 10
104.6175591101303
 20
-116.0707790508434
 10
104.3236924652385
 20
-115.8719970413445
 10
104.3236924652385
 20
-115.8719970413445
 10
104.4718315711043
 20
-115.7176567636053
 10
104.4718315711043
 20
-115.7176567636053
 10
104.5817301170837
 20
-115.7979274884116
 10
104.6854274911898
 20
-115.8868109519311
 10
104.7825791838738
 20
-115.981895587324
 10
104.8504475649332
 20
-115.9057589770999
 10
105.0533636890144
 20
-115.6625352358413
 10
105.1866888842936
 20
-115.4341254051693
 10
105.1866888842936
 20
-115.4341254051693
 10
104.5138617360243
 20
-115.4341254051693
 10
104.5138617360243
 20
-115.4341254051693
 10
104.3891492794583
 20
-115.4341254051693
 10
104.1373127994865
 20
-115.4427381438824
 10
103.9278509939833
 20
-115.4530734303381
 10
103.9278509939833
 20
-115.4530734303381
 10
103.9278509939833
 20
-115.2332763383792
 10
103.9278509939833
 20
-115.2332763383792
 10
104.1121636024442
 20
-115.2522243635481
 10
104.3171467838166
 20
-115.2563584781304
 10
104.5055935068597
 20
-115.2563584781304
 10
104.5055935068597
 20
-115.2563584781304
 10
105.0089219572547
 20
-115.2563584781304
 10
105.0089219572547
 20
-115.2563584781304
 10
105.3475748434548
 20
-115.2563584781304
 10
105.3920165752145
 20
-115.2415445675438
 10
105.474354357312
 20
-115.2012369503664
 10
105.474354357312
 20
-115.2012369503664
 10
105.6414414883466
 20
-115.3600558522364
 10
105.6414414883466
 20
-115.3600558522364
 10
105.4891682678985
 20
-115.4320583478781
 10
105.3455077861636
 20
-115.5950113643304
 10
105.2862521438173
 20
-115.6646022931325
 97
        0
 97
        0
 75
     2
 76
     1
 98
        0
  0
SPLINE
  5
8A
330
4E
100
AcDbEntity
  8
_U+30EC_U+30A4_U+30E4_U+30FC 1
370
     0
100
AcDbSpline
210
0.0
220
0.0
230
1.0
 70
    11
 71
     3
 72
    29
 73
    25
 74
     0
 42
0.0000000001
 43
0.0000000001
 12
1.0
 22
0.0
 32
0.0
 13
1.0
 23
0.0
 33
0.0
 40
0.0
 40
0.0
 40
0.0
 40
0.0
 40
1.0
 40
1.0
 40
1.0
 40
2.0
 40
2.0
 40
2.0
 40
3.0
 40
3.0
 40
3.0
 40
4.0
 40
4.0
 40
4.0
 40
5.0
 40
5.0
 40
5.0
 40
6.0
 40
6.0
 40
6.0
 40
7.0
 40
7.0
 40
7.0
 40
8.0
 40
8.0
 40
8.0
 40
8.0
 10
106.9095811364671
 20
-115.9078260343911
 30
0.0
 10
106.9095811364671
 20
-115.9078260343911
 30
0.0
 10
106.4252007112409
 20
-115.9078260343911
 30
0.0
 10
106.4252007112409
 20
-115.9078260343911
 30
0.0
 10
106.3976399473589
 20
-115.9078260343911
 30
0.0
 10
106.0803466531674
 20
-115.9078260343911
 30
0.0
 10
105.8688177903731
 20
-115.933319740982
 30
0.0
 10
105.8688177903731
 20
-115.933319740982
 30
0.0
 10
105.8688177903731
 20
-115.7028428530187
 30
0.0
 10
105.8688177903731
 20
-115.7028428530187
 30
0.0
 10
106.0272921826946
 20
-115.7259249927699
 30
0.0
 10
106.2178059630289
 20
-115.7283365596096
 30
0.0
 10
106.4252007112409
 20
-115.7283365596096
 30
0.0
 10
106.4252007112409
 20
-115.7283365596096
 30
0.0
 10
106.9095811364671
 20
-115.7283365596096
 30
0.0
 10
106.9095811364671
 20
-115.7283365596096
 30
0.0
 10
107.0956162926705
 20
-115.7283365596096
 30
0.0
 10
107.2819959584226
 20
-115.7259249927699
 30
0.0
 10
107.4659640573349
 20
-115.7028428530187
 30
0.0
 10
107.4659640573349
 20
-115.7028428530187
 30
0.0
 10
107.4659640573349
 20
-115.933319740982
 30
0.0
 10
107.4659640573349
 20
-115.933319740982
 30
0.0
 10
107.2819959584226
 20
-115.9102376012308
 30
0.0
 10
107.0342935930331
 20
-115.9078260343911
 30
0.0
 10
106.9095811364671
 20
-115.9078260343911
 30
0.0
  0
HATCH
  5
8B
330
4E
100
AcDbEntity
  8
_U+30EC_U+30A4_U+30E4_U+30FC 1
 62
   179
420
  2234388
100
AcDbHatch
 10
0.0
 20
0.0
 30
0.0
210
0.0
220
0.0
230
1.0
  2
SOLID
 70
     1
 71
     0
 91
        1
 92
        1
 93
        1
 72
     4
 94
        3
 73
     0
 74
     1
 95
       29
 96
       25
 40
0.0
 40
0.0
 40
0.0
 40
0.0
 40
1.0
 40
1.0
 40
1.0
 40
2.0
 40
2.0
 40
2.0
 40
3.0
 40
3.0
 40
3.0
 40
4.0
 40
4.0
 40
4.0
 40
5.0
 40
5.0
 40
5.0
 40
6.0
 40
6.0
 40
6.0
 40
7.0
 40
7.0
 40
7.0
 40
8.0
 40
8.0
 40
8.0
 40
8.0
 10
106.9095811364671
 20
-115.9078260343911
 10
106.9095811364671
 20
-115.9078260343911
 10
106.4252007112409
 20
-115.9078260343911
 10
106.4252007112409
 20
-115.9078260343911
 10
106.3976399473589
 20
-115.9078260343911
 10
106.0803466531674
 20
-115.9078260343911
 10
105.8688177903731
 20
-115.933319740982
 10
105.8688177903731
 20
-115.933319740982
 10
105.8688177903731
 20
-115.7028428530187
 10
105.8688177903731
 20
-115.7028428530187
 10
106.0272921826946
 20
-115.7259249927699
 10
106.2178059630289
 20
-115.7283365596096
 10
106.4252007112409
 20
-115.7283365596096
 10
106.4252007112409
 20
-115.7283365596096
 10
106.9095811364671
 20
-115.7283365596096
 10
106.9095811364671
 20
-115.7283365596096
 10
107.0956162926705
 20
-115.7283365596096
 10
107.2819959584226
 20
-115.7259249927699
 10
107.4659640573349
 20
-115.7028428530187
 10
107.4659640573349
 20
-115.7028428530187
 10
107.4659640573349
 20
-115.933319740982
 10
107.4659640573349
 20
-115.933319740982
 10
107.2819959584226
 20
-115.9102376012308
 10
107.0342935930331
 20
-115.9078260343911
 10
106.9095811364671
 20
-115.9078260343911
 97
        0
 97
        0
 75
     2
 76
     1
 98
        0
  0
ENDBLK
  5
51
330
4E
100
AcDbEntity
  8
0
100
AcDbBlockEnd
  0
BLOCK
  5
C7
330
C5
100
AcDbEntity
  8
0
100
AcDbBlockBegin
  2
block 3
 70
     0
 10
0.0
 20
0.0
 30
0.0
  3
block 3
  1

  0
SPLINE
  5
C9
330
C5
100
AcDbEntity
  8
_U+30EC_U+30A4_U+30E4_U+30FC 1
370
     0
100
AcDbSpline
210
0.0
220
0.0
230
1.0
 70
    11
 71
     3
 72
    26
 73
    22
 74
     0
 42
0.0000000001
 43
0.0000000001
 12
1.0
 22
0.0
 32
0.0
 13
1.0
 23
0.0
 33
0.0
 40
0.0
 40
0.0
 40
0.0
 40
0.0
 40
1.0
 40
1.0
 40
1.0
 40
2.0
 40
2.0
 40
2.0
 40
3.0
 40
3.0
 40
3.0
 40
4.0
 40
4.0
 40
4.0
 40
5.0
 40
5.0
 40
5.0
 40
6.0
 40
6.0
 40
6.0
 40
7.0
 40
7.0
 40
7.0
 40
7.0
 10
84.65822616156115
 20
-123.2383002079057
 30
0.0
 10
84.65822616156115
 20
-123.2383002079057
 30
0.0
 10
84.65822616156115
 20
-122.1339748501089
 30
0.0
 10
84.65822616156115
 20
-122.1339748501089
 30
0.0
 10
84.65822616156115
 20
-122.1339748501089
 30
0.0
 10
84.30544838387156
 20
-122.1339748501089
 30
0.0
 10
84.30544838387156
 20
-122.1339748501089
 30
0.0
 10
84.30544838387156
 20
-122.1339748501089
 30
0.0
 10
84.30544838387156
 20
-121.9860079990174
 30
0.0
 10
84.30544838387156
 20
-121.9860079990174
 30
0.0
 10
84.66046547362656
 20
-121.9711940884308
 30
0.0
 10
84.71024710338841
 20
-121.8082410719785
 30
0.0
 10
84.74176972707845
 20
-121.6940361566425
 30
0.0
 10
84.74176972707845
 20
-121.6940361566425
 30
0.0
 10
84.89783255256027
 20
-121.6940361566425
 30
0.0
 10
84.89783255256027
 20
-121.6940361566425
 30
0.0
 10
84.89783255256027
 20
-121.6940361566425
 30
0.0
 10
84.89783255256027
 20
-123.2383002079057
 30
0.0
 10
84.89783255256027
 20
-123.2383002079057
 30
0.0
 10
84.89783255256027
 20
-123.2383002079057
 30
0.0
 10
84.65822616156115
 20
-123.2383002079057
 30
0.0
 10
84.65822616156115
 20
-123.2383002079057
 30
0.0
  0
HATCH
  5
CA
330
C5
100
AcDbEntity
  8
_U+30EC_U+30A4_U+30E4_U+30FC 1
 62
     7
420
 16777215
100
AcDbHatch
 10
0.0
 20
0.0
 30
0.0
210
0.0
220
0.0
230
1.0
  2
SOLID
 70
     1
 71
     0
 91
        1
 92
        1
 93
        1
 72
     4
 94
        3
 73
     0
 74
     1
 95
       26
 96
       22
 40
0.0
 40
0.0
 40
0.0
 40
0.0
 40
1.0
 40
1.0
 40
1.0
 40
2.0
 40
2.0
 40
2.0
 40
3.0
 40
3.0
 40
3.0
 40
4.0
 40
4.0
 40
4.0
 40
5.0
 40
5.0
 40
5.0
 40
6.0
 40
6.0
 40
6.0
 40
7.0
 40
7.0
 40
7.0
 40
7.0
 10
84.65822616156115
 20
-123.2383002079057
 10
84.65822616156115
 20
-123.2383002079057
 10
84.65822616156115
 20
-122.1339748501089
 10
84.65822616156115
 20
-122.1339748501089
 10
84.65822616156115
 20
-122.1339748501089
 10
84.30544838387156
 20
-122.1339748501089
 10
84.30544838387156
 20
-122.1339748501089
 10
84.30544838387156
 20
-122.1339748501089
 10
84.30544838387156
 20
-121.9860079990174
 10
84.30544838387156
 20
-121.9860079990174
 10
84.66046547362656
 20
-121.9711940884308
 10
84.71024710338841
 20
-121.8082410719785
 10
84.74176972707845
 20
-121.6940361566425
 10
84.74176972707845
 20
-121.6940361566425
 10
84.89783255256027
 20
-121.6940361566425
 10
84.89783255256027
 20
-121.6940361566425
 10
84.89783255256027
 20
-121.6940361566425
 10
84.89783255256027
 20
-123.2383002079057
 10
84.89783255256027
 20
-123.2383002079057
 10
84.89783255256027
 20
-123.2383002079057
 10
84.65822616156115
 20
-123.2383002079057
 10
84.65822616156115
 20
-123.2383002079057
 97
        0
 97
        0
 75
     2
 76
     1
 98
        0
  0
ENDBLK
  5
C8
330
C5
100
AcDbEntity
  8
0
100
AcDbBlockEnd
  0
BLOCK
  5
D9
330
D7
100
AcDbEntity
  8
0
100
AcDbBlockBegin
  2
block 4
 70
     0
 10
0.0
 20
0.0
 30
0.0
  3
block 4
  1

  0
SPLINE
  5
DB
330
D7
100
AcDbEntity
  8
_U+30EC_U+30A4_U+30E4_U+30FC 1
370
     0
100
AcDbSpline
210
0.0
220
0.0
230
1.0
 70
    11
 71
     3
 72
    26
 73
    22
 74
     0
 42
0.0000000001
 43
0.0000000001
 12
1.0
 22
0.0
 32
0.0
 13
1.0
 23
0.0
 33
0.0
 40
0.0
 40
0.0
 40
0.0
 40
0.0
 40
1.0
 40
1.0
 40
1.0
 40
2.0
 40
2.0
 40
2.0
 40
3.0
 40
3.0
 40
3.0
 40
4.0
 40
4.0
 40
4.0
 40
5.0
 40
5.0
 40
5.0
 40
6.0
 40
6.0
 40
6.0
 40
7.0
 40
7.0
 40
7.0
 40
7.0
 10
86.98624943571872
 20
-140.8568630290219
 30
0.0
 10
86.98624943571872
 20
-140.8568630290219
 30
0.0
 10
86.98624943571872
 20
-139.7527099259993
 30
0.0
 10
86.98624943571872
 20
-139.7527099259993
 30
0.0
 10
86.98624943571872
 20
-139.7527099259993
 30
0.0
 10
86.63381616757766
 20
-139.7527099259993
 30
0.0
 10
86.63381616757766
 20
-139.7527099259993
 30
0.0
 10
86.63381616757766
 20
-139.7527099259993
 30
0.0
 10
86.63381616757766
 20
-139.6045708201336
 30
0.0
 10
86.63381616757766
 20
-139.6045708201336
 30
0.0
 10
86.98866100255839
 20
-139.589756909547
 30
0.0
 10
87.038270377546
 20
-139.4268038930947
 30
0.0
 10
87.06996525601029
 20
-139.3124267229844
 30
0.0
 10
87.06996525601029
 20
-139.3124267229844
 30
0.0
 10
87.2260280814921
 20
-139.3124267229844
 30
0.0
 10
87.2260280814921
 20
-139.3124267229844
 30
0.0
 10
87.2260280814921
 20
-139.3124267229844
 30
0.0
 10
87.2260280814921
 20
-140.8568630290219
 30
0.0
 10
87.2260280814921
 20
-140.8568630290219
 30
0.0
 10
87.2260280814921
 20
-140.8568630290219
 30
0.0
 10
86.98624943571872
 20
-140.8568630290219
 30
0.0
 10
86.98624943571872
 20
-140.8568630290219
 30
0.0
  0
HATCH
  5
DC
330
D7
100
AcDbEntity
  8
_U+30EC_U+30A4_U+30E4_U+30FC 1
 62
     7
420
 16777215
100
AcDbHatch
 10
0.0
 20
0.0
 30
0.0
210
0.0
220
0.0
230
1.0
  2
SOLID
 70
     1
 71
     0
 91
        1
 92
        1
 93
        1
 72
     4
 94
        3
 73
     0
 74
     1
 95
       26
 96
       22
 40
0.0
 40
0.0
 40
0.0
 40
0.0
 40
1.0
 40
1.0
 40
1.0
 40
2.0
 40
2.0
 40
2.0
 40
3.0
 40
3.0
 40
3.0
 40
4.0
 40
4.0
 40
4.0
 40
5.0
 40
5.0
 40
5.0
 40
6.0
 40
6.0
 40
6.0
 40
7.0
 40
7.0
 40
7.0
 40
7.0
 10
86.98624943571872
 20
-140.8568630290219
 10
86.98624943571872
 20
-140.8568630290219
 10
86.98624943571872
 20
-139.7527099259993
 10
86.98624943571872
 20
-139.7527099259993
 10
86.98624943571872
 20
-139.7527099259993
 10
86.63381616757766
 20
-139.7527099259993
 10
86.63381616757766
 20
-139.7527099259993
 10
86.63381616757766
 20
-139.7527099259993
 10
86.63381616757766
 20
-139.6045708201336
 10
86.63381616757766
 20
-139.6045708201336
 10
86.98866100255839
 20
-139.589756909547
 10
87.038270377546
 20
-139.4268038930947
 10
87.06996525601029
 20
-139.3124267229844
 10
87.06996525601029
 20
-139.3124267229844
 10
87.2260280814921
 20
-139.3124267229844
 10
87.2260280814921
 20
-139.3124267229844
 10
87.2260280814921
 20
-139.3124267229844
 10
87.2260280814921
 20
-140.8568630290219
 10
87.2260280814921
 20
-140.8568630290219
 10
87.2260280814921
 20
-140.8568630290219
 10
86.98624943571872
 20
-140.8568630290219
 10
86.98624943571872
 20
-140.8568630290219
 97
        0
 97
        0
 75
     2
 76
     1
 98
        0
  0
POLYLINE
  5
DD
330
D7
100
AcDbEntity
  8
_U+30EC_U+30A4_U+30E4_U+30FC 1
370
     0
100
AcDb2dPolyline
 66
     1
 10
0.0
 20
0.0
 30
0.0
  0
VERTEX
  5
DE
330
DD
100
AcDbEntity
  8
_U+30EC_U+30A4_U+30E4_U+30FC 1
370
     0
100
AcDbVertex
100
AcDb2dVertex
 10
88.65126408373996
 20
-140.5099419136572
 30
0.0
  0
VERTEX
  5
DF
330
DD
100
AcDbEntity
  8
_U+30EC_U+30A4_U+30E4_U+30FC 1
370
     0
100
AcDbVertex
100
AcDb2dVertex
 10
88.65126408373996
 20
-140.8568630290219
 30
0.0
  0
VERTEX
  5
E0
330
DD
100
AcDbEntity
  8
_U+30EC_U+30A4_U+30E4_U+30FC 1
370
     0
100
AcDbVertex
100
AcDb2dVertex
 10
88.41837562893707
 20
-140.8568630290219
 30
0.0
  0
VERTEX
  5
E1
330
DD
100
AcDbEntity
  8
_U+30EC_U+30A4_U+30E4_U+30FC 1
370
     0
100
AcDbVertex
100
AcDb2dVertex
 10
88.41837562893707
 20
-140.5099419136572
 30
0.0
  0
VERTEX
  5
E2
330
DD
100
AcDbEntity
  8
_U+30EC_U+30A4_U+30E4_U+30FC 1
370
     0
100
AcDbVertex
100
AcDb2dVertex
 10
87.71729869768873
 20
-140.5099419136572
 30
0.0
  0
VERTEX
  5
E3
330
DD
100
AcDbEntity
  8
_U+30EC_U+30A4_U+30E4_U+30FC 1
370
     0
100
AcDbVertex
100
AcDb2dVertex
 10
87.71729869768873
 20
-140.2856661975675
 30
0.0
  0
VERTEX
  5
E4
330
DD
100
AcDbEntity
  8
_U+30EC_U+30A4_U+30E4_U+30FC 1
370
     0
100
AcDbVertex
100
AcDb2dVertex
 10
88.44318031643087
 20
-139.3124267229844
 30
0.0
  0
VERTEX
  5
E5
330
DD
100
AcDbEntity
  8
_U+30EC_U+30A4_U+30E4_U+30FC 1
370
     0
100
AcDbVertex
100
AcDb2dVertex
 10
88.65126408373996
 20
-139.3124267229844
 30
0.0
  0
VERTEX
  5
E6
330
DD
100
AcDbEntity
  8
_U+30EC_U+30A4_U+30E4_U+30FC 1
370
     0
100
AcDbVertex
100
AcDb2dVertex
 10
88.65126408373996
 20
-140.3111599041583
 30
0.0
  0
VERTEX
  5
E7
330
DD
100
AcDbEntity
  8
_U+30EC_U+30A4_U+30E4_U+30FC 1
370
     0
100
AcDbVertex
100
AcDb2dVertex
 10
88.87278372344153
 20
-140.3111599041583
 30
0.0
  0
VERTEX
  5
E8
330
DD
100
AcDbEntity
  8
_U+30EC_U+30A4_U+30E4_U+30FC 1
370
     0
100
AcDbVertex
100
AcDb2dVertex
 10
88.87278372344153
 20
-140.5099419136572
 30
0.0
  0
VERTEX
  5
E9
330
DD
100
AcDbEntity
  8
_U+30EC_U+30A4_U+30E4_U+30FC 1
370
     0
100
AcDbVertex
100
AcDb2dVertex
 10
88.65126408373996
 20
-140.5099419136572
 30
0.0
  0
SEQEND
  5
EA
330
DD
100
AcDbEntity
  8
_U+30EC_U+30A4_U+30E4_U+30FC 1
370
     0
  0
POLYLINE
  5
EB
330
D7
100
AcDbEntity
  8
_U+30EC_U+30A4_U+30E4_U+30FC 1
370
     0
100
AcDb2dPolyline
 66
     1
 10
0.0
 20
0.0
 30
0.0
  0
VERTEX
  5
EC
330
EB
100
AcDbEntity
  8
_U+30EC_U+30A4_U+30E4_U+30FC 1
370
     0
100
AcDbVertex
100
AcDb2dVertex
 10
88.41837562893707
 20
-139.6552137237668
 30
0.0
  0
VERTEX
  5
ED
330
EB
100
AcDbEntity
  8
_U+30EC_U+30A4_U+30E4_U+30FC 1
370
     0
100
AcDbVertex
100
AcDb2dVertex
 10
87.92986108912865
 20
-140.3111599041583
 30
0.0
  0
VERTEX
  5
EE
330
EB
100
AcDbEntity
  8
_U+30EC_U+30A4_U+30E4_U+30FC 1
370
     0
100
AcDbVertex
100
AcDb2dVertex
 10
88.41837562893707
 20
-140.3111599041583
 30
0.0
  0
VERTEX
  5
EF
330
EB
100
AcDbEntity
  8
_U+30EC_U+30A4_U+30E4_U+30FC 1
370
     0
100
AcDbVertex
100
AcDb2dVertex
 10
88.41837562893707
 20
-139.6552137237668
 30
0.0
  0
SEQEND
  5
F0
330
EB
100
AcDbEntity
  8
_U+30EC_U+30A4_U+30E4_U+30FC 1
370
     0
  0
HATCH
  5
F1
330
D7
100
AcDbEntity
  8
_U+30EC_U+30A4_U+30E4_U+30FC 1
 62
     7
420
 16777215
100
AcDbHatch
 10
0.0
 20
0.0
 30
0.0
210
0.0
220
0.0
230
1.0
  2
SOLID
 70
     1
 71
     0
 91
        2
 92
        1
 93
       11
 72
     1
 10
88.65126408373996
 20
-140.5099419136572
 11
88.65126408373996
 21
-140.8568630290219
 72
     1
 10
88.65126408373996
 20
-140.8568630290219
 11
88.41837562893707
 21
-140.8568630290219
 72
     1
 10
88.41837562893707
 20
-140.8568630290219
 11
88.41837562893707
 21
-140.5099419136572
 72
     1
 10
88.41837562893707
 20
-140.5099419136572
 11
87.71729869768873
 21
-140.5099419136572
 72
     1
 10
87.71729869768873
 20
-140.5099419136572
 11
87.71729869768873
 21
-140.2856661975675
 72
     1
 10
87.71729869768873
 20
-140.2856661975675
 11
88.44318031643087
 21
-139.3124267229844
 72
     1
 10
88.44318031643087
 20
-139.3124267229844
 11
88.65126408373996
 21
-139.3124267229844
 72
     1
 10
88.65126408373996
 20
-139.3124267229844
 11
88.65126408373996
 21
-140.3111599041583
 72
     1
 10
88.65126408373996
 20
-140.3111599041583
 11
88.87278372344153
 21
-140.3111599041583
 72
     1
 10
88.87278372344153
 20
-140.3111599041583
 11
88.87278372344153
 21
-140.5099419136572
 72
     1
 10
88.87278372344153
 20
-140.5099419136572
 11
88.65126408373996
 21
-140.5099419136572
 97
        0
 92
        1
 93
        3
 72
     1
 10
88.41837562893707
 20
-139.6552137237668
 11
87.92986108912865
 21
-140.3111599041583
 72
     1
 10
87.92986108912865
 20
-140.3111599041583
 11
88.41837562893707
 21
-140.3111599041583
 72
     1
 10
88.41837562893707
 20
-140.3111599041583
 11
88.41837562893707
 21
-139.6552137237668
 97
        0
 75
     2
 76
     1
 98
        0
  0
ENDBLK
  5
DA
330
D7
100
AcDbEntity
  8
0
100
AcDbBlockEnd
  0
BLOCK
  5
102
330
100
100
AcDbEntity
  8
0
100
AcDbBlockBegin
  2
block 5
 70
     0
 10
0.0
 20
0.0
 30
0.0
  3
block 5
  1

  0
SPLINE
  5
104
330
100
100
AcDbEntity
  8
_U+30EC_U+30A4_U+30E4_U+30FC 1
370
     0
100
AcDbSpline
210
0.0
220
0.0
230
1.0
 70
    11
 71
     3
 72
    32
 73
    28
 74
     0
 42
0.0000000001
 43
0.0000000001
 12
1.0
 22
0.0
 32
0.0
 13
1.0
 23
0.0
 33
0.0
 40
0.0
 40
0.0
 40
0.0
 40
0.0
 40
1.0
 40
1.0
 40
1.0
 40
2.0
 40
2.0
 40
2.0
 40
3.0
 40
3.0
 40
3.0
 40
4.0
 40
4.0
 40
4.0
 40
5.0
 40
5.0
 40
5.0
 40
6.0
 40
6.0
 40
6.0
 40
7.0
 40
7.0
 40
7.0
 40
8.0
 40
8.0
 40
8.0
 40
9.0
 40
9.0
 40
9.0
 40
9.0
 10
84.77174205780013
 20
-116.8876111903962
 30
0.0
 10
84.22018227061163
 20
-116.8876111903962
 30
0.0
 10
84.21122502234998
 20
-116.333639836368
 30
0.0
 10
84.21122502234998
 20
-116.119699406734
 30
0.0
 10
84.21122502234998
 20
-115.8892225187708
 30
0.0
 10
84.23155108571295
 20
-115.2418890770923
 30
0.0
 10
84.8127386940746
 20
-115.2418890770923
 30
0.0
 10
84.99808483118103
 20
-115.2418890770923
 30
0.0
 10
85.26025659760855
 20
-115.3118245154429
 30
0.0
 10
85.3009087243345
 20
-115.643931720221
 30
0.0
 10
85.3009087243345
 20
-115.643931720221
 30
0.0
 10
85.07249889366244
 20
-115.643931720221
 30
0.0
 10
85.07249889366244
 20
-115.643931720221
 30
0.0
 10
85.0611300785611
 20
-115.5867431351658
 30
0.0
 10
85.02736814280566
 20
-115.4386040293001
 30
0.0
 10
84.81032712723493
 20
-115.4386040293001
 30
0.0
 10
84.49820147627129
 20
-115.4386040293001
 30
0.0
 10
84.45548229225419
 20
-115.7665771194959
 30
0.0
 10
84.44170191031318
 20
-115.9715603008682
 30
0.0
 10
84.5412651698369
 20
-115.8933566333531
 30
0.0
 10
84.61361217502716
 20
-115.8341009910068
 30
0.0
 10
84.80826006994377
 20
-115.8341009910068
 30
0.0
 10
85.00015188847219
 20
-115.8341009910068
 30
0.0
 10
85.32364635453715
 20
-115.9422769892436
 30
0.0
 10
85.32364635453715
 20
-116.3484537469546
 30
0.0
 10
85.32364635453715
 20
-116.6678140984372
 30
0.0
 10
85.11108396309723
 20
-116.8876111903962
 30
0.0
 10
84.77174205780013
 20
-116.8876111903962
 30
0.0
  0
SPLINE
  5
105
330
100
100
AcDbEntity
  8
_U+30EC_U+30A4_U+30E4_U+30FC 1
370
     0
100
AcDbSpline
210
0.0
220
0.0
230
1.0
 70
    11
 71
     3
 72
    17
 73
    13
 74
     0
 42
0.0000000001
 43
0.0000000001
 12
1.0
 22
0.0
 32
0.0
 13
1.0
 23
0.0
 33
0.0
 40
0.0
 40
0.0
 40
0.0
 40
0.0
 40
1.0
 40
1.0
 40
1.0
 40
2.0
 40
2.0
 40
2.0
 40
3.0
 40
3.0
 40
3.0
 40
4.0
 40
4.0
 40
4.0
 40
4.0
 10
84.79000106387196
 20
-116.0287488859234
 30
0.0
 10
84.50957029137261
 20
-116.0287488859234
 30
0.0
 10
84.46891816464667
 20
-116.2402777487177
 30
0.0
 10
84.46891816464667
 20
-116.3567219761192
 30
0.0
 10
84.46891816464667
 20
-116.5324218458669
 30
0.0
 10
84.57054848146153
 20
-116.6953748623192
 30
0.0
 10
84.7672634336693
 20
-116.6953748623192
 30
0.0
 10
84.89611000481764
 20
-116.6953748623192
 30
0.0
 10
85.08386770876376
 20
-116.6361192199729
 30
0.0
 10
85.08386770876376
 20
-116.3505208042457
 30
0.0
 10
85.08386770876376
 20
-116.1262450881559
 30
0.0
 10
84.93469507425245
 20
-116.0287488859234
 30
0.0
 10
84.79000106387196
 20
-116.0287488859234
 30
0.0
  0
HATCH
  5
106
330
100
100
AcDbEntity
  8
_U+30EC_U+30A4_U+30E4_U+30FC 1
 62
     7
420
 16777215
100
AcDbHatch
 10
0.0
 20
0.0
 30
0.0
210
0.0
220
0.0
230
1.0
  2
SOLID
 70
     1
 71
     0
 91
        2
 92
        1
 93
        1
 72
     4
 94
        3
 73
     0
 74
     1
 95
       32
 96
       28
 40
0.0
 40
0.0
 40
0.0
 40
0.0
 40
1.0
 40
1.0
 40
1.0
 40
2.0
 40
2.0
 40
2.0
 40
3.0
 40
3.0
 40
3.0
 40
4.0
 40
4.0
 40
4.0
 40
5.0
 40
5.0
 40
5.0
 40
6.0
 40
6.0
 40
6.0
 40
7.0
 40
7.0
 40
7.0
 40
8.0
 40
8.0
 40
8.0
 40
9.0
 40
9.0
 40
9.0
 40
9.0
 10
84.77174205780013
 20
-116.8876111903962
 10
84.22018227061163
 20
-116.8876111903962
 10
84.21122502234998
 20
-116.333639836368
 10
84.21122502234998
 20
-116.119699406734
 10
84.21122502234998
 20
-115.8892225187708
 10
84.23155108571295
 20
-115.2418890770923
 10
84.8127386940746
 20
-115.2418890770923
 10
84.99808483118103
 20
-115.2418890770923
 10
85.26025659760855
 20
-115.3118245154429
 10
85.3009087243345
 20
-115.643931720221
 10
85.3009087243345
 20
-115.643931720221
 10
85.07249889366244
 20
-115.643931720221
 10
85.07249889366244
 20
-115.643931720221
 10
85.0611300785611
 20
-115.5867431351658
 10
85.02736814280566
 20
-115.4386040293001
 10
84.81032712723493
 20
-115.4386040293001
 10
84.49820147627129
 20
-115.4386040293001
 10
84.45548229225419
 20
-115.7665771194959
 10
84.44170191031318
 20
-115.9715603008682
 10
84.5412651698369
 20
-115.8933566333531
 10
84.61361217502716
 20
-115.8341009910068
 10
84.80826006994377
 20
-115.8341009910068
 10
85.00015188847219
 20
-115.8341009910068
 10
85.32364635453715
 20
-115.9422769892436
 10
85.32364635453715
 20
-116.3484537469546
 10
85.32364635453715
 20
-116.6678140984372
 10
85.11108396309723
 20
-116.8876111903962
 10
84.77174205780013
 20
-116.8876111903962
 97
        0
 97
        0
 92
        1
 93
        1
 72
     4
 94
        3
 73
     0
 74
     1
 95
       17
 96
       13
 40
0.0
 40
0.0
 40
0.0
 40
0.0
 40
1.0
 40
1.0
 40
1.0
 40
2.0
 40
2.0
 40
2.0
 40
3.0
 40
3.0
 40
3.0
 40
4.0
 40
4.0
 40
4.0
 40
4.0
 10
84.79000106387196
 20
-116.0287488859234
 10
84.50957029137261
 20
-116.0287488859234
 10
84.46891816464667
 20
-116.2402777487177
 10
84.46891816464667
 20
-116.3567219761192
 10
84.46891816464667
 20
-116.5324218458669
 10
84.57054848146153
 20
-116.6953748623192
 10
84.7672634336693
 20
-116.6953748623192
 10
84.89611000481764
 20
-116.6953748623192
 10
85.08386770876376
 20
-116.6361192199729
 10
85.08386770876376
 20
-116.3505208042457
 10
85.08386770876376
 20
-116.1262450881559
 10
84.93469507425245
 20
-116.0287488859234
 10
84.79000106387196
 20
-116.0287488859234
 97
        0
 97
        0
 75
     2
 76
     1
 98
        0
  0
ENDBLK
  5
103
330
100
100
AcDbEntity
  8
0
100
AcDbBlockEnd
  0
BLOCK
  5
115
330
113
100
AcDbEntity
  8
0
100
AcDbBlockBegin
  2
block 6
 70
     0
 10
0.0
 20
0.0
 30
0.0
  3
block 6
  1

  0
SPLINE
  5
117
330
113
100
AcDbEntity
  8
_U+30EC_U+30A4_U+30E4_U+30FC 1
370
     0
100
AcDbSpline
210
0.0
220
0.0
230
1.0
 70
    11
 71
     3
 72
    26
 73
    22
 74
     0
 42
0.0000000001
 43
0.0000000001
 12
1.0
 22
0.0
 32
0.0
 13
1.0
 23
0.0
 33
0.0
 40
0.0
 40
0.0
 40
0.0
 40
0.0
 40
1.0
 40
1.0
 40
1.0
 40
2.0
 40
2.0
 40
2.0
 40
3.0
 40
3.0
 40
3.0
 40
4.0
 40
4.0
 40
4.0
 40
5.0
 40
5.0
 40
5.0
 40
6.0
 40
6.0
 40
6.0
 40
7.0
 40
7.0
 40
7.0
 40
7.0
 10
76.07115340980165
 20
-129.1741997289912
 30
0.0
 10
76.07115340980165
 20
-129.1741997289912
 30
0.0
 10
74.96682805200483
 20
-129.1741997289912
 30
0.0
 10
74.96682805200483
 20
-129.1741997289912
 30
0.0
 10
74.96682805200483
 20
-129.1741997289912
 30
0.0
 10
74.96682805200483
 20
-129.5269775066808
 30
0.0
 10
74.96682805200483
 20
-129.5269775066808
 30
0.0
 10
74.96682805200483
 20
-129.5269775066808
 30
0.0
 10
74.81868894613908
 20
-129.5269775066808
 30
0.0
 10
74.81868894613908
 20
-129.5269775066808
 30
0.0
 10
74.80404729032676
 20
-129.1717881621515
 30
0.0
 10
74.64109427387446
 20
-129.1221787871639
 30
0.0
 10
74.52688935853843
 20
-129.0904839086996
 30
0.0
 10
74.52688935853843
 20
-129.0904839086996
 30
0.0
 10
74.52688935853843
 20
-128.9344210832178
 30
0.0
 10
74.52688935853843
 20
-128.9344210832178
 30
0.0
 10
74.52688935853843
 20
-128.9344210832178
 30
0.0
 10
76.07115340980165
 20
-128.9344210832178
 30
0.0
 10
76.07115340980165
 20
-128.9344210832178
 30
0.0
 10
76.07115340980165
 20
-128.9344210832178
 30
0.0
 10
76.07115340980165
 20
-129.1741997289912
 30
0.0
 10
76.07115340980165
 20
-129.1741997289912
 30
0.0
  0
HATCH
  5
118
330
113
100
AcDbEntity
  8
_U+30EC_U+30A4_U+30E4_U+30FC 1
 62
     7
420
 16777215
100
AcDbHatch
 10
0.0
 20
0.0
 30
0.0
210
0.0
220
0.0
230
1.0
  2
SOLID
 70
     1
 71
     0
 91
        1
 92
        1
 93
        1
 72
     4
 94
        3
 73
     0
 74
     1
 95
       26
 96
       22
 40
0.0
 40
0.0
 40
0.0
 40
0.0
 40
1.0
 40
1.0
 40
1.0
 40
2.0
 40
2.0
 40
2.0
 40
3.0
 40
3.0
 40
3.0
 40
4.0
 40
4.0
 40
4.0
 40
5.0
 40
5.0
 40
5.0
 40
6.0
 40
6.0
 40
6.0
 40
7.0
 40
7.0
 40
7.0
 40
7.0
 10
76.07115340980165
 20
-129.1741997289912
 10
76.07115340980165
 20
-129.1741997289912
 10
74.96682805200483
 20
-129.1741997289912
 10
74.96682805200483
 20
-129.1741997289912
 10
74.96682805200483
 20
-129.1741997289912
 10
74.96682805200483
 20
-129.5269775066808
 10
74.96682805200483
 20
-129.5269775066808
 10
74.96682805200483
 20
-129.5269775066808
 10
74.81868894613908
 20
-129.5269775066808
 10
74.81868894613908
 20
-129.5269775066808
 10
74.80404729032676
 20
-129.1717881621515
 10
74.64109427387446
 20
-129.1221787871639
 10
74.52688935853843
 20
-129.0904839086996
 10
74.52688935853843
 20
-129.0904839086996
 10
74.52688935853843
 20
-128.9344210832178
 10
74.52688935853843
 20
-128.9344210832178
 10
74.52688935853843
 20
-128.9344210832178
 10
76.07115340980165
 20
-128.9344210832178
 10
76.07115340980165
 20
-128.9344210832178
 10
76.07115340980165
 20
-128.9344210832178
 10
76.07115340980165
 20
-129.1741997289912
 10
76.07115340980165
 20
-129.1741997289912
 97
        0
 97
        0
 75
     2
 76
     1
 98
        0
  0
SPLINE
  5
119
330
113
100
AcDbEntity
  8
_U+30EC_U+30A4_U+30E4_U+30FC 1
370
     0
100
AcDbSpline
210
0.0
220
0.0
230
1.0
 70
    11
 71
     3
 72
    29
 73
    25
 74
     0
 42
0.0000000001
 43
0.0000000001
 12
1.0
 22
0.0
 32
0.0
 13
1.0
 23
0.0
 33
0.0
 40
0.0
 40
0.0
 40
0.0
 40
0.0
 40
1.0
 40
1.0
 40
1.0
 40
2.0
 40
2.0
 40
2.0
 40
3.0
 40
3.0
 40
3.0
 40
4.0
 40
4.0
 40
4.0
 40
5.0
 40
5.0
 40
5.0
 40
6.0
 40
6.0
 40
6.0
 40
7.0
 40
7.0
 40
7.0
 40
8.0
 40
8.0
 40
8.0
 40
8.0
 10
76.1219685682091
 20
-127.8643744254992
 30
0.0
 10
76.1219685682091
 20
-128.1492838221293
 30
0.0
 10
75.98433700357336
 20
-128.4205850915928
 30
0.0
 10
75.63534883091755
 20
-128.4205850915928
 30
0.0
 10
75.3793782363635
 20
-128.4205850915928
 30
0.0
 10
75.28412134619633
 20
-128.2691731450161
 30
0.0
 10
75.22279864655889
 20
-128.1560017583256
 30
0.0
 10
75.16354300421258
 20
-128.289499208379
 30
0.0
 10
75.04933808887655
 20
-128.3708034618309
 30
0.0
 10
74.88862438448966
 20
-128.3708034618309
 30
0.0
 10
74.61353350999245
 20
-128.3708034618309
 30
0.0
 10
74.47814125742214
 20
-128.158241070391
 30
0.0
 10
74.47814125742214
 20
-127.8643744254992
 30
0.0
 10
74.47814125742214
 20
-127.5615505323457
 30
0.0
 10
74.62197399393132
 20
-127.3579453891675
 30
0.0
 10
74.88862438448966
 20
-127.3579453891675
 30
0.0
 10
75.04933808887655
 20
-127.3579453891675
 30
0.0
 10
75.16354300421258
 20
-127.441661209459
 30
0.0
 10
75.22279864655889
 20
-127.5749864047382
 30
0.0
 10
75.27361380496632
 20
-127.4800740241196
 30
0.0
 10
75.36887069513348
 20
-127.3105753262453
 30
0.0
 10
75.631042461561
 20
-127.3105753262453
 30
0.0
 10
76.00552434080765
 20
-127.3105753262453
 30
0.0
 10
76.1219685682091
 20
-127.6089205952679
 30
0.0
 10
76.1219685682091
 20
-127.8643744254992
 30
0.0
  0
SPLINE
  5
11A
330
113
100
AcDbEntity
  8
_U+30EC_U+30A4_U+30E4_U+30FC 1
370
     0
100
AcDbSpline
210
0.0
220
0.0
230
1.0
 70
    11
 71
     3
 72
    17
 73
    13
 74
     0
 42
0.0000000001
 43
0.0000000001
 12
1.0
 22
0.0
 32
0.0
 13
1.0
 23
0.0
 33
0.0
 40
0.0
 40
0.0
 40
0.0
 40
0.0
 40
1.0
 40
1.0
 40
1.0
 40
2.0
 40
2.0
 40
2.0
 40
3.0
 40
3.0
 40
3.0
 40
4.0
 40
4.0
 40
4.0
 40
4.0
 10
74.6707220950476
 20
-127.8643744254992
 30
0.0
 10
74.6707220950476
 20
-128.040763314344
 30
0.0
 10
74.7658067304405
 20
-128.1311970708318
 30
0.0
 10
74.90119898301081
 20
-128.1311970708318
 30
0.0
 10
75.02401663705997
 20
-128.1311970708318
 30
0.0
 10
75.14252792175256
 20
-128.0543714415107
 30
0.0
 10
75.14252792175256
 20
-127.8643744254992
 30
0.0
 10
75.14252792175256
 20
-127.6745496642619
 30
0.0
 10
75.02401663705997
 20
-127.5977240349409
 30
0.0
 10
74.90119898301081
 20
-127.5977240349409
 30
0.0
 10
74.7658067304405
 20
-127.5977240349409
 30
0.0
 10
74.6707220950476
 20
-127.6903971034941
 30
0.0
 10
74.6707220950476
 20
-127.8643744254992
 30
0.0
  0
SPLINE
  5
11B
330
113
100
AcDbEntity
  8
_U+30EC_U+30A4_U+30E4_U+30FC 1
370
     0
100
AcDbSpline
210
0.0
220
0.0
230
1.0
 70
    11
 71
     3
 72
    17
 73
    13
 74
     0
 42
0.0000000001
 43
0.0000000001
 12
1.0
 22
0.0
 32
0.0
 13
1.0
 23
0.0
 33
0.0
 40
0.0
 40
0.0
 40
0.0
 40
0.0
 40
1.0
 40
1.0
 40
1.0
 40
2.0
 40
2.0
 40
2.0
 40
3.0
 40
3.0
 40
3.0
 40
4.0
 40
4.0
 40
4.0
 40
4.0
 10
75.33080239002147
 20
-127.8643744254992
 30
0.0
 10
75.33080239002147
 20
-128.0181979389156
 30
0.0
 10
75.4174465414755
 20
-128.1809787005936
 30
0.0
 10
75.62053492033098
 20
-128.1809787005936
 30
0.0
 10
75.82569035647761
 20
-128.1809787005936
 30
0.0
 10
75.92732067329248
 20
-128.0452419384748
 30
0.0
 10
75.92732067329248
 20
-127.8643744254992
 30
0.0
 10
75.92732067329248
 20
-127.665420161226
 30
0.0
 10
75.80467527401758
 20
-127.547942405179
 30
0.0
 10
75.6269083469787
 20
-127.547942405179
 30
0.0
 10
75.40469968818007
 20
-127.547942405179
 30
0.0
 10
75.33080239002147
 20
-127.7219197271841
 30
0.0
 10
75.33080239002147
 20
-127.8643744254992
 30
0.0
  0
HATCH
  5
11C
330
113
100
AcDbEntity
  8
_U+30EC_U+30A4_U+30E4_U+30FC 1
 62
     7
420
 16777215
100
AcDbHatch
 10
0.0
 20
0.0
 30
0.0
210
0.0
220
0.0
230
1.0
  2
SOLID
 70
     1
 71
     0
 91
        3
 92
        1
 93
        1
 72
     4
 94
        3
 73
     0
 74
     1
 95
       29
 96
       25
 40
0.0
 40
0.0
 40
0.0
 40
0.0
 40
1.0
 40
1.0
 40
1.0
 40
2.0
 40
2.0
 40
2.0
 40
3.0
 40
3.0
 40
3.0
 40
4.0
 40
4.0
 40
4.0
 40
5.0
 40
5.0
 40
5.0
 40
6.0
 40
6.0
 40
6.0
 40
7.0
 40
7.0
 40
7.0
 40
8.0
 40
8.0
 40
8.0
 40
8.0
 10
76.1219685682091
 20
-127.8643744254992
 10
76.1219685682091
 20
-128.1492838221293
 10
75.98433700357336
 20
-128.4205850915928
 10
75.63534883091755
 20
-128.4205850915928
 10
75.3793782363635
 20
-128.4205850915928
 10
75.28412134619633
 20
-128.2691731450161
 10
75.22279864655889
 20
-128.1560017583256
 10
75.16354300421258
 20
-128.289499208379
 10
75.04933808887655
 20
-128.3708034618309
 10
74.88862438448966
 20
-128.3708034618309
 10
74.61353350999245
 20
-128.3708034618309
 10
74.47814125742214
 20
-128.158241070391
 10
74.47814125742214
 20
-127.8643744254992
 10
74.47814125742214
 20
-127.5615505323457
 10
74.62197399393132
 20
-127.3579453891675
 10
74.88862438448966
 20
-127.3579453891675
 10
75.04933808887655
 20
-127.3579453891675
 10
75.16354300421258
 20
-127.441661209459
 10
75.22279864655889
 20
-127.5749864047382
 10
75.27361380496632
 20
-127.4800740241196
 10
75.36887069513348
 20
-127.3105753262453
 10
75.631042461561
 20
-127.3105753262453
 10
76.00552434080765
 20
-127.3105753262453
 10
76.1219685682091
 20
-127.6089205952679
 10
76.1219685682091
 20
-127.8643744254992
 97
        0
 97
        0
 92
        1
 93
        1
 72
     4
 94
        3
 73
     0
 74
     1
 95
       17
 96
       13
 40
0.0
 40
0.0
 40
0.0
 40
0.0
 40
1.0
 40
1.0
 40
1.0
 40
2.0
 40
2.0
 40
2.0
 40
3.0
 40
3.0
 40
3.0
 40
4.0
 40
4.0
 40
4.0
 40
4.0
 10
74.6707220950476
 20
-127.8643744254992
 10
74.6707220950476
 20
-128.040763314344
 10
74.7658067304405
 20
-128.1311970708318
 10
74.90119898301081
 20
-128.1311970708318
 10
75.02401663705997
 20
-128.1311970708318
 10
75.14252792175256
 20
-128.0543714415107
 10
75.14252792175256
 20
-127.8643744254992
 10
75.14252792175256
 20
-127.6745496642619
 10
75.02401663705997
 20
-127.5977240349409
 10
74.90119898301081
 20
-127.5977240349409
 10
74.7658067304405
 20
-127.5977240349409
 10
74.6707220950476
 20
-127.6903971034941
 10
74.6707220950476
 20
-127.8643744254992
 97
        0
 97
        0
 92
        1
 93
        1
 72
     4
 94
        3
 73
     0
 74
     1
 95
       17
 96
       13
 40
0.0
 40
0.0
 40
0.0
 40
0.0
 40
1.0
 40
1.0
 40
1.0
 40
2.0
 40
2.0
 40
2.0
 40
3.0
 40
3.0
 40
3.0
 40
4.0
 40
4.0
 40
4.0
 40
4.0
 10
75.33080239002147
 20
-127.8643744254992
 10
75.33080239002147
 20
-128.0181979389156
 10
75.4174465414755
 20
-128.1809787005936
 10
75.62053492033098
 20
-128.1809787005936
 10
75.82569035647761
 20
-128.1809787005936
 10
75.92732067329248
 20
-128.0452419384748
 10
75.92732067329248
 20
-127.8643744254992
 10
75.92732067329248
 20
-127.665420161226
 10
75.80467527401758
 20
-127.547942405179
 10
75.6269083469787
 20
-127.547942405179
 10
75.40469968818007
 20
-127.547942405179
 10
75.33080239002147
 20
-127.7219197271841
 10
75.33080239002147
 20
-127.8643744254992
 97
        0
 97
        0
 75
     2
 76
     1
 98
        0
  0
ENDBLK
  5
116
330
113
100
AcDbEntity
  8
0
100
AcDbBlockEnd
  0
BLOCK
  5
130
330
12E
100
AcDbEntity
  8
0
100
AcDbBlockBegin
  2
block 7
 70
     0
 10
0.0
 20
0.0
 30
0.0
  3
block 7
  1

  0
SPLINE
  5
132
330
12E
100
AcDbEntity
  8
_U+30EC_U+30A4_U+30E4_U+30FC 1
370
     0
100
AcDbSpline
210
0.0
220
0.0
230
1.0
 70
    11
 71
     3
 72
    26
 73
    22
 74
     0
 42
0.0000000001
 43
0.0000000001
 12
1.0
 22
0.0
 32
0.0
 13
1.0
 23
0.0
 33
0.0
 40
0.0
 40
0.0
 40
0.0
 40
0.0
 40
1.0
 40
1.0
 40
1.0
 40
2.0
 40
2.0
 40
2.0
 40
3.0
 40
3.0
 40
3.0
 40
4.0
 40
4.0
 40
4.0
 40
5.0
 40
5.0
 40
5.0
 40
6.0
 40
6.0
 40
6.0
 40
7.0
 40
7.0
 40
7.0
 40
7.0
 10
96.484033179004
 20
-131.9860866640521
 30
0.0
 10
96.484033179004
 20
-131.9860866640521
 30
0.0
 10
95.37988007598142
 20
-131.9860866640521
 30
0.0
 10
95.37988007598142
 20
-131.9860866640521
 30
0.0
 10
95.37988007598142
 20
-131.9860866640521
 30
0.0
 10
95.37988007598142
 20
-132.3385199321932
 30
0.0
 10
95.37988007598142
 20
-132.3385199321932
 30
0.0
 10
95.37988007598142
 20
-132.3385199321932
 30
0.0
 10
95.23174097011568
 20
-132.3385199321932
 30
0.0
 10
95.23174097011568
 20
-132.3385199321932
 30
0.0
 10
95.21692705952911
 20
-131.9836750972124
 30
0.0
 10
95.05397404307679
 20
-131.9340657222248
 30
0.0
 10
94.93959687296649
 20
-131.9023708437605
 30
0.0
 10
94.93959687296649
 20
-131.9023708437605
 30
0.0
 10
94.93959687296649
 20
-131.7463080182787
 30
0.0
 10
94.93959687296649
 20
-131.7463080182787
 30
0.0
 10
94.93959687296649
 20
-131.7463080182787
 30
0.0
 10
96.484033179004
 20
-131.7463080182787
 30
0.0
 10
96.484033179004
 20
-131.7463080182787
 30
0.0
 10
96.484033179004
 20
-131.7463080182787
 30
0.0
 10
96.484033179004
 20
-131.9860866640521
 30
0.0
 10
96.484033179004
 20
-131.9860866640521
 30
0.0
  0
HATCH
  5
133
330
12E
100
AcDbEntity
  8
_U+30EC_U+30A4_U+30E4_U+30FC 1
 62
     7
420
 16777215
100
AcDbHatch
 10
0.0
 20
0.0
 30
0.0
210
0.0
220
0.0
230
1.0
  2
SOLID
 70
     1
 71
     0
 91
        1
 92
        1
 93
        1
 72
     4
 94
        3
 73
     0
 74
     1
 95
       26
 96
       22
 40
0.0
 40
0.0
 40
0.0
 40
0.0
 40
1.0
 40
1.0
 40
1.0
 40
2.0
 40
2.0
 40
2.0
 40
3.0
 40
3.0
 40
3.0
 40
4.0
 40
4.0
 40
4.0
 40
5.0
 40
5.0
 40
5.0
 40
6.0
 40
6.0
 40
6.0
 40
7.0
 40
7.0
 40
7.0
 40
7.0
 10
96.484033179004
 20
-131.9860866640521
 10
96.484033179004
 20
-131.9860866640521
 10
95.37988007598142
 20
-131.9860866640521
 10
95.37988007598142
 20
-131.9860866640521
 10
95.37988007598142
 20
-131.9860866640521
 10
95.37988007598142
 20
-132.3385199321932
 10
95.37988007598142
 20
-132.3385199321932
 10
95.37988007598142
 20
-132.3385199321932
 10
95.23174097011568
 20
-132.3385199321932
 10
95.23174097011568
 20
-132.3385199321932
 10
95.21692705952911
 20
-131.9836750972124
 10
95.05397404307679
 20
-131.9340657222248
 10
94.93959687296649
 20
-131.9023708437605
 10
94.93959687296649
 20
-131.9023708437605
 10
94.93959687296649
 20
-131.7463080182787
 10
94.93959687296649
 20
-131.7463080182787
 10
94.93959687296649
 20
-131.7463080182787
 10
96.484033179004
 20
-131.7463080182787
 10
96.484033179004
 20
-131.7463080182787
 10
96.484033179004
 20
-131.7463080182787
 10
96.484033179004
 20
-131.9860866640521
 10
96.484033179004
 20
-131.9860866640521
 97
        0
 97
        0
 75
     2
 76
     1
 98
        0
  0
SPLINE
  5
134
330
12E
100
AcDbEntity
  8
_U+30EC_U+30A4_U+30E4_U+30FC 1
370
     0
100
AcDbSpline
210
0.0
220
0.0
230
1.0
 70
    11
 71
     3
 72
    29
 73
    25
 74
     0
 42
0.0000000001
 43
0.0000000001
 12
1.0
 22
0.0
 32
0.0
 13
1.0
 23
0.0
 33
0.0
 40
0.0
 40
0.0
 40
0.0
 40
0.0
 40
1.0
 40
1.0
 40
1.0
 40
2.0
 40
2.0
 40
2.0
 40
3.0
 40
3.0
 40
3.0
 40
4.0
 40
4.0
 40
4.0
 40
5.0
 40
5.0
 40
5.0
 40
6.0
 40
6.0
 40
6.0
 40
7.0
 40
7.0
 40
7.0
 40
8.0
 40
8.0
 40
8.0
 40
8.0
 10
96.3062662519651
 20
-130.2511365776803
 30
0.0
 10
96.5157280574683
 20
-130.3665472764361
 30
0.0
 10
96.53467608263716
 20
-130.5518934135426
 30
0.0
 10
96.53467608263716
 20
-130.6762613605601
 30
0.0
 10
96.53467608263716
 20
-130.8478271157256
 30
0.0
 10
96.4881672935863
 20
-130.9994113170766
 30
0.0
 10
96.3062662519651
 20
-131.1010416338914
 30
0.0
 10
96.11161835704848
 20
-131.2119737085165
 30
0.0
 10
95.8745957876633
 20
-131.2322997718794
 30
0.0
 10
95.7119872807595
 20
-131.2322997718794
 30
0.0
 10
95.56798228947606
 20
-131.2322997718794
 30
0.0
 10
95.3161458095043
 20
-131.2140407658076
 30
0.0
 10
95.11736380000539
 20
-131.1010416338914
 30
0.0
 10
94.91444767592417
 20
-130.9859754446841
 30
0.0
 10
94.89102102662447
 20
-130.8140651799701
 30
0.0
 10
94.89102102662447
 20
-130.6762613605601
 30
0.0
 10
94.89102102662447
 20
-130.5064181531373
 30
0.0
 10
94.93546275838419
 20
-130.3527668944951
 30
0.0
 10
95.11736380000539
 20
-130.2511365776803
 30
0.0
 10
95.30994463763085
 20
-130.1446831271861
 30
0.0
 10
95.53835446830291
 20
-130.1198784396923
 30
0.0
 10
95.7119872807595
 20
-130.1198784396923
 30
0.0
 10
95.88320852637642
 20
-130.1198784396923
 30
0.0
 10
96.11368541433964
 20
-130.1426160698949
 30
0.0
 10
96.3062662519651
 20
-130.2511365776803
 30
0.0
  0
SPLINE
  5
135
330
12E
100
AcDbEntity
  8
_U+30EC_U+30A4_U+30E4_U+30FC 1
370
     0
100
AcDbSpline
210
0.0
220
0.0
230
1.0
 70
    11
 71
     3
 72
    17
 73
    13
 74
     0
 42
0.0000000001
 43
0.0000000001
 12
1.0
 22
0.0
 32
0.0
 13
1.0
 23
0.0
 33
0.0
 40
0.0
 40
0.0
 40
0.0
 40
0.0
 40
1.0
 40
1.0
 40
1.0
 40
2.0
 40
2.0
 40
2.0
 40
3.0
 40
3.0
 40
3.0
 40
4.0
 40
4.0
 40
4.0
 40
4.0
 10
95.08360186424994
 20
-130.6762613605601
 30
0.0
 10
95.08360186424994
 20
-130.9429117511185
 30
0.0
 10
95.367133222686
 20
-130.9925211261061
 30
0.0
 10
95.7119872807595
 20
-130.9925211261061
 30
0.0
 10
96.03134763224217
 20
-130.9925211261061
 30
0.0
 10
96.34002818772055
 20
-130.9542805662198
 30
0.0
 10
96.34002818772055
 20
-130.6762613605601
 30
0.0
 10
96.34002818772055
 20
-130.4116780272929
 30
0.0
 10
96.05890839612417
 20
-130.3596570854656
 30
0.0
 10
95.7119872807595
 20
-130.3596570854656
 30
0.0
 10
95.39228241972832
 20
-130.3596570854656
 30
0.0
 10
95.08360186424994
 20
-130.4003092121916
 30
0.0
 10
95.08360186424994
 20
-130.6762613605601
 30
0.0
  0
HATCH
  5
136
330
12E
100
AcDbEntity
  8
_U+30EC_U+30A4_U+30E4_U+30FC 1
 62
     7
420
 16777215
100
AcDbHatch
 10
0.0
 20
0.0
 30
0.0
210
0.0
220
0.0
230
1.0
  2
SOLID
 70
     1
 71
     0
 91
        2
 92
        1
 93
        1
 72
     4
 94
        3
 73
     0
 74
     1
 95
       29
 96
       25
 40
0.0
 40
0.0
 40
0.0
 40
0.0
 40
1.0
 40
1.0
 40
1.0
 40
2.0
 40
2.0
 40
2.0
 40
3.0
 40
3.0
 40
3.0
 40
4.0
 40
4.0
 40
4.0
 40
5.0
 40
5.0
 40
5.0
 40
6.0
 40
6.0
 40
6.0
 40
7.0
 40
7.0
 40
7.0
 40
8.0
 40
8.0
 40
8.0
 40
8.0
 10
96.3062662519651
 20
-130.2511365776803
 10
96.5157280574683
 20
-130.3665472764361
 10
96.53467608263716
 20
-130.5518934135426
 10
96.53467608263716
 20
-130.6762613605601
 10
96.53467608263716
 20
-130.8478271157256
 10
96.4881672935863
 20
-130.9994113170766
 10
96.3062662519651
 20
-131.1010416338914
 10
96.11161835704848
 20
-131.2119737085165
 10
95.8745957876633
 20
-131.2322997718794
 10
95.7119872807595
 20
-131.2322997718794
 10
95.56798228947606
 20
-131.2322997718794
 10
95.3161458095043
 20
-131.2140407658076
 10
95.11736380000539
 20
-131.1010416338914
 10
94.91444767592417
 20
-130.9859754446841
 10
94.89102102662447
 20
-130.8140651799701
 10
94.89102102662447
 20
-130.6762613605601
 10
94.89102102662447
 20
-130.5064181531373
 10
94.93546275838419
 20
-130.3527668944951
 10
95.11736380000539
 20
-130.2511365776803
 10
95.30994463763085
 20
-130.1446831271861
 10
95.53835446830291
 20
-130.1198784396923
 10
95.7119872807595
 20
-130.1198784396923
 10
95.88320852637642
 20
-130.1198784396923
 10
96.11368541433964
 20
-130.1426160698949
 10
96.3062662519651
 20
-130.2511365776803
 97
        0
 97
        0
 92
        1
 93
        1
 72
     4
 94
        3
 73
     0
 74
     1
 95
       17
 96
       13
 40
0.0
 40
0.0
 40
0.0
 40
0.0
 40
1.0
 40
1.0
 40
1.0
 40
2.0
 40
2.0
 40
2.0
 40
3.0
 40
3.0
 40
3.0
 40
4.0
 40
4.0
 40
4.0
 40
4.0
 10
95.08360186424994
 20
-130.6762613605601
 10
95.08360186424994
 20
-130.9429117511185
 10
95.367133222686
 20
-130.9925211261061
 10
95.7119872807595
 20
-130.9925211261061
 10
96.03134763224217
 20
-130.9925211261061
 10
96.34002818772055
 20
-130.9542805662198
 10
96.34002818772055
 20
-130.6762613605601
 10
96.34002818772055
 20
-130.4116780272929
 10
96.05890839612417
 20
-130.3596570854656
 10
95.7119872807595
 20
-130.3596570854656
 10
95.39228241972832
 20
-130.3596570854656
 10
95.08360186424994
 20
-130.4003092121916
 10
95.08360186424994
 20
-130.6762613605601
 97
        0
 97
        0
 75
     2
 76
     1
 98
        0
  0
ENDBLK
  5
131
330
12E
100
AcDbEntity
  8
0
100
AcDbBlockEnd
  0
BLOCK
  5
141
330
13F
100
AcDbEntity
  8
0
100
AcDbBlockBegin
  2
block 8
 70
     0
 10
0.0
 20
0.0
 30
0.0
  3
block 8
  1

  0
SPLINE
  5
143
330
13F
100
AcDbEntity
  8
_U+30EC_U+30A4_U+30E4_U+30FC 1
370
     0
100
AcDbSpline
210
0.0
220
0.0
230
1.0
 70
    11
 71
     3
 72
    32
 73
    28
 74
     0
 42
0.0000000001
 43
0.0000000001
 12
1.0
 22
0.0
 32
0.0
 13
1.0
 23
0.0
 33
0.0
 40
0.0
 40
0.0
 40
0.0
 40
0.0
 40
1.0
 40
1.0
 40
1.0
 40
2.0
 40
2.0
 40
2.0
 40
3.0
 40
3.0
 40
3.0
 40
4.0
 40
4.0
 40
4.0
 40
5.0
 40
5.0
 40
5.0
 40
6.0
 40
6.0
 40
6.0
 40
7.0
 40
7.0
 40
7.0
 40
8.0
 40
8.0
 40
8.0
 40
9.0
 40
9.0
 40
9.0
 40
9.0
 10
96.53467608263716
 20
-122.508112219807
 30
0.0
 10
96.53467608263716
 20
-123.0598442617698
 30
0.0
 10
95.980704728609
 20
-123.0688015100314
 30
0.0
 10
95.76676429897498
 20
-123.0688015100314
 30
0.0
 10
95.53628741101177
 20
-123.0688015100314
 30
0.0
 10
94.88895396933331
 20
-123.0484754466684
 30
0.0
 10
94.88895396933331
 20
-122.4674600930811
 30
0.0
 10
94.88895396933331
 20
-122.2819417012004
 30
0.0
 10
94.9588894076839
 20
-122.0197699347728
 30
0.0
 10
95.29099661246198
 20
-121.9791178080469
 30
0.0
 10
95.29099661246198
 20
-121.9791178080469
 30
0.0
 10
95.29099661246198
 20
-122.2073553839447
 30
0.0
 10
95.29099661246198
 20
-122.2073553839447
 30
0.0
 10
95.23380802740682
 20
-122.218724199046
 30
0.0
 10
95.08566892154109
 20
-122.2526583895757
 30
0.0
 10
95.08566892154109
 20
-122.4696994051465
 30
0.0
 10
95.08566892154109
 20
-122.7816528013358
 30
0.0
 10
95.41364201173687
 20
-122.8245442401272
 30
0.0
 10
95.61862519310924
 20
-122.8381523672939
 30
0.0
 10
95.54042152559407
 20
-122.7387613625445
 30
0.0
 10
95.48116588324777
 20
-122.6664143573542
 30
0.0
 10
95.48116588324777
 20
-122.4719387172119
 30
0.0
 10
95.48116588324777
 20
-122.2797023891349
 30
0.0
 10
95.58934188148461
 20
-121.9563801778442
 30
0.0
 10
95.99551863919557
 20
-121.9563801778442
 30
0.0
 10
96.31487899067822
 20
-121.9563801778442
 30
0.0
 10
96.53467608263716
 20
-122.1689425692842
 30
0.0
 10
96.53467608263716
 20
-122.508112219807
 30
0.0
  0
SPLINE
  5
144
330
13F
100
AcDbEntity
  8
_U+30EC_U+30A4_U+30E4_U+30FC 1
370
     0
100
AcDbSpline
210
0.0
220
0.0
230
1.0
 70
    11
 71
     3
 72
    17
 73
    13
 74
     0
 42
0.0000000001
 43
0.0000000001
 12
1.0
 22
0.0
 32
0.0
 13
1.0
 23
0.0
 33
0.0
 40
0.0
 40
0.0
 40
0.0
 40
0.0
 40
1.0
 40
1.0
 40
1.0
 40
2.0
 40
2.0
 40
2.0
 40
3.0
 40
3.0
 40
3.0
 40
4.0
 40
4.0
 40
4.0
 40
4.0
 10
95.67581377816438
 20
-122.4900254685094
 30
0.0
 10
95.67581377816438
 20
-122.7704562410088
 30
0.0
 10
95.88734264095872
 20
-122.8111083677347
 30
0.0
 10
96.00378686836017
 20
-122.8111083677347
 30
0.0
 10
96.17948673810791
 20
-122.8111083677347
 30
0.0
 10
96.34243975456023
 20
-122.7093057961456
 30
0.0
 10
96.34243975456023
 20
-122.5125908439378
 30
0.0
 10
96.34243975456023
 20
-122.3837442727895
 30
0.0
 10
96.28318411221393
 20
-122.1961588236176
 30
0.0
 10
95.99758569648672
 20
-122.1961588236176
 30
0.0
 10
95.77330998039696
 20
-122.1961588236176
 30
0.0
 10
95.67581377816438
 20
-122.345331458129
 30
0.0
 10
95.67581377816438
 20
-122.4900254685094
 30
0.0
  0
HATCH
  5
145
330
13F
100
AcDbEntity
  8
_U+30EC_U+30A4_U+30E4_U+30FC 1
 62
     7
420
 16777215
100
AcDbHatch
 10
0.0
 20
0.0
 30
0.0
210
0.0
220
0.0
230
1.0
  2
SOLID
 70
     1
 71
     0
 91
        2
 92
        1
 93
        1
 72
     4
 94
        3
 73
     0
 74
     1
 95
       32
 96
       28
 40
0.0
 40
0.0
 40
0.0
 40
0.0
 40
1.0
 40
1.0
 40
1.0
 40
2.0
 40
2.0
 40
2.0
 40
3.0
 40
3.0
 40
3.0
 40
4.0
 40
4.0
 40
4.0
 40
5.0
 40
5.0
 40
5.0
 40
6.0
 40
6.0
 40
6.0
 40
7.0
 40
7.0
 40
7.0
 40
8.0
 40
8.0
 40
8.0
 40
9.0
 40
9.0
 40
9.0
 40
9.0
 10
96.53467608263716
 20
-122.508112219807
 10
96.53467608263716
 20
-123.0598442617698
 10
95.980704728609
 20
-123.0688015100314
 10
95.76676429897498
 20
-123.0688015100314
 10
95.53628741101177
 20
-123.0688015100314
 10
94.88895396933331
 20
-123.0484754466684
 10
94.88895396933331
 20
-122.4674600930811
 10
94.88895396933331
 20
-122.2819417012004
 10
94.9588894076839
 20
-122.0197699347728
 10
95.29099661246198
 20
-121.9791178080469
 10
95.29099661246198
 20
-121.9791178080469
 10
95.29099661246198
 20
-122.2073553839447
 10
95.29099661246198
 20
-122.2073553839447
 10
95.23380802740682
 20
-122.218724199046
 10
95.08566892154109
 20
-122.2526583895757
 10
95.08566892154109
 20
-122.4696994051465
 10
95.08566892154109
 20
-122.7816528013358
 10
95.41364201173687
 20
-122.8245442401272
 10
95.61862519310924
 20
-122.8381523672939
 10
95.54042152559407
 20
-122.7387613625445
 10
95.48116588324777
 20
-122.6664143573542
 10
95.48116588324777
 20
-122.4719387172119
 10
95.48116588324777
 20
-122.2797023891349
 10
95.58934188148461
 20
-121.9563801778442
 10
95.99551863919557
 20
-121.9563801778442
 10
96.31487899067822
 20
-121.9563801778442
 10
96.53467608263716
 20
-122.1689425692842
 10
96.53467608263716
 20
-122.508112219807
 97
        0
 97
        0
 92
        1
 93
        1
 72
     4
 94
        3
 73
     0
 74
     1
 95
       17
 96
       13
 40
0.0
 40
0.0
 40
0.0
 40
0.0
 40
1.0
 40
1.0
 40
1.0
 40
2.0
 40
2.0
 40
2.0
 40
3.0
 40
3.0
 40
3.0
 40
4.0
 40
4.0
 40
4.0
 40
4.0
 10
95.67581377816438
 20
-122.4900254685094
 10
95.67581377816438
 20
-122.7704562410088
 10
95.88734264095872
 20
-122.8111083677347
 10
96.00378686836017
 20
-122.8111083677347
 10
96.17948673810791
 20
-122.8111083677347
 10
96.34243975456023
 20
-122.7093057961456
 10
96.34243975456023
 20
-122.5125908439378
 10
96.34243975456023
 20
-122.3837442727895
 10
96.28318411221393
 20
-122.1961588236176
 10
95.99758569648672
 20
-122.1961588236176
 10
95.77330998039696
 20
-122.1961588236176
 10
95.67581377816438
 20
-122.345331458129
 10
95.67581377816438
 20
-122.4900254685094
 97
        0
 97
        0
 75
     2
 76
     1
 98
        0
  0
ENDBLK
  5
142
330
13F
100
AcDbEntity
  8
0
100
AcDbBlockEnd
  0
ENDSEC
  0
SECTION
  2
ENTITIES
  0
POLYLINE
  5
41
330
1F
100
AcDbEntity
  8
_U+30EC_U+30A4_U+30E4_U+30FC 1
  6
AI-Linetype-1
 62
   154
420
    23468
370
    25
100
AcDb2dPolyline
 66
     1
 10
0.0
 20
0.0
 30
0.0
  0
VERTEX
  5
42
330
41
100
AcDbEntity
  8
_U+30EC_U+30A4_U+30E4_U+30FC 1
  6
AI-Linetype-1
 62
   154
420
    23468
370
    25
100
AcDbVertex
100
AcDb2dVertex
 10
80.63864997984047
 20
-118.8559838591749
 30
0.0
  0
VERTEX
  5
43
330
41
100
AcDbEntity
  8
_U+30EC_U+30A4_U+30E4_U+30FC 1
  6
AI-Linetype-1
 62
   154
420
    23468
370
    25
100
AcDbVertex
100
AcDb2dVertex
 10
82.26784623450573
 20
-118.8559838591749
 30
0.0
  0
VERTEX
  5
44
330
41
100
AcDbEntity
  8
_U+30EC_U+30A4_U+30E4_U+30FC 1
  6
AI-Linetype-1
 62
   154
420
    23468
370
    25
100
AcDbVertex
100
AcDb2dVertex
 10
82.26784623450573
 20
-124.853029691009
 30
0.0
  0
VERTEX
  5
45
330
41
100
AcDbEntity
  8
_U+30EC_U+30A4_U+30E4_U+30FC 1
  6
AI-Linetype-1
 62
   154
420
    23468
370
    25
100
AcDbVertex
100
AcDb2dVertex
 10
88.27367608128424
 20
-124.853029691009
 30
0.0
  0
VERTEX
  5
46
330
41
100
AcDbEntity
  8
_U+30EC_U+30A4_U+30E4_U+30FC 1
  6
AI-Linetype-1
 62
   154
420
    23468
370
    25
100
AcDbVertex
100
AcDb2dVertex
 10
88.27367608128424
 20
-126.3399174684149
 30
0.0
  0
SEQEND
  5
48
330
41
100
AcDbEntity
  8
_U+30EC_U+30A4_U+30E4_U+30FC 1
  6
AI-Linetype-1
 62
   154
420
    23468
370
    25
  0
POLYLINE
  5
49
330
1F
100
AcDbEntity
  8
_U+30EC_U+30A4_U+30E4_U+30FC 1
 62
   179
420
  2234388
370
     9
100
AcDb2dPolyline
 66
     1
 10
0.0
 20
0.0
 30
0.0
  0
VERTEX
  5
4A
330
49
100
AcDbEntity
  8
_U+30EC_U+30A4_U+30E4_U+30FC 1
 62
   179
420
  2234388
370
     9
100
AcDbVertex
100
AcDb2dVertex
 10
86.20971664511417
 20
-124.7241599688191
 30
0.0
  0
VERTEX
  5
4B
330
49
100
AcDbEntity
  8
_U+30EC_U+30A4_U+30E4_U+30FC 1
 62
   179
420
  2234388
370
     9
100
AcDbVertex
100
AcDb2dVertex
 10
91.58957775488031
 20
-117.0793244151745
 30
0.0
  0
VERTEX
  5
4C
330
49
100
AcDbEntity
  8
_U+30EC_U+30A4_U+30E4_U+30FC 1
 62
   179
420
  2234388
370
     9
100
AcDbVertex
100
AcDb2dVertex
 10
107.949294417457
 20
-117.0793244151745
 30
0.0
  0
SEQEND
  5
4D
330
49
100
AcDbEntity
  8
_U+30EC_U+30A4_U+30E4_U+30FC 1
 62
   179
420
  2234388
370
     9
  0
INSERT
  5
4F
330
1F
100
AcDbEntity
  8
_U+30EC_U+30A4_U+30E4_U+30FC 1
100
AcDbBlockReference
  2
block 2
 10
0.0
 20
0.0
 30
0.0
  0
POLYLINE
  5
8C
330
1F
100
AcDbEntity
  8
_U+30EC_U+30A4_U+30E4_U+30FC 1
 62
     7
420
 16777215
370
    25
100
AcDb2dPolyline
 66
     1
 10
0.0
 20
0.0
 30
0.0
  0
VERTEX
  5
8D
330
8C
100
AcDbEntity
  8
_U+30EC_U+30A4_U+30E4_U+30FC 1
 62
     7
420
 16777215
370
    25
100
AcDbVertex
100
AcDb2dVertex
 10
81.66787708314554
 20
-136.452998021442
 30
0.0
  0
VERTEX
  5
8E
330
8C
100
AcDbEntity
  8
_U+30EC_U+30A4_U+30E4_U+30FC 1
 62
     7
420
 16777215
370
    25
100
AcDbVertex
100
AcDb2dVertex
 10
87.66785081896235
 20
-136.452998021442
 30
0.0
  0
SEQEND
  5
8F
330
8C
100
AcDbEntity
  8
_U+30EC_U+30A4_U+30E4_U+30FC 1
 62
     7
420
 16777215
370
    25
  0
POLYLINE
  5
90
330
1F
100
AcDbEntity
  8
_U+30EC_U+30A4_U+30E4_U+30FC 1
 62
     7
420
 16777215
370
    25
100
AcDb2dPolyline
 66
     1
 10
0.0
 20
0.0
 30
0.0
  0
VERTEX
  5
91
330
90
100
AcDbEntity
  8
_U+30EC_U+30A4_U+30E4_U+30FC 1
 62
     7
420
 16777215
370
    25
100
AcDbVertex
100
AcDb2dVertex
 10
81.66787708314554
 20
-126.4532649683868
 30
0.0
  0
VERTEX
  5
92
330
90
100
AcDbEntity
  8
_U+30EC_U+30A4_U+30E4_U+30FC 1
 62
     7
420
 16777215
370
    25
100
AcDbVertex
100
AcDb2dVertex
 10
87.66785081896235
 20
-126.4532649683868
 30
0.0
  0
SEQEND
  5
93
330
90
100
AcDbEntity
  8
_U+30EC_U+30A4_U+30E4_U+30FC 1
 62
     7
420
 16777215
370
    25
  0
POLYLINE
  5
94
330
1F
100
AcDbEntity
  8
_U+30EC_U+30A4_U+30E4_U+30FC 1
 62
     7
420
 16777215
370
    25
100
AcDb2dPolyline
 66
     1
 10
0.0
 20
0.0
 30
0.0
  0
VERTEX
  5
95
330
94
100
AcDbEntity
  8
_U+30EC_U+30A4_U+30E4_U+30FC 1
 62
     7
420
 16777215
370
    25
100
AcDbVertex
100
AcDb2dVertex
 10
81.66787708314554
 20
-137.4531230211923
 30
0.0
  0
VERTEX
  5
96
330
94
100
AcDbEntity
  8
_U+30EC_U+30A4_U+30E4_U+30FC 1
 62
     7
420
 16777215
370
    25
100
AcDbVertex
100
AcDb2dVertex
 10
94.66777314037945
 20
-137.4531230211923
 30
0.0
  0
SEQEND
  5
97
330
94
100
AcDbEntity
  8
_U+30EC_U+30A4_U+30E4_U+30FC 1
 62
     7
420
 16777215
370
    25
  0
POLYLINE
  5
98
330
1F
100
AcDbEntity
  8
_U+30EC_U+30A4_U+30E4_U+30FC 1
 62
     7
420
 16777215
370
    25
100
AcDb2dPolyline
 66
     1
 10
0.0
 20
0.0
 30
0.0
  0
VERTEX
  5
99
330
98
100
AcDbEntity
  8
_U+30EC_U+30A4_U+30E4_U+30FC 1
 62
     7
420
 16777215
370
    25
100
AcDbVertex
100
AcDb2dVertex
 10
80.66743460866896
 20
-119.4531660812478
 30
0.0
  0
VERTEX
  5
9A
330
98
100
AcDbEntity
  8
_U+30EC_U+30A4_U+30E4_U+30FC 1
 62
     7
420
 16777215
370
    25
100
AcDbVertex
100
AcDb2dVertex
 10
80.66743460866896
 20
-136.452998021442
 30
0.0
  0
SEQEND
  5
9B
330
98
100
AcDbEntity
  8
_U+30EC_U+30A4_U+30E4_U+30FC 1
 62
     7
420
 16777215
370
    25
  0
POLYLINE
  5
9C
330
1F
100
AcDbEntity
  8
_U+30EC_U+30A4_U+30E4_U+30FC 1
 62
     7
420
 16777215
370
    25
100
AcDb2dPolyline
 66
     1
 10
0.0
 20
0.0
 30
0.0
  0
VERTEX
  5
9D
330
9C
100
AcDbEntity
  8
_U+30EC_U+30A4_U+30E4_U+30FC 1
 62
     7
420
 16777215
370
    25
100
AcDbVertex
100
AcDb2dVertex
 10
81.66787708314554
 20
-120.4532910809978
 30
0.0
  0
VERTEX
  5
9E
330
9C
100
AcDbEntity
  8
_U+30EC_U+30A4_U+30E4_U+30FC 1
 62
     7
420
 16777215
370
    25
100
AcDbVertex
100
AcDb2dVertex
 10
81.66787708314554
 20
-125.4531399686368
 30
0.0
  0
SEQEND
  5
9F
330
9C
100
AcDbEntity
  8
_U+30EC_U+30A4_U+30E4_U+30FC 1
 62
     7
420
 16777215
370
    25
  0
POLYLINE
  5
A0
330
1F
100
AcDbEntity
  8
_U+30EC_U+30A4_U+30E4_U+30FC 1
 62
     7
420
 16777215
370
    25
100
AcDb2dPolyline
 66
     1
 10
0.0
 20
0.0
 30
0.0
  0
VERTEX
  5
A1
330
A0
100
AcDbEntity
  8
_U+30EC_U+30A4_U+30E4_U+30FC 1
 62
     7
420
 16777215
370
    25
100
AcDbVertex
100
AcDb2dVertex
 10
81.66787708314554
 20
-125.4531399686368
 30
0.0
  0
VERTEX
  5
A2
330
A0
100
AcDbEntity
  8
_U+30EC_U+30A4_U+30E4_U+30FC 1
 62
     7
420
 16777215
370
    25
100
AcDbVertex
100
AcDb2dVertex
 10
86.66740834448576
 20
-125.4531399686368
 30
0.0
  0
SEQEND
  5
A3
330
A0
100
AcDbEntity
  8
_U+30EC_U+30A4_U+30E4_U+30FC 1
 62
     7
420
 16777215
370
    25
  0
POLYLINE
  5
A4
330
1F
100
AcDbEntity
  8
_U+30EC_U+30A4_U+30E4_U+30FC 1
 62
     7
420
 16777215
370
    25
100
AcDb2dPolyline
 66
     1
 10
0.0
 20
0.0
 30
0.0
  0
VERTEX
  5
A5
330
A4
100
AcDbEntity
  8
_U+30EC_U+30A4_U+30E4_U+30FC 1
 62
     7
420
 16777215
370
    25
100
AcDbVertex
100
AcDb2dVertex
 10
81.66787708314554
 20
-126.4532649683868
 30
0.0
  0
VERTEX
  5
A6
330
A4
100
AcDbEntity
  8
_U+30EC_U+30A4_U+30E4_U+30FC 1
 62
     7
420
 16777215
370
    25
100
AcDbVertex
100
AcDb2dVertex
 10
81.66787708314554
 20
-136.452998021442
 30
0.0
  0
SEQEND
  5
A7
330
A4
100
AcDbEntity
  8
_U+30EC_U+30A4_U+30E4_U+30FC 1
 62
     7
420
 16777215
370
    25
  0
POLYLINE
  5
A8
330
1F
100
AcDbEntity
  8
_U+30EC_U+30A4_U+30E4_U+30FC 1
 62
     7
420
 16777215
370
    25
100
AcDb2dPolyline
 66
     1
 10
0.0
 20
0.0
 30
0.0
  0
VERTEX
  5
A9
330
A8
100
AcDbEntity
  8
_U+30EC_U+30A4_U+30E4_U+30FC 1
 62
     7
420
 16777215
370
    25
100
AcDbVertex
100
AcDb2dVertex
 10
88.02613192093295
 20
-136.6531641325037
 30
0.0
  0
VERTEX
  5
AA
330
A8
100
AcDbEntity
  8
_U+30EC_U+30A4_U+30E4_U+30FC 1
 62
     7
420
 16777215
370
    25
100
AcDbVertex
100
AcDb2dVertex
 10
93.86781664319983
 20
-136.6531641325037
 30
0.0
  0
SEQEND
  5
AB
330
A8
100
AcDbEntity
  8
_U+30EC_U+30A4_U+30E4_U+30FC 1
 62
     7
420
 16777215
370
    25
  0
POLYLINE
  5
AC
330
1F
100
AcDbEntity
  8
_U+30EC_U+30A4_U+30E4_U+30FC 1
 62
     7
420
 16777215
370
    25
100
AcDb2dPolyline
 66
     1
 10
0.0
 20
0.0
 30
0.0
  0
VERTEX
  5
AD
330
AC
100
AcDbEntity
  8
_U+30EC_U+30A4_U+30E4_U+30FC 1
 62
     7
420
 16777215
370
    25
100
AcDbVertex
100
AcDb2dVertex
 10
87.66785081896235
 20
-136.452998021442
 30
0.0
  0
VERTEX
  5
AE
330
AC
100
AcDbEntity
  8
_U+30EC_U+30A4_U+30E4_U+30FC 1
 62
     7
420
 16777215
370
    25
100
AcDbVertex
100
AcDb2dVertex
 10
88.01374942124885
 20
-136.6531641325037
 30
0.0
  0
SEQEND
  5
AF
330
AC
100
AcDbEntity
  8
_U+30EC_U+30A4_U+30E4_U+30FC 1
 62
     7
420
 16777215
370
    25
  0
SPLINE
  5
B0
330
1F
100
AcDbEntity
  8
_U+30EC_U+30A4_U+30E4_U+30FC 1
 62
     7
420
 16777215
370
    25
100
AcDbSpline
210
0.0
220
0.0
230
1.0
 70
     8
 71
     3
 72
     8
 73
     4
 74
     0
 42
0.0000000001
 43
0.0000000001
 12
1.0
 22
0.0
 32
0.0
 13
1.0
 23
0.0
 33
0.0
 40
0.0
 40
0.0
 40
0.0
 40
0.0
 40
1.0
 40
1.0
 40
1.0
 40
1.0
 10
80.66743460866896
 20
-136.452998021442
 30
0.0
 10
80.66743460866896
 20
-137.0055891324155
 30
0.0
 10
81.1152859861322
 20
-137.4531230211923
 30
0.0
 10
81.66787708314554
 20
-137.4531230211923
 30
0.0
  0
SPLINE
  5
B1
330
1F
100
AcDbEntity
  8
_U+30EC_U+30A4_U+30E4_U+30FC 1
 62
     7
420
 16777215
370
     9
100
AcDbSpline
210
0.0
220
0.0
230
1.0
 70
    11
 71
     3
 72
    17
 73
    13
 74
     0
 42
0.0000000001
 43
0.0000000001
 12
1.0
 22
0.0
 32
0.0
 13
1.0
 23
0.0
 33
0.0
 40
0.0
 40
0.0
 40
0.0
 40
0.0
 40
1.0
 40
1.0
 40
1.0
 40
2.0
 40
2.0
 40
2.0
 40
3.0
 40
3.0
 40
3.0
 40
4.0
 40
4.0
 40
4.0
 40
4.0
 10
80.7673412727868
 20
-123.6875577468557
 30
0.0
 10
80.7673412727868
 20
-123.632418580203
 30
0.0
 10
80.72253849615203
 20
-123.5876158024366
 30
0.0
 10
80.66743460866896
 20
-123.5876158024366
 30
0.0
 10
80.61229544340901
 20
-123.5876158024366
 30
0.0
 10
80.56752794455112
 20
-123.632418580203
 30
0.0
 10
80.56752794455112
 20
-123.6875577468557
 30
0.0
 10
80.56752794455112
 20
-123.742661635731
 30
0.0
 10
80.61229544340901
 20
-123.7874644134977
 30
0.0
 10
80.66743460866896
 20
-123.7874644134977
 30
0.0
 10
80.72253849615203
 20
-123.7874644134977
 30
0.0
 10
80.7673412727868
 20
-123.742661635731
 30
0.0
 10
80.7673412727868
 20
-123.6875577468557
 30
0.0
  0
SPLINE
  5
B2
330
1F
100
AcDbEntity
  8
_U+30EC_U+30A4_U+30E4_U+30FC 1
 62
     7
420
 16777215
370
     9
100
AcDbSpline
210
0.0
220
0.0
230
1.0
 70
    11
 71
     3
 72
    17
 73
    13
 74
     0
 42
0.0000000001
 43
0.0000000001
 12
1.0
 22
0.0
 32
0.0
 13
1.0
 23
0.0
 33
0.0
 40
0.0
 40
0.0
 40
0.0
 40
0.0
 40
1.0
 40
1.0
 40
1.0
 40
2.0
 40
2.0
 40
2.0
 40
3.0
 40
3.0
 40
3.0
 40
4.0
 40
4.0
 40
4.0
 40
4.0
 10
81.76778374726338
 20
-123.6875577468557
 30
0.0
 10
81.76778374726338
 20
-123.632418580203
 30
0.0
 10
81.72301624840549
 20
-123.5876158024366
 30
0.0
 10
81.66787708314554
 20
-123.5876158024366
 30
0.0
 10
81.61206764012492
 20
-123.5876158024366
 30
0.0
 10
81.56730014126703
 20
-123.632418580203
 30
0.0
 10
81.56730014126703
 20
-123.6875577468557
 30
0.0
 10
81.56730014126703
 20
-123.742661635731
 30
0.0
 10
81.61206764012492
 20
-123.7874644134977
 30
0.0
 10
81.66787708314554
 20
-123.7874644134977
 30
0.0
 10
81.72301624840549
 20
-123.7874644134977
 30
0.0
 10
81.76778374726338
 20
-123.742661635731
 30
0.0
 10
81.76778374726338
 20
-123.6875577468557
 30
0.0
  0
SPLINE
  5
B3
330
1F
100
AcDbEntity
  8
_U+30EC_U+30A4_U+30E4_U+30FC 1
 62
     7
420
 16777215
370
     9
100
AcDbSpline
210
0.0
220
0.0
230
1.0
 70
    11
 71
     3
 72
    17
 73
    13
 74
     0
 42
0.0000000001
 43
0.0000000001
 12
1.0
 22
0.0
 32
0.0
 13
1.0
 23
0.0
 33
0.0
 40
0.0
 40
0.0
 40
0.0
 40
0.0
 40
1.0
 40
1.0
 40
1.0
 40
2.0
 40
2.0
 40
2.0
 40
3.0
 40
3.0
 40
3.0
 40
4.0
 40
4.0
 40
4.0
 40
4.0
 10
94.66777314037945
 20
-141.4531996868588
 30
0.0
 10
94.66777314037945
 20
-141.3980957979839
 30
0.0
 10
94.62300564152157
 20
-141.3532930202172
 30
0.0
 10
94.56786647626161
 20
-141.3532930202172
 30
0.0
 10
94.51276258877854
 20
-141.3532930202172
 30
0.0
 10
94.46795981214377
 20
-141.3980957979839
 30
0.0
 10
94.46795981214377
 20
-141.4531996868588
 30
0.0
 10
94.46795981214377
 20
-141.5083388535119
 30
0.0
 10
94.51276258877854
 20
-141.5531063535005
 30
0.0
 10
94.56786647626161
 20
-141.5531063535005
 30
0.0
 10
94.62300564152157
 20
-141.5531063535005
 30
0.0
 10
94.66777314037945
 20
-141.5083388535119
 30
0.0
 10
94.66777314037945
 20
-141.4531996868588
 30
0.0
  0
SPLINE
  5
B4
330
1F
100
AcDbEntity
  8
_U+30EC_U+30A4_U+30E4_U+30FC 1
 62
     7
420
 16777215
370
     9
100
AcDbSpline
210
0.0
220
0.0
230
1.0
 70
    11
 71
     3
 72
    17
 73
    13
 74
     0
 42
0.0000000001
 43
0.0000000001
 12
1.0
 22
0.0
 32
0.0
 13
1.0
 23
0.0
 33
0.0
 40
0.0
 40
0.0
 40
0.0
 40
0.0
 40
1.0
 40
1.0
 40
1.0
 40
2.0
 40
2.0
 40
2.0
 40
3.0
 40
3.0
 40
3.0
 40
4.0
 40
4.0
 40
4.0
 40
4.0
 10
80.7673412727868
 20
-141.4531996868588
 30
0.0
 10
80.7673412727868
 20
-141.3980957979839
 30
0.0
 10
80.72253849615203
 20
-141.3532930202172
 30
0.0
 10
80.66743460866896
 20
-141.3532930202172
 30
0.0
 10
80.61229544340901
 20
-141.3532930202172
 30
0.0
 10
80.56752794455112
 20
-141.3980957979839
 30
0.0
 10
80.56752794455112
 20
-141.4531996868588
 30
0.0
 10
80.56752794455112
 20
-141.5083388535119
 30
0.0
 10
80.61229544340901
 20
-141.5531063535005
 30
0.0
 10
80.66743460866896
 20
-141.5531063535005
 30
0.0
 10
80.72253849615203
 20
-141.5531063535005
 30
0.0
 10
80.7673412727868
 20
-141.5083388535119
 30
0.0
 10
80.7673412727868
 20
-141.4531996868588
 30
0.0
  0
SPLINE
  5
B5
330
1F
100
AcDbEntity
  8
_U+30EC_U+30A4_U+30E4_U+30FC 1
 62
     7
420
 16777215
370
    25
100
AcDbSpline
210
0.0
220
0.0
230
1.0
 70
     8
 71
     3
 72
     8
 73
     4
 74
     0
 42
0.0000000001
 43
0.0000000001
 12
1.0
 22
0.0
 32
0.0
 13
1.0
 23
0.0
 33
0.0
 40
0.0
 40
0.0
 40
0.0
 40
0.0
 40
1.0
 40
1.0
 40
1.0
 40
1.0
 10
81.66787708314554
 20
-120.45293830322
 30
0.0
 10
81.66787708314554
 20
-119.9010527478027
 30
0.0
 10
81.22002775747262
 20
-119.4531660812478
 30
0.0
 10
80.66743460866896
 20
-119.4531660812478
 30
0.0
  0
SPLINE
  5
B6
330
1F
100
AcDbEntity
  8
_U+30EC_U+30A4_U+30E4_U+30FC 1
 62
     7
420
 16777215
370
    25
100
AcDbSpline
210
0.0
220
0.0
230
1.0
 70
     8
 71
     3
 72
     8
 73
     4
 74
     0
 42
0.0000000001
 43
0.0000000001
 12
1.0
 22
0.0
 32
0.0
 13
1.0
 23
0.0
 33
0.0
 40
0.0
 40
0.0
 40
0.0
 40
0.0
 40
1.0
 40
1.0
 40
1.0
 40
1.0
 10
87.66785081896235
 20
-126.4532649683868
 30
0.0
 10
87.66785081896235
 20
-125.9010266351913
 30
0.0
 10
87.2199994414991
 20
-125.4531399686368
 30
0.0
 10
86.66740834448576
 20
-125.4531399686368
 30
0.0
  0
SPLINE
  5
B7
330
1F
100
AcDbEntity
  8
_U+30EC_U+30A4_U+30E4_U+30FC 1
 62
     7
420
 16777215
370
    25
100
AcDbSpline
210
0.0
220
0.0
230
1.0
 70
     8
 71
     3
 72
     8
 73
     4
 74
     0
 42
0.0000000001
 43
0.0000000001
 12
1.0
 22
0.0
 32
0.0
 13
1.0
 23
0.0
 33
0.0
 40
0.0
 40
0.0
 40
0.0
 40
0.0
 40
1.0
 40
1.0
 40
1.0
 40
1.0
 10
94.66777314037945
 20
-137.4531230211923
 30
0.0
 10
94.66777314037945
 20
-137.0114452435248
 30
0.0
 10
94.30949442086734
 20
-136.6531641325037
 30
0.0
 10
93.86781664319983
 20
-136.6531641325037
 30
0.0
  0
SPLINE
  5
B8
330
1F
100
AcDbEntity
  8
_U+30EC_U+30A4_U+30E4_U+30FC 1
 62
     7
420
 16777215
370
     9
100
AcDbSpline
210
0.0
220
0.0
230
1.0
 70
    11
 71
     3
 72
    17
 73
    13
 74
     0
 42
0.0000000001
 43
0.0000000001
 12
1.0
 22
0.0
 32
0.0
 13
1.0
 23
0.0
 33
0.0
 40
0.0
 40
0.0
 40
0.0
 40
0.0
 40
1.0
 40
1.0
 40
1.0
 40
2.0
 40
2.0
 40
2.0
 40
3.0
 40
3.0
 40
3.0
 40
4.0
 40
4.0
 40
4.0
 40
4.0
 10
76.76758220816248
 20
-119.4531660812478
 30
0.0
 10
76.76758220816248
 20
-119.3980621923729
 30
0.0
 10
76.72277943152771
 20
-119.3532594146061
 30
0.0
 10
76.66767554404464
 20
-119.3532594146061
 30
0.0
 10
76.6125363787847
 20
-119.3532594146061
 30
0.0
 10
76.5677688799268
 20
-119.3980621923729
 30
0.0
 10
76.5677688799268
 20
-119.4531660812478
 30
0.0
 10
76.5677688799268
 20
-119.5083052479009
 30
0.0
 10
76.6125363787847
 20
-119.5530727478894
 30
0.0
 10
76.66767554404464
 20
-119.5530727478894
 30
0.0
 10
76.72277943152771
 20
-119.5530727478894
 30
0.0
 10
76.76758220816248
 20
-119.5083052479009
 30
0.0
 10
76.76758220816248
 20
-119.4531660812478
 30
0.0
  0
SPLINE
  5
B9
330
1F
100
AcDbEntity
  8
_U+30EC_U+30A4_U+30E4_U+30FC 1
 62
     7
420
 16777215
370
     9
100
AcDbSpline
210
0.0
220
0.0
230
1.0
 70
    11
 71
     3
 72
    17
 73
    13
 74
     0
 42
0.0000000001
 43
0.0000000001
 12
1.0
 22
0.0
 32
0.0
 13
1.0
 23
0.0
 33
0.0
 40
0.0
 40
0.0
 40
0.0
 40
0.0
 40
1.0
 40
1.0
 40
1.0
 40
2.0
 40
2.0
 40
2.0
 40
3.0
 40
3.0
 40
3.0
 40
4.0
 40
4.0
 40
4.0
 40
4.0
 10
76.76758220816248
 20
-137.4531230211923
 30
0.0
 10
76.76758220816248
 20
-137.3979838545392
 30
0.0
 10
76.72277943152771
 20
-137.3532163545507
 30
0.0
 10
76.66767554404464
 20
-137.3532163545507
 30
0.0
 10
76.6125363787847
 20
-137.3532163545507
 30
0.0
 10
76.5677688799268
 20
-137.3979838545392
 30
0.0
 10
76.5677688799268
 20
-137.4531230211923
 30
0.0
 10
76.5677688799268
 20
-137.508579687845
 30
0.0
 10
76.6125363787847
 20
-137.5533471878342
 30
0.0
 10
76.66767554404464
 20
-137.5533471878342
 30
0.0
 10
76.72277943152771
 20
-137.5533471878342
 30
0.0
 10
76.76758220816248
 20
-137.508579687845
 30
0.0
 10
76.76758220816248
 20
-137.4531230211923
 30
0.0
  0
SPLINE
  5
BA
330
1F
100
AcDbEntity
  8
_U+30EC_U+30A4_U+30E4_U+30FC 1
 62
     7
420
 16777215
370
     9
100
AcDbSpline
210
0.0
220
0.0
230
1.0
 70
    11
 71
     3
 72
    17
 73
    13
 74
     0
 42
0.0000000001
 43
0.0000000001
 12
1.0
 22
0.0
 32
0.0
 13
1.0
 23
0.0
 33
0.0
 40
0.0
 40
0.0
 40
0.0
 40
0.0
 40
1.0
 40
1.0
 40
1.0
 40
2.0
 40
2.0
 40
2.0
 40
3.0
 40
3.0
 40
3.0
 40
4.0
 40
4.0
 40
4.0
 40
4.0
 10
97.1799389096221
 20
-136.452998021442
 30
0.0
 10
97.1799389096221
 20
-136.3978588547896
 30
0.0
 10
97.13517141076422
 20
-136.3530913548004
 30
0.0
 10
97.08003224550426
 20
-136.3530913548004
 30
0.0
 10
97.02492835802119
 20
-136.3530913548004
 30
0.0
 10
96.98012558138643
 20
-136.3978588547896
 30
0.0
 10
96.98012558138643
 20
-136.452998021442
 30
0.0
 10
96.98012558138643
 20
-136.5084546880953
 30
0.0
 10
97.02492835802119
 20
-136.5532574658614
 30
0.0
 10
97.08003224550426
 20
-136.5532574658614
 30
0.0
 10
97.13517141076422
 20
-136.5532574658614
 30
0.0
 10
97.1799389096221
 20
-136.5084546880953
 30
0.0
 10
97.1799389096221
 20
-136.452998021442
 30
0.0
  0
SPLINE
  5
BB
330
1F
100
AcDbEntity
  8
_U+30EC_U+30A4_U+30E4_U+30FC 1
 62
     7
420
 16777215
370
     9
100
AcDbSpline
210
0.0
220
0.0
230
1.0
 70
    11
 71
     3
 72
    17
 73
    13
 74
     0
 42
0.0000000001
 43
0.0000000001
 12
1.0
 22
0.0
 32
0.0
 13
1.0
 23
0.0
 33
0.0
 40
0.0
 40
0.0
 40
0.0
 40
0.0
 40
1.0
 40
1.0
 40
1.0
 40
2.0
 40
2.0
 40
2.0
 40
3.0
 40
3.0
 40
3.0
 40
4.0
 40
4.0
 40
4.0
 40
4.0
 10
97.1799389096221
 20
-126.4532649683868
 30
0.0
 10
97.1799389096221
 20
-126.3981258017337
 30
0.0
 10
97.13517141076422
 20
-126.3533583017451
 30
0.0
 10
97.08003224550426
 20
-126.3533583017451
 30
0.0
 10
97.02492835802119
 20
-126.3533583017451
 30
0.0
 10
96.98012558138643
 20
-126.3981258017337
 30
0.0
 10
96.98012558138643
 20
-126.4532649683868
 30
0.0
 10
96.98012558138643
 20
-126.5087216350394
 30
0.0
 10
97.02492835802119
 20
-126.5535244128062
 30
0.0
 10
97.08003224550426
 20
-126.5535244128062
 30
0.0
 10
97.13517141076422
 20
-126.5535244128062
 30
0.0
 10
97.1799389096221
 20
-126.5087216350394
 30
0.0
 10
97.1799389096221
 20
-126.4532649683868
 30
0.0
  0
SPLINE
  5
BC
330
1F
100
AcDbEntity
  8
_U+30EC_U+30A4_U+30E4_U+30FC 1
 62
     7
420
 16777215
370
     9
100
AcDbSpline
210
0.0
220
0.0
230
1.0
 70
    11
 71
     3
 72
    17
 73
    13
 74
     0
 42
0.0000000001
 43
0.0000000001
 12
1.0
 22
0.0
 32
0.0
 13
1.0
 23
0.0
 33
0.0
 40
0.0
 40
0.0
 40
0.0
 40
0.0
 40
1.0
 40
1.0
 40
1.0
 40
2.0
 40
2.0
 40
2.0
 40
3.0
 40
3.0
 40
3.0
 40
4.0
 40
4.0
 40
4.0
 40
4.0
 10
97.1799389096221
 20
-119.4531660812478
 30
0.0
 10
97.1799389096221
 20
-119.3980621923729
 30
0.0
 10
97.13517141076422
 20
-119.3532594146061
 30
0.0
 10
97.08003224550426
 20
-119.3532594146061
 30
0.0
 10
97.02492835802119
 20
-119.3532594146061
 30
0.0
 10
96.98012558138643
 20
-119.3980621923729
 30
0.0
 10
96.98012558138643
 20
-119.4531660812478
 30
0.0
 10
96.98012558138643
 20
-119.5083052479009
 30
0.0
 10
97.02492835802119
 20
-119.5530727478894
 30
0.0
 10
97.08003224550426
 20
-119.5530727478894
 30
0.0
 10
97.13517141076422
 20
-119.5530727478894
 30
0.0
 10
97.1799389096221
 20
-119.5083052479009
 30
0.0
 10
97.1799389096221
 20
-119.4531660812478
 30
0.0
  0
POLYLINE
  5
BD
330
1F
100
AcDbEntity
  8
_U+30EC_U+30A4_U+30E4_U+30FC 1
 62
     7
420
 16777215
370
     9
100
AcDb2dPolyline
 66
     1
 10
0.0
 20
0.0
 30
0.0
  0
VERTEX
  5
BE
330
BD
100
AcDbEntity
  8
_U+30EC_U+30A4_U+30E4_U+30FC 1
 62
     7
420
 16777215
370
     9
100
AcDbVertex
100
AcDb2dVertex
 10
81.66787708314554
 20
-123.6875577468557
 30
0.0
  0
VERTEX
  5
BF
330
BD
100
AcDbEntity
  8
_U+30EC_U+30A4_U+30E4_U+30FC 1
 62
     7
420
 16777215
370
     9
100
AcDbVertex
100
AcDb2dVertex
 10
85.43819164530709
 20
-123.6875577468557
 30
0.0
  0
SEQEND
  5
C0
330
BD
100
AcDbEntity
  8
_U+30EC_U+30A4_U+30E4_U+30FC 1
 62
     7
420
 16777215
370
     9
  0
POLYLINE
  5
C1
330
1F
100
AcDbEntity
  8
_U+30EC_U+30A4_U+30E4_U+30FC 1
 62
     7
420
 16777215
370
     9
100
AcDb2dPolyline
 66
     1
 10
0.0
 20
0.0
 30
0.0
  0
VERTEX
  5
C2
330
C1
100
AcDbEntity
  8
_U+30EC_U+30A4_U+30E4_U+30FC 1
 62
     7
420
 16777215
370
     9
100
AcDbVertex
100
AcDb2dVertex
 10
79.66766241195305
 20
-123.6875577468557
 30
0.0
  0
VERTEX
  5
C3
330
C1
100
AcDbEntity
  8
_U+30EC_U+30A4_U+30E4_U+30FC 1
 62
     7
420
 16777215
370
     9
100
AcDbVertex
100
AcDb2dVertex
 10
81.66787708314554
 20
-123.6875577468557
 30
0.0
  0
SEQEND
  5
C4
330
C1
100
AcDbEntity
  8
_U+30EC_U+30A4_U+30E4_U+30FC 1
 62
     7
420
 16777215
370
     9
  0
INSERT
  5
C6
330
1F
100
AcDbEntity
  8
_U+30EC_U+30A4_U+30E4_U+30FC 1
100
AcDbBlockReference
  2
block 3
 10
0.0
 20
0.0
 30
0.0
  0
POLYLINE
  5
CB
330
1F
100
AcDbEntity
  8
_U+30EC_U+30A4_U+30E4_U+30FC 1
 62
     7
420
 16777215
370
     9
100
AcDb2dPolyline
 66
     1
 10
0.0
 20
0.0
 30
0.0
  0
VERTEX
  5
CC
330
CB
100
AcDbEntity
  8
_U+30EC_U+30A4_U+30E4_U+30FC 1
 62
     7
420
 16777215
370
     9
100
AcDbVertex
100
AcDb2dVertex
 10
80.66743460866896
 20
-141.4531996868588
 30
0.0
  0
VERTEX
  5
CD
330
CB
100
AcDbEntity
  8
_U+30EC_U+30A4_U+30E4_U+30FC 1
 62
     7
420
 16777215
370
     9
100
AcDbVertex
100
AcDb2dVertex
 10
94.66777314037945
 20
-141.4531996868588
 30
0.0
  0
SEQEND
  5
CE
330
CB
100
AcDbEntity
  8
_U+30EC_U+30A4_U+30E4_U+30FC 1
 62
     7
420
 16777215
370
     9
  0
POLYLINE
  5
CF
330
1F
100
AcDbEntity
  8
_U+30EC_U+30A4_U+30E4_U+30FC 1
 62
     7
420
 16777215
370
     9
100
AcDb2dPolyline
 66
     1
 10
0.0
 20
0.0
 30
0.0
  0
VERTEX
  5
D0
330
CF
100
AcDbEntity
  8
_U+30EC_U+30A4_U+30E4_U+30FC 1
 62
     7
420
 16777215
370
     9
100
AcDbVertex
100
AcDb2dVertex
 10
80.66743460866896
 20
-138.993068576363
 30
0.0
  0
VERTEX
  5
D1
330
CF
100
AcDbEntity
  8
_U+30EC_U+30A4_U+30E4_U+30FC 1
 62
     7
420
 16777215
370
     9
100
AcDbVertex
100
AcDb2dVertex
 10
80.66743460866896
 20
-142.4533246866091
 30
0.0
  0
SEQEND
  5
D2
330
CF
100
AcDbEntity
  8
_U+30EC_U+30A4_U+30E4_U+30FC 1
 62
     7
420
 16777215
370
     9
  0
POLYLINE
  5
D3
330
1F
100
AcDbEntity
  8
_U+30EC_U+30A4_U+30E4_U+30FC 1
 62
     7
420
 16777215
370
     9
100
AcDb2dPolyline
 66
     1
 10
0.0
 20
0.0
 30
0.0
  0
VERTEX
  5
D4
330
D3
100
AcDbEntity
  8
_U+30EC_U+30A4_U+30E4_U+30FC 1
 62
     7
420
 16777215
370
     9
100
AcDbVertex
100
AcDb2dVertex
 10
94.56786647626161
 20
-138.993068576363
 30
0.0
  0
VERTEX
  5
D5
330
D3
100
AcDbEntity
  8
_U+30EC_U+30A4_U+30E4_U+30FC 1
 62
     7
420
 16777215
370
     9
100
AcDbVertex
100
AcDb2dVertex
 10
94.56786647626161
 20
-142.4533246866091
 30
0.0
  0
SEQEND
  5
D6
330
D3
100
AcDbEntity
  8
_U+30EC_U+30A4_U+30E4_U+30FC 1
 62
     7
420
 16777215
370
     9
  0
INSERT
  5
D8
330
1F
100
AcDbEntity
  8
_U+30EC_U+30A4_U+30E4_U+30FC 1
100
AcDbBlockReference
  2
block 4
 10
0.0
 20
0.0
 30
0.0
  0
SPLINE
  5
F2
330
1F
100
AcDbEntity
  8
_U+30EC_U+30A4_U+30E4_U+30FC 1
 62
     7
420
 16777215
370
     9
100
AcDbSpline
210
0.0
220
0.0
230
1.0
 70
    11
 71
     3
 72
    17
 73
    13
 74
     0
 42
0.0000000001
 43
0.0000000001
 12
1.0
 22
0.0
 32
0.0
 13
1.0
 23
0.0
 33
0.0
 40
0.0
 40
0.0
 40
0.0
 40
0.0
 40
1.0
 40
1.0
 40
1.0
 40
2.0
 40
2.0
 40
2.0
 40
3.0
 40
3.0
 40
3.0
 40
4.0
 40
4.0
 40
4.0
 40
4.0
 10
87.86766414719801
 20
-117.4331252484195
 30
0.0
 10
87.86766414719801
 20
-117.3780213595443
 30
0.0
 10
87.82289664834013
 20
-117.3332185817779
 30
0.0
 10
87.76775748308019
 20
-117.3332185817779
 30
0.0
 10
87.71265359559712
 20
-117.3332185817779
 30
0.0
 10
87.66785081896235
 20
-117.3780213595443
 30
0.0
 10
87.66785081896235
 20
-117.4331252484195
 30
0.0
 10
87.66785081896235
 20
-117.4882644150723
 30
0.0
 10
87.71265359559712
 20
-117.533067192839
 30
0.0
 10
87.76775748308019
 20
-117.533067192839
 30
0.0
 10
87.82289664834013
 20
-117.533067192839
 30
0.0
 10
87.86766414719801
 20
-117.4882644150723
 30
0.0
 10
87.86766414719801
 20
-117.4331252484195
 30
0.0
  0
SPLINE
  5
F3
330
1F
100
AcDbEntity
  8
_U+30EC_U+30A4_U+30E4_U+30FC 1
 62
     7
420
 16777215
370
     9
100
AcDbSpline
210
0.0
220
0.0
230
1.0
 70
    11
 71
     3
 72
    17
 73
    13
 74
     0
 42
0.0000000001
 43
0.0000000001
 12
1.0
 22
0.0
 32
0.0
 13
1.0
 23
0.0
 33
0.0
 40
0.0
 40
0.0
 40
0.0
 40
0.0
 40
1.0
 40
1.0
 40
1.0
 40
2.0
 40
2.0
 40
2.0
 40
3.0
 40
3.0
 40
3.0
 40
4.0
 40
4.0
 40
4.0
 40
4.0
 10
81.86769041138122
 20
-117.4331252484195
 30
0.0
 10
81.86769041138122
 20
-117.3780213595443
 30
0.0
 10
81.82292497954438
 20
-117.3332185817779
 30
0.0
 10
81.76778374726338
 20
-117.3332185817779
 30
0.0
 10
81.71267985978031
 20
-117.3332185817779
 30
0.0
 10
81.66787708314554
 20
-117.3780213595443
 30
0.0
 10
81.66787708314554
 20
-117.4331252484195
 30
0.0
 10
81.66787708314554
 20
-117.4882644150723
 30
0.0
 10
81.71267985978031
 20
-117.533067192839
 30
0.0
 10
81.76778374726338
 20
-117.533067192839
 30
0.0
 10
81.82292497954438
 20
-117.533067192839
 30
0.0
 10
81.86769041138122
 20
-117.4882644150723
 30
0.0
 10
81.86769041138122
 20
-117.4331252484195
 30
0.0
  0
POLYLINE
  5
F4
330
1F
100
AcDbEntity
  8
_U+30EC_U+30A4_U+30E4_U+30FC 1
 62
     7
420
 16777215
370
     9
100
AcDb2dPolyline
 66
     1
 10
0.0
 20
0.0
 30
0.0
  0
VERTEX
  5
F5
330
F4
100
AcDbEntity
  8
_U+30EC_U+30A4_U+30E4_U+30FC 1
 62
     7
420
 16777215
370
     9
100
AcDbVertex
100
AcDb2dVertex
 10
81.76778374726338
 20
-117.4331252484195
 30
0.0
  0
VERTEX
  5
F6
330
F4
100
AcDbEntity
  8
_U+30EC_U+30A4_U+30E4_U+30FC 1
 62
     7
420
 16777215
370
     9
100
AcDbVertex
100
AcDb2dVertex
 10
87.76775748308019
 20
-117.4331252484195
 30
0.0
  0
SEQEND
  5
F7
330
F4
100
AcDbEntity
  8
_U+30EC_U+30A4_U+30E4_U+30FC 1
 62
     7
420
 16777215
370
     9
  0
POLYLINE
  5
F8
330
1F
100
AcDbEntity
  8
_U+30EC_U+30A4_U+30E4_U+30FC 1
 62
     7
420
 16777215
370
     9
100
AcDb2dPolyline
 66
     1
 10
0.0
 20
0.0
 30
0.0
  0
VERTEX
  5
F9
330
F8
100
AcDbEntity
  8
_U+30EC_U+30A4_U+30E4_U+30FC 1
 62
     7
420
 16777215
370
     9
100
AcDbVertex
100
AcDb2dVertex
 10
81.76778374726338
 20
-115.9731191376733
 30
0.0
  0
VERTEX
  5
FA
330
F8
100
AcDbEntity
  8
_U+30EC_U+30A4_U+30E4_U+30FC 1
 62
     7
420
 16777215
370
     9
100
AcDbVertex
100
AcDb2dVertex
 10
81.76778374726338
 20
-118.4332502481695
 30
0.0
  0
SEQEND
  5
FB
330
F8
100
AcDbEntity
  8
_U+30EC_U+30A4_U+30E4_U+30FC 1
 62
     7
420
 16777215
370
     9
  0
POLYLINE
  5
FC
330
1F
100
AcDbEntity
  8
_U+30EC_U+30A4_U+30E4_U+30FC 1
 62
     7
420
 16777215
370
     9
100
AcDb2dPolyline
 66
     1
 10
0.0
 20
0.0
 30
0.0
  0
VERTEX
  5
FD
330
FC
100
AcDbEntity
  8
_U+30EC_U+30A4_U+30E4_U+30FC 1
 62
     7
420
 16777215
370
     9
100
AcDbVertex
100
AcDb2dVertex
 10
87.76775748308019
 20
-115.9731191376733
 30
0.0
  0
VERTEX
  5
FE
330
FC
100
AcDbEntity
  8
_U+30EC_U+30A4_U+30E4_U+30FC 1
 62
     7
420
 16777215
370
     9
100
AcDbVertex
100
AcDb2dVertex
 10
87.76775748308019
 20
-118.4332502481695
 30
0.0
  0
SEQEND
  5
FF
330
FC
100
AcDbEntity
  8
_U+30EC_U+30A4_U+30E4_U+30FC 1
 62
     7
420
 16777215
370
     9
  0
INSERT
  5
101
330
1F
100
AcDbEntity
  8
_U+30EC_U+30A4_U+30E4_U+30FC 1
100
AcDbBlockReference
  2
block 5
 10
0.0
 20
0.0
 30
0.0
  0
POLYLINE
  5
107
330
1F
100
AcDbEntity
  8
_U+30EC_U+30A4_U+30E4_U+30FC 1
 62
     7
420
 16777215
370
     9
100
AcDb2dPolyline
 66
     1
 10
0.0
 20
0.0
 30
0.0
  0
VERTEX
  5
108
330
107
100
AcDbEntity
  8
_U+30EC_U+30A4_U+30E4_U+30FC 1
 62
     7
420
 16777215
370
     9
100
AcDbVertex
100
AcDb2dVertex
 10
76.66767554404464
 20
-137.4531230211923
 30
0.0
  0
VERTEX
  5
109
330
107
100
AcDbEntity
  8
_U+30EC_U+30A4_U+30E4_U+30FC 1
 62
     7
420
 16777215
370
     9
100
AcDbVertex
100
AcDb2dVertex
 10
76.66767554404464
 20
-119.4531660812478
 30
0.0
  0
SEQEND
  5
10A
330
107
100
AcDbEntity
  8
_U+30EC_U+30A4_U+30E4_U+30FC 1
 62
     7
420
 16777215
370
     9
  0
POLYLINE
  5
10B
330
1F
100
AcDbEntity
  8
_U+30EC_U+30A4_U+30E4_U+30FC 1
 62
     7
420
 16777215
370
     9
100
AcDb2dPolyline
 66
     1
 10
0.0
 20
0.0
 30
0.0
  0
VERTEX
  5
10C
330
10B
100
AcDbEntity
  8
_U+30EC_U+30A4_U+30E4_U+30FC 1
 62
     7
420
 16777215
370
     9
100
AcDbVertex
100
AcDb2dVertex
 10
79.1274538146238
 20
-137.4531230211923
 30
0.0
  0
VERTEX
  5
10D
330
10B
100
AcDbEntity
  8
_U+30EC_U+30A4_U+30E4_U+30FC 1
 62
     7
420
 16777215
370
     9
100
AcDbVertex
100
AcDb2dVertex
 10
75.66790334732873
 20
-137.4531230211923
 30
0.0
  0
SEQEND
  5
10E
330
10B
100
AcDbEntity
  8
_U+30EC_U+30A4_U+30E4_U+30FC 1
 62
     7
420
 16777215
370
     9
  0
POLYLINE
  5
10F
330
1F
100
AcDbEntity
  8
_U+30EC_U+30A4_U+30E4_U+30FC 1
 62
     7
420
 16777215
370
     9
100
AcDb2dPolyline
 66
     1
 10
0.0
 20
0.0
 30
0.0
  0
VERTEX
  5
110
330
10F
100
AcDbEntity
  8
_U+30EC_U+30A4_U+30E4_U+30FC 1
 62
     7
420
 16777215
370
     9
100
AcDbVertex
100
AcDb2dVertex
 10
78.12771689568477
 20
-119.4531660812478
 30
0.0
  0
VERTEX
  5
111
330
10F
100
AcDbEntity
  8
_U+30EC_U+30A4_U+30E4_U+30FC 1
 62
     7
420
 16777215
370
     9
100
AcDbVertex
100
AcDb2dVertex
 10
75.66790334732873
 20
-119.4531660812478
 30
0.0
  0
SEQEND
  5
112
330
10F
100
AcDbEntity
  8
_U+30EC_U+30A4_U+30E4_U+30FC 1
 62
     7
420
 16777215
370
     9
  0
INSERT
  5
114
330
1F
100
AcDbEntity
  8
_U+30EC_U+30A4_U+30E4_U+30FC 1
100
AcDbBlockReference
  2
block 6
 10
0.0
 20
0.0
 30
0.0
  0
POLYLINE
  5
11D
330
1F
100
AcDbEntity
  8
_U+30EC_U+30A4_U+30E4_U+30FC 1
 62
     7
420
 16777215
370
     9
100
AcDb2dPolyline
 66
     1
 10
0.0
 20
0.0
 30
0.0
  0
VERTEX
  5
11E
330
11D
100
AcDbEntity
  8
_U+30EC_U+30A4_U+30E4_U+30FC 1
 62
     7
420
 16777215
370
     9
100
AcDbVertex
100
AcDb2dVertex
 10
97.08003224550426
 20
-136.452998021442
 30
0.0
  0
VERTEX
  5
11F
330
11D
100
AcDbEntity
  8
_U+30EC_U+30A4_U+30E4_U+30FC 1
 62
     7
420
 16777215
370
     9
100
AcDbVertex
100
AcDb2dVertex
 10
97.08003224550426
 20
-126.4532649683868
 30
0.0
  0
SEQEND
  5
120
330
11D
100
AcDbEntity
  8
_U+30EC_U+30A4_U+30E4_U+30FC 1
 62
     7
420
 16777215
370
     9
  0
POLYLINE
  5
121
330
1F
100
AcDbEntity
  8
_U+30EC_U+30A4_U+30E4_U+30FC 1
 62
     7
420
 16777215
370
     9
100
AcDb2dPolyline
 66
     1
 10
0.0
 20
0.0
 30
0.0
  0
VERTEX
  5
122
330
121
100
AcDbEntity
  8
_U+30EC_U+30A4_U+30E4_U+30FC 1
 62
     7
420
 16777215
370
     9
100
AcDbVertex
100
AcDb2dVertex
 10
90.61961296587884
 20
-136.452998021442
 30
0.0
  0
VERTEX
  5
123
330
121
100
AcDbEntity
  8
_U+30EC_U+30A4_U+30E4_U+30FC 1
 62
     7
420
 16777215
370
     9
100
AcDbVertex
100
AcDb2dVertex
 10
98.07980444222017
 20
-136.452998021442
 30
0.0
  0
SEQEND
  5
124
330
121
100
AcDbEntity
  8
_U+30EC_U+30A4_U+30E4_U+30FC 1
 62
     7
420
 16777215
370
     9
  0
POLYLINE
  5
125
330
1F
100
AcDbEntity
  8
_U+30EC_U+30A4_U+30E4_U+30FC 1
 62
     7
420
 16777215
370
     9
100
AcDb2dPolyline
 66
     1
 10
0.0
 20
0.0
 30
0.0
  0
VERTEX
  5
126
330
125
100
AcDbEntity
  8
_U+30EC_U+30A4_U+30E4_U+30FC 1
 62
     7
420
 16777215
370
     9
100
AcDbVertex
100
AcDb2dVertex
 10
90.61961296587884
 20
-126.4532649683868
 30
0.0
  0
VERTEX
  5
127
330
125
100
AcDbEntity
  8
_U+30EC_U+30A4_U+30E4_U+30FC 1
 62
     7
420
 16777215
370
     9
100
AcDbVertex
100
AcDb2dVertex
 10
98.07980444222017
 20
-126.4532649683868
 30
0.0
  0
SEQEND
  5
128
330
125
100
AcDbEntity
  8
_U+30EC_U+30A4_U+30E4_U+30FC 1
 62
     7
420
 16777215
370
     9
  0
SPLINE
  5
129
330
1F
100
AcDbEntity
  8
_U+30EC_U+30A4_U+30E4_U+30FC 1
 62
     7
420
 16777215
370
     9
100
AcDbSpline
210
0.0
220
0.0
230
1.0
 70
    11
 71
     3
 72
    17
 73
    13
 74
     0
 42
0.0000000001
 43
0.0000000001
 12
1.0
 22
0.0
 32
0.0
 13
1.0
 23
0.0
 33
0.0
 40
0.0
 40
0.0
 40
0.0
 40
0.0
 40
1.0
 40
1.0
 40
1.0
 40
2.0
 40
2.0
 40
2.0
 40
3.0
 40
3.0
 40
3.0
 40
4.0
 40
4.0
 40
4.0
 40
4.0
 10
97.1799389096221
 20
-125.3529158019952
 30
0.0
 10
97.1799389096221
 20
-125.2977766353421
 30
0.0
 10
97.13517141076422
 20
-125.2530091353533
 30
0.0
 10
97.08003224550426
 20
-125.2530091353533
 30
0.0
 10
97.02492835802119
 20
-125.2530091353533
 30
0.0
 10
96.98012558138643
 20
-125.2977766353421
 30
0.0
 10
96.98012558138643
 20
-125.3529158019952
 30
0.0
 10
96.98012558138643
 20
-125.4083724686479
 30
0.0
 10
97.02492835802119
 20
-125.4531399686368
 30
0.0
 10
97.08003224550426
 20
-125.4531399686368
 30
0.0
 10
97.13517141076422
 20
-125.4531399686368
 30
0.0
 10
97.1799389096221
 20
-125.4083724686479
 30
0.0
 10
97.1799389096221
 20
-125.3529158019952
 30
0.0
  0
POLYLINE
  5
12A
330
1F
100
AcDbEntity
  8
_U+30EC_U+30A4_U+30E4_U+30FC 1
 62
     7
420
 16777215
370
     9
100
AcDb2dPolyline
 66
     1
 10
0.0
 20
0.0
 30
0.0
  0
VERTEX
  5
12B
330
12A
100
AcDbEntity
  8
_U+30EC_U+30A4_U+30E4_U+30FC 1
 62
     7
420
 16777215
370
     9
100
AcDbVertex
100
AcDb2dVertex
 10
90.61961296587884
 20
-125.3529158019952
 30
0.0
  0
VERTEX
  5
12C
330
12A
100
AcDbEntity
  8
_U+30EC_U+30A4_U+30E4_U+30FC 1
 62
     7
420
 16777215
370
     9
100
AcDbVertex
100
AcDb2dVertex
 10
98.07980444222017
 20
-125.3529158019952
 30
0.0
  0
SEQEND
  5
12D
330
12A
100
AcDbEntity
  8
_U+30EC_U+30A4_U+30E4_U+30FC 1
 62
     7
420
 16777215
370
     9
  0
INSERT
  5
12F
330
1F
100
AcDbEntity
  8
_U+30EC_U+30A4_U+30E4_U+30FC 1
100
AcDbBlockReference
  2
block 7
 10
0.0
 20
0.0
 30
0.0
  0
POLYLINE
  5
137
330
1F
100
AcDbEntity
  8
_U+30EC_U+30A4_U+30E4_U+30FC 1
 62
     7
420
 16777215
370
     9
100
AcDb2dPolyline
 66
     1
 10
0.0
 20
0.0
 30
0.0
  0
VERTEX
  5
138
330
137
100
AcDbEntity
  8
_U+30EC_U+30A4_U+30E4_U+30FC 1
 62
     7
420
 16777215
370
     9
100
AcDbVertex
100
AcDb2dVertex
 10
97.08003224550426
 20
-126.4532649683868
 30
0.0
  0
VERTEX
  5
139
330
137
100
AcDbEntity
  8
_U+30EC_U+30A4_U+30E4_U+30FC 1
 62
     7
420
 16777215
370
     9
100
AcDbVertex
100
AcDb2dVertex
 10
97.08003224550426
 20
-119.4531660812478
 30
0.0
  0
SEQEND
  5
13A
330
137
100
AcDbEntity
  8
_U+30EC_U+30A4_U+30E4_U+30FC 1
 62
     7
420
 16777215
370
     9
  0
POLYLINE
  5
13B
330
1F
100
AcDbEntity
  8
_U+30EC_U+30A4_U+30E4_U+30FC 1
 62
     7
420
 16777215
370
     9
100
AcDb2dPolyline
 66
     1
 10
0.0
 20
0.0
 30
0.0
  0
VERTEX
  5
13C
330
13B
100
AcDbEntity
  8
_U+30EC_U+30A4_U+30E4_U+30FC 1
 62
     7
420
 16777215
370
     9
100
AcDbVertex
100
AcDb2dVertex
 10
90.61961296587884
 20
-119.4531660812478
 30
0.0
  0
VERTEX
  5
13D
330
13B
100
AcDbEntity
  8
_U+30EC_U+30A4_U+30E4_U+30FC 1
 62
     7
420
 16777215
370
     9
100
AcDbVertex
100
AcDb2dVertex
 10
98.07980444222017
 20
-119.4531660812478
 30
0.0
  0
SEQEND
  5
13E
330
13B
100
AcDbEntity
  8
_U+30EC_U+30A4_U+30E4_U+30FC 1
 62
     7
420
 16777215
370
     9
  0
INSERT
  5
140
330
1F
100
AcDbEntity
  8
_U+30EC_U+30A4_U+30E4_U+30FC 1
100
AcDbBlockReference
  2
block 8
 10
0.0
 20
0.0
 30
0.0
  0
ENDSEC
  0
SECTION
  2
OBJECTS
  0
DICTIONARY
  5
C
330
0
100
AcDbDictionary
281
     1
  3
ACAD_GROUP
350
D
  3
ACAD_LAYOUT
350
1A
  3
ACAD_MATERIAL
350
3B
  3
ACAD_MLEADERSTYLE
350
147
  3
ACAD_MLINESTYLE
350
17
  3
ACAD_PLOTSETTINGS
350
19
  3
ACAD_PLOTSTYLENAME
350
E
  3
ACAD_TABLESTYLE
350
146
  3
ACAD_VISUALSTYLE
350
2A
  0
SUN
  5
3F
330
29
100
AcDbSun
 90
        1
290
     0
 63
     7
421
 16777215
 40
1.0
291
     1
 91
  2455826
 92
 54000000
292
     0
 70
     2
 71
   256
280
     1
  0
DICTIONARY
  5
D
102
{ACAD_REACTORS
330
C
102
}
330
C
100
AcDbDictionary
281
     1
  0
DICTIONARY
  5
1A
102
{ACAD_REACTORS
330
C
102
}
330
C
100
AcDbDictionary
281
     1
  3
Layout1
350
1E
  3
Layout2
350
26
  3
Model
350
22
  0
DICTIONARY
  5
3B
102
{ACAD_REACTORS
330
C
102
}
330
C
100
AcDbDictionary
281
     1
  3
ByBlock
350
3D
  3
ByLayer
350
3C
  3
Global
350
3E
  0
DICTIONARY
  5
147
102
{ACAD_REACTORS
330
C
102
}
330
C
100
AcDbDictionary
281
     1
  0
DICTIONARY
  5
17
102
{ACAD_REACTORS
330
C
102
}
330
C
100
AcDbDictionary
281
     1
  3
Standard
350
18
  0
DICTIONARY
  5
19
102
{ACAD_REACTORS
330
C
102
}
330
C
100
AcDbDictionary
281
     1
  0
ACDBDICTIONARYWDFLT
  5
E
102
{ACAD_REACTORS
330
C
102
}
330
C
100
AcDbDictionary
281
     1
  3
Normal
350
F
100
AcDbDictionaryWithDefault
340
F
  0
DICTIONARY
  5
146
102
{ACAD_REACTORS
330
C
102
}
330
C
100
AcDbDictionary
281
     1
  0
DICTIONARY
  5
2A
102
{ACAD_REACTORS
330
C
102
}
330
C
100
AcDbDictionary
281
     1
  3
2dWireframe
350
2F
  3
3D Hidden
350
31
  3
3dWireframe
350
30
  3
Basic
350
32
  3
Brighten
350
36
  3
ColorChange
350
3A
  3
Conceptual
350
34
  3
Dim
350
35
  3
Facepattern
350
39
  3
Flat
350
2B
  3
FlatWithEdges
350
2C
  3
Gouraud
350
2D
  3
GouraudWithEdges
350
2E
  3
Linepattern
350
38
  3
Realistic
350
33
  3
Thicken
350
37
  0
LAYOUT
  5
1E
102
{ACAD_REACTORS
330
1A
102
}
330
1A
100
AcDbPlotSettings
  1

  2
none_device
  4

  6

 40
0.0
 41
0.0
 42
0.0
 43
0.0
 44
0.0
 45
0.0
 46
0.0
 47
0.0
 48
0.0
 49
0.0
140
0.0
141
0.0
142
1.0
143
1.0
 70
   688
 72
     0
 73
     0
 74
     5
  7

 75
    16
 76
     0
 77
     2
 78
   300
147
1.0
148
0.0
149
0.0
100
AcDbLayout
  1
Layout1
 70
     1
 71
     1
 10
0.0
 20
0.0
 11
12.0
 21
9.0
 12
0.0
 22
0.0
 32
0.0
 14
1.000000000000000E+20
 24
1.000000000000000E+20
 34
1.000000000000000E+20
 15
-1.000000000000000E+20
 25
-1.000000000000000E+20
 35
-1.000000000000000E+20
146
0.0
 13
0.0
 23
0.0
 33
0.0
 16
1.0
 26
0.0
 36
0.0
 17
0.0
 27
1.0
 37
0.0
 76
     0
330
1B
  0
LAYOUT
  5
26
102
{ACAD_REACTORS
330
1A
102
}
330
1A
100
AcDbPlotSettings
  1

  2
none_device
  4

  6

 40
0.0
 41
0.0
 42
0.0
 43
0.0
 44
0.0
 45
0.0
 46
0.0
 47
0.0
 48
0.0
 49
0.0
140
0.0
141
0.0
142
1.0
143
1.0
 70
   688
 72
     0
 73
     0
 74
     5
  7

 75
    16
 76
     0
 77
     2
 78
   300
147
1.0
148
0.0
149
0.0
100
AcDbLayout
  1
Layout2
 70
     1
 71
     2
 10
0.0
 20
0.0
 11
0.0
 21
0.0
 12
0.0
 22
0.0
 32
0.0
 14
0.0
 24
0.0
 34
0.0
 15
0.0
 25
0.0
 35
0.0
146
0.0
 13
0.0
 23
0.0
 33
0.0
 16
1.0
 26
0.0
 36
0.0
 17
0.0
 27
1.0
 37
0.0
 76
     0
330
23
  0
LAYOUT
  5
22
102
{ACAD_REACTORS
330
1A
102
}
330
1A
100
AcDbPlotSettings
  1

  2
none_device
  4

  6

 40
0.0
 41
0.0
 42
0.0
 43
0.0
 44
0.0
 45
0.0
 46
0.0
 47
0.0
 48
0.0
 49
0.0
140
0.0
141
0.0
142
1.0
143
1.0
 70
  1712
 72
     0
 73
     0
 74
     0
  7

 75
     0
 76
     0
 77
     2
 78
   300
147
1.0
148
0.0
149
0.0
100
AcDbLayout
  1
Model
 70
     1
 71
     0
 10
0.0
 20
0.0
 11
12.0
 21
9.0
 12
0.0
 22
0.0
 32
0.0
 14
1.000000000000000E+20
 24
1.000000000000000E+20
 34
1.000000000000000E+20
 15
-1.000000000000000E+20
 25
-1.000000000000000E+20
 35
-1.000000000000000E+20
146
0.0
 13
0.0
 23
0.0
 33
0.0
 16
1.0
 26
0.0
 36
0.0
 17
0.0
 27
1.0
 37
0.0
 76
     0
330
1F
331
29
  0
MATERIAL
  5
3D
102
{ACAD_REACTORS
330
3B
102
}
330
3B
100
AcDbMaterial
  1
ByBlock
 72
     1
 94
      127
  0
MATERIAL
  5
3C
102
{ACAD_REACTORS
330
3B
102
}
330
3B
100
AcDbMaterial
  1
ByLayer
 72
     1
 94
      127
  0
MATERIAL
  5
3E
102
{ACAD_REACTORS
330
3B
102
}
330
3B
100
AcDbMaterial
  1
Global
 72
     1
 94
      127
  0
MLINESTYLE
  5
18
102
{ACAD_REACTORS
330
17
102
}
330
17
100
AcDbMlineStyle
  2
Standard
 70
     0
  3

 62
   256
 51
90.0
 52
90.0
 71
     2
 49
0.5
 62
   256
  6
BYLAYER
 49
-0.5
 62
   256
  6
BYLAYER
  0
ACDBPLACEHOLDER
  5
F
102
{ACAD_REACTORS
330
E
102
}
330
E
  0
VISUALSTYLE
  5
2F
102
{ACAD_REACTORS
330
2A
102
}
330
2A
100
AcDbVisualStyle
  2
2dWireframe
 70
     4
177
     2
291
     0
 71
     0
176
     1
 72
     2
176
     1
 73
     0
176
     1
 90
        0
176
     1
 40
-0.6
176
     1
 41
-30.0
176
     1
 62
     5
 63
     7
421
 16777215
176
     1
 74
     1
176
     1
 91
        4
176
     1
 64
     7
176
     1
 65
   257
176
     1
 75
     1
176
     1
175
     1
176
     1
 42
1.0
176
     1
 92
        0
176
     1
 66
   257
176
     1
 43
1.0
176
     1
 76
     1
176
     1
 77
     6
176
     1
 78
     2
176
     1
 67
     7
176
     1
 79
     5
176
     1
170
     0
176
     1
171
     0
176
     1
290
     0
176
     1
 93
        1
176
     1
 44
0.0
176
     1
173
     0
176
     1
  0
VISUALSTYLE
  5
31
102
{ACAD_REACTORS
330
2A
102
}
330
2A
100
AcDbVisualStyle
  2
3D Hidden
 70
     6
177
     2
291
     0
 71
     1
176
     1
 72
     2
176
     1
 73
     2
176
     1
 90
        0
176
     1
 40
-0.6
176
     1
 41
-30.0
176
     1
 62
     5
 63
     7
421
 16777215
176
     1
 74
     2
176
     1
 91
        2
176
     1
 64
     7
176
     1
 65
   257
176
     1
 75
     2
176
     1
175
     1
176
     1
 42
40.0
176
     1
 92
        0
176
     1
 66
   257
176
     1
 43
1.0
176
     1
 76
     1
176
     1
 77
     6
176
     1
 78
     2
176
     1
 67
     7
176
     1
 79
     3
176
     1
170
     0
176
     1
171
     0
176
     1
290
     0
176
     1
 93
        1
176
     1
 44
0.0
176
     1
173
     0
176
     1
  0
VISUALSTYLE
  5
30
102
{ACAD_REACTORS
330
2A
102
}
330
2A
100
AcDbVisualStyle
  2
3dWireframe
 70
     5
177
     2
291
     0
 71
     0
176
     1
 72
     2
176
     1
 73
     0
176
     1
 90
        0
176
     1
 40
-0.6
176
     1
 41
-30.0
176
     1
 62
     5
 63
     7
421
 16777215
176
     1
 74
     1
176
     1
 91
        4
176
     1
 64
     7
176
     1
 65
   257
176
     1
 75
     1
176
     1
175
     1
176
     1
 42
1.0
176
     1
 92
        0
176
     1
 66
   257
176
     1
 43
1.0
176
     1
 76
     1
176
     1
 77
     6
176
     1
 78
     2
176
     1
 67
     7
176
     1
 79
     5
176
     1
170
     0
176
     1
171
     0
176
     1
290
     0
176
     1
 93
        1
176
     1
 44
0.0
176
     1
173
     0
176
     1
  0
VISUALSTYLE
  5
32
102
{ACAD_REACTORS
330
2A
102
}
330
2A
100
AcDbVisualStyle
  2
Basic
 70
     7
177
     2
291
     1
 71
     1
176
     1
 72
     0
176
     1
 73
     1
176
     1
 90
        0
176
     1
 40
-0.6
176
     1
 41
-30.0
176
     1
 62
     5
 63
     7
421
 16777215
176
     1
 74
     0
176
     1
 91
        4
176
     1
 64
     7
176
     1
 65
   257
176
     1
 75
     1
176
     1
175
     1
176
     1
 42
1.0
176
     1
 92
        8
176
     1
 66
     7
176
     1
 43
1.0
176
     1
 76
     1
176
     1
 77
     6
176
     1
 78
     2
176
     1
 67
     7
176
     1
 79
     5
176
     1
170
     0
176
     1
171
     0
176
     1
290
     0
176
     1
 93
        1
176
     1
 44
0.0
176
     1
173
     0
176
     1
  0
VISUALSTYLE
  5
36
102
{ACAD_REACTORS
330
2A
102
}
330
2A
100
AcDbVisualStyle
  2
Brighten
 70
    12
177
     2
291
     1
 71
     2
176
     1
 72
     2
176
     1
 73
     0
176
     1
 90
        0
176
     1
 40
-0.6
176
     1
 41
-30.0
176
     1
 62
     5
 63
     7
421
 16777215
176
     1
 74
     1
176
     1
 91
        4
176
     1
 64
     7
176
     1
 65
   257
176
     1
 75
     1
176
     1
175
     1
176
     1
 42
1.0
176
     1
 92
        8
176
     1
 66
     7
176
     1
 43
1.0
176
     1
 76
     1
176
     1
 77
     6
176
     1
 78
     2
176
     1
 67
     7
176
     1
 79
     5
176
     1
170
     0
176
     1
171
     0
176
     1
290
     0
176
     1
 93
        1
176
     1
 44
50.0
176
     1
173
     0
176
     1
  0
VISUALSTYLE
  5
3A
102
{ACAD_REACTORS
330
2A
102
}
330
2A
100
AcDbVisualStyle
  2
ColorChange
 70
    16
177
     2
291
     1
 71
     2
176
     1
 72
     2
176
     1
 73
     3
176
     1
 90
        0
176
     1
 40
-0.6
176
     1
 41
-30.0
176
     1
 62
     5
 63
     8
421
  8421504
176
     1
 74
     1
176
     1
 91
        4
176
     1
 64
     7
176
     1
 65
   257
176
     1
 75
     1
176
     1
175
     1
176
     1
 42
1.0
176
     1
 92
        8
176
     1
 66
     8
424
  8421504
176
     1
 43
1.0
176
     1
 76
     1
176
     1
 77
     6
176
     1
 78
     2
176
     1
 67
     7
176
     1
 79
     5
176
     1
170
     0
176
     1
171
     0
176
     1
290
     0
176
     1
 93
        1
176
     1
 44
0.0
176
     1
173
     0
176
     1
  0
VISUALSTYLE
  5
34
102
{ACAD_REACTORS
330
2A
102
}
330
2A
100
AcDbVisualStyle
  2
Conceptual
 70
     9
177
     2
291
     0
 71
     3
176
     1
 72
     2
176
     1
 73
     0
176
     1
 90
        0
176
     1
 40
-0.6
176
     1
 41
-30.0
176
     1
 62
     5
 63
     7
421
 16777215
176
     1
 74
     2
176
     1
 91
        2
176
     1
 64
     7
176
     1
 65
   257
176
     1
 75
     1
176
     1
175
     1
176
     1
 42
40.0
176
     1
 92
        8
176
     1
 66
     7
176
     1
 43
1.0
176
     1
 76
     1
176
     1
 77
     6
176
     1
 78
     2
176
     1
 67
     7
176
     1
 79
     3
176
     1
170
     0
176
     1
171
     0
176
     1
290
     0
176
     1
 93
        1
176
     1
 44
0.0
176
     1
173
     0
176
     1
  0
VISUALSTYLE
  5
35
102
{ACAD_REACTORS
330
2A
102
}
330
2A
100
AcDbVisualStyle
  2
Dim
 70
    11
177
     2
291
     1
 71
     2
176
     1
 72
     2
176
     1
 73
     0
176
     1
 90
        0
176
     1
 40
-0.6
176
     1
 41
-30.0
176
     1
 62
     5
 63
     7
421
 16777215
176
     1
 74
     1
176
     1
 91
        4
176
     1
 64
     7
176
     1
 65
   257
176
     1
 75
     1
176
     1
175
     1
176
     1
 42
1.0
176
     1
 92
        8
176
     1
 66
     7
176
     1
 43
1.0
176
     1
 76
     1
176
     1
 77
     6
176
     1
 78
     2
176
     1
 67
     7
176
     1
 79
     5
176
     1
170
     0
176
     1
171
     0
176
     1
290
     0
176
     1
 93
        1
176
     1
 44
-50.0
176
     1
173
     0
176
     1
  0
VISUALSTYLE
  5
39
102
{ACAD_REACTORS
330
2A
102
}
330
2A
100
AcDbVisualStyle
  2
Facepattern
 70
    15
177
     2
291
     1
 71
     2
176
     1
 72
     2
176
     1
 73
     0
176
     1
 90
        0
176
     1
 40
-0.6
176
     1
 41
-30.0
176
     1
 62
     5
 63
     7
421
 16777215
176
     1
 74
     1
176
     1
 91
        4
176
     1
 64
     7
176
     1
 65
   257
176
     1
 75
     1
176
     1
175
     1
176
     1
 42
1.0
176
     1
 92
        8
176
     1
 66
     7
176
     1
 43
1.0
176
     1
 76
     1
176
     1
 77
     6
176
     1
 78
     2
176
     1
 67
     7
176
     1
 79
     5
176
     1
170
     0
176
     1
171
     0
176
     1
290
     0
176
     1
 93
        1
176
     1
 44
0.0
176
     1
173
     0
176
     1
  0
VISUALSTYLE
  5
2B
102
{ACAD_REACTORS
330
2A
102
}
330
2A
100
AcDbVisualStyle
  2
Flat
 70
     0
177
     2
291
     1
 71
     2
176
     1
 72
     1
176
     1
 73
     1
176
     1
 90
        2
176
     1
 40
-0.6
176
     1
 41
30.0
176
     1
 62
     5
 63
     7
421
 16777215
176
     1
 74
     0
176
     1
 91
        4
176
     1
 64
     7
176
     1
 65
   257
176
     1
 75
     1
176
     1
175
     1
176
     1
 42
1.0
176
     1
 92
        8
176
     1
 66
     7
176
     1
 43
1.0
176
     1
 76
     1
176
     1
 77
     6
176
     1
 78
     2
176
     1
 67
     7
176
     1
 79
     5
176
     1
170
     0
176
     1
171
     0
176
     1
290
     0
176
     1
 93
       13
176
     1
 44
0.0
176
     1
173
     0
176
     1
  0
VISUALSTYLE
  5
2C
102
{ACAD_REACTORS
330
2A
102
}
330
2A
100
AcDbVisualStyle
  2
FlatWithEdges
 70
     1
177
     2
291
     1
 71
     2
176
     1
 72
     1
176
     1
 73
     1
176
     1
 90
        2
176
     1
 40
-0.6
176
     1
 41
30.0
176
     1
 62
     5
 63
     7
421
 16777215
176
     1
 74
     1
176
     1
 91
        4
176
     1
 64
     7
176
     1
 65
   257
176
     1
 75
     1
176
     1
175
     1
176
     1
 42
1.0
176
     1
 92
        0
176
     1
 66
   257
176
     1
 43
1.0
176
     1
 76
     1
176
     1
 77
     6
176
     1
 78
     2
176
     1
 67
     7
176
     1
 79
     5
176
     1
170
     0
176
     1
171
     0
176
     1
290
     0
176
     1
 93
       13
176
     1
 44
0.0
176
     1
173
     0
176
     1
  0
VISUALSTYLE
  5
2D
102
{ACAD_REACTORS
330
2A
102
}
330
2A
100
AcDbVisualStyle
  2
Gouraud
 70
     2
177
     2
291
     1
 71
     2
176
     1
 72
     2
176
     1
 73
     1
176
     1
 90
        2
176
     1
 40
-0.6
176
     1
 41
30.0
176
     1
 62
     5
 63
     7
421
 16777215
176
     1
 74
     0
176
     1
 91
        4
176
     1
 64
     7
176
     1
 65
   257
176
     1
 75
     1
176
     1
175
     1
176
     1
 42
1.0
176
     1
 92
        0
176
     1
 66
     7
176
     1
 43
1.0
176
     1
 76
     1
176
     1
 77
     6
176
     1
 78
     2
176
     1
 67
     7
176
     1
 79
     5
176
     1
170
     0
176
     1
171
     0
176
     1
290
     0
176
     1
 93
       13
176
     1
 44
0.0
176
     1
173
     0
176
     1
  0
VISUALSTYLE
  5
2E
102
{ACAD_REACTORS
330
2A
102
}
330
2A
100
AcDbVisualStyle
  2
GouraudWithEdges
 70
     3
177
     2
291
     1
 71
     2
176
     1
 72
     2
176
     1
 73
     1
176
     1
 90
        2
176
     1
 40
-0.6
176
     1
 41
30.0
176
     1
 62
     5
 63
     7
421
 16777215
176
     1
 74
     1
176
     1
 91
        4
176
     1
 64
     7
176
     1
 65
   257
176
     1
 75
     1
176
     1
175
     1
176
     1
 42
1.0
176
     1
 92
        0
176
     1
 66
   257
176
     1
 43
1.0
176
     1
 76
     1
176
     1
 77
     6
176
     1
 78
     2
176
     1
 67
     7
176
     1
 79
     5
176
     1
170
     0
176
     1
171
     0
176
     1
290
     0
176
     1
 93
       13
176
     1
 44
0.0
176
     1
173
     0
176
     1
  0
VISUALSTYLE
  5
38
102
{ACAD_REACTORS
330
2A
102
}
330
2A
100
AcDbVisualStyle
  2
Linepattern
 70
    14
177
     2
291
     1
 71
     2
176
     1
 72
     2
176
     1
 73
     0
176
     1
 90
        0
176
     1
 40
-0.6
176
     1
 41
-30.0
176
     1
 62
     5
 63
     7
421
 16777215
176
     1
 74
     1
176
     1
 91
        4
176
     1
 64
     7
176
     1
 65
   257
176
     1
 75
     7
176
     1
175
     7
176
     1
 42
1.0
176
     1
 92
        8
176
     1
 66
     7
176
     1
 43
1.0
176
     1
 76
     1
176
     1
 77
     6
176
     1
 78
     2
176
     1
 67
     7
176
     1
 79
     5
176
     1
170
     0
176
     1
171
     0
176
     1
290
     0
176
     1
 93
        1
176
     1
 44
0.0
176
     1
173
     0
176
     1
  0
VISUALSTYLE
  5
33
102
{ACAD_REACTORS
330
2A
102
}
330
2A
100
AcDbVisualStyle
  2
Realistic
 70
     8
177
     2
291
     0
 71
     2
176
     1
 72
     2
176
     1
 73
     0
176
     1
 90
        0
176
     1
 40
-0.6
176
     1
 41
-30.0
176
     1
 62
     5
 63
     7
421
 16777215
176
     1
 74
     1
176
     1
 91
        0
176
     1
 64
     7
176
     1
 65
   257
176
     1
 75
     1
176
     1
175
     1
176
     1
 42
1.0
176
     1
 92
        8
176
     1
 66
     8
424
  7895160
176
     1
 43
1.0
176
     1
 76
     1
176
     1
 77
     6
176
     1
 78
     2
176
     1
 67
     7
176
     1
 79
     5
176
     1
170
     0
176
     1
171
     0
176
     1
290
     0
176
     1
 93
       13
176
     1
 44
0.0
176
     1
173
     0
176
     1
  0
VISUALSTYLE
  5
37
102
{ACAD_REACTORS
330
2A
102
}
330
2A
100
AcDbVisualStyle
  2
Thicken
 70
    13
177
     2
291
     1
 71
     2
176
     1
 72
     2
176
     1
 73
     0
176
     1
 90
        0
176
     1
 40
-0.6
176
     1
 41
-30.0
176
     1
 62
     5
 63
     7
421
 16777215
176
     1
 74
     1
176
     1
 91
        4
176
     1
 64
     7
176
     1
 65
   257
176
     1
 75
     1
176
     1
175
     1
176
     1
 42
1.0
176
     1
 92
       12
176
     1
 66
     7
176
     1
 43
1.0
176
     1
 76
     1
176
     1
 77
     6
176
     1
 78
     2
176
     1
 67
     7
176
     1
 79
     5
176
     1
170
     0
176
     1
171
     0
176
     1
290
     0
176
     1
 93
        1
176
     1
 44
0.0
176
     1
173
     0
176
     1
  0
ENDSEC
  0
EOF
