  0
SECTION
  2
HEADER
  9
$ACADVER
  1
AC1024
  9
$ACADMAINTVER
 70
     6
  9
$DWGCODEPAGE
  3
UNDEFINED
  9
$INSBASE
 10
0.0
 20
0.0
 30
0.0
  9
$EXTMIN
 10
1.000000000000000E+20
 20
1.000000000000000E+20
 30
1.000000000000000E+20
  9
$EXTMAX
 10
-1.000000000000000E+20
 20
-1.000000000000000E+20
 30
-1.000000000000000E+20
  9
$LIMMIN
 10
0.0
 20
0.0
  9
$LIMMAX
 10
12.0
 20
9.0
  9
$ORTHOMODE
 70
     0
  9
$REGENMODE
 70
     1
  9
$FILLMODE
 70
     1
  9
$QTEXTMODE
 70
     0
  9
$MIRRTEXT
 70
     1
  9
$LTSCALE
 40
1.0
  9
$ATTMODE
 70
     1
  9
$TEXTSIZE
 40
0.2
  9
$TRACEWID
 40
0.05
  9
$TEXTSTYLE
  7
Standard
  9
$CLAYER
  8
0
  9
$CELTYPE
  6
ByLayer
  9
$CECOLOR
 62
   256
  9
$CELTSCALE
 40
1.0
  9
$DISPSILH
 70
     0
  9
$DIMSCALE
 40
1.0
  9
$DIMASZ
 40
0.18
  9
$DIMEXO
 40
0.0625
  9
$DIMDLI
 40
0.38
  9
$DIMRND
 40
0.0
  9
$DIMDLE
 40
0.0
  9
$DIMEXE
 40
0.18
  9
$DIMTP
 40
0.0
  9
$DIMTM
 40
0.0
  9
$DIMTXT
 40
0.18
  9
$DIMCEN
 40
0.09
  9
$DIMTSZ
 40
0.0
  9
$DIMTOL
 70
     0
  9
$DIMLIM
 70
     0
  9
$DIMTIH
 70
     1
  9
$DIMTOH
 70
     1
  9
$DIMSE1
 70
     0
  9
$DIMSE2
 70
     0
  9
$DIMTAD
 70
     0
  9
$DIMZIN
 70
     0
  9
$DIMBLK
  1

  9
$DIMASO
 70
     1
  9
$DIMSHO
 70
     1
  9
$DIMPOST
  1

  9
$DIMAPOST
  1

  9
$DIMALT
 70
     0
  9
$DIMALTD
 70
     2
  9
$DIMALTF
 40
25.4
  9
$DIMLFAC
 40
1.0
  9
$DIMTOFL
 70
     0
  9
$DIMTVP
 40
0.0
  9
$DIMTIX
 70
     0
  9
$DIMSOXD
 70
     0
  9
$DIMSAH
 70
     0
  9
$DIMBLK1
  1

  9
$DIMBLK2
  1

  9
$DIMSTYLE
  2
Standard
  9
$DIMCLRD
 70
     0
  9
$DIMCLRE
 70
     0
  9
$DIMCLRT
 70
     0
  9
$DIMTFAC
 40
1.0
  9
$DIMGAP
 40
0.09
  9
$DIMJUST
 70
     0
  9
$DIMSD1
 70
     0
  9
$DIMSD2
 70
     0
  9
$DIMTOLJ
 70
     1
  9
$DIMTZIN
 70
     0
  9
$DIMALTZ
 70
     0
  9
$DIMALTTZ
 70
     0
  9
$DIMUPT
 70
     0
  9
$DIMDEC
 70
     4
  9
$DIMTDEC
 70
     4
  9
$DIMALTU
 70
     2
  9
$DIMALTTD
 70
     2
  9
$DIMTXSTY
  7
Standard
  9
$DIMAUNIT
 70
     0
  9
$DIMADEC
 70
     0
  9
$DIMALTRND
 40
0.0
  9
$DIMAZIN
 70
     0
  9
$DIMDSEP
 70
    46
  9
$DIMATFIT
 70
     3
  9
$DIMFRAC
 70
     0
  9
$DIMLDRBLK
  1

  9
$DIMLUNIT
 70
     2
  9
$DIMLWD
 70
    -2
  9
$DIMLWE
 70
    -2
  9
$DIMTMOVE
 70
     0
  9
$DIMFXL
 40
1.0
  9
$DIMFXLON
 70
     0
  9
$DIMJOGANG
 40
0.7853981633974483
  9
$DIMTFILL
 70
     0
  9
$DIMTFILLCLR
 70
     0
  9
$DIMARCSYM
 70
     0
  9
$DIMLTYPE
  6

  9
$DIMLTEX1
  6

  9
$DIMLTEX2
  6

  9
$DIMTXTDIRECTION
 70
     0
  9
$LUNITS
 70
     2
  9
$LUPREC
 70
     4
  9
$SKETCHINC
 40
0.1
  9
$FILLETRAD
 40
0.5
  9
$AUNITS
 70
     0
  9
$AUPREC
 70
     0
  9
$MENU
  1
.
  9
$ELEVATION
 40
0.0
  9
$PELEVATION
 40
0.0
  9
$THICKNESS
 40
0.0
  9
$LIMCHECK
 70
     0
  9
$CHAMFERA
 40
0.5
  9
$CHAMFERB
 40
0.5
  9
$CHAMFERC
 40
1.0
  9
$CHAMFERD
 40
0.0
  9
$SKPOLY
 70
     0
  9
$TDCREATE
 40
2457917.59974537
  9
$TDUCREATE
 40
2457917.22474537
  9
$TDUPDATE
 40
2457917.59974537
  9
$TDUUPDATE
 40
2457917.22474537
  9
$TDINDWG
 40
0.0000000116
  9
$TDUSRTIMER
 40
0.0000000116
  9
$USRTIMER
 70
     1
  9
$ANGBASE
 50
0.0
  9
$ANGDIR
 70
     0
  9
$PDMODE
 70
     0
  9
$PDSIZE
 40
0.0
  9
$PLINEWID
 40
0.0
  9
$SPLFRAME
 70
     0
  9
$SPLINETYPE
 70
     6
  9
$SPLINESEGS
 70
     8
  9
$HANDSEED
  5
15A
  9
$SURFTAB1
 70
     6
  9
$SURFTAB2
 70
     6
  9
$SURFTYPE
 70
     6
  9
$SURFU
 70
     6
  9
$SURFV
 70
     6
  9
$UCSBASE
  2

  9
$UCSNAME
  2

  9
$UCSORG
 10
0.0
 20
0.0
 30
0.0
  9
$UCSXDIR
 10
1.0
 20
0.0
 30
0.0
  9
$UCSYDIR
 10
0.0
 20
1.0
 30
0.0
  9
$UCSORTHOREF
  2

  9
$UCSORTHOVIEW
 70
     0
  9
$UCSORGTOP
 10
0.0
 20
0.0
 30
0.0
  9
$UCSORGBOTTOM
 10
0.0
 20
0.0
 30
0.0
  9
$UCSORGLEFT
 10
0.0
 20
0.0
 30
0.0
  9
$UCSORGRIGHT
 10
0.0
 20
0.0
 30
0.0
  9
$UCSORGFRONT
 10
0.0
 20
0.0
 30
0.0
  9
$UCSORGBACK
 10
0.0
 20
0.0
 30
0.0
  9
$PUCSBASE
  2

  9
$PUCSNAME
  2

  9
$PUCSORG
 10
0.0
 20
0.0
 30
0.0
  9
$PUCSXDIR
 10
1.0
 20
0.0
 30
0.0
  9
$PUCSYDIR
 10
0.0
 20
1.0
 30
0.0
  9
$PUCSORTHOREF
  2

  9
$PUCSORTHOVIEW
 70
     0
  9
$PUCSORGTOP
 10
0.0
 20
0.0
 30
0.0
  9
$PUCSORGBOTTOM
 10
0.0
 20
0.0
 30
0.0
  9
$PUCSORGLEFT
 10
0.0
 20
0.0
 30
0.0
  9
$PUCSORGRIGHT
 10
0.0
 20
0.0
 30
0.0
  9
$PUCSORGFRONT
 10
0.0
 20
0.0
 30
0.0
  9
$PUCSORGBACK
 10
0.0
 20
0.0
 30
0.0
  9
$USERI1
 70
     0
  9
$USERI2
 70
     0
  9
$USERI3
 70
     0
  9
$USERI4
 70
     0
  9
$USERI5
 70
     0
  9
$USERR1
 40
0.0
  9
$USERR2
 40
0.0
  9
$USERR3
 40
0.0
  9
$USERR4
 40
0.0
  9
$USERR5
 40
0.0
  9
$WORLDVIEW
 70
     1
  9
$SHADEDGE
 70
     3
  9
$SHADEDIF
 70
    70
  9
$TILEMODE
 70
     1
  9
$MAXACTVP
 70
    64
  9
$PINSBASE
 10
0.0
 20
0.0
 30
0.0
  9
$PLIMCHECK
 70
     0
  9
$PEXTMIN
 10
1.000000000000000E+20
 20
1.000000000000000E+20
 30
1.000000000000000E+20
  9
$PEXTMAX
 10
-1.000000000000000E+20
 20
-1.000000000000000E+20
 30
-1.000000000000000E+20
  9
$PLIMMIN
 10
0.0
 20
0.0
  9
$PLIMMAX
 10
12.0
 20
9.0
  9
$UNITMODE
 70
     0
  9
$VISRETAIN
 70
     1
  9
$PLINEGEN
 70
     0
  9
$PSLTSCALE
 70
     1
  9
$TREEDEPTH
 70
  3020
  9
$CMLSTYLE
  2
Standard
  9
$CMLJUST
 70
     0
  9
$CMLSCALE
 40
1.0
  9
$PROXYGRAPHICS
 70
     1
  9
$MEASUREMENT
 70
     0
  9
$CELWEIGHT
370
    -1
  9
$ENDCAPS
280
     0
  9
$JOINSTYLE
280
     0
  9
$LWDISPLAY
290
     1
  9
$INSUNITS
 70
     1
  9
$HYPERLINKBASE
  1

  9
$STYLESHEET
  1

  9
$XEDIT
290
     1
  9
$CEPSNTYPE
380
     0
  9
$PSTYLEMODE
290
     1
  9
$FINGERPRINTGUID
  2
{AE616078-51C8-25BB-35C1-58D51EA27E03}
  9
$VERSIONGUID
  2
{FAEB1C32-E019-11D5-929B-00C0DF256EC4}
  9
$EXTNAMES
290
     1
  9
$PSVPSCALE
 40
0.0
  9
$OLESTARTUP
290
     0
  9
$SORTENTS
280
   127
  9
$INDEXCTL
280
     0
  9
$HIDETEXT
280
     1
  9
$XCLIPFRAME
280
     2
  9
$HALOGAP
280
     0
  9
$OBSCOLOR
 70
   257
  9
$OBSLTYPE
280
     0
  9
$INTERSECTIONDISPLAY
280
     0
  9
$INTERSECTIONCOLOR
 70
   257
  9
$DIMASSOC
280
     2
  9
$PROJECTNAME
  1

  9
$CAMERADISPLAY
290
     0
  9
$LENSLENGTH
 40
50.0
  9
$CAMERAHEIGHT
 40
0.0
  9
$STEPSPERSEC
 40
2.0
  9
$STEPSIZE
 40
6.0
  9
$3DDWFPREC
 40
2.0
  9
$PSOLWIDTH
 40
0.25
  9
$PSOLHEIGHT
 40
4.0
  9
$LOFTANG1
 40
1.570796326794897
  9
$LOFTANG2
 40
1.570796326794897
  9
$LOFTMAG1
 40
0.0
  9
$LOFTMAG2
 40
0.0
  9
$LOFTPARAM
 70
     7
  9
$LOFTNORMALS
280
     1
  9
$LATITUDE
 40
37.795
  9
$LONGITUDE
 40
-122.394
  9
$NORTHDIRECTION
 40
0.0
  9
$TIMEZONE
 70
 -8000
  9
$LIGHTGLYPHDISPLAY
280
     1
  9
$TILEMODELIGHTSYNCH
280
     1
  9
$CMATERIAL
347
3C
  9
$SOLIDHIST
280
     1
  9
$SHOWHIST
280
     1
  9
$DWFFRAME
280
     2
  9
$DGNFRAME
280
     2
  9
$REALWORLDSCALE
290
     1
  9
$INTERFERECOLOR
 62
   256
  9
$CSHADOW
280
     0
  9
$SHADOWPLANELOCATION
 40
0.0
  0
ENDSEC
  0
SECTION
  2
CLASSES
  0
CLASS
  1
ACDBDICTIONARYWDFLT
  2
AcDbDictionaryWithDefault
  3
ObjectDBX Classes
 90
        0
 91
        4
280
     0
281
     0
  0
CLASS
  1
VISUALSTYLE
  2
AcDbVisualStyle
  3
ObjectDBX Classes
 90
     4095
 91
        4
280
     0
281
     0
  0
CLASS
  1
MATERIAL
  2
AcDbMaterial
  3
ObjectDBX Classes
 90
     1153
 91
        4
280
     0
281
     0
  0
CLASS
  1
SUN
  2
AcDbSun
  3
SCENEOE
 90
     1024
 91
        4
280
     0
281
     0
  0
ENDSEC
  0
SECTION
  2
TABLES
  0
TABLE
  2
VPORT
  5
8
330
0
100
AcDbSymbolTable
 70
     1
  0
VPORT
  5
29
330
8
100
AcDbSymbolTableRecord
100
AcDbViewportTableRecord
  2
*Active
 70
     0
 10
0.0
 20
0.0
 11
1.0
 21
1.0
 12
0.0
 22
0.0
 13
0.0
 23
0.0
 14
0.5
 24
0.5
 15
0.5
 25
0.5
 16
0.0
 26
0.0
 36
1.0
 17
91.00082462281999
 27
-128.4993055234307
 37
0.0
 40
256.9986110468615
 41
0.7081814508812795
 42
50.0
 43
0.0
 44
0.0
 50
0.0
 51
0.0
 71
     0
 72
   100
 73
     1
 74
     3
 75
     0
 76
     0
 77
     0
 78
     0
281
     0
 65
     1
110
0.0
120
0.0
130
0.0
111
1.0
121
0.0
131
0.0
112
0.0
122
1.0
132
0.0
 79
     0
146
0.0
 60
     3
 61
     5
292
     1
282
     1
141
0.0
142
0.0
 63
   250
361
3F
  0
ENDTAB
  0
TABLE
  2
LTYPE
  5
5
330
0
100
AcDbSymbolTable
 70
     2
  0
LTYPE
  5
14
330
5
100
AcDbSymbolTableRecord
100
AcDbLinetypeTableRecord
  2
ByBlock
 70
     0
  3

 72
    65
 73
     0
 40
0.0
  0
LTYPE
  5
15
330
5
100
AcDbSymbolTableRecord
100
AcDbLinetypeTableRecord
  2
ByLayer
 70
     0
  3

 72
    65
 73
     0
 40
0.0
  0
LTYPE
  5
16
330
5
100
AcDbSymbolTableRecord
100
AcDbLinetypeTableRecord
  2
Continuous
 70
     0
  3
Solid line
 72
    65
 73
     0
 40
0.0
  0
LTYPE
  5
47
330
5
100
AcDbSymbolTableRecord
100
AcDbLinetypeTableRecord
  2
AI-Linetype-1
 70
     0
  3
Adobe Illustrator Linetype No. 1
 72
    65
 73
     2
 40
1.411111110758333
 49
0.7055555553791667
 74
     0
 49
-0.7055555553791667
 74
     0
  0
ENDTAB
  0
TABLE
  2
LAYER
  5
2
330
0
100
AcDbSymbolTable
 70
     2
  0
LAYER
  5
10
330
2
100
AcDbSymbolTableRecord
100
AcDbLayerTableRecord
  2
0
 70
     0
 62
     7
  6
Continuous
370
    -3
390
F
347
3E
  0
LAYER
  5
40
330
2
100
AcDbSymbolTableRecord
100
AcDbLayerTableRecord
  2
_U+30EC_U+30A4_U+30E4_U+30FC 1
 70
     0
 62
     7
  6
Continuous
370
    -3
390
F
347
3E
  0
ENDTAB
  0
TABLE
  2
STYLE
  5
3
330
0
100
AcDbSymbolTable
 70
     1
  0
STYLE
  5
11
330
3
100
AcDbSymbolTableRecord
100
AcDbTextStyleTableRecord
  2
Standard
 70
     0
 40
0.0
 41
1.0
 50
0.0
 71
     0
 42
0.2
  3
txt
  4

  0
ENDTAB
  0
TABLE
  2
VIEW
  5
6
330
0
100
AcDbSymbolTable
 70
     0
  0
ENDTAB
  0
TABLE
  2
UCS
  5
7
330
0
100
AcDbSymbolTable
 70
     0
  0
ENDTAB
  0
TABLE
  2
APPID
  5
9
330
0
100
AcDbSymbolTable
 70
     1
  0
APPID
  5
12
330
9
100
AcDbSymbolTableRecord
100
AcDbRegAppTableRecord
  2
ACAD
 70
     0
  0
ENDTAB
  0
TABLE
  2
DIMSTYLE
  5
A
330
0
100
AcDbSymbolTable
 70
     1
100
AcDbDimStyleTable
  0
DIMSTYLE
105
27
330
A
100
AcDbSymbolTableRecord
100
AcDbDimStyleTableRecord
  2
Standard
 70
     0
178
     0
340
11
  0
ENDTAB
  0
TABLE
  2
BLOCK_RECORD
  5
1
330
0
100
AcDbSymbolTable
 70
     8
  0
BLOCK_RECORD
  5
1F
330
1
100
AcDbSymbolTableRecord
100
AcDbBlockTableRecord
  2
*Model_Space
340
22
 70
     0
280
     1
281
     0
  0
BLOCK_RECORD
  5
1B
330
1
100
AcDbSymbolTableRecord
100
AcDbBlockTableRecord
  2
*Paper_Space
340
1E
 70
     0
280
     1
281
     0
  0
BLOCK_RECORD
  5
23
330
1
100
AcDbSymbolTableRecord
100
AcDbBlockTableRecord
  2
*Paper_Space0
340
26
 70
     0
280
     1
281
     0
  0
BLOCK_RECORD
  5
4E
330
1
100
AcDbSymbolTableRecord
100
AcDbBlockTableRecord
  2
block 2
340
0
102
{BLKREFS
331
4F
102
}
 70
     0
280
     1
281
     0
  0
BLOCK_RECORD
  5
C5
330
1
100
AcDbSymbolTableRecord
100
AcDbBlockTableRecord
  2
block 3
340
0
102
{BLKREFS
331
C6
102
}
 70
     0
280
     1
281
     0
  0
BLOCK_RECORD
  5
D7
330
1
100
AcDbSymbolTableRecord
100
AcDbBlockTableRecord
  2
block 4
340
0
102
{BLKREFS
331
D8
102
}
 70
     0
280
     1
281
     0
  0
BLOCK_RECORD
  5
100
330
1
100
AcDbSymbolTableRecord
100
AcDbBlockTableRecord
  2
block 5
340
0
102
{BLKREFS
331
101
102
}
 70
     0
280
     1
281
     0
  0
BLOCK_RECORD
  5
113
330
1
100
AcDbSymbolTableRecord
100
AcDbBlockTableRecord
  2
block 6
340
0
102
{BLKREFS
331
114
102
}
 70
     0
280
     1
281
     0
  0
BLOCK_RECORD
  5
137
330
1
100
AcDbSymbolTableRecord
100
AcDbBlockTableRecord
  2
block 7
340
0
102
{BLKREFS
331
138
102
}
 70
     0
280
     1
281
     0
  0
BLOCK_RECORD
  5
151
330
1
100
AcDbSymbolTableRecord
100
AcDbBlockTableRecord
  2
block 8
340
0
102
{BLKREFS
331
152
102
}
 70
     0
280
     1
281
     0
  0
ENDTAB
  0
ENDSEC
  0
SECTION
  2
BLOCKS
  0
BLOCK
  5
20
330
1F
100
AcDbEntity
  8
0
100
AcDbBlockBegin
  2
*Model_Space
 70
     0
 10
0.0
 20
0.0
 30
0.0
  3
*Model_Space
  1

  0
ENDBLK
  5
21
330
1F
100
AcDbEntity
  8
0
100
AcDbBlockEnd
  0
BLOCK
  5
1C
330
1B
100
AcDbEntity
 67
     1
  8
0
100
AcDbBlockBegin
  2
*Paper_Space
 70
     0
 10
0.0
 20
0.0
 30
0.0
  3
*Paper_Space
  1

  0
ENDBLK
  5
1D
330
1B
100
AcDbEntity
 67
     1
  8
0
100
AcDbBlockEnd
  0
BLOCK
  5
24
330
23
100
AcDbEntity
  8
0
100
AcDbBlockBegin
  2
*Paper_Space0
 70
     0
 10
0.0
 20
0.0
 30
0.0
  3
*Paper_Space0
  1

  0
ENDBLK
  5
25
330
23
100
AcDbEntity
  8
0
100
AcDbBlockEnd
  0
BLOCK
  5
50
330
4E
100
AcDbEntity
  8
0
100
AcDbBlockBegin
  2
block 2
 70
     0
 10
0.0
 20
0.0
 30
0.0
  3
block 2
  1

  0
SPLINE
  5
52
330
4E
100
AcDbEntity
  8
_U+30EC_U+30A4_U+30E4_U+30FC 1
370
     0
100
AcDbSpline
210
0.0
220
0.0
230
1.0
 70
    11
 71
     3
 72
    17
 73
    13
 74
     0
 42
0.0000000001
 43
0.0000000001
 12
1.0
 22
0.0
 32
0.0
 13
1.0
 23
0.0
 33
0.0
 40
0.0
 40
0.0
 40
0.0
 40
0.0
 40
1.0
 40
1.0
 40
1.0
 40
2.0
 40
2.0
 40
2.0
 40
3.0
 40
3.0
 40
3.0
 40
4.0
 40
4.0
 40
4.0
 40
4.0
 10
92.23037378336602
 20
-116.1600070239114
 30
0.0
 10
92.12460935196886
 20
-116.0542425925142
 30
0.0
 10
92.043994117614
 20
-116.0163465421765
 30
0.0
 10
91.95097653951225
 20
-115.9843071541636
 30
0.0
 10
91.95097653951225
 20
-115.9843071541636
 30
0.0
 10
92.06087508549173
 20
-115.8192870804202
 30
0.0
 10
92.06087508549173
 20
-115.8192870804202
 30
0.0
 10
92.15837128772431
 20
-115.8616617548888
 30
0.0
 10
92.27894962970804
 20
-115.9402099319525
 30
0.0
 10
92.33165959063237
 20
-115.9949869501679
 30
0.0
 10
92.33165959063237
 20
-115.9949869501679
 30
0.0
 10
92.23037378336602
 20
-116.1600070239114
 30
0.0
 10
92.23037378336602
 20
-116.1600070239114
 30
0.0
  0
SPLINE
  5
53
330
4E
100
AcDbEntity
  8
_U+30EC_U+30A4_U+30E4_U+30FC 1
370
     0
100
AcDbSpline
210
0.0
220
0.0
230
1.0
 70
    11
 71
     3
 72
   182
 73
   178
 74
     0
 42
0.0000000001
 43
0.0000000001
 12
1.0
 22
0.0
 32
0.0
 13
1.0
 23
0.0
 33
0.0
 40
0.0
 40
0.0
 40
0.0
 40
0.0
 40
1.0
 40
1.0
 40
1.0
 40
2.0
 40
2.0
 40
2.0
 40
3.0
 40
3.0
 40
3.0
 40
4.0
 40
4.0
 40
4.0
 40
5.0
 40
5.0
 40
5.0
 40
6.0
 40
6.0
 40
6.0
 40
7.0
 40
7.0
 40
7.0
 40
8.0
 40
8.0
 40
8.0
 40
9.0
 40
9.0
 40
9.0
 40
10.0
 40
10.0
 40
10.0
 40
11.0
 40
11.0
 40
11.0
 40
12.0
 40
12.0
 40
12.0
 40
13.0
 40
13.0
 40
13.0
 40
14.0
 40
14.0
 40
14.0
 40
15.0
 40
15.0
 40
15.0
 40
16.0
 40
16.0
 40
16.0
 40
17.0
 40
17.0
 40
17.0
 40
18.0
 40
18.0
 40
18.0
 40
19.0
 40
19.0
 40
19.0
 40
20.0
 40
20.0
 40
20.0
 40
21.0
 40
21.0
 40
21.0
 40
22.0
 40
22.0
 40
22.0
 40
23.0
 40
23.0
 40
23.0
 40
24.0
 40
24.0
 40
24.0
 40
25.0
 40
25.0
 40
25.0
 40
26.0
 40
26.0
 40
26.0
 40
27.0
 40
27.0
 40
27.0
 40
28.0
 40
28.0
 40
28.0
 40
29.0
 40
29.0
 40
29.0
 40
30.0
 40
30.0
 40
30.0
 40
31.0
 40
31.0
 40
31.0
 40
32.0
 40
32.0
 40
32.0
 40
33.0
 40
33.0
 40
33.0
 40
34.0
 40
34.0
 40
34.0
 40
35.0
 40
35.0
 40
35.0
 40
36.0
 40
36.0
 40
36.0
 40
37.0
 40
37.0
 40
37.0
 40
38.0
 40
38.0
 40
38.0
 40
39.0
 40
39.0
 40
39.0
 40
40.0
 40
40.0
 40
40.0
 40
41.0
 40
41.0
 40
41.0
 40
42.0
 40
42.0
 40
42.0
 40
43.0
 40
43.0
 40
43.0
 40
44.0
 40
44.0
 40
44.0
 40
45.0
 40
45.0
 40
45.0
 40
46.0
 40
46.0
 40
46.0
 40
47.0
 40
47.0
 40
47.0
 40
48.0
 40
48.0
 40
48.0
 40
49.0
 40
49.0
 40
49.0
 40
50.0
 40
50.0
 40
50.0
 40
51.0
 40
51.0
 40
51.0
 40
52.0
 40
52.0
 40
52.0
 40
53.0
 40
53.0
 40
53.0
 40
54.0
 40
54.0
 40
54.0
 40
55.0
 40
55.0
 40
55.0
 40
56.0
 40
56.0
 40
56.0
 40
57.0
 40
57.0
 40
57.0
 40
58.0
 40
58.0
 40
58.0
 40
59.0
 40
59.0
 40
59.0
 40
59.0
 10
93.2752712440423
 20
-117.3382296798668
 30
0.0
 10
93.2752712440423
 20
-117.3382296798668
 30
0.0
 10
92.63861759836813
 20
-117.3382296798668
 30
0.0
 10
92.63861759836813
 20
-117.3382296798668
 30
0.0
 10
92.4246771687341
 20
-117.3382296798668
 30
0.0
 10
92.20901419135747
 20
-117.3427083039977
 30
0.0
 10
91.99541827127199
 20
-117.3554551572931
 30
0.0
 10
91.99541827127199
 20
-117.3554551572931
 30
0.0
 10
91.99541827127199
 20
-117.148060409081
 30
0.0
 10
91.99541827127199
 20
-117.148060409081
 30
0.0
 10
92.2176269300706
 20
-117.1608072623765
 30
0.0
 10
92.54112139613555
 20
-117.1649413769588
 30
0.0
 10
92.63861759836813
 20
-117.1649413769588
 30
0.0
 10
92.63861759836813
 20
-117.1649413769588
 30
0.0
 10
92.85841469032707
 20
-117.1649413769588
 30
0.0
 10
92.85841469032707
 20
-117.1649413769588
 30
0.0
 10
92.85841469032707
 20
-117.1649413769588
 30
0.0
 10
92.85841469032707
 20
-117.023347952515
 30
0.0
 10
92.85841469032707
 20
-117.023347952515
 30
0.0
 10
92.85841469032707
 20
-117.023347952515
 30
0.0
 10
92.69787324071443
 20
-117.023347952515
 30
0.0
 10
92.69787324071443
 20
-117.023347952515
 30
0.0
 10
92.53285316697095
 20
-117.023347952515
 30
0.0
 10
92.36783309322749
 20
-117.0274820670973
 30
0.0
 10
92.20281301948403
 20
-117.0422959776839
 30
0.0
 10
92.20281301948403
 20
-117.0422959776839
 30
0.0
 10
92.20281301948403
 20
-116.8328341721807
 30
0.0
 10
92.20281301948403
 20
-116.8328341721807
 30
0.0
 10
92.37403426510095
 20
-116.8476480827673
 30
0.0
 10
92.6217366304904
 20
-116.8517821973496
 30
0.0
 10
92.69787324071443
 20
-116.8517821973496
 30
0.0
 10
92.69787324071443
 20
-116.8517821973496
 30
0.0
 10
92.85841469032707
 20
-116.8517821973496
 30
0.0
 10
92.85841469032707
 20
-116.8517821973496
 30
0.0
 10
92.85428057574477
 20
-116.7797797017078
 30
0.0
 10
92.85428057574477
 20
-116.7735785298344
 30
0.0
 10
92.84807940387132
 20
-116.7205240593615
 30
0.0
 10
92.84807940387132
 20
-116.7205240593615
 30
0.0
 10
92.98760577102394
 20
-116.7353379699481
 30
0.0
 10
92.98760577102394
 20
-116.7353379699481
 30
0.0
 10
92.98760577102394
 20
-116.7353379699481
 30
0.0
 10
92.88804251150022
 20
-116.5641167243312
 30
0.0
 10
92.88804251150022
 20
-116.5641167243312
 30
0.0
 10
92.93455130055109
 20
-116.5703178962046
 30
0.0
 10
93.00862085348396
 20
-116.5789306349178
 30
0.0
 10
93.02550182136169
 20
-116.5789306349178
 30
0.0
 10
93.07648923454339
 20
-116.5789306349178
 30
0.0
 10
93.09337020242111
 20
-116.5579155524577
 30
0.0
 10
93.09337020242111
 20
-116.5007269674026
 30
0.0
 10
93.09337020242111
 20
-116.5007269674026
 30
0.0
 10
93.09337020242111
 20
-116.3632676575411
 30
0.0
 10
93.09337020242111
 20
-116.3632676575411
 30
0.0
 10
93.09337020242111
 20
-116.3632676575411
 30
0.0
 10
92.98760577102394
 20
-116.3632676575411
 30
0.0
 10
92.98760577102394
 20
-116.3632676575411
 30
0.0
 10
92.85428057574477
 20
-116.3632676575411
 30
0.0
 10
92.69787324071443
 20
-116.3632676575411
 30
0.0
 10
92.574883331891
 20
-116.375670001288
 30
0.0
 10
92.574883331891
 20
-116.375670001288
 30
0.0
 10
92.574883331891
 20
-116.1855007305022
 30
0.0
 10
92.574883331891
 20
-116.1855007305022
 30
0.0
 10
92.74231497247415
 20
-116.20238169838
 30
0.0
 10
92.97279186043737
 20
-116.2044487556711
 30
0.0
 10
92.98760577102394
 20
-116.2044487556711
 30
0.0
 10
92.98760577102394
 20
-116.2044487556711
 30
0.0
 10
93.09337020242111
 20
-116.2044487556711
 30
0.0
 10
93.09337020242111
 20
-116.2044487556711
 30
0.0
 10
93.09337020242111
 20
-116.2044487556711
 30
0.0
 10
93.09337020242111
 20
-116.0731906176831
 30
0.0
 10
93.09337020242111
 20
-116.0731906176831
 30
0.0
 10
93.09337020242111
 20
-116.0731906176831
 30
0.0
 10
93.05512964253484
 20
-116.0731906176831
 30
0.0
 10
93.05512964253484
 20
-116.0731906176831
 30
0.0
 10
93.0106879107751
 20
-116.0731906176831
 30
0.0
 10
92.88597545420906
 20
-116.0776692418139
 30
0.0
 10
92.79709199068962
 20
-116.0859374709785
 30
0.0
 10
92.79709199068962
 20
-116.0859374709785
 30
0.0
 10
92.79709199068962
 20
-116.0056667461722
 30
0.0
 10
92.79709199068962
 20
-116.0056667461722
 30
0.0
 10
92.74438202976529
 20
-116.0435627965099
 30
0.0
 10
92.71888832317445
 20
-116.0583767070965
 30
0.0
 10
92.67651364870588
 20
-116.0818033563962
 30
0.0
 10
92.67651364870588
 20
-116.0818033563962
 30
0.0
 10
92.48841143521123
 20
-115.9526122756994
 30
0.0
 10
92.48841143521123
 20
-115.9526122756994
 30
0.0
 10
92.5666151027264
 20
-115.9188503399439
 30
0.0
 10
92.72302243775675
 20
-115.8554605830153
 30
0.0
 10
92.87977428233562
 20
-115.7114555917319
 30
0.0
 10
92.96211206443309
 20
-115.6332519242167
 30
0.0
 10
93.04031573194825
 20
-115.5485025752795
 30
0.0
 10
93.09337020242111
 20
-115.4472167680132
 30
0.0
 10
93.09337020242111
 20
-115.4472167680132
 30
0.0
 10
93.30489906521545
 20
-115.5085394676506
 30
0.0
 10
93.30489906521545
 20
-115.5085394676506
 30
0.0
 10
93.32384709038432
 20
-115.5147406395241
 30
0.0
 10
93.33452688638859
 20
-115.5233533782372
 30
0.0
 10
93.33452688638859
 20
-115.5361002315326
 30
0.0
 10
93.33452688638859
 20
-115.5529811994104
 30
0.0
 10
93.32178003309318
 20
-115.5591823712838
 30
0.0
 10
93.29628632650233
 20
-115.5719292245793
 30
0.0
 10
93.37690156085716
 20
-115.6694254268118
 30
0.0
 10
93.53985457730948
 20
-115.7665771194959
 30
0.0
 10
93.57361651306493
 20
-115.7855251446647
 30
0.0
 10
93.72382267622183
 20
-115.8744086081842
 30
0.0
 10
93.83785533678359
 20
-115.9019693720662
 30
0.0
 10
93.91640351384729
 20
-115.9209173972351
 30
0.0
 10
93.91640351384729
 20
-115.9209173972351
 30
0.0
 10
93.7978922291547
 20
-116.0900715855608
 30
0.0
 10
93.7978922291547
 20
-116.0900715855608
 30
0.0
 10
93.71314288021755
 20
-116.0607882739362
 30
0.0
 10
93.66249997658439
 20
-116.0414957392188
 30
0.0
 10
93.54398869189178
 20
-115.976038924999
 30
0.0
 10
93.54398869189178
 20
-115.976038924999
 30
0.0
 10
93.54398869189178
 20
-116.0859374709785
 30
0.0
 10
93.54398869189178
 20
-116.0859374709785
 30
0.0
 10
93.46130640024579
 20
-116.0776692418139
 30
0.0
 10
93.33452688638859
 20
-116.0731906176831
 30
0.0
 10
93.28147241591574
 20
-116.0731906176831
 30
0.0
 10
93.28147241591574
 20
-116.0731906176831
 30
0.0
 10
93.28147241591574
 20
-116.2044487556711
 30
0.0
 10
93.28147241591574
 20
-116.2044487556711
 30
0.0
 10
93.28147241591574
 20
-116.2044487556711
 30
0.0
 10
93.40205075789949
 20
-116.2044487556711
 30
0.0
 10
93.40205075789949
 20
-116.2044487556711
 30
0.0
 10
93.40446232473917
 20
-116.2044487556711
 30
0.0
 10
93.63700626999353
 20
-116.20238169838
 30
0.0
 10
93.81477319703242
 20
-116.1855007305022
 30
0.0
 10
93.81477319703242
 20
-116.1855007305022
 30
0.0
 10
93.81477319703242
 20
-116.375670001288
 30
0.0
 10
93.81477319703242
 20
-116.375670001288
 30
0.0
 10
93.68558211633555
 20
-116.3632676575411
 30
0.0
 10
93.52917478130522
 20
-116.3632676575411
 30
0.0
 10
93.40205075789949
 20
-116.3632676575411
 30
0.0
 10
93.40205075789949
 20
-116.3632676575411
 30
0.0
 10
93.28147241591574
 20
-116.3632676575411
 30
0.0
 10
93.28147241591574
 20
-116.3632676575411
 30
0.0
 10
93.28147241591574
 20
-116.3632676575411
 30
0.0
 10
93.28147241591574
 20
-116.5896104309221
 30
0.0
 10
93.28147241591574
 20
-116.5896104309221
 30
0.0
 10
93.28147241591574
 20
-116.7081217156146
 30
0.0
 10
93.25632321887342
 20
-116.7439507086612
 30
0.0
 10
93.09543725971226
 20
-116.7587646192478
 30
0.0
 10
93.09957137429456
 20
-116.7777126444167
 30
0.0
 10
93.09337020242111
 20
-116.788392440421
 30
0.0
 10
93.05512964253484
 20
-116.8114745801721
 30
0.0
 10
93.05306258524368
 20
-116.8307671148895
 30
0.0
 10
93.05306258524368
 20
-116.836968286763
 30
0.0
 10
93.05099552795254
 20
-116.8517821973496
 30
0.0
 10
93.05099552795254
 20
-116.8517821973496
 30
0.0
 10
93.188454837814
 20
-116.8517821973496
 30
0.0
 10
93.188454837814
 20
-116.8517821973496
 30
0.0
 10
93.35347491155747
 20
-116.8517821973496
 30
0.0
 10
93.52056204259209
 20
-116.8476480827673
 30
0.0
 10
93.68764917362671
 20
-116.8328341721807
 30
0.0
 10
93.68764917362671
 20
-116.8328341721807
 30
0.0
 10
93.68764917362671
 20
-117.0402289203927
 30
0.0
 10
93.68764917362671
 20
-117.0402289203927
 30
0.0
 10
93.47198619625006
 20
-117.023347952515
 30
0.0
 10
93.2077473725314
 20
-117.023347952515
 30
0.0
 10
93.188454837814
 20
-117.023347952515
 30
0.0
 10
93.188454837814
 20
-117.023347952515
 30
0.0
 10
93.04892847066138
 20
-117.023347952515
 30
0.0
 10
93.04892847066138
 20
-117.023347952515
 30
0.0
 10
93.04892847066138
 20
-117.023347952515
 30
0.0
 10
93.04892847066138
 20
-117.1649413769588
 30
0.0
 10
93.04892847066138
 20
-117.1649413769588
 30
0.0
 10
93.04892847066138
 20
-117.1649413769588
 30
0.0
 10
93.2752712440423
 20
-117.1649413769588
 30
0.0
 10
93.2752712440423
 20
-117.1649413769588
 30
0.0
 10
93.49093422141894
 20
-117.1649413769588
 30
0.0
 10
93.70900876563525
 20
-117.1608072623765
 30
0.0
 10
93.92467174301188
 20
-117.148060409081
 30
0.0
 10
93.92467174301188
 20
-117.148060409081
 30
0.0
 10
93.92467174301188
 20
-117.3554551572931
 30
0.0
 10
93.92467174301188
 20
-117.3554551572931
 30
0.0
 10
93.64320744186698
 20
-117.3382296798668
 30
0.0
 10
93.298697893342
 20
-117.3382296798668
 30
0.0
 10
93.2752712440423
 20
-117.3382296798668
 30
0.0
  0
SPLINE
  5
54
330
4E
100
AcDbEntity
  8
_U+30EC_U+30A4_U+30E4_U+30FC 1
370
     0
100
AcDbSpline
210
0.0
220
0.0
230
1.0
 70
    11
 71
     3
 72
    23
 73
    19
 74
     0
 42
0.0000000001
 43
0.0000000001
 12
1.0
 22
0.0
 32
0.0
 13
1.0
 23
0.0
 33
0.0
 40
0.0
 40
0.0
 40
0.0
 40
0.0
 40
1.0
 40
1.0
 40
1.0
 40
2.0
 40
2.0
 40
2.0
 40
3.0
 40
3.0
 40
3.0
 40
4.0
 40
4.0
 40
4.0
 40
5.0
 40
5.0
 40
5.0
 40
6.0
 40
6.0
 40
6.0
 40
6.0
 10
92.15630423043315
 20
-116.7101887729058
 30
0.0
 10
92.15630423043315
 20
-116.7312038553658
 30
0.0
 10
92.15837128772431
 20
-116.7694444152521
 30
0.0
 10
92.13287758113346
 20
-116.7694444152521
 30
0.0
 10
92.12219778512917
 20
-116.7694444152521
 30
0.0
 10
92.11392955596457
 20
-116.7628987338301
 30
0.0
 10
92.1032497599603
 20
-116.7460177659524
 30
0.0
 10
92.1032497599603
 20
-116.7460177659524
 30
0.0
 10
91.99955238585429
 20
-116.5641167243312
 30
0.0
 10
91.99955238585429
 20
-116.5641167243312
 30
0.0
 10
92.21555987277945
 20
-116.4349256436343
 30
0.0
 10
92.41227482498721
 20
-116.1579399666202
 30
0.0
 10
92.45878361403808
 20
-116.0859374709785
 30
0.0
 10
92.45878361403808
 20
-116.0859374709785
 30
0.0
 10
92.53078610967981
 20
-116.2657714553086
 30
0.0
 10
92.53078610967981
 20
-116.2657714553086
 30
0.0
 10
92.39746091440064
 20
-116.4624864075163
 30
0.0
 10
92.2217610446529
 20
-116.6464545064287
 30
0.0
 10
92.15630423043315
 20
-116.7101887729058
 30
0.0
  0
SPLINE
  5
55
330
4E
100
AcDbEntity
  8
_U+30EC_U+30A4_U+30E4_U+30FC 1
370
     0
100
AcDbSpline
210
0.0
220
0.0
230
1.0
 70
    11
 71
     3
 72
    17
 73
    13
 74
     0
 42
0.0000000001
 43
0.0000000001
 12
1.0
 22
0.0
 32
0.0
 13
1.0
 23
0.0
 33
0.0
 40
0.0
 40
0.0
 40
0.0
 40
0.0
 40
1.0
 40
1.0
 40
1.0
 40
2.0
 40
2.0
 40
2.0
 40
3.0
 40
3.0
 40
3.0
 40
4.0
 40
4.0
 40
4.0
 40
4.0
 10
92.41020776769606
 20
-115.8151529658379
 30
0.0
 10
92.3485405585101
 20
-115.7390163556139
 30
0.0
 10
92.21969398736175
 20
-115.6628797453898
 30
0.0
 10
92.11599661325573
 20
-115.6332519242167
 30
0.0
 10
92.11599661325573
 20
-115.6332519242167
 30
0.0
 10
92.21108124864863
 20
-115.4682318504732
 30
0.0
 10
92.21108124864863
 20
-115.4682318504732
 30
0.0
 10
92.31271156546349
 20
-115.5044053530683
 30
0.0
 10
92.41847599686066
 20
-115.561249428575
 30
0.0
 10
92.50735946038012
 20
-115.6418646629298
 30
0.0
 10
92.50735946038012
 20
-115.6418646629298
 30
0.0
 10
92.41020776769606
 20
-115.8151529658379
 30
0.0
 10
92.41020776769606
 20
-115.8151529658379
 30
0.0
  0
SPLINE
  5
56
330
4E
100
AcDbEntity
  8
_U+30EC_U+30A4_U+30E4_U+30FC 1
370
     0
100
AcDbSpline
210
0.0
220
0.0
230
1.0
 70
    11
 71
     3
 72
    23
 73
    19
 74
     0
 42
0.0000000001
 43
0.0000000001
 12
1.0
 22
0.0
 32
0.0
 13
1.0
 23
0.0
 33
0.0
 40
0.0
 40
0.0
 40
0.0
 40
0.0
 40
1.0
 40
1.0
 40
1.0
 40
2.0
 40
2.0
 40
2.0
 40
3.0
 40
3.0
 40
3.0
 40
4.0
 40
4.0
 40
4.0
 40
5.0
 40
5.0
 40
5.0
 40
6.0
 40
6.0
 40
6.0
 40
6.0
 10
92.86289331445789
 20
-116.5196749925715
 30
0.0
 10
92.84153372244934
 20
-116.5431016418712
 30
0.0
 10
92.74438202976529
 20
-116.6550672451418
 30
0.0
 10
92.60451115306415
 20
-116.7353379699481
 30
0.0
 10
92.60451115306415
 20
-116.7353379699481
 30
0.0
 10
92.43742402202953
 20
-116.6147596279644
 30
0.0
 10
92.43742402202953
 20
-116.6147596279644
 30
0.0
 10
92.58763018518643
 20
-116.5386230177403
 30
0.0
 10
92.68719344471015
 20
-116.4435383823475
 30
0.0
 10
92.73576929105218
 20
-116.3904839118746
 30
0.0
 10
92.73576929105218
 20
-116.3904839118746
 30
0.0
 10
92.90940210350877
 20
-116.4731662035206
 30
0.0
 10
92.90940210350877
 20
-116.4731662035206
 30
0.0
 10
92.91767033267337
 20
-116.4773003181029
 30
0.0
 10
92.9262830713865
 20
-116.4838459995249
 30
0.0
 10
92.9262830713865
 20
-116.4941812859806
 30
0.0
 10
92.9262830713865
 20
-116.5196749925715
 30
0.0
 10
92.89010956879136
 20
-116.5196749925715
 30
0.0
 10
92.86289331445789
 20
-116.5196749925715
 30
0.0
  0
SPLINE
  5
57
330
4E
100
AcDbEntity
  8
_U+30EC_U+30A4_U+30E4_U+30FC 1
370
     0
100
AcDbSpline
210
0.0
220
0.0
230
1.0
 70
    11
 71
     3
 72
    20
 73
    16
 74
     0
 42
0.0000000001
 43
0.0000000001
 12
1.0
 22
0.0
 32
0.0
 13
1.0
 23
0.0
 33
0.0
 40
0.0
 40
0.0
 40
0.0
 40
0.0
 40
1.0
 40
1.0
 40
1.0
 40
2.0
 40
2.0
 40
2.0
 40
3.0
 40
3.0
 40
3.0
 40
4.0
 40
4.0
 40
4.0
 40
5.0
 40
5.0
 40
5.0
 40
5.0
 10
93.160894073932
 20
-115.6776936559764
 30
0.0
 10
93.12299802359425
 20
-115.7262695023184
 30
0.0
 10
93.0616753239568
 20
-115.8048176793821
 30
0.0
 10
92.9221489568042
 20
-115.9147162253616
 30
0.0
 10
93.0024196816105
 20
-115.9188503399439
 30
0.0
 10
93.03204750278366
 20
-115.9188503399439
 30
0.0
 10
93.05512964253484
 20
-115.9188503399439
 30
0.0
 10
93.05512964253484
 20
-115.9188503399439
 30
0.0
 10
93.28388398275543
 20
-115.9188503399439
 30
0.0
 10
93.28388398275543
 20
-115.9188503399439
 30
0.0
 10
93.31557886121972
 20
-115.9188503399439
 30
0.0
 10
93.36415470756174
 20
-115.9167832826528
 30
0.0
 10
93.43822426049462
 20
-115.9147162253616
 30
0.0
 10
93.32591414767548
 20
-115.8406466724287
 30
0.0
 10
93.27733830133344
 20
-115.7941378833779
 30
0.0
 10
93.160894073932
 20
-115.6776936559764
 30
0.0
  0
SPLINE
  5
58
330
4E
100
AcDbEntity
  8
_U+30EC_U+30A4_U+30E4_U+30FC 1
370
     0
100
AcDbSpline
210
0.0
220
0.0
230
1.0
 70
    11
 71
     3
 72
    17
 73
    13
 74
     0
 42
0.0000000001
 43
0.0000000001
 12
1.0
 22
0.0
 32
0.0
 13
1.0
 23
0.0
 33
0.0
 40
0.0
 40
0.0
 40
0.0
 40
0.0
 40
1.0
 40
1.0
 40
1.0
 40
2.0
 40
2.0
 40
2.0
 40
3.0
 40
3.0
 40
3.0
 40
4.0
 40
4.0
 40
4.0
 40
4.0
 10
93.72175561893067
 20
-116.733270912657
 30
0.0
 10
93.58636336636036
 20
-116.6213053093863
 30
0.0
 10
93.48059893496318
 20
-116.5579155524577
 30
0.0
 10
93.3620876502706
 20
-116.4941812859806
 30
0.0
 10
93.3620876502706
 20
-116.4941812859806
 30
0.0
 10
93.48886716412778
 20
-116.38221568271
 30
0.0
 10
93.48886716412778
 20
-116.38221568271
 30
0.0
 10
93.62012530211581
 20
-116.4287244717609
 30
0.0
 10
93.73002384809527
 20
-116.485913056816
 30
0.0
 10
93.85508081420984
 20
-116.5875433736309
 30
0.0
 10
93.85508081420984
 20
-116.5875433736309
 30
0.0
 10
93.72175561893067
 20
-116.733270912657
 30
0.0
 10
93.72175561893067
 20
-116.733270912657
 30
0.0
  0
HATCH
  5
59
330
4E
100
AcDbEntity
  8
_U+30EC_U+30A4_U+30E4_U+30FC 1
 62
   179
420
  2234388
100
AcDbHatch
 10
0.0
 20
0.0
 30
0.0
210
0.0
220
0.0
230
1.0
  2
SOLID
 70
     1
 71
     0
 91
        7
 92
        1
 93
        1
 72
     4
 94
        3
 73
     0
 74
     1
 95
       17
 96
       13
 40
0.0
 40
0.0
 40
0.0
 40
0.0
 40
1.0
 40
1.0
 40
1.0
 40
2.0
 40
2.0
 40
2.0
 40
3.0
 40
3.0
 40
3.0
 40
4.0
 40
4.0
 40
4.0
 40
4.0
 10
92.23037378336602
 20
-116.1600070239114
 10
92.12460935196886
 20
-116.0542425925142
 10
92.043994117614
 20
-116.0163465421765
 10
91.95097653951225
 20
-115.9843071541636
 10
91.95097653951225
 20
-115.9843071541636
 10
92.06087508549173
 20
-115.8192870804202
 10
92.06087508549173
 20
-115.8192870804202
 10
92.15837128772431
 20
-115.8616617548888
 10
92.27894962970804
 20
-115.9402099319525
 10
92.33165959063237
 20
-115.9949869501679
 10
92.33165959063237
 20
-115.9949869501679
 10
92.23037378336602
 20
-116.1600070239114
 10
92.23037378336602
 20
-116.1600070239114
 97
        0
 97
        0
 92
        1
 93
        1
 72
     4
 94
        3
 73
     0
 74
     1
 95
      182
 96
      178
 40
0.0
 40
0.0
 40
0.0
 40
0.0
 40
1.0
 40
1.0
 40
1.0
 40
2.0
 40
2.0
 40
2.0
 40
3.0
 40
3.0
 40
3.0
 40
4.0
 40
4.0
 40
4.0
 40
5.0
 40
5.0
 40
5.0
 40
6.0
 40
6.0
 40
6.0
 40
7.0
 40
7.0
 40
7.0
 40
8.0
 40
8.0
 40
8.0
 40
9.0
 40
9.0
 40
9.0
 40
10.0
 40
10.0
 40
10.0
 40
11.0
 40
11.0
 40
11.0
 40
12.0
 40
12.0
 40
12.0
 40
13.0
 40
13.0
 40
13.0
 40
14.0
 40
14.0
 40
14.0
 40
15.0
 40
15.0
 40
15.0
 40
16.0
 40
16.0
 40
16.0
 40
17.0
 40
17.0
 40
17.0
 40
18.0
 40
18.0
 40
18.0
 40
19.0
 40
19.0
 40
19.0
 40
20.0
 40
20.0
 40
20.0
 40
21.0
 40
21.0
 40
21.0
 40
22.0
 40
22.0
 40
22.0
 40
23.0
 40
23.0
 40
23.0
 40
24.0
 40
24.0
 40
24.0
 40
25.0
 40
25.0
 40
25.0
 40
26.0
 40
26.0
 40
26.0
 40
27.0
 40
27.0
 40
27.0
 40
28.0
 40
28.0
 40
28.0
 40
29.0
 40
29.0
 40
29.0
 40
30.0
 40
30.0
 40
30.0
 40
31.0
 40
31.0
 40
31.0
 40
32.0
 40
32.0
 40
32.0
 40
33.0
 40
33.0
 40
33.0
 40
34.0
 40
34.0
 40
34.0
 40
35.0
 40
35.0
 40
35.0
 40
36.0
 40
36.0
 40
36.0
 40
37.0
 40
37.0
 40
37.0
 40
38.0
 40
38.0
 40
38.0
 40
39.0
 40
39.0
 40
39.0
 40
40.0
 40
40.0
 40
40.0
 40
41.0
 40
41.0
 40
41.0
 40
42.0
 40
42.0
 40
42.0
 40
43.0
 40
43.0
 40
43.0
 40
44.0
 40
44.0
 40
44.0
 40
45.0
 40
45.0
 40
45.0
 40
46.0
 40
46.0
 40
46.0
 40
47.0
 40
47.0
 40
47.0
 40
48.0
 40
48.0
 40
48.0
 40
49.0
 40
49.0
 40
49.0
 40
50.0
 40
50.0
 40
50.0
 40
51.0
 40
51.0
 40
51.0
 40
52.0
 40
52.0
 40
52.0
 40
53.0
 40
53.0
 40
53.0
 40
54.0
 40
54.0
 40
54.0
 40
55.0
 40
55.0
 40
55.0
 40
56.0
 40
56.0
 40
56.0
 40
57.0
 40
57.0
 40
57.0
 40
58.0
 40
58.0
 40
58.0
 40
59.0
 40
59.0
 40
59.0
 40
59.0
 10
93.2752712440423
 20
-117.3382296798668
 10
93.2752712440423
 20
-117.3382296798668
 10
92.63861759836813
 20
-117.3382296798668
 10
92.63861759836813
 20
-117.3382296798668
 10
92.4246771687341
 20
-117.3382296798668
 10
92.20901419135747
 20
-117.3427083039977
 10
91.99541827127199
 20
-117.3554551572931
 10
91.99541827127199
 20
-117.3554551572931
 10
91.99541827127199
 20
-117.148060409081
 10
91.99541827127199
 20
-117.148060409081
 10
92.2176269300706
 20
-117.1608072623765
 10
92.54112139613555
 20
-117.1649413769588
 10
92.63861759836813
 20
-117.1649413769588
 10
92.63861759836813
 20
-117.1649413769588
 10
92.85841469032707
 20
-117.1649413769588
 10
92.85841469032707
 20
-117.1649413769588
 10
92.85841469032707
 20
-117.1649413769588
 10
92.85841469032707
 20
-117.023347952515
 10
92.85841469032707
 20
-117.023347952515
 10
92.85841469032707
 20
-117.023347952515
 10
92.69787324071443
 20
-117.023347952515
 10
92.69787324071443
 20
-117.023347952515
 10
92.53285316697095
 20
-117.023347952515
 10
92.36783309322749
 20
-117.0274820670973
 10
92.20281301948403
 20
-117.0422959776839
 10
92.20281301948403
 20
-117.0422959776839
 10
92.20281301948403
 20
-116.8328341721807
 10
92.20281301948403
 20
-116.8328341721807
 10
92.37403426510095
 20
-116.8476480827673
 10
92.6217366304904
 20
-116.8517821973496
 10
92.69787324071443
 20
-116.8517821973496
 10
92.69787324071443
 20
-116.8517821973496
 10
92.85841469032707
 20
-116.8517821973496
 10
92.85841469032707
 20
-116.8517821973496
 10
92.85428057574477
 20
-116.7797797017078
 10
92.85428057574477
 20
-116.7735785298344
 10
92.84807940387132
 20
-116.7205240593615
 10
92.84807940387132
 20
-116.7205240593615
 10
92.98760577102394
 20
-116.7353379699481
 10
92.98760577102394
 20
-116.7353379699481
 10
92.98760577102394
 20
-116.7353379699481
 10
92.88804251150022
 20
-116.5641167243312
 10
92.88804251150022
 20
-116.5641167243312
 10
92.93455130055109
 20
-116.5703178962046
 10
93.00862085348396
 20
-116.5789306349178
 10
93.02550182136169
 20
-116.5789306349178
 10
93.07648923454339
 20
-116.5789306349178
 10
93.09337020242111
 20
-116.5579155524577
 10
93.09337020242111
 20
-116.5007269674026
 10
93.09337020242111
 20
-116.5007269674026
 10
93.09337020242111
 20
-116.3632676575411
 10
93.09337020242111
 20
-116.3632676575411
 10
93.09337020242111
 20
-116.3632676575411
 10
92.98760577102394
 20
-116.3632676575411
 10
92.98760577102394
 20
-116.3632676575411
 10
92.85428057574477
 20
-116.3632676575411
 10
92.69787324071443
 20
-116.3632676575411
 10
92.574883331891
 20
-116.375670001288
 10
92.574883331891
 20
-116.375670001288
 10
92.574883331891
 20
-116.1855007305022
 10
92.574883331891
 20
-116.1855007305022
 10
92.74231497247415
 20
-116.20238169838
 10
92.97279186043737
 20
-116.2044487556711
 10
92.98760577102394
 20
-116.2044487556711
 10
92.98760577102394
 20
-116.2044487556711
 10
93.09337020242111
 20
-116.2044487556711
 10
93.09337020242111
 20
-116.2044487556711
 10
93.09337020242111
 20
-116.2044487556711
 10
93.09337020242111
 20
-116.0731906176831
 10
93.09337020242111
 20
-116.0731906176831
 10
93.09337020242111
 20
-116.0731906176831
 10
93.05512964253484
 20
-116.0731906176831
 10
93.05512964253484
 20
-116.0731906176831
 10
93.0106879107751
 20
-116.0731906176831
 10
92.88597545420906
 20
-116.0776692418139
 10
92.79709199068962
 20
-116.0859374709785
 10
92.79709199068962
 20
-116.0859374709785
 10
92.79709199068962
 20
-116.0056667461722
 10
92.79709199068962
 20
-116.0056667461722
 10
92.74438202976529
 20
-116.0435627965099
 10
92.71888832317445
 20
-116.0583767070965
 10
92.67651364870588
 20
-116.0818033563962
 10
92.67651364870588
 20
-116.0818033563962
 10
92.48841143521123
 20
-115.9526122756994
 10
92.48841143521123
 20
-115.9526122756994
 10
92.5666151027264
 20
-115.9188503399439
 10
92.72302243775675
 20
-115.8554605830153
 10
92.87977428233562
 20
-115.7114555917319
 10
92.96211206443309
 20
-115.6332519242167
 10
93.04031573194825
 20
-115.5485025752795
 10
93.09337020242111
 20
-115.4472167680132
 10
93.09337020242111
 20
-115.4472167680132
 10
93.30489906521545
 20
-115.5085394676506
 10
93.30489906521545
 20
-115.5085394676506
 10
93.32384709038432
 20
-115.5147406395241
 10
93.33452688638859
 20
-115.5233533782372
 10
93.33452688638859
 20
-115.5361002315326
 10
93.33452688638859
 20
-115.5529811994104
 10
93.32178003309318
 20
-115.5591823712838
 10
93.29628632650233
 20
-115.5719292245793
 10
93.37690156085716
 20
-115.6694254268118
 10
93.53985457730948
 20
-115.7665771194959
 10
93.57361651306493
 20
-115.7855251446647
 10
93.72382267622183
 20
-115.8744086081842
 10
93.83785533678359
 20
-115.9019693720662
 10
93.91640351384729
 20
-115.9209173972351
 10
93.91640351384729
 20
-115.9209173972351
 10
93.7978922291547
 20
-116.0900715855608
 10
93.7978922291547
 20
-116.0900715855608
 10
93.71314288021755
 20
-116.0607882739362
 10
93.66249997658439
 20
-116.0414957392188
 10
93.54398869189178
 20
-115.976038924999
 10
93.54398869189178
 20
-115.976038924999
 10
93.54398869189178
 20
-116.0859374709785
 10
93.54398869189178
 20
-116.0859374709785
 10
93.46130640024579
 20
-116.0776692418139
 10
93.33452688638859
 20
-116.0731906176831
 10
93.28147241591574
 20
-116.0731906176831
 10
93.28147241591574
 20
-116.0731906176831
 10
93.28147241591574
 20
-116.2044487556711
 10
93.28147241591574
 20
-116.2044487556711
 10
93.28147241591574
 20
-116.2044487556711
 10
93.40205075789949
 20
-116.2044487556711
 10
93.40205075789949
 20
-116.2044487556711
 10
93.40446232473917
 20
-116.2044487556711
 10
93.63700626999353
 20
-116.20238169838
 10
93.81477319703242
 20
-116.1855007305022
 10
93.81477319703242
 20
-116.1855007305022
 10
93.81477319703242
 20
-116.375670001288
 10
93.81477319703242
 20
-116.375670001288
 10
93.68558211633555
 20
-116.3632676575411
 10
93.52917478130522
 20
-116.3632676575411
 10
93.40205075789949
 20
-116.3632676575411
 10
93.40205075789949
 20
-116.3632676575411
 10
93.28147241591574
 20
-116.3632676575411
 10
93.28147241591574
 20
-116.3632676575411
 10
93.28147241591574
 20
-116.3632676575411
 10
93.28147241591574
 20
-116.5896104309221
 10
93.28147241591574
 20
-116.5896104309221
 10
93.28147241591574
 20
-116.7081217156146
 10
93.25632321887342
 20
-116.7439507086612
 10
93.09543725971226
 20
-116.7587646192478
 10
93.09957137429456
 20
-116.7777126444167
 10
93.09337020242111
 20
-116.788392440421
 10
93.05512964253484
 20
-116.8114745801721
 10
93.05306258524368
 20
-116.8307671148895
 10
93.05306258524368
 20
-116.836968286763
 10
93.05099552795254
 20
-116.8517821973496
 10
93.05099552795254
 20
-116.8517821973496
 10
93.188454837814
 20
-116.8517821973496
 10
93.188454837814
 20
-116.8517821973496
 10
93.35347491155747
 20
-116.8517821973496
 10
93.52056204259209
 20
-116.8476480827673
 10
93.68764917362671
 20
-116.8328341721807
 10
93.68764917362671
 20
-116.8328341721807
 10
93.68764917362671
 20
-117.0402289203927
 10
93.68764917362671
 20
-117.0402289203927
 10
93.47198619625006
 20
-117.023347952515
 10
93.2077473725314
 20
-117.023347952515
 10
93.188454837814
 20
-117.023347952515
 10
93.188454837814
 20
-117.023347952515
 10
93.04892847066138
 20
-117.023347952515
 10
93.04892847066138
 20
-117.023347952515
 10
93.04892847066138
 20
-117.023347952515
 10
93.04892847066138
 20
-117.1649413769588
 10
93.04892847066138
 20
-117.1649413769588
 10
93.04892847066138
 20
-117.1649413769588
 10
93.2752712440423
 20
-117.1649413769588
 10
93.2752712440423
 20
-117.1649413769588
 10
93.49093422141894
 20
-117.1649413769588
 10
93.70900876563525
 20
-117.1608072623765
 10
93.92467174301188
 20
-117.148060409081
 10
93.92467174301188
 20
-117.148060409081
 10
93.92467174301188
 20
-117.3554551572931
 10
93.92467174301188
 20
-117.3554551572931
 10
93.64320744186698
 20
-117.3382296798668
 10
93.298697893342
 20
-117.3382296798668
 10
93.2752712440423
 20
-117.3382296798668
 97
        0
 97
        0
 92
        1
 93
        1
 72
     4
 94
        3
 73
     0
 74
     1
 95
       23
 96
       19
 40
0.0
 40
0.0
 40
0.0
 40
0.0
 40
1.0
 40
1.0
 40
1.0
 40
2.0
 40
2.0
 40
2.0
 40
3.0
 40
3.0
 40
3.0
 40
4.0
 40
4.0
 40
4.0
 40
5.0
 40
5.0
 40
5.0
 40
6.0
 40
6.0
 40
6.0
 40
6.0
 10
92.15630423043315
 20
-116.7101887729058
 10
92.15630423043315
 20
-116.7312038553658
 10
92.15837128772431
 20
-116.7694444152521
 10
92.13287758113346
 20
-116.7694444152521
 10
92.12219778512917
 20
-116.7694444152521
 10
92.11392955596457
 20
-116.7628987338301
 10
92.1032497599603
 20
-116.7460177659524
 10
92.1032497599603
 20
-116.7460177659524
 10
91.99955238585429
 20
-116.5641167243312
 10
91.99955238585429
 20
-116.5641167243312
 10
92.21555987277945
 20
-116.4349256436343
 10
92.41227482498721
 20
-116.1579399666202
 10
92.45878361403808
 20
-116.0859374709785
 10
92.45878361403808
 20
-116.0859374709785
 10
92.53078610967981
 20
-116.2657714553086
 10
92.53078610967981
 20
-116.2657714553086
 10
92.39746091440064
 20
-116.4624864075163
 10
92.2217610446529
 20
-116.6464545064287
 10
92.15630423043315
 20
-116.7101887729058
 97
        0
 97
        0
 92
        1
 93
        1
 72
     4
 94
        3
 73
     0
 74
     1
 95
       17
 96
       13
 40
0.0
 40
0.0
 40
0.0
 40
0.0
 40
1.0
 40
1.0
 40
1.0
 40
2.0
 40
2.0
 40
2.0
 40
3.0
 40
3.0
 40
3.0
 40
4.0
 40
4.0
 40
4.0
 40
4.0
 10
92.41020776769606
 20
-115.8151529658379
 10
92.3485405585101
 20
-115.7390163556139
 10
92.21969398736175
 20
-115.6628797453898
 10
92.11599661325573
 20
-115.6332519242167
 10
92.11599661325573
 20
-115.6332519242167
 10
92.21108124864863
 20
-115.4682318504732
 10
92.21108124864863
 20
-115.4682318504732
 10
92.31271156546349
 20
-115.5044053530683
 10
92.41847599686066
 20
-115.561249428575
 10
92.50735946038012
 20
-115.6418646629298
 10
92.50735946038012
 20
-115.6418646629298
 10
92.41020776769606
 20
-115.8151529658379
 10
92.41020776769606
 20
-115.8151529658379
 97
        0
 97
        0
 92
        1
 93
        1
 72
     4
 94
        3
 73
     0
 74
     1
 95
       23
 96
       19
 40
0.0
 40
0.0
 40
0.0
 40
0.0
 40
1.0
 40
1.0
 40
1.0
 40
2.0
 40
2.0
 40
2.0
 40
3.0
 40
3.0
 40
3.0
 40
4.0
 40
4.0
 40
4.0
 40
5.0
 40
5.0
 40
5.0
 40
6.0
 40
6.0
 40
6.0
 40
6.0
 10
92.86289331445789
 20
-116.5196749925715
 10
92.84153372244934
 20
-116.5431016418712
 10
92.74438202976529
 20
-116.6550672451418
 10
92.60451115306415
 20
-116.7353379699481
 10
92.60451115306415
 20
-116.7353379699481
 10
92.43742402202953
 20
-116.6147596279644
 10
92.43742402202953
 20
-116.6147596279644
 10
92.58763018518643
 20
-116.5386230177403
 10
92.68719344471015
 20
-116.4435383823475
 10
92.73576929105218
 20
-116.3904839118746
 10
92.73576929105218
 20
-116.3904839118746
 10
92.90940210350877
 20
-116.4731662035206
 10
92.90940210350877
 20
-116.4731662035206
 10
92.91767033267337
 20
-116.4773003181029
 10
92.9262830713865
 20
-116.4838459995249
 10
92.9262830713865
 20
-116.4941812859806
 10
92.9262830713865
 20
-116.5196749925715
 10
92.89010956879136
 20
-116.5196749925715
 10
92.86289331445789
 20
-116.5196749925715
 97
        0
 97
        0
 92
        1
 93
        1
 72
     4
 94
        3
 73
     0
 74
     1
 95
       20
 96
       16
 40
0.0
 40
0.0
 40
0.0
 40
0.0
 40
1.0
 40
1.0
 40
1.0
 40
2.0
 40
2.0
 40
2.0
 40
3.0
 40
3.0
 40
3.0
 40
4.0
 40
4.0
 40
4.0
 40
5.0
 40
5.0
 40
5.0
 40
5.0
 10
93.160894073932
 20
-115.6776936559764
 10
93.12299802359425
 20
-115.7262695023184
 10
93.0616753239568
 20
-115.8048176793821
 10
92.9221489568042
 20
-115.9147162253616
 10
93.0024196816105
 20
-115.9188503399439
 10
93.03204750278366
 20
-115.9188503399439
 10
93.05512964253484
 20
-115.9188503399439
 10
93.05512964253484
 20
-115.9188503399439
 10
93.28388398275543
 20
-115.9188503399439
 10
93.28388398275543
 20
-115.9188503399439
 10
93.31557886121972
 20
-115.9188503399439
 10
93.36415470756174
 20
-115.9167832826528
 10
93.43822426049462
 20
-115.9147162253616
 10
93.32591414767548
 20
-115.8406466724287
 10
93.27733830133344
 20
-115.7941378833779
 10
93.160894073932
 20
-115.6776936559764
 97
        0
 97
        0
 92
        1
 93
        1
 72
     4
 94
        3
 73
     0
 74
     1
 95
       17
 96
       13
 40
0.0
 40
0.0
 40
0.0
 40
0.0
 40
1.0
 40
1.0
 40
1.0
 40
2.0
 40
2.0
 40
2.0
 40
3.0
 40
3.0
 40
3.0
 40
4.0
 40
4.0
 40
4.0
 40
4.0
 10
93.72175561893067
 20
-116.733270912657
 10
93.58636336636036
 20
-116.6213053093863
 10
93.48059893496318
 20
-116.5579155524577
 10
93.3620876502706
 20
-116.4941812859806
 10
93.3620876502706
 20
-116.4941812859806
 10
93.48886716412778
 20
-116.38221568271
 10
93.48886716412778
 20
-116.38221568271
 10
93.62012530211581
 20
-116.4287244717609
 10
93.73002384809527
 20
-116.485913056816
 10
93.85508081420984
 20
-116.5875433736309
 10
93.85508081420984
 20
-116.5875433736309
 10
93.72175561893067
 20
-116.733270912657
 10
93.72175561893067
 20
-116.733270912657
 97
        0
 97
        0
 75
     2
 76
     1
 98
        0
  0
SPLINE
  5
5A
330
4E
100
AcDbEntity
  8
_U+30EC_U+30A4_U+30E4_U+30FC 1
370
     0
100
AcDbSpline
210
0.0
220
0.0
230
1.0
 70
    11
 71
     3
 72
   113
 73
   109
 74
     0
 42
0.0000000001
 43
0.0000000001
 12
1.0
 22
0.0
 32
0.0
 13
1.0
 23
0.0
 33
0.0
 40
0.0
 40
0.0
 40
0.0
 40
0.0
 40
1.0
 40
1.0
 40
1.0
 40
2.0
 40
2.0
 40
2.0
 40
3.0
 40
3.0
 40
3.0
 40
4.0
 40
4.0
 40
4.0
 40
5.0
 40
5.0
 40
5.0
 40
6.0
 40
6.0
 40
6.0
 40
7.0
 40
7.0
 40
7.0
 40
8.0
 40
8.0
 40
8.0
 40
9.0
 40
9.0
 40
9.0
 40
10.0
 40
10.0
 40
10.0
 40
11.0
 40
11.0
 40
11.0
 40
12.0
 40
12.0
 40
12.0
 40
13.0
 40
13.0
 40
13.0
 40
14.0
 40
14.0
 40
14.0
 40
15.0
 40
15.0
 40
15.0
 40
16.0
 40
16.0
 40
16.0
 40
17.0
 40
17.0
 40
17.0
 40
18.0
 40
18.0
 40
18.0
 40
19.0
 40
19.0
 40
19.0
 40
20.0
 40
20.0
 40
20.0
 40
21.0
 40
21.0
 40
21.0
 40
22.0
 40
22.0
 40
22.0
 40
23.0
 40
23.0
 40
23.0
 40
24.0
 40
24.0
 40
24.0
 40
25.0
 40
25.0
 40
25.0
 40
26.0
 40
26.0
 40
26.0
 40
27.0
 40
27.0
 40
27.0
 40
28.0
 40
28.0
 40
28.0
 40
29.0
 40
29.0
 40
29.0
 40
30.0
 40
30.0
 40
30.0
 40
31.0
 40
31.0
 40
31.0
 40
32.0
 40
32.0
 40
32.0
 40
33.0
 40
33.0
 40
33.0
 40
34.0
 40
34.0
 40
34.0
 40
35.0
 40
35.0
 40
35.0
 40
36.0
 40
36.0
 40
36.0
 40
36.0
 10
95.60139971568299
 20
-116.7101887729058
 30
0.0
 10
95.60139971568299
 20
-116.7101887729058
 30
0.0
 10
95.7009629752067
 20
-116.809407522881
 30
0.0
 10
95.7009629752067
 20
-116.809407522881
 30
0.0
 10
95.71129826166246
 20
-116.8200873188853
 30
0.0
 10
95.72197805766673
 20
-116.8328341721807
 30
0.0
 10
95.72197805766673
 20
-116.8476480827673
 30
0.0
 10
95.72197805766673
 20
-116.8497151400584
 30
0.0
 10
95.72197805766673
 20
-116.8793429612316
 30
0.0
 10
95.68373749778046
 20
-116.8793429612316
 30
0.0
 10
95.67546926861586
 20
-116.8793429612316
 30
0.0
 10
95.63516165143844
 20
-116.8752088466493
 30
0.0
 10
95.62896047956498
 20
-116.8752088466493
 30
0.0
 10
95.58865286238756
 20
-116.9069037251136
 30
0.0
 10
95.54214407333669
 20
-116.940665660869
 30
0.0
 10
95.44258081381297
 20
-116.9978542459242
 30
0.0
 10
95.58865286238756
 20
-117.1056857346125
 30
0.0
 10
95.74747176425758
 20
-117.1628743196676
 30
0.0
 10
96.02032332668936
 20
-117.2007703700054
 30
0.0
 10
96.02032332668936
 20
-117.2007703700054
 30
0.0
 10
95.87011716353247
 20
-117.3764702397531
 30
0.0
 10
95.87011716353247
 20
-117.3764702397531
 30
0.0
 10
95.60760088755644
 20
-117.3044677441114
 30
0.0
 10
95.45119355252609
 20
-117.2155842805919
 30
0.0
 10
95.37505694230207
 20
-117.1628743196676
 30
0.0
 10
95.22485077914519
 20
-117.0612440028527
 30
0.0
 10
95.08084578786173
 20
-116.8982909864004
 30
0.0
 10
95.00470917763772
 20
-116.733270912657
 30
0.0
 10
94.93718530612682
 20
-116.7990722364252
 30
0.0
 10
94.86311575319395
 20
-116.8517821973496
 30
0.0
 10
94.78491208567877
 20
-116.9003580436916
 30
0.0
 10
94.78491208567877
 20
-116.9003580436916
 30
0.0
 10
94.78491208567877
 20
-117.1521945236633
 30
0.0
 10
94.78491208567877
 20
-117.1521945236633
 30
0.0
 10
94.94752059258256
 20
-117.1267008170725
 30
0.0
 10
95.13390025833459
 20
-117.0822590853128
 30
0.0
 10
95.19729001526318
 20
-117.0674451747262
 30
0.0
 10
95.19729001526318
 20
-117.0674451747262
 30
0.0
 10
95.16766219409003
 20
-117.2369438726005
 30
0.0
 10
95.16766219409003
 20
-117.2369438726005
 30
0.0
 10
95.16559513679888
 20
-117.2369438726005
 30
0.0
 10
95.14664711163
 20
-117.2431450444739
 30
0.0
 10
95.14458005433886
 20
-117.2431450444739
 30
0.0
 10
94.94545353529142
 20
-117.2813856043602
 30
0.0
 10
94.6281602410999
 20
-117.34684241858
 30
0.0
 10
94.43144528889215
 20
-117.3826714116266
 30
0.0
 10
94.42076549288787
 20
-117.3998968890528
 30
0.0
 10
94.3976833531367
 20
-117.4315917675171
 30
0.0
 10
94.37425670383699
 20
-117.4315917675171
 30
0.0
 10
94.34704044950352
 20
-117.4315917675171
 30
0.0
 10
94.3425618253727
 20
-117.4122992327997
 30
0.0
 10
94.34049476808154
 20
-117.3933512076308
 30
0.0
 10
94.34049476808154
 20
-117.3933512076308
 30
0.0
 10
94.3150010614907
 20
-117.2200629047228
 30
0.0
 10
94.3150010614907
 20
-117.2200629047228
 30
0.0
 10
94.38907061442357
 20
-117.2114501660096
 30
0.0
 10
94.49724661266042
 20
-117.1987033127142
 30
0.0
 10
94.60507810134874
 20
-117.1776882302542
 30
0.0
 10
94.60507810134874
 20
-117.1776882302542
 30
0.0
 10
94.60507810134874
 20
-116.9999213032153
 30
0.0
 10
94.60507810134874
 20
-116.9999213032153
 30
0.0
 10
94.46107311006529
 20
-117.071923798857
 30
0.0
 10
94.36598847467239
 20
-117.1015516200302
 30
0.0
 10
94.20096840092893
 20
-117.1311794412033
 30
0.0
 10
94.20096840092893
 20
-117.1311794412033
 30
0.0
 10
94.08039005894518
 20
-116.961680743329
 30
0.0
 10
94.08039005894518
 20
-116.961680743329
 30
0.0
 10
94.3976833531367
 20
-116.9344644889956
 30
0.0
 10
94.59026419076216
 20
-116.8411024013453
 30
0.0
 10
94.76803111780106
 20
-116.7081217156146
 30
0.0
 10
94.62195906922646
 20
-116.7081217156146
 30
0.0
 10
94.32154674291267
 20
-116.7122558301969
 30
0.0
 10
94.1248317907049
 20
-116.7184570020704
 30
0.0
 10
94.1248317907049
 20
-116.7184570020704
 30
0.0
 10
94.1248317907049
 20
-116.5406900750315
 30
0.0
 10
94.1248317907049
 20
-116.5406900750315
 30
0.0
 10
94.2791720684441
 20
-116.5472357564535
 30
0.0
 10
94.57545028017559
 20
-116.5534369283269
 30
0.0
 10
94.75941837908793
 20
-116.5534369283269
 30
0.0
 10
94.75941837908793
 20
-116.5534369283269
 30
0.0
 10
94.97094724188227
 20
-116.5534369283269
 30
0.0
 10
94.97094724188227
 20
-116.5534369283269
 30
0.0
 10
94.97094724188227
 20
-116.458352292934
 30
0.0
 10
94.96888018459111
 20
-116.4077093893009
 30
0.0
 10
94.96233450316915
 20
-116.3608560907015
 30
0.0
 10
94.96233450316915
 20
-116.3608560907015
 30
0.0
 10
95.17834199009431
 20
-116.3780815681277
 30
0.0
 10
95.17834199009431
 20
-116.3780815681277
 30
0.0
 10
95.22691783643633
 20
-116.38221568271
 30
0.0
 10
95.23553057514945
 20
-116.3970295932966
 30
0.0
 10
95.23553057514945
 20
-116.4118435038832
 30
0.0
 10
95.23553057514945
 20
-116.437337210474
 30
0.0
 10
95.2183050977232
 20
-116.4456054396386
 30
0.0
 10
95.16766219409003
 20
-116.4710991462294
 30
0.0
 10
95.16559513679888
 20
-116.4965928528203
 30
0.0
 10
95.16559513679888
 20
-116.5027940246938
 30
0.0
 10
95.16352807950773
 20
-116.5534369283269
 30
0.0
 10
95.16352807950773
 20
-116.5534369283269
 30
0.0
 10
95.39400496747095
 20
-116.5534369283269
 30
0.0
 10
95.39400496747095
 20
-116.5534369283269
 30
0.0
 10
95.55902504121441
 20
-116.5534369283269
 30
0.0
 10
95.8511691383636
 20
-116.5472357564535
 30
0.0
 10
96.03065861314512
 20
-116.5406900750315
 30
0.0
 10
96.03065861314512
 20
-116.5406900750315
 30
0.0
 10
96.03065861314512
 20
-116.7184570020704
 30
0.0
 10
96.03065861314512
 20
-116.7184570020704
 30
0.0
 10
95.90181204199678
 20
-116.7143228874881
 30
0.0
 10
95.87838539269707
 20
-116.7143228874881
 30
0.0
 10
95.60139971568299
 20
-116.7101887729058
 30
0.0
  0
SPLINE
  5
5B
330
4E
100
AcDbEntity
  8
_U+30EC_U+30A4_U+30E4_U+30FC 1
370
     0
100
AcDbSpline
210
0.0
220
0.0
230
1.0
 70
    11
 71
     3
 72
    23
 73
    19
 74
     0
 42
0.0000000001
 43
0.0000000001
 12
1.0
 22
0.0
 32
0.0
 13
1.0
 23
0.0
 33
0.0
 40
0.0
 40
0.0
 40
0.0
 40
0.0
 40
1.0
 40
1.0
 40
1.0
 40
2.0
 40
2.0
 40
2.0
 40
3.0
 40
3.0
 40
3.0
 40
4.0
 40
4.0
 40
4.0
 40
5.0
 40
5.0
 40
5.0
 40
6.0
 40
6.0
 40
6.0
 40
6.0
 10
94.31741262833037
 20
-116.3587890334103
 30
0.0
 10
94.30018715090412
 20
-116.3990966505877
 30
0.0
 10
94.29398597903068
 20
-116.4159776184655
 30
0.0
 10
94.27297089657065
 20
-116.4159776184655
 30
0.0
 10
94.25815698598407
 20
-116.4159776184655
 30
0.0
 10
94.2474771899798
 20
-116.3990966505877
 30
0.0
 10
94.24127601810635
 20
-116.3863497972923
 30
0.0
 10
94.24127601810635
 20
-116.3863497972923
 30
0.0
 10
94.14171275858263
 20
-116.2213297235488
 30
0.0
 10
94.14171275858263
 20
-116.2213297235488
 30
0.0
 10
94.2433430753975
 20
-116.1896348450845
 30
0.0
 10
94.3935492385544
 20
-116.1345133173205
 30
0.0
 10
94.59233124805331
 20
-115.9719048104167
 30
0.0
 10
94.59233124805331
 20
-115.9719048104167
 30
0.0
 10
94.64951983310846
 20
-116.1451931133248
 30
0.0
 10
94.64951983310846
 20
-116.1451931133248
 30
0.0
 10
94.5561577454582
 20
-116.2278754049708
 30
0.0
 10
94.46761879148727
 20
-116.2847194804774
 30
0.0
 10
94.31741262833037
 20
-116.3587890334103
 30
0.0
  0
SPLINE
  5
5C
330
4E
100
AcDbEntity
  8
_U+30EC_U+30A4_U+30E4_U+30FC 1
370
     0
100
AcDbSpline
210
0.0
220
0.0
230
1.0
 70
    11
 71
     3
 72
    17
 73
    13
 74
     0
 42
0.0000000001
 43
0.0000000001
 12
1.0
 22
0.0
 32
0.0
 13
1.0
 23
0.0
 33
0.0
 40
0.0
 40
0.0
 40
0.0
 40
0.0
 40
1.0
 40
1.0
 40
1.0
 40
2.0
 40
2.0
 40
2.0
 40
3.0
 40
3.0
 40
3.0
 40
4.0
 40
4.0
 40
4.0
 40
4.0
 10
94.46968584877841
 20
-115.8933566333531
 30
0.0
 10
94.44005802760526
 20
-115.8533935257242
 30
0.0
 10
94.37218964654585
 20
-115.7558973234916
 30
0.0
 10
94.19028860492466
 20
-115.6459987775121
 30
0.0
 10
94.19028860492466
 20
-115.6459987775121
 30
0.0
 10
94.31741262833037
 20
-115.5126735822329
 30
0.0
 10
94.31741262833037
 20
-115.5126735822329
 30
0.0
 10
94.50344778453386
 20
-115.6143038990478
 30
0.0
 10
94.560636369589
 20
-115.7031873625673
 30
0.0
 10
94.58819713347101
 20
-115.7455620370358
 30
0.0
 10
94.58819713347101
 20
-115.7455620370358
 30
0.0
 10
94.46968584877841
 20
-115.8933566333531
 30
0.0
 10
94.46968584877841
 20
-115.8933566333531
 30
0.0
  0
SPLINE
  5
5D
330
4E
100
AcDbEntity
  8
_U+30EC_U+30A4_U+30E4_U+30FC 1
370
     0
100
AcDbSpline
210
0.0
220
0.0
230
1.0
 70
    11
 71
     3
 72
    38
 73
    34
 74
     0
 42
0.0000000001
 43
0.0000000001
 12
1.0
 22
0.0
 32
0.0
 13
1.0
 23
0.0
 33
0.0
 40
0.0
 40
0.0
 40
0.0
 40
0.0
 40
1.0
 40
1.0
 40
1.0
 40
2.0
 40
2.0
 40
2.0
 40
3.0
 40
3.0
 40
3.0
 40
4.0
 40
4.0
 40
4.0
 40
5.0
 40
5.0
 40
5.0
 40
6.0
 40
6.0
 40
6.0
 40
7.0
 40
7.0
 40
7.0
 40
8.0
 40
8.0
 40
8.0
 40
9.0
 40
9.0
 40
9.0
 40
10.0
 40
10.0
 40
10.0
 40
11.0
 40
11.0
 40
11.0
 40
11.0
 10
94.8376220466031
 20
-115.588810192457
 30
0.0
 10
94.83555498931194
 20
-115.6353189815078
 30
0.0
 10
94.8334879320208
 20
-115.7517632089093
 30
0.0
 10
94.8334879320208
 20
-115.796204940669
 30
0.0
 10
94.8334879320208
 20
-115.796204940669
 30
0.0
 10
94.8334879320208
 20
-116.1431260560337
 30
0.0
 10
94.8334879320208
 20
-116.1431260560337
 30
0.0
 10
94.8334879320208
 20
-116.229942462262
 30
0.0
 10
94.83555498931194
 20
-116.3715358867057
 30
0.0
 10
94.84623478531623
 20
-116.4921142286895
 30
0.0
 10
94.84623478531623
 20
-116.4921142286895
 30
0.0
 10
94.65572100498191
 20
-116.4921142286895
 30
0.0
 10
94.65572100498191
 20
-116.4921142286895
 30
0.0
 10
94.65985511956421
 20
-116.4287244717609
 30
0.0
 10
94.66433374369504
 20
-116.375670001288
 30
0.0
 10
94.66640080098618
 20
-116.3208929830726
 30
0.0
 10
94.66846785827734
 20
-116.1982475837977
 30
0.0
 10
94.67053491556848
 20
-116.1834336732111
 30
0.0
 10
94.67053491556848
 20
-116.1389919414514
 30
0.0
 10
94.67053491556848
 20
-116.1389919414514
 30
0.0
 10
94.67053491556848
 20
-115.817220023129
 30
0.0
 10
94.67053491556848
 20
-115.817220023129
 30
0.0
 10
94.67053491556848
 20
-115.7624430049136
 30
0.0
 10
94.65778806227306
 20
-115.5233533782372
 30
0.0
 10
94.65572100498191
 20
-115.4723659650555
 30
0.0
 10
94.65572100498191
 20
-115.4723659650555
 30
0.0
 10
94.85657007177197
 20
-115.4999267289375
 30
0.0
 10
94.85657007177197
 20
-115.4999267289375
 30
0.0
 10
94.87792966378052
 20
-115.5019937862287
 30
0.0
 10
94.90962454224481
 20
-115.5064724103595
 30
0.0
 10
94.90962454224481
 20
-115.5316216074018
 30
0.0
 10
94.90962454224481
 20
-115.5591823712838
 30
0.0
 10
94.85898163861165
 20
-115.5805419632924
 30
0.0
 10
94.8376220466031
 20
-115.588810192457
 30
0.0
  0
SPLINE
  5
5E
330
4E
100
AcDbEntity
  8
_U+30EC_U+30A4_U+30E4_U+30FC 1
370
     0
100
AcDbSpline
210
0.0
220
0.0
230
1.0
 70
    11
 71
     3
 72
    83
 73
    79
 74
     0
 42
0.0000000001
 43
0.0000000001
 12
1.0
 22
0.0
 32
0.0
 13
1.0
 23
0.0
 33
0.0
 40
0.0
 40
0.0
 40
0.0
 40
0.0
 40
1.0
 40
1.0
 40
1.0
 40
2.0
 40
2.0
 40
2.0
 40
3.0
 40
3.0
 40
3.0
 40
4.0
 40
4.0
 40
4.0
 40
5.0
 40
5.0
 40
5.0
 40
6.0
 40
6.0
 40
6.0
 40
7.0
 40
7.0
 40
7.0
 40
8.0
 40
8.0
 40
8.0
 40
9.0
 40
9.0
 40
9.0
 40
10.0
 40
10.0
 40
10.0
 40
11.0
 40
11.0
 40
11.0
 40
12.0
 40
12.0
 40
12.0
 40
13.0
 40
13.0
 40
13.0
 40
14.0
 40
14.0
 40
14.0
 40
15.0
 40
15.0
 40
15.0
 40
16.0
 40
16.0
 40
16.0
 40
17.0
 40
17.0
 40
17.0
 40
18.0
 40
18.0
 40
18.0
 40
19.0
 40
19.0
 40
19.0
 40
20.0
 40
20.0
 40
20.0
 40
21.0
 40
21.0
 40
21.0
 40
22.0
 40
22.0
 40
22.0
 40
23.0
 40
23.0
 40
23.0
 40
24.0
 40
24.0
 40
24.0
 40
25.0
 40
25.0
 40
25.0
 40
26.0
 40
26.0
 40
26.0
 40
26.0
 10
95.63929576602074
 20
-115.9105821107793
 30
0.0
 10
95.63929576602074
 20
-115.9105821107793
 30
0.0
 10
95.54214407333669
 20
-115.9105821107793
 30
0.0
 10
95.54214407333669
 20
-115.9105821107793
 30
0.0
 10
95.54214407333669
 20
-115.9105821107793
 30
0.0
 10
95.54214407333669
 20
-116.1579399666202
 30
0.0
 10
95.54214407333669
 20
-116.1579399666202
 30
0.0
 10
95.54214407333669
 20
-116.1579399666202
 30
0.0
 10
95.62448185543415
 20
-116.1579399666202
 30
0.0
 10
95.62448185543415
 20
-116.1579399666202
 30
0.0
 10
95.69028317920244
 20
-116.1579399666202
 30
0.0
 10
95.82980954635505
 20
-116.1538058520379
 30
0.0
 10
95.92937280587877
 20
-116.1451931133248
 30
0.0
 10
95.92937280587877
 20
-116.1451931133248
 30
0.0
 10
95.92937280587877
 20
-116.3250270976549
 30
0.0
 10
95.92937280587877
 20
-116.3250270976549
 30
0.0
 10
95.83635522777702
 20
-116.3167588684903
 30
0.0
 10
95.68614906462014
 20
-116.3122802443594
 30
0.0
 10
95.62448185543415
 20
-116.3122802443594
 30
0.0
 10
95.62448185543415
 20
-116.3122802443594
 30
0.0
 10
95.31993541453808
 20
-116.3122802443594
 30
0.0
 10
95.31993541453808
 20
-116.3122802443594
 30
0.0
 10
95.26722545361375
 20
-116.3122802443594
 30
0.0
 10
95.12115340503917
 20
-116.3167588684903
 30
0.0
 10
95.01538897364199
 20
-116.3250270976549
 30
0.0
 10
95.01538897364199
 20
-116.3250270976549
 30
0.0
 10
95.01538897364199
 20
-116.1451931133248
 30
0.0
 10
95.01538897364199
 20
-116.1451931133248
 30
0.0
 10
95.11495223316571
 20
-116.1538058520379
 30
0.0
 10
95.25447860031834
 20
-116.1579399666202
 30
0.0
 10
95.31993541453808
 20
-116.1579399666202
 30
0.0
 10
95.31993541453808
 20
-116.1579399666202
 30
0.0
 10
95.3643771462978
 20
-116.1579399666202
 30
0.0
 10
95.3643771462978
 20
-116.1579399666202
 30
0.0
 10
95.3643771462978
 20
-116.1579399666202
 30
0.0
 10
95.3643771462978
 20
-115.9105821107793
 30
0.0
 10
95.3643771462978
 20
-115.9105821107793
 30
0.0
 10
95.3643771462978
 20
-115.9105821107793
 30
0.0
 10
95.29030759336493
 20
-115.9105821107793
 30
0.0
 10
95.29030759336493
 20
-115.9105821107793
 30
0.0
 10
95.22898489372749
 20
-115.9105821107793
 30
0.0
 10
95.06189776269287
 20
-115.9147162253616
 30
0.0
 10
94.94131942070912
 20
-115.9229844545262
 30
0.0
 10
94.94131942070912
 20
-115.9229844545262
 30
0.0
 10
94.94131942070912
 20
-115.7455620370358
 30
0.0
 10
94.94131942070912
 20
-115.7455620370358
 30
0.0
 10
95.05569659081941
 20
-115.7517632089093
 30
0.0
 10
95.2141709831409
 20
-115.7558973234916
 30
0.0
 10
95.29030759336493
 20
-115.7558973234916
 30
0.0
 10
95.29030759336493
 20
-115.7558973234916
 30
0.0
 10
95.36231008900666
 20
-115.7558973234916
 30
0.0
 10
95.36231008900666
 20
-115.7558973234916
 30
0.0
 10
95.35817597442436
 20
-115.6036241030435
 30
0.0
 10
95.3561089171332
 20
-115.5698621672881
 30
0.0
 10
95.34956323571123
 20
-115.4768445891864
 30
0.0
 10
95.34956323571123
 20
-115.4768445891864
 30
0.0
 10
95.56109209850557
 20
-115.4999267289375
 30
0.0
 10
95.56109209850557
 20
-115.4999267289375
 30
0.0
 10
95.58658580509642
 20
-115.5019937862287
 30
0.0
 10
95.61001245439611
 20
-115.5064724103595
 30
0.0
 10
95.61001245439611
 20
-115.5295545501107
 30
0.0
 10
95.61001245439611
 20
-115.561249428575
 30
0.0
 10
95.5655707226364
 20
-115.5781303964527
 30
0.0
 10
95.54214407333669
 20
-115.5867431351658
 30
0.0
 10
95.54214407333669
 20
-115.5867431351658
 30
0.0
 10
95.54214407333669
 20
-115.7558973234916
 30
0.0
 10
95.54214407333669
 20
-115.7558973234916
 30
0.0
 10
95.54214407333669
 20
-115.7558973234916
 30
0.0
 10
95.63929576602074
 20
-115.7558973234916
 30
0.0
 10
95.63929576602074
 20
-115.7558973234916
 30
0.0
 10
95.71577688579329
 20
-115.7558973234916
 30
0.0
 10
95.87425127811477
 20
-115.7517632089093
 30
0.0
 10
95.99069550551621
 20
-115.7455620370358
 30
0.0
 10
95.99069550551621
 20
-115.7455620370358
 30
0.0
 10
95.99069550551621
 20
-115.9229844545262
 30
0.0
 10
95.99069550551621
 20
-115.9229844545262
 30
0.0
 10
95.8828640168279
 20
-115.9167832826528
 30
0.0
 10
95.7092312043713
 20
-115.9105821107793
 30
0.0
 10
95.63929576602074
 20
-115.9105821107793
 30
0.0
  0
SPLINE
  5
5F
330
4E
100
AcDbEntity
  8
_U+30EC_U+30A4_U+30E4_U+30FC 1
370
     0
100
AcDbSpline
210
0.0
220
0.0
230
1.0
 70
    11
 71
     3
 72
    17
 73
    13
 74
     0
 42
0.0000000001
 43
0.0000000001
 12
1.0
 22
0.0
 32
0.0
 13
1.0
 23
0.0
 33
0.0
 40
0.0
 40
0.0
 40
0.0
 40
0.0
 40
1.0
 40
1.0
 40
1.0
 40
2.0
 40
2.0
 40
2.0
 40
3.0
 40
3.0
 40
3.0
 40
4.0
 40
4.0
 40
4.0
 40
4.0
 10
95.39400496747095
 20
-116.7081217156146
 30
0.0
 10
95.39400496747095
 20
-116.7081217156146
 30
0.0
 10
95.19108884338974
 20
-116.7081217156146
 30
0.0
 10
95.19108884338974
 20
-116.7081217156146
 30
0.0
 10
95.2183050977232
 20
-116.7673773579609
 30
0.0
 10
95.2734266254872
 20
-116.8390353440541
 30
0.0
 10
95.3009873893692
 20
-116.8686631652273
 30
0.0
 10
95.3285481532512
 20
-116.8538492546407
 30
0.0
 10
95.44258081381297
 20
-116.7904594977121
 30
0.0
 10
95.53353133462356
 20
-116.7081217156146
 30
0.0
 10
95.53353133462356
 20
-116.7081217156146
 30
0.0
 10
95.39400496747095
 20
-116.7081217156146
 30
0.0
 10
95.39400496747095
 20
-116.7081217156146
 30
0.0
  0
HATCH
  5
60
330
4E
100
AcDbEntity
  8
_U+30EC_U+30A4_U+30E4_U+30FC 1
 62
   179
420
  2234388
100
AcDbHatch
 10
0.0
 20
0.0
 30
0.0
210
0.0
220
0.0
230
1.0
  2
SOLID
 70
     1
 71
     0
 91
        6
 92
        1
 93
        1
 72
     4
 94
        3
 73
     0
 74
     1
 95
      113
 96
      109
 40
0.0
 40
0.0
 40
0.0
 40
0.0
 40
1.0
 40
1.0
 40
1.0
 40
2.0
 40
2.0
 40
2.0
 40
3.0
 40
3.0
 40
3.0
 40
4.0
 40
4.0
 40
4.0
 40
5.0
 40
5.0
 40
5.0
 40
6.0
 40
6.0
 40
6.0
 40
7.0
 40
7.0
 40
7.0
 40
8.0
 40
8.0
 40
8.0
 40
9.0
 40
9.0
 40
9.0
 40
10.0
 40
10.0
 40
10.0
 40
11.0
 40
11.0
 40
11.0
 40
12.0
 40
12.0
 40
12.0
 40
13.0
 40
13.0
 40
13.0
 40
14.0
 40
14.0
 40
14.0
 40
15.0
 40
15.0
 40
15.0
 40
16.0
 40
16.0
 40
16.0
 40
17.0
 40
17.0
 40
17.0
 40
18.0
 40
18.0
 40
18.0
 40
19.0
 40
19.0
 40
19.0
 40
20.0
 40
20.0
 40
20.0
 40
21.0
 40
21.0
 40
21.0
 40
22.0
 40
22.0
 40
22.0
 40
23.0
 40
23.0
 40
23.0
 40
24.0
 40
24.0
 40
24.0
 40
25.0
 40
25.0
 40
25.0
 40
26.0
 40
26.0
 40
26.0
 40
27.0
 40
27.0
 40
27.0
 40
28.0
 40
28.0
 40
28.0
 40
29.0
 40
29.0
 40
29.0
 40
30.0
 40
30.0
 40
30.0
 40
31.0
 40
31.0
 40
31.0
 40
32.0
 40
32.0
 40
32.0
 40
33.0
 40
33.0
 40
33.0
 40
34.0
 40
34.0
 40
34.0
 40
35.0
 40
35.0
 40
35.0
 40
36.0
 40
36.0
 40
36.0
 40
36.0
 10
95.60139971568299
 20
-116.7101887729058
 10
95.60139971568299
 20
-116.7101887729058
 10
95.7009629752067
 20
-116.809407522881
 10
95.7009629752067
 20
-116.809407522881
 10
95.71129826166246
 20
-116.8200873188853
 10
95.72197805766673
 20
-116.8328341721807
 10
95.72197805766673
 20
-116.8476480827673
 10
95.72197805766673
 20
-116.8497151400584
 10
95.72197805766673
 20
-116.8793429612316
 10
95.68373749778046
 20
-116.8793429612316
 10
95.67546926861586
 20
-116.8793429612316
 10
95.63516165143844
 20
-116.8752088466493
 10
95.62896047956498
 20
-116.8752088466493
 10
95.58865286238756
 20
-116.9069037251136
 10
95.54214407333669
 20
-116.940665660869
 10
95.44258081381297
 20
-116.9978542459242
 10
95.58865286238756
 20
-117.1056857346125
 10
95.74747176425758
 20
-117.1628743196676
 10
96.02032332668936
 20
-117.2007703700054
 10
96.02032332668936
 20
-117.2007703700054
 10
95.87011716353247
 20
-117.3764702397531
 10
95.87011716353247
 20
-117.3764702397531
 10
95.60760088755644
 20
-117.3044677441114
 10
95.45119355252609
 20
-117.2155842805919
 10
95.37505694230207
 20
-117.1628743196676
 10
95.22485077914519
 20
-117.0612440028527
 10
95.08084578786173
 20
-116.8982909864004
 10
95.00470917763772
 20
-116.733270912657
 10
94.93718530612682
 20
-116.7990722364252
 10
94.86311575319395
 20
-116.8517821973496
 10
94.78491208567877
 20
-116.9003580436916
 10
94.78491208567877
 20
-116.9003580436916
 10
94.78491208567877
 20
-117.1521945236633
 10
94.78491208567877
 20
-117.1521945236633
 10
94.94752059258256
 20
-117.1267008170725
 10
95.13390025833459
 20
-117.0822590853128
 10
95.19729001526318
 20
-117.0674451747262
 10
95.19729001526318
 20
-117.0674451747262
 10
95.16766219409003
 20
-117.2369438726005
 10
95.16766219409003
 20
-117.2369438726005
 10
95.16559513679888
 20
-117.2369438726005
 10
95.14664711163
 20
-117.2431450444739
 10
95.14458005433886
 20
-117.2431450444739
 10
94.94545353529142
 20
-117.2813856043602
 10
94.6281602410999
 20
-117.34684241858
 10
94.43144528889215
 20
-117.3826714116266
 10
94.42076549288787
 20
-117.3998968890528
 10
94.3976833531367
 20
-117.4315917675171
 10
94.37425670383699
 20
-117.4315917675171
 10
94.34704044950352
 20
-117.4315917675171
 10
94.3425618253727
 20
-117.4122992327997
 10
94.34049476808154
 20
-117.3933512076308
 10
94.34049476808154
 20
-117.3933512076308
 10
94.3150010614907
 20
-117.2200629047228
 10
94.3150010614907
 20
-117.2200629047228
 10
94.38907061442357
 20
-117.2114501660096
 10
94.49724661266042
 20
-117.1987033127142
 10
94.60507810134874
 20
-117.1776882302542
 10
94.60507810134874
 20
-117.1776882302542
 10
94.60507810134874
 20
-116.9999213032153
 10
94.60507810134874
 20
-116.9999213032153
 10
94.46107311006529
 20
-117.071923798857
 10
94.36598847467239
 20
-117.1015516200302
 10
94.20096840092893
 20
-117.1311794412033
 10
94.20096840092893
 20
-117.1311794412033
 10
94.08039005894518
 20
-116.961680743329
 10
94.08039005894518
 20
-116.961680743329
 10
94.3976833531367
 20
-116.9344644889956
 10
94.59026419076216
 20
-116.8411024013453
 10
94.76803111780106
 20
-116.7081217156146
 10
94.62195906922646
 20
-116.7081217156146
 10
94.32154674291267
 20
-116.7122558301969
 10
94.1248317907049
 20
-116.7184570020704
 10
94.1248317907049
 20
-116.7184570020704
 10
94.1248317907049
 20
-116.5406900750315
 10
94.1248317907049
 20
-116.5406900750315
 10
94.2791720684441
 20
-116.5472357564535
 10
94.57545028017559
 20
-116.5534369283269
 10
94.75941837908793
 20
-116.5534369283269
 10
94.75941837908793
 20
-116.5534369283269
 10
94.97094724188227
 20
-116.5534369283269
 10
94.97094724188227
 20
-116.5534369283269
 10
94.97094724188227
 20
-116.458352292934
 10
94.96888018459111
 20
-116.4077093893009
 10
94.96233450316915
 20
-116.3608560907015
 10
94.96233450316915
 20
-116.3608560907015
 10
95.17834199009431
 20
-116.3780815681277
 10
95.17834199009431
 20
-116.3780815681277
 10
95.22691783643633
 20
-116.38221568271
 10
95.23553057514945
 20
-116.3970295932966
 10
95.23553057514945
 20
-116.4118435038832
 10
95.23553057514945
 20
-116.437337210474
 10
95.2183050977232
 20
-116.4456054396386
 10
95.16766219409003
 20
-116.4710991462294
 10
95.16559513679888
 20
-116.4965928528203
 10
95.16559513679888
 20
-116.5027940246938
 10
95.16352807950773
 20
-116.5534369283269
 10
95.16352807950773
 20
-116.5534369283269
 10
95.39400496747095
 20
-116.5534369283269
 10
95.39400496747095
 20
-116.5534369283269
 10
95.55902504121441
 20
-116.5534369283269
 10
95.8511691383636
 20
-116.5472357564535
 10
96.03065861314512
 20
-116.5406900750315
 10
96.03065861314512
 20
-116.5406900750315
 10
96.03065861314512
 20
-116.7184570020704
 10
96.03065861314512
 20
-116.7184570020704
 10
95.90181204199678
 20
-116.7143228874881
 10
95.87838539269707
 20
-116.7143228874881
 10
95.60139971568299
 20
-116.7101887729058
 97
        0
 97
        0
 92
        1
 93
        1
 72
     4
 94
        3
 73
     0
 74
     1
 95
       23
 96
       19
 40
0.0
 40
0.0
 40
0.0
 40
0.0
 40
1.0
 40
1.0
 40
1.0
 40
2.0
 40
2.0
 40
2.0
 40
3.0
 40
3.0
 40
3.0
 40
4.0
 40
4.0
 40
4.0
 40
5.0
 40
5.0
 40
5.0
 40
6.0
 40
6.0
 40
6.0
 40
6.0
 10
94.31741262833037
 20
-116.3587890334103
 10
94.30018715090412
 20
-116.3990966505877
 10
94.29398597903068
 20
-116.4159776184655
 10
94.27297089657065
 20
-116.4159776184655
 10
94.25815698598407
 20
-116.4159776184655
 10
94.2474771899798
 20
-116.3990966505877
 10
94.24127601810635
 20
-116.3863497972923
 10
94.24127601810635
 20
-116.3863497972923
 10
94.14171275858263
 20
-116.2213297235488
 10
94.14171275858263
 20
-116.2213297235488
 10
94.2433430753975
 20
-116.1896348450845
 10
94.3935492385544
 20
-116.1345133173205
 10
94.59233124805331
 20
-115.9719048104167
 10
94.59233124805331
 20
-115.9719048104167
 10
94.64951983310846
 20
-116.1451931133248
 10
94.64951983310846
 20
-116.1451931133248
 10
94.5561577454582
 20
-116.2278754049708
 10
94.46761879148727
 20
-116.2847194804774
 10
94.31741262833037
 20
-116.3587890334103
 97
        0
 97
        0
 92
        1
 93
        1
 72
     4
 94
        3
 73
     0
 74
     1
 95
       17
 96
       13
 40
0.0
 40
0.0
 40
0.0
 40
0.0
 40
1.0
 40
1.0
 40
1.0
 40
2.0
 40
2.0
 40
2.0
 40
3.0
 40
3.0
 40
3.0
 40
4.0
 40
4.0
 40
4.0
 40
4.0
 10
94.46968584877841
 20
-115.8933566333531
 10
94.44005802760526
 20
-115.8533935257242
 10
94.37218964654585
 20
-115.7558973234916
 10
94.19028860492466
 20
-115.6459987775121
 10
94.19028860492466
 20
-115.6459987775121
 10
94.31741262833037
 20
-115.5126735822329
 10
94.31741262833037
 20
-115.5126735822329
 10
94.50344778453386
 20
-115.6143038990478
 10
94.560636369589
 20
-115.7031873625673
 10
94.58819713347101
 20
-115.7455620370358
 10
94.58819713347101
 20
-115.7455620370358
 10
94.46968584877841
 20
-115.8933566333531
 10
94.46968584877841
 20
-115.8933566333531
 97
        0
 97
        0
 92
        1
 93
        1
 72
     4
 94
        3
 73
     0
 74
     1
 95
       38
 96
       34
 40
0.0
 40
0.0
 40
0.0
 40
0.0
 40
1.0
 40
1.0
 40
1.0
 40
2.0
 40
2.0
 40
2.0
 40
3.0
 40
3.0
 40
3.0
 40
4.0
 40
4.0
 40
4.0
 40
5.0
 40
5.0
 40
5.0
 40
6.0
 40
6.0
 40
6.0
 40
7.0
 40
7.0
 40
7.0
 40
8.0
 40
8.0
 40
8.0
 40
9.0
 40
9.0
 40
9.0
 40
10.0
 40
10.0
 40
10.0
 40
11.0
 40
11.0
 40
11.0
 40
11.0
 10
94.8376220466031
 20
-115.588810192457
 10
94.83555498931194
 20
-115.6353189815078
 10
94.8334879320208
 20
-115.7517632089093
 10
94.8334879320208
 20
-115.796204940669
 10
94.8334879320208
 20
-115.796204940669
 10
94.8334879320208
 20
-116.1431260560337
 10
94.8334879320208
 20
-116.1431260560337
 10
94.8334879320208
 20
-116.229942462262
 10
94.83555498931194
 20
-116.3715358867057
 10
94.84623478531623
 20
-116.4921142286895
 10
94.84623478531623
 20
-116.4921142286895
 10
94.65572100498191
 20
-116.4921142286895
 10
94.65572100498191
 20
-116.4921142286895
 10
94.65985511956421
 20
-116.4287244717609
 10
94.66433374369504
 20
-116.375670001288
 10
94.66640080098618
 20
-116.3208929830726
 10
94.66846785827734
 20
-116.1982475837977
 10
94.67053491556848
 20
-116.1834336732111
 10
94.67053491556848
 20
-116.1389919414514
 10
94.67053491556848
 20
-116.1389919414514
 10
94.67053491556848
 20
-115.817220023129
 10
94.67053491556848
 20
-115.817220023129
 10
94.67053491556848
 20
-115.7624430049136
 10
94.65778806227306
 20
-115.5233533782372
 10
94.65572100498191
 20
-115.4723659650555
 10
94.65572100498191
 20
-115.4723659650555
 10
94.85657007177197
 20
-115.4999267289375
 10
94.85657007177197
 20
-115.4999267289375
 10
94.87792966378052
 20
-115.5019937862287
 10
94.90962454224481
 20
-115.5064724103595
 10
94.90962454224481
 20
-115.5316216074018
 10
94.90962454224481
 20
-115.5591823712838
 10
94.85898163861165
 20
-115.5805419632924
 10
94.8376220466031
 20
-115.588810192457
 97
        0
 97
        0
 92
        1
 93
        1
 72
     4
 94
        3
 73
     0
 74
     1
 95
       83
 96
       79
 40
0.0
 40
0.0
 40
0.0
 40
0.0
 40
1.0
 40
1.0
 40
1.0
 40
2.0
 40
2.0
 40
2.0
 40
3.0
 40
3.0
 40
3.0
 40
4.0
 40
4.0
 40
4.0
 40
5.0
 40
5.0
 40
5.0
 40
6.0
 40
6.0
 40
6.0
 40
7.0
 40
7.0
 40
7.0
 40
8.0
 40
8.0
 40
8.0
 40
9.0
 40
9.0
 40
9.0
 40
10.0
 40
10.0
 40
10.0
 40
11.0
 40
11.0
 40
11.0
 40
12.0
 40
12.0
 40
12.0
 40
13.0
 40
13.0
 40
13.0
 40
14.0
 40
14.0
 40
14.0
 40
15.0
 40
15.0
 40
15.0
 40
16.0
 40
16.0
 40
16.0
 40
17.0
 40
17.0
 40
17.0
 40
18.0
 40
18.0
 40
18.0
 40
19.0
 40
19.0
 40
19.0
 40
20.0
 40
20.0
 40
20.0
 40
21.0
 40
21.0
 40
21.0
 40
22.0
 40
22.0
 40
22.0
 40
23.0
 40
23.0
 40
23.0
 40
24.0
 40
24.0
 40
24.0
 40
25.0
 40
25.0
 40
25.0
 40
26.0
 40
26.0
 40
26.0
 40
26.0
 10
95.63929576602074
 20
-115.9105821107793
 10
95.63929576602074
 20
-115.9105821107793
 10
95.54214407333669
 20
-115.9105821107793
 10
95.54214407333669
 20
-115.9105821107793
 10
95.54214407333669
 20
-115.9105821107793
 10
95.54214407333669
 20
-116.1579399666202
 10
95.54214407333669
 20
-116.1579399666202
 10
95.54214407333669
 20
-116.1579399666202
 10
95.62448185543415
 20
-116.1579399666202
 10
95.62448185543415
 20
-116.1579399666202
 10
95.69028317920244
 20
-116.1579399666202
 10
95.82980954635505
 20
-116.1538058520379
 10
95.92937280587877
 20
-116.1451931133248
 10
95.92937280587877
 20
-116.1451931133248
 10
95.92937280587877
 20
-116.3250270976549
 10
95.92937280587877
 20
-116.3250270976549
 10
95.83635522777702
 20
-116.3167588684903
 10
95.68614906462014
 20
-116.3122802443594
 10
95.62448185543415
 20
-116.3122802443594
 10
95.62448185543415
 20
-116.3122802443594
 10
95.31993541453808
 20
-116.3122802443594
 10
95.31993541453808
 20
-116.3122802443594
 10
95.26722545361375
 20
-116.3122802443594
 10
95.12115340503917
 20
-116.3167588684903
 10
95.01538897364199
 20
-116.3250270976549
 10
95.01538897364199
 20
-116.3250270976549
 10
95.01538897364199
 20
-116.1451931133248
 10
95.01538897364199
 20
-116.1451931133248
 10
95.11495223316571
 20
-116.1538058520379
 10
95.25447860031834
 20
-116.1579399666202
 10
95.31993541453808
 20
-116.1579399666202
 10
95.31993541453808
 20
-116.1579399666202
 10
95.3643771462978
 20
-116.1579399666202
 10
95.3643771462978
 20
-116.1579399666202
 10
95.3643771462978
 20
-116.1579399666202
 10
95.3643771462978
 20
-115.9105821107793
 10
95.3643771462978
 20
-115.9105821107793
 10
95.3643771462978
 20
-115.9105821107793
 10
95.29030759336493
 20
-115.9105821107793
 10
95.29030759336493
 20
-115.9105821107793
 10
95.22898489372749
 20
-115.9105821107793
 10
95.06189776269287
 20
-115.9147162253616
 10
94.94131942070912
 20
-115.9229844545262
 10
94.94131942070912
 20
-115.9229844545262
 10
94.94131942070912
 20
-115.7455620370358
 10
94.94131942070912
 20
-115.7455620370358
 10
95.05569659081941
 20
-115.7517632089093
 10
95.2141709831409
 20
-115.7558973234916
 10
95.29030759336493
 20
-115.7558973234916
 10
95.29030759336493
 20
-115.7558973234916
 10
95.36231008900666
 20
-115.7558973234916
 10
95.36231008900666
 20
-115.7558973234916
 10
95.35817597442436
 20
-115.6036241030435
 10
95.3561089171332
 20
-115.5698621672881
 10
95.34956323571123
 20
-115.4768445891864
 10
95.34956323571123
 20
-115.4768445891864
 10
95.56109209850557
 20
-115.4999267289375
 10
95.56109209850557
 20
-115.4999267289375
 10
95.58658580509642
 20
-115.5019937862287
 10
95.61001245439611
 20
-115.5064724103595
 10
95.61001245439611
 20
-115.5295545501107
 10
95.61001245439611
 20
-115.561249428575
 10
95.5655707226364
 20
-115.5781303964527
 10
95.54214407333669
 20
-115.5867431351658
 10
95.54214407333669
 20
-115.5867431351658
 10
95.54214407333669
 20
-115.7558973234916
 10
95.54214407333669
 20
-115.7558973234916
 10
95.54214407333669
 20
-115.7558973234916
 10
95.63929576602074
 20
-115.7558973234916
 10
95.63929576602074
 20
-115.7558973234916
 10
95.71577688579329
 20
-115.7558973234916
 10
95.87425127811477
 20
-115.7517632089093
 10
95.99069550551621
 20
-115.7455620370358
 10
95.99069550551621
 20
-115.7455620370358
 10
95.99069550551621
 20
-115.9229844545262
 10
95.99069550551621
 20
-115.9229844545262
 10
95.8828640168279
 20
-115.9167832826528
 10
95.7092312043713
 20
-115.9105821107793
 10
95.63929576602074
 20
-115.9105821107793
 97
        0
 97
        0
 92
        1
 93
        1
 72
     4
 94
        3
 73
     0
 74
     1
 95
       17
 96
       13
 40
0.0
 40
0.0
 40
0.0
 40
0.0
 40
1.0
 40
1.0
 40
1.0
 40
2.0
 40
2.0
 40
2.0
 40
3.0
 40
3.0
 40
3.0
 40
4.0
 40
4.0
 40
4.0
 40
4.0
 10
95.39400496747095
 20
-116.7081217156146
 10
95.39400496747095
 20
-116.7081217156146
 10
95.19108884338974
 20
-116.7081217156146
 10
95.19108884338974
 20
-116.7081217156146
 10
95.2183050977232
 20
-116.7673773579609
 10
95.2734266254872
 20
-116.8390353440541
 10
95.3009873893692
 20
-116.8686631652273
 10
95.3285481532512
 20
-116.8538492546407
 10
95.44258081381297
 20
-116.7904594977121
 10
95.53353133462356
 20
-116.7081217156146
 10
95.53353133462356
 20
-116.7081217156146
 10
95.39400496747095
 20
-116.7081217156146
 10
95.39400496747095
 20
-116.7081217156146
 97
        0
 97
        0
 75
     2
 76
     1
 98
        0
  0
SPLINE
  5
61
330
4E
100
AcDbEntity
  8
_U+30EC_U+30A4_U+30E4_U+30FC 1
370
     0
100
AcDbSpline
210
0.0
220
0.0
230
1.0
 70
    11
 71
     3
 72
    77
 73
    73
 74
     0
 42
0.0000000001
 43
0.0000000001
 12
1.0
 22
0.0
 32
0.0
 13
1.0
 23
0.0
 33
0.0
 40
0.0
 40
0.0
 40
0.0
 40
0.0
 40
1.0
 40
1.0
 40
1.0
 40
2.0
 40
2.0
 40
2.0
 40
3.0
 40
3.0
 40
3.0
 40
4.0
 40
4.0
 40
4.0
 40
5.0
 40
5.0
 40
5.0
 40
6.0
 40
6.0
 40
6.0
 40
7.0
 40
7.0
 40
7.0
 40
8.0
 40
8.0
 40
8.0
 40
9.0
 40
9.0
 40
9.0
 40
10.0
 40
10.0
 40
10.0
 40
11.0
 40
11.0
 40
11.0
 40
12.0
 40
12.0
 40
12.0
 40
13.0
 40
13.0
 40
13.0
 40
14.0
 40
14.0
 40
14.0
 40
15.0
 40
15.0
 40
15.0
 40
16.0
 40
16.0
 40
16.0
 40
17.0
 40
17.0
 40
17.0
 40
18.0
 40
18.0
 40
18.0
 40
19.0
 40
19.0
 40
19.0
 40
20.0
 40
20.0
 40
20.0
 40
21.0
 40
21.0
 40
21.0
 40
22.0
 40
22.0
 40
22.0
 40
23.0
 40
23.0
 40
23.0
 40
24.0
 40
24.0
 40
24.0
 40
24.0
 10
97.88515351285511
 20
-117.3382296798668
 30
0.0
 10
97.83864472380424
 20
-117.3637233864577
 30
0.0
 10
97.71393226723819
 20
-117.3764702397531
 30
0.0
 10
97.63572859972302
 20
-117.3764702397531
 30
0.0
 10
97.6229817464276
 20
-117.3764702397531
 30
0.0
 10
97.59748803983675
 20
-117.3764702397531
 30
0.0
 10
97.5637261040813
 20
-117.3723361251708
 30
0.0
 10
97.5637261040813
 20
-117.3723361251708
 30
0.0
 10
97.46622990184872
 20
-117.1459933517899
 30
0.0
 10
97.46622990184872
 20
-117.1459933517899
 30
0.0
 10
97.49585772302187
 20
-117.1521945236633
 30
0.0
 10
97.55304630807701
 20
-117.1608072623765
 30
0.0
 10
97.66949053547846
 20
-117.1608072623765
 30
0.0
 10
97.74769420299364
 20
-117.1608072623765
 30
0.0
 10
97.74976126028479
 20
-117.1184325879079
 30
0.0
 10
97.74976126028479
 20
-117.0612440028527
 30
0.0
 10
97.74976126028479
 20
-117.0612440028527
 30
0.0
 10
97.74976126028479
 20
-116.7122558301969
 30
0.0
 10
97.74976126028479
 20
-116.7122558301969
 30
0.0
 10
97.74976126028479
 20
-116.7122558301969
 30
0.0
 10
97.29087454164952
 20
-116.7122558301969
 30
0.0
 10
97.29087454164952
 20
-116.7122558301969
 30
0.0
 10
97.29294159894066
 20
-116.8497151400584
 30
0.0
 10
97.29500865623181
 20
-117.0484971495573
 30
0.0
 10
97.30120982810526
 20
-117.1818223448365
 30
0.0
 10
97.30362139494493
 20
-117.2093831087185
 30
0.0
 10
97.30362139494493
 20
-117.2538248404782
 30
0.0
 10
97.31602373869183
 20
-117.3151475401157
 30
0.0
 10
97.31602373869183
 20
-117.3151475401157
 30
0.0
 10
97.07486705472434
 20
-117.3151475401157
 30
0.0
 10
97.07486705472434
 20
-117.3151475401157
 30
0.0
 10
97.10036076131519
 20
-117.1904350835496
 30
0.0
 10
97.10036076131519
 20
-116.8497151400584
 30
0.0
 10
97.10036076131519
 20
-116.7122558301969
 30
0.0
 10
97.10036076131519
 20
-116.7122558301969
 30
0.0
 10
96.65835501055764
 20
-116.7122558301969
 30
0.0
 10
96.65835501055764
 20
-116.7122558301969
 30
0.0
 10
96.63492836125793
 20
-116.919650578409
 30
0.0
 10
96.56947154703819
 20
-117.1880235167099
 30
0.0
 10
96.37275659483042
 20
-117.3723361251708
 30
0.0
 10
96.37275659483042
 20
-117.3723361251708
 30
0.0
 10
96.18430987178726
 20
-117.2496907258959
 30
0.0
 10
96.18430987178726
 20
-117.2496907258959
 30
0.0
 10
96.43821340905018
 20
-117.0295491243885
 30
0.0
 10
96.46990828751447
 20
-116.6974419196104
 30
0.0
 10
96.46990828751447
 20
-116.3653347148323
 30
0.0
 10
96.46990828751447
 20
-116.3653347148323
 30
0.0
 10
96.46990828751447
 20
-115.9295301359482
 30
0.0
 10
96.46990828751447
 20
-115.9295301359482
 30
0.0
 10
96.46990828751447
 20
-115.8933566333531
 30
0.0
 10
96.46784123022333
 20
-115.6608126880987
 30
0.0
 10
96.4592284915102
 20
-115.5591823712838
 30
0.0
 10
96.59909936821134
 20
-115.5698621672881
 30
0.0
 10
96.84025605217883
 20
-115.5698621672881
 30
0.0
 10
96.98391653391374
 20
-115.5698621672881
 30
0.0
 10
96.98391653391374
 20
-115.5698621672881
 30
0.0
 10
97.44314776209755
 20
-115.5698621672881
 30
0.0
 10
97.44314776209755
 20
-115.5698621672881
 30
0.0
 10
97.45796167268412
 20
-115.5698621672881
 30
0.0
 10
97.80694984533993
 20
-115.5698621672881
 30
0.0
 10
97.96576874720995
 20
-115.5591823712838
 30
0.0
 10
97.96335718037028
 20
-115.6122368417567
 30
0.0
 10
97.95715600849682
 20
-115.7727782913693
 30
0.0
 10
97.95715600849682
 20
-115.823765704551
 30
0.0
 10
97.95715600849682
 20
-115.823765704551
 30
0.0
 10
97.95715600849682
 20
-116.430791529052
 30
0.0
 10
97.95715600849682
 20
-116.430791529052
 30
0.0
 10
97.95715600849682
 20
-116.4497395542209
 30
0.0
 10
97.9678358045011
 20
-117.0209363856753
 30
0.0
 10
97.9678358045011
 20
-117.1332464984945
 30
0.0
 10
97.9678358045011
 20
-117.1904350835496
 30
0.0
 10
97.9678358045011
 20
-117.291720890816
 30
0.0
 10
97.88515351285511
 20
-117.3382296798668
 30
0.0
  0
POLYLINE
  5
62
330
4E
100
AcDbEntity
  8
_U+30EC_U+30A4_U+30E4_U+30FC 1
370
     0
100
AcDb2dPolyline
 66
     1
 10
0.0
 20
0.0
 30
0.0
  0
VERTEX
  5
63
330
62
100
AcDbEntity
  8
_U+30EC_U+30A4_U+30E4_U+30FC 1
370
     0
100
AcDbVertex
100
AcDb2dVertex
 10
97.10036076131519
 20
-115.7517632089093
 30
0.0
  0
VERTEX
  5
64
330
62
100
AcDbEntity
  8
_U+30EC_U+30A4_U+30E4_U+30FC 1
370
     0
100
AcDbVertex
100
AcDb2dVertex
 10
96.66248912513994
 20
-115.7517632089093
 30
0.0
  0
VERTEX
  5
65
330
62
100
AcDbEntity
  8
_U+30EC_U+30A4_U+30E4_U+30FC 1
370
     0
100
AcDbVertex
100
AcDb2dVertex
 10
96.66248912513994
 20
-116.0563096498054
 30
0.0
  0
VERTEX
  5
66
330
62
100
AcDbEntity
  8
_U+30EC_U+30A4_U+30E4_U+30FC 1
370
     0
100
AcDbVertex
100
AcDb2dVertex
 10
97.10036076131519
 20
-116.0563096498054
 30
0.0
  0
VERTEX
  5
67
330
62
100
AcDbEntity
  8
_U+30EC_U+30A4_U+30E4_U+30FC 1
370
     0
100
AcDbVertex
100
AcDb2dVertex
 10
97.10036076131519
 20
-115.7517632089093
 30
0.0
  0
SEQEND
  5
68
330
62
100
AcDbEntity
  8
_U+30EC_U+30A4_U+30E4_U+30FC 1
370
     0
  0
POLYLINE
  5
69
330
4E
100
AcDbEntity
  8
_U+30EC_U+30A4_U+30E4_U+30FC 1
370
     0
100
AcDb2dPolyline
 66
     1
 10
0.0
 20
0.0
 30
0.0
  0
VERTEX
  5
6A
330
69
100
AcDbEntity
  8
_U+30EC_U+30A4_U+30E4_U+30FC 1
370
     0
100
AcDbVertex
100
AcDb2dVertex
 10
97.10036076131519
 20
-116.22339678084
 30
0.0
  0
VERTEX
  5
6B
330
69
100
AcDbEntity
  8
_U+30EC_U+30A4_U+30E4_U+30FC 1
370
     0
100
AcDbVertex
100
AcDb2dVertex
 10
96.66248912513994
 20
-116.22339678084
 30
0.0
  0
VERTEX
  5
6C
330
69
100
AcDbEntity
  8
_U+30EC_U+30A4_U+30E4_U+30FC 1
370
     0
100
AcDbVertex
100
AcDb2dVertex
 10
96.66248912513994
 20
-116.5324218458669
 30
0.0
  0
VERTEX
  5
6D
330
69
100
AcDbEntity
  8
_U+30EC_U+30A4_U+30E4_U+30FC 1
370
     0
100
AcDbVertex
100
AcDb2dVertex
 10
97.10036076131519
 20
-116.5324218458669
 30
0.0
  0
VERTEX
  5
6E
330
69
100
AcDbEntity
  8
_U+30EC_U+30A4_U+30E4_U+30FC 1
370
     0
100
AcDbVertex
100
AcDb2dVertex
 10
97.10036076131519
 20
-116.22339678084
 30
0.0
  0
SEQEND
  5
6F
330
69
100
AcDbEntity
  8
_U+30EC_U+30A4_U+30E4_U+30FC 1
370
     0
  0
POLYLINE
  5
70
330
4E
100
AcDbEntity
  8
_U+30EC_U+30A4_U+30E4_U+30FC 1
370
     0
100
AcDb2dPolyline
 66
     1
 10
0.0
 20
0.0
 30
0.0
  0
VERTEX
  5
71
330
70
100
AcDbEntity
  8
_U+30EC_U+30A4_U+30E4_U+30FC 1
370
     0
100
AcDbVertex
100
AcDb2dVertex
 10
97.74976126028479
 20
-115.7517632089093
 30
0.0
  0
VERTEX
  5
72
330
70
100
AcDbEntity
  8
_U+30EC_U+30A4_U+30E4_U+30FC 1
370
     0
100
AcDbVertex
100
AcDb2dVertex
 10
97.29087454164952
 20
-115.7517632089093
 30
0.0
  0
VERTEX
  5
73
330
70
100
AcDbEntity
  8
_U+30EC_U+30A4_U+30E4_U+30FC 1
370
     0
100
AcDbVertex
100
AcDb2dVertex
 10
97.29087454164952
 20
-116.0563096498054
 30
0.0
  0
VERTEX
  5
74
330
70
100
AcDbEntity
  8
_U+30EC_U+30A4_U+30E4_U+30FC 1
370
     0
100
AcDbVertex
100
AcDb2dVertex
 10
97.74976126028479
 20
-116.0563096498054
 30
0.0
  0
VERTEX
  5
75
330
70
100
AcDbEntity
  8
_U+30EC_U+30A4_U+30E4_U+30FC 1
370
     0
100
AcDbVertex
100
AcDb2dVertex
 10
97.74976126028479
 20
-115.7517632089093
 30
0.0
  0
SEQEND
  5
76
330
70
100
AcDbEntity
  8
_U+30EC_U+30A4_U+30E4_U+30FC 1
370
     0
  0
POLYLINE
  5
77
330
4E
100
AcDbEntity
  8
_U+30EC_U+30A4_U+30E4_U+30FC 1
370
     0
100
AcDb2dPolyline
 66
     1
 10
0.0
 20
0.0
 30
0.0
  0
VERTEX
  5
78
330
77
100
AcDbEntity
  8
_U+30EC_U+30A4_U+30E4_U+30FC 1
370
     0
100
AcDbVertex
100
AcDb2dVertex
 10
97.74976126028479
 20
-116.22339678084
 30
0.0
  0
VERTEX
  5
79
330
77
100
AcDbEntity
  8
_U+30EC_U+30A4_U+30E4_U+30FC 1
370
     0
100
AcDbVertex
100
AcDb2dVertex
 10
97.29087454164952
 20
-116.22339678084
 30
0.0
  0
VERTEX
  5
7A
330
77
100
AcDbEntity
  8
_U+30EC_U+30A4_U+30E4_U+30FC 1
370
     0
100
AcDbVertex
100
AcDb2dVertex
 10
97.29087454164952
 20
-116.5324218458669
 30
0.0
  0
VERTEX
  5
7B
330
77
100
AcDbEntity
  8
_U+30EC_U+30A4_U+30E4_U+30FC 1
370
     0
100
AcDbVertex
100
AcDb2dVertex
 10
97.74976126028479
 20
-116.5324218458669
 30
0.0
  0
VERTEX
  5
7C
330
77
100
AcDbEntity
  8
_U+30EC_U+30A4_U+30E4_U+30FC 1
370
     0
100
AcDbVertex
100
AcDb2dVertex
 10
97.74976126028479
 20
-116.22339678084
 30
0.0
  0
SEQEND
  5
7D
330
77
100
AcDbEntity
  8
_U+30EC_U+30A4_U+30E4_U+30FC 1
370
     0
  0
HATCH
  5
7E
330
4E
100
AcDbEntity
  8
_U+30EC_U+30A4_U+30E4_U+30FC 1
 62
   179
420
  2234388
100
AcDbHatch
 10
0.0
 20
0.0
 30
0.0
210
0.0
220
0.0
230
1.0
  2
SOLID
 70
     1
 71
     0
 91
        5
 92
        1
 93
        1
 72
     4
 94
        3
 73
     0
 74
     1
 95
       77
 96
       73
 40
0.0
 40
0.0
 40
0.0
 40
0.0
 40
1.0
 40
1.0
 40
1.0
 40
2.0
 40
2.0
 40
2.0
 40
3.0
 40
3.0
 40
3.0
 40
4.0
 40
4.0
 40
4.0
 40
5.0
 40
5.0
 40
5.0
 40
6.0
 40
6.0
 40
6.0
 40
7.0
 40
7.0
 40
7.0
 40
8.0
 40
8.0
 40
8.0
 40
9.0
 40
9.0
 40
9.0
 40
10.0
 40
10.0
 40
10.0
 40
11.0
 40
11.0
 40
11.0
 40
12.0
 40
12.0
 40
12.0
 40
13.0
 40
13.0
 40
13.0
 40
14.0
 40
14.0
 40
14.0
 40
15.0
 40
15.0
 40
15.0
 40
16.0
 40
16.0
 40
16.0
 40
17.0
 40
17.0
 40
17.0
 40
18.0
 40
18.0
 40
18.0
 40
19.0
 40
19.0
 40
19.0
 40
20.0
 40
20.0
 40
20.0
 40
21.0
 40
21.0
 40
21.0
 40
22.0
 40
22.0
 40
22.0
 40
23.0
 40
23.0
 40
23.0
 40
24.0
 40
24.0
 40
24.0
 40
24.0
 10
97.88515351285511
 20
-117.3382296798668
 10
97.83864472380424
 20
-117.3637233864577
 10
97.71393226723819
 20
-117.3764702397531
 10
97.63572859972302
 20
-117.3764702397531
 10
97.6229817464276
 20
-117.3764702397531
 10
97.59748803983675
 20
-117.3764702397531
 10
97.5637261040813
 20
-117.3723361251708
 10
97.5637261040813
 20
-117.3723361251708
 10
97.46622990184872
 20
-117.1459933517899
 10
97.46622990184872
 20
-117.1459933517899
 10
97.49585772302187
 20
-117.1521945236633
 10
97.55304630807701
 20
-117.1608072623765
 10
97.66949053547846
 20
-117.1608072623765
 10
97.74769420299364
 20
-117.1608072623765
 10
97.74976126028479
 20
-117.1184325879079
 10
97.74976126028479
 20
-117.0612440028527
 10
97.74976126028479
 20
-117.0612440028527
 10
97.74976126028479
 20
-116.7122558301969
 10
97.74976126028479
 20
-116.7122558301969
 10
97.74976126028479
 20
-116.7122558301969
 10
97.29087454164952
 20
-116.7122558301969
 10
97.29087454164952
 20
-116.7122558301969
 10
97.29294159894066
 20
-116.8497151400584
 10
97.29500865623181
 20
-117.0484971495573
 10
97.30120982810526
 20
-117.1818223448365
 10
97.30362139494493
 20
-117.2093831087185
 10
97.30362139494493
 20
-117.2538248404782
 10
97.31602373869183
 20
-117.3151475401157
 10
97.31602373869183
 20
-117.3151475401157
 10
97.07486705472434
 20
-117.3151475401157
 10
97.07486705472434
 20
-117.3151475401157
 10
97.10036076131519
 20
-117.1904350835496
 10
97.10036076131519
 20
-116.8497151400584
 10
97.10036076131519
 20
-116.7122558301969
 10
97.10036076131519
 20
-116.7122558301969
 10
96.65835501055764
 20
-116.7122558301969
 10
96.65835501055764
 20
-116.7122558301969
 10
96.63492836125793
 20
-116.919650578409
 10
96.56947154703819
 20
-117.1880235167099
 10
96.37275659483042
 20
-117.3723361251708
 10
96.37275659483042
 20
-117.3723361251708
 10
96.18430987178726
 20
-117.2496907258959
 10
96.18430987178726
 20
-117.2496907258959
 10
96.43821340905018
 20
-117.0295491243885
 10
96.46990828751447
 20
-116.6974419196104
 10
96.46990828751447
 20
-116.3653347148323
 10
96.46990828751447
 20
-116.3653347148323
 10
96.46990828751447
 20
-115.9295301359482
 10
96.46990828751447
 20
-115.9295301359482
 10
96.46990828751447
 20
-115.8933566333531
 10
96.46784123022333
 20
-115.6608126880987
 10
96.4592284915102
 20
-115.5591823712838
 10
96.59909936821134
 20
-115.5698621672881
 10
96.84025605217883
 20
-115.5698621672881
 10
96.98391653391374
 20
-115.5698621672881
 10
96.98391653391374
 20
-115.5698621672881
 10
97.44314776209755
 20
-115.5698621672881
 10
97.44314776209755
 20
-115.5698621672881
 10
97.45796167268412
 20
-115.5698621672881
 10
97.80694984533993
 20
-115.5698621672881
 10
97.96576874720995
 20
-115.5591823712838
 10
97.96335718037028
 20
-115.6122368417567
 10
97.95715600849682
 20
-115.7727782913693
 10
97.95715600849682
 20
-115.823765704551
 10
97.95715600849682
 20
-115.823765704551
 10
97.95715600849682
 20
-116.430791529052
 10
97.95715600849682
 20
-116.430791529052
 10
97.95715600849682
 20
-116.4497395542209
 10
97.9678358045011
 20
-117.0209363856753
 10
97.9678358045011
 20
-117.1332464984945
 10
97.9678358045011
 20
-117.1904350835496
 10
97.9678358045011
 20
-117.291720890816
 10
97.88515351285511
 20
-117.3382296798668
 97
        0
 97
        0
 92
        1
 93
        4
 72
     1
 10
97.10036076131519
 20
-115.7517632089093
 11
96.66248912513994
 21
-115.7517632089093
 72
     1
 10
96.66248912513994
 20
-115.7517632089093
 11
96.66248912513994
 21
-116.0563096498054
 72
     1
 10
96.66248912513994
 20
-116.0563096498054
 11
97.10036076131519
 21
-116.0563096498054
 72
     1
 10
97.10036076131519
 20
-116.0563096498054
 11
97.10036076131519
 21
-115.7517632089093
 97
        0
 92
        1
 93
        4
 72
     1
 10
97.10036076131519
 20
-116.22339678084
 11
96.66248912513994
 21
-116.22339678084
 72
     1
 10
96.66248912513994
 20
-116.22339678084
 11
96.66248912513994
 21
-116.5324218458669
 72
     1
 10
96.66248912513994
 20
-116.5324218458669
 11
97.10036076131519
 21
-116.5324218458669
 72
     1
 10
97.10036076131519
 20
-116.5324218458669
 11
97.10036076131519
 21
-116.22339678084
 97
        0
 92
        1
 93
        4
 72
     1
 10
97.74976126028479
 20
-115.7517632089093
 11
97.29087454164952
 21
-115.7517632089093
 72
     1
 10
97.29087454164952
 20
-115.7517632089093
 11
97.29087454164952
 21
-116.0563096498054
 72
     1
 10
97.29087454164952
 20
-116.0563096498054
 11
97.74976126028479
 21
-116.0563096498054
 72
     1
 10
97.74976126028479
 20
-116.0563096498054
 11
97.74976126028479
 21
-115.7517632089093
 97
        0
 92
        1
 93
        4
 72
     1
 10
97.74976126028479
 20
-116.22339678084
 11
97.29087454164952
 21
-116.22339678084
 72
     1
 10
97.29087454164952
 20
-116.22339678084
 11
97.29087454164952
 21
-116.5324218458669
 72
     1
 10
97.29087454164952
 20
-116.5324218458669
 11
97.74976126028479
 21
-116.5324218458669
 72
     1
 10
97.74976126028479
 20
-116.5324218458669
 11
97.74976126028479
 21
-116.22339678084
 97
        0
 75
     2
 76
     1
 98
        0
  0
SPLINE
  5
7F
330
4E
100
AcDbEntity
  8
_U+30EC_U+30A4_U+30E4_U+30FC 1
370
     0
100
AcDbSpline
210
0.0
220
0.0
230
1.0
 70
    11
 71
     3
 72
    44
 73
    40
 74
     0
 42
0.0000000001
 43
0.0000000001
 12
1.0
 22
0.0
 32
0.0
 13
1.0
 23
0.0
 33
0.0
 40
0.0
 40
0.0
 40
0.0
 40
0.0
 40
1.0
 40
1.0
 40
1.0
 40
2.0
 40
2.0
 40
2.0
 40
3.0
 40
3.0
 40
3.0
 40
4.0
 40
4.0
 40
4.0
 40
5.0
 40
5.0
 40
5.0
 40
6.0
 40
6.0
 40
6.0
 40
7.0
 40
7.0
 40
7.0
 40
8.0
 40
8.0
 40
8.0
 40
9.0
 40
9.0
 40
9.0
 40
10.0
 40
10.0
 40
10.0
 40
11.0
 40
11.0
 40
11.0
 40
12.0
 40
12.0
 40
12.0
 40
13.0
 40
13.0
 40
13.0
 40
13.0
 10
99.76273055231627
 20
-116.0880045282697
 30
0.0
 10
99.65076494904565
 20
-116.4562852356429
 30
0.0
 10
99.59977753586395
 20
-116.6147596279644
 30
0.0
 10
99.40306258365618
 20
-116.864529050645
 30
0.0
 10
99.21909448474385
 20
-117.0950059386082
 30
0.0
 10
98.98207191535866
 20
-117.2813856043602
 30
0.0
 10
98.70301918105342
 20
-117.374403182462
 30
0.0
 10
98.70301918105342
 20
-117.374403182462
 30
0.0
 10
98.51043834342795
 20
-117.1945691981319
 30
0.0
 10
98.51043834342795
 20
-117.1945691981319
 30
0.0
 10
99.15157061323295
 20
-117.0422959776839
 30
0.0
 10
99.48126625117135
 20
-116.485913056816
 30
0.0
 10
99.54500051764848
 20
-116.0459743633496
 30
0.0
 10
99.54500051764848
 20
-116.0459743633496
 30
0.0
 10
98.77915579127743
 20
-116.0459743633496
 30
0.0
 10
98.77915579127743
 20
-116.0459743633496
 30
0.0
 10
98.6861382131757
 20
-116.0459743633496
 30
0.0
 10
98.50182560471482
 20
-116.0501084779319
 30
0.0
 10
98.34541826968449
 20
-116.0690565031008
 30
0.0
 10
98.34541826968449
 20
-116.0690565031008
 30
0.0
 10
98.34541826968449
 20
-115.8489149015933
 30
0.0
 10
98.34541826968449
 20
-115.8489149015933
 30
0.0
 10
98.43223467591278
 20
-115.8702744936019
 30
0.0
 10
98.68372664633601
 20
-115.8702744936019
 30
0.0
 10
98.78328990585973
 20
-115.8702744936019
 30
0.0
 10
98.78328990585973
 20
-115.8702744936019
 30
0.0
 10
99.21496037016155
 20
-115.8702744936019
 30
0.0
 10
99.21496037016155
 20
-115.8702744936019
 30
0.0
 10
99.25733504463011
 20
-115.8702744936019
 30
0.0
 10
99.49194604717563
 20
-115.8682074363107
 30
0.0
 10
99.5301866070619
 20
-115.8616617548888
 30
0.0
 10
99.57256128153047
 20
-115.8554605830153
 30
0.0
 10
99.57462833882163
 20
-115.8533935257242
 30
0.0
 10
99.63595103845907
 20
-115.8130859085467
 30
0.0
 10
99.63595103845907
 20
-115.8130859085467
 30
0.0
 10
99.82405325195371
 20
-115.9674261862859
 30
0.0
 10
99.82405325195371
 20
-115.9674261862859
 30
0.0
 10
99.79442543078056
 20
-115.9970540074591
 30
0.0
 10
99.779611520194
 20
-116.0287488859234
 30
0.0
 10
99.76273055231627
 20
-116.0880045282697
 30
0.0
  0
SPLINE
  5
80
330
4E
100
AcDbEntity
  8
_U+30EC_U+30A4_U+30E4_U+30FC 1
370
     0
100
AcDbSpline
210
0.0
220
0.0
230
1.0
 70
    11
 71
     3
 72
    17
 73
    13
 74
     0
 42
0.0000000001
 43
0.0000000001
 12
1.0
 22
0.0
 32
0.0
 13
1.0
 23
0.0
 33
0.0
 40
0.0
 40
0.0
 40
0.0
 40
0.0
 40
1.0
 40
1.0
 40
1.0
 40
2.0
 40
2.0
 40
2.0
 40
3.0
 40
3.0
 40
3.0
 40
4.0
 40
4.0
 40
4.0
 40
4.0
 10
99.97219235781945
 20
-115.8892225187708
 30
0.0
 10
99.84541284396227
 20
-115.8892225187708
 30
0.0
 10
99.74378252714739
 20
-115.7875922019559
 30
0.0
 10
99.74378252714739
 20
-115.6608126880987
 30
0.0
 10
99.74378252714739
 20
-115.5340331742415
 30
0.0
 10
99.84541284396227
 20
-115.4303358001355
 30
0.0
 10
99.97219235781945
 20
-115.4303358001355
 30
0.0
 10
100.0993163812252
 20
-115.4303358001355
 30
0.0
 10
100.2030137553312
 20
-115.5340331742415
 30
0.0
 10
100.2030137553312
 20
-115.6608126880987
 30
0.0
 10
100.2030137553312
 20
-115.7875922019559
 30
0.0
 10
100.0993163812252
 20
-115.8892225187708
 30
0.0
 10
99.97219235781945
 20
-115.8892225187708
 30
0.0
  0
SPLINE
  5
81
330
4E
100
AcDbEntity
  8
_U+30EC_U+30A4_U+30E4_U+30FC 1
370
     0
100
AcDbSpline
210
0.0
220
0.0
230
1.0
 70
    11
 71
     3
 72
    17
 73
    13
 74
     0
 42
0.0000000001
 43
0.0000000001
 12
1.0
 22
0.0
 32
0.0
 13
1.0
 23
0.0
 33
0.0
 40
0.0
 40
0.0
 40
0.0
 40
0.0
 40
1.0
 40
1.0
 40
1.0
 40
2.0
 40
2.0
 40
2.0
 40
3.0
 40
3.0
 40
3.0
 40
4.0
 40
4.0
 40
4.0
 40
4.0
 10
99.97012530052831
 20
-115.5591823712838
 30
0.0
 10
99.91500377276431
 20
-115.5591823712838
 30
0.0
 10
99.87056204100459
 20
-115.6036241030435
 30
0.0
 10
99.87056204100459
 20
-115.6587456308075
 30
0.0
 10
99.87056204100459
 20
-115.7159342158627
 30
0.0
 10
99.91500377276431
 20
-115.7645100622047
 30
0.0
 10
99.97425941511061
 20
-115.7645100622047
 30
0.0
 10
100.0335150574569
 20
-115.7645100622047
 30
0.0
 10
100.0738226746343
 20
-115.713522649023
 30
0.0
 10
100.0738226746343
 20
-115.6608126880987
 30
0.0
 10
100.0738226746343
 20
-115.6036241030435
 30
0.0
 10
100.0273138855835
 20
-115.5591823712838
 30
0.0
 10
99.97012530052831
 20
-115.5591823712838
 30
0.0
  0
HATCH
  5
82
330
4E
100
AcDbEntity
  8
_U+30EC_U+30A4_U+30E4_U+30FC 1
 62
   179
420
  2234388
100
AcDbHatch
 10
0.0
 20
0.0
 30
0.0
210
0.0
220
0.0
230
1.0
  2
SOLID
 70
     1
 71
     0
 91
        3
 92
        1
 93
        1
 72
     4
 94
        3
 73
     0
 74
     1
 95
       44
 96
       40
 40
0.0
 40
0.0
 40
0.0
 40
0.0
 40
1.0
 40
1.0
 40
1.0
 40
2.0
 40
2.0
 40
2.0
 40
3.0
 40
3.0
 40
3.0
 40
4.0
 40
4.0
 40
4.0
 40
5.0
 40
5.0
 40
5.0
 40
6.0
 40
6.0
 40
6.0
 40
7.0
 40
7.0
 40
7.0
 40
8.0
 40
8.0
 40
8.0
 40
9.0
 40
9.0
 40
9.0
 40
10.0
 40
10.0
 40
10.0
 40
11.0
 40
11.0
 40
11.0
 40
12.0
 40
12.0
 40
12.0
 40
13.0
 40
13.0
 40
13.0
 40
13.0
 10
99.76273055231627
 20
-116.0880045282697
 10
99.65076494904565
 20
-116.4562852356429
 10
99.59977753586395
 20
-116.6147596279644
 10
99.40306258365618
 20
-116.864529050645
 10
99.21909448474385
 20
-117.0950059386082
 10
98.98207191535866
 20
-117.2813856043602
 10
98.70301918105342
 20
-117.374403182462
 10
98.70301918105342
 20
-117.374403182462
 10
98.51043834342795
 20
-117.1945691981319
 10
98.51043834342795
 20
-117.1945691981319
 10
99.15157061323295
 20
-117.0422959776839
 10
99.48126625117135
 20
-116.485913056816
 10
99.54500051764848
 20
-116.0459743633496
 10
99.54500051764848
 20
-116.0459743633496
 10
98.77915579127743
 20
-116.0459743633496
 10
98.77915579127743
 20
-116.0459743633496
 10
98.6861382131757
 20
-116.0459743633496
 10
98.50182560471482
 20
-116.0501084779319
 10
98.34541826968449
 20
-116.0690565031008
 10
98.34541826968449
 20
-116.0690565031008
 10
98.34541826968449
 20
-115.8489149015933
 10
98.34541826968449
 20
-115.8489149015933
 10
98.43223467591278
 20
-115.8702744936019
 10
98.68372664633601
 20
-115.8702744936019
 10
98.78328990585973
 20
-115.8702744936019
 10
98.78328990585973
 20
-115.8702744936019
 10
99.21496037016155
 20
-115.8702744936019
 10
99.21496037016155
 20
-115.8702744936019
 10
99.25733504463011
 20
-115.8702744936019
 10
99.49194604717563
 20
-115.8682074363107
 10
99.5301866070619
 20
-115.8616617548888
 10
99.57256128153047
 20
-115.8554605830153
 10
99.57462833882163
 20
-115.8533935257242
 10
99.63595103845907
 20
-115.8130859085467
 10
99.63595103845907
 20
-115.8130859085467
 10
99.82405325195371
 20
-115.9674261862859
 10
99.82405325195371
 20
-115.9674261862859
 10
99.79442543078056
 20
-115.9970540074591
 10
99.779611520194
 20
-116.0287488859234
 10
99.76273055231627
 20
-116.0880045282697
 97
        0
 97
        0
 92
        1
 93
        1
 72
     4
 94
        3
 73
     0
 74
     1
 95
       17
 96
       13
 40
0.0
 40
0.0
 40
0.0
 40
0.0
 40
1.0
 40
1.0
 40
1.0
 40
2.0
 40
2.0
 40
2.0
 40
3.0
 40
3.0
 40
3.0
 40
4.0
 40
4.0
 40
4.0
 40
4.0
 10
99.97219235781945
 20
-115.8892225187708
 10
99.84541284396227
 20
-115.8892225187708
 10
99.74378252714739
 20
-115.7875922019559
 10
99.74378252714739
 20
-115.6608126880987
 10
99.74378252714739
 20
-115.5340331742415
 10
99.84541284396227
 20
-115.4303358001355
 10
99.97219235781945
 20
-115.4303358001355
 10
100.0993163812252
 20
-115.4303358001355
 10
100.2030137553312
 20
-115.5340331742415
 10
100.2030137553312
 20
-115.6608126880987
 10
100.2030137553312
 20
-115.7875922019559
 10
100.0993163812252
 20
-115.8892225187708
 10
99.97219235781945
 20
-115.8892225187708
 97
        0
 97
        0
 92
        1
 93
        1
 72
     4
 94
        3
 73
     0
 74
     1
 95
       17
 96
       13
 40
0.0
 40
0.0
 40
0.0
 40
0.0
 40
1.0
 40
1.0
 40
1.0
 40
2.0
 40
2.0
 40
2.0
 40
3.0
 40
3.0
 40
3.0
 40
4.0
 40
4.0
 40
4.0
 40
4.0
 10
99.97012530052831
 20
-115.5591823712838
 10
99.91500377276431
 20
-115.5591823712838
 10
99.87056204100459
 20
-115.6036241030435
 10
99.87056204100459
 20
-115.6587456308075
 10
99.87056204100459
 20
-115.7159342158627
 10
99.91500377276431
 20
-115.7645100622047
 10
99.97425941511061
 20
-115.7645100622047
 10
100.0335150574569
 20
-115.7645100622047
 10
100.0738226746343
 20
-115.713522649023
 10
100.0738226746343
 20
-115.6608126880987
 10
100.0738226746343
 20
-115.6036241030435
 10
100.0273138855835
 20
-115.5591823712838
 10
99.97012530052831
 20
-115.5591823712838
 97
        0
 97
        0
 75
     2
 76
     1
 98
        0
  0
SPLINE
  5
83
330
4E
100
AcDbEntity
  8
_U+30EC_U+30A4_U+30E4_U+30FC 1
370
     0
100
AcDbSpline
210
0.0
220
0.0
230
1.0
 70
    11
 71
     3
 72
    50
 73
    46
 74
     0
 42
0.0000000001
 43
0.0000000001
 12
1.0
 22
0.0
 32
0.0
 13
1.0
 23
0.0
 33
0.0
 40
0.0
 40
0.0
 40
0.0
 40
0.0
 40
1.0
 40
1.0
 40
1.0
 40
2.0
 40
2.0
 40
2.0
 40
3.0
 40
3.0
 40
3.0
 40
4.0
 40
4.0
 40
4.0
 40
5.0
 40
5.0
 40
5.0
 40
6.0
 40
6.0
 40
6.0
 40
7.0
 40
7.0
 40
7.0
 40
8.0
 40
8.0
 40
8.0
 40
9.0
 40
9.0
 40
9.0
 40
10.0
 40
10.0
 40
10.0
 40
11.0
 40
11.0
 40
11.0
 40
12.0
 40
12.0
 40
12.0
 40
13.0
 40
13.0
 40
13.0
 40
14.0
 40
14.0
 40
14.0
 40
15.0
 40
15.0
 40
15.0
 40
15.0
 10
101.7674316151831
 20
-116.3970295932966
 30
0.0
 10
101.6888834381194
 20
-116.5747965203355
 30
0.0
 10
101.5534911855491
 20
-116.781846758999
 30
0.0
 10
101.4160318756877
 20
-116.9217176357001
 30
0.0
 10
101.2468776873619
 20
-117.0929388813171
 30
0.0
 10
101.0839246709096
 20
-117.1818223448365
 30
0.0
 10
100.7645643194269
 20
-117.3234157692803
 30
0.0
 10
100.7645643194269
 20
-117.3234157692803
 30
0.0
 10
100.5954101311011
 20
-117.1353135557856
 30
0.0
 10
100.5954101311011
 20
-117.1353135557856
 30
0.0
 10
100.7814452873046
 20
-117.1118869064859
 30
0.0
 10
100.9526665329216
 20
-117.0254150098062
 30
0.0
 10
101.1052842629181
 20
-116.919650578409
 30
0.0
 10
101.3674560293456
 20
-116.7377495367878
 30
0.0
 10
101.55796980968
 20
-116.4245903571786
 30
0.0
 10
101.606545656022
 20
-116.2426893155574
 30
0.0
 10
101.606545656022
 20
-116.2426893155574
 30
0.0
 10
100.9357855650438
 20
-116.2426893155574
 30
0.0
 10
100.9357855650438
 20
-116.2426893155574
 30
0.0
 10
100.7773111727223
 20
-116.2426893155574
 30
0.0
 10
100.4851670755732
 20
-116.250957544722
 30
0.0
 10
100.3328938551251
 20
-116.2678385125997
 30
0.0
 10
100.3328938551251
 20
-116.2678385125997
 30
0.0
 10
100.3328938551251
 20
-116.0394286819276
 30
0.0
 10
100.3328938551251
 20
-116.0394286819276
 30
0.0
 10
100.3670003004291
 20
-116.0459743633496
 30
0.0
 10
100.3921494974714
 20
-116.0521755352231
 30
0.0
 10
100.4452039679443
 20
-116.0563096498054
 30
0.0
 10
100.5464897752106
 20
-116.0628553312274
 30
0.0
 10
100.7435492369669
 20
-116.0649223885185
 30
0.0
 10
100.8279540763555
 20
-116.0649223885185
 30
0.0
 10
100.8279540763555
 20
-116.0649223885185
 30
0.0
 10
101.3336940935902
 20
-116.0649223885185
 30
0.0
 10
101.3336940935902
 20
-116.0649223885185
 30
0.0
 10
101.4012179651011
 20
-116.0649223885185
 30
0.0
 10
101.5472900136757
 20
-116.0607882739362
 30
0.0
 10
101.6086127133131
 20
-116.0542425925142
 30
0.0
 10
101.6806152089548
 20
-116.0459743633496
 30
0.0
 10
101.7081759728369
 20
-116.031160452763
 30
0.0
 10
101.7419379085923
 20
-116.0077338034634
 30
0.0
 10
101.7419379085923
 20
-116.0077338034634
 30
0.0
 10
101.9069579823358
 20
-116.174820934498
 30
0.0
 10
101.9069579823358
 20
-116.174820934498
 30
0.0
 10
101.8370225439852
 20
-116.2426893155574
 30
0.0
 10
101.7905137549343
 20
-116.3463866896634
 30
0.0
 10
101.7674316151831
 20
-116.3970295932966
 30
0.0
  0
SPLINE
  5
84
330
4E
100
AcDbEntity
  8
_U+30EC_U+30A4_U+30E4_U+30FC 1
370
     0
100
AcDbSpline
210
0.0
220
0.0
230
1.0
 70
    11
 71
     3
 72
    29
 73
    25
 74
     0
 42
0.0000000001
 43
0.0000000001
 12
1.0
 22
0.0
 32
0.0
 13
1.0
 23
0.0
 33
0.0
 40
0.0
 40
0.0
 40
0.0
 40
0.0
 40
1.0
 40
1.0
 40
1.0
 40
2.0
 40
2.0
 40
2.0
 40
3.0
 40
3.0
 40
3.0
 40
4.0
 40
4.0
 40
4.0
 40
5.0
 40
5.0
 40
5.0
 40
6.0
 40
6.0
 40
6.0
 40
7.0
 40
7.0
 40
7.0
 40
8.0
 40
8.0
 40
8.0
 40
8.0
 10
101.2744384512439
 20
-115.7707112340782
 30
0.0
 10
101.2744384512439
 20
-115.7707112340782
 30
0.0
 10
100.9337185077527
 20
-115.7707112340782
 30
0.0
 10
100.9337185077527
 20
-115.7707112340782
 30
0.0
 10
100.8196858471909
 20
-115.7707112340782
 30
0.0
 10
100.7032416197895
 20
-115.775189858209
 30
0.0
 10
100.5888644496792
 20
-115.7900037687956
 30
0.0
 10
100.5888644496792
 20
-115.7900037687956
 30
0.0
 10
100.5888644496792
 20
-115.5805419632924
 30
0.0
 10
100.5888644496792
 20
-115.5805419632924
 30
0.0
 10
100.7073757343718
 20
-115.5953558738789
 30
0.0
 10
100.8810085468284
 20
-115.5994899884612
 30
0.0
 10
100.9337185077527
 20
-115.5994899884612
 30
0.0
 10
100.9337185077527
 20
-115.5994899884612
 30
0.0
 10
101.2744384512439
 20
-115.5994899884612
 30
0.0
 10
101.2744384512439
 20
-115.5994899884612
 30
0.0
 10
101.3908826786453
 20
-115.5994899884612
 30
0.0
 10
101.5069823964983
 20
-115.5953558738789
 30
0.0
 10
101.6234266238997
 20
-115.5805419632924
 30
0.0
 10
101.6234266238997
 20
-115.5805419632924
 30
0.0
 10
101.6234266238997
 20
-115.7900037687956
 30
0.0
 10
101.6234266238997
 20
-115.7900037687956
 30
0.0
 10
101.4732204607428
 20
-115.7707112340782
 30
0.0
 10
101.2892523618305
 20
-115.7707112340782
 30
0.0
 10
101.2744384512439
 20
-115.7707112340782
 30
0.0
  0
HATCH
  5
85
330
4E
100
AcDbEntity
  8
_U+30EC_U+30A4_U+30E4_U+30FC 1
 62
   179
420
  2234388
100
AcDbHatch
 10
0.0
 20
0.0
 30
0.0
210
0.0
220
0.0
230
1.0
  2
SOLID
 70
     1
 71
     0
 91
        2
 92
        1
 93
        1
 72
     4
 94
        3
 73
     0
 74
     1
 95
       50
 96
       46
 40
0.0
 40
0.0
 40
0.0
 40
0.0
 40
1.0
 40
1.0
 40
1.0
 40
2.0
 40
2.0
 40
2.0
 40
3.0
 40
3.0
 40
3.0
 40
4.0
 40
4.0
 40
4.0
 40
5.0
 40
5.0
 40
5.0
 40
6.0
 40
6.0
 40
6.0
 40
7.0
 40
7.0
 40
7.0
 40
8.0
 40
8.0
 40
8.0
 40
9.0
 40
9.0
 40
9.0
 40
10.0
 40
10.0
 40
10.0
 40
11.0
 40
11.0
 40
11.0
 40
12.0
 40
12.0
 40
12.0
 40
13.0
 40
13.0
 40
13.0
 40
14.0
 40
14.0
 40
14.0
 40
15.0
 40
15.0
 40
15.0
 40
15.0
 10
101.7674316151831
 20
-116.3970295932966
 10
101.6888834381194
 20
-116.5747965203355
 10
101.5534911855491
 20
-116.781846758999
 10
101.4160318756877
 20
-116.9217176357001
 10
101.2468776873619
 20
-117.0929388813171
 10
101.0839246709096
 20
-117.1818223448365
 10
100.7645643194269
 20
-117.3234157692803
 10
100.7645643194269
 20
-117.3234157692803
 10
100.5954101311011
 20
-117.1353135557856
 10
100.5954101311011
 20
-117.1353135557856
 10
100.7814452873046
 20
-117.1118869064859
 10
100.9526665329216
 20
-117.0254150098062
 10
101.1052842629181
 20
-116.919650578409
 10
101.3674560293456
 20
-116.7377495367878
 10
101.55796980968
 20
-116.4245903571786
 10
101.606545656022
 20
-116.2426893155574
 10
101.606545656022
 20
-116.2426893155574
 10
100.9357855650438
 20
-116.2426893155574
 10
100.9357855650438
 20
-116.2426893155574
 10
100.7773111727223
 20
-116.2426893155574
 10
100.4851670755732
 20
-116.250957544722
 10
100.3328938551251
 20
-116.2678385125997
 10
100.3328938551251
 20
-116.2678385125997
 10
100.3328938551251
 20
-116.0394286819276
 10
100.3328938551251
 20
-116.0394286819276
 10
100.3670003004291
 20
-116.0459743633496
 10
100.3921494974714
 20
-116.0521755352231
 10
100.4452039679443
 20
-116.0563096498054
 10
100.5464897752106
 20
-116.0628553312274
 10
100.7435492369669
 20
-116.0649223885185
 10
100.8279540763555
 20
-116.0649223885185
 10
100.8279540763555
 20
-116.0649223885185
 10
101.3336940935902
 20
-116.0649223885185
 10
101.3336940935902
 20
-116.0649223885185
 10
101.4012179651011
 20
-116.0649223885185
 10
101.5472900136757
 20
-116.0607882739362
 10
101.6086127133131
 20
-116.0542425925142
 10
101.6806152089548
 20
-116.0459743633496
 10
101.7081759728369
 20
-116.031160452763
 10
101.7419379085923
 20
-116.0077338034634
 10
101.7419379085923
 20
-116.0077338034634
 10
101.9069579823358
 20
-116.174820934498
 10
101.9069579823358
 20
-116.174820934498
 10
101.8370225439852
 20
-116.2426893155574
 10
101.7905137549343
 20
-116.3463866896634
 10
101.7674316151831
 20
-116.3970295932966
 97
        0
 97
        0
 92
        1
 93
        1
 72
     4
 94
        3
 73
     0
 74
     1
 95
       29
 96
       25
 40
0.0
 40
0.0
 40
0.0
 40
0.0
 40
1.0
 40
1.0
 40
1.0
 40
2.0
 40
2.0
 40
2.0
 40
3.0
 40
3.0
 40
3.0
 40
4.0
 40
4.0
 40
4.0
 40
5.0
 40
5.0
 40
5.0
 40
6.0
 40
6.0
 40
6.0
 40
7.0
 40
7.0
 40
7.0
 40
8.0
 40
8.0
 40
8.0
 40
8.0
 10
101.2744384512439
 20
-115.7707112340782
 10
101.2744384512439
 20
-115.7707112340782
 10
100.9337185077527
 20
-115.7707112340782
 10
100.9337185077527
 20
-115.7707112340782
 10
100.8196858471909
 20
-115.7707112340782
 10
100.7032416197895
 20
-115.775189858209
 10
100.5888644496792
 20
-115.7900037687956
 10
100.5888644496792
 20
-115.7900037687956
 10
100.5888644496792
 20
-115.5805419632924
 10
100.5888644496792
 20
-115.5805419632924
 10
100.7073757343718
 20
-115.5953558738789
 10
100.8810085468284
 20
-115.5994899884612
 10
100.9337185077527
 20
-115.5994899884612
 10
100.9337185077527
 20
-115.5994899884612
 10
101.2744384512439
 20
-115.5994899884612
 10
101.2744384512439
 20
-115.5994899884612
 10
101.3908826786453
 20
-115.5994899884612
 10
101.5069823964983
 20
-115.5953558738789
 10
101.6234266238997
 20
-115.5805419632924
 10
101.6234266238997
 20
-115.5805419632924
 10
101.6234266238997
 20
-115.7900037687956
 10
101.6234266238997
 20
-115.7900037687956
 10
101.4732204607428
 20
-115.7707112340782
 10
101.2892523618305
 20
-115.7707112340782
 10
101.2744384512439
 20
-115.7707112340782
 97
        0
 97
        0
 75
     2
 76
     1
 98
        0
  0
SPLINE
  5
86
330
4E
100
AcDbEntity
  8
_U+30EC_U+30A4_U+30E4_U+30FC 1
370
     0
100
AcDbSpline
210
0.0
220
0.0
230
1.0
 70
    11
 71
     3
 72
    50
 73
    46
 74
     0
 42
0.0000000001
 43
0.0000000001
 12
1.0
 22
0.0
 32
0.0
 13
1.0
 23
0.0
 33
0.0
 40
0.0
 40
0.0
 40
0.0
 40
0.0
 40
1.0
 40
1.0
 40
1.0
 40
2.0
 40
2.0
 40
2.0
 40
3.0
 40
3.0
 40
3.0
 40
4.0
 40
4.0
 40
4.0
 40
5.0
 40
5.0
 40
5.0
 40
6.0
 40
6.0
 40
6.0
 40
7.0
 40
7.0
 40
7.0
 40
8.0
 40
8.0
 40
8.0
 40
9.0
 40
9.0
 40
9.0
 40
10.0
 40
10.0
 40
10.0
 40
11.0
 40
11.0
 40
11.0
 40
12.0
 40
12.0
 40
12.0
 40
13.0
 40
13.0
 40
13.0
 40
14.0
 40
14.0
 40
14.0
 40
15.0
 40
15.0
 40
15.0
 40
15.0
 10
103.4775770140612
 20
-115.7558973234916
 30
0.0
 10
103.268115208558
 20
-115.9694932435771
 30
0.0
 10
103.1964572224648
 20
-116.0414957392188
 30
0.0
 10
103.0545192884725
 20
-116.1600070239114
 30
0.0
 10
103.0545192884725
 20
-116.1600070239114
 30
0.0
 10
103.0545192884725
 20
-116.7270697407835
 30
0.0
 10
103.0545192884725
 20
-116.7270697407835
 30
0.0
 10
103.0545192884725
 20
-116.8772759039404
 30
0.0
 10
103.0610649698945
 20
-116.8962239291093
 30
0.0
 10
103.0651990844768
 20
-117.0739908561482
 30
0.0
 10
103.0672661417679
 20
-117.2052489941362
 30
0.0
 10
103.0734673136414
 20
-117.2538248404782
 30
0.0
 10
103.0800129950633
 20
-117.3130804828245
 30
0.0
 10
103.0800129950633
 20
-117.3130804828245
 30
0.0
 10
102.8536702216824
 20
-117.3130804828245
 30
0.0
 10
102.8536702216824
 20
-117.3130804828245
 30
0.0
 10
102.8578043362647
 20
-117.2686387510648
 30
0.0
 10
102.861938450847
 20
-117.2221299620139
 30
0.0
 10
102.861938450847
 20
-117.2135172233008
 30
0.0
 10
102.861938450847
 20
-117.1332464984945
 30
0.0
 10
102.8664170749778
 20
-116.781846758999
 30
0.0
 10
102.8664170749778
 20
-116.7101887729058
 30
0.0
 10
102.8664170749778
 20
-116.7101887729058
 30
0.0
 10
102.8664170749778
 20
-116.3040120151948
 30
0.0
 10
102.8664170749778
 20
-116.3040120151948
 30
0.0
 10
102.6845160333567
 20
-116.4287244717609
 30
0.0
 10
102.48986813844
 20
-116.5386230177403
 30
0.0
 10
102.2866075048103
 20
-116.6254394239686
 30
0.0
 10
102.2866075048103
 20
-116.6254394239686
 30
0.0
 10
102.0836913807291
 20
-116.4624864075163
 30
0.0
 10
102.0836913807291
 20
-116.4624864075163
 30
0.0
 10
102.206336780004
 20
-116.4266574144697
 30
0.0
 10
102.462307374558
 20
-116.3525878615369
 30
0.0
 10
102.8071614326315
 20
-116.0966172669828
 30
0.0
 10
103.0228244100082
 20
-115.9377983651128
 30
0.0
 10
103.2154052476337
 20
-115.7496961516181
 30
0.0
 10
103.3676784680817
 20
-115.5295545501107
 30
0.0
 10
103.3676784680817
 20
-115.5295545501107
 30
0.0
 10
103.5602593057072
 20
-115.6735595413941
 30
0.0
 10
103.5602593057072
 20
-115.6735595413941
 30
0.0
 10
103.5730061590026
 20
-115.6842393373984
 30
0.0
 10
103.5812743881672
 20
-115.6987087384364
 30
0.0
 10
103.5812743881672
 20
-115.7114555917319
 30
0.0
 10
103.5812743881672
 20
-115.7517632089093
 30
0.0
 10
103.5433783378294
 20
-115.7517632089093
 30
0.0
 10
103.4775770140612
 20
-115.7558973234916
 30
0.0
  0
HATCH
  5
87
330
4E
100
AcDbEntity
  8
_U+30EC_U+30A4_U+30E4_U+30FC 1
 62
   179
420
  2234388
100
AcDbHatch
 10
0.0
 20
0.0
 30
0.0
210
0.0
220
0.0
230
1.0
  2
SOLID
 70
     1
 71
     0
 91
        1
 92
        1
 93
        1
 72
     4
 94
        3
 73
     0
 74
     1
 95
       50
 96
       46
 40
0.0
 40
0.0
 40
0.0
 40
0.0
 40
1.0
 40
1.0
 40
1.0
 40
2.0
 40
2.0
 40
2.0
 40
3.0
 40
3.0
 40
3.0
 40
4.0
 40
4.0
 40
4.0
 40
5.0
 40
5.0
 40
5.0
 40
6.0
 40
6.0
 40
6.0
 40
7.0
 40
7.0
 40
7.0
 40
8.0
 40
8.0
 40
8.0
 40
9.0
 40
9.0
 40
9.0
 40
10.0
 40
10.0
 40
10.0
 40
11.0
 40
11.0
 40
11.0
 40
12.0
 40
12.0
 40
12.0
 40
13.0
 40
13.0
 40
13.0
 40
14.0
 40
14.0
 40
14.0
 40
15.0
 40
15.0
 40
15.0
 40
15.0
 10
103.4775770140612
 20
-115.7558973234916
 10
103.268115208558
 20
-115.9694932435771
 10
103.1964572224648
 20
-116.0414957392188
 10
103.0545192884725
 20
-116.1600070239114
 10
103.0545192884725
 20
-116.1600070239114
 10
103.0545192884725
 20
-116.7270697407835
 10
103.0545192884725
 20
-116.7270697407835
 10
103.0545192884725
 20
-116.8772759039404
 10
103.0610649698945
 20
-116.8962239291093
 10
103.0651990844768
 20
-117.0739908561482
 10
103.0672661417679
 20
-117.2052489941362
 10
103.0734673136414
 20
-117.2538248404782
 10
103.0800129950633
 20
-117.3130804828245
 10
103.0800129950633
 20
-117.3130804828245
 10
102.8536702216824
 20
-117.3130804828245
 10
102.8536702216824
 20
-117.3130804828245
 10
102.8578043362647
 20
-117.2686387510648
 10
102.861938450847
 20
-117.2221299620139
 10
102.861938450847
 20
-117.2135172233008
 10
102.861938450847
 20
-117.1332464984945
 10
102.8664170749778
 20
-116.781846758999
 10
102.8664170749778
 20
-116.7101887729058
 10
102.8664170749778
 20
-116.7101887729058
 10
102.8664170749778
 20
-116.3040120151948
 10
102.8664170749778
 20
-116.3040120151948
 10
102.6845160333567
 20
-116.4287244717609
 10
102.48986813844
 20
-116.5386230177403
 10
102.2866075048103
 20
-116.6254394239686
 10
102.2866075048103
 20
-116.6254394239686
 10
102.0836913807291
 20
-116.4624864075163
 10
102.0836913807291
 20
-116.4624864075163
 10
102.206336780004
 20
-116.4266574144697
 10
102.462307374558
 20
-116.3525878615369
 10
102.8071614326315
 20
-116.0966172669828
 10
103.0228244100082
 20
-115.9377983651128
 10
103.2154052476337
 20
-115.7496961516181
 10
103.3676784680817
 20
-115.5295545501107
 10
103.3676784680817
 20
-115.5295545501107
 10
103.5602593057072
 20
-115.6735595413941
 10
103.5602593057072
 20
-115.6735595413941
 10
103.5730061590026
 20
-115.6842393373984
 10
103.5812743881672
 20
-115.6987087384364
 10
103.5812743881672
 20
-115.7114555917319
 10
103.5812743881672
 20
-115.7517632089093
 10
103.5433783378294
 20
-115.7517632089093
 10
103.4775770140612
 20
-115.7558973234916
 97
        0
 97
        0
 75
     2
 76
     1
 98
        0
  0
SPLINE
  5
88
330
4E
100
AcDbEntity
  8
_U+30EC_U+30A4_U+30E4_U+30FC 1
370
     0
100
AcDbSpline
210
0.0
220
0.0
230
1.0
 70
    11
 71
     3
 72
    50
 73
    46
 74
     0
 42
0.0000000001
 43
0.0000000001
 12
1.0
 22
0.0
 32
0.0
 13
1.0
 23
0.0
 33
0.0
 40
0.0
 40
0.0
 40
0.0
 40
0.0
 40
1.0
 40
1.0
 40
1.0
 40
2.0
 40
2.0
 40
2.0
 40
3.0
 40
3.0
 40
3.0
 40
4.0
 40
4.0
 40
4.0
 40
5.0
 40
5.0
 40
5.0
 40
6.0
 40
6.0
 40
6.0
 40
7.0
 40
7.0
 40
7.0
 40
8.0
 40
8.0
 40
8.0
 40
9.0
 40
9.0
 40
9.0
 40
10.0
 40
10.0
 40
10.0
 40
11.0
 40
11.0
 40
11.0
 40
12.0
 40
12.0
 40
12.0
 40
13.0
 40
13.0
 40
13.0
 40
14.0
 40
14.0
 40
14.0
 40
15.0
 40
15.0
 40
15.0
 40
15.0
 10
105.1859998651966
 20
-116.2826524231863
 30
0.0
 10
105.1246771655591
 20
-116.354654918828
 30
0.0
 10
104.8642279468742
 20
-116.6719482130195
 30
0.0
 10
104.8073838713676
 20
-116.7353379699481
 30
0.0
 10
104.8917887107562
 20
-116.8328341721807
 30
0.0
 10
104.9427761239379
 20
-116.8962239291093
 30
0.0
 10
105.0082329381577
 20
-116.9871744499199
 30
0.0
 10
105.0082329381577
 20
-116.9871744499199
 30
0.0
 10
104.8242648392453
 20
-117.1246337597813
 30
0.0
 10
104.8242648392453
 20
-117.1246337597813
 30
0.0
 10
104.688872586675
 20
-116.913104896987
 30
0.0
 10
104.5173068315096
 20
-116.6888291808972
 30
0.0
 10
104.2234401866178
 20
-116.4900471713983
 30
0.0
 10
104.2234401866178
 20
-116.4900471713983
 30
0.0
 10
104.3715792924835
 20
-116.3357068936591
 30
0.0
 10
104.3715792924835
 20
-116.3357068936591
 30
0.0
 10
104.481477838463
 20
-116.4159776184655
 30
0.0
 10
104.585175212569
 20
-116.5048610819849
 30
0.0
 10
104.682326905253
 20
-116.5999457173778
 30
0.0
 10
104.7501952863125
 20
-116.5238091071538
 30
0.0
 10
104.9531114103937
 20
-116.2805853658951
 30
0.0
 10
105.0864366056728
 20
-116.0521755352231
 30
0.0
 10
105.0864366056728
 20
-116.0521755352231
 30
0.0
 10
104.4136094574036
 20
-116.0521755352231
 30
0.0
 10
104.4136094574036
 20
-116.0521755352231
 30
0.0
 10
104.2888970008375
 20
-116.0521755352231
 30
0.0
 10
104.0370605208657
 20
-116.0607882739362
 30
0.0
 10
103.8275987153626
 20
-116.071123560392
 30
0.0
 10
103.8275987153626
 20
-116.071123560392
 30
0.0
 10
103.8275987153626
 20
-115.851326468433
 30
0.0
 10
103.8275987153626
 20
-115.851326468433
 30
0.0
 10
104.0119113238234
 20
-115.8702744936019
 30
0.0
 10
104.2168945051958
 20
-115.8744086081842
 30
0.0
 10
104.405341228239
 20
-115.8744086081842
 30
0.0
 10
104.405341228239
 20
-115.8744086081842
 30
0.0
 10
104.9086696786339
 20
-115.8744086081842
 30
0.0
 10
104.9086696786339
 20
-115.8744086081842
 30
0.0
 10
105.247322564834
 20
-115.8744086081842
 30
0.0
 10
105.2917642965937
 20
-115.8595946975976
 30
0.0
 10
105.3741020786912
 20
-115.8192870804202
 30
0.0
 10
105.3741020786912
 20
-115.8192870804202
 30
0.0
 10
105.5411892097258
 20
-115.9781059822902
 30
0.0
 10
105.5411892097258
 20
-115.9781059822902
 30
0.0
 10
105.3889159892778
 20
-116.0501084779319
 30
0.0
 10
105.2452555075429
 20
-116.2130614943842
 30
0.0
 10
105.1859998651966
 20
-116.2826524231863
 30
0.0
  0
HATCH
  5
89
330
4E
100
AcDbEntity
  8
_U+30EC_U+30A4_U+30E4_U+30FC 1
 62
   179
420
  2234388
100
AcDbHatch
 10
0.0
 20
0.0
 30
0.0
210
0.0
220
0.0
230
1.0
  2
SOLID
 70
     1
 71
     0
 91
        1
 92
        1
 93
        1
 72
     4
 94
        3
 73
     0
 74
     1
 95
       50
 96
       46
 40
0.0
 40
0.0
 40
0.0
 40
0.0
 40
1.0
 40
1.0
 40
1.0
 40
2.0
 40
2.0
 40
2.0
 40
3.0
 40
3.0
 40
3.0
 40
4.0
 40
4.0
 40
4.0
 40
5.0
 40
5.0
 40
5.0
 40
6.0
 40
6.0
 40
6.0
 40
7.0
 40
7.0
 40
7.0
 40
8.0
 40
8.0
 40
8.0
 40
9.0
 40
9.0
 40
9.0
 40
10.0
 40
10.0
 40
10.0
 40
11.0
 40
11.0
 40
11.0
 40
12.0
 40
12.0
 40
12.0
 40
13.0
 40
13.0
 40
13.0
 40
14.0
 40
14.0
 40
14.0
 40
15.0
 40
15.0
 40
15.0
 40
15.0
 10
105.1859998651966
 20
-116.2826524231863
 10
105.1246771655591
 20
-116.354654918828
 10
104.8642279468742
 20
-116.6719482130195
 10
104.8073838713676
 20
-116.7353379699481
 10
104.8917887107562
 20
-116.8328341721807
 10
104.9427761239379
 20
-116.8962239291093
 10
105.0082329381577
 20
-116.9871744499199
 10
105.0082329381577
 20
-116.9871744499199
 10
104.8242648392453
 20
-117.1246337597813
 10
104.8242648392453
 20
-117.1246337597813
 10
104.688872586675
 20
-116.913104896987
 10
104.5173068315096
 20
-116.6888291808972
 10
104.2234401866178
 20
-116.4900471713983
 10
104.2234401866178
 20
-116.4900471713983
 10
104.3715792924835
 20
-116.3357068936591
 10
104.3715792924835
 20
-116.3357068936591
 10
104.481477838463
 20
-116.4159776184655
 10
104.585175212569
 20
-116.5048610819849
 10
104.682326905253
 20
-116.5999457173778
 10
104.7501952863125
 20
-116.5238091071538
 10
104.9531114103937
 20
-116.2805853658951
 10
105.0864366056728
 20
-116.0521755352231
 10
105.0864366056728
 20
-116.0521755352231
 10
104.4136094574036
 20
-116.0521755352231
 10
104.4136094574036
 20
-116.0521755352231
 10
104.2888970008375
 20
-116.0521755352231
 10
104.0370605208657
 20
-116.0607882739362
 10
103.8275987153626
 20
-116.071123560392
 10
103.8275987153626
 20
-116.071123560392
 10
103.8275987153626
 20
-115.851326468433
 10
103.8275987153626
 20
-115.851326468433
 10
104.0119113238234
 20
-115.8702744936019
 10
104.2168945051958
 20
-115.8744086081842
 10
104.405341228239
 20
-115.8744086081842
 10
104.405341228239
 20
-115.8744086081842
 10
104.9086696786339
 20
-115.8744086081842
 10
104.9086696786339
 20
-115.8744086081842
 10
105.247322564834
 20
-115.8744086081842
 10
105.2917642965937
 20
-115.8595946975976
 10
105.3741020786912
 20
-115.8192870804202
 10
105.3741020786912
 20
-115.8192870804202
 10
105.5411892097258
 20
-115.9781059822902
 10
105.5411892097258
 20
-115.9781059822902
 10
105.3889159892778
 20
-116.0501084779319
 10
105.2452555075429
 20
-116.2130614943842
 10
105.1859998651966
 20
-116.2826524231863
 97
        0
 97
        0
 75
     2
 76
     1
 98
        0
  0
SPLINE
  5
8A
330
4E
100
AcDbEntity
  8
_U+30EC_U+30A4_U+30E4_U+30FC 1
370
     0
100
AcDbSpline
210
0.0
220
0.0
230
1.0
 70
    11
 71
     3
 72
    29
 73
    25
 74
     0
 42
0.0000000001
 43
0.0000000001
 12
1.0
 22
0.0
 32
0.0
 13
1.0
 23
0.0
 33
0.0
 40
0.0
 40
0.0
 40
0.0
 40
0.0
 40
1.0
 40
1.0
 40
1.0
 40
2.0
 40
2.0
 40
2.0
 40
3.0
 40
3.0
 40
3.0
 40
4.0
 40
4.0
 40
4.0
 40
5.0
 40
5.0
 40
5.0
 40
6.0
 40
6.0
 40
6.0
 40
7.0
 40
7.0
 40
7.0
 40
8.0
 40
8.0
 40
8.0
 40
8.0
 10
106.8093288578463
 20
-116.5258761644449
 30
0.0
 10
106.8093288578463
 20
-116.5258761644449
 30
0.0
 10
106.3249484326202
 20
-116.5258761644449
 30
0.0
 10
106.3249484326202
 20
-116.5258761644449
 30
0.0
 10
106.2973876687382
 20
-116.5258761644449
 30
0.0
 10
105.9800943745467
 20
-116.5258761644449
 30
0.0
 10
105.7685655117523
 20
-116.5513698710358
 30
0.0
 10
105.7685655117523
 20
-116.5513698710358
 30
0.0
 10
105.7685655117523
 20
-116.3208929830726
 30
0.0
 10
105.7685655117523
 20
-116.3208929830726
 30
0.0
 10
105.9270399040738
 20
-116.3439751228237
 30
0.0
 10
106.1175536844081
 20
-116.3463866896634
 30
0.0
 10
106.3249484326202
 20
-116.3463866896634
 30
0.0
 10
106.3249484326202
 20
-116.3463866896634
 30
0.0
 10
106.8093288578463
 20
-116.3463866896634
 30
0.0
 10
106.8093288578463
 20
-116.3463866896634
 30
0.0
 10
106.9953640140498
 20
-116.3463866896634
 30
0.0
 10
107.1817436798018
 20
-116.3439751228237
 30
0.0
 10
107.3657117787141
 20
-116.3208929830726
 30
0.0
 10
107.3657117787141
 20
-116.3208929830726
 30
0.0
 10
107.3657117787141
 20
-116.5513698710358
 30
0.0
 10
107.3657117787141
 20
-116.5513698710358
 30
0.0
 10
107.1817436798018
 20
-116.5282877312846
 30
0.0
 10
106.9340413144123
 20
-116.5258761644449
 30
0.0
 10
106.8093288578463
 20
-116.5258761644449
 30
0.0
  0
HATCH
  5
8B
330
4E
100
AcDbEntity
  8
_U+30EC_U+30A4_U+30E4_U+30FC 1
 62
   179
420
  2234388
100
AcDbHatch
 10
0.0
 20
0.0
 30
0.0
210
0.0
220
0.0
230
1.0
  2
SOLID
 70
     1
 71
     0
 91
        1
 92
        1
 93
        1
 72
     4
 94
        3
 73
     0
 74
     1
 95
       29
 96
       25
 40
0.0
 40
0.0
 40
0.0
 40
0.0
 40
1.0
 40
1.0
 40
1.0
 40
2.0
 40
2.0
 40
2.0
 40
3.0
 40
3.0
 40
3.0
 40
4.0
 40
4.0
 40
4.0
 40
5.0
 40
5.0
 40
5.0
 40
6.0
 40
6.0
 40
6.0
 40
7.0
 40
7.0
 40
7.0
 40
8.0
 40
8.0
 40
8.0
 40
8.0
 10
106.8093288578463
 20
-116.5258761644449
 10
106.8093288578463
 20
-116.5258761644449
 10
106.3249484326202
 20
-116.5258761644449
 10
106.3249484326202
 20
-116.5258761644449
 10
106.2973876687382
 20
-116.5258761644449
 10
105.9800943745467
 20
-116.5258761644449
 10
105.7685655117523
 20
-116.5513698710358
 10
105.7685655117523
 20
-116.5513698710358
 10
105.7685655117523
 20
-116.3208929830726
 10
105.7685655117523
 20
-116.3208929830726
 10
105.9270399040738
 20
-116.3439751228237
 10
106.1175536844081
 20
-116.3463866896634
 10
106.3249484326202
 20
-116.3463866896634
 10
106.3249484326202
 20
-116.3463866896634
 10
106.8093288578463
 20
-116.3463866896634
 10
106.8093288578463
 20
-116.3463866896634
 10
106.9953640140498
 20
-116.3463866896634
 10
107.1817436798018
 20
-116.3439751228237
 10
107.3657117787141
 20
-116.3208929830726
 10
107.3657117787141
 20
-116.3208929830726
 10
107.3657117787141
 20
-116.5513698710358
 10
107.3657117787141
 20
-116.5513698710358
 10
107.1817436798018
 20
-116.5282877312846
 10
106.9340413144123
 20
-116.5258761644449
 10
106.8093288578463
 20
-116.5258761644449
 97
        0
 97
        0
 75
     2
 76
     1
 98
        0
  0
ENDBLK
  5
51
330
4E
100
AcDbEntity
  8
0
100
AcDbBlockEnd
  0
BLOCK
  5
C7
330
C5
100
AcDbEntity
  8
0
100
AcDbBlockBegin
  2
block 3
 70
     0
 10
0.0
 20
0.0
 30
0.0
  3
block 3
  1

  0
SPLINE
  5
C9
330
C5
100
AcDbEntity
  8
_U+30EC_U+30A4_U+30E4_U+30FC 1
370
     0
100
AcDbSpline
210
0.0
220
0.0
230
1.0
 70
    11
 71
     3
 72
    26
 73
    22
 74
     0
 42
0.0000000001
 43
0.0000000001
 12
1.0
 22
0.0
 32
0.0
 13
1.0
 23
0.0
 33
0.0
 40
0.0
 40
0.0
 40
0.0
 40
0.0
 40
1.0
 40
1.0
 40
1.0
 40
2.0
 40
2.0
 40
2.0
 40
3.0
 40
3.0
 40
3.0
 40
4.0
 40
4.0
 40
4.0
 40
5.0
 40
5.0
 40
5.0
 40
6.0
 40
6.0
 40
6.0
 40
7.0
 40
7.0
 40
7.0
 40
7.0
 10
84.5578016281661
 20
-123.8561780831853
 30
0.0
 10
84.5578016281661
 20
-123.8561780831853
 30
0.0
 10
84.5578016281661
 20
-122.7518527253884
 30
0.0
 10
84.5578016281661
 20
-122.7518527253884
 30
0.0
 10
84.5578016281661
 20
-122.7518527253884
 30
0.0
 10
84.20502385047652
 20
-122.7518527253884
 30
0.0
 10
84.20502385047652
 20
-122.7518527253884
 30
0.0
 10
84.20502385047652
 20
-122.7518527253884
 30
0.0
 10
84.20502385047652
 20
-122.6037136195227
 30
0.0
 10
84.20502385047652
 20
-122.6037136195227
 30
0.0
 10
84.56004094023152
 20
-122.5890719637104
 30
0.0
 10
84.60982256999338
 20
-122.4261189472581
 30
0.0
 10
84.64151744845768
 20
-122.311914031922
 30
0.0
 10
84.64151744845768
 20
-122.311914031922
 30
0.0
 10
84.79740801916523
 20
-122.311914031922
 30
0.0
 10
84.79740801916523
 20
-122.311914031922
 30
0.0
 10
84.79740801916523
 20
-122.311914031922
 30
0.0
 10
84.79740801916523
 20
-123.8561780831853
 30
0.0
 10
84.79740801916523
 20
-123.8561780831853
 30
0.0
 10
84.79740801916523
 20
-123.8561780831853
 30
0.0
 10
84.5578016281661
 20
-123.8561780831853
 30
0.0
 10
84.5578016281661
 20
-123.8561780831853
 30
0.0
  0
HATCH
  5
CA
330
C5
100
AcDbEntity
  8
_U+30EC_U+30A4_U+30E4_U+30FC 1
 62
     7
420
 16777215
100
AcDbHatch
 10
0.0
 20
0.0
 30
0.0
210
0.0
220
0.0
230
1.0
  2
SOLID
 70
     1
 71
     0
 91
        1
 92
        1
 93
        1
 72
     4
 94
        3
 73
     0
 74
     1
 95
       26
 96
       22
 40
0.0
 40
0.0
 40
0.0
 40
0.0
 40
1.0
 40
1.0
 40
1.0
 40
2.0
 40
2.0
 40
2.0
 40
3.0
 40
3.0
 40
3.0
 40
4.0
 40
4.0
 40
4.0
 40
5.0
 40
5.0
 40
5.0
 40
6.0
 40
6.0
 40
6.0
 40
7.0
 40
7.0
 40
7.0
 40
7.0
 10
84.5578016281661
 20
-123.8561780831853
 10
84.5578016281661
 20
-123.8561780831853
 10
84.5578016281661
 20
-122.7518527253884
 10
84.5578016281661
 20
-122.7518527253884
 10
84.5578016281661
 20
-122.7518527253884
 10
84.20502385047652
 20
-122.7518527253884
 10
84.20502385047652
 20
-122.7518527253884
 10
84.20502385047652
 20
-122.7518527253884
 10
84.20502385047652
 20
-122.6037136195227
 10
84.20502385047652
 20
-122.6037136195227
 10
84.56004094023152
 20
-122.5890719637104
 10
84.60982256999338
 20
-122.4261189472581
 10
84.64151744845768
 20
-122.311914031922
 10
84.64151744845768
 20
-122.311914031922
 10
84.79740801916523
 20
-122.311914031922
 10
84.79740801916523
 20
-122.311914031922
 10
84.79740801916523
 20
-122.311914031922
 10
84.79740801916523
 20
-123.8561780831853
 10
84.79740801916523
 20
-123.8561780831853
 10
84.79740801916523
 20
-123.8561780831853
 10
84.5578016281661
 20
-123.8561780831853
 10
84.5578016281661
 20
-123.8561780831853
 97
        0
 97
        0
 75
     2
 76
     1
 98
        0
  0
ENDBLK
  5
C8
330
C5
100
AcDbEntity
  8
0
100
AcDbBlockEnd
  0
BLOCK
  5
D9
330
D7
100
AcDbEntity
  8
0
100
AcDbBlockBegin
  2
block 4
 70
     0
 10
0.0
 20
0.0
 30
0.0
  3
block 4
  1

  0
SPLINE
  5
DB
330
D7
100
AcDbEntity
  8
_U+30EC_U+30A4_U+30E4_U+30FC 1
370
     0
100
AcDbSpline
210
0.0
220
0.0
230
1.0
 70
    11
 71
     3
 72
    26
 73
    22
 74
     0
 42
0.0000000001
 43
0.0000000001
 12
1.0
 22
0.0
 32
0.0
 13
1.0
 23
0.0
 33
0.0
 40
0.0
 40
0.0
 40
0.0
 40
0.0
 40
1.0
 40
1.0
 40
1.0
 40
2.0
 40
2.0
 40
2.0
 40
3.0
 40
3.0
 40
3.0
 40
4.0
 40
4.0
 40
4.0
 40
5.0
 40
5.0
 40
5.0
 40
6.0
 40
6.0
 40
6.0
 40
7.0
 40
7.0
 40
7.0
 40
7.0
 10
86.88582490232369
 20
-139.9749185847979
 30
0.0
 10
86.88582490232369
 20
-139.9749185847979
 30
0.0
 10
86.88582490232369
 20
-138.8707654817754
 30
0.0
 10
86.88582490232369
 20
-138.8707654817754
 30
0.0
 10
86.88582490232369
 20
-138.8707654817754
 30
0.0
 10
86.53339163418264
 20
-138.8707654817754
 30
0.0
 10
86.53339163418264
 20
-138.8707654817754
 30
0.0
 10
86.53339163418264
 20
-138.8707654817754
 30
0.0
 10
86.53339163418264
 20
-138.7226263759096
 30
0.0
 10
86.53339163418264
 20
-138.7226263759096
 30
0.0
 10
86.88823646916336
 20
-138.7078124653231
 30
0.0
 10
86.93784584415096
 20
-138.5448594488707
 30
0.0
 10
86.96954072261526
 20
-138.4304822787605
 30
0.0
 10
86.96954072261526
 20
-138.4304822787605
 30
0.0
 10
87.12560354809708
 20
-138.4304822787605
 30
0.0
 10
87.12560354809708
 20
-138.4304822787605
 30
0.0
 10
87.12560354809708
 20
-138.4304822787605
 30
0.0
 10
87.12560354809708
 20
-139.9749185847979
 30
0.0
 10
87.12560354809708
 20
-139.9749185847979
 30
0.0
 10
87.12560354809708
 20
-139.9749185847979
 30
0.0
 10
86.88582490232369
 20
-139.9749185847979
 30
0.0
 10
86.88582490232369
 20
-139.9749185847979
 30
0.0
  0
HATCH
  5
DC
330
D7
100
AcDbEntity
  8
_U+30EC_U+30A4_U+30E4_U+30FC 1
 62
     7
420
 16777215
100
AcDbHatch
 10
0.0
 20
0.0
 30
0.0
210
0.0
220
0.0
230
1.0
  2
SOLID
 70
     1
 71
     0
 91
        1
 92
        1
 93
        1
 72
     4
 94
        3
 73
     0
 74
     1
 95
       26
 96
       22
 40
0.0
 40
0.0
 40
0.0
 40
0.0
 40
1.0
 40
1.0
 40
1.0
 40
2.0
 40
2.0
 40
2.0
 40
3.0
 40
3.0
 40
3.0
 40
4.0
 40
4.0
 40
4.0
 40
5.0
 40
5.0
 40
5.0
 40
6.0
 40
6.0
 40
6.0
 40
7.0
 40
7.0
 40
7.0
 40
7.0
 10
86.88582490232369
 20
-139.9749185847979
 10
86.88582490232369
 20
-139.9749185847979
 10
86.88582490232369
 20
-138.8707654817754
 10
86.88582490232369
 20
-138.8707654817754
 10
86.88582490232369
 20
-138.8707654817754
 10
86.53339163418264
 20
-138.8707654817754
 10
86.53339163418264
 20
-138.8707654817754
 10
86.53339163418264
 20
-138.8707654817754
 10
86.53339163418264
 20
-138.7226263759096
 10
86.53339163418264
 20
-138.7226263759096
 10
86.88823646916336
 20
-138.7078124653231
 10
86.93784584415096
 20
-138.5448594488707
 10
86.96954072261526
 20
-138.4304822787605
 10
86.96954072261526
 20
-138.4304822787605
 10
87.12560354809708
 20
-138.4304822787605
 10
87.12560354809708
 20
-138.4304822787605
 10
87.12560354809708
 20
-138.4304822787605
 10
87.12560354809708
 20
-139.9749185847979
 10
87.12560354809708
 20
-139.9749185847979
 10
87.12560354809708
 20
-139.9749185847979
 10
86.88582490232369
 20
-139.9749185847979
 10
86.88582490232369
 20
-139.9749185847979
 97
        0
 97
        0
 75
     2
 76
     1
 98
        0
  0
POLYLINE
  5
DD
330
D7
100
AcDbEntity
  8
_U+30EC_U+30A4_U+30E4_U+30FC 1
370
     0
100
AcDb2dPolyline
 66
     1
 10
0.0
 20
0.0
 30
0.0
  0
VERTEX
  5
DE
330
DD
100
AcDbEntity
  8
_U+30EC_U+30A4_U+30E4_U+30FC 1
370
     0
100
AcDbVertex
100
AcDb2dVertex
 10
88.55083955034493
 20
-139.6279974694333
 30
0.0
  0
VERTEX
  5
DF
330
DD
100
AcDbEntity
  8
_U+30EC_U+30A4_U+30E4_U+30FC 1
370
     0
100
AcDbVertex
100
AcDb2dVertex
 10
88.55083955034493
 20
-139.9749185847979
 30
0.0
  0
VERTEX
  5
E0
330
DD
100
AcDbEntity
  8
_U+30EC_U+30A4_U+30E4_U+30FC 1
370
     0
100
AcDbVertex
100
AcDb2dVertex
 10
88.31795109554204
 20
-139.9749185847979
 30
0.0
  0
VERTEX
  5
E1
330
DD
100
AcDbEntity
  8
_U+30EC_U+30A4_U+30E4_U+30FC 1
370
     0
100
AcDbVertex
100
AcDb2dVertex
 10
88.31795109554204
 20
-139.6279974694333
 30
0.0
  0
VERTEX
  5
E2
330
DD
100
AcDbEntity
  8
_U+30EC_U+30A4_U+30E4_U+30FC 1
370
     0
100
AcDbVertex
100
AcDb2dVertex
 10
87.6168741642937
 20
-139.6279974694333
 30
0.0
  0
VERTEX
  5
E3
330
DD
100
AcDbEntity
  8
_U+30EC_U+30A4_U+30E4_U+30FC 1
370
     0
100
AcDbVertex
100
AcDb2dVertex
 10
87.6168741642937
 20
-139.4037217533435
 30
0.0
  0
VERTEX
  5
E4
330
DD
100
AcDbEntity
  8
_U+30EC_U+30A4_U+30E4_U+30FC 1
370
     0
100
AcDbVertex
100
AcDb2dVertex
 10
88.34275578303584
 20
-138.4304822787605
 30
0.0
  0
VERTEX
  5
E5
330
DD
100
AcDbEntity
  8
_U+30EC_U+30A4_U+30E4_U+30FC 1
370
     0
100
AcDbVertex
100
AcDb2dVertex
 10
88.55083955034493
 20
-138.4304822787605
 30
0.0
  0
VERTEX
  5
E6
330
DD
100
AcDbEntity
  8
_U+30EC_U+30A4_U+30E4_U+30FC 1
370
     0
100
AcDbVertex
100
AcDb2dVertex
 10
88.55083955034493
 20
-139.4292154599344
 30
0.0
  0
VERTEX
  5
E7
330
DD
100
AcDbEntity
  8
_U+30EC_U+30A4_U+30E4_U+30FC 1
370
     0
100
AcDbVertex
100
AcDb2dVertex
 10
88.7723591900465
 20
-139.4292154599344
 30
0.0
  0
VERTEX
  5
E8
330
DD
100
AcDbEntity
  8
_U+30EC_U+30A4_U+30E4_U+30FC 1
370
     0
100
AcDbVertex
100
AcDb2dVertex
 10
88.7723591900465
 20
-139.6279974694333
 30
0.0
  0
VERTEX
  5
E9
330
DD
100
AcDbEntity
  8
_U+30EC_U+30A4_U+30E4_U+30FC 1
370
     0
100
AcDbVertex
100
AcDb2dVertex
 10
88.55083955034493
 20
-139.6279974694333
 30
0.0
  0
SEQEND
  5
EA
330
DD
100
AcDbEntity
  8
_U+30EC_U+30A4_U+30E4_U+30FC 1
370
     0
  0
POLYLINE
  5
EB
330
D7
100
AcDbEntity
  8
_U+30EC_U+30A4_U+30E4_U+30FC 1
370
     0
100
AcDb2dPolyline
 66
     1
 10
0.0
 20
0.0
 30
0.0
  0
VERTEX
  5
EC
330
EB
100
AcDbEntity
  8
_U+30EC_U+30A4_U+30E4_U+30FC 1
370
     0
100
AcDbVertex
100
AcDb2dVertex
 10
88.31795109554204
 20
-138.7732692795428
 30
0.0
  0
VERTEX
  5
ED
330
EB
100
AcDbEntity
  8
_U+30EC_U+30A4_U+30E4_U+30FC 1
370
     0
100
AcDbVertex
100
AcDb2dVertex
 10
87.82943655573362
 20
-139.4292154599344
 30
0.0
  0
VERTEX
  5
EE
330
EB
100
AcDbEntity
  8
_U+30EC_U+30A4_U+30E4_U+30FC 1
370
     0
100
AcDbVertex
100
AcDb2dVertex
 10
88.31795109554204
 20
-139.4292154599344
 30
0.0
  0
VERTEX
  5
EF
330
EB
100
AcDbEntity
  8
_U+30EC_U+30A4_U+30E4_U+30FC 1
370
     0
100
AcDbVertex
100
AcDb2dVertex
 10
88.31795109554204
 20
-138.7732692795428
 30
0.0
  0
SEQEND
  5
F0
330
EB
100
AcDbEntity
  8
_U+30EC_U+30A4_U+30E4_U+30FC 1
370
     0
  0
HATCH
  5
F1
330
D7
100
AcDbEntity
  8
_U+30EC_U+30A4_U+30E4_U+30FC 1
 62
     7
420
 16777215
100
AcDbHatch
 10
0.0
 20
0.0
 30
0.0
210
0.0
220
0.0
230
1.0
  2
SOLID
 70
     1
 71
     0
 91
        2
 92
        1
 93
       11
 72
     1
 10
88.55083955034493
 20
-139.6279974694333
 11
88.55083955034493
 21
-139.9749185847979
 72
     1
 10
88.55083955034493
 20
-139.9749185847979
 11
88.31795109554204
 21
-139.9749185847979
 72
     1
 10
88.31795109554204
 20
-139.9749185847979
 11
88.31795109554204
 21
-139.6279974694333
 72
     1
 10
88.31795109554204
 20
-139.6279974694333
 11
87.6168741642937
 21
-139.6279974694333
 72
     1
 10
87.6168741642937
 20
-139.6279974694333
 11
87.6168741642937
 21
-139.4037217533435
 72
     1
 10
87.6168741642937
 20
-139.4037217533435
 11
88.34275578303584
 21
-138.4304822787605
 72
     1
 10
88.34275578303584
 20
-138.4304822787605
 11
88.55083955034493
 21
-138.4304822787605
 72
     1
 10
88.55083955034493
 20
-138.4304822787605
 11
88.55083955034493
 21
-139.4292154599344
 72
     1
 10
88.55083955034493
 20
-139.4292154599344
 11
88.7723591900465
 21
-139.4292154599344
 72
     1
 10
88.7723591900465
 20
-139.4292154599344
 11
88.7723591900465
 21
-139.6279974694333
 72
     1
 10
88.7723591900465
 20
-139.6279974694333
 11
88.55083955034493
 21
-139.6279974694333
 97
        0
 92
        1
 93
        3
 72
     1
 10
88.31795109554204
 20
-138.7732692795428
 11
87.82943655573362
 21
-139.4292154599344
 72
     1
 10
87.82943655573362
 20
-139.4292154599344
 11
88.31795109554204
 21
-139.4292154599344
 72
     1
 10
88.31795109554204
 20
-139.4292154599344
 11
88.31795109554204
 21
-138.7732692795428
 97
        0
 75
     2
 76
     1
 98
        0
  0
ENDBLK
  5
DA
330
D7
100
AcDbEntity
  8
0
100
AcDbBlockEnd
  0
BLOCK
  5
102
330
100
100
AcDbEntity
  8
0
100
AcDbBlockBegin
  2
block 5
 70
     0
 10
0.0
 20
0.0
 30
0.0
  3
block 5
  1

  0
SPLINE
  5
104
330
100
100
AcDbEntity
  8
_U+30EC_U+30A4_U+30E4_U+30FC 1
370
     0
100
AcDbSpline
210
0.0
220
0.0
230
1.0
 70
    11
 71
     3
 72
    32
 73
    28
 74
     0
 42
0.0000000001
 43
0.0000000001
 12
1.0
 22
0.0
 32
0.0
 13
1.0
 23
0.0
 33
0.0
 40
0.0
 40
0.0
 40
0.0
 40
0.0
 40
1.0
 40
1.0
 40
1.0
 40
2.0
 40
2.0
 40
2.0
 40
3.0
 40
3.0
 40
3.0
 40
4.0
 40
4.0
 40
4.0
 40
5.0
 40
5.0
 40
5.0
 40
6.0
 40
6.0
 40
6.0
 40
7.0
 40
7.0
 40
7.0
 40
8.0
 40
8.0
 40
8.0
 40
9.0
 40
9.0
 40
9.0
 40
9.0
 10
84.6713175244051
 20
-117.50566132045
 30
0.0
 10
84.11975773721659
 20
-117.50566132045
 30
0.0
 10
84.11080048895494
 20
-116.9516899664218
 30
0.0
 10
84.11080048895494
 20
-116.7377495367878
 30
0.0
 10
84.11080048895494
 20
-116.5072726488246
 30
0.0
 10
84.13112655231792
 20
-115.8599392071461
 30
0.0
 10
84.71231416067957
 20
-115.8599392071461
 30
0.0
 10
84.897660297786
 20
-115.8599392071461
 30
0.0
 10
85.15983206421352
 20
-115.9298746454967
 30
0.0
 10
85.20048419093946
 20
-116.2619818502748
 30
0.0
 10
85.20048419093946
 20
-116.2619818502748
 30
0.0
 10
84.9720743602674
 20
-116.2619818502748
 30
0.0
 10
84.9720743602674
 20
-116.2619818502748
 30
0.0
 10
84.96070554516608
 20
-116.2047932652196
 30
0.0
 10
84.92694360941063
 20
-116.0566541593539
 30
0.0
 10
84.70990259383989
 20
-116.0566541593539
 30
0.0
 10
84.39777694287625
 20
-116.0566541593539
 30
0.0
 10
84.35505775885916
 20
-116.3846272495497
 30
0.0
 10
84.34127737691816
 20
-116.5896104309221
 30
0.0
 10
84.44084063644188
 20
-116.5114067634069
 30
0.0
 10
84.51318764163213
 20
-116.4521511210606
 30
0.0
 10
84.70783553654874
 20
-116.4521511210606
 30
0.0
 10
84.89972735507716
 20
-116.4521511210606
 30
0.0
 10
85.22322182114212
 20
-116.5603271192974
 30
0.0
 10
85.22322182114212
 20
-116.9665038770084
 30
0.0
 10
85.22322182114212
 20
-117.285864228491
 30
0.0
 10
85.0106594297022
 20
-117.50566132045
 30
0.0
 10
84.6713175244051
 20
-117.50566132045
 30
0.0
  0
SPLINE
  5
105
330
100
100
AcDbEntity
  8
_U+30EC_U+30A4_U+30E4_U+30FC 1
370
     0
100
AcDbSpline
210
0.0
220
0.0
230
1.0
 70
    11
 71
     3
 72
    17
 73
    13
 74
     0
 42
0.0000000001
 43
0.0000000001
 12
1.0
 22
0.0
 32
0.0
 13
1.0
 23
0.0
 33
0.0
 40
0.0
 40
0.0
 40
0.0
 40
0.0
 40
1.0
 40
1.0
 40
1.0
 40
2.0
 40
2.0
 40
2.0
 40
3.0
 40
3.0
 40
3.0
 40
4.0
 40
4.0
 40
4.0
 40
4.0
 10
84.68957653047691
 20
-116.6467990159772
 30
0.0
 10
84.40914575797758
 20
-116.6467990159772
 30
0.0
 10
84.36849363125162
 20
-116.8583278787715
 30
0.0
 10
84.36849363125162
 20
-116.974772106173
 30
0.0
 10
84.36849363125162
 20
-117.1504719759207
 30
0.0
 10
84.4701239480665
 20
-117.313424992373
 30
0.0
 10
84.66683890027427
 20
-117.313424992373
 30
0.0
 10
84.79568547142262
 20
-117.313424992373
 30
0.0
 10
84.98344317536872
 20
-117.2541693500267
 30
0.0
 10
84.98344317536872
 20
-116.9685709342995
 30
0.0
 10
84.98344317536872
 20
-116.7442952182098
 30
0.0
 10
84.8342705408574
 20
-116.6467990159772
 30
0.0
 10
84.68957653047691
 20
-116.6467990159772
 30
0.0
  0
HATCH
  5
106
330
100
100
AcDbEntity
  8
_U+30EC_U+30A4_U+30E4_U+30FC 1
 62
     7
420
 16777215
100
AcDbHatch
 10
0.0
 20
0.0
 30
0.0
210
0.0
220
0.0
230
1.0
  2
SOLID
 70
     1
 71
     0
 91
        2
 92
        1
 93
        1
 72
     4
 94
        3
 73
     0
 74
     1
 95
       32
 96
       28
 40
0.0
 40
0.0
 40
0.0
 40
0.0
 40
1.0
 40
1.0
 40
1.0
 40
2.0
 40
2.0
 40
2.0
 40
3.0
 40
3.0
 40
3.0
 40
4.0
 40
4.0
 40
4.0
 40
5.0
 40
5.0
 40
5.0
 40
6.0
 40
6.0
 40
6.0
 40
7.0
 40
7.0
 40
7.0
 40
8.0
 40
8.0
 40
8.0
 40
9.0
 40
9.0
 40
9.0
 40
9.0
 10
84.6713175244051
 20
-117.50566132045
 10
84.11975773721659
 20
-117.50566132045
 10
84.11080048895494
 20
-116.9516899664218
 10
84.11080048895494
 20
-116.7377495367878
 10
84.11080048895494
 20
-116.5072726488246
 10
84.13112655231792
 20
-115.8599392071461
 10
84.71231416067957
 20
-115.8599392071461
 10
84.897660297786
 20
-115.8599392071461
 10
85.15983206421352
 20
-115.9298746454967
 10
85.20048419093946
 20
-116.2619818502748
 10
85.20048419093946
 20
-116.2619818502748
 10
84.9720743602674
 20
-116.2619818502748
 10
84.9720743602674
 20
-116.2619818502748
 10
84.96070554516608
 20
-116.2047932652196
 10
84.92694360941063
 20
-116.0566541593539
 10
84.70990259383989
 20
-116.0566541593539
 10
84.39777694287625
 20
-116.0566541593539
 10
84.35505775885916
 20
-116.3846272495497
 10
84.34127737691816
 20
-116.5896104309221
 10
84.44084063644188
 20
-116.5114067634069
 10
84.51318764163213
 20
-116.4521511210606
 10
84.70783553654874
 20
-116.4521511210606
 10
84.89972735507716
 20
-116.4521511210606
 10
85.22322182114212
 20
-116.5603271192974
 10
85.22322182114212
 20
-116.9665038770084
 10
85.22322182114212
 20
-117.285864228491
 10
85.0106594297022
 20
-117.50566132045
 10
84.6713175244051
 20
-117.50566132045
 97
        0
 97
        0
 92
        1
 93
        1
 72
     4
 94
        3
 73
     0
 74
     1
 95
       17
 96
       13
 40
0.0
 40
0.0
 40
0.0
 40
0.0
 40
1.0
 40
1.0
 40
1.0
 40
2.0
 40
2.0
 40
2.0
 40
3.0
 40
3.0
 40
3.0
 40
4.0
 40
4.0
 40
4.0
 40
4.0
 10
84.68957653047691
 20
-116.6467990159772
 10
84.40914575797758
 20
-116.6467990159772
 10
84.36849363125162
 20
-116.8583278787715
 10
84.36849363125162
 20
-116.974772106173
 10
84.36849363125162
 20
-117.1504719759207
 10
84.4701239480665
 20
-117.313424992373
 10
84.66683890027427
 20
-117.313424992373
 10
84.79568547142262
 20
-117.313424992373
 10
84.98344317536872
 20
-117.2541693500267
 10
84.98344317536872
 20
-116.9685709342995
 10
84.98344317536872
 20
-116.7442952182098
 10
84.8342705408574
 20
-116.6467990159772
 10
84.68957653047691
 20
-116.6467990159772
 97
        0
 97
        0
 75
     2
 76
     1
 98
        0
  0
ENDBLK
  5
103
330
100
100
AcDbEntity
  8
0
100
AcDbBlockEnd
  0
BLOCK
  5
115
330
113
100
AcDbEntity
  8
0
100
AcDbBlockBegin
  2
block 6
 70
     0
 10
0.0
 20
0.0
 30
0.0
  3
block 6
  1

  0
SPLINE
  5
117
330
113
100
AcDbEntity
  8
_U+30EC_U+30A4_U+30E4_U+30FC 1
370
     0
100
AcDbSpline
210
0.0
220
0.0
230
1.0
 70
    11
 71
     3
 72
    26
 73
    22
 74
     0
 42
0.0000000001
 43
0.0000000001
 12
1.0
 22
0.0
 32
0.0
 13
1.0
 23
0.0
 33
0.0
 40
0.0
 40
0.0
 40
0.0
 40
0.0
 40
1.0
 40
1.0
 40
1.0
 40
2.0
 40
2.0
 40
2.0
 40
3.0
 40
3.0
 40
3.0
 40
4.0
 40
4.0
 40
4.0
 40
5.0
 40
5.0
 40
5.0
 40
6.0
 40
6.0
 40
6.0
 40
7.0
 40
7.0
 40
7.0
 40
7.0
 10
75.97072887640662
 20
-129.8990478190877
 30
0.0
 10
75.97072887640662
 20
-129.8990478190877
 30
0.0
 10
74.86640351860979
 20
-129.8990478190877
 30
0.0
 10
74.86640351860979
 20
-129.8990478190877
 30
0.0
 10
74.86640351860979
 20
-129.8990478190877
 30
0.0
 10
74.86640351860979
 20
-130.2518255967773
 30
0.0
 10
74.86640351860979
 20
-130.2518255967773
 30
0.0
 10
74.86640351860979
 20
-130.2518255967773
 30
0.0
 10
74.71826441274405
 20
-130.2518255967773
 30
0.0
 10
74.71826441274405
 20
-130.2518255967773
 30
0.0
 10
74.70362275693174
 20
-129.8966362522481
 30
0.0
 10
74.54066974047942
 20
-129.8470268772605
 30
0.0
 10
74.42646482514338
 20
-129.8153319987962
 30
0.0
 10
74.42646482514338
 20
-129.8153319987962
 30
0.0
 10
74.42646482514338
 20
-129.6592691733144
 30
0.0
 10
74.42646482514338
 20
-129.6592691733144
 30
0.0
 10
74.42646482514338
 20
-129.6592691733144
 30
0.0
 10
75.97072887640662
 20
-129.6592691733144
 30
0.0
 10
75.97072887640662
 20
-129.6592691733144
 30
0.0
 10
75.97072887640662
 20
-129.6592691733144
 30
0.0
 10
75.97072887640662
 20
-129.8990478190877
 30
0.0
 10
75.97072887640662
 20
-129.8990478190877
 30
0.0
  0
HATCH
  5
118
330
113
100
AcDbEntity
  8
_U+30EC_U+30A4_U+30E4_U+30FC 1
 62
     7
420
 16777215
100
AcDbHatch
 10
0.0
 20
0.0
 30
0.0
210
0.0
220
0.0
230
1.0
  2
SOLID
 70
     1
 71
     0
 91
        1
 92
        1
 93
        1
 72
     4
 94
        3
 73
     0
 74
     1
 95
       26
 96
       22
 40
0.0
 40
0.0
 40
0.0
 40
0.0
 40
1.0
 40
1.0
 40
1.0
 40
2.0
 40
2.0
 40
2.0
 40
3.0
 40
3.0
 40
3.0
 40
4.0
 40
4.0
 40
4.0
 40
5.0
 40
5.0
 40
5.0
 40
6.0
 40
6.0
 40
6.0
 40
7.0
 40
7.0
 40
7.0
 40
7.0
 10
75.97072887640662
 20
-129.8990478190877
 10
75.97072887640662
 20
-129.8990478190877
 10
74.86640351860979
 20
-129.8990478190877
 10
74.86640351860979
 20
-129.8990478190877
 10
74.86640351860979
 20
-129.8990478190877
 10
74.86640351860979
 20
-130.2518255967773
 10
74.86640351860979
 20
-130.2518255967773
 10
74.86640351860979
 20
-130.2518255967773
 10
74.71826441274405
 20
-130.2518255967773
 10
74.71826441274405
 20
-130.2518255967773
 10
74.70362275693174
 20
-129.8966362522481
 10
74.54066974047942
 20
-129.8470268772605
 10
74.42646482514338
 20
-129.8153319987962
 10
74.42646482514338
 20
-129.8153319987962
 10
74.42646482514338
 20
-129.6592691733144
 10
74.42646482514338
 20
-129.6592691733144
 10
74.42646482514338
 20
-129.6592691733144
 10
75.97072887640662
 20
-129.6592691733144
 10
75.97072887640662
 20
-129.6592691733144
 10
75.97072887640662
 20
-129.6592691733144
 10
75.97072887640662
 20
-129.8990478190877
 10
75.97072887640662
 20
-129.8990478190877
 97
        0
 97
        0
 75
     2
 76
     1
 98
        0
  0
SPLINE
  5
119
330
113
100
AcDbEntity
  8
_U+30EC_U+30A4_U+30E4_U+30FC 1
370
     0
100
AcDbSpline
210
0.0
220
0.0
230
1.0
 70
    11
 71
     3
 72
    32
 73
    28
 74
     0
 42
0.0000000001
 43
0.0000000001
 12
1.0
 22
0.0
 32
0.0
 13
1.0
 23
0.0
 33
0.0
 40
0.0
 40
0.0
 40
0.0
 40
0.0
 40
1.0
 40
1.0
 40
1.0
 40
2.0
 40
2.0
 40
2.0
 40
3.0
 40
3.0
 40
3.0
 40
4.0
 40
4.0
 40
4.0
 40
5.0
 40
5.0
 40
5.0
 40
6.0
 40
6.0
 40
6.0
 40
7.0
 40
7.0
 40
7.0
 40
8.0
 40
8.0
 40
8.0
 40
9.0
 40
9.0
 40
9.0
 40
9.0
 10
76.02154403481406
 20
-128.5847438914649
 30
0.0
 10
76.02154403481406
 20
-129.1363036786534
 30
0.0
 10
75.46722817123737
 20
-129.1452609269151
 30
0.0
 10
75.25363225115187
 20
-129.1452609269151
 30
0.0
 10
75.0229831084144
 20
-129.1452609269151
 30
0.0
 10
74.37564966673595
 20
-129.1249348635521
 30
0.0
 10
74.37564966673595
 20
-128.544091764739
 30
0.0
 10
74.37564966673595
 20
-128.3587456276325
 30
0.0
 10
74.44541285031227
 20
-128.0964016064308
 30
0.0
 10
74.77752005509035
 20
-128.0557494797048
 30
0.0
 10
74.77752005509035
 20
-128.0557494797048
 30
0.0
 10
74.77752005509035
 20
-128.2839870556026
 30
0.0
 10
74.77752005509035
 20
-128.2839870556026
 30
0.0
 10
74.72050372480946
 20
-128.295355870704
 30
0.0
 10
74.57236461894372
 20
-128.3292900612336
 30
0.0
 10
74.57236461894372
 20
-128.5463310768044
 30
0.0
 10
74.57236461894372
 20
-128.8582844729938
 30
0.0
 10
74.9003377091395
 20
-128.9013481665594
 30
0.0
 10
75.10549314528613
 20
-128.9147840389519
 30
0.0
 10
75.02728947777096
 20
-128.8152207794281
 30
0.0
 10
74.96803383542466
 20
-128.7430460290122
 30
0.0
 10
74.96803383542466
 20
-128.5485703888698
 30
0.0
 10
74.96803383542466
 20
-128.3563340607929
 30
0.0
 10
75.07586532411298
 20
-128.0331841042764
 30
0.0
 10
75.48204208182393
 20
-128.0331841042764
 30
0.0
 10
75.80140243330659
 20
-128.0331841042764
 30
0.0
 10
76.02154403481406
 20
-128.2455742409421
 30
0.0
 10
76.02154403481406
 20
-128.5847438914649
 30
0.0
  0
SPLINE
  5
11A
330
113
100
AcDbEntity
  8
_U+30EC_U+30A4_U+30E4_U+30FC 1
370
     0
100
AcDbSpline
210
0.0
220
0.0
230
1.0
 70
    11
 71
     3
 72
    17
 73
    13
 74
     0
 42
0.0000000001
 43
0.0000000001
 12
1.0
 22
0.0
 32
0.0
 13
1.0
 23
0.0
 33
0.0
 40
0.0
 40
0.0
 40
0.0
 40
0.0
 40
1.0
 40
1.0
 40
1.0
 40
2.0
 40
2.0
 40
2.0
 40
3.0
 40
3.0
 40
3.0
 40
4.0
 40
4.0
 40
4.0
 40
4.0
 10
75.16268173034128
 20
-128.5666571401674
 30
0.0
 10
75.16268173034128
 20
-128.8469156578925
 30
0.0
 10
75.37421059313561
 20
-128.8875677846184
 30
0.0
 10
75.4904825657628
 20
-128.8875677846184
 30
0.0
 10
75.66601018073628
 20
-128.8875677846184
 30
0.0
 10
75.8289631971886
 20
-128.7859374678035
 30
0.0
 10
75.8289631971886
 20
-128.5892225155958
 30
0.0
 10
75.8289631971886
 20
-128.4603759444474
 30
0.0
 10
75.7697075548423
 20
-128.2727904952756
 30
0.0
 10
75.48410913911509
 20
-128.2727904952756
 30
0.0
 10
75.25983342302533
 20
-128.2727904952756
 30
0.0
 10
75.16268173034128
 20
-128.4219631297869
 30
0.0
 10
75.16268173034128
 20
-128.5666571401674
 30
0.0
  0
HATCH
  5
11B
330
113
100
AcDbEntity
  8
_U+30EC_U+30A4_U+30E4_U+30FC 1
 62
     7
420
 16777215
100
AcDbHatch
 10
0.0
 20
0.0
 30
0.0
210
0.0
220
0.0
230
1.0
  2
SOLID
 70
     1
 71
     0
 91
        2
 92
        1
 93
        1
 72
     4
 94
        3
 73
     0
 74
     1
 95
       32
 96
       28
 40
0.0
 40
0.0
 40
0.0
 40
0.0
 40
1.0
 40
1.0
 40
1.0
 40
2.0
 40
2.0
 40
2.0
 40
3.0
 40
3.0
 40
3.0
 40
4.0
 40
4.0
 40
4.0
 40
5.0
 40
5.0
 40
5.0
 40
6.0
 40
6.0
 40
6.0
 40
7.0
 40
7.0
 40
7.0
 40
8.0
 40
8.0
 40
8.0
 40
9.0
 40
9.0
 40
9.0
 40
9.0
 10
76.02154403481406
 20
-128.5847438914649
 10
76.02154403481406
 20
-129.1363036786534
 10
75.46722817123737
 20
-129.1452609269151
 10
75.25363225115187
 20
-129.1452609269151
 10
75.0229831084144
 20
-129.1452609269151
 10
74.37564966673595
 20
-129.1249348635521
 10
74.37564966673595
 20
-128.544091764739
 10
74.37564966673595
 20
-128.3587456276325
 10
74.44541285031227
 20
-128.0964016064308
 10
74.77752005509035
 20
-128.0557494797048
 10
74.77752005509035
 20
-128.0557494797048
 10
74.77752005509035
 20
-128.2839870556026
 10
74.77752005509035
 20
-128.2839870556026
 10
74.72050372480946
 20
-128.295355870704
 10
74.57236461894372
 20
-128.3292900612336
 10
74.57236461894372
 20
-128.5463310768044
 10
74.57236461894372
 20
-128.8582844729938
 10
74.9003377091395
 20
-128.9013481665594
 10
75.10549314528613
 20
-128.9147840389519
 10
75.02728947777096
 20
-128.8152207794281
 10
74.96803383542466
 20
-128.7430460290122
 10
74.96803383542466
 20
-128.5485703888698
 10
74.96803383542466
 20
-128.3563340607929
 10
75.07586532411298
 20
-128.0331841042764
 10
75.48204208182393
 20
-128.0331841042764
 10
75.80140243330659
 20
-128.0331841042764
 10
76.02154403481406
 20
-128.2455742409421
 10
76.02154403481406
 20
-128.5847438914649
 97
        0
 97
        0
 92
        1
 93
        1
 72
     4
 94
        3
 73
     0
 74
     1
 95
       17
 96
       13
 40
0.0
 40
0.0
 40
0.0
 40
0.0
 40
1.0
 40
1.0
 40
1.0
 40
2.0
 40
2.0
 40
2.0
 40
3.0
 40
3.0
 40
3.0
 40
4.0
 40
4.0
 40
4.0
 40
4.0
 10
75.16268173034128
 20
-128.5666571401674
 10
75.16268173034128
 20
-128.8469156578925
 10
75.37421059313561
 20
-128.8875677846184
 10
75.4904825657628
 20
-128.8875677846184
 10
75.66601018073628
 20
-128.8875677846184
 10
75.8289631971886
 20
-128.7859374678035
 10
75.8289631971886
 20
-128.5892225155958
 10
75.8289631971886
 20
-128.4603759444474
 10
75.7697075548423
 20
-128.2727904952756
 10
75.48410913911509
 20
-128.2727904952756
 10
75.25983342302533
 20
-128.2727904952756
 10
75.16268173034128
 20
-128.4219631297869
 10
75.16268173034128
 20
-128.5666571401674
 97
        0
 97
        0
 75
     2
 76
     1
 98
        0
  0
POLYLINE
  5
11C
330
113
100
AcDbEntity
  8
_U+30EC_U+30A4_U+30E4_U+30FC 1
370
     0
100
AcDb2dPolyline
 66
     1
 10
0.0
 20
0.0
 30
0.0
  0
VERTEX
  5
11D
330
11C
100
AcDbEntity
  8
_U+30EC_U+30A4_U+30E4_U+30FC 1
370
     0
100
AcDbVertex
100
AcDb2dVertex
 10
75.97072887640662
 20
-127.8016736876676
 30
0.0
  0
VERTEX
  5
11E
330
11C
100
AcDbEntity
  8
_U+30EC_U+30A4_U+30E4_U+30FC 1
370
     0
100
AcDbVertex
100
AcDb2dVertex
 10
75.71906465120912
 20
-127.8016736876676
 30
0.0
  0
VERTEX
  5
11F
330
11C
100
AcDbEntity
  8
_U+30EC_U+30A4_U+30E4_U+30FC 1
370
     0
100
AcDbVertex
100
AcDb2dVertex
 10
75.71906465120912
 20
-127.5326117302696
 30
0.0
  0
VERTEX
  5
120
330
11C
100
AcDbEntity
  8
_U+30EC_U+30A4_U+30E4_U+30FC 1
370
     0
100
AcDbVertex
100
AcDb2dVertex
 10
75.97072887640662
 20
-127.5326117302696
 30
0.0
  0
VERTEX
  5
121
330
11C
100
AcDbEntity
  8
_U+30EC_U+30A4_U+30E4_U+30FC 1
370
     0
100
AcDbVertex
100
AcDb2dVertex
 10
75.97072887640662
 20
-127.8016736876676
 30
0.0
  0
SEQEND
  5
122
330
11C
100
AcDbEntity
  8
_U+30EC_U+30A4_U+30E4_U+30FC 1
370
     0
  0
HATCH
  5
123
330
113
100
AcDbEntity
  8
_U+30EC_U+30A4_U+30E4_U+30FC 1
 62
     7
420
 16777215
100
AcDbHatch
 10
0.0
 20
0.0
 30
0.0
210
0.0
220
0.0
230
1.0
  2
SOLID
 70
     1
 71
     0
 91
        1
 92
        1
 93
        4
 72
     1
 10
75.97072887640662
 20
-127.8016736876676
 11
75.71906465120912
 21
-127.8016736876676
 72
     1
 10
75.71906465120912
 20
-127.8016736876676
 11
75.71906465120912
 21
-127.5326117302696
 72
     1
 10
75.71906465120912
 20
-127.5326117302696
 11
75.97072887640662
 21
-127.5326117302696
 72
     1
 10
75.97072887640662
 20
-127.5326117302696
 11
75.97072887640662
 21
-127.8016736876676
 97
        0
 75
     2
 76
     1
 98
        0
  0
SPLINE
  5
124
330
113
100
AcDbEntity
  8
_U+30EC_U+30A4_U+30E4_U+30FC 1
370
     0
100
AcDbSpline
210
0.0
220
0.0
230
1.0
 70
    11
 71
     3
 72
    53
 73
    49
 74
     0
 42
0.0000000001
 43
0.0000000001
 12
1.0
 22
0.0
 32
0.0
 13
1.0
 23
0.0
 33
0.0
 40
0.0
 40
0.0
 40
0.0
 40
0.0
 40
1.0
 40
1.0
 40
1.0
 40
2.0
 40
2.0
 40
2.0
 40
3.0
 40
3.0
 40
3.0
 40
4.0
 40
4.0
 40
4.0
 40
5.0
 40
5.0
 40
5.0
 40
6.0
 40
6.0
 40
6.0
 40
7.0
 40
7.0
 40
7.0
 40
8.0
 40
8.0
 40
8.0
 40
9.0
 40
9.0
 40
9.0
 40
10.0
 40
10.0
 40
10.0
 40
11.0
 40
11.0
 40
11.0
 40
12.0
 40
12.0
 40
12.0
 40
13.0
 40
13.0
 40
13.0
 40
14.0
 40
14.0
 40
14.0
 40
15.0
 40
15.0
 40
15.0
 40
16.0
 40
16.0
 40
16.0
 40
16.0
 10
76.02154403481406
 20
-126.765733475253
 30
0.0
 10
76.02154403481406
 20
-126.8494492955446
 30
0.0
 10
76.00466306693633
 20
-126.95796980333
 30
0.0
 10
75.94110105523347
 20
-127.0664903111153
 30
0.0
 10
75.83103025447974
 20
-127.2518364482218
 30
0.0
 10
75.69994437126599
 20
-127.2745740784244
 30
0.0
 10
75.59211288257767
 20
-127.2949001417874
 30
0.0
 10
75.59211288257767
 20
-127.2949001417874
 30
0.0
 10
75.59211288257767
 20
-127.0575330628537
 30
0.0
 10
75.59211288257767
 20
-127.0575330628537
 30
0.0
 10
75.79089489207658
 20
-126.9986219300559
 30
0.0
 10
75.82052271324973
 20
-126.8630574227113
 30
0.0
 10
75.82052271324973
 20
-126.7634941631876
 30
0.0
 10
75.82052271324973
 20
-126.6143215286763
 30
0.0
 10
75.72113170850028
 20
-126.4515407669982
 30
0.0
 10
75.48841550847165
 20
-126.4515407669982
 30
0.0
 10
75.23244491391759
 20
-126.4515407669982
 30
0.0
 10
75.16268173034128
 20
-126.6437770950752
 30
0.0
 10
75.16268173034128
 20
-126.7726236662235
 30
0.0
 10
75.16268173034128
 20
-126.8065578567532
 30
0.0
 10
75.16268173034128
 20
-126.95796980333
 30
0.0
 10
75.29170055626389
 20
-127.0528821839486
 30
0.0
 10
75.29170055626389
 20
-127.0528821839486
 30
0.0
 10
75.27258027632075
 20
-127.2406398878947
 30
0.0
 10
75.27258027632075
 20
-127.2406398878947
 30
0.0
 10
75.27258027632075
 20
-127.2406398878947
 30
0.0
 10
74.42646482514338
 20
-127.1116210619721
 30
0.0
 10
74.42646482514338
 20
-127.1116210619721
 30
0.0
 10
74.42646482514338
 20
-127.1116210619721
 30
0.0
 10
74.42646482514338
 20
-126.2796305022843
 30
0.0
 10
74.42646482514338
 20
-126.2796305022843
 30
0.0
 10
74.42646482514338
 20
-126.2796305022843
 30
0.0
 10
74.62111272006
 20
-126.2796305022843
 30
0.0
 10
74.62111272006
 20
-126.2796305022843
 30
0.0
 10
74.62111272006
 20
-126.2796305022843
 30
0.0
 10
74.62111272006
 20
-126.937643739967
 30
0.0
 10
74.62111272006
 20
-126.937643739967
 30
0.0
 10
74.62111272006
 20
-126.937643739967
 30
0.0
 10
75.04417044564869
 20
-127.0077514330918
 30
0.0
 10
75.04417044564869
 20
-127.0077514330918
 30
0.0
 10
75.01023625511897
 20
-126.9421223640978
 30
0.0
 10
74.9701008927158
 20
-126.8539279196754
 30
0.0
 10
74.9701008927158
 20
-126.7273206605925
 30
0.0
 10
74.9701008927158
 20
-126.4560193911291
 30
0.0
 10
75.15630830369356
 20
-126.2028048729632
 30
0.0
 10
75.46929522852851
 20
-126.2028048729632
 30
0.0
 10
75.78676077749428
 20
-126.2028048729632
 30
0.0
 10
76.02154403481406
 20
-126.4425835187366
 30
0.0
 10
76.02154403481406
 20
-126.765733475253
 30
0.0
  0
HATCH
  5
125
330
113
100
AcDbEntity
  8
_U+30EC_U+30A4_U+30E4_U+30FC 1
 62
     7
420
 16777215
100
AcDbHatch
 10
0.0
 20
0.0
 30
0.0
210
0.0
220
0.0
230
1.0
  2
SOLID
 70
     1
 71
     0
 91
        1
 92
        1
 93
        1
 72
     4
 94
        3
 73
     0
 74
     1
 95
       53
 96
       49
 40
0.0
 40
0.0
 40
0.0
 40
0.0
 40
1.0
 40
1.0
 40
1.0
 40
2.0
 40
2.0
 40
2.0
 40
3.0
 40
3.0
 40
3.0
 40
4.0
 40
4.0
 40
4.0
 40
5.0
 40
5.0
 40
5.0
 40
6.0
 40
6.0
 40
6.0
 40
7.0
 40
7.0
 40
7.0
 40
8.0
 40
8.0
 40
8.0
 40
9.0
 40
9.0
 40
9.0
 40
10.0
 40
10.0
 40
10.0
 40
11.0
 40
11.0
 40
11.0
 40
12.0
 40
12.0
 40
12.0
 40
13.0
 40
13.0
 40
13.0
 40
14.0
 40
14.0
 40
14.0
 40
15.0
 40
15.0
 40
15.0
 40
16.0
 40
16.0
 40
16.0
 40
16.0
 10
76.02154403481406
 20
-126.765733475253
 10
76.02154403481406
 20
-126.8494492955446
 10
76.00466306693633
 20
-126.95796980333
 10
75.94110105523347
 20
-127.0664903111153
 10
75.83103025447974
 20
-127.2518364482218
 10
75.69994437126599
 20
-127.2745740784244
 10
75.59211288257767
 20
-127.2949001417874
 10
75.59211288257767
 20
-127.2949001417874
 10
75.59211288257767
 20
-127.0575330628537
 10
75.59211288257767
 20
-127.0575330628537
 10
75.79089489207658
 20
-126.9986219300559
 10
75.82052271324973
 20
-126.8630574227113
 10
75.82052271324973
 20
-126.7634941631876
 10
75.82052271324973
 20
-126.6143215286763
 10
75.72113170850028
 20
-126.4515407669982
 10
75.48841550847165
 20
-126.4515407669982
 10
75.23244491391759
 20
-126.4515407669982
 10
75.16268173034128
 20
-126.6437770950752
 10
75.16268173034128
 20
-126.7726236662235
 10
75.16268173034128
 20
-126.8065578567532
 10
75.16268173034128
 20
-126.95796980333
 10
75.29170055626389
 20
-127.0528821839486
 10
75.29170055626389
 20
-127.0528821839486
 10
75.27258027632075
 20
-127.2406398878947
 10
75.27258027632075
 20
-127.2406398878947
 10
75.27258027632075
 20
-127.2406398878947
 10
74.42646482514338
 20
-127.1116210619721
 10
74.42646482514338
 20
-127.1116210619721
 10
74.42646482514338
 20
-127.1116210619721
 10
74.42646482514338
 20
-126.2796305022843
 10
74.42646482514338
 20
-126.2796305022843
 10
74.42646482514338
 20
-126.2796305022843
 10
74.62111272006
 20
-126.2796305022843
 10
74.62111272006
 20
-126.2796305022843
 10
74.62111272006
 20
-126.2796305022843
 10
74.62111272006
 20
-126.937643739967
 10
74.62111272006
 20
-126.937643739967
 10
74.62111272006
 20
-126.937643739967
 10
75.04417044564869
 20
-127.0077514330918
 10
75.04417044564869
 20
-127.0077514330918
 10
75.01023625511897
 20
-126.9421223640978
 10
74.9701008927158
 20
-126.8539279196754
 10
74.9701008927158
 20
-126.7273206605925
 10
74.9701008927158
 20
-126.4560193911291
 10
75.15630830369356
 20
-126.2028048729632
 10
75.46929522852851
 20
-126.2028048729632
 10
75.78676077749428
 20
-126.2028048729632
 10
76.02154403481406
 20
-126.4425835187366
 10
76.02154403481406
 20
-126.765733475253
 97
        0
 97
        0
 75
     2
 76
     1
 98
        0
  0
ENDBLK
  5
116
330
113
100
AcDbEntity
  8
0
100
AcDbBlockEnd
  0
BLOCK
  5
139
330
137
100
AcDbEntity
  8
0
100
AcDbBlockBegin
  2
block 7
 70
     0
 10
0.0
 20
0.0
 30
0.0
  3
block 7
  1

  0
SPLINE
  5
13B
330
137
100
AcDbEntity
  8
_U+30EC_U+30A4_U+30E4_U+30FC 1
370
     0
100
AcDbSpline
210
0.0
220
0.0
230
1.0
 70
    11
 71
     3
 72
    29
 73
    25
 74
     0
 42
0.0000000001
 43
0.0000000001
 12
1.0
 22
0.0
 32
0.0
 13
1.0
 23
0.0
 33
0.0
 40
0.0
 40
0.0
 40
0.0
 40
0.0
 40
1.0
 40
1.0
 40
1.0
 40
2.0
 40
2.0
 40
2.0
 40
3.0
 40
3.0
 40
3.0
 40
4.0
 40
4.0
 40
4.0
 40
5.0
 40
5.0
 40
5.0
 40
6.0
 40
6.0
 40
6.0
 40
7.0
 40
7.0
 40
7.0
 40
8.0
 40
8.0
 40
8.0
 40
8.0
 10
96.43407929446788
 20
-131.9268310217058
 30
0.0
 10
96.43407929446788
 20
-132.2113959087874
 30
0.0
 10
96.29661998460641
 20
-132.4828694330251
 30
0.0
 10
95.9476318119506
 20
-132.4828694330251
 30
0.0
 10
95.69166121739653
 20
-132.4828694330251
 30
0.0
 10
95.59657658200364
 20
-132.3312852316741
 30
0.0
 10
95.53525388236619
 20
-132.2182860997579
 30
0.0
 10
95.47599824001989
 20
-132.3516112950371
 30
0.0
 10
95.3616210699096
 20
-132.4332600580375
 30
0.0
 10
95.20073511074843
 20
-132.4332600580375
 30
0.0
 10
94.9258164910255
 20
-132.4332600580375
 30
0.0
 10
94.79042423845517
 20
-132.2206976665976
 30
0.0
 10
94.79042423845517
 20
-131.9268310217058
 30
0.0
 10
94.79042423845517
 20
-131.6236626190038
 30
0.0
 10
94.93442922973863
 20
-131.4204019853741
 30
0.0
 10
95.20073511074843
 20
-131.4204019853741
 30
0.0
 10
95.3616210699096
 20
-131.4204019853741
 30
0.0
 10
95.47599824001989
 20
-131.5037732961171
 30
0.0
 10
95.53525388236619
 20
-131.6374430009448
 30
0.0
 10
95.58589678599937
 20
-131.5423583655519
 30
0.0
 10
95.68098142139226
 20
-131.3728596676776
 30
0.0
 10
95.9434976973683
 20
-131.3728596676776
 30
0.0
 10
96.31797957661496
 20
-131.3728596676776
 30
0.0
 10
96.43407929446788
 20
-131.6712049367003
 30
0.0
 10
96.43407929446788
 20
-131.9268310217058
 30
0.0
  0
SPLINE
  5
13C
330
137
100
AcDbEntity
  8
_U+30EC_U+30A4_U+30E4_U+30FC 1
370
     0
100
AcDbSpline
210
0.0
220
0.0
230
1.0
 70
    11
 71
     3
 72
    17
 73
    13
 74
     0
 42
0.0000000001
 43
0.0000000001
 12
1.0
 22
0.0
 32
0.0
 13
1.0
 23
0.0
 33
0.0
 40
0.0
 40
0.0
 40
0.0
 40
0.0
 40
1.0
 40
1.0
 40
1.0
 40
2.0
 40
2.0
 40
2.0
 40
3.0
 40
3.0
 40
3.0
 40
4.0
 40
4.0
 40
4.0
 40
4.0
 10
94.98300507608064
 20
-131.9268310217058
 30
0.0
 10
94.98300507608064
 20
-132.1032199105506
 30
0.0
 10
95.07808971147354
 20
-132.1934814122641
 30
0.0
 10
95.21348196404385
 20
-132.1934814122641
 30
0.0
 10
95.33612736331875
 20
-132.1934814122641
 30
0.0
 10
95.45463864801134
 20
-132.1166557829431
 30
0.0
 10
95.45463864801134
 20
-131.9268310217058
 30
0.0
 10
95.45463864801134
 20
-131.73666175092
 30
0.0
 10
95.33612736331875
 20
-131.6598361215989
 30
0.0
 10
95.21348196404385
 20
-131.6598361215989
 30
0.0
 10
95.07808971147354
 20
-131.6598361215989
 30
0.0
 10
94.98300507608064
 20
-131.7525091901522
 30
0.0
 10
94.98300507608064
 20
-131.9268310217058
 30
0.0
  0
SPLINE
  5
13D
330
137
100
AcDbEntity
  8
_U+30EC_U+30A4_U+30E4_U+30FC 1
370
     0
100
AcDbSpline
210
0.0
220
0.0
230
1.0
 70
    11
 71
     3
 72
    17
 73
    13
 74
     0
 42
0.0000000001
 43
0.0000000001
 12
1.0
 22
0.0
 32
0.0
 13
1.0
 23
0.0
 33
0.0
 40
0.0
 40
0.0
 40
0.0
 40
0.0
 40
1.0
 40
1.0
 40
1.0
 40
2.0
 40
2.0
 40
2.0
 40
3.0
 40
3.0
 40
3.0
 40
4.0
 40
4.0
 40
4.0
 40
4.0
 10
95.64308537105451
 20
-131.9268310217058
 30
0.0
 10
95.64308537105451
 20
-132.080482280348
 30
0.0
 10
95.7299017772828
 20
-132.2430907872517
 30
0.0
 10
95.93281790136402
 20
-132.2430907872517
 30
0.0
 10
96.13814559228491
 20
-132.2430907872517
 30
0.0
 10
96.23943139955126
 20
-132.1076985346814
 30
0.0
 10
96.23943139955126
 20
-131.9268310217058
 30
0.0
 10
96.23943139955126
 20
-131.7277045026584
 30
0.0
 10
96.11678600027636
 20
-131.6102267466113
 30
0.0
 10
95.93901907323747
 20
-131.6102267466113
 30
0.0
 10
95.71715492398738
 20
-131.6102267466113
 30
0.0
 10
95.64308537105451
 20
-131.7842040686164
 30
0.0
 10
95.64308537105451
 20
-131.9268310217058
 30
0.0
  0
HATCH
  5
13E
330
137
100
AcDbEntity
  8
_U+30EC_U+30A4_U+30E4_U+30FC 1
 62
     7
420
 16777215
100
AcDbHatch
 10
0.0
 20
0.0
 30
0.0
210
0.0
220
0.0
230
1.0
  2
SOLID
 70
     1
 71
     0
 91
        3
 92
        1
 93
        1
 72
     4
 94
        3
 73
     0
 74
     1
 95
       29
 96
       25
 40
0.0
 40
0.0
 40
0.0
 40
0.0
 40
1.0
 40
1.0
 40
1.0
 40
2.0
 40
2.0
 40
2.0
 40
3.0
 40
3.0
 40
3.0
 40
4.0
 40
4.0
 40
4.0
 40
5.0
 40
5.0
 40
5.0
 40
6.0
 40
6.0
 40
6.0
 40
7.0
 40
7.0
 40
7.0
 40
8.0
 40
8.0
 40
8.0
 40
8.0
 10
96.43407929446788
 20
-131.9268310217058
 10
96.43407929446788
 20
-132.2113959087874
 10
96.29661998460641
 20
-132.4828694330251
 10
95.9476318119506
 20
-132.4828694330251
 10
95.69166121739653
 20
-132.4828694330251
 10
95.59657658200364
 20
-132.3312852316741
 10
95.53525388236619
 20
-132.2182860997579
 10
95.47599824001989
 20
-132.3516112950371
 10
95.3616210699096
 20
-132.4332600580375
 10
95.20073511074843
 20
-132.4332600580375
 10
94.9258164910255
 20
-132.4332600580375
 10
94.79042423845517
 20
-132.2206976665976
 10
94.79042423845517
 20
-131.9268310217058
 10
94.79042423845517
 20
-131.6236626190038
 10
94.93442922973863
 20
-131.4204019853741
 10
95.20073511074843
 20
-131.4204019853741
 10
95.3616210699096
 20
-131.4204019853741
 10
95.47599824001989
 20
-131.5037732961171
 10
95.53525388236619
 20
-131.6374430009448
 10
95.58589678599937
 20
-131.5423583655519
 10
95.68098142139226
 20
-131.3728596676776
 10
95.9434976973683
 20
-131.3728596676776
 10
96.31797957661496
 20
-131.3728596676776
 10
96.43407929446788
 20
-131.6712049367003
 10
96.43407929446788
 20
-131.9268310217058
 97
        0
 97
        0
 92
        1
 93
        1
 72
     4
 94
        3
 73
     0
 74
     1
 95
       17
 96
       13
 40
0.0
 40
0.0
 40
0.0
 40
0.0
 40
1.0
 40
1.0
 40
1.0
 40
2.0
 40
2.0
 40
2.0
 40
3.0
 40
3.0
 40
3.0
 40
4.0
 40
4.0
 40
4.0
 40
4.0
 10
94.98300507608064
 20
-131.9268310217058
 10
94.98300507608064
 20
-132.1032199105506
 10
95.07808971147354
 20
-132.1934814122641
 10
95.21348196404385
 20
-132.1934814122641
 10
95.33612736331875
 20
-132.1934814122641
 10
95.45463864801134
 20
-132.1166557829431
 10
95.45463864801134
 20
-131.9268310217058
 10
95.45463864801134
 20
-131.73666175092
 10
95.33612736331875
 20
-131.6598361215989
 10
95.21348196404385
 20
-131.6598361215989
 10
95.07808971147354
 20
-131.6598361215989
 10
94.98300507608064
 20
-131.7525091901522
 10
94.98300507608064
 20
-131.9268310217058
 97
        0
 97
        0
 92
        1
 93
        1
 72
     4
 94
        3
 73
     0
 74
     1
 95
       17
 96
       13
 40
0.0
 40
0.0
 40
0.0
 40
0.0
 40
1.0
 40
1.0
 40
1.0
 40
2.0
 40
2.0
 40
2.0
 40
3.0
 40
3.0
 40
3.0
 40
4.0
 40
4.0
 40
4.0
 40
4.0
 10
95.64308537105451
 20
-131.9268310217058
 10
95.64308537105451
 20
-132.080482280348
 10
95.7299017772828
 20
-132.2430907872517
 10
95.93281790136402
 20
-132.2430907872517
 10
96.13814559228491
 20
-132.2430907872517
 10
96.23943139955126
 20
-132.1076985346814
 10
96.23943139955126
 20
-131.9268310217058
 10
96.23943139955126
 20
-131.7277045026584
 10
96.11678600027636
 20
-131.6102267466113
 10
95.93901907323747
 20
-131.6102267466113
 10
95.71715492398738
 20
-131.6102267466113
 10
95.64308537105451
 20
-131.7842040686164
 10
95.64308537105451
 20
-131.9268310217058
 97
        0
 97
        0
 75
     2
 76
     1
 98
        0
  0
POLYLINE
  5
13F
330
137
100
AcDbEntity
  8
_U+30EC_U+30A4_U+30E4_U+30FC 1
370
     0
100
AcDb2dPolyline
 66
     1
 10
0.0
 20
0.0
 30
0.0
  0
VERTEX
  5
140
330
13F
100
AcDbEntity
  8
_U+30EC_U+30A4_U+30E4_U+30FC 1
370
     0
100
AcDbVertex
100
AcDb2dVertex
 10
96.3834363908347
 20
-131.1392821937777
 30
0.0
  0
VERTEX
  5
141
330
13F
100
AcDbEntity
  8
_U+30EC_U+30A4_U+30E4_U+30FC 1
370
     0
100
AcDbVertex
100
AcDb2dVertex
 10
96.13159991086293
 20
-131.1392821937777
 30
0.0
  0
VERTEX
  5
142
330
13F
100
AcDbEntity
  8
_U+30EC_U+30A4_U+30E4_U+30FC 1
370
     0
100
AcDbVertex
100
AcDb2dVertex
 10
96.13159991086293
 20
-130.8702202363797
 30
0.0
  0
VERTEX
  5
143
330
13F
100
AcDbEntity
  8
_U+30EC_U+30A4_U+30E4_U+30FC 1
370
     0
100
AcDbVertex
100
AcDb2dVertex
 10
96.3834363908347
 20
-130.8702202363797
 30
0.0
  0
VERTEX
  5
144
330
13F
100
AcDbEntity
  8
_U+30EC_U+30A4_U+30E4_U+30FC 1
370
     0
100
AcDbVertex
100
AcDb2dVertex
 10
96.3834363908347
 20
-131.1392821937777
 30
0.0
  0
SEQEND
  5
145
330
13F
100
AcDbEntity
  8
_U+30EC_U+30A4_U+30E4_U+30FC 1
370
     0
  0
HATCH
  5
146
330
137
100
AcDbEntity
  8
_U+30EC_U+30A4_U+30E4_U+30FC 1
 62
     7
420
 16777215
100
AcDbHatch
 10
0.0
 20
0.0
 30
0.0
210
0.0
220
0.0
230
1.0
  2
SOLID
 70
     1
 71
     0
 91
        1
 92
        1
 93
        4
 72
     1
 10
96.3834363908347
 20
-131.1392821937777
 11
96.13159991086293
 21
-131.1392821937777
 72
     1
 10
96.13159991086293
 20
-131.1392821937777
 11
96.13159991086293
 21
-130.8702202363797
 72
     1
 10
96.13159991086293
 20
-130.8702202363797
 11
96.3834363908347
 21
-130.8702202363797
 72
     1
 10
96.3834363908347
 20
-130.8702202363797
 11
96.3834363908347
 21
-131.1392821937777
 97
        0
 75
     2
 76
     1
 98
        0
  0
SPLINE
  5
147
330
137
100
AcDbEntity
  8
_U+30EC_U+30A4_U+30E4_U+30FC 1
370
     0
100
AcDbSpline
210
0.0
220
0.0
230
1.0
 70
    11
 71
     3
 72
    53
 73
    49
 74
     0
 42
0.0000000001
 43
0.0000000001
 12
1.0
 22
0.0
 32
0.0
 13
1.0
 23
0.0
 33
0.0
 40
0.0
 40
0.0
 40
0.0
 40
0.0
 40
1.0
 40
1.0
 40
1.0
 40
2.0
 40
2.0
 40
2.0
 40
3.0
 40
3.0
 40
3.0
 40
4.0
 40
4.0
 40
4.0
 40
5.0
 40
5.0
 40
5.0
 40
6.0
 40
6.0
 40
6.0
 40
7.0
 40
7.0
 40
7.0
 40
8.0
 40
8.0
 40
8.0
 40
9.0
 40
9.0
 40
9.0
 40
10.0
 40
10.0
 40
10.0
 40
11.0
 40
11.0
 40
11.0
 40
12.0
 40
12.0
 40
12.0
 40
13.0
 40
13.0
 40
13.0
 40
14.0
 40
14.0
 40
14.0
 40
15.0
 40
15.0
 40
15.0
 40
16.0
 40
16.0
 40
16.0
 40
16.0
 10
96.43407929446788
 20
-130.1033419813631
 30
0.0
 10
96.43407929446788
 20
-130.1870578016546
 30
0.0
 10
96.41719832659015
 20
-130.2952337998915
 30
0.0
 10
96.35380856966155
 20
-130.4040988172254
 30
0.0
 10
96.24391002368208
 20
-130.5894449543318
 30
0.0
 10
96.11265188569406
 20
-130.6118380749859
 30
0.0
 10
96.00482039700574
 20
-130.6321641383489
 30
0.0
 10
96.00482039700574
 20
-130.6321641383489
 30
0.0
 10
96.00482039700574
 20
-130.3947970594152
 30
0.0
 10
96.00482039700574
 20
-130.3947970594152
 30
0.0
 10
96.20360240650466
 20
-130.3362304361659
 30
0.0
 10
96.23323022767781
 20
-130.2004936740471
 30
0.0
 10
96.23323022767781
 20
-130.1009304145234
 30
0.0
 10
96.23323022767781
 20
-129.9517577800121
 30
0.0
 10
96.13366696815409
 20
-129.7891492731083
 30
0.0
 10
95.90112302289972
 20
-129.7891492731083
 30
0.0
 10
95.64515242834567
 20
-129.7891492731083
 30
0.0
 10
95.57521698999508
 20
-129.9813856011852
 30
0.0
 10
95.57521698999508
 20
-130.109887662785
 30
0.0
 10
95.57521698999508
 20
-130.143994108089
 30
0.0
 10
95.57521698999508
 20
-130.2952337998915
 30
0.0
 10
95.70440807069195
 20
-130.3903184352844
 30
0.0
 10
95.70440807069195
 20
-130.3903184352844
 30
0.0
 10
95.68546004552309
 20
-130.5780761392305
 30
0.0
 10
95.68546004552309
 20
-130.5780761392305
 30
0.0
 10
95.68546004552309
 20
-130.5780761392305
 30
0.0
 10
94.83900008479719
 20
-130.4492295680821
 30
0.0
 10
94.83900008479719
 20
-130.4492295680821
 30
0.0
 10
94.83900008479719
 20
-130.4492295680821
 30
0.0
 10
94.83900008479719
 20
-129.6172390083943
 30
0.0
 10
94.83900008479719
 20
-129.6172390083943
 30
0.0
 10
94.83900008479719
 20
-129.6172390083943
 30
0.0
 10
95.03364797971382
 20
-129.6172390083943
 30
0.0
 10
95.03364797971382
 20
-129.6172390083943
 30
0.0
 10
95.03364797971382
 20
-129.6172390083943
 30
0.0
 10
95.03364797971382
 20
-130.2749077365285
 30
0.0
 10
95.03364797971382
 20
-130.2749077365285
 30
0.0
 10
95.03364797971382
 20
-130.2749077365285
 30
0.0
 10
95.4567057053025
 20
-130.3451876844276
 30
0.0
 10
95.4567057053025
 20
-130.3451876844276
 30
0.0
 10
95.42294376954705
 20
-130.2797308702079
 30
0.0
 10
95.38263615236963
 20
-130.1915364257854
 30
0.0
 10
95.38263615236963
 20
-130.0647569119283
 30
0.0
 10
95.38263615236963
 20
-129.7936278972391
 30
0.0
 10
95.56901581812164
 20
-129.5404133790732
 30
0.0
 10
95.88217499773084
 20
-129.5404133790732
 30
0.0
 10
96.19946829192236
 20
-129.5404133790732
 30
0.0
 10
96.43407929446788
 20
-129.7798475152981
 30
0.0
 10
96.43407929446788
 20
-130.1033419813631
 30
0.0
  0
HATCH
  5
148
330
137
100
AcDbEntity
  8
_U+30EC_U+30A4_U+30E4_U+30FC 1
 62
     7
420
 16777215
100
AcDbHatch
 10
0.0
 20
0.0
 30
0.0
210
0.0
220
0.0
230
1.0
  2
SOLID
 70
     1
 71
     0
 91
        1
 92
        1
 93
        1
 72
     4
 94
        3
 73
     0
 74
     1
 95
       53
 96
       49
 40
0.0
 40
0.0
 40
0.0
 40
0.0
 40
1.0
 40
1.0
 40
1.0
 40
2.0
 40
2.0
 40
2.0
 40
3.0
 40
3.0
 40
3.0
 40
4.0
 40
4.0
 40
4.0
 40
5.0
 40
5.0
 40
5.0
 40
6.0
 40
6.0
 40
6.0
 40
7.0
 40
7.0
 40
7.0
 40
8.0
 40
8.0
 40
8.0
 40
9.0
 40
9.0
 40
9.0
 40
10.0
 40
10.0
 40
10.0
 40
11.0
 40
11.0
 40
11.0
 40
12.0
 40
12.0
 40
12.0
 40
13.0
 40
13.0
 40
13.0
 40
14.0
 40
14.0
 40
14.0
 40
15.0
 40
15.0
 40
15.0
 40
16.0
 40
16.0
 40
16.0
 40
16.0
 10
96.43407929446788
 20
-130.1033419813631
 10
96.43407929446788
 20
-130.1870578016546
 10
96.41719832659015
 20
-130.2952337998915
 10
96.35380856966155
 20
-130.4040988172254
 10
96.24391002368208
 20
-130.5894449543318
 10
96.11265188569406
 20
-130.6118380749859
 10
96.00482039700574
 20
-130.6321641383489
 10
96.00482039700574
 20
-130.6321641383489
 10
96.00482039700574
 20
-130.3947970594152
 10
96.00482039700574
 20
-130.3947970594152
 10
96.20360240650466
 20
-130.3362304361659
 10
96.23323022767781
 20
-130.2004936740471
 10
96.23323022767781
 20
-130.1009304145234
 10
96.23323022767781
 20
-129.9517577800121
 10
96.13366696815409
 20
-129.7891492731083
 10
95.90112302289972
 20
-129.7891492731083
 10
95.64515242834567
 20
-129.7891492731083
 10
95.57521698999508
 20
-129.9813856011852
 10
95.57521698999508
 20
-130.109887662785
 10
95.57521698999508
 20
-130.143994108089
 10
95.57521698999508
 20
-130.2952337998915
 10
95.70440807069195
 20
-130.3903184352844
 10
95.70440807069195
 20
-130.3903184352844
 10
95.68546004552309
 20
-130.5780761392305
 10
95.68546004552309
 20
-130.5780761392305
 10
95.68546004552309
 20
-130.5780761392305
 10
94.83900008479719
 20
-130.4492295680821
 10
94.83900008479719
 20
-130.4492295680821
 10
94.83900008479719
 20
-130.4492295680821
 10
94.83900008479719
 20
-129.6172390083943
 10
94.83900008479719
 20
-129.6172390083943
 10
94.83900008479719
 20
-129.6172390083943
 10
95.03364797971382
 20
-129.6172390083943
 10
95.03364797971382
 20
-129.6172390083943
 10
95.03364797971382
 20
-129.6172390083943
 10
95.03364797971382
 20
-130.2749077365285
 10
95.03364797971382
 20
-130.2749077365285
 10
95.03364797971382
 20
-130.2749077365285
 10
95.4567057053025
 20
-130.3451876844276
 10
95.4567057053025
 20
-130.3451876844276
 10
95.42294376954705
 20
-130.2797308702079
 10
95.38263615236963
 20
-130.1915364257854
 10
95.38263615236963
 20
-130.0647569119283
 10
95.38263615236963
 20
-129.7936278972391
 10
95.56901581812164
 20
-129.5404133790732
 10
95.88217499773084
 20
-129.5404133790732
 10
96.19946829192236
 20
-129.5404133790732
 10
96.43407929446788
 20
-129.7798475152981
 10
96.43407929446788
 20
-130.1033419813631
 97
        0
 97
        0
 75
     2
 76
     1
 98
        0
  0
ENDBLK
  5
13A
330
137
100
AcDbEntity
  8
0
100
AcDbBlockEnd
  0
BLOCK
  5
153
330
151
100
AcDbEntity
  8
0
100
AcDbBlockBegin
  2
block 8
 70
     0
 10
0.0
 20
0.0
 30
0.0
  3
block 8
  1

  0
SPLINE
  5
155
330
151
100
AcDbEntity
  8
_U+30EC_U+30A4_U+30E4_U+30FC 1
370
     0
100
AcDbSpline
210
0.0
220
0.0
230
1.0
 70
    11
 71
     3
 72
    32
 73
    28
 74
     0
 42
0.0000000001
 43
0.0000000001
 12
1.0
 22
0.0
 32
0.0
 13
1.0
 23
0.0
 33
0.0
 40
0.0
 40
0.0
 40
0.0
 40
0.0
 40
1.0
 40
1.0
 40
1.0
 40
2.0
 40
2.0
 40
2.0
 40
3.0
 40
3.0
 40
3.0
 40
4.0
 40
4.0
 40
4.0
 40
5.0
 40
5.0
 40
5.0
 40
6.0
 40
6.0
 40
6.0
 40
7.0
 40
7.0
 40
7.0
 40
8.0
 40
8.0
 40
8.0
 40
9.0
 40
9.0
 40
9.0
 40
9.0
 10
96.43407929446788
 20
-123.1259900950866
 30
0.0
 10
96.43407929446788
 20
-123.6775498822751
 30
0.0
 10
95.8801079404397
 20
-123.686679385311
 30
0.0
 10
95.66616751080568
 20
-123.686679385311
 30
0.0
 10
95.43569062284247
 20
-123.686679385311
 30
0.0
 10
94.78835718116403
 20
-123.666353321948
 30
0.0
 10
94.78835718116403
 20
-123.0853379683606
 30
0.0
 10
94.78835718116403
 20
-122.8999918312542
 30
0.0
 10
94.8582926195146
 20
-122.6376478100524
 30
0.0
 10
95.19039982429268
 20
-122.5969956833265
 30
0.0
 10
95.19039982429268
 20
-122.5969956833265
 30
0.0
 10
95.19039982429268
 20
-122.8252332592242
 30
0.0
 10
95.19039982429268
 20
-122.8252332592242
 30
0.0
 10
95.13321123923754
 20
-122.8366020743256
 30
0.0
 10
94.98507213337179
 20
-122.8705362648553
 30
0.0
 10
94.98507213337179
 20
-123.087577280426
 30
0.0
 10
94.98507213337179
 20
-123.3995306766154
 30
0.0
 10
95.31304522356757
 20
-123.442594370181
 30
0.0
 10
95.51802840493994
 20
-123.4560302425735
 30
0.0
 10
95.43982473742477
 20
-123.356639237824
 30
0.0
 10
95.38056909507847
 20
-123.2842922326338
 30
0.0
 10
95.38056909507847
 20
-123.0898165924914
 30
0.0
 10
95.38056909507847
 20
-122.8975802644145
 30
0.0
 10
95.48874509331532
 20
-122.5744303078981
 30
0.0
 10
95.89492185102627
 20
-122.5744303078981
 30
0.0
 10
96.21428220250894
 20
-122.5744303078981
 30
0.0
 10
96.43407929446788
 20
-122.7868204445637
 30
0.0
 10
96.43407929446788
 20
-123.1259900950866
 30
0.0
  0
SPLINE
  5
156
330
151
100
AcDbEntity
  8
_U+30EC_U+30A4_U+30E4_U+30FC 1
370
     0
100
AcDbSpline
210
0.0
220
0.0
230
1.0
 70
    11
 71
     3
 72
    17
 73
    13
 74
     0
 42
0.0000000001
 43
0.0000000001
 12
1.0
 22
0.0
 32
0.0
 13
1.0
 23
0.0
 33
0.0
 40
0.0
 40
0.0
 40
0.0
 40
0.0
 40
1.0
 40
1.0
 40
1.0
 40
2.0
 40
2.0
 40
2.0
 40
3.0
 40
3.0
 40
3.0
 40
4.0
 40
4.0
 40
4.0
 40
4.0
 10
95.57521698999508
 20
-123.107903343789
 30
0.0
 10
95.57521698999508
 20
-123.3881618615141
 30
0.0
 10
95.78674585278942
 20
-123.4289862430143
 30
0.0
 10
95.90319008019087
 20
-123.4289862430143
 30
0.0
 10
96.07888994993861
 20
-123.4289862430143
 30
0.0
 10
96.24184296639093
 20
-123.3271836714252
 30
0.0
 10
96.24184296639093
 20
-123.1304687192174
 30
0.0
 10
96.24184296639093
 20
-123.001622148069
 30
0.0
 10
96.18258732404463
 20
-122.8140366988972
 30
0.0
 10
95.89698890831743
 20
-122.8140366988972
 30
0.0
 10
95.67271319222766
 20
-122.8140366988972
 30
0.0
 10
95.57521698999508
 20
-122.9632093334085
 30
0.0
 10
95.57521698999508
 20
-123.107903343789
 30
0.0
  0
HATCH
  5
157
330
151
100
AcDbEntity
  8
_U+30EC_U+30A4_U+30E4_U+30FC 1
 62
     7
420
 16777215
100
AcDbHatch
 10
0.0
 20
0.0
 30
0.0
210
0.0
220
0.0
230
1.0
  2
SOLID
 70
     1
 71
     0
 91
        2
 92
        1
 93
        1
 72
     4
 94
        3
 73
     0
 74
     1
 95
       32
 96
       28
 40
0.0
 40
0.0
 40
0.0
 40
0.0
 40
1.0
 40
1.0
 40
1.0
 40
2.0
 40
2.0
 40
2.0
 40
3.0
 40
3.0
 40
3.0
 40
4.0
 40
4.0
 40
4.0
 40
5.0
 40
5.0
 40
5.0
 40
6.0
 40
6.0
 40
6.0
 40
7.0
 40
7.0
 40
7.0
 40
8.0
 40
8.0
 40
8.0
 40
9.0
 40
9.0
 40
9.0
 40
9.0
 10
96.43407929446788
 20
-123.1259900950866
 10
96.43407929446788
 20
-123.6775498822751
 10
95.8801079404397
 20
-123.686679385311
 10
95.66616751080568
 20
-123.686679385311
 10
95.43569062284247
 20
-123.686679385311
 10
94.78835718116403
 20
-123.666353321948
 10
94.78835718116403
 20
-123.0853379683606
 10
94.78835718116403
 20
-122.8999918312542
 10
94.8582926195146
 20
-122.6376478100524
 10
95.19039982429268
 20
-122.5969956833265
 10
95.19039982429268
 20
-122.5969956833265
 10
95.19039982429268
 20
-122.8252332592242
 10
95.19039982429268
 20
-122.8252332592242
 10
95.13321123923754
 20
-122.8366020743256
 10
94.98507213337179
 20
-122.8705362648553
 10
94.98507213337179
 20
-123.087577280426
 10
94.98507213337179
 20
-123.3995306766154
 10
95.31304522356757
 20
-123.442594370181
 10
95.51802840493994
 20
-123.4560302425735
 10
95.43982473742477
 20
-123.356639237824
 10
95.38056909507847
 20
-123.2842922326338
 10
95.38056909507847
 20
-123.0898165924914
 10
95.38056909507847
 20
-122.8975802644145
 10
95.48874509331532
 20
-122.5744303078981
 10
95.89492185102627
 20
-122.5744303078981
 10
96.21428220250894
 20
-122.5744303078981
 10
96.43407929446788
 20
-122.7868204445637
 10
96.43407929446788
 20
-123.1259900950866
 97
        0
 97
        0
 92
        1
 93
        1
 72
     4
 94
        3
 73
     0
 74
     1
 95
       17
 96
       13
 40
0.0
 40
0.0
 40
0.0
 40
0.0
 40
1.0
 40
1.0
 40
1.0
 40
2.0
 40
2.0
 40
2.0
 40
3.0
 40
3.0
 40
3.0
 40
4.0
 40
4.0
 40
4.0
 40
4.0
 10
95.57521698999508
 20
-123.107903343789
 10
95.57521698999508
 20
-123.3881618615141
 10
95.78674585278942
 20
-123.4289862430143
 10
95.90319008019087
 20
-123.4289862430143
 10
96.07888994993861
 20
-123.4289862430143
 10
96.24184296639093
 20
-123.3271836714252
 10
96.24184296639093
 20
-123.1304687192174
 10
96.24184296639093
 20
-123.001622148069
 10
96.18258732404463
 20
-122.8140366988972
 10
95.89698890831743
 20
-122.8140366988972
 10
95.67271319222766
 20
-122.8140366988972
 10
95.57521698999508
 20
-122.9632093334085
 10
95.57521698999508
 20
-123.107903343789
 97
        0
 97
        0
 75
     2
 76
     1
 98
        0
  0
ENDBLK
  5
154
330
151
100
AcDbEntity
  8
0
100
AcDbBlockEnd
  0
ENDSEC
  0
SECTION
  2
ENTITIES
  0
POLYLINE
  5
41
330
1F
100
AcDbEntity
  8
_U+30EC_U+30A4_U+30E4_U+30FC 1
  6
AI-Linetype-1
 62
   154
420
    23468
370
    25
100
AcDb2dPolyline
 66
     1
 10
0.0
 20
0.0
 30
0.0
  0
VERTEX
  5
42
330
41
100
AcDbEntity
  8
_U+30EC_U+30A4_U+30E4_U+30FC 1
  6
AI-Linetype-1
 62
   154
420
    23468
370
    25
100
AcDbVertex
100
AcDb2dVertex
 10
80.53824738974258
 20
-119.4740152479094
 30
0.0
  0
VERTEX
  5
43
330
41
100
AcDbEntity
  8
_U+30EC_U+30A4_U+30E4_U+30FC 1
  6
AI-Linetype-1
 62
   154
420
    23468
370
    25
100
AcDbVertex
100
AcDb2dVertex
 10
82.16709290374281
 20
-119.4740152479094
 30
0.0
  0
VERTEX
  5
44
330
41
100
AcDbEntity
  8
_U+30EC_U+30A4_U+30E4_U+30FC 1
  6
AI-Linetype-1
 62
   154
420
    23468
370
    25
100
AcDbVertex
100
AcDb2dVertex
 10
82.16709290374281
 20
-125.4708846908545
 30
0.0
  0
VERTEX
  5
45
330
41
100
AcDbEntity
  8
_U+30EC_U+30A4_U+30E4_U+30FC 1
  6
AI-Linetype-1
 62
   154
420
    23468
370
    25
100
AcDbVertex
100
AcDb2dVertex
 10
88.17292497795688
 20
-125.4708846908545
 30
0.0
  0
VERTEX
  5
46
330
41
100
AcDbEntity
  8
_U+30EC_U+30A4_U+30E4_U+30FC 1
  6
AI-Linetype-1
 62
   154
420
    23468
370
    25
100
AcDbVertex
100
AcDb2dVertex
 10
88.17292497795688
 20
-126.9578077460383
 30
0.0
  0
SEQEND
  5
48
330
41
100
AcDbEntity
  8
_U+30EC_U+30A4_U+30E4_U+30FC 1
  6
AI-Linetype-1
 62
   154
420
    23468
370
    25
  0
POLYLINE
  5
49
330
1F
100
AcDbEntity
  8
_U+30EC_U+30A4_U+30E4_U+30FC 1
 62
   179
420
  2234388
370
     9
100
AcDb2dPolyline
 66
     1
 10
0.0
 20
0.0
 30
0.0
  0
VERTEX
  5
4A
330
49
100
AcDbEntity
  8
_U+30EC_U+30A4_U+30E4_U+30FC 1
 62
   179
420
  2234388
370
     9
100
AcDbVertex
100
AcDb2dVertex
 10
86.06521669318228
 20
-125.3268808020017
 30
0.0
  0
VERTEX
  5
4B
330
49
100
AcDbEntity
  8
_U+30EC_U+30A4_U+30E4_U+30FC 1
 62
   179
420
  2234388
370
     9
100
AcDbVertex
100
AcDb2dVertex
 10
91.48931599924643
 20
-117.6973910816868
 30
0.0
  0
VERTEX
  5
4C
330
49
100
AcDbEntity
  8
_U+30EC_U+30A4_U+30E4_U+30FC 1
 62
   179
420
  2234388
370
     9
100
AcDbVertex
100
AcDb2dVertex
 10
107.8493850263107
 20
-117.6973910816868
 30
0.0
  0
SEQEND
  5
4D
330
49
100
AcDbEntity
  8
_U+30EC_U+30A4_U+30E4_U+30FC 1
 62
   179
420
  2234388
370
     9
  0
INSERT
  5
4F
330
1F
100
AcDbEntity
  8
_U+30EC_U+30A4_U+30E4_U+30FC 1
100
AcDbBlockReference
  2
block 2
 10
0.0
 20
0.0
 30
0.0
  0
POLYLINE
  5
8C
330
1F
100
AcDbEntity
  8
_U+30EC_U+30A4_U+30E4_U+30FC 1
 62
     7
420
 16777215
370
    25
100
AcDb2dPolyline
 66
     1
 10
0.0
 20
0.0
 30
0.0
  0
VERTEX
  5
8D
330
8C
100
AcDbEntity
  8
_U+30EC_U+30A4_U+30E4_U+30FC 1
 62
     7
420
 16777215
370
    25
100
AcDbVertex
100
AcDb2dVertex
 10
81.56730014126703
 20
-135.5710535772181
 30
0.0
  0
VERTEX
  5
8E
330
8C
100
AcDbEntity
  8
_U+30EC_U+30A4_U+30E4_U+30FC 1
 62
     7
420
 16777215
370
    25
100
AcDbVertex
100
AcDb2dVertex
 10
87.56727387708384
 20
-135.5710535772181
 30
0.0
  0
SEQEND
  5
8F
330
8C
100
AcDbEntity
  8
_U+30EC_U+30A4_U+30E4_U+30FC 1
 62
     7
420
 16777215
370
    25
  0
POLYLINE
  5
90
330
1F
100
AcDbEntity
  8
_U+30EC_U+30A4_U+30E4_U+30FC 1
 62
     7
420
 16777215
370
    25
100
AcDb2dPolyline
 66
     1
 10
0.0
 20
0.0
 30
0.0
  0
VERTEX
  5
91
330
90
100
AcDbEntity
  8
_U+30EC_U+30A4_U+30E4_U+30FC 1
 62
     7
420
 16777215
370
    25
100
AcDbVertex
100
AcDb2dVertex
 10
81.56730014126703
 20
-127.0711552460099
 30
0.0
  0
VERTEX
  5
92
330
90
100
AcDbEntity
  8
_U+30EC_U+30A4_U+30E4_U+30FC 1
 62
     7
420
 16777215
370
    25
100
AcDbVertex
100
AcDb2dVertex
 10
87.56727387708384
 20
-127.0711552460099
 30
0.0
  0
SEQEND
  5
93
330
90
100
AcDbEntity
  8
_U+30EC_U+30A4_U+30E4_U+30FC 1
 62
     7
420
 16777215
370
    25
  0
POLYLINE
  5
94
330
1F
100
AcDbEntity
  8
_U+30EC_U+30A4_U+30E4_U+30FC 1
 62
     7
420
 16777215
370
    25
100
AcDb2dPolyline
 66
     1
 10
0.0
 20
0.0
 30
0.0
  0
VERTEX
  5
95
330
94
100
AcDbEntity
  8
_U+30EC_U+30A4_U+30E4_U+30FC 1
 62
     7
420
 16777215
370
    25
100
AcDbVertex
100
AcDb2dVertex
 10
81.56730014126703
 20
-136.5711785769684
 30
0.0
  0
VERTEX
  5
96
330
94
100
AcDbEntity
  8
_U+30EC_U+30A4_U+30E4_U+30FC 1
 62
     7
420
 16777215
370
    25
100
AcDbVertex
100
AcDb2dVertex
 10
94.56719619850094
 20
-136.5711785769684
 30
0.0
  0
SEQEND
  5
97
330
94
100
AcDbEntity
  8
_U+30EC_U+30A4_U+30E4_U+30FC 1
 62
     7
420
 16777215
370
    25
  0
POLYLINE
  5
98
330
1F
100
AcDbEntity
  8
_U+30EC_U+30A4_U+30E4_U+30FC 1
 62
     7
420
 16777215
370
    25
100
AcDb2dPolyline
 66
     1
 10
0.0
 20
0.0
 30
0.0
  0
VERTEX
  5
99
330
98
100
AcDbEntity
  8
_U+30EC_U+30A4_U+30E4_U+30FC 1
 62
     7
420
 16777215
370
    25
100
AcDbVertex
100
AcDb2dVertex
 10
80.56682238901357
 20
-120.0710563588712
 30
0.0
  0
VERTEX
  5
9A
330
98
100
AcDbEntity
  8
_U+30EC_U+30A4_U+30E4_U+30FC 1
 62
     7
420
 16777215
370
    25
100
AcDbVertex
100
AcDb2dVertex
 10
80.56682238901357
 20
-135.5710535772181
 30
0.0
  0
SEQEND
  5
9B
330
98
100
AcDbEntity
  8
_U+30EC_U+30A4_U+30E4_U+30FC 1
 62
     7
420
 16777215
370
    25
  0
POLYLINE
  5
9C
330
1F
100
AcDbEntity
  8
_U+30EC_U+30A4_U+30E4_U+30FC 1
 62
     7
420
 16777215
370
    25
100
AcDb2dPolyline
 66
     1
 10
0.0
 20
0.0
 30
0.0
  0
VERTEX
  5
9D
330
9C
100
AcDbEntity
  8
_U+30EC_U+30A4_U+30E4_U+30FC 1
 62
     7
420
 16777215
370
    25
100
AcDbVertex
100
AcDb2dVertex
 10
81.56730014126703
 20
-121.0711460808433
 30
0.0
  0
VERTEX
  5
9E
330
9C
100
AcDbEntity
  8
_U+30EC_U+30A4_U+30E4_U+30FC 1
 62
     7
420
 16777215
370
    25
100
AcDbVertex
100
AcDb2dVertex
 10
81.56730014126703
 20
-126.0710302462602
 30
0.0
  0
SEQEND
  5
9F
330
9C
100
AcDbEntity
  8
_U+30EC_U+30A4_U+30E4_U+30FC 1
 62
     7
420
 16777215
370
    25
  0
POLYLINE
  5
A0
330
1F
100
AcDbEntity
  8
_U+30EC_U+30A4_U+30E4_U+30FC 1
 62
     7
420
 16777215
370
    25
100
AcDb2dPolyline
 66
     1
 10
0.0
 20
0.0
 30
0.0
  0
VERTEX
  5
A1
330
A0
100
AcDbEntity
  8
_U+30EC_U+30A4_U+30E4_U+30FC 1
 62
     7
420
 16777215
370
    25
100
AcDbVertex
100
AcDb2dVertex
 10
81.56730014126703
 20
-126.0710302462602
 30
0.0
  0
VERTEX
  5
A2
330
A0
100
AcDbEntity
  8
_U+30EC_U+30A4_U+30E4_U+30FC 1
 62
     7
420
 16777215
370
    25
100
AcDbVertex
100
AcDb2dVertex
 10
86.56679612483038
 20
-126.0710302462602
 30
0.0
  0
SEQEND
  5
A3
330
A0
100
AcDbEntity
  8
_U+30EC_U+30A4_U+30E4_U+30FC 1
 62
     7
420
 16777215
370
    25
  0
POLYLINE
  5
A4
330
1F
100
AcDbEntity
  8
_U+30EC_U+30A4_U+30E4_U+30FC 1
 62
     7
420
 16777215
370
    25
100
AcDb2dPolyline
 66
     1
 10
0.0
 20
0.0
 30
0.0
  0
VERTEX
  5
A5
330
A4
100
AcDbEntity
  8
_U+30EC_U+30A4_U+30E4_U+30FC 1
 62
     7
420
 16777215
370
    25
100
AcDbVertex
100
AcDb2dVertex
 10
81.56730014126703
 20
-127.0711552460099
 30
0.0
  0
VERTEX
  5
A6
330
A4
100
AcDbEntity
  8
_U+30EC_U+30A4_U+30E4_U+30FC 1
 62
     7
420
 16777215
370
    25
100
AcDbVertex
100
AcDb2dVertex
 10
81.56730014126703
 20
-135.5710535772181
 30
0.0
  0
SEQEND
  5
A7
330
A4
100
AcDbEntity
  8
_U+30EC_U+30A4_U+30E4_U+30FC 1
 62
     7
420
 16777215
370
    25
  0
POLYLINE
  5
A8
330
1F
100
AcDbEntity
  8
_U+30EC_U+30A4_U+30E4_U+30FC 1
 62
     7
420
 16777215
370
    25
100
AcDb2dPolyline
 66
     1
 10
0.0
 20
0.0
 30
0.0
  0
VERTEX
  5
A9
330
A8
100
AcDbEntity
  8
_U+30EC_U+30A4_U+30E4_U+30FC 1
 62
     7
420
 16777215
370
    25
100
AcDbVertex
100
AcDb2dVertex
 10
87.92590775682321
 20
-135.7712196882797
 30
0.0
  0
VERTEX
  5
AA
330
A8
100
AcDbEntity
  8
_U+30EC_U+30A4_U+30E4_U+30FC 1
 62
     7
420
 16777215
370
    25
100
AcDbVertex
100
AcDb2dVertex
 10
93.7672373300207
 20
-135.7712196882797
 30
0.0
  0
SEQEND
  5
AB
330
A8
100
AcDbEntity
  8
_U+30EC_U+30A4_U+30E4_U+30FC 1
 62
     7
420
 16777215
370
    25
  0
POLYLINE
  5
AC
330
1F
100
AcDbEntity
  8
_U+30EC_U+30A4_U+30E4_U+30FC 1
 62
     7
420
 16777215
370
    25
100
AcDb2dPolyline
 66
     1
 10
0.0
 20
0.0
 30
0.0
  0
VERTEX
  5
AD
330
AC
100
AcDbEntity
  8
_U+30EC_U+30A4_U+30E4_U+30FC 1
 62
     7
420
 16777215
370
    25
100
AcDbVertex
100
AcDb2dVertex
 10
87.56727387708384
 20
-135.5710535772181
 30
0.0
  0
VERTEX
  5
AE
330
AC
100
AcDbEntity
  8
_U+30EC_U+30A4_U+30E4_U+30FC 1
 62
     7
420
 16777215
370
    25
100
AcDbVertex
100
AcDb2dVertex
 10
87.91313720159346
 20
-135.7712196882797
 30
0.0
  0
SEQEND
  5
AF
330
AC
100
AcDbEntity
  8
_U+30EC_U+30A4_U+30E4_U+30FC 1
 62
     7
420
 16777215
370
    25
  0
SPLINE
  5
B0
330
1F
100
AcDbEntity
  8
_U+30EC_U+30A4_U+30E4_U+30FC 1
 62
     7
420
 16777215
370
    25
100
AcDbSpline
210
0.0
220
0.0
230
1.0
 70
     8
 71
     3
 72
     8
 73
     4
 74
     0
 42
0.0000000001
 43
0.0000000001
 12
1.0
 22
0.0
 32
0.0
 13
1.0
 23
0.0
 33
0.0
 40
0.0
 40
0.0
 40
0.0
 40
0.0
 40
1.0
 40
1.0
 40
1.0
 40
1.0
 10
80.56682238901357
 20
-135.5710535772181
 30
0.0
 10
80.56682238901357
 20
-136.1236446881915
 30
0.0
 10
81.01467376647682
 20
-136.5711785769684
 30
0.0
 10
81.56730014126703
 20
-136.5711785769684
 30
0.0
  0
SPLINE
  5
B1
330
1F
100
AcDbEntity
  8
_U+30EC_U+30A4_U+30E4_U+30FC 1
 62
     7
420
 16777215
370
     9
100
AcDbSpline
210
0.0
220
0.0
230
1.0
 70
    11
 71
     3
 72
    17
 73
    13
 74
     0
 42
0.0000000001
 43
0.0000000001
 12
1.0
 22
0.0
 32
0.0
 13
1.0
 23
0.0
 33
0.0
 40
0.0
 40
0.0
 40
0.0
 40
0.0
 40
1.0
 40
1.0
 40
1.0
 40
2.0
 40
2.0
 40
2.0
 40
3.0
 40
3.0
 40
3.0
 40
4.0
 40
4.0
 40
4.0
 40
4.0
 10
80.6667290531314
 20
-124.3054127467013
 30
0.0
 10
80.6667290531314
 20
-124.2503088578264
 30
0.0
 10
80.62196155427351
 20
-124.2055060800597
 30
0.0
 10
80.56682238901357
 20
-124.2055060800597
 30
0.0
 10
80.5117185015305
 20
-124.2055060800597
 30
0.0
 10
80.46691572489573
 20
-124.2503088578264
 30
0.0
 10
80.46691572489573
 20
-124.3054127467013
 30
0.0
 10
80.46691572489573
 20
-124.3605519133544
 30
0.0
 10
80.5117185015305
 20
-124.4053194133433
 30
0.0
 10
80.56682238901357
 20
-124.4053194133433
 30
0.0
 10
80.62196155427351
 20
-124.4053194133433
 30
0.0
 10
80.6667290531314
 20
-124.3605519133544
 30
0.0
 10
80.6667290531314
 20
-124.3054127467013
 30
0.0
  0
SPLINE
  5
B2
330
1F
100
AcDbEntity
  8
_U+30EC_U+30A4_U+30E4_U+30FC 1
 62
     7
420
 16777215
370
     9
100
AcDbSpline
210
0.0
220
0.0
230
1.0
 70
    11
 71
     3
 72
    17
 73
    13
 74
     0
 42
0.0000000001
 43
0.0000000001
 12
1.0
 22
0.0
 32
0.0
 13
1.0
 23
0.0
 33
0.0
 40
0.0
 40
0.0
 40
0.0
 40
0.0
 40
1.0
 40
1.0
 40
1.0
 40
2.0
 40
2.0
 40
2.0
 40
3.0
 40
3.0
 40
3.0
 40
4.0
 40
4.0
 40
4.0
 40
4.0
 10
81.66720680538486
 20
-124.3054127467013
 30
0.0
 10
81.66720680538486
 20
-124.2503088578264
 30
0.0
 10
81.6224040287501
 20
-124.2055060800597
 30
0.0
 10
81.56730014126703
 20
-124.2055060800597
 30
0.0
 10
81.5114906982464
 20
-124.2055060800597
 30
0.0
 10
81.46668792161164
 20
-124.2503088578264
 30
0.0
 10
81.46668792161164
 20
-124.3054127467013
 30
0.0
 10
81.46668792161164
 20
-124.3605519133544
 30
0.0
 10
81.5114906982464
 20
-124.4053194133433
 30
0.0
 10
81.56730014126703
 20
-124.4053194133433
 30
0.0
 10
81.6224040287501
 20
-124.4053194133433
 30
0.0
 10
81.66720680538486
 20
-124.3605519133544
 30
0.0
 10
81.66720680538486
 20
-124.3054127467013
 30
0.0
  0
SPLINE
  5
B3
330
1F
100
AcDbEntity
  8
_U+30EC_U+30A4_U+30E4_U+30FC 1
 62
     7
420
 16777215
370
     9
100
AcDbSpline
210
0.0
220
0.0
230
1.0
 70
    11
 71
     3
 72
    17
 73
    13
 74
     0
 42
0.0000000001
 43
0.0000000001
 12
1.0
 22
0.0
 32
0.0
 13
1.0
 23
0.0
 33
0.0
 40
0.0
 40
0.0
 40
0.0
 40
0.0
 40
1.0
 40
1.0
 40
1.0
 40
2.0
 40
2.0
 40
2.0
 40
3.0
 40
3.0
 40
3.0
 40
4.0
 40
4.0
 40
4.0
 40
4.0
 10
94.56719619850094
 20
-140.5712552426348
 30
0.0
 10
94.56719619850094
 20
-140.5161513537599
 30
0.0
 10
94.52239342186617
 20
-140.4713485759932
 30
0.0
 10
94.4672895343831
 20
-140.4713485759932
 30
0.0
 10
94.41215275417474
 20
-140.4713485759932
 30
0.0
 10
94.36734997640802
 20
-140.5161513537599
 30
0.0
 10
94.36734997640802
 20
-140.5712552426348
 30
0.0
 10
94.36734997640802
 20
-140.6263944092879
 30
0.0
 10
94.41215275417474
 20
-140.6711619092765
 30
0.0
 10
94.4672895343831
 20
-140.6711619092765
 30
0.0
 10
94.52239342186617
 20
-140.6711619092765
 30
0.0
 10
94.56719619850094
 20
-140.6263944092879
 30
0.0
 10
94.56719619850094
 20
-140.5712552426348
 30
0.0
  0
SPLINE
  5
B4
330
1F
100
AcDbEntity
  8
_U+30EC_U+30A4_U+30E4_U+30FC 1
 62
     7
420
 16777215
370
     9
100
AcDbSpline
210
0.0
220
0.0
230
1.0
 70
    11
 71
     3
 72
    17
 73
    13
 74
     0
 42
0.0000000001
 43
0.0000000001
 12
1.0
 22
0.0
 32
0.0
 13
1.0
 23
0.0
 33
0.0
 40
0.0
 40
0.0
 40
0.0
 40
0.0
 40
1.0
 40
1.0
 40
1.0
 40
2.0
 40
2.0
 40
2.0
 40
3.0
 40
3.0
 40
3.0
 40
4.0
 40
4.0
 40
4.0
 40
4.0
 10
80.6667290531314
 20
-140.5712552426348
 30
0.0
 10
80.6667290531314
 20
-140.5161513537599
 30
0.0
 10
80.62196155427351
 20
-140.4713485759932
 30
0.0
 10
80.56682238901357
 20
-140.4713485759932
 30
0.0
 10
80.5117185015305
 20
-140.4713485759932
 30
0.0
 10
80.46691572489573
 20
-140.5161513537599
 30
0.0
 10
80.46691572489573
 20
-140.5712552426348
 30
0.0
 10
80.46691572489573
 20
-140.6263944092879
 30
0.0
 10
80.5117185015305
 20
-140.6711619092765
 30
0.0
 10
80.56682238901357
 20
-140.6711619092765
 30
0.0
 10
80.62196155427351
 20
-140.6711619092765
 30
0.0
 10
80.6667290531314
 20
-140.6263944092879
 30
0.0
 10
80.6667290531314
 20
-140.5712552426348
 30
0.0
  0
SPLINE
  5
B5
330
1F
100
AcDbEntity
  8
_U+30EC_U+30A4_U+30E4_U+30FC 1
 62
     7
420
 16777215
370
    25
100
AcDbSpline
210
0.0
220
0.0
230
1.0
 70
     8
 71
     3
 72
     8
 73
     4
 74
     0
 42
0.0000000001
 43
0.0000000001
 12
1.0
 22
0.0
 32
0.0
 13
1.0
 23
0.0
 33
0.0
 40
0.0
 40
0.0
 40
0.0
 40
0.0
 40
1.0
 40
1.0
 40
1.0
 40
1.0
 10
81.56730014126703
 20
-121.0708285808434
 30
0.0
 10
81.56730014126703
 20
-120.5189077476479
 30
0.0
 10
81.1194134860269
 20
-120.0710563588712
 30
0.0
 10
80.56682238901357
 20
-120.0710563588712
 30
0.0
  0
SPLINE
  5
B6
330
1F
100
AcDbEntity
  8
_U+30EC_U+30A4_U+30E4_U+30FC 1
 62
     7
420
 16777215
370
    25
100
AcDbSpline
210
0.0
220
0.0
230
1.0
 70
     8
 71
     3
 72
     8
 73
     4
 74
     0
 42
0.0000000001
 43
0.0000000001
 12
1.0
 22
0.0
 32
0.0
 13
1.0
 23
0.0
 33
0.0
 40
0.0
 40
0.0
 40
0.0
 40
0.0
 40
1.0
 40
1.0
 40
1.0
 40
1.0
 10
87.56727387708384
 20
-127.0711552460099
 30
0.0
 10
87.56727387708384
 20
-126.5188816350369
 30
0.0
 10
87.11938722184371
 20
-126.0710302462602
 30
0.0
 10
86.56679612483038
 20
-126.0710302462602
 30
0.0
  0
SPLINE
  5
B7
330
1F
100
AcDbEntity
  8
_U+30EC_U+30A4_U+30E4_U+30FC 1
 62
     7
420
 16777215
370
    25
100
AcDbSpline
210
0.0
220
0.0
230
1.0
 70
     8
 71
     3
 72
     8
 73
     4
 74
     0
 42
0.0000000001
 43
0.0000000001
 12
1.0
 22
0.0
 32
0.0
 13
1.0
 23
0.0
 33
0.0
 40
0.0
 40
0.0
 40
0.0
 40
0.0
 40
1.0
 40
1.0
 40
1.0
 40
1.0
 10
94.56719619850094
 20
-136.5711785769684
 30
0.0
 10
94.56719619850094
 20
-136.1295007993009
 30
0.0
 10
94.20887981875346
 20
-135.7712196882797
 30
0.0
 10
93.7672373300207
 20
-135.7712196882797
 30
0.0
  0
SPLINE
  5
B8
330
1F
100
AcDbEntity
  8
_U+30EC_U+30A4_U+30E4_U+30FC 1
 62
     7
420
 16777215
370
     9
100
AcDbSpline
210
0.0
220
0.0
230
1.0
 70
    11
 71
     3
 72
    17
 73
    13
 74
     0
 42
0.0000000001
 43
0.0000000001
 12
1.0
 22
0.0
 32
0.0
 13
1.0
 23
0.0
 33
0.0
 40
0.0
 40
0.0
 40
0.0
 40
0.0
 40
1.0
 40
1.0
 40
1.0
 40
2.0
 40
2.0
 40
2.0
 40
3.0
 40
3.0
 40
3.0
 40
4.0
 40
4.0
 40
4.0
 40
4.0
 10
76.66696998850709
 20
-120.0710563588712
 30
0.0
 10
76.66696998850709
 20
-120.0159171922181
 30
0.0
 10
76.62255526741798
 20
-119.9711496922296
 30
0.0
 10
76.56706332438925
 20
-119.9711496922296
 30
0.0
 10
76.51231221467496
 20
-119.9711496922296
 30
0.0
 10
76.46715666027141
 20
-120.0159171922181
 30
0.0
 10
76.46715666027141
 20
-120.0710563588712
 30
0.0
 10
76.46715666027141
 20
-120.1261602477461
 30
0.0
 10
76.51231221467496
 20
-120.1709630255128
 30
0.0
 10
76.56706332438925
 20
-120.1709630255128
 30
0.0
 10
76.62255526741798
 20
-120.1709630255128
 30
0.0
 10
76.66696998850709
 20
-120.1261602477461
 30
0.0
 10
76.66696998850709
 20
-120.0710563588712
 30
0.0
  0
SPLINE
  5
B9
330
1F
100
AcDbEntity
  8
_U+30EC_U+30A4_U+30E4_U+30FC 1
 62
     7
420
 16777215
370
     9
100
AcDbSpline
210
0.0
220
0.0
230
1.0
 70
    11
 71
     3
 72
    17
 73
    13
 74
     0
 42
0.0000000001
 43
0.0000000001
 12
1.0
 22
0.0
 32
0.0
 13
1.0
 23
0.0
 33
0.0
 40
0.0
 40
0.0
 40
0.0
 40
0.0
 40
1.0
 40
1.0
 40
1.0
 40
2.0
 40
2.0
 40
2.0
 40
3.0
 40
3.0
 40
3.0
 40
4.0
 40
4.0
 40
4.0
 40
4.0
 10
76.66696998850709
 20
-136.5711785769684
 30
0.0
 10
76.66696998850709
 20
-136.5160394103153
 30
0.0
 10
76.62255526741798
 20
-136.4712719103267
 30
0.0
 10
76.56706332438925
 20
-136.4712719103267
 30
0.0
 10
76.51231221467496
 20
-136.4712719103267
 30
0.0
 10
76.46715666027141
 20
-136.5160394103153
 30
0.0
 10
76.46715666027141
 20
-136.5711785769684
 30
0.0
 10
76.46715666027141
 20
-136.6266352436211
 30
0.0
 10
76.51231221467496
 20
-136.6714027436102
 30
0.0
 10
76.56706332438925
 20
-136.6714027436102
 30
0.0
 10
76.62255526741798
 20
-136.6714027436102
 30
0.0
 10
76.66696998850709
 20
-136.6266352436211
 30
0.0
 10
76.66696998850709
 20
-136.5711785769684
 30
0.0
  0
SPLINE
  5
BA
330
1F
100
AcDbEntity
  8
_U+30EC_U+30A4_U+30E4_U+30FC 1
 62
     7
420
 16777215
370
     9
100
AcDbSpline
210
0.0
220
0.0
230
1.0
 70
    11
 71
     3
 72
    17
 73
    13
 74
     0
 42
0.0000000001
 43
0.0000000001
 12
1.0
 22
0.0
 32
0.0
 13
1.0
 23
0.0
 33
0.0
 40
0.0
 40
0.0
 40
0.0
 40
0.0
 40
1.0
 40
1.0
 40
1.0
 40
2.0
 40
2.0
 40
2.0
 40
3.0
 40
3.0
 40
3.0
 40
4.0
 40
4.0
 40
4.0
 40
4.0
 10
97.0793266899667
 20
-135.5710535772181
 30
0.0
 10
97.0793266899667
 20
-135.5159144105656
 30
0.0
 10
97.03455919110883
 20
-135.4711469105764
 30
0.0
 10
96.97942002584887
 20
-135.4711469105764
 30
0.0
 10
96.9243161383658
 20
-135.4711469105764
 30
0.0
 10
96.87951336173104
 20
-135.5159144105656
 30
0.0
 10
96.87951336173104
 20
-135.5710535772181
 30
0.0
 10
96.87951336173104
 20
-135.6265102438714
 30
0.0
 10
96.9243161383658
 20
-135.6713130216374
 30
0.0
 10
96.97942002584887
 20
-135.6713130216374
 30
0.0
 10
97.03455919110883
 20
-135.6713130216374
 30
0.0
 10
97.0793266899667
 20
-135.6265102438714
 30
0.0
 10
97.0793266899667
 20
-135.5710535772181
 30
0.0
  0
SPLINE
  5
BB
330
1F
100
AcDbEntity
  8
_U+30EC_U+30A4_U+30E4_U+30FC 1
 62
     7
420
 16777215
370
     9
100
AcDbSpline
210
0.0
220
0.0
230
1.0
 70
    11
 71
     3
 72
    17
 73
    13
 74
     0
 42
0.0000000001
 43
0.0000000001
 12
1.0
 22
0.0
 32
0.0
 13
1.0
 23
0.0
 33
0.0
 40
0.0
 40
0.0
 40
0.0
 40
0.0
 40
1.0
 40
1.0
 40
1.0
 40
2.0
 40
2.0
 40
2.0
 40
3.0
 40
3.0
 40
3.0
 40
4.0
 40
4.0
 40
4.0
 40
4.0
 10
97.0793266899667
 20
-127.0711552460099
 30
0.0
 10
97.0793266899667
 20
-127.0160160793571
 30
0.0
 10
97.03455919110883
 20
-126.9712485793682
 30
0.0
 10
96.97942002584887
 20
-126.9712485793682
 30
0.0
 10
96.9243161383658
 20
-126.9712485793682
 30
0.0
 10
96.87951336173104
 20
-127.0160160793571
 30
0.0
 10
96.87951336173104
 20
-127.0711552460099
 30
0.0
 10
96.87951336173104
 20
-127.1266119126629
 30
0.0
 10
96.9243161383658
 20
-127.1713794126517
 30
0.0
 10
96.97942002584887
 20
-127.1713794126517
 30
0.0
 10
97.03455919110883
 20
-127.1713794126517
 30
0.0
 10
97.0793266899667
 20
-127.1266119126629
 30
0.0
 10
97.0793266899667
 20
-127.0711552460099
 30
0.0
  0
SPLINE
  5
BC
330
1F
100
AcDbEntity
  8
_U+30EC_U+30A4_U+30E4_U+30FC 1
 62
     7
420
 16777215
370
     9
100
AcDbSpline
210
0.0
220
0.0
230
1.0
 70
    11
 71
     3
 72
    17
 73
    13
 74
     0
 42
0.0000000001
 43
0.0000000001
 12
1.0
 22
0.0
 32
0.0
 13
1.0
 23
0.0
 33
0.0
 40
0.0
 40
0.0
 40
0.0
 40
0.0
 40
1.0
 40
1.0
 40
1.0
 40
2.0
 40
2.0
 40
2.0
 40
3.0
 40
3.0
 40
3.0
 40
4.0
 40
4.0
 40
4.0
 40
4.0
 10
97.0793266899667
 20
-120.0710563588712
 30
0.0
 10
97.0793266899667
 20
-120.0159171922181
 30
0.0
 10
97.03455919110883
 20
-119.9711496922296
 30
0.0
 10
96.97942002584887
 20
-119.9711496922296
 30
0.0
 10
96.9243161383658
 20
-119.9711496922296
 30
0.0
 10
96.87951336173104
 20
-120.0159171922181
 30
0.0
 10
96.87951336173104
 20
-120.0710563588712
 30
0.0
 10
96.87951336173104
 20
-120.1261602477461
 30
0.0
 10
96.9243161383658
 20
-120.1709630255128
 30
0.0
 10
96.97942002584887
 20
-120.1709630255128
 30
0.0
 10
97.03455919110883
 20
-120.1709630255128
 30
0.0
 10
97.0793266899667
 20
-120.1261602477461
 30
0.0
 10
97.0793266899667
 20
-120.0710563588712
 30
0.0
  0
POLYLINE
  5
BD
330
1F
100
AcDbEntity
  8
_U+30EC_U+30A4_U+30E4_U+30FC 1
 62
     7
420
 16777215
370
     9
100
AcDb2dPolyline
 66
     1
 10
0.0
 20
0.0
 30
0.0
  0
VERTEX
  5
BE
330
BD
100
AcDbEntity
  8
_U+30EC_U+30A4_U+30E4_U+30FC 1
 62
     7
420
 16777215
370
     9
100
AcDbVertex
100
AcDb2dVertex
 10
81.56730014126703
 20
-124.3054127467013
 30
0.0
  0
VERTEX
  5
BF
330
BD
100
AcDbEntity
  8
_U+30EC_U+30A4_U+30E4_U+30FC 1
 62
     7
420
 16777215
370
     9
100
AcDbVertex
100
AcDb2dVertex
 10
85.33761254507834
 20
-124.3054127467013
 30
0.0
  0
SEQEND
  5
C0
330
BD
100
AcDbEntity
  8
_U+30EC_U+30A4_U+30E4_U+30FC 1
 62
     7
420
 16777215
370
     9
  0
POLYLINE
  5
C1
330
1F
100
AcDbEntity
  8
_U+30EC_U+30A4_U+30E4_U+30FC 1
 62
     7
420
 16777215
370
     9
100
AcDb2dPolyline
 66
     1
 10
0.0
 20
0.0
 30
0.0
  0
VERTEX
  5
C2
330
C1
100
AcDbEntity
  8
_U+30EC_U+30A4_U+30E4_U+30FC 1
 62
     7
420
 16777215
370
     9
100
AcDbVertex
100
AcDb2dVertex
 10
79.56705019229766
 20
-124.3054127467013
 30
0.0
  0
VERTEX
  5
C3
330
C1
100
AcDbEntity
  8
_U+30EC_U+30A4_U+30E4_U+30FC 1
 62
     7
420
 16777215
370
     9
100
AcDbVertex
100
AcDb2dVertex
 10
81.56730014126703
 20
-124.3054127467013
 30
0.0
  0
SEQEND
  5
C4
330
C1
100
AcDbEntity
  8
_U+30EC_U+30A4_U+30E4_U+30FC 1
 62
     7
420
 16777215
370
     9
  0
INSERT
  5
C6
330
1F
100
AcDbEntity
  8
_U+30EC_U+30A4_U+30E4_U+30FC 1
100
AcDbBlockReference
  2
block 3
 10
0.0
 20
0.0
 30
0.0
  0
POLYLINE
  5
CB
330
1F
100
AcDbEntity
  8
_U+30EC_U+30A4_U+30E4_U+30FC 1
 62
     7
420
 16777215
370
     9
100
AcDb2dPolyline
 66
     1
 10
0.0
 20
0.0
 30
0.0
  0
VERTEX
  5
CC
330
CB
100
AcDbEntity
  8
_U+30EC_U+30A4_U+30E4_U+30FC 1
 62
     7
420
 16777215
370
     9
100
AcDbVertex
100
AcDb2dVertex
 10
80.56682238901357
 20
-140.5712552426348
 30
0.0
  0
VERTEX
  5
CD
330
CB
100
AcDbEntity
  8
_U+30EC_U+30A4_U+30E4_U+30FC 1
 62
     7
420
 16777215
370
     9
100
AcDbVertex
100
AcDb2dVertex
 10
94.56719619850094
 20
-140.5712552426348
 30
0.0
  0
SEQEND
  5
CE
330
CB
100
AcDbEntity
  8
_U+30EC_U+30A4_U+30E4_U+30FC 1
 62
     7
420
 16777215
370
     9
  0
POLYLINE
  5
CF
330
1F
100
AcDbEntity
  8
_U+30EC_U+30A4_U+30E4_U+30FC 1
 62
     7
420
 16777215
370
     9
100
AcDb2dPolyline
 66
     1
 10
0.0
 20
0.0
 30
0.0
  0
VERTEX
  5
D0
330
CF
100
AcDbEntity
  8
_U+30EC_U+30A4_U+30E4_U+30FC 1
 62
     7
420
 16777215
370
     9
100
AcDbVertex
100
AcDb2dVertex
 10
80.56682238901357
 20
-138.111124132139
 30
0.0
  0
VERTEX
  5
D1
330
CF
100
AcDbEntity
  8
_U+30EC_U+30A4_U+30E4_U+30FC 1
 62
     7
420
 16777215
370
     9
100
AcDbVertex
100
AcDb2dVertex
 10
80.56682238901357
 20
-141.5713802423851
 30
0.0
  0
SEQEND
  5
D2
330
CF
100
AcDbEntity
  8
_U+30EC_U+30A4_U+30E4_U+30FC 1
 62
     7
420
 16777215
370
     9
  0
POLYLINE
  5
D3
330
1F
100
AcDbEntity
  8
_U+30EC_U+30A4_U+30E4_U+30FC 1
 62
     7
420
 16777215
370
     9
100
AcDb2dPolyline
 66
     1
 10
0.0
 20
0.0
 30
0.0
  0
VERTEX
  5
D4
330
D3
100
AcDbEntity
  8
_U+30EC_U+30A4_U+30E4_U+30FC 1
 62
     7
420
 16777215
370
     9
100
AcDbVertex
100
AcDb2dVertex
 10
94.4672895343831
 20
-138.111124132139
 30
0.0
  0
VERTEX
  5
D5
330
D3
100
AcDbEntity
  8
_U+30EC_U+30A4_U+30E4_U+30FC 1
 62
     7
420
 16777215
370
     9
100
AcDbVertex
100
AcDb2dVertex
 10
94.4672895343831
 20
-141.5713802423851
 30
0.0
  0
SEQEND
  5
D6
330
D3
100
AcDbEntity
  8
_U+30EC_U+30A4_U+30E4_U+30FC 1
 62
     7
420
 16777215
370
     9
  0
INSERT
  5
D8
330
1F
100
AcDbEntity
  8
_U+30EC_U+30A4_U+30E4_U+30FC 1
100
AcDbBlockReference
  2
block 4
 10
0.0
 20
0.0
 30
0.0
  0
SPLINE
  5
F2
330
1F
100
AcDbEntity
  8
_U+30EC_U+30A4_U+30E4_U+30FC 1
 62
     7
420
 16777215
370
     9
100
AcDbSpline
210
0.0
220
0.0
230
1.0
 70
    11
 71
     3
 72
    17
 73
    13
 74
     0
 42
0.0000000001
 43
0.0000000001
 12
1.0
 22
0.0
 32
0.0
 13
1.0
 23
0.0
 33
0.0
 40
0.0
 40
0.0
 40
0.0
 40
0.0
 40
1.0
 40
1.0
 40
1.0
 40
2.0
 40
2.0
 40
2.0
 40
3.0
 40
3.0
 40
3.0
 40
4.0
 40
4.0
 40
4.0
 40
4.0
 10
87.76743998308828
 20
-118.0511919149318
 30
0.0
 10
87.76743998308828
 20
-117.9960880260566
 30
0.0
 10
87.72228442868474
 20
-117.9512852482898
 30
0.0
 10
87.66718054120167
 20
-117.9512852482898
 30
0.0
 10
87.61204137594173
 20
-117.9512852482898
 30
0.0
 10
87.56727387708384
 20
-117.9960880260566
 30
0.0
 10
87.56727387708384
 20
-118.0511919149318
 30
0.0
 10
87.56727387708384
 20
-118.1063310815846
 30
0.0
 10
87.61204137594173
 20
-118.1510985815734
 30
0.0
 10
87.66718054120167
 20
-118.1510985815734
 30
0.0
 10
87.72228442868474
 20
-118.1510985815734
 30
0.0
 10
87.76743998308828
 20
-118.1063310815846
 30
0.0
 10
87.76743998308828
 20
-118.0511919149318
 30
0.0
  0
SPLINE
  5
F3
330
1F
100
AcDbEntity
  8
_U+30EC_U+30A4_U+30E4_U+30FC 1
 62
     7
420
 16777215
370
     9
100
AcDbSpline
210
0.0
220
0.0
230
1.0
 70
    11
 71
     3
 72
    17
 73
    13
 74
     0
 42
0.0000000001
 43
0.0000000001
 12
1.0
 22
0.0
 32
0.0
 13
1.0
 23
0.0
 33
0.0
 40
0.0
 40
0.0
 40
0.0
 40
0.0
 40
1.0
 40
1.0
 40
1.0
 40
2.0
 40
2.0
 40
2.0
 40
3.0
 40
3.0
 40
3.0
 40
4.0
 40
4.0
 40
4.0
 40
4.0
 10
81.7671134695027
 20
-118.0511919149318
 30
0.0
 10
81.7671134695027
 20
-117.9960880260566
 30
0.0
 10
81.72231069286794
 20
-117.9512852482898
 30
0.0
 10
81.66720680538486
 20
-117.9512852482898
 30
0.0
 10
81.61206764012492
 20
-117.9512852482898
 30
0.0
 10
81.56730014126703
 20
-117.9960880260566
 30
0.0
 10
81.56730014126703
 20
-118.0511919149318
 30
0.0
 10
81.56730014126703
 20
-118.1063310815846
 30
0.0
 10
81.61206764012492
 20
-118.1510985815734
 30
0.0
 10
81.66720680538486
 20
-118.1510985815734
 30
0.0
 10
81.72231069286794
 20
-118.1510985815734
 30
0.0
 10
81.7671134695027
 20
-118.1063310815846
 30
0.0
 10
81.7671134695027
 20
-118.0511919149318
 30
0.0
  0
POLYLINE
  5
F4
330
1F
100
AcDbEntity
  8
_U+30EC_U+30A4_U+30E4_U+30FC 1
 62
     7
420
 16777215
370
     9
100
AcDb2dPolyline
 66
     1
 10
0.0
 20
0.0
 30
0.0
  0
VERTEX
  5
F5
330
F4
100
AcDbEntity
  8
_U+30EC_U+30A4_U+30E4_U+30FC 1
 62
     7
420
 16777215
370
     9
100
AcDbVertex
100
AcDb2dVertex
 10
81.66720680538486
 20
-118.0511919149318
 30
0.0
  0
VERTEX
  5
F6
330
F4
100
AcDbEntity
  8
_U+30EC_U+30A4_U+30E4_U+30FC 1
 62
     7
420
 16777215
370
     9
100
AcDbVertex
100
AcDb2dVertex
 10
87.66718054120167
 20
-118.0511919149318
 30
0.0
  0
SEQEND
  5
F7
330
F4
100
AcDbEntity
  8
_U+30EC_U+30A4_U+30E4_U+30FC 1
 62
     7
420
 16777215
370
     9
  0
POLYLINE
  5
F8
330
1F
100
AcDbEntity
  8
_U+30EC_U+30A4_U+30E4_U+30FC 1
 62
     7
420
 16777215
370
     9
100
AcDb2dPolyline
 66
     1
 10
0.0
 20
0.0
 30
0.0
  0
VERTEX
  5
F9
330
F8
100
AcDbEntity
  8
_U+30EC_U+30A4_U+30E4_U+30FC 1
 62
     7
420
 16777215
370
     9
100
AcDbVertex
100
AcDb2dVertex
 10
81.66720680538486
 20
-116.5909741375189
 30
0.0
  0
VERTEX
  5
FA
330
F8
100
AcDbEntity
  8
_U+30EC_U+30A4_U+30E4_U+30FC 1
 62
     7
420
 16777215
370
     9
100
AcDbVertex
100
AcDb2dVertex
 10
81.66720680538486
 20
-119.0513169146818
 30
0.0
  0
SEQEND
  5
FB
330
F8
100
AcDbEntity
  8
_U+30EC_U+30A4_U+30E4_U+30FC 1
 62
     7
420
 16777215
370
     9
  0
POLYLINE
  5
FC
330
1F
100
AcDbEntity
  8
_U+30EC_U+30A4_U+30E4_U+30FC 1
 62
     7
420
 16777215
370
     9
100
AcDb2dPolyline
 66
     1
 10
0.0
 20
0.0
 30
0.0
  0
VERTEX
  5
FD
330
FC
100
AcDbEntity
  8
_U+30EC_U+30A4_U+30E4_U+30FC 1
 62
     7
420
 16777215
370
     9
100
AcDbVertex
100
AcDb2dVertex
 10
87.66718054120167
 20
-116.5909741375189
 30
0.0
  0
VERTEX
  5
FE
330
FC
100
AcDbEntity
  8
_U+30EC_U+30A4_U+30E4_U+30FC 1
 62
     7
420
 16777215
370
     9
100
AcDbVertex
100
AcDb2dVertex
 10
87.66718054120167
 20
-119.0513169146818
 30
0.0
  0
SEQEND
  5
FF
330
FC
100
AcDbEntity
  8
_U+30EC_U+30A4_U+30E4_U+30FC 1
 62
     7
420
 16777215
370
     9
  0
INSERT
  5
101
330
1F
100
AcDbEntity
  8
_U+30EC_U+30A4_U+30E4_U+30FC 1
100
AcDbBlockReference
  2
block 5
 10
0.0
 20
0.0
 30
0.0
  0
POLYLINE
  5
107
330
1F
100
AcDbEntity
  8
_U+30EC_U+30A4_U+30E4_U+30FC 1
 62
     7
420
 16777215
370
     9
100
AcDb2dPolyline
 66
     1
 10
0.0
 20
0.0
 30
0.0
  0
VERTEX
  5
108
330
107
100
AcDbEntity
  8
_U+30EC_U+30A4_U+30E4_U+30FC 1
 62
     7
420
 16777215
370
     9
100
AcDbVertex
100
AcDb2dVertex
 10
76.56706332438925
 20
-136.5711785769684
 30
0.0
  0
VERTEX
  5
109
330
107
100
AcDbEntity
  8
_U+30EC_U+30A4_U+30E4_U+30FC 1
 62
     7
420
 16777215
370
     9
100
AcDbVertex
100
AcDb2dVertex
 10
76.56706332438925
 20
-120.0710563588712
 30
0.0
  0
SEQEND
  5
10A
330
107
100
AcDbEntity
  8
_U+30EC_U+30A4_U+30E4_U+30FC 1
 62
     7
420
 16777215
370
     9
  0
POLYLINE
  5
10B
330
1F
100
AcDbEntity
  8
_U+30EC_U+30A4_U+30E4_U+30FC 1
 62
     7
420
 16777215
370
     9
100
AcDb2dPolyline
 66
     1
 10
0.0
 20
0.0
 30
0.0
  0
VERTEX
  5
10C
330
10B
100
AcDbEntity
  8
_U+30EC_U+30A4_U+30E4_U+30FC 1
 62
     7
420
 16777215
370
     9
100
AcDbVertex
100
AcDb2dVertex
 10
79.02722965051407
 20
-136.5711785769684
 30
0.0
  0
VERTEX
  5
10D
330
10B
100
AcDbEntity
  8
_U+30EC_U+30A4_U+30E4_U+30FC 1
 62
     7
420
 16777215
370
     9
100
AcDbVertex
100
AcDb2dVertex
 10
75.56729112767334
 20
-136.5711785769684
 30
0.0
  0
SEQEND
  5
10E
330
10B
100
AcDbEntity
  8
_U+30EC_U+30A4_U+30E4_U+30FC 1
 62
     7
420
 16777215
370
     9
  0
POLYLINE
  5
10F
330
1F
100
AcDbEntity
  8
_U+30EC_U+30A4_U+30E4_U+30FC 1
 62
     7
420
 16777215
370
     9
100
AcDb2dPolyline
 66
     1
 10
0.0
 20
0.0
 30
0.0
  0
VERTEX
  5
110
330
10F
100
AcDbEntity
  8
_U+30EC_U+30A4_U+30E4_U+30FC 1
 62
     7
420
 16777215
370
     9
100
AcDbVertex
100
AcDb2dVertex
 10
78.02710467602938
 20
-120.0710563588712
 30
0.0
  0
VERTEX
  5
111
330
10F
100
AcDbEntity
  8
_U+30EC_U+30A4_U+30E4_U+30FC 1
 62
     7
420
 16777215
370
     9
100
AcDbVertex
100
AcDb2dVertex
 10
75.56729112767334
 20
-120.0710563588712
 30
0.0
  0
SEQEND
  5
112
330
10F
100
AcDbEntity
  8
_U+30EC_U+30A4_U+30E4_U+30FC 1
 62
     7
420
 16777215
370
     9
  0
INSERT
  5
114
330
1F
100
AcDbEntity
  8
_U+30EC_U+30A4_U+30E4_U+30FC 1
100
AcDbBlockReference
  2
block 6
 10
0.0
 20
0.0
 30
0.0
  0
POLYLINE
  5
126
330
1F
100
AcDbEntity
  8
_U+30EC_U+30A4_U+30E4_U+30FC 1
 62
     7
420
 16777215
370
     9
100
AcDb2dPolyline
 66
     1
 10
0.0
 20
0.0
 30
0.0
  0
VERTEX
  5
127
330
126
100
AcDbEntity
  8
_U+30EC_U+30A4_U+30E4_U+30FC 1
 62
     7
420
 16777215
370
     9
100
AcDbVertex
100
AcDb2dVertex
 10
96.97942002584887
 20
-135.5710535772181
 30
0.0
  0
VERTEX
  5
128
330
126
100
AcDbEntity
  8
_U+30EC_U+30A4_U+30E4_U+30FC 1
 62
     7
420
 16777215
370
     9
100
AcDbVertex
100
AcDb2dVertex
 10
96.97942002584887
 20
-127.0711552460099
 30
0.0
  0
SEQEND
  5
129
330
126
100
AcDbEntity
  8
_U+30EC_U+30A4_U+30E4_U+30FC 1
 62
     7
420
 16777215
370
     9
  0
POLYLINE
  5
12A
330
1F
100
AcDbEntity
  8
_U+30EC_U+30A4_U+30E4_U+30FC 1
 62
     7
420
 16777215
370
     9
100
AcDb2dPolyline
 66
     1
 10
0.0
 20
0.0
 30
0.0
  0
VERTEX
  5
12B
330
12A
100
AcDbEntity
  8
_U+30EC_U+30A4_U+30E4_U+30FC 1
 62
     7
420
 16777215
370
     9
100
AcDbVertex
100
AcDb2dVertex
 10
90.51903602400033
 20
-135.5710535772181
 30
0.0
  0
VERTEX
  5
12C
330
12A
100
AcDbEntity
  8
_U+30EC_U+30A4_U+30E4_U+30FC 1
 62
     7
420
 16777215
370
     9
100
AcDbVertex
100
AcDb2dVertex
 10
97.97919222256478
 20
-135.5710535772181
 30
0.0
  0
SEQEND
  5
12D
330
12A
100
AcDbEntity
  8
_U+30EC_U+30A4_U+30E4_U+30FC 1
 62
     7
420
 16777215
370
     9
  0
POLYLINE
  5
12E
330
1F
100
AcDbEntity
  8
_U+30EC_U+30A4_U+30E4_U+30FC 1
 62
     7
420
 16777215
370
     9
100
AcDb2dPolyline
 66
     1
 10
0.0
 20
0.0
 30
0.0
  0
VERTEX
  5
12F
330
12E
100
AcDbEntity
  8
_U+30EC_U+30A4_U+30E4_U+30FC 1
 62
     7
420
 16777215
370
     9
100
AcDbVertex
100
AcDb2dVertex
 10
90.51903602400033
 20
-127.0711552460099
 30
0.0
  0
VERTEX
  5
130
330
12E
100
AcDbEntity
  8
_U+30EC_U+30A4_U+30E4_U+30FC 1
 62
     7
420
 16777215
370
     9
100
AcDbVertex
100
AcDb2dVertex
 10
97.97919222256478
 20
-127.0711552460099
 30
0.0
  0
SEQEND
  5
131
330
12E
100
AcDbEntity
  8
_U+30EC_U+30A4_U+30E4_U+30FC 1
 62
     7
420
 16777215
370
     9
  0
SPLINE
  5
132
330
1F
100
AcDbEntity
  8
_U+30EC_U+30A4_U+30E4_U+30FC 1
 62
     7
420
 16777215
370
     9
100
AcDbSpline
210
0.0
220
0.0
230
1.0
 70
    11
 71
     3
 72
    17
 73
    13
 74
     0
 42
0.0000000001
 43
0.0000000001
 12
1.0
 22
0.0
 32
0.0
 13
1.0
 23
0.0
 33
0.0
 40
0.0
 40
0.0
 40
0.0
 40
0.0
 40
1.0
 40
1.0
 40
1.0
 40
2.0
 40
2.0
 40
2.0
 40
3.0
 40
3.0
 40
3.0
 40
4.0
 40
4.0
 40
4.0
 40
4.0
 10
97.0793266899667
 20
-125.9707708018408
 30
0.0
 10
97.0793266899667
 20
-125.9156669129656
 30
0.0
 10
97.03455919110883
 20
-125.8708641351988
 30
0.0
 10
96.97942002584887
 20
-125.8708641351988
 30
0.0
 10
96.9243161383658
 20
-125.8708641351988
 30
0.0
 10
96.87951336173104
 20
-125.9156669129656
 30
0.0
 10
96.87951336173104
 20
-125.9707708018408
 30
0.0
 10
96.87951336173104
 20
-126.0262274684935
 30
0.0
 10
96.9243161383658
 20
-126.0710302462602
 30
0.0
 10
96.97942002584887
 20
-126.0710302462602
 30
0.0
 10
97.03455919110883
 20
-126.0710302462602
 30
0.0
 10
97.0793266899667
 20
-126.0262274684935
 30
0.0
 10
97.0793266899667
 20
-125.9707708018408
 30
0.0
  0
POLYLINE
  5
133
330
1F
100
AcDbEntity
  8
_U+30EC_U+30A4_U+30E4_U+30FC 1
 62
     7
420
 16777215
370
     9
100
AcDb2dPolyline
 66
     1
 10
0.0
 20
0.0
 30
0.0
  0
VERTEX
  5
134
330
133
100
AcDbEntity
  8
_U+30EC_U+30A4_U+30E4_U+30FC 1
 62
     7
420
 16777215
370
     9
100
AcDbVertex
100
AcDb2dVertex
 10
90.51903602400033
 20
-125.9707708018408
 30
0.0
  0
VERTEX
  5
135
330
133
100
AcDbEntity
  8
_U+30EC_U+30A4_U+30E4_U+30FC 1
 62
     7
420
 16777215
370
     9
100
AcDbVertex
100
AcDb2dVertex
 10
97.97919222256478
 20
-125.9707708018408
 30
0.0
  0
SEQEND
  5
136
330
133
100
AcDbEntity
  8
_U+30EC_U+30A4_U+30E4_U+30FC 1
 62
     7
420
 16777215
370
     9
  0
INSERT
  5
138
330
1F
100
AcDbEntity
  8
_U+30EC_U+30A4_U+30E4_U+30FC 1
100
AcDbBlockReference
  2
block 7
 10
0.0
 20
0.0
 30
0.0
  0
POLYLINE
  5
149
330
1F
100
AcDbEntity
  8
_U+30EC_U+30A4_U+30E4_U+30FC 1
 62
     7
420
 16777215
370
     9
100
AcDb2dPolyline
 66
     1
 10
0.0
 20
0.0
 30
0.0
  0
VERTEX
  5
14A
330
149
100
AcDbEntity
  8
_U+30EC_U+30A4_U+30E4_U+30FC 1
 62
     7
420
 16777215
370
     9
100
AcDbVertex
100
AcDb2dVertex
 10
96.97942002584887
 20
-127.0711552460099
 30
0.0
  0
VERTEX
  5
14B
330
149
100
AcDbEntity
  8
_U+30EC_U+30A4_U+30E4_U+30FC 1
 62
     7
420
 16777215
370
     9
100
AcDbVertex
100
AcDb2dVertex
 10
96.97942002584887
 20
-120.0710563588712
 30
0.0
  0
SEQEND
  5
14C
330
149
100
AcDbEntity
  8
_U+30EC_U+30A4_U+30E4_U+30FC 1
 62
     7
420
 16777215
370
     9
  0
POLYLINE
  5
14D
330
1F
100
AcDbEntity
  8
_U+30EC_U+30A4_U+30E4_U+30FC 1
 62
     7
420
 16777215
370
     9
100
AcDb2dPolyline
 66
     1
 10
0.0
 20
0.0
 30
0.0
  0
VERTEX
  5
14E
330
14D
100
AcDbEntity
  8
_U+30EC_U+30A4_U+30E4_U+30FC 1
 62
     7
420
 16777215
370
     9
100
AcDbVertex
100
AcDb2dVertex
 10
90.51903602400033
 20
-120.0710563588712
 30
0.0
  0
VERTEX
  5
14F
330
14D
100
AcDbEntity
  8
_U+30EC_U+30A4_U+30E4_U+30FC 1
 62
     7
420
 16777215
370
     9
100
AcDbVertex
100
AcDb2dVertex
 10
97.97919222256478
 20
-120.0710563588712
 30
0.0
  0
SEQEND
  5
150
330
14D
100
AcDbEntity
  8
_U+30EC_U+30A4_U+30E4_U+30FC 1
 62
     7
420
 16777215
370
     9
  0
INSERT
  5
152
330
1F
100
AcDbEntity
  8
_U+30EC_U+30A4_U+30E4_U+30FC 1
100
AcDbBlockReference
  2
block 8
 10
0.0
 20
0.0
 30
0.0
  0
ENDSEC
  0
SECTION
  2
OBJECTS
  0
DICTIONARY
  5
C
330
0
100
AcDbDictionary
281
     1
  3
ACAD_GROUP
350
D
  3
ACAD_LAYOUT
350
1A
  3
ACAD_MATERIAL
350
3B
  3
ACAD_MLEADERSTYLE
350
159
  3
ACAD_MLINESTYLE
350
17
  3
ACAD_PLOTSETTINGS
350
19
  3
ACAD_PLOTSTYLENAME
350
E
  3
ACAD_TABLESTYLE
350
158
  3
ACAD_VISUALSTYLE
350
2A
  0
SUN
  5
3F
330
29
100
AcDbSun
 90
        1
290
     0
 63
     7
421
 16777215
 40
1.0
291
     1
 91
  2455826
 92
 54000000
292
     0
 70
     2
 71
   256
280
     1
  0
DICTIONARY
  5
D
102
{ACAD_REACTORS
330
C
102
}
330
C
100
AcDbDictionary
281
     1
  0
DICTIONARY
  5
1A
102
{ACAD_REACTORS
330
C
102
}
330
C
100
AcDbDictionary
281
     1
  3
Layout1
350
1E
  3
Layout2
350
26
  3
Model
350
22
  0
DICTIONARY
  5
3B
102
{ACAD_REACTORS
330
C
102
}
330
C
100
AcDbDictionary
281
     1
  3
ByBlock
350
3D
  3
ByLayer
350
3C
  3
Global
350
3E
  0
DICTIONARY
  5
159
102
{ACAD_REACTORS
330
C
102
}
330
C
100
AcDbDictionary
281
     1
  0
DICTIONARY
  5
17
102
{ACAD_REACTORS
330
C
102
}
330
C
100
AcDbDictionary
281
     1
  3
Standard
350
18
  0
DICTIONARY
  5
19
102
{ACAD_REACTORS
330
C
102
}
330
C
100
AcDbDictionary
281
     1
  0
ACDBDICTIONARYWDFLT
  5
E
102
{ACAD_REACTORS
330
C
102
}
330
C
100
AcDbDictionary
281
     1
  3
Normal
350
F
100
AcDbDictionaryWithDefault
340
F
  0
DICTIONARY
  5
158
102
{ACAD_REACTORS
330
C
102
}
330
C
100
AcDbDictionary
281
     1
  0
DICTIONARY
  5
2A
102
{ACAD_REACTORS
330
C
102
}
330
C
100
AcDbDictionary
281
     1
  3
2dWireframe
350
2F
  3
3D Hidden
350
31
  3
3dWireframe
350
30
  3
Basic
350
32
  3
Brighten
350
36
  3
ColorChange
350
3A
  3
Conceptual
350
34
  3
Dim
350
35
  3
Facepattern
350
39
  3
Flat
350
2B
  3
FlatWithEdges
350
2C
  3
Gouraud
350
2D
  3
GouraudWithEdges
350
2E
  3
Linepattern
350
38
  3
Realistic
350
33
  3
Thicken
350
37
  0
LAYOUT
  5
1E
102
{ACAD_REACTORS
330
1A
102
}
330
1A
100
AcDbPlotSettings
  1

  2
none_device
  4

  6

 40
0.0
 41
0.0
 42
0.0
 43
0.0
 44
0.0
 45
0.0
 46
0.0
 47
0.0
 48
0.0
 49
0.0
140
0.0
141
0.0
142
1.0
143
1.0
 70
   688
 72
     0
 73
     0
 74
     5
  7

 75
    16
 76
     0
 77
     2
 78
   300
147
1.0
148
0.0
149
0.0
100
AcDbLayout
  1
Layout1
 70
     1
 71
     1
 10
0.0
 20
0.0
 11
12.0
 21
9.0
 12
0.0
 22
0.0
 32
0.0
 14
1.000000000000000E+20
 24
1.000000000000000E+20
 34
1.000000000000000E+20
 15
-1.000000000000000E+20
 25
-1.000000000000000E+20
 35
-1.000000000000000E+20
146
0.0
 13
0.0
 23
0.0
 33
0.0
 16
1.0
 26
0.0
 36
0.0
 17
0.0
 27
1.0
 37
0.0
 76
     0
330
1B
  0
LAYOUT
  5
26
102
{ACAD_REACTORS
330
1A
102
}
330
1A
100
AcDbPlotSettings
  1

  2
none_device
  4

  6

 40
0.0
 41
0.0
 42
0.0
 43
0.0
 44
0.0
 45
0.0
 46
0.0
 47
0.0
 48
0.0
 49
0.0
140
0.0
141
0.0
142
1.0
143
1.0
 70
   688
 72
     0
 73
     0
 74
     5
  7

 75
    16
 76
     0
 77
     2
 78
   300
147
1.0
148
0.0
149
0.0
100
AcDbLayout
  1
Layout2
 70
     1
 71
     2
 10
0.0
 20
0.0
 11
0.0
 21
0.0
 12
0.0
 22
0.0
 32
0.0
 14
0.0
 24
0.0
 34
0.0
 15
0.0
 25
0.0
 35
0.0
146
0.0
 13
0.0
 23
0.0
 33
0.0
 16
1.0
 26
0.0
 36
0.0
 17
0.0
 27
1.0
 37
0.0
 76
     0
330
23
  0
LAYOUT
  5
22
102
{ACAD_REACTORS
330
1A
102
}
330
1A
100
AcDbPlotSettings
  1

  2
none_device
  4

  6

 40
0.0
 41
0.0
 42
0.0
 43
0.0
 44
0.0
 45
0.0
 46
0.0
 47
0.0
 48
0.0
 49
0.0
140
0.0
141
0.0
142
1.0
143
1.0
 70
  1712
 72
     0
 73
     0
 74
     0
  7

 75
     0
 76
     0
 77
     2
 78
   300
147
1.0
148
0.0
149
0.0
100
AcDbLayout
  1
Model
 70
     1
 71
     0
 10
0.0
 20
0.0
 11
12.0
 21
9.0
 12
0.0
 22
0.0
 32
0.0
 14
1.000000000000000E+20
 24
1.000000000000000E+20
 34
1.000000000000000E+20
 15
-1.000000000000000E+20
 25
-1.000000000000000E+20
 35
-1.000000000000000E+20
146
0.0
 13
0.0
 23
0.0
 33
0.0
 16
1.0
 26
0.0
 36
0.0
 17
0.0
 27
1.0
 37
0.0
 76
     0
330
1F
331
29
  0
MATERIAL
  5
3D
102
{ACAD_REACTORS
330
3B
102
}
330
3B
100
AcDbMaterial
  1
ByBlock
 72
     1
 94
      127
  0
MATERIAL
  5
3C
102
{ACAD_REACTORS
330
3B
102
}
330
3B
100
AcDbMaterial
  1
ByLayer
 72
     1
 94
      127
  0
MATERIAL
  5
3E
102
{ACAD_REACTORS
330
3B
102
}
330
3B
100
AcDbMaterial
  1
Global
 72
     1
 94
      127
  0
MLINESTYLE
  5
18
102
{ACAD_REACTORS
330
17
102
}
330
17
100
AcDbMlineStyle
  2
Standard
 70
     0
  3

 62
   256
 51
90.0
 52
90.0
 71
     2
 49
0.5
 62
   256
  6
BYLAYER
 49
-0.5
 62
   256
  6
BYLAYER
  0
ACDBPLACEHOLDER
  5
F
102
{ACAD_REACTORS
330
E
102
}
330
E
  0
VISUALSTYLE
  5
2F
102
{ACAD_REACTORS
330
2A
102
}
330
2A
100
AcDbVisualStyle
  2
2dWireframe
 70
     4
177
     2
291
     0
 71
     0
176
     1
 72
     2
176
     1
 73
     0
176
     1
 90
        0
176
     1
 40
-0.6
176
     1
 41
-30.0
176
     1
 62
     5
 63
     7
421
 16777215
176
     1
 74
     1
176
     1
 91
        4
176
     1
 64
     7
176
     1
 65
   257
176
     1
 75
     1
176
     1
175
     1
176
     1
 42
1.0
176
     1
 92
        0
176
     1
 66
   257
176
     1
 43
1.0
176
     1
 76
     1
176
     1
 77
     6
176
     1
 78
     2
176
     1
 67
     7
176
     1
 79
     5
176
     1
170
     0
176
     1
171
     0
176
     1
290
     0
176
     1
 93
        1
176
     1
 44
0.0
176
     1
173
     0
176
     1
  0
VISUALSTYLE
  5
31
102
{ACAD_REACTORS
330
2A
102
}
330
2A
100
AcDbVisualStyle
  2
3D Hidden
 70
     6
177
     2
291
     0
 71
     1
176
     1
 72
     2
176
     1
 73
     2
176
     1
 90
        0
176
     1
 40
-0.6
176
     1
 41
-30.0
176
     1
 62
     5
 63
     7
421
 16777215
176
     1
 74
     2
176
     1
 91
        2
176
     1
 64
     7
176
     1
 65
   257
176
     1
 75
     2
176
     1
175
     1
176
     1
 42
40.0
176
     1
 92
        0
176
     1
 66
   257
176
     1
 43
1.0
176
     1
 76
     1
176
     1
 77
     6
176
     1
 78
     2
176
     1
 67
     7
176
     1
 79
     3
176
     1
170
     0
176
     1
171
     0
176
     1
290
     0
176
     1
 93
        1
176
     1
 44
0.0
176
     1
173
     0
176
     1
  0
VISUALSTYLE
  5
30
102
{ACAD_REACTORS
330
2A
102
}
330
2A
100
AcDbVisualStyle
  2
3dWireframe
 70
     5
177
     2
291
     0
 71
     0
176
     1
 72
     2
176
     1
 73
     0
176
     1
 90
        0
176
     1
 40
-0.6
176
     1
 41
-30.0
176
     1
 62
     5
 63
     7
421
 16777215
176
     1
 74
     1
176
     1
 91
        4
176
     1
 64
     7
176
     1
 65
   257
176
     1
 75
     1
176
     1
175
     1
176
     1
 42
1.0
176
     1
 92
        0
176
     1
 66
   257
176
     1
 43
1.0
176
     1
 76
     1
176
     1
 77
     6
176
     1
 78
     2
176
     1
 67
     7
176
     1
 79
     5
176
     1
170
     0
176
     1
171
     0
176
     1
290
     0
176
     1
 93
        1
176
     1
 44
0.0
176
     1
173
     0
176
     1
  0
VISUALSTYLE
  5
32
102
{ACAD_REACTORS
330
2A
102
}
330
2A
100
AcDbVisualStyle
  2
Basic
 70
     7
177
     2
291
     1
 71
     1
176
     1
 72
     0
176
     1
 73
     1
176
     1
 90
        0
176
     1
 40
-0.6
176
     1
 41
-30.0
176
     1
 62
     5
 63
     7
421
 16777215
176
     1
 74
     0
176
     1
 91
        4
176
     1
 64
     7
176
     1
 65
   257
176
     1
 75
     1
176
     1
175
     1
176
     1
 42
1.0
176
     1
 92
        8
176
     1
 66
     7
176
     1
 43
1.0
176
     1
 76
     1
176
     1
 77
     6
176
     1
 78
     2
176
     1
 67
     7
176
     1
 79
     5
176
     1
170
     0
176
     1
171
     0
176
     1
290
     0
176
     1
 93
        1
176
     1
 44
0.0
176
     1
173
     0
176
     1
  0
VISUALSTYLE
  5
36
102
{ACAD_REACTORS
330
2A
102
}
330
2A
100
AcDbVisualStyle
  2
Brighten
 70
    12
177
     2
291
     1
 71
     2
176
     1
 72
     2
176
     1
 73
     0
176
     1
 90
        0
176
     1
 40
-0.6
176
     1
 41
-30.0
176
     1
 62
     5
 63
     7
421
 16777215
176
     1
 74
     1
176
     1
 91
        4
176
     1
 64
     7
176
     1
 65
   257
176
     1
 75
     1
176
     1
175
     1
176
     1
 42
1.0
176
     1
 92
        8
176
     1
 66
     7
176
     1
 43
1.0
176
     1
 76
     1
176
     1
 77
     6
176
     1
 78
     2
176
     1
 67
     7
176
     1
 79
     5
176
     1
170
     0
176
     1
171
     0
176
     1
290
     0
176
     1
 93
        1
176
     1
 44
50.0
176
     1
173
     0
176
     1
  0
VISUALSTYLE
  5
3A
102
{ACAD_REACTORS
330
2A
102
}
330
2A
100
AcDbVisualStyle
  2
ColorChange
 70
    16
177
     2
291
     1
 71
     2
176
     1
 72
     2
176
     1
 73
     3
176
     1
 90
        0
176
     1
 40
-0.6
176
     1
 41
-30.0
176
     1
 62
     5
 63
     8
421
  8421504
176
     1
 74
     1
176
     1
 91
        4
176
     1
 64
     7
176
     1
 65
   257
176
     1
 75
     1
176
     1
175
     1
176
     1
 42
1.0
176
     1
 92
        8
176
     1
 66
     8
424
  8421504
176
     1
 43
1.0
176
     1
 76
     1
176
     1
 77
     6
176
     1
 78
     2
176
     1
 67
     7
176
     1
 79
     5
176
     1
170
     0
176
     1
171
     0
176
     1
290
     0
176
     1
 93
        1
176
     1
 44
0.0
176
     1
173
     0
176
     1
  0
VISUALSTYLE
  5
34
102
{ACAD_REACTORS
330
2A
102
}
330
2A
100
AcDbVisualStyle
  2
Conceptual
 70
     9
177
     2
291
     0
 71
     3
176
     1
 72
     2
176
     1
 73
     0
176
     1
 90
        0
176
     1
 40
-0.6
176
     1
 41
-30.0
176
     1
 62
     5
 63
     7
421
 16777215
176
     1
 74
     2
176
     1
 91
        2
176
     1
 64
     7
176
     1
 65
   257
176
     1
 75
     1
176
     1
175
     1
176
     1
 42
40.0
176
     1
 92
        8
176
     1
 66
     7
176
     1
 43
1.0
176
     1
 76
     1
176
     1
 77
     6
176
     1
 78
     2
176
     1
 67
     7
176
     1
 79
     3
176
     1
170
     0
176
     1
171
     0
176
     1
290
     0
176
     1
 93
        1
176
     1
 44
0.0
176
     1
173
     0
176
     1
  0
VISUALSTYLE
  5
35
102
{ACAD_REACTORS
330
2A
102
}
330
2A
100
AcDbVisualStyle
  2
Dim
 70
    11
177
     2
291
     1
 71
     2
176
     1
 72
     2
176
     1
 73
     0
176
     1
 90
        0
176
     1
 40
-0.6
176
     1
 41
-30.0
176
     1
 62
     5
 63
     7
421
 16777215
176
     1
 74
     1
176
     1
 91
        4
176
     1
 64
     7
176
     1
 65
   257
176
     1
 75
     1
176
     1
175
     1
176
     1
 42
1.0
176
     1
 92
        8
176
     1
 66
     7
176
     1
 43
1.0
176
     1
 76
     1
176
     1
 77
     6
176
     1
 78
     2
176
     1
 67
     7
176
     1
 79
     5
176
     1
170
     0
176
     1
171
     0
176
     1
290
     0
176
     1
 93
        1
176
     1
 44
-50.0
176
     1
173
     0
176
     1
  0
VISUALSTYLE
  5
39
102
{ACAD_REACTORS
330
2A
102
}
330
2A
100
AcDbVisualStyle
  2
Facepattern
 70
    15
177
     2
291
     1
 71
     2
176
     1
 72
     2
176
     1
 73
     0
176
     1
 90
        0
176
     1
 40
-0.6
176
     1
 41
-30.0
176
     1
 62
     5
 63
     7
421
 16777215
176
     1
 74
     1
176
     1
 91
        4
176
     1
 64
     7
176
     1
 65
   257
176
     1
 75
     1
176
     1
175
     1
176
     1
 42
1.0
176
     1
 92
        8
176
     1
 66
     7
176
     1
 43
1.0
176
     1
 76
     1
176
     1
 77
     6
176
     1
 78
     2
176
     1
 67
     7
176
     1
 79
     5
176
     1
170
     0
176
     1
171
     0
176
     1
290
     0
176
     1
 93
        1
176
     1
 44
0.0
176
     1
173
     0
176
     1
  0
VISUALSTYLE
  5
2B
102
{ACAD_REACTORS
330
2A
102
}
330
2A
100
AcDbVisualStyle
  2
Flat
 70
     0
177
     2
291
     1
 71
     2
176
     1
 72
     1
176
     1
 73
     1
176
     1
 90
        2
176
     1
 40
-0.6
176
     1
 41
30.0
176
     1
 62
     5
 63
     7
421
 16777215
176
     1
 74
     0
176
     1
 91
        4
176
     1
 64
     7
176
     1
 65
   257
176
     1
 75
     1
176
     1
175
     1
176
     1
 42
1.0
176
     1
 92
        8
176
     1
 66
     7
176
     1
 43
1.0
176
     1
 76
     1
176
     1
 77
     6
176
     1
 78
     2
176
     1
 67
     7
176
     1
 79
     5
176
     1
170
     0
176
     1
171
     0
176
     1
290
     0
176
     1
 93
       13
176
     1
 44
0.0
176
     1
173
     0
176
     1
  0
VISUALSTYLE
  5
2C
102
{ACAD_REACTORS
330
2A
102
}
330
2A
100
AcDbVisualStyle
  2
FlatWithEdges
 70
     1
177
     2
291
     1
 71
     2
176
     1
 72
     1
176
     1
 73
     1
176
     1
 90
        2
176
     1
 40
-0.6
176
     1
 41
30.0
176
     1
 62
     5
 63
     7
421
 16777215
176
     1
 74
     1
176
     1
 91
        4
176
     1
 64
     7
176
     1
 65
   257
176
     1
 75
     1
176
     1
175
     1
176
     1
 42
1.0
176
     1
 92
        0
176
     1
 66
   257
176
     1
 43
1.0
176
     1
 76
     1
176
     1
 77
     6
176
     1
 78
     2
176
     1
 67
     7
176
     1
 79
     5
176
     1
170
     0
176
     1
171
     0
176
     1
290
     0
176
     1
 93
       13
176
     1
 44
0.0
176
     1
173
     0
176
     1
  0
VISUALSTYLE
  5
2D
102
{ACAD_REACTORS
330
2A
102
}
330
2A
100
AcDbVisualStyle
  2
Gouraud
 70
     2
177
     2
291
     1
 71
     2
176
     1
 72
     2
176
     1
 73
     1
176
     1
 90
        2
176
     1
 40
-0.6
176
     1
 41
30.0
176
     1
 62
     5
 63
     7
421
 16777215
176
     1
 74
     0
176
     1
 91
        4
176
     1
 64
     7
176
     1
 65
   257
176
     1
 75
     1
176
     1
175
     1
176
     1
 42
1.0
176
     1
 92
        0
176
     1
 66
     7
176
     1
 43
1.0
176
     1
 76
     1
176
     1
 77
     6
176
     1
 78
     2
176
     1
 67
     7
176
     1
 79
     5
176
     1
170
     0
176
     1
171
     0
176
     1
290
     0
176
     1
 93
       13
176
     1
 44
0.0
176
     1
173
     0
176
     1
  0
VISUALSTYLE
  5
2E
102
{ACAD_REACTORS
330
2A
102
}
330
2A
100
AcDbVisualStyle
  2
GouraudWithEdges
 70
     3
177
     2
291
     1
 71
     2
176
     1
 72
     2
176
     1
 73
     1
176
     1
 90
        2
176
     1
 40
-0.6
176
     1
 41
30.0
176
     1
 62
     5
 63
     7
421
 16777215
176
     1
 74
     1
176
     1
 91
        4
176
     1
 64
     7
176
     1
 65
   257
176
     1
 75
     1
176
     1
175
     1
176
     1
 42
1.0
176
     1
 92
        0
176
     1
 66
   257
176
     1
 43
1.0
176
     1
 76
     1
176
     1
 77
     6
176
     1
 78
     2
176
     1
 67
     7
176
     1
 79
     5
176
     1
170
     0
176
     1
171
     0
176
     1
290
     0
176
     1
 93
       13
176
     1
 44
0.0
176
     1
173
     0
176
     1
  0
VISUALSTYLE
  5
38
102
{ACAD_REACTORS
330
2A
102
}
330
2A
100
AcDbVisualStyle
  2
Linepattern
 70
    14
177
     2
291
     1
 71
     2
176
     1
 72
     2
176
     1
 73
     0
176
     1
 90
        0
176
     1
 40
-0.6
176
     1
 41
-30.0
176
     1
 62
     5
 63
     7
421
 16777215
176
     1
 74
     1
176
     1
 91
        4
176
     1
 64
     7
176
     1
 65
   257
176
     1
 75
     7
176
     1
175
     7
176
     1
 42
1.0
176
     1
 92
        8
176
     1
 66
     7
176
     1
 43
1.0
176
     1
 76
     1
176
     1
 77
     6
176
     1
 78
     2
176
     1
 67
     7
176
     1
 79
     5
176
     1
170
     0
176
     1
171
     0
176
     1
290
     0
176
     1
 93
        1
176
     1
 44
0.0
176
     1
173
     0
176
     1
  0
VISUALSTYLE
  5
33
102
{ACAD_REACTORS
330
2A
102
}
330
2A
100
AcDbVisualStyle
  2
Realistic
 70
     8
177
     2
291
     0
 71
     2
176
     1
 72
     2
176
     1
 73
     0
176
     1
 90
        0
176
     1
 40
-0.6
176
     1
 41
-30.0
176
     1
 62
     5
 63
     7
421
 16777215
176
     1
 74
     1
176
     1
 91
        0
176
     1
 64
     7
176
     1
 65
   257
176
     1
 75
     1
176
     1
175
     1
176
     1
 42
1.0
176
     1
 92
        8
176
     1
 66
     8
424
  7895160
176
     1
 43
1.0
176
     1
 76
     1
176
     1
 77
     6
176
     1
 78
     2
176
     1
 67
     7
176
     1
 79
     5
176
     1
170
     0
176
     1
171
     0
176
     1
290
     0
176
     1
 93
       13
176
     1
 44
0.0
176
     1
173
     0
176
     1
  0
VISUALSTYLE
  5
37
102
{ACAD_REACTORS
330
2A
102
}
330
2A
100
AcDbVisualStyle
  2
Thicken
 70
    13
177
     2
291
     1
 71
     2
176
     1
 72
     2
176
     1
 73
     0
176
     1
 90
        0
176
     1
 40
-0.6
176
     1
 41
-30.0
176
     1
 62
     5
 63
     7
421
 16777215
176
     1
 74
     1
176
     1
 91
        4
176
     1
 64
     7
176
     1
 65
   257
176
     1
 75
     1
176
     1
175
     1
176
     1
 42
1.0
176
     1
 92
       12
176
     1
 66
     7
176
     1
 43
1.0
176
     1
 76
     1
176
     1
 77
     6
176
     1
 78
     2
176
     1
 67
     7
176
     1
 79
     5
176
     1
170
     0
176
     1
171
     0
176
     1
290
     0
176
     1
 93
        1
176
     1
 44
0.0
176
     1
173
     0
176
     1
  0
ENDSEC
  0
EOF
