  0
SECTION
  2
HEADER
  9
$ACADVER
  1
AC1024
  9
$ACADMAINTVER
 70
     6
  9
$DWGCODEPAGE
  3
UNDEFINED
  9
$INSBASE
 10
0.0
 20
0.0
 30
0.0
  9
$EXTMIN
 10
1.000000000000000E+20
 20
1.000000000000000E+20
 30
1.000000000000000E+20
  9
$EXTMAX
 10
-1.000000000000000E+20
 20
-1.000000000000000E+20
 30
-1.000000000000000E+20
  9
$LIMMIN
 10
0.0
 20
0.0
  9
$LIMMAX
 10
12.0
 20
9.0
  9
$ORTHOMODE
 70
     0
  9
$REGENMODE
 70
     1
  9
$FILLMODE
 70
     1
  9
$QTEXTMODE
 70
     0
  9
$MIRRTEXT
 70
     1
  9
$LTSCALE
 40
1.0
  9
$ATTMODE
 70
     1
  9
$TEXTSIZE
 40
0.2
  9
$TRACEWID
 40
0.05
  9
$TEXTSTYLE
  7
Standard
  9
$CLAYER
  8
0
  9
$CELTYPE
  6
ByLayer
  9
$CECOLOR
 62
   256
  9
$CELTSCALE
 40
1.0
  9
$DISPSILH
 70
     0
  9
$DIMSCALE
 40
1.0
  9
$DIMASZ
 40
0.18
  9
$DIMEXO
 40
0.0625
  9
$DIMDLI
 40
0.38
  9
$DIMRND
 40
0.0
  9
$DIMDLE
 40
0.0
  9
$DIMEXE
 40
0.18
  9
$DIMTP
 40
0.0
  9
$DIMTM
 40
0.0
  9
$DIMTXT
 40
0.18
  9
$DIMCEN
 40
0.09
  9
$DIMTSZ
 40
0.0
  9
$DIMTOL
 70
     0
  9
$DIMLIM
 70
     0
  9
$DIMTIH
 70
     1
  9
$DIMTOH
 70
     1
  9
$DIMSE1
 70
     0
  9
$DIMSE2
 70
     0
  9
$DIMTAD
 70
     0
  9
$DIMZIN
 70
     0
  9
$DIMBLK
  1

  9
$DIMASO
 70
     1
  9
$DIMSHO
 70
     1
  9
$DIMPOST
  1

  9
$DIMAPOST
  1

  9
$DIMALT
 70
     0
  9
$DIMALTD
 70
     2
  9
$DIMALTF
 40
25.4
  9
$DIMLFAC
 40
1.0
  9
$DIMTOFL
 70
     0
  9
$DIMTVP
 40
0.0
  9
$DIMTIX
 70
     0
  9
$DIMSOXD
 70
     0
  9
$DIMSAH
 70
     0
  9
$DIMBLK1
  1

  9
$DIMBLK2
  1

  9
$DIMSTYLE
  2
Standard
  9
$DIMCLRD
 70
     0
  9
$DIMCLRE
 70
     0
  9
$DIMCLRT
 70
     0
  9
$DIMTFAC
 40
1.0
  9
$DIMGAP
 40
0.09
  9
$DIMJUST
 70
     0
  9
$DIMSD1
 70
     0
  9
$DIMSD2
 70
     0
  9
$DIMTOLJ
 70
     1
  9
$DIMTZIN
 70
     0
  9
$DIMALTZ
 70
     0
  9
$DIMALTTZ
 70
     0
  9
$DIMUPT
 70
     0
  9
$DIMDEC
 70
     4
  9
$DIMTDEC
 70
     4
  9
$DIMALTU
 70
     2
  9
$DIMALTTD
 70
     2
  9
$DIMTXSTY
  7
Standard
  9
$DIMAUNIT
 70
     0
  9
$DIMADEC
 70
     0
  9
$DIMALTRND
 40
0.0
  9
$DIMAZIN
 70
     0
  9
$DIMDSEP
 70
    46
  9
$DIMATFIT
 70
     3
  9
$DIMFRAC
 70
     0
  9
$DIMLDRBLK
  1

  9
$DIMLUNIT
 70
     2
  9
$DIMLWD
 70
    -2
  9
$DIMLWE
 70
    -2
  9
$DIMTMOVE
 70
     0
  9
$DIMFXL
 40
1.0
  9
$DIMFXLON
 70
     0
  9
$DIMJOGANG
 40
0.7853981633974483
  9
$DIMTFILL
 70
     0
  9
$DIMTFILLCLR
 70
     0
  9
$DIMARCSYM
 70
     0
  9
$DIMLTYPE
  6

  9
$DIMLTEX1
  6

  9
$DIMLTEX2
  6

  9
$DIMTXTDIRECTION
 70
     0
  9
$LUNITS
 70
     2
  9
$LUPREC
 70
     4
  9
$SKETCHINC
 40
0.1
  9
$FILLETRAD
 40
0.5
  9
$AUNITS
 70
     0
  9
$AUPREC
 70
     0
  9
$MENU
  1
.
  9
$ELEVATION
 40
0.0
  9
$PELEVATION
 40
0.0
  9
$THICKNESS
 40
0.0
  9
$LIMCHECK
 70
     0
  9
$CHAMFERA
 40
0.5
  9
$CHAMFERB
 40
0.5
  9
$CHAMFERC
 40
1.0
  9
$CHAMFERD
 40
0.0
  9
$SKPOLY
 70
     0
  9
$TDCREATE
 40
2457917.599699062
  9
$TDUCREATE
 40
2457917.224699074
  9
$TDUPDATE
 40
2457917.599699062
  9
$TDUUPDATE
 40
2457917.224699074
  9
$TDINDWG
 40
0.0000000116
  9
$TDUSRTIMER
 40
0.0000000116
  9
$USRTIMER
 70
     1
  9
$ANGBASE
 50
0.0
  9
$ANGDIR
 70
     0
  9
$PDMODE
 70
     0
  9
$PDSIZE
 40
0.0
  9
$PLINEWID
 40
0.0
  9
$SPLFRAME
 70
     0
  9
$SPLINETYPE
 70
     6
  9
$SPLINESEGS
 70
     8
  9
$HANDSEED
  5
157
  9
$SURFTAB1
 70
     6
  9
$SURFTAB2
 70
     6
  9
$SURFTYPE
 70
     6
  9
$SURFU
 70
     6
  9
$SURFV
 70
     6
  9
$UCSBASE
  2

  9
$UCSNAME
  2

  9
$UCSORG
 10
0.0
 20
0.0
 30
0.0
  9
$UCSXDIR
 10
1.0
 20
0.0
 30
0.0
  9
$UCSYDIR
 10
0.0
 20
1.0
 30
0.0
  9
$UCSORTHOREF
  2

  9
$UCSORTHOVIEW
 70
     0
  9
$UCSORGTOP
 10
0.0
 20
0.0
 30
0.0
  9
$UCSORGBOTTOM
 10
0.0
 20
0.0
 30
0.0
  9
$UCSORGLEFT
 10
0.0
 20
0.0
 30
0.0
  9
$UCSORGRIGHT
 10
0.0
 20
0.0
 30
0.0
  9
$UCSORGFRONT
 10
0.0
 20
0.0
 30
0.0
  9
$UCSORGBACK
 10
0.0
 20
0.0
 30
0.0
  9
$PUCSBASE
  2

  9
$PUCSNAME
  2

  9
$PUCSORG
 10
0.0
 20
0.0
 30
0.0
  9
$PUCSXDIR
 10
1.0
 20
0.0
 30
0.0
  9
$PUCSYDIR
 10
0.0
 20
1.0
 30
0.0
  9
$PUCSORTHOREF
  2

  9
$PUCSORTHOVIEW
 70
     0
  9
$PUCSORGTOP
 10
0.0
 20
0.0
 30
0.0
  9
$PUCSORGBOTTOM
 10
0.0
 20
0.0
 30
0.0
  9
$PUCSORGLEFT
 10
0.0
 20
0.0
 30
0.0
  9
$PUCSORGRIGHT
 10
0.0
 20
0.0
 30
0.0
  9
$PUCSORGFRONT
 10
0.0
 20
0.0
 30
0.0
  9
$PUCSORGBACK
 10
0.0
 20
0.0
 30
0.0
  9
$USERI1
 70
     0
  9
$USERI2
 70
     0
  9
$USERI3
 70
     0
  9
$USERI4
 70
     0
  9
$USERI5
 70
     0
  9
$USERR1
 40
0.0
  9
$USERR2
 40
0.0
  9
$USERR3
 40
0.0
  9
$USERR4
 40
0.0
  9
$USERR5
 40
0.0
  9
$WORLDVIEW
 70
     1
  9
$SHADEDGE
 70
     3
  9
$SHADEDIF
 70
    70
  9
$TILEMODE
 70
     1
  9
$MAXACTVP
 70
    64
  9
$PINSBASE
 10
0.0
 20
0.0
 30
0.0
  9
$PLIMCHECK
 70
     0
  9
$PEXTMIN
 10
1.000000000000000E+20
 20
1.000000000000000E+20
 30
1.000000000000000E+20
  9
$PEXTMAX
 10
-1.000000000000000E+20
 20
-1.000000000000000E+20
 30
-1.000000000000000E+20
  9
$PLIMMIN
 10
0.0
 20
0.0
  9
$PLIMMAX
 10
12.0
 20
9.0
  9
$UNITMODE
 70
     0
  9
$VISRETAIN
 70
     1
  9
$PLINEGEN
 70
     0
  9
$PSLTSCALE
 70
     1
  9
$TREEDEPTH
 70
  3020
  9
$CMLSTYLE
  2
Standard
  9
$CMLJUST
 70
     0
  9
$CMLSCALE
 40
1.0
  9
$PROXYGRAPHICS
 70
     1
  9
$MEASUREMENT
 70
     0
  9
$CELWEIGHT
370
    -1
  9
$ENDCAPS
280
     0
  9
$JOINSTYLE
280
     0
  9
$LWDISPLAY
290
     1
  9
$INSUNITS
 70
     1
  9
$HYPERLINKBASE
  1

  9
$STYLESHEET
  1

  9
$XEDIT
290
     1
  9
$CEPSNTYPE
380
     0
  9
$PSTYLEMODE
290
     1
  9
$FINGERPRINTGUID
  2
{A43B31E0-7C79-BD03-DCED-DB39832B47A0}
  9
$VERSIONGUID
  2
{FAEB1C32-E019-11D5-929B-00C0DF256EC4}
  9
$EXTNAMES
290
     1
  9
$PSVPSCALE
 40
0.0
  9
$OLESTARTUP
290
     0
  9
$SORTENTS
280
   127
  9
$INDEXCTL
280
     0
  9
$HIDETEXT
280
     1
  9
$XCLIPFRAME
280
     2
  9
$HALOGAP
280
     0
  9
$OBSCOLOR
 70
   257
  9
$OBSLTYPE
280
     0
  9
$INTERSECTIONDISPLAY
280
     0
  9
$INTERSECTIONCOLOR
 70
   257
  9
$DIMASSOC
280
     2
  9
$PROJECTNAME
  1

  9
$CAMERADISPLAY
290
     0
  9
$LENSLENGTH
 40
50.0
  9
$CAMERAHEIGHT
 40
0.0
  9
$STEPSPERSEC
 40
2.0
  9
$STEPSIZE
 40
6.0
  9
$3DDWFPREC
 40
2.0
  9
$PSOLWIDTH
 40
0.25
  9
$PSOLHEIGHT
 40
4.0
  9
$LOFTANG1
 40
1.570796326794897
  9
$LOFTANG2
 40
1.570796326794897
  9
$LOFTMAG1
 40
0.0
  9
$LOFTMAG2
 40
0.0
  9
$LOFTPARAM
 70
     7
  9
$LOFTNORMALS
280
     1
  9
$LATITUDE
 40
37.795
  9
$LONGITUDE
 40
-122.394
  9
$NORTHDIRECTION
 40
0.0
  9
$TIMEZONE
 70
 -8000
  9
$LIGHTGLYPHDISPLAY
280
     1
  9
$TILEMODELIGHTSYNCH
280
     1
  9
$CMATERIAL
347
3C
  9
$SOLIDHIST
280
     1
  9
$SHOWHIST
280
     1
  9
$DWFFRAME
280
     2
  9
$DGNFRAME
280
     2
  9
$REALWORLDSCALE
290
     1
  9
$INTERFERECOLOR
 62
   256
  9
$CSHADOW
280
     0
  9
$SHADOWPLANELOCATION
 40
0.0
  0
ENDSEC
  0
SECTION
  2
CLASSES
  0
CLASS
  1
ACDBDICTIONARYWDFLT
  2
AcDbDictionaryWithDefault
  3
ObjectDBX Classes
 90
        0
 91
        4
280
     0
281
     0
  0
CLASS
  1
VISUALSTYLE
  2
AcDbVisualStyle
  3
ObjectDBX Classes
 90
     4095
 91
        4
280
     0
281
     0
  0
CLASS
  1
MATERIAL
  2
AcDbMaterial
  3
ObjectDBX Classes
 90
     1153
 91
        4
280
     0
281
     0
  0
CLASS
  1
SUN
  2
AcDbSun
  3
SCENEOE
 90
     1024
 91
        4
280
     0
281
     0
  0
ENDSEC
  0
SECTION
  2
TABLES
  0
TABLE
  2
VPORT
  5
8
330
0
100
AcDbSymbolTable
 70
     1
  0
VPORT
  5
29
330
8
100
AcDbSymbolTableRecord
100
AcDbViewportTableRecord
  2
*Active
 70
     0
 10
0.0
 20
0.0
 11
1.0
 21
1.0
 12
0.0
 22
0.0
 13
0.0
 23
0.0
 14
0.5
 24
0.5
 15
0.5
 25
0.5
 16
0.0
 26
0.0
 36
1.0
 17
91.00082462281999
 27
-128.4993055234307
 37
0.0
 40
256.9986110468615
 41
0.7081814508812795
 42
50.0
 43
0.0
 44
0.0
 50
0.0
 51
0.0
 71
     0
 72
   100
 73
     1
 74
     3
 75
     0
 76
     0
 77
     0
 78
     0
281
     0
 65
     1
110
0.0
120
0.0
130
0.0
111
1.0
121
0.0
131
0.0
112
0.0
122
1.0
132
0.0
 79
     0
146
0.0
 60
     3
 61
     5
292
     1
282
     1
141
0.0
142
0.0
 63
   250
361
3F
  0
ENDTAB
  0
TABLE
  2
LTYPE
  5
5
330
0
100
AcDbSymbolTable
 70
     2
  0
LTYPE
  5
14
330
5
100
AcDbSymbolTableRecord
100
AcDbLinetypeTableRecord
  2
ByBlock
 70
     0
  3

 72
    65
 73
     0
 40
0.0
  0
LTYPE
  5
15
330
5
100
AcDbSymbolTableRecord
100
AcDbLinetypeTableRecord
  2
ByLayer
 70
     0
  3

 72
    65
 73
     0
 40
0.0
  0
LTYPE
  5
16
330
5
100
AcDbSymbolTableRecord
100
AcDbLinetypeTableRecord
  2
Continuous
 70
     0
  3
Solid line
 72
    65
 73
     0
 40
0.0
  0
LTYPE
  5
47
330
5
100
AcDbSymbolTableRecord
100
AcDbLinetypeTableRecord
  2
AI-Linetype-1
 70
     0
  3
Adobe Illustrator Linetype No. 1
 72
    65
 73
     2
 40
1.411111110758333
 49
0.7055555553791667
 74
     0
 49
-0.7055555553791667
 74
     0
  0
ENDTAB
  0
TABLE
  2
LAYER
  5
2
330
0
100
AcDbSymbolTable
 70
     2
  0
LAYER
  5
10
330
2
100
AcDbSymbolTableRecord
100
AcDbLayerTableRecord
  2
0
 70
     0
 62
     7
  6
Continuous
370
    -3
390
F
347
3E
  0
LAYER
  5
40
330
2
100
AcDbSymbolTableRecord
100
AcDbLayerTableRecord
  2
_U+30EC_U+30A4_U+30E4_U+30FC 1
 70
     0
 62
     7
  6
Continuous
370
    -3
390
F
347
3E
  0
ENDTAB
  0
TABLE
  2
STYLE
  5
3
330
0
100
AcDbSymbolTable
 70
     1
  0
STYLE
  5
11
330
3
100
AcDbSymbolTableRecord
100
AcDbTextStyleTableRecord
  2
Standard
 70
     0
 40
0.0
 41
1.0
 50
0.0
 71
     0
 42
0.2
  3
txt
  4

  0
ENDTAB
  0
TABLE
  2
VIEW
  5
6
330
0
100
AcDbSymbolTable
 70
     0
  0
ENDTAB
  0
TABLE
  2
UCS
  5
7
330
0
100
AcDbSymbolTable
 70
     0
  0
ENDTAB
  0
TABLE
  2
APPID
  5
9
330
0
100
AcDbSymbolTable
 70
     1
  0
APPID
  5
12
330
9
100
AcDbSymbolTableRecord
100
AcDbRegAppTableRecord
  2
ACAD
 70
     0
  0
ENDTAB
  0
TABLE
  2
DIMSTYLE
  5
A
330
0
100
AcDbSymbolTable
 70
     1
100
AcDbDimStyleTable
  0
DIMSTYLE
105
27
330
A
100
AcDbSymbolTableRecord
100
AcDbDimStyleTableRecord
  2
Standard
 70
     0
178
     0
340
11
  0
ENDTAB
  0
TABLE
  2
BLOCK_RECORD
  5
1
330
0
100
AcDbSymbolTable
 70
     8
  0
BLOCK_RECORD
  5
1F
330
1
100
AcDbSymbolTableRecord
100
AcDbBlockTableRecord
  2
*Model_Space
340
22
 70
     0
280
     1
281
     0
  0
BLOCK_RECORD
  5
1B
330
1
100
AcDbSymbolTableRecord
100
AcDbBlockTableRecord
  2
*Paper_Space
340
1E
 70
     0
280
     1
281
     0
  0
BLOCK_RECORD
  5
23
330
1
100
AcDbSymbolTableRecord
100
AcDbBlockTableRecord
  2
*Paper_Space0
340
26
 70
     0
280
     1
281
     0
  0
BLOCK_RECORD
  5
4E
330
1
100
AcDbSymbolTableRecord
100
AcDbBlockTableRecord
  2
block 2
340
0
102
{BLKREFS
331
4F
102
}
 70
     0
280
     1
281
     0
  0
BLOCK_RECORD
  5
C5
330
1
100
AcDbSymbolTableRecord
100
AcDbBlockTableRecord
  2
block 3
340
0
102
{BLKREFS
331
C6
102
}
 70
     0
280
     1
281
     0
  0
BLOCK_RECORD
  5
D7
330
1
100
AcDbSymbolTableRecord
100
AcDbBlockTableRecord
  2
block 4
340
0
102
{BLKREFS
331
D8
102
}
 70
     0
280
     1
281
     0
  0
BLOCK_RECORD
  5
100
330
1
100
AcDbSymbolTableRecord
100
AcDbBlockTableRecord
  2
block 5
340
0
102
{BLKREFS
331
101
102
}
 70
     0
280
     1
281
     0
  0
BLOCK_RECORD
  5
113
330
1
100
AcDbSymbolTableRecord
100
AcDbBlockTableRecord
  2
block 6
340
0
102
{BLKREFS
331
114
102
}
 70
     0
280
     1
281
     0
  0
BLOCK_RECORD
  5
136
330
1
100
AcDbSymbolTableRecord
100
AcDbBlockTableRecord
  2
block 7
340
0
102
{BLKREFS
331
137
102
}
 70
     0
280
     1
281
     0
  0
BLOCK_RECORD
  5
14E
330
1
100
AcDbSymbolTableRecord
100
AcDbBlockTableRecord
  2
block 8
340
0
102
{BLKREFS
331
14F
102
}
 70
     0
280
     1
281
     0
  0
ENDTAB
  0
ENDSEC
  0
SECTION
  2
BLOCKS
  0
BLOCK
  5
20
330
1F
100
AcDbEntity
  8
0
100
AcDbBlockBegin
  2
*Model_Space
 70
     0
 10
0.0
 20
0.0
 30
0.0
  3
*Model_Space
  1

  0
ENDBLK
  5
21
330
1F
100
AcDbEntity
  8
0
100
AcDbBlockEnd
  0
BLOCK
  5
1C
330
1B
100
AcDbEntity
 67
     1
  8
0
100
AcDbBlockBegin
  2
*Paper_Space
 70
     0
 10
0.0
 20
0.0
 30
0.0
  3
*Paper_Space
  1

  0
ENDBLK
  5
1D
330
1B
100
AcDbEntity
 67
     1
  8
0
100
AcDbBlockEnd
  0
BLOCK
  5
24
330
23
100
AcDbEntity
  8
0
100
AcDbBlockBegin
  2
*Paper_Space0
 70
     0
 10
0.0
 20
0.0
 30
0.0
  3
*Paper_Space0
  1

  0
ENDBLK
  5
25
330
23
100
AcDbEntity
  8
0
100
AcDbBlockEnd
  0
BLOCK
  5
50
330
4E
100
AcDbEntity
  8
0
100
AcDbBlockBegin
  2
block 2
 70
     0
 10
0.0
 20
0.0
 30
0.0
  3
block 2
  1

  0
SPLINE
  5
52
330
4E
100
AcDbEntity
  8
_U+30EC_U+30A4_U+30E4_U+30FC 1
370
     0
100
AcDbSpline
210
0.0
220
0.0
230
1.0
 70
    11
 71
     3
 72
    17
 73
    13
 74
     0
 42
0.0000000001
 43
0.0000000001
 12
1.0
 22
0.0
 32
0.0
 13
1.0
 23
0.0
 33
0.0
 40
0.0
 40
0.0
 40
0.0
 40
0.0
 40
1.0
 40
1.0
 40
1.0
 40
2.0
 40
2.0
 40
2.0
 40
3.0
 40
3.0
 40
3.0
 40
4.0
 40
4.0
 40
4.0
 40
4.0
 10
92.33062606198679
 20
-118.6904296578274
 30
0.0
 10
92.22486163058963
 20
-118.5846652264302
 30
0.0
 10
92.1445909057833
 20
-118.5467691760925
 30
0.0
 10
92.05122881813303
 20
-118.5147297880797
 30
0.0
 10
92.05122881813303
 20
-118.5147297880797
 30
0.0
 10
92.16147187366103
 20
-118.3497097143362
 30
0.0
 10
92.16147187366103
 20
-118.3497097143362
 30
0.0
 10
92.25862356634507
 20
-118.3920843888048
 30
0.0
 10
92.37920190832881
 20
-118.4706325658685
 30
0.0
 10
92.43225637880167
 20
-118.5254095840839
 30
0.0
 10
92.43225637880167
 20
-118.5254095840839
 30
0.0
 10
92.33062606198679
 20
-118.6904296578274
 30
0.0
 10
92.33062606198679
 20
-118.6904296578274
 30
0.0
  0
SPLINE
  5
53
330
4E
100
AcDbEntity
  8
_U+30EC_U+30A4_U+30E4_U+30FC 1
370
     0
100
AcDbSpline
210
0.0
220
0.0
230
1.0
 70
    11
 71
     3
 72
   182
 73
   178
 74
     0
 42
0.0000000001
 43
0.0000000001
 12
1.0
 22
0.0
 32
0.0
 13
1.0
 23
0.0
 33
0.0
 40
0.0
 40
0.0
 40
0.0
 40
0.0
 40
1.0
 40
1.0
 40
1.0
 40
2.0
 40
2.0
 40
2.0
 40
3.0
 40
3.0
 40
3.0
 40
4.0
 40
4.0
 40
4.0
 40
5.0
 40
5.0
 40
5.0
 40
6.0
 40
6.0
 40
6.0
 40
7.0
 40
7.0
 40
7.0
 40
8.0
 40
8.0
 40
8.0
 40
9.0
 40
9.0
 40
9.0
 40
10.0
 40
10.0
 40
10.0
 40
11.0
 40
11.0
 40
11.0
 40
12.0
 40
12.0
 40
12.0
 40
13.0
 40
13.0
 40
13.0
 40
14.0
 40
14.0
 40
14.0
 40
15.0
 40
15.0
 40
15.0
 40
16.0
 40
16.0
 40
16.0
 40
17.0
 40
17.0
 40
17.0
 40
18.0
 40
18.0
 40
18.0
 40
19.0
 40
19.0
 40
19.0
 40
20.0
 40
20.0
 40
20.0
 40
21.0
 40
21.0
 40
21.0
 40
22.0
 40
22.0
 40
22.0
 40
23.0
 40
23.0
 40
23.0
 40
24.0
 40
24.0
 40
24.0
 40
25.0
 40
25.0
 40
25.0
 40
26.0
 40
26.0
 40
26.0
 40
27.0
 40
27.0
 40
27.0
 40
28.0
 40
28.0
 40
28.0
 40
29.0
 40
29.0
 40
29.0
 40
30.0
 40
30.0
 40
30.0
 40
31.0
 40
31.0
 40
31.0
 40
32.0
 40
32.0
 40
32.0
 40
33.0
 40
33.0
 40
33.0
 40
34.0
 40
34.0
 40
34.0
 40
35.0
 40
35.0
 40
35.0
 40
36.0
 40
36.0
 40
36.0
 40
37.0
 40
37.0
 40
37.0
 40
38.0
 40
38.0
 40
38.0
 40
39.0
 40
39.0
 40
39.0
 40
40.0
 40
40.0
 40
40.0
 40
41.0
 40
41.0
 40
41.0
 40
42.0
 40
42.0
 40
42.0
 40
43.0
 40
43.0
 40
43.0
 40
44.0
 40
44.0
 40
44.0
 40
45.0
 40
45.0
 40
45.0
 40
46.0
 40
46.0
 40
46.0
 40
47.0
 40
47.0
 40
47.0
 40
48.0
 40
48.0
 40
48.0
 40
49.0
 40
49.0
 40
49.0
 40
50.0
 40
50.0
 40
50.0
 40
51.0
 40
51.0
 40
51.0
 40
52.0
 40
52.0
 40
52.0
 40
53.0
 40
53.0
 40
53.0
 40
54.0
 40
54.0
 40
54.0
 40
55.0
 40
55.0
 40
55.0
 40
56.0
 40
56.0
 40
56.0
 40
57.0
 40
57.0
 40
57.0
 40
58.0
 40
58.0
 40
58.0
 40
59.0
 40
59.0
 40
59.0
 40
59.0
 10
93.3758680322116
 20
-119.8686523137828
 30
0.0
 10
93.3758680322116
 20
-119.8686523137828
 30
0.0
 10
92.7388698769889
 20
-119.8686523137828
 30
0.0
 10
92.7388698769889
 20
-119.8686523137828
 30
0.0
 10
92.5252739569034
 20
-119.8686523137828
 30
0.0
 10
92.30961097952677
 20
-119.8731309379137
 30
0.0
 10
92.09567054989276
 20
-119.8858777912091
 30
0.0
 10
92.09567054989276
 20
-119.8858777912091
 30
0.0
 10
92.09567054989276
 20
-119.6784830429971
 30
0.0
 10
92.09567054989276
 20
-119.6784830429971
 30
0.0
 10
92.31787920869137
 20
-119.6912298962925
 30
0.0
 10
92.64171818430485
 20
-119.6953640108748
 30
0.0
 10
92.7388698769889
 20
-119.6953640108748
 30
0.0
 10
92.7388698769889
 20
-119.6953640108748
 30
0.0
 10
92.95901147849636
 20
-119.6953640108748
 30
0.0
 10
92.95901147849636
 20
-119.6953640108748
 30
0.0
 10
92.95901147849636
 20
-119.6953640108748
 30
0.0
 10
92.95901147849636
 20
-119.553770586431
 30
0.0
 10
92.95901147849636
 20
-119.553770586431
 30
0.0
 10
92.95901147849636
 20
-119.553770586431
 30
0.0
 10
92.7981255193352
 20
-119.553770586431
 30
0.0
 10
92.7981255193352
 20
-119.553770586431
 30
0.0
 10
92.63310544559172
 20
-119.553770586431
 30
0.0
 10
92.46808537184826
 20
-119.5579047010133
 30
0.0
 10
92.3030652981048
 20
-119.5727186115999
 30
0.0
 10
92.3030652981048
 20
-119.5727186115999
 30
0.0
 10
92.3030652981048
 20
-119.3632568060967
 30
0.0
 10
92.3030652981048
 20
-119.3632568060967
 30
0.0
 10
92.47463105327023
 20
-119.3780707166833
 30
0.0
 10
92.72198890911118
 20
-119.3822048312656
 30
0.0
 10
92.7981255193352
 20
-119.3822048312656
 30
0.0
 10
92.7981255193352
 20
-119.3822048312656
 30
0.0
 10
92.95901147849636
 20
-119.3822048312656
 30
0.0
 10
92.95901147849636
 20
-119.3822048312656
 30
0.0
 10
92.95487736391406
 20
-119.3102023356238
 30
0.0
 10
92.95487736391406
 20
-119.3040011637504
 30
0.0
 10
92.94833168249208
 20
-119.2509466932775
 30
0.0
 10
92.94833168249208
 20
-119.2509466932775
 30
0.0
 10
93.08785804964471
 20
-119.2657606038641
 30
0.0
 10
93.08785804964471
 20
-119.2657606038641
 30
0.0
 10
93.08785804964471
 20
-119.2657606038641
 30
0.0
 10
92.98863929966952
 20
-119.0945393582472
 30
0.0
 10
92.98863929966952
 20
-119.0945393582472
 30
0.0
 10
93.03514808872039
 20
-119.1007405301207
 30
0.0
 10
93.10921764165326
 20
-119.1093532688338
 30
0.0
 10
93.12609860953098
 20
-119.1093532688338
 30
0.0
 10
93.17674151316415
 20
-119.1093532688338
 30
0.0
 10
93.19362248104187
 20
-119.0883381863738
 30
0.0
 10
93.19362248104187
 20
-119.0311496013186
 30
0.0
 10
93.19362248104187
 20
-119.0311496013186
 30
0.0
 10
93.19362248104187
 20
-118.8936902914571
 30
0.0
 10
93.19362248104187
 20
-118.8936902914571
 30
0.0
 10
93.19362248104187
 20
-118.8936902914571
 30
0.0
 10
93.08785804964471
 20
-118.8936902914571
 30
0.0
 10
93.08785804964471
 20
-118.8936902914571
 30
0.0
 10
92.95487736391406
 20
-118.8936902914571
 30
0.0
 10
92.7981255193352
 20
-118.8936902914571
 30
0.0
 10
92.6754801200603
 20
-118.906092635204
 30
0.0
 10
92.6754801200603
 20
-118.906092635204
 30
0.0
 10
92.6754801200603
 20
-118.7159233644182
 30
0.0
 10
92.6754801200603
 20
-118.7159233644182
 30
0.0
 10
92.84256725109492
 20
-118.732804332296
 30
0.0
 10
93.07304413905813
 20
-118.7348713895871
 30
0.0
 10
93.08785804964471
 20
-118.7348713895871
 30
0.0
 10
93.08785804964471
 20
-118.7348713895871
 30
0.0
 10
93.19362248104187
 20
-118.7348713895871
 30
0.0
 10
93.19362248104187
 20
-118.7348713895871
 30
0.0
 10
93.19362248104187
 20
-118.7348713895871
 30
0.0
 10
93.19362248104187
 20
-118.6036132515991
 30
0.0
 10
93.19362248104187
 20
-118.6036132515991
 30
0.0
 10
93.19362248104187
 20
-118.6036132515991
 30
0.0
 10
93.15572643070414
 20
-118.6036132515991
 30
0.0
 10
93.15572643070414
 20
-118.6036132515991
 30
0.0
 10
93.1112846989444
 20
-118.6036132515991
 30
0.0
 10
92.98657224237836
 20
-118.6080918757299
 30
0.0
 10
92.89768877885892
 20
-118.6163601048945
 30
0.0
 10
92.89768877885892
 20
-118.6163601048945
 30
0.0
 10
92.89768877885892
 20
-118.5360893800882
 30
0.0
 10
92.89768877885892
 20
-118.5360893800882
 30
0.0
 10
92.84463430838606
 20
-118.5739854304259
 30
0.0
 10
92.81948511134374
 20
-118.5887993410125
 30
0.0
 10
92.77711043687518
 20
-118.6122259903122
 30
0.0
 10
92.77711043687518
 20
-118.6122259903122
 30
0.0
 10
92.588663713832
 20
-118.4830349096154
 30
0.0
 10
92.588663713832
 20
-118.4830349096154
 30
0.0
 10
92.66686738134717
 20
-118.4492729738599
 30
0.0
 10
92.82361922592604
 20
-118.3858832169313
 30
0.0
 10
92.98002656095639
 20
-118.2418782256479
 30
0.0
 10
93.06270885260238
 20
-118.1636745581327
 30
0.0
 10
93.14091252011755
 20
-118.0789252091955
 30
0.0
 10
93.19362248104187
 20
-117.9776394019292
 30
0.0
 10
93.19362248104187
 20
-117.9776394019292
 30
0.0
 10
93.40515134383622
 20
-118.0389621015667
 30
0.0
 10
93.40515134383622
 20
-118.0389621015667
 30
0.0
 10
93.42444387855362
 20
-118.0451632734401
 30
0.0
 10
93.43477916500936
 20
-118.0537760121532
 30
0.0
 10
93.43477916500936
 20
-118.0665228654486
 30
0.0
 10
93.43477916500936
 20
-118.0834038333264
 30
0.0
 10
93.42237682126246
 20
-118.0896050051998
 30
0.0
 10
93.39688311467161
 20
-118.1023518584953
 30
0.0
 10
93.47715383947794
 20
-118.1998480607278
 30
0.0
 10
93.64010685593026
 20
-118.2969997534119
 30
0.0
 10
93.6738687916857
 20
-118.3159477785807
 30
0.0
 10
93.8240749548426
 20
-118.4048312421002
 30
0.0
 10
93.93845212495289
 20
-118.4323920059822
 30
0.0
 10
94.01665579246806
 20
-118.4513400311511
 30
0.0
 10
94.01665579246806
 20
-118.4513400311511
 30
0.0
 10
93.89814450777547
 20
-118.6204942194768
 30
0.0
 10
93.89814450777547
 20
-118.6204942194768
 30
0.0
 10
93.81373966838684
 20
-118.5912109078522
 30
0.0
 10
93.76275225520514
 20
-118.5719183731348
 30
0.0
 10
93.64424097051256
 20
-118.5064615589151
 30
0.0
 10
93.64424097051256
 20
-118.5064615589151
 30
0.0
 10
93.64424097051256
 20
-118.6163601048945
 30
0.0
 10
93.64424097051256
 20
-118.6163601048945
 30
0.0
 10
93.56190318841509
 20
-118.6080918757299
 30
0.0
 10
93.43477916500936
 20
-118.6036132515991
 30
0.0
 10
93.38206920408504
 20
-118.6036132515991
 30
0.0
 10
93.38206920408504
 20
-118.6036132515991
 30
0.0
 10
93.38206920408504
 20
-118.7348713895871
 30
0.0
 10
93.38206920408504
 20
-118.7348713895871
 30
0.0
 10
93.38206920408504
 20
-118.7348713895871
 30
0.0
 10
93.50264754606879
 20
-118.7348713895871
 30
0.0
 10
93.50264754606879
 20
-118.7348713895871
 30
0.0
 10
93.50471460335994
 20
-118.7348713895871
 30
0.0
 10
93.73760305816283
 20
-118.732804332296
 30
0.0
 10
93.9150254756532
 20
-118.7159233644182
 30
0.0
 10
93.9150254756532
 20
-118.7159233644182
 30
0.0
 10
93.9150254756532
 20
-118.906092635204
 30
0.0
 10
93.9150254756532
 20
-118.906092635204
 30
0.0
 10
93.78617890450485
 20
-118.8936902914571
 30
0.0
 10
93.62942705992599
 20
-118.8936902914571
 30
0.0
 10
93.50264754606879
 20
-118.8936902914571
 30
0.0
 10
93.50264754606879
 20
-118.8936902914571
 30
0.0
 10
93.38206920408504
 20
-118.8936902914571
 30
0.0
 10
93.38206920408504
 20
-118.8936902914571
 30
0.0
 10
93.38206920408504
 20
-118.8936902914571
 30
0.0
 10
93.38206920408504
 20
-119.1200330648381
 30
0.0
 10
93.38206920408504
 20
-119.1200330648381
 30
0.0
 10
93.38206920408504
 20
-119.2385443495306
 30
0.0
 10
93.35657549749419
 20
-119.2743733425772
 30
0.0
 10
93.19603404788155
 20
-119.2891872531638
 30
0.0
 10
93.20016816246385
 20
-119.3081352783327
 30
0.0
 10
93.19362248104187
 20
-119.318815074337
 30
0.0
 10
93.15572643070414
 20
-119.3418972140881
 30
0.0
 10
93.15365937341298
 20
-119.3611897488055
 30
0.0
 10
93.15365937341298
 20
-119.367390920679
 30
0.0
 10
93.15159231612184
 20
-119.3822048312656
 30
0.0
 10
93.15159231612184
 20
-119.3822048312656
 30
0.0
 10
93.28905162598329
 20
-119.3822048312656
 30
0.0
 10
93.28905162598329
 20
-119.3822048312656
 30
0.0
 10
93.45407169972677
 20
-119.3822048312656
 30
0.0
 10
93.62115883076139
 20
-119.3780707166833
 30
0.0
 10
93.788245961796
 20
-119.3632568060967
 30
0.0
 10
93.788245961796
 20
-119.3632568060967
 30
0.0
 10
93.788245961796
 20
-119.5706515543087
 30
0.0
 10
93.788245961796
 20
-119.5706515543087
 30
0.0
 10
93.57258298441936
 20
-119.553770586431
 30
0.0
 10
93.30799965115217
 20
-119.553770586431
 30
0.0
 10
93.28905162598329
 20
-119.553770586431
 30
0.0
 10
93.28905162598329
 20
-119.553770586431
 30
0.0
 10
93.14918074928215
 20
-119.553770586431
 30
0.0
 10
93.14918074928215
 20
-119.553770586431
 30
0.0
 10
93.14918074928215
 20
-119.553770586431
 30
0.0
 10
93.14918074928215
 20
-119.6953640108748
 30
0.0
 10
93.14918074928215
 20
-119.6953640108748
 30
0.0
 10
93.14918074928215
 20
-119.6953640108748
 30
0.0
 10
93.3758680322116
 20
-119.6953640108748
 30
0.0
 10
93.3758680322116
 20
-119.6953640108748
 30
0.0
 10
93.59153100958824
 20
-119.6953640108748
 30
0.0
 10
93.80926104425602
 20
-119.6912298962925
 30
0.0
 10
94.02526853118118
 20
-119.6784830429971
 30
0.0
 10
94.02526853118118
 20
-119.6784830429971
 30
0.0
 10
94.02526853118118
 20
-119.8858777912091
 30
0.0
 10
94.02526853118118
 20
-119.8858777912091
 30
0.0
 10
93.74380423003628
 20
-119.8686523137828
 30
0.0
 10
93.39895017196277
 20
-119.8686523137828
 30
0.0
 10
93.3758680322116
 20
-119.8686523137828
 30
0.0
  0
SPLINE
  5
54
330
4E
100
AcDbEntity
  8
_U+30EC_U+30A4_U+30E4_U+30FC 1
370
     0
100
AcDbSpline
210
0.0
220
0.0
230
1.0
 70
    11
 71
     3
 72
    23
 73
    19
 74
     0
 42
0.0000000001
 43
0.0000000001
 12
1.0
 22
0.0
 32
0.0
 13
1.0
 23
0.0
 33
0.0
 40
0.0
 40
0.0
 40
0.0
 40
0.0
 40
1.0
 40
1.0
 40
1.0
 40
2.0
 40
2.0
 40
2.0
 40
3.0
 40
3.0
 40
3.0
 40
4.0
 40
4.0
 40
4.0
 40
5.0
 40
5.0
 40
5.0
 40
6.0
 40
6.0
 40
6.0
 40
6.0
 10
92.25655650905392
 20
-119.2406114068218
 30
0.0
 10
92.25655650905392
 20
-119.2616264892818
 30
0.0
 10
92.25862356634507
 20
-119.2998670491681
 30
0.0
 10
92.23347436930274
 20
-119.2998670491681
 30
0.0
 10
92.22279457329847
 20
-119.2998670491681
 30
0.0
 10
92.21418183458535
 20
-119.2933213677461
 30
0.0
 10
92.2038465481296
 20
-119.2764403998684
 30
0.0
 10
92.2038465481296
 20
-119.2764403998684
 30
0.0
 10
92.10014917402358
 20
-119.0945393582472
 30
0.0
 10
92.10014917402358
 20
-119.0945393582472
 30
0.0
 10
92.31581215140022
 20
-118.9653482775503
 30
0.0
 10
92.51252710360798
 20
-118.6883626005363
 30
0.0
 10
92.55903589265886
 20
-118.6163601048945
 30
0.0
 10
92.55903589265886
 20
-118.6163601048945
 30
0.0
 10
92.63103838830058
 20
-118.7961940892246
 30
0.0
 10
92.63103838830058
 20
-118.7961940892246
 30
0.0
 10
92.49771319302141
 20
-118.9929090414323
 30
0.0
 10
92.32201332327367
 20
-119.1768771403447
 30
0.0
 10
92.25655650905392
 20
-119.2406114068218
 30
0.0
  0
SPLINE
  5
55
330
4E
100
AcDbEntity
  8
_U+30EC_U+30A4_U+30E4_U+30FC 1
370
     0
100
AcDbSpline
210
0.0
220
0.0
230
1.0
 70
    11
 71
     3
 72
    17
 73
    13
 74
     0
 42
0.0000000001
 43
0.0000000001
 12
1.0
 22
0.0
 32
0.0
 13
1.0
 23
0.0
 33
0.0
 40
0.0
 40
0.0
 40
0.0
 40
0.0
 40
1.0
 40
1.0
 40
1.0
 40
2.0
 40
2.0
 40
2.0
 40
3.0
 40
3.0
 40
3.0
 40
4.0
 40
4.0
 40
4.0
 40
4.0
 10
92.51046004631684
 20
-118.3455755997539
 30
0.0
 10
92.4491373466794
 20
-118.2694389895299
 30
0.0
 10
92.31994626598252
 20
-118.1933023793058
 30
0.0
 10
92.2162488918765
 20
-118.1636745581327
 30
0.0
 10
92.2162488918765
 20
-118.1636745581327
 30
0.0
 10
92.31167803681792
 20
-117.9986544843892
 30
0.0
 10
92.31167803681792
 20
-117.9986544843892
 30
0.0
 10
92.41330835363279
 20
-118.0348279869844
 30
0.0
 10
92.51907278502996
 20
-118.091672062491
 30
0.0
 10
92.60761173900087
 20
-118.1722872968458
 30
0.0
 10
92.60761173900087
 20
-118.1722872968458
 30
0.0
 10
92.51046004631684
 20
-118.3455755997539
 30
0.0
 10
92.51046004631684
 20
-118.3455755997539
 30
0.0
  0
SPLINE
  5
56
330
4E
100
AcDbEntity
  8
_U+30EC_U+30A4_U+30E4_U+30FC 1
370
     0
100
AcDbSpline
210
0.0
220
0.0
230
1.0
 70
    11
 71
     3
 72
    23
 73
    19
 74
     0
 42
0.0000000001
 43
0.0000000001
 12
1.0
 22
0.0
 32
0.0
 13
1.0
 23
0.0
 33
0.0
 40
0.0
 40
0.0
 40
0.0
 40
0.0
 40
1.0
 40
1.0
 40
1.0
 40
2.0
 40
2.0
 40
2.0
 40
3.0
 40
3.0
 40
3.0
 40
4.0
 40
4.0
 40
4.0
 40
5.0
 40
5.0
 40
5.0
 40
6.0
 40
6.0
 40
6.0
 40
6.0
 10
92.96314559307866
 20
-119.0500976264875
 30
0.0
 10
92.94213051061864
 20
-119.0735242757872
 30
0.0
 10
92.84463430838606
 20
-119.1854898790578
 30
0.0
 10
92.70510794123345
 20
-119.2657606038641
 30
0.0
 10
92.70510794123345
 20
-119.2657606038641
 30
0.0
 10
92.53802081019883
 20
-119.1451822618804
 30
0.0
 10
92.53802081019883
 20
-119.1451822618804
 30
0.0
 10
92.68822697335573
 20
-119.0690456516564
 30
0.0
 10
92.78744572333092
 20
-118.9739610162635
 30
0.0
 10
92.83636607922146
 20
-118.9209065457906
 30
0.0
 10
92.83636607922146
 20
-118.9209065457906
 30
0.0
 10
93.00965438212954
 20
-119.0035888374366
 30
0.0
 10
93.00965438212954
 20
-119.0035888374366
 30
0.0
 10
93.01826712084267
 20
-119.0077229520189
 30
0.0
 10
93.02653535000726
 20
-119.0142686334409
 30
0.0
 10
93.02653535000726
 20
-119.0246039198966
 30
0.0
 10
93.02653535000726
 20
-119.0500976264875
 30
0.0
 10
92.99070635696066
 20
-119.0500976264875
 30
0.0
 10
92.96314559307866
 20
-119.0500976264875
 30
0.0
  0
SPLINE
  5
57
330
4E
100
AcDbEntity
  8
_U+30EC_U+30A4_U+30E4_U+30FC 1
370
     0
100
AcDbSpline
210
0.0
220
0.0
230
1.0
 70
    11
 71
     3
 72
    20
 73
    16
 74
     0
 42
0.0000000001
 43
0.0000000001
 12
1.0
 22
0.0
 32
0.0
 13
1.0
 23
0.0
 33
0.0
 40
0.0
 40
0.0
 40
0.0
 40
0.0
 40
1.0
 40
1.0
 40
1.0
 40
2.0
 40
2.0
 40
2.0
 40
3.0
 40
3.0
 40
3.0
 40
4.0
 40
4.0
 40
4.0
 40
5.0
 40
5.0
 40
5.0
 40
5.0
 10
93.2614908621013
 20
-118.2081162898924
 30
0.0
 10
93.22325030221502
 20
-118.2566921362344
 30
0.0
 10
93.16192760257758
 20
-118.3352403132981
 30
0.0
 10
93.02240123542497
 20
-118.4451388592776
 30
0.0
 10
93.10267196023128
 20
-118.4492729738599
 30
0.0
 10
93.13229978140443
 20
-118.4492729738599
 30
0.0
 10
93.15572643070414
 20
-118.4492729738599
 30
0.0
 10
93.15572643070414
 20
-118.4492729738599
 30
0.0
 10
93.3841362613762
 20
-118.4492729738599
 30
0.0
 10
93.3841362613762
 20
-118.4492729738599
 30
0.0
 10
93.41583113984049
 20
-118.4492729738599
 30
0.0
 10
93.46440698618251
 20
-118.4472059165688
 30
0.0
 10
93.53847653911538
 20
-118.4451388592776
 30
0.0
 10
93.42651093584476
 20
-118.3710693063447
 30
0.0
 10
93.37793508950274
 20
-118.3245605172939
 30
0.0
 10
93.2614908621013
 20
-118.2081162898924
 30
0.0
  0
SPLINE
  5
58
330
4E
100
AcDbEntity
  8
_U+30EC_U+30A4_U+30E4_U+30FC 1
370
     0
100
AcDbSpline
210
0.0
220
0.0
230
1.0
 70
    11
 71
     3
 72
    17
 73
    13
 74
     0
 42
0.0000000001
 43
0.0000000001
 12
1.0
 22
0.0
 32
0.0
 13
1.0
 23
0.0
 33
0.0
 40
0.0
 40
0.0
 40
0.0
 40
0.0
 40
1.0
 40
1.0
 40
1.0
 40
2.0
 40
2.0
 40
2.0
 40
3.0
 40
3.0
 40
3.0
 40
4.0
 40
4.0
 40
4.0
 40
4.0
 10
93.82200789755144
 20
-119.263693546573
 30
0.0
 10
93.68661564498113
 20
-119.1517279433023
 30
0.0
 10
93.58085121358395
 20
-119.0883381863738
 30
0.0
 10
93.46233992889137
 20
-119.0246039198966
 30
0.0
 10
93.46233992889137
 20
-119.0246039198966
 30
0.0
 10
93.58946395229708
 20
-118.912638316626
 30
0.0
 10
93.58946395229708
 20
-118.912638316626
 30
0.0
 10
93.72037758073658
 20
-118.9591471056769
 30
0.0
 10
93.83062063626457
 20
-119.016335690732
 30
0.0
 10
93.95533309283061
 20
-119.1179660075469
 30
0.0
 10
93.95533309283061
 20
-119.1179660075469
 30
0.0
 10
93.82200789755144
 20
-119.263693546573
 30
0.0
 10
93.82200789755144
 20
-119.263693546573
 30
0.0
  0
HATCH
  5
59
330
4E
100
AcDbEntity
  8
_U+30EC_U+30A4_U+30E4_U+30FC 1
 62
   179
420
  2234388
100
AcDbHatch
 10
0.0
 20
0.0
 30
0.0
210
0.0
220
0.0
230
1.0
  2
SOLID
 70
     1
 71
     0
 91
        7
 92
        1
 93
        1
 72
     4
 94
        3
 73
     0
 74
     1
 95
       17
 96
       13
 40
0.0
 40
0.0
 40
0.0
 40
0.0
 40
1.0
 40
1.0
 40
1.0
 40
2.0
 40
2.0
 40
2.0
 40
3.0
 40
3.0
 40
3.0
 40
4.0
 40
4.0
 40
4.0
 40
4.0
 10
92.33062606198679
 20
-118.6904296578274
 10
92.22486163058963
 20
-118.5846652264302
 10
92.1445909057833
 20
-118.5467691760925
 10
92.05122881813303
 20
-118.5147297880797
 10
92.05122881813303
 20
-118.5147297880797
 10
92.16147187366103
 20
-118.3497097143362
 10
92.16147187366103
 20
-118.3497097143362
 10
92.25862356634507
 20
-118.3920843888048
 10
92.37920190832881
 20
-118.4706325658685
 10
92.43225637880167
 20
-118.5254095840839
 10
92.43225637880167
 20
-118.5254095840839
 10
92.33062606198679
 20
-118.6904296578274
 10
92.33062606198679
 20
-118.6904296578274
 97
        0
 97
        0
 92
        1
 93
        1
 72
     4
 94
        3
 73
     0
 74
     1
 95
      182
 96
      178
 40
0.0
 40
0.0
 40
0.0
 40
0.0
 40
1.0
 40
1.0
 40
1.0
 40
2.0
 40
2.0
 40
2.0
 40
3.0
 40
3.0
 40
3.0
 40
4.0
 40
4.0
 40
4.0
 40
5.0
 40
5.0
 40
5.0
 40
6.0
 40
6.0
 40
6.0
 40
7.0
 40
7.0
 40
7.0
 40
8.0
 40
8.0
 40
8.0
 40
9.0
 40
9.0
 40
9.0
 40
10.0
 40
10.0
 40
10.0
 40
11.0
 40
11.0
 40
11.0
 40
12.0
 40
12.0
 40
12.0
 40
13.0
 40
13.0
 40
13.0
 40
14.0
 40
14.0
 40
14.0
 40
15.0
 40
15.0
 40
15.0
 40
16.0
 40
16.0
 40
16.0
 40
17.0
 40
17.0
 40
17.0
 40
18.0
 40
18.0
 40
18.0
 40
19.0
 40
19.0
 40
19.0
 40
20.0
 40
20.0
 40
20.0
 40
21.0
 40
21.0
 40
21.0
 40
22.0
 40
22.0
 40
22.0
 40
23.0
 40
23.0
 40
23.0
 40
24.0
 40
24.0
 40
24.0
 40
25.0
 40
25.0
 40
25.0
 40
26.0
 40
26.0
 40
26.0
 40
27.0
 40
27.0
 40
27.0
 40
28.0
 40
28.0
 40
28.0
 40
29.0
 40
29.0
 40
29.0
 40
30.0
 40
30.0
 40
30.0
 40
31.0
 40
31.0
 40
31.0
 40
32.0
 40
32.0
 40
32.0
 40
33.0
 40
33.0
 40
33.0
 40
34.0
 40
34.0
 40
34.0
 40
35.0
 40
35.0
 40
35.0
 40
36.0
 40
36.0
 40
36.0
 40
37.0
 40
37.0
 40
37.0
 40
38.0
 40
38.0
 40
38.0
 40
39.0
 40
39.0
 40
39.0
 40
40.0
 40
40.0
 40
40.0
 40
41.0
 40
41.0
 40
41.0
 40
42.0
 40
42.0
 40
42.0
 40
43.0
 40
43.0
 40
43.0
 40
44.0
 40
44.0
 40
44.0
 40
45.0
 40
45.0
 40
45.0
 40
46.0
 40
46.0
 40
46.0
 40
47.0
 40
47.0
 40
47.0
 40
48.0
 40
48.0
 40
48.0
 40
49.0
 40
49.0
 40
49.0
 40
50.0
 40
50.0
 40
50.0
 40
51.0
 40
51.0
 40
51.0
 40
52.0
 40
52.0
 40
52.0
 40
53.0
 40
53.0
 40
53.0
 40
54.0
 40
54.0
 40
54.0
 40
55.0
 40
55.0
 40
55.0
 40
56.0
 40
56.0
 40
56.0
 40
57.0
 40
57.0
 40
57.0
 40
58.0
 40
58.0
 40
58.0
 40
59.0
 40
59.0
 40
59.0
 40
59.0
 10
93.3758680322116
 20
-119.8686523137828
 10
93.3758680322116
 20
-119.8686523137828
 10
92.7388698769889
 20
-119.8686523137828
 10
92.7388698769889
 20
-119.8686523137828
 10
92.5252739569034
 20
-119.8686523137828
 10
92.30961097952677
 20
-119.8731309379137
 10
92.09567054989276
 20
-119.8858777912091
 10
92.09567054989276
 20
-119.8858777912091
 10
92.09567054989276
 20
-119.6784830429971
 10
92.09567054989276
 20
-119.6784830429971
 10
92.31787920869137
 20
-119.6912298962925
 10
92.64171818430485
 20
-119.6953640108748
 10
92.7388698769889
 20
-119.6953640108748
 10
92.7388698769889
 20
-119.6953640108748
 10
92.95901147849636
 20
-119.6953640108748
 10
92.95901147849636
 20
-119.6953640108748
 10
92.95901147849636
 20
-119.6953640108748
 10
92.95901147849636
 20
-119.553770586431
 10
92.95901147849636
 20
-119.553770586431
 10
92.95901147849636
 20
-119.553770586431
 10
92.7981255193352
 20
-119.553770586431
 10
92.7981255193352
 20
-119.553770586431
 10
92.63310544559172
 20
-119.553770586431
 10
92.46808537184826
 20
-119.5579047010133
 10
92.3030652981048
 20
-119.5727186115999
 10
92.3030652981048
 20
-119.5727186115999
 10
92.3030652981048
 20
-119.3632568060967
 10
92.3030652981048
 20
-119.3632568060967
 10
92.47463105327023
 20
-119.3780707166833
 10
92.72198890911118
 20
-119.3822048312656
 10
92.7981255193352
 20
-119.3822048312656
 10
92.7981255193352
 20
-119.3822048312656
 10
92.95901147849636
 20
-119.3822048312656
 10
92.95901147849636
 20
-119.3822048312656
 10
92.95487736391406
 20
-119.3102023356238
 10
92.95487736391406
 20
-119.3040011637504
 10
92.94833168249208
 20
-119.2509466932775
 10
92.94833168249208
 20
-119.2509466932775
 10
93.08785804964471
 20
-119.2657606038641
 10
93.08785804964471
 20
-119.2657606038641
 10
93.08785804964471
 20
-119.2657606038641
 10
92.98863929966952
 20
-119.0945393582472
 10
92.98863929966952
 20
-119.0945393582472
 10
93.03514808872039
 20
-119.1007405301207
 10
93.10921764165326
 20
-119.1093532688338
 10
93.12609860953098
 20
-119.1093532688338
 10
93.17674151316415
 20
-119.1093532688338
 10
93.19362248104187
 20
-119.0883381863738
 10
93.19362248104187
 20
-119.0311496013186
 10
93.19362248104187
 20
-119.0311496013186
 10
93.19362248104187
 20
-118.8936902914571
 10
93.19362248104187
 20
-118.8936902914571
 10
93.19362248104187
 20
-118.8936902914571
 10
93.08785804964471
 20
-118.8936902914571
 10
93.08785804964471
 20
-118.8936902914571
 10
92.95487736391406
 20
-118.8936902914571
 10
92.7981255193352
 20
-118.8936902914571
 10
92.6754801200603
 20
-118.906092635204
 10
92.6754801200603
 20
-118.906092635204
 10
92.6754801200603
 20
-118.7159233644182
 10
92.6754801200603
 20
-118.7159233644182
 10
92.84256725109492
 20
-118.732804332296
 10
93.07304413905813
 20
-118.7348713895871
 10
93.08785804964471
 20
-118.7348713895871
 10
93.08785804964471
 20
-118.7348713895871
 10
93.19362248104187
 20
-118.7348713895871
 10
93.19362248104187
 20
-118.7348713895871
 10
93.19362248104187
 20
-118.7348713895871
 10
93.19362248104187
 20
-118.6036132515991
 10
93.19362248104187
 20
-118.6036132515991
 10
93.19362248104187
 20
-118.6036132515991
 10
93.15572643070414
 20
-118.6036132515991
 10
93.15572643070414
 20
-118.6036132515991
 10
93.1112846989444
 20
-118.6036132515991
 10
92.98657224237836
 20
-118.6080918757299
 10
92.89768877885892
 20
-118.6163601048945
 10
92.89768877885892
 20
-118.6163601048945
 10
92.89768877885892
 20
-118.5360893800882
 10
92.89768877885892
 20
-118.5360893800882
 10
92.84463430838606
 20
-118.5739854304259
 10
92.81948511134374
 20
-118.5887993410125
 10
92.77711043687518
 20
-118.6122259903122
 10
92.77711043687518
 20
-118.6122259903122
 10
92.588663713832
 20
-118.4830349096154
 10
92.588663713832
 20
-118.4830349096154
 10
92.66686738134717
 20
-118.4492729738599
 10
92.82361922592604
 20
-118.3858832169313
 10
92.98002656095639
 20
-118.2418782256479
 10
93.06270885260238
 20
-118.1636745581327
 10
93.14091252011755
 20
-118.0789252091955
 10
93.19362248104187
 20
-117.9776394019292
 10
93.19362248104187
 20
-117.9776394019292
 10
93.40515134383622
 20
-118.0389621015667
 10
93.40515134383622
 20
-118.0389621015667
 10
93.42444387855362
 20
-118.0451632734401
 10
93.43477916500936
 20
-118.0537760121532
 10
93.43477916500936
 20
-118.0665228654486
 10
93.43477916500936
 20
-118.0834038333264
 10
93.42237682126246
 20
-118.0896050051998
 10
93.39688311467161
 20
-118.1023518584953
 10
93.47715383947794
 20
-118.1998480607278
 10
93.64010685593026
 20
-118.2969997534119
 10
93.6738687916857
 20
-118.3159477785807
 10
93.8240749548426
 20
-118.4048312421002
 10
93.93845212495289
 20
-118.4323920059822
 10
94.01665579246806
 20
-118.4513400311511
 10
94.01665579246806
 20
-118.4513400311511
 10
93.89814450777547
 20
-118.6204942194768
 10
93.89814450777547
 20
-118.6204942194768
 10
93.81373966838684
 20
-118.5912109078522
 10
93.76275225520514
 20
-118.5719183731348
 10
93.64424097051256
 20
-118.5064615589151
 10
93.64424097051256
 20
-118.5064615589151
 10
93.64424097051256
 20
-118.6163601048945
 10
93.64424097051256
 20
-118.6163601048945
 10
93.56190318841509
 20
-118.6080918757299
 10
93.43477916500936
 20
-118.6036132515991
 10
93.38206920408504
 20
-118.6036132515991
 10
93.38206920408504
 20
-118.6036132515991
 10
93.38206920408504
 20
-118.7348713895871
 10
93.38206920408504
 20
-118.7348713895871
 10
93.38206920408504
 20
-118.7348713895871
 10
93.50264754606879
 20
-118.7348713895871
 10
93.50264754606879
 20
-118.7348713895871
 10
93.50471460335994
 20
-118.7348713895871
 10
93.73760305816283
 20
-118.732804332296
 10
93.9150254756532
 20
-118.7159233644182
 10
93.9150254756532
 20
-118.7159233644182
 10
93.9150254756532
 20
-118.906092635204
 10
93.9150254756532
 20
-118.906092635204
 10
93.78617890450485
 20
-118.8936902914571
 10
93.62942705992599
 20
-118.8936902914571
 10
93.50264754606879
 20
-118.8936902914571
 10
93.50264754606879
 20
-118.8936902914571
 10
93.38206920408504
 20
-118.8936902914571
 10
93.38206920408504
 20
-118.8936902914571
 10
93.38206920408504
 20
-118.8936902914571
 10
93.38206920408504
 20
-119.1200330648381
 10
93.38206920408504
 20
-119.1200330648381
 10
93.38206920408504
 20
-119.2385443495306
 10
93.35657549749419
 20
-119.2743733425772
 10
93.19603404788155
 20
-119.2891872531638
 10
93.20016816246385
 20
-119.3081352783327
 10
93.19362248104187
 20
-119.318815074337
 10
93.15572643070414
 20
-119.3418972140881
 10
93.15365937341298
 20
-119.3611897488055
 10
93.15365937341298
 20
-119.367390920679
 10
93.15159231612184
 20
-119.3822048312656
 10
93.15159231612184
 20
-119.3822048312656
 10
93.28905162598329
 20
-119.3822048312656
 10
93.28905162598329
 20
-119.3822048312656
 10
93.45407169972677
 20
-119.3822048312656
 10
93.62115883076139
 20
-119.3780707166833
 10
93.788245961796
 20
-119.3632568060967
 10
93.788245961796
 20
-119.3632568060967
 10
93.788245961796
 20
-119.5706515543087
 10
93.788245961796
 20
-119.5706515543087
 10
93.57258298441936
 20
-119.553770586431
 10
93.30799965115217
 20
-119.553770586431
 10
93.28905162598329
 20
-119.553770586431
 10
93.28905162598329
 20
-119.553770586431
 10
93.14918074928215
 20
-119.553770586431
 10
93.14918074928215
 20
-119.553770586431
 10
93.14918074928215
 20
-119.553770586431
 10
93.14918074928215
 20
-119.6953640108748
 10
93.14918074928215
 20
-119.6953640108748
 10
93.14918074928215
 20
-119.6953640108748
 10
93.3758680322116
 20
-119.6953640108748
 10
93.3758680322116
 20
-119.6953640108748
 10
93.59153100958824
 20
-119.6953640108748
 10
93.80926104425602
 20
-119.6912298962925
 10
94.02526853118118
 20
-119.6784830429971
 10
94.02526853118118
 20
-119.6784830429971
 10
94.02526853118118
 20
-119.8858777912091
 10
94.02526853118118
 20
-119.8858777912091
 10
93.74380423003628
 20
-119.8686523137828
 10
93.39895017196277
 20
-119.8686523137828
 10
93.3758680322116
 20
-119.8686523137828
 97
        0
 97
        0
 92
        1
 93
        1
 72
     4
 94
        3
 73
     0
 74
     1
 95
       23
 96
       19
 40
0.0
 40
0.0
 40
0.0
 40
0.0
 40
1.0
 40
1.0
 40
1.0
 40
2.0
 40
2.0
 40
2.0
 40
3.0
 40
3.0
 40
3.0
 40
4.0
 40
4.0
 40
4.0
 40
5.0
 40
5.0
 40
5.0
 40
6.0
 40
6.0
 40
6.0
 40
6.0
 10
92.25655650905392
 20
-119.2406114068218
 10
92.25655650905392
 20
-119.2616264892818
 10
92.25862356634507
 20
-119.2998670491681
 10
92.23347436930274
 20
-119.2998670491681
 10
92.22279457329847
 20
-119.2998670491681
 10
92.21418183458535
 20
-119.2933213677461
 10
92.2038465481296
 20
-119.2764403998684
 10
92.2038465481296
 20
-119.2764403998684
 10
92.10014917402358
 20
-119.0945393582472
 10
92.10014917402358
 20
-119.0945393582472
 10
92.31581215140022
 20
-118.9653482775503
 10
92.51252710360798
 20
-118.6883626005363
 10
92.55903589265886
 20
-118.6163601048945
 10
92.55903589265886
 20
-118.6163601048945
 10
92.63103838830058
 20
-118.7961940892246
 10
92.63103838830058
 20
-118.7961940892246
 10
92.49771319302141
 20
-118.9929090414323
 10
92.32201332327367
 20
-119.1768771403447
 10
92.25655650905392
 20
-119.2406114068218
 97
        0
 97
        0
 92
        1
 93
        1
 72
     4
 94
        3
 73
     0
 74
     1
 95
       17
 96
       13
 40
0.0
 40
0.0
 40
0.0
 40
0.0
 40
1.0
 40
1.0
 40
1.0
 40
2.0
 40
2.0
 40
2.0
 40
3.0
 40
3.0
 40
3.0
 40
4.0
 40
4.0
 40
4.0
 40
4.0
 10
92.51046004631684
 20
-118.3455755997539
 10
92.4491373466794
 20
-118.2694389895299
 10
92.31994626598252
 20
-118.1933023793058
 10
92.2162488918765
 20
-118.1636745581327
 10
92.2162488918765
 20
-118.1636745581327
 10
92.31167803681792
 20
-117.9986544843892
 10
92.31167803681792
 20
-117.9986544843892
 10
92.41330835363279
 20
-118.0348279869844
 10
92.51907278502996
 20
-118.091672062491
 10
92.60761173900087
 20
-118.1722872968458
 10
92.60761173900087
 20
-118.1722872968458
 10
92.51046004631684
 20
-118.3455755997539
 10
92.51046004631684
 20
-118.3455755997539
 97
        0
 97
        0
 92
        1
 93
        1
 72
     4
 94
        3
 73
     0
 74
     1
 95
       23
 96
       19
 40
0.0
 40
0.0
 40
0.0
 40
0.0
 40
1.0
 40
1.0
 40
1.0
 40
2.0
 40
2.0
 40
2.0
 40
3.0
 40
3.0
 40
3.0
 40
4.0
 40
4.0
 40
4.0
 40
5.0
 40
5.0
 40
5.0
 40
6.0
 40
6.0
 40
6.0
 40
6.0
 10
92.96314559307866
 20
-119.0500976264875
 10
92.94213051061864
 20
-119.0735242757872
 10
92.84463430838606
 20
-119.1854898790578
 10
92.70510794123345
 20
-119.2657606038641
 10
92.70510794123345
 20
-119.2657606038641
 10
92.53802081019883
 20
-119.1451822618804
 10
92.53802081019883
 20
-119.1451822618804
 10
92.68822697335573
 20
-119.0690456516564
 10
92.78744572333092
 20
-118.9739610162635
 10
92.83636607922146
 20
-118.9209065457906
 10
92.83636607922146
 20
-118.9209065457906
 10
93.00965438212954
 20
-119.0035888374366
 10
93.00965438212954
 20
-119.0035888374366
 10
93.01826712084267
 20
-119.0077229520189
 10
93.02653535000726
 20
-119.0142686334409
 10
93.02653535000726
 20
-119.0246039198966
 10
93.02653535000726
 20
-119.0500976264875
 10
92.99070635696066
 20
-119.0500976264875
 10
92.96314559307866
 20
-119.0500976264875
 97
        0
 97
        0
 92
        1
 93
        1
 72
     4
 94
        3
 73
     0
 74
     1
 95
       20
 96
       16
 40
0.0
 40
0.0
 40
0.0
 40
0.0
 40
1.0
 40
1.0
 40
1.0
 40
2.0
 40
2.0
 40
2.0
 40
3.0
 40
3.0
 40
3.0
 40
4.0
 40
4.0
 40
4.0
 40
5.0
 40
5.0
 40
5.0
 40
5.0
 10
93.2614908621013
 20
-118.2081162898924
 10
93.22325030221502
 20
-118.2566921362344
 10
93.16192760257758
 20
-118.3352403132981
 10
93.02240123542497
 20
-118.4451388592776
 10
93.10267196023128
 20
-118.4492729738599
 10
93.13229978140443
 20
-118.4492729738599
 10
93.15572643070414
 20
-118.4492729738599
 10
93.15572643070414
 20
-118.4492729738599
 10
93.3841362613762
 20
-118.4492729738599
 10
93.3841362613762
 20
-118.4492729738599
 10
93.41583113984049
 20
-118.4492729738599
 10
93.46440698618251
 20
-118.4472059165688
 10
93.53847653911538
 20
-118.4451388592776
 10
93.42651093584476
 20
-118.3710693063447
 10
93.37793508950274
 20
-118.3245605172939
 10
93.2614908621013
 20
-118.2081162898924
 97
        0
 97
        0
 92
        1
 93
        1
 72
     4
 94
        3
 73
     0
 74
     1
 95
       17
 96
       13
 40
0.0
 40
0.0
 40
0.0
 40
0.0
 40
1.0
 40
1.0
 40
1.0
 40
2.0
 40
2.0
 40
2.0
 40
3.0
 40
3.0
 40
3.0
 40
4.0
 40
4.0
 40
4.0
 40
4.0
 10
93.82200789755144
 20
-119.263693546573
 10
93.68661564498113
 20
-119.1517279433023
 10
93.58085121358395
 20
-119.0883381863738
 10
93.46233992889137
 20
-119.0246039198966
 10
93.46233992889137
 20
-119.0246039198966
 10
93.58946395229708
 20
-118.912638316626
 10
93.58946395229708
 20
-118.912638316626
 10
93.72037758073658
 20
-118.9591471056769
 10
93.83062063626457
 20
-119.016335690732
 10
93.95533309283061
 20
-119.1179660075469
 10
93.95533309283061
 20
-119.1179660075469
 10
93.82200789755144
 20
-119.263693546573
 10
93.82200789755144
 20
-119.263693546573
 97
        0
 97
        0
 75
     2
 76
     1
 98
        0
  0
SPLINE
  5
5A
330
4E
100
AcDbEntity
  8
_U+30EC_U+30A4_U+30E4_U+30FC 1
370
     0
100
AcDbSpline
210
0.0
220
0.0
230
1.0
 70
    11
 71
     3
 72
   113
 73
   109
 74
     0
 42
0.0000000001
 43
0.0000000001
 12
1.0
 22
0.0
 32
0.0
 13
1.0
 23
0.0
 33
0.0
 40
0.0
 40
0.0
 40
0.0
 40
0.0
 40
1.0
 40
1.0
 40
1.0
 40
2.0
 40
2.0
 40
2.0
 40
3.0
 40
3.0
 40
3.0
 40
4.0
 40
4.0
 40
4.0
 40
5.0
 40
5.0
 40
5.0
 40
6.0
 40
6.0
 40
6.0
 40
7.0
 40
7.0
 40
7.0
 40
8.0
 40
8.0
 40
8.0
 40
9.0
 40
9.0
 40
9.0
 40
10.0
 40
10.0
 40
10.0
 40
11.0
 40
11.0
 40
11.0
 40
12.0
 40
12.0
 40
12.0
 40
13.0
 40
13.0
 40
13.0
 40
14.0
 40
14.0
 40
14.0
 40
15.0
 40
15.0
 40
15.0
 40
16.0
 40
16.0
 40
16.0
 40
17.0
 40
17.0
 40
17.0
 40
18.0
 40
18.0
 40
18.0
 40
19.0
 40
19.0
 40
19.0
 40
20.0
 40
20.0
 40
20.0
 40
21.0
 40
21.0
 40
21.0
 40
22.0
 40
22.0
 40
22.0
 40
23.0
 40
23.0
 40
23.0
 40
24.0
 40
24.0
 40
24.0
 40
25.0
 40
25.0
 40
25.0
 40
26.0
 40
26.0
 40
26.0
 40
27.0
 40
27.0
 40
27.0
 40
28.0
 40
28.0
 40
28.0
 40
29.0
 40
29.0
 40
29.0
 40
30.0
 40
30.0
 40
30.0
 40
31.0
 40
31.0
 40
31.0
 40
32.0
 40
32.0
 40
32.0
 40
33.0
 40
33.0
 40
33.0
 40
34.0
 40
34.0
 40
34.0
 40
35.0
 40
35.0
 40
35.0
 40
36.0
 40
36.0
 40
36.0
 40
36.0
 10
95.70165199430376
 20
-119.2406114068218
 30
0.0
 10
95.70165199430376
 20
-119.2406114068218
 30
0.0
 10
95.80121525382748
 20
-119.339830156797
 30
0.0
 10
95.80121525382748
 20
-119.339830156797
 30
0.0
 10
95.81189504983175
 20
-119.3505099528013
 30
0.0
 10
95.8222303362875
 20
-119.3632568060967
 30
0.0
 10
95.8222303362875
 20
-119.3780707166833
 30
0.0
 10
95.8222303362875
 20
-119.3801377739744
 30
0.0
 10
95.8222303362875
 20
-119.4097655951476
 30
0.0
 10
95.78433428594975
 20
-119.4097655951476
 30
0.0
 10
95.77572154723663
 20
-119.4097655951476
 30
0.0
 10
95.73575843960774
 20
-119.4056314805653
 30
0.0
 10
95.72921275818575
 20
-119.4056314805653
 30
0.0
 10
95.68924965055686
 20
-119.4373263590296
 30
0.0
 10
95.64239635195746
 20
-119.471088294785
 30
0.0
 10
95.54317760198226
 20
-119.5282768798402
 30
0.0
 10
95.68924965055686
 20
-119.6361083685285
 30
0.0
 10
95.84772404287835
 20
-119.6932969535836
 30
0.0
 10
96.12057560531014
 20
-119.7311930039214
 30
0.0
 10
96.12057560531014
 20
-119.7311930039214
 30
0.0
 10
95.97036944215324
 20
-119.9068928736691
 30
0.0
 10
95.97036944215324
 20
-119.9068928736691
 30
0.0
 10
95.70819767572573
 20
-119.8348903780274
 30
0.0
 10
95.55144583114686
 20
-119.7460069145079
 30
0.0
 10
95.47530922092284
 20
-119.6932969535836
 30
0.0
 10
95.32510305776596
 20
-119.5916666367687
 30
0.0
 10
95.18144257603103
 20
-119.4287136203164
 30
0.0
 10
95.105305965807
 20
-119.263693546573
 30
0.0
 10
95.0374375847476
 20
-119.3294948703412
 30
0.0
 10
94.96336803181472
 20
-119.3822048312656
 30
0.0
 10
94.88516436429954
 20
-119.4307806776076
 30
0.0
 10
94.88516436429954
 20
-119.4307806776076
 30
0.0
 10
94.88516436429954
 20
-119.6826171575794
 30
0.0
 10
94.88516436429954
 20
-119.6826171575794
 30
0.0
 10
95.04811738075186
 20
-119.6571234509885
 30
0.0
 10
95.23415253695535
 20
-119.6126817192288
 30
0.0
 10
95.29788680343248
 20
-119.5978678086422
 30
0.0
 10
95.29788680343248
 20
-119.5978678086422
 30
0.0
 10
95.26825898225933
 20
-119.7673665065165
 30
0.0
 10
95.26825898225933
 20
-119.7673665065165
 30
0.0
 10
95.26584741541966
 20
-119.7673665065165
 30
0.0
 10
95.24689939025077
 20
-119.77356767839
 30
0.0
 10
95.24483233295963
 20
-119.77356767839
 30
0.0
 10
95.04605032346072
 20
-119.8118082382762
 30
0.0
 10
94.7287570292692
 20
-119.877265052496
 30
0.0
 10
94.53204207706143
 20
-119.9130940455426
 30
0.0
 10
94.52136228105716
 20
-119.9303195229688
 30
0.0
 10
94.49793563175747
 20
-119.9620144014331
 30
0.0
 10
94.47485349200629
 20
-119.9620144014331
 30
0.0
 10
94.4472927281243
 20
-119.9620144014331
 30
0.0
 10
94.443158613542
 20
-119.9427218667157
 30
0.0
 10
94.44109155625084
 20
-119.9237738415468
 30
0.0
 10
94.44109155625084
 20
-119.9237738415468
 30
0.0
 10
94.41559784965999
 20
-119.7504855386388
 30
0.0
 10
94.41559784965999
 20
-119.7504855386388
 30
0.0
 10
94.48966740259287
 20
-119.7418727999256
 30
0.0
 10
94.59749889128119
 20
-119.7291259466302
 30
0.0
 10
94.70533037996951
 20
-119.7081108641702
 30
0.0
 10
94.70533037996951
 20
-119.7081108641702
 30
0.0
 10
94.70533037996951
 20
-119.5303439371313
 30
0.0
 10
94.70533037996951
 20
-119.5303439371313
 30
0.0
 10
94.56166989823458
 20
-119.602346432773
 30
0.0
 10
94.46624075329316
 20
-119.6319742539462
 30
0.0
 10
94.3012206795497
 20
-119.6616020751193
 30
0.0
 10
94.3012206795497
 20
-119.6616020751193
 30
0.0
 10
94.18064233756596
 20
-119.492103377245
 30
0.0
 10
94.18064233756596
 20
-119.492103377245
 30
0.0
 10
94.49793563175747
 20
-119.4648871229116
 30
0.0
 10
94.69051646938293
 20
-119.3715250352613
 30
0.0
 10
94.86828339642182
 20
-119.2385443495306
 30
0.0
 10
94.72221134784724
 20
-119.2385443495306
 30
0.0
 10
94.42179902153345
 20
-119.2426784641129
 30
0.0
 10
94.22508406932567
 20
-119.2488796359864
 30
0.0
 10
94.22508406932567
 20
-119.2488796359864
 30
0.0
 10
94.22508406932567
 20
-119.0711127089475
 30
0.0
 10
94.22508406932567
 20
-119.0711127089475
 30
0.0
 10
94.3797688566134
 20
-119.0776583903695
 30
0.0
 10
94.67570255879636
 20
-119.0838595622429
 30
0.0
 10
94.8596706577087
 20
-119.0838595622429
 30
0.0
 10
94.8596706577087
 20
-119.0838595622429
 30
0.0
 10
95.07154403005157
 20
-119.0838595622429
 30
0.0
 10
95.07154403005157
 20
-119.0838595622429
 30
0.0
 10
95.07154403005157
 20
-118.98877492685
 30
0.0
 10
95.06913246321189
 20
-118.9381320232169
 30
0.0
 10
95.06293129133844
 20
-118.8912787246175
 30
0.0
 10
95.06293129133844
 20
-118.8912787246175
 30
0.0
 10
95.27859426871508
 20
-118.9085042020437
 30
0.0
 10
95.27859426871508
 20
-118.9085042020437
 30
0.0
 10
95.32751462460563
 20
-118.912638316626
 30
0.0
 10
95.33578285377023
 20
-118.9274522272126
 30
0.0
 10
95.33578285377023
 20
-118.9422661377992
 30
0.0
 10
95.33578285377023
 20
-118.96775984439
 30
0.0
 10
95.3189018858925
 20
-118.9760280735546
 30
0.0
 10
95.26825898225933
 20
-119.0015217801455
 30
0.0
 10
95.26584741541966
 20
-119.0270154867363
 30
0.0
 10
95.26584741541966
 20
-119.0332166586098
 30
0.0
 10
95.2637803581285
 20
-119.0838595622429
 30
0.0
 10
95.2637803581285
 20
-119.0838595622429
 30
0.0
 10
95.49460175564025
 20
-119.0838595622429
 30
0.0
 10
95.49460175564025
 20
-119.0838595622429
 30
0.0
 10
95.65962182938371
 20
-119.0838595622429
 30
0.0
 10
95.95142141698437
 20
-119.0776583903695
 30
0.0
 10
96.13125540131442
 20
-119.0711127089475
 30
0.0
 10
96.13125540131442
 20
-119.0711127089475
 30
0.0
 10
96.13125540131442
 20
-119.2488796359864
 30
0.0
 10
96.13125540131442
 20
-119.2488796359864
 30
0.0
 10
96.00206432061755
 20
-119.2447455214041
 30
0.0
 10
95.97898218086637
 20
-119.2447455214041
 30
0.0
 10
95.70165199430376
 20
-119.2406114068218
 30
0.0
  0
SPLINE
  5
5B
330
4E
100
AcDbEntity
  8
_U+30EC_U+30A4_U+30E4_U+30FC 1
370
     0
100
AcDbSpline
210
0.0
220
0.0
230
1.0
 70
    11
 71
     3
 72
    23
 73
    19
 74
     0
 42
0.0000000001
 43
0.0000000001
 12
1.0
 22
0.0
 32
0.0
 13
1.0
 23
0.0
 33
0.0
 40
0.0
 40
0.0
 40
0.0
 40
0.0
 40
1.0
 40
1.0
 40
1.0
 40
2.0
 40
2.0
 40
2.0
 40
3.0
 40
3.0
 40
3.0
 40
4.0
 40
4.0
 40
4.0
 40
5.0
 40
5.0
 40
5.0
 40
6.0
 40
6.0
 40
6.0
 40
6.0
 10
94.41766490695115
 20
-118.8892116673263
 30
0.0
 10
94.40078393907342
 20
-118.9295192845037
 30
0.0
 10
94.39458276719996
 20
-118.9464002523815
 30
0.0
 10
94.37322317519143
 20
-118.9464002523815
 30
0.0
 10
94.35840926460484
 20
-118.9464002523815
 30
0.0
 10
94.34772946860058
 20
-118.9295192845037
 30
0.0
 10
94.34152829672712
 20
-118.9167724312083
 30
0.0
 10
94.34152829672712
 20
-118.9167724312083
 30
0.0
 10
94.2419650372034
 20
-118.7517523574649
 30
0.0
 10
94.2419650372034
 20
-118.7517523574649
 30
0.0
 10
94.34359535401828
 20
-118.7200574790005
 30
0.0
 10
94.49380151717517
 20
-118.6649359512365
 30
0.0
 10
94.69258352667408
 20
-118.5023274443328
 30
0.0
 10
94.69258352667408
 20
-118.5023274443328
 30
0.0
 10
94.74977211172923
 20
-118.6756157472408
 30
0.0
 10
94.74977211172923
 20
-118.6756157472408
 30
0.0
 10
94.65675453362748
 20
-118.7582980388868
 30
0.0
 10
94.56787107010804
 20
-118.8151421143934
 30
0.0
 10
94.41766490695115
 20
-118.8892116673263
 30
0.0
  0
SPLINE
  5
5C
330
4E
100
AcDbEntity
  8
_U+30EC_U+30A4_U+30E4_U+30FC 1
370
     0
100
AcDbSpline
210
0.0
220
0.0
230
1.0
 70
    11
 71
     3
 72
    17
 73
    13
 74
     0
 42
0.0000000001
 43
0.0000000001
 12
1.0
 22
0.0
 32
0.0
 13
1.0
 23
0.0
 33
0.0
 40
0.0
 40
0.0
 40
0.0
 40
0.0
 40
1.0
 40
1.0
 40
1.0
 40
2.0
 40
2.0
 40
2.0
 40
3.0
 40
3.0
 40
3.0
 40
4.0
 40
4.0
 40
4.0
 40
4.0
 10
94.56993812739918
 20
-118.4237792672691
 30
0.0
 10
94.54031030622603
 20
-118.3838161596402
 30
0.0
 10
94.47278643471515
 20
-118.2863199574076
 30
0.0
 10
94.29088539309394
 20
-118.1764214114281
 30
0.0
 10
94.29088539309394
 20
-118.1764214114281
 30
0.0
 10
94.41766490695115
 20
-118.043096216149
 30
0.0
 10
94.41766490695115
 20
-118.043096216149
 30
0.0
 10
94.60370006315463
 20
-118.1447265329638
 30
0.0
 10
94.66088864820978
 20
-118.2336099964833
 30
0.0
 10
94.68844941209179
 20
-118.2759846709518
 30
0.0
 10
94.68844941209179
 20
-118.2759846709518
 30
0.0
 10
94.56993812739918
 20
-118.4237792672691
 30
0.0
 10
94.56993812739918
 20
-118.4237792672691
 30
0.0
  0
SPLINE
  5
5D
330
4E
100
AcDbEntity
  8
_U+30EC_U+30A4_U+30E4_U+30FC 1
370
     0
100
AcDbSpline
210
0.0
220
0.0
230
1.0
 70
    11
 71
     3
 72
    38
 73
    34
 74
     0
 42
0.0000000001
 43
0.0000000001
 12
1.0
 22
0.0
 32
0.0
 13
1.0
 23
0.0
 33
0.0
 40
0.0
 40
0.0
 40
0.0
 40
0.0
 40
1.0
 40
1.0
 40
1.0
 40
2.0
 40
2.0
 40
2.0
 40
3.0
 40
3.0
 40
3.0
 40
4.0
 40
4.0
 40
4.0
 40
5.0
 40
5.0
 40
5.0
 40
6.0
 40
6.0
 40
6.0
 40
7.0
 40
7.0
 40
7.0
 40
8.0
 40
8.0
 40
8.0
 40
9.0
 40
9.0
 40
9.0
 40
10.0
 40
10.0
 40
10.0
 40
11.0
 40
11.0
 40
11.0
 40
11.0
 10
94.9382188347724
 20
-118.119232826373
 30
0.0
 10
94.93615177748124
 20
-118.1657416154239
 30
0.0
 10
94.93374021064157
 20
-118.2821858428253
 30
0.0
 10
94.93374021064157
 20
-118.326627574585
 30
0.0
 10
94.93374021064157
 20
-118.326627574585
 30
0.0
 10
94.93374021064157
 20
-118.6735486899497
 30
0.0
 10
94.93374021064157
 20
-118.6735486899497
 30
0.0
 10
94.93374021064157
 20
-118.760365096178
 30
0.0
 10
94.93615177748124
 20
-118.9019585206217
 30
0.0
 10
94.946487063937
 20
-119.0225368626055
 30
0.0
 10
94.946487063937
 20
-119.0225368626055
 30
0.0
 10
94.7563177931512
 20
-119.0225368626055
 30
0.0
 10
94.7563177931512
 20
-119.0225368626055
 30
0.0
 10
94.7604519077335
 20
-118.9591471056769
 30
0.0
 10
94.7645860223158
 20
-118.906092635204
 30
0.0
 10
94.76665307960695
 20
-118.8513156169886
 30
0.0
 10
94.7687201368981
 20
-118.7286702177137
 30
0.0
 10
94.77113170373778
 20
-118.7138563071271
 30
0.0
 10
94.77113170373778
 20
-118.6694145753674
 30
0.0
 10
94.77113170373778
 20
-118.6694145753674
 30
0.0
 10
94.77113170373778
 20
-118.347642657045
 30
0.0
 10
94.77113170373778
 20
-118.347642657045
 30
0.0
 10
94.77113170373778
 20
-118.2928656388296
 30
0.0
 10
94.75838485044235
 20
-118.0537760121532
 30
0.0
 10
94.7563177931512
 20
-118.0027885989715
 30
0.0
 10
94.7563177931512
 20
-118.0027885989715
 30
0.0
 10
94.95716685994127
 20
-118.0303493628535
 30
0.0
 10
94.95716685994127
 20
-118.0303493628535
 30
0.0
 10
94.97818194240129
 20
-118.0324164201447
 30
0.0
 10
95.00987682086559
 20
-118.0368950442755
 30
0.0
 10
95.00987682086559
 20
-118.0620442413178
 30
0.0
 10
95.00987682086559
 20
-118.0896050051998
 30
0.0
 10
94.95923391723242
 20
-118.1109645972084
 30
0.0
 10
94.9382188347724
 20
-118.119232826373
 30
0.0
  0
SPLINE
  5
5E
330
4E
100
AcDbEntity
  8
_U+30EC_U+30A4_U+30E4_U+30FC 1
370
     0
100
AcDbSpline
210
0.0
220
0.0
230
1.0
 70
    11
 71
     3
 72
    83
 73
    79
 74
     0
 42
0.0000000001
 43
0.0000000001
 12
1.0
 22
0.0
 32
0.0
 13
1.0
 23
0.0
 33
0.0
 40
0.0
 40
0.0
 40
0.0
 40
0.0
 40
1.0
 40
1.0
 40
1.0
 40
2.0
 40
2.0
 40
2.0
 40
3.0
 40
3.0
 40
3.0
 40
4.0
 40
4.0
 40
4.0
 40
5.0
 40
5.0
 40
5.0
 40
6.0
 40
6.0
 40
6.0
 40
7.0
 40
7.0
 40
7.0
 40
8.0
 40
8.0
 40
8.0
 40
9.0
 40
9.0
 40
9.0
 40
10.0
 40
10.0
 40
10.0
 40
11.0
 40
11.0
 40
11.0
 40
12.0
 40
12.0
 40
12.0
 40
13.0
 40
13.0
 40
13.0
 40
14.0
 40
14.0
 40
14.0
 40
15.0
 40
15.0
 40
15.0
 40
16.0
 40
16.0
 40
16.0
 40
17.0
 40
17.0
 40
17.0
 40
18.0
 40
18.0
 40
18.0
 40
19.0
 40
19.0
 40
19.0
 40
20.0
 40
20.0
 40
20.0
 40
21.0
 40
21.0
 40
21.0
 40
22.0
 40
22.0
 40
22.0
 40
23.0
 40
23.0
 40
23.0
 40
24.0
 40
24.0
 40
24.0
 40
25.0
 40
25.0
 40
25.0
 40
26.0
 40
26.0
 40
26.0
 40
26.0
 10
95.73989255419004
 20
-118.4410047446953
 30
0.0
 10
95.73989255419004
 20
-118.4410047446953
 30
0.0
 10
95.64239635195746
 20
-118.4410047446953
 30
0.0
 10
95.64239635195746
 20
-118.4410047446953
 30
0.0
 10
95.64239635195746
 20
-118.4410047446953
 30
0.0
 10
95.64239635195746
 20
-118.6883626005363
 30
0.0
 10
95.64239635195746
 20
-118.6883626005363
 30
0.0
 10
95.64239635195746
 20
-118.6883626005363
 30
0.0
 10
95.72507864360345
 20
-118.6883626005363
 30
0.0
 10
95.72507864360345
 20
-118.6883626005363
 30
0.0
 10
95.79053545782321
 20
-118.6883626005363
 30
0.0
 10
95.93040633452435
 20
-118.684228485954
 30
0.0
 10
96.02962508449954
 20
-118.6756157472408
 30
0.0
 10
96.02962508449954
 20
-118.6756157472408
 30
0.0
 10
96.02962508449954
 20
-118.8554497315709
 30
0.0
 10
96.02962508449954
 20
-118.8554497315709
 30
0.0
 10
95.93660750639779
 20
-118.8471815024063
 30
0.0
 10
95.78640134324091
 20
-118.8427028782754
 30
0.0
 10
95.72507864360345
 20
-118.8427028782754
 30
0.0
 10
95.72507864360345
 20
-118.8427028782754
 30
0.0
 10
95.42053220270738
 20
-118.8427028782754
 30
0.0
 10
95.42053220270738
 20
-118.8427028782754
 30
0.0
 10
95.36747773223452
 20
-118.8427028782754
 30
0.0
 10
95.22175019320845
 20
-118.8471815024063
 30
0.0
 10
95.11564125226276
 20
-118.8554497315709
 30
0.0
 10
95.11564125226276
 20
-118.8554497315709
 30
0.0
 10
95.11564125226276
 20
-118.6756157472408
 30
0.0
 10
95.11564125226276
 20
-118.6756157472408
 30
0.0
 10
95.21520451178648
 20
-118.684228485954
 30
0.0
 10
95.3547308789391
 20
-118.6883626005363
 30
0.0
 10
95.42053220270738
 20
-118.6883626005363
 30
0.0
 10
95.42053220270738
 20
-118.6883626005363
 30
0.0
 10
95.4649739344671
 20
-118.6883626005363
 30
0.0
 10
95.4649739344671
 20
-118.6883626005363
 30
0.0
 10
95.4649739344671
 20
-118.6883626005363
 30
0.0
 10
95.4649739344671
 20
-118.4410047446953
 30
0.0
 10
95.4649739344671
 20
-118.4410047446953
 30
0.0
 10
95.4649739344671
 20
-118.4410047446953
 30
0.0
 10
95.39090438153423
 20
-118.4410047446953
 30
0.0
 10
95.39090438153423
 20
-118.4410047446953
 30
0.0
 10
95.32958168189677
 20
-118.4410047446953
 30
0.0
 10
95.16249455086216
 20
-118.4451388592776
 30
0.0
 10
95.04191620887842
 20
-118.4534070884422
 30
0.0
 10
95.04191620887842
 20
-118.4534070884422
 30
0.0
 10
95.04191620887842
 20
-118.2759846709518
 30
0.0
 10
95.04191620887842
 20
-118.2759846709518
 30
0.0
 10
95.15594886944018
 20
-118.2821858428253
 30
0.0
 10
95.3147677713102
 20
-118.2863199574076
 30
0.0
 10
95.39090438153423
 20
-118.2863199574076
 30
0.0
 10
95.39090438153423
 20
-118.2863199574076
 30
0.0
 10
95.46290687717594
 20
-118.2863199574076
 30
0.0
 10
95.46290687717594
 20
-118.2863199574076
 30
0.0
 10
95.45842825304511
 20
-118.1340467369595
 30
0.0
 10
95.45636119575397
 20
-118.1002848012041
 30
0.0
 10
95.45016002388051
 20
-118.0072672231024
 30
0.0
 10
95.45016002388051
 20
-118.0072672231024
 30
0.0
 10
95.66168888667487
 20
-118.0303493628535
 30
0.0
 10
95.66168888667487
 20
-118.0303493628535
 30
0.0
 10
95.68683808371718
 20
-118.0324164201447
 30
0.0
 10
95.71026473301688
 20
-118.0368950442755
 30
0.0
 10
95.71026473301688
 20
-118.0599771840267
 30
0.0
 10
95.71026473301688
 20
-118.091672062491
 30
0.0
 10
95.66582300125717
 20
-118.1085530303687
 30
0.0
 10
95.64239635195746
 20
-118.1171657690818
 30
0.0
 10
95.64239635195746
 20
-118.1171657690818
 30
0.0
 10
95.64239635195746
 20
-118.2863199574076
 30
0.0
 10
95.64239635195746
 20
-118.2863199574076
 30
0.0
 10
95.64239635195746
 20
-118.2863199574076
 30
0.0
 10
95.73989255419004
 20
-118.2863199574076
 30
0.0
 10
95.73989255419004
 20
-118.2863199574076
 30
0.0
 10
95.81602916441405
 20
-118.2863199574076
 30
0.0
 10
95.97484806628407
 20
-118.2821858428253
 30
0.0
 10
96.09094778413699
 20
-118.2759846709518
 30
0.0
 10
96.09094778413699
 20
-118.2759846709518
 30
0.0
 10
96.09094778413699
 20
-118.4534070884422
 30
0.0
 10
96.09094778413699
 20
-118.4534070884422
 30
0.0
 10
95.98311629544867
 20
-118.4472059165688
 30
0.0
 10
95.8098279925406
 20
-118.4410047446953
 30
0.0
 10
95.73989255419004
 20
-118.4410047446953
 30
0.0
  0
SPLINE
  5
5F
330
4E
100
AcDbEntity
  8
_U+30EC_U+30A4_U+30E4_U+30FC 1
370
     0
100
AcDbSpline
210
0.0
220
0.0
230
1.0
 70
    11
 71
     3
 72
    17
 73
    13
 74
     0
 42
0.0000000001
 43
0.0000000001
 12
1.0
 22
0.0
 32
0.0
 13
1.0
 23
0.0
 33
0.0
 40
0.0
 40
0.0
 40
0.0
 40
0.0
 40
1.0
 40
1.0
 40
1.0
 40
2.0
 40
2.0
 40
2.0
 40
3.0
 40
3.0
 40
3.0
 40
4.0
 40
4.0
 40
4.0
 40
4.0
 10
95.49460175564025
 20
-119.2385443495306
 30
0.0
 10
95.49460175564025
 20
-119.2385443495306
 30
0.0
 10
95.29134112201051
 20
-119.2385443495306
 30
0.0
 10
95.29134112201051
 20
-119.2385443495306
 30
0.0
 10
95.3189018858925
 20
-119.2977999918769
 30
0.0
 10
95.3740234136565
 20
-119.3694579779701
 30
0.0
 10
95.40123966798997
 20
-119.3990857991433
 30
0.0
 10
95.42880043187198
 20
-119.3842718885567
 30
0.0
 10
95.54317760198226
 20
-119.3208821316281
 30
0.0
 10
95.63412812279286
 20
-119.2385443495306
 30
0.0
 10
95.63412812279286
 20
-119.2385443495306
 30
0.0
 10
95.49460175564025
 20
-119.2385443495306
 30
0.0
 10
95.49460175564025
 20
-119.2385443495306
 30
0.0
  0
HATCH
  5
60
330
4E
100
AcDbEntity
  8
_U+30EC_U+30A4_U+30E4_U+30FC 1
 62
   179
420
  2234388
100
AcDbHatch
 10
0.0
 20
0.0
 30
0.0
210
0.0
220
0.0
230
1.0
  2
SOLID
 70
     1
 71
     0
 91
        6
 92
        1
 93
        1
 72
     4
 94
        3
 73
     0
 74
     1
 95
      113
 96
      109
 40
0.0
 40
0.0
 40
0.0
 40
0.0
 40
1.0
 40
1.0
 40
1.0
 40
2.0
 40
2.0
 40
2.0
 40
3.0
 40
3.0
 40
3.0
 40
4.0
 40
4.0
 40
4.0
 40
5.0
 40
5.0
 40
5.0
 40
6.0
 40
6.0
 40
6.0
 40
7.0
 40
7.0
 40
7.0
 40
8.0
 40
8.0
 40
8.0
 40
9.0
 40
9.0
 40
9.0
 40
10.0
 40
10.0
 40
10.0
 40
11.0
 40
11.0
 40
11.0
 40
12.0
 40
12.0
 40
12.0
 40
13.0
 40
13.0
 40
13.0
 40
14.0
 40
14.0
 40
14.0
 40
15.0
 40
15.0
 40
15.0
 40
16.0
 40
16.0
 40
16.0
 40
17.0
 40
17.0
 40
17.0
 40
18.0
 40
18.0
 40
18.0
 40
19.0
 40
19.0
 40
19.0
 40
20.0
 40
20.0
 40
20.0
 40
21.0
 40
21.0
 40
21.0
 40
22.0
 40
22.0
 40
22.0
 40
23.0
 40
23.0
 40
23.0
 40
24.0
 40
24.0
 40
24.0
 40
25.0
 40
25.0
 40
25.0
 40
26.0
 40
26.0
 40
26.0
 40
27.0
 40
27.0
 40
27.0
 40
28.0
 40
28.0
 40
28.0
 40
29.0
 40
29.0
 40
29.0
 40
30.0
 40
30.0
 40
30.0
 40
31.0
 40
31.0
 40
31.0
 40
32.0
 40
32.0
 40
32.0
 40
33.0
 40
33.0
 40
33.0
 40
34.0
 40
34.0
 40
34.0
 40
35.0
 40
35.0
 40
35.0
 40
36.0
 40
36.0
 40
36.0
 40
36.0
 10
95.70165199430376
 20
-119.2406114068218
 10
95.70165199430376
 20
-119.2406114068218
 10
95.80121525382748
 20
-119.339830156797
 10
95.80121525382748
 20
-119.339830156797
 10
95.81189504983175
 20
-119.3505099528013
 10
95.8222303362875
 20
-119.3632568060967
 10
95.8222303362875
 20
-119.3780707166833
 10
95.8222303362875
 20
-119.3801377739744
 10
95.8222303362875
 20
-119.4097655951476
 10
95.78433428594975
 20
-119.4097655951476
 10
95.77572154723663
 20
-119.4097655951476
 10
95.73575843960774
 20
-119.4056314805653
 10
95.72921275818575
 20
-119.4056314805653
 10
95.68924965055686
 20
-119.4373263590296
 10
95.64239635195746
 20
-119.471088294785
 10
95.54317760198226
 20
-119.5282768798402
 10
95.68924965055686
 20
-119.6361083685285
 10
95.84772404287835
 20
-119.6932969535836
 10
96.12057560531014
 20
-119.7311930039214
 10
96.12057560531014
 20
-119.7311930039214
 10
95.97036944215324
 20
-119.9068928736691
 10
95.97036944215324
 20
-119.9068928736691
 10
95.70819767572573
 20
-119.8348903780274
 10
95.55144583114686
 20
-119.7460069145079
 10
95.47530922092284
 20
-119.6932969535836
 10
95.32510305776596
 20
-119.5916666367687
 10
95.18144257603103
 20
-119.4287136203164
 10
95.105305965807
 20
-119.263693546573
 10
95.0374375847476
 20
-119.3294948703412
 10
94.96336803181472
 20
-119.3822048312656
 10
94.88516436429954
 20
-119.4307806776076
 10
94.88516436429954
 20
-119.4307806776076
 10
94.88516436429954
 20
-119.6826171575794
 10
94.88516436429954
 20
-119.6826171575794
 10
95.04811738075186
 20
-119.6571234509885
 10
95.23415253695535
 20
-119.6126817192288
 10
95.29788680343248
 20
-119.5978678086422
 10
95.29788680343248
 20
-119.5978678086422
 10
95.26825898225933
 20
-119.7673665065165
 10
95.26825898225933
 20
-119.7673665065165
 10
95.26584741541966
 20
-119.7673665065165
 10
95.24689939025077
 20
-119.77356767839
 10
95.24483233295963
 20
-119.77356767839
 10
95.04605032346072
 20
-119.8118082382762
 10
94.7287570292692
 20
-119.877265052496
 10
94.53204207706143
 20
-119.9130940455426
 10
94.52136228105716
 20
-119.9303195229688
 10
94.49793563175747
 20
-119.9620144014331
 10
94.47485349200629
 20
-119.9620144014331
 10
94.4472927281243
 20
-119.9620144014331
 10
94.443158613542
 20
-119.9427218667157
 10
94.44109155625084
 20
-119.9237738415468
 10
94.44109155625084
 20
-119.9237738415468
 10
94.41559784965999
 20
-119.7504855386388
 10
94.41559784965999
 20
-119.7504855386388
 10
94.48966740259287
 20
-119.7418727999256
 10
94.59749889128119
 20
-119.7291259466302
 10
94.70533037996951
 20
-119.7081108641702
 10
94.70533037996951
 20
-119.7081108641702
 10
94.70533037996951
 20
-119.5303439371313
 10
94.70533037996951
 20
-119.5303439371313
 10
94.56166989823458
 20
-119.602346432773
 10
94.46624075329316
 20
-119.6319742539462
 10
94.3012206795497
 20
-119.6616020751193
 10
94.3012206795497
 20
-119.6616020751193
 10
94.18064233756596
 20
-119.492103377245
 10
94.18064233756596
 20
-119.492103377245
 10
94.49793563175747
 20
-119.4648871229116
 10
94.69051646938293
 20
-119.3715250352613
 10
94.86828339642182
 20
-119.2385443495306
 10
94.72221134784724
 20
-119.2385443495306
 10
94.42179902153345
 20
-119.2426784641129
 10
94.22508406932567
 20
-119.2488796359864
 10
94.22508406932567
 20
-119.2488796359864
 10
94.22508406932567
 20
-119.0711127089475
 10
94.22508406932567
 20
-119.0711127089475
 10
94.3797688566134
 20
-119.0776583903695
 10
94.67570255879636
 20
-119.0838595622429
 10
94.8596706577087
 20
-119.0838595622429
 10
94.8596706577087
 20
-119.0838595622429
 10
95.07154403005157
 20
-119.0838595622429
 10
95.07154403005157
 20
-119.0838595622429
 10
95.07154403005157
 20
-118.98877492685
 10
95.06913246321189
 20
-118.9381320232169
 10
95.06293129133844
 20
-118.8912787246175
 10
95.06293129133844
 20
-118.8912787246175
 10
95.27859426871508
 20
-118.9085042020437
 10
95.27859426871508
 20
-118.9085042020437
 10
95.32751462460563
 20
-118.912638316626
 10
95.33578285377023
 20
-118.9274522272126
 10
95.33578285377023
 20
-118.9422661377992
 10
95.33578285377023
 20
-118.96775984439
 10
95.3189018858925
 20
-118.9760280735546
 10
95.26825898225933
 20
-119.0015217801455
 10
95.26584741541966
 20
-119.0270154867363
 10
95.26584741541966
 20
-119.0332166586098
 10
95.2637803581285
 20
-119.0838595622429
 10
95.2637803581285
 20
-119.0838595622429
 10
95.49460175564025
 20
-119.0838595622429
 10
95.49460175564025
 20
-119.0838595622429
 10
95.65962182938371
 20
-119.0838595622429
 10
95.95142141698437
 20
-119.0776583903695
 10
96.13125540131442
 20
-119.0711127089475
 10
96.13125540131442
 20
-119.0711127089475
 10
96.13125540131442
 20
-119.2488796359864
 10
96.13125540131442
 20
-119.2488796359864
 10
96.00206432061755
 20
-119.2447455214041
 10
95.97898218086637
 20
-119.2447455214041
 10
95.70165199430376
 20
-119.2406114068218
 97
        0
 97
        0
 92
        1
 93
        1
 72
     4
 94
        3
 73
     0
 74
     1
 95
       23
 96
       19
 40
0.0
 40
0.0
 40
0.0
 40
0.0
 40
1.0
 40
1.0
 40
1.0
 40
2.0
 40
2.0
 40
2.0
 40
3.0
 40
3.0
 40
3.0
 40
4.0
 40
4.0
 40
4.0
 40
5.0
 40
5.0
 40
5.0
 40
6.0
 40
6.0
 40
6.0
 40
6.0
 10
94.41766490695115
 20
-118.8892116673263
 10
94.40078393907342
 20
-118.9295192845037
 10
94.39458276719996
 20
-118.9464002523815
 10
94.37322317519143
 20
-118.9464002523815
 10
94.35840926460484
 20
-118.9464002523815
 10
94.34772946860058
 20
-118.9295192845037
 10
94.34152829672712
 20
-118.9167724312083
 10
94.34152829672712
 20
-118.9167724312083
 10
94.2419650372034
 20
-118.7517523574649
 10
94.2419650372034
 20
-118.7517523574649
 10
94.34359535401828
 20
-118.7200574790005
 10
94.49380151717517
 20
-118.6649359512365
 10
94.69258352667408
 20
-118.5023274443328
 10
94.69258352667408
 20
-118.5023274443328
 10
94.74977211172923
 20
-118.6756157472408
 10
94.74977211172923
 20
-118.6756157472408
 10
94.65675453362748
 20
-118.7582980388868
 10
94.56787107010804
 20
-118.8151421143934
 10
94.41766490695115
 20
-118.8892116673263
 97
        0
 97
        0
 92
        1
 93
        1
 72
     4
 94
        3
 73
     0
 74
     1
 95
       17
 96
       13
 40
0.0
 40
0.0
 40
0.0
 40
0.0
 40
1.0
 40
1.0
 40
1.0
 40
2.0
 40
2.0
 40
2.0
 40
3.0
 40
3.0
 40
3.0
 40
4.0
 40
4.0
 40
4.0
 40
4.0
 10
94.56993812739918
 20
-118.4237792672691
 10
94.54031030622603
 20
-118.3838161596402
 10
94.47278643471515
 20
-118.2863199574076
 10
94.29088539309394
 20
-118.1764214114281
 10
94.29088539309394
 20
-118.1764214114281
 10
94.41766490695115
 20
-118.043096216149
 10
94.41766490695115
 20
-118.043096216149
 10
94.60370006315463
 20
-118.1447265329638
 10
94.66088864820978
 20
-118.2336099964833
 10
94.68844941209179
 20
-118.2759846709518
 10
94.68844941209179
 20
-118.2759846709518
 10
94.56993812739918
 20
-118.4237792672691
 10
94.56993812739918
 20
-118.4237792672691
 97
        0
 97
        0
 92
        1
 93
        1
 72
     4
 94
        3
 73
     0
 74
     1
 95
       38
 96
       34
 40
0.0
 40
0.0
 40
0.0
 40
0.0
 40
1.0
 40
1.0
 40
1.0
 40
2.0
 40
2.0
 40
2.0
 40
3.0
 40
3.0
 40
3.0
 40
4.0
 40
4.0
 40
4.0
 40
5.0
 40
5.0
 40
5.0
 40
6.0
 40
6.0
 40
6.0
 40
7.0
 40
7.0
 40
7.0
 40
8.0
 40
8.0
 40
8.0
 40
9.0
 40
9.0
 40
9.0
 40
10.0
 40
10.0
 40
10.0
 40
11.0
 40
11.0
 40
11.0
 40
11.0
 10
94.9382188347724
 20
-118.119232826373
 10
94.93615177748124
 20
-118.1657416154239
 10
94.93374021064157
 20
-118.2821858428253
 10
94.93374021064157
 20
-118.326627574585
 10
94.93374021064157
 20
-118.326627574585
 10
94.93374021064157
 20
-118.6735486899497
 10
94.93374021064157
 20
-118.6735486899497
 10
94.93374021064157
 20
-118.760365096178
 10
94.93615177748124
 20
-118.9019585206217
 10
94.946487063937
 20
-119.0225368626055
 10
94.946487063937
 20
-119.0225368626055
 10
94.7563177931512
 20
-119.0225368626055
 10
94.7563177931512
 20
-119.0225368626055
 10
94.7604519077335
 20
-118.9591471056769
 10
94.7645860223158
 20
-118.906092635204
 10
94.76665307960695
 20
-118.8513156169886
 10
94.7687201368981
 20
-118.7286702177137
 10
94.77113170373778
 20
-118.7138563071271
 10
94.77113170373778
 20
-118.6694145753674
 10
94.77113170373778
 20
-118.6694145753674
 10
94.77113170373778
 20
-118.347642657045
 10
94.77113170373778
 20
-118.347642657045
 10
94.77113170373778
 20
-118.2928656388296
 10
94.75838485044235
 20
-118.0537760121532
 10
94.7563177931512
 20
-118.0027885989715
 10
94.7563177931512
 20
-118.0027885989715
 10
94.95716685994127
 20
-118.0303493628535
 10
94.95716685994127
 20
-118.0303493628535
 10
94.97818194240129
 20
-118.0324164201447
 10
95.00987682086559
 20
-118.0368950442755
 10
95.00987682086559
 20
-118.0620442413178
 10
95.00987682086559
 20
-118.0896050051998
 10
94.95923391723242
 20
-118.1109645972084
 10
94.9382188347724
 20
-118.119232826373
 97
        0
 97
        0
 92
        1
 93
        1
 72
     4
 94
        3
 73
     0
 74
     1
 95
       83
 96
       79
 40
0.0
 40
0.0
 40
0.0
 40
0.0
 40
1.0
 40
1.0
 40
1.0
 40
2.0
 40
2.0
 40
2.0
 40
3.0
 40
3.0
 40
3.0
 40
4.0
 40
4.0
 40
4.0
 40
5.0
 40
5.0
 40
5.0
 40
6.0
 40
6.0
 40
6.0
 40
7.0
 40
7.0
 40
7.0
 40
8.0
 40
8.0
 40
8.0
 40
9.0
 40
9.0
 40
9.0
 40
10.0
 40
10.0
 40
10.0
 40
11.0
 40
11.0
 40
11.0
 40
12.0
 40
12.0
 40
12.0
 40
13.0
 40
13.0
 40
13.0
 40
14.0
 40
14.0
 40
14.0
 40
15.0
 40
15.0
 40
15.0
 40
16.0
 40
16.0
 40
16.0
 40
17.0
 40
17.0
 40
17.0
 40
18.0
 40
18.0
 40
18.0
 40
19.0
 40
19.0
 40
19.0
 40
20.0
 40
20.0
 40
20.0
 40
21.0
 40
21.0
 40
21.0
 40
22.0
 40
22.0
 40
22.0
 40
23.0
 40
23.0
 40
23.0
 40
24.0
 40
24.0
 40
24.0
 40
25.0
 40
25.0
 40
25.0
 40
26.0
 40
26.0
 40
26.0
 40
26.0
 10
95.73989255419004
 20
-118.4410047446953
 10
95.73989255419004
 20
-118.4410047446953
 10
95.64239635195746
 20
-118.4410047446953
 10
95.64239635195746
 20
-118.4410047446953
 10
95.64239635195746
 20
-118.4410047446953
 10
95.64239635195746
 20
-118.6883626005363
 10
95.64239635195746
 20
-118.6883626005363
 10
95.64239635195746
 20
-118.6883626005363
 10
95.72507864360345
 20
-118.6883626005363
 10
95.72507864360345
 20
-118.6883626005363
 10
95.79053545782321
 20
-118.6883626005363
 10
95.93040633452435
 20
-118.684228485954
 10
96.02962508449954
 20
-118.6756157472408
 10
96.02962508449954
 20
-118.6756157472408
 10
96.02962508449954
 20
-118.8554497315709
 10
96.02962508449954
 20
-118.8554497315709
 10
95.93660750639779
 20
-118.8471815024063
 10
95.78640134324091
 20
-118.8427028782754
 10
95.72507864360345
 20
-118.8427028782754
 10
95.72507864360345
 20
-118.8427028782754
 10
95.42053220270738
 20
-118.8427028782754
 10
95.42053220270738
 20
-118.8427028782754
 10
95.36747773223452
 20
-118.8427028782754
 10
95.22175019320845
 20
-118.8471815024063
 10
95.11564125226276
 20
-118.8554497315709
 10
95.11564125226276
 20
-118.8554497315709
 10
95.11564125226276
 20
-118.6756157472408
 10
95.11564125226276
 20
-118.6756157472408
 10
95.21520451178648
 20
-118.684228485954
 10
95.3547308789391
 20
-118.6883626005363
 10
95.42053220270738
 20
-118.6883626005363
 10
95.42053220270738
 20
-118.6883626005363
 10
95.4649739344671
 20
-118.6883626005363
 10
95.4649739344671
 20
-118.6883626005363
 10
95.4649739344671
 20
-118.6883626005363
 10
95.4649739344671
 20
-118.4410047446953
 10
95.4649739344671
 20
-118.4410047446953
 10
95.4649739344671
 20
-118.4410047446953
 10
95.39090438153423
 20
-118.4410047446953
 10
95.39090438153423
 20
-118.4410047446953
 10
95.32958168189677
 20
-118.4410047446953
 10
95.16249455086216
 20
-118.4451388592776
 10
95.04191620887842
 20
-118.4534070884422
 10
95.04191620887842
 20
-118.4534070884422
 10
95.04191620887842
 20
-118.2759846709518
 10
95.04191620887842
 20
-118.2759846709518
 10
95.15594886944018
 20
-118.2821858428253
 10
95.3147677713102
 20
-118.2863199574076
 10
95.39090438153423
 20
-118.2863199574076
 10
95.39090438153423
 20
-118.2863199574076
 10
95.46290687717594
 20
-118.2863199574076
 10
95.46290687717594
 20
-118.2863199574076
 10
95.45842825304511
 20
-118.1340467369595
 10
95.45636119575397
 20
-118.1002848012041
 10
95.45016002388051
 20
-118.0072672231024
 10
95.45016002388051
 20
-118.0072672231024
 10
95.66168888667487
 20
-118.0303493628535
 10
95.66168888667487
 20
-118.0303493628535
 10
95.68683808371718
 20
-118.0324164201447
 10
95.71026473301688
 20
-118.0368950442755
 10
95.71026473301688
 20
-118.0599771840267
 10
95.71026473301688
 20
-118.091672062491
 10
95.66582300125717
 20
-118.1085530303687
 10
95.64239635195746
 20
-118.1171657690818
 10
95.64239635195746
 20
-118.1171657690818
 10
95.64239635195746
 20
-118.2863199574076
 10
95.64239635195746
 20
-118.2863199574076
 10
95.64239635195746
 20
-118.2863199574076
 10
95.73989255419004
 20
-118.2863199574076
 10
95.73989255419004
 20
-118.2863199574076
 10
95.81602916441405
 20
-118.2863199574076
 10
95.97484806628407
 20
-118.2821858428253
 10
96.09094778413699
 20
-118.2759846709518
 10
96.09094778413699
 20
-118.2759846709518
 10
96.09094778413699
 20
-118.4534070884422
 10
96.09094778413699
 20
-118.4534070884422
 10
95.98311629544867
 20
-118.4472059165688
 10
95.8098279925406
 20
-118.4410047446953
 10
95.73989255419004
 20
-118.4410047446953
 97
        0
 97
        0
 92
        1
 93
        1
 72
     4
 94
        3
 73
     0
 74
     1
 95
       17
 96
       13
 40
0.0
 40
0.0
 40
0.0
 40
0.0
 40
1.0
 40
1.0
 40
1.0
 40
2.0
 40
2.0
 40
2.0
 40
3.0
 40
3.0
 40
3.0
 40
4.0
 40
4.0
 40
4.0
 40
4.0
 10
95.49460175564025
 20
-119.2385443495306
 10
95.49460175564025
 20
-119.2385443495306
 10
95.29134112201051
 20
-119.2385443495306
 10
95.29134112201051
 20
-119.2385443495306
 10
95.3189018858925
 20
-119.2977999918769
 10
95.3740234136565
 20
-119.3694579779701
 10
95.40123966798997
 20
-119.3990857991433
 10
95.42880043187198
 20
-119.3842718885567
 10
95.54317760198226
 20
-119.3208821316281
 10
95.63412812279286
 20
-119.2385443495306
 10
95.63412812279286
 20
-119.2385443495306
 10
95.49460175564025
 20
-119.2385443495306
 10
95.49460175564025
 20
-119.2385443495306
 97
        0
 97
        0
 75
     2
 76
     1
 98
        0
  0
SPLINE
  5
61
330
4E
100
AcDbEntity
  8
_U+30EC_U+30A4_U+30E4_U+30FC 1
370
     0
100
AcDbSpline
210
0.0
220
0.0
230
1.0
 70
    11
 71
     3
 72
    77
 73
    73
 74
     0
 42
0.0000000001
 43
0.0000000001
 12
1.0
 22
0.0
 32
0.0
 13
1.0
 23
0.0
 33
0.0
 40
0.0
 40
0.0
 40
0.0
 40
0.0
 40
1.0
 40
1.0
 40
1.0
 40
2.0
 40
2.0
 40
2.0
 40
3.0
 40
3.0
 40
3.0
 40
4.0
 40
4.0
 40
4.0
 40
5.0
 40
5.0
 40
5.0
 40
6.0
 40
6.0
 40
6.0
 40
7.0
 40
7.0
 40
7.0
 40
8.0
 40
8.0
 40
8.0
 40
9.0
 40
9.0
 40
9.0
 40
10.0
 40
10.0
 40
10.0
 40
11.0
 40
11.0
 40
11.0
 40
12.0
 40
12.0
 40
12.0
 40
13.0
 40
13.0
 40
13.0
 40
14.0
 40
14.0
 40
14.0
 40
15.0
 40
15.0
 40
15.0
 40
16.0
 40
16.0
 40
16.0
 40
17.0
 40
17.0
 40
17.0
 40
18.0
 40
18.0
 40
18.0
 40
19.0
 40
19.0
 40
19.0
 40
20.0
 40
20.0
 40
20.0
 40
21.0
 40
21.0
 40
21.0
 40
22.0
 40
22.0
 40
22.0
 40
23.0
 40
23.0
 40
23.0
 40
24.0
 40
24.0
 40
24.0
 40
24.0
 10
97.9857503010244
 20
-119.8686523137828
 30
0.0
 10
97.93924151197352
 20
-119.8941460203737
 30
0.0
 10
97.81418454585896
 20
-119.9068928736691
 30
0.0
 10
97.73598087834378
 20
-119.9068928736691
 30
0.0
 10
97.72323402504836
 20
-119.9068928736691
 30
0.0
 10
97.69808482800605
 20
-119.9068928736691
 30
0.0
 10
97.66397838270207
 20
-119.9027587590868
 30
0.0
 10
97.66397838270207
 20
-119.9027587590868
 30
0.0
 10
97.56682669001802
 20
-119.6764159857059
 30
0.0
 10
97.56682669001802
 20
-119.6764159857059
 30
0.0
 10
97.59645451119117
 20
-119.6826171575794
 30
0.0
 10
97.65364309624631
 20
-119.6912298962925
 30
0.0
 10
97.76974281409923
 20
-119.6912298962925
 30
0.0
 10
97.84829099116293
 20
-119.6912298962925
 30
0.0
 10
97.85035804845408
 20
-119.6488552218239
 30
0.0
 10
97.85035804845408
 20
-119.5916666367687
 30
0.0
 10
97.85035804845408
 20
-119.5916666367687
 30
0.0
 10
97.85035804845408
 20
-119.2426784641129
 30
0.0
 10
97.85035804845408
 20
-119.2426784641129
 30
0.0
 10
97.85035804845408
 20
-119.2426784641129
 30
0.0
 10
97.39112682027027
 20
-119.2426784641129
 30
0.0
 10
97.39112682027027
 20
-119.2426784641129
 30
0.0
 10
97.39319387756143
 20
-119.3801377739744
 30
0.0
 10
97.3956054444011
 20
-119.5789197834733
 30
0.0
 10
97.40180661627456
 20
-119.7122449787525
 30
0.0
 10
97.4038736735657
 20
-119.7398057426345
 30
0.0
 10
97.4038736735657
 20
-119.7842474743942
 30
0.0
 10
97.41662052686112
 20
-119.8455701740317
 30
0.0
 10
97.41662052686112
 20
-119.8455701740317
 30
0.0
 10
97.17546384289363
 20
-119.8455701740317
 30
0.0
 10
97.17546384289363
 20
-119.8455701740317
 30
0.0
 10
97.20095754948449
 20
-119.7208577174656
 30
0.0
 10
97.20095754948449
 20
-119.3801377739744
 30
0.0
 10
97.20095754948449
 20
-119.2426784641129
 30
0.0
 10
97.20095754948449
 20
-119.2426784641129
 30
0.0
 10
96.75860728917841
 20
-119.2426784641129
 30
0.0
 10
96.75860728917841
 20
-119.2426784641129
 30
0.0
 10
96.73552514942723
 20
-119.450073212325
 30
0.0
 10
96.66972382565896
 20
-119.718446150626
 30
0.0
 10
96.47300887345119
 20
-119.9027587590868
 30
0.0
 10
96.47300887345119
 20
-119.9027587590868
 30
0.0
 10
96.28490665995656
 20
-119.7801133598119
 30
0.0
 10
96.28490665995656
 20
-119.7801133598119
 30
0.0
 10
96.53881019721946
 20
-119.5599717583045
 30
0.0
 10
96.57050507568377
 20
-119.2278645535264
 30
0.0
 10
96.57050507568377
 20
-118.8957573487483
 30
0.0
 10
96.57050507568377
 20
-118.8957573487483
 30
0.0
 10
96.57050507568377
 20
-118.4599527698642
 30
0.0
 10
96.57050507568377
 20
-118.4599527698642
 30
0.0
 10
96.57050507568377
 20
-118.4237792672691
 30
0.0
 10
96.56843801839261
 20
-118.1912353220147
 30
0.0
 10
96.55982527967949
 20
-118.0896050051998
 30
0.0
 10
96.69935164683211
 20
-118.1002848012041
 30
0.0
 10
96.9405083307996
 20
-118.1002848012041
 30
0.0
 10
97.08451332208304
 20
-118.1002848012041
 30
0.0
 10
97.08451332208304
 20
-118.1002848012041
 30
0.0
 10
97.54340004071832
 20
-118.1002848012041
 30
0.0
 10
97.54340004071832
 20
-118.1002848012041
 30
0.0
 10
97.5582139513049
 20
-118.1002848012041
 30
0.0
 10
97.90754663350923
 20
-118.1002848012041
 30
0.0
 10
98.06602102583072
 20
-118.0896050051998
 30
0.0
 10
98.06395396853956
 20
-118.1426594756727
 30
0.0
 10
98.05775279666612
 20
-118.3032009252853
 30
0.0
 10
98.05775279666612
 20
-118.354188338467
 30
0.0
 10
98.05775279666612
 20
-118.354188338467
 30
0.0
 10
98.05775279666612
 20
-118.961214162968
 30
0.0
 10
98.05775279666612
 20
-118.961214162968
 30
0.0
 10
98.05775279666612
 20
-118.9801621881369
 30
0.0
 10
98.06808808312186
 20
-119.5513590195913
 30
0.0
 10
98.06808808312186
 20
-119.6636691324105
 30
0.0
 10
98.06808808312186
 20
-119.7208577174656
 30
0.0
 10
98.06808808312186
 20
-119.822143524732
 30
0.0
 10
97.9857503010244
 20
-119.8686523137828
 30
0.0
  0
POLYLINE
  5
62
330
4E
100
AcDbEntity
  8
_U+30EC_U+30A4_U+30E4_U+30FC 1
370
     0
100
AcDb2dPolyline
 66
     1
 10
0.0
 20
0.0
 30
0.0
  0
VERTEX
  5
63
330
62
100
AcDbEntity
  8
_U+30EC_U+30A4_U+30E4_U+30FC 1
370
     0
100
AcDbVertex
100
AcDb2dVertex
 10
97.20095754948449
 20
-118.2821858428253
 30
0.0
  0
VERTEX
  5
64
330
62
100
AcDbEntity
  8
_U+30EC_U+30A4_U+30E4_U+30FC 1
370
     0
100
AcDbVertex
100
AcDb2dVertex
 10
96.76274140376071
 20
-118.2821858428253
 30
0.0
  0
VERTEX
  5
65
330
62
100
AcDbEntity
  8
_U+30EC_U+30A4_U+30E4_U+30FC 1
370
     0
100
AcDbVertex
100
AcDb2dVertex
 10
96.76274140376071
 20
-118.5867322837214
 30
0.0
  0
VERTEX
  5
66
330
62
100
AcDbEntity
  8
_U+30EC_U+30A4_U+30E4_U+30FC 1
370
     0
100
AcDbVertex
100
AcDb2dVertex
 10
97.20095754948449
 20
-118.5867322837214
 30
0.0
  0
VERTEX
  5
67
330
62
100
AcDbEntity
  8
_U+30EC_U+30A4_U+30E4_U+30FC 1
370
     0
100
AcDbVertex
100
AcDb2dVertex
 10
97.20095754948449
 20
-118.2821858428253
 30
0.0
  0
SEQEND
  5
68
330
62
100
AcDbEntity
  8
_U+30EC_U+30A4_U+30E4_U+30FC 1
370
     0
  0
POLYLINE
  5
69
330
4E
100
AcDbEntity
  8
_U+30EC_U+30A4_U+30E4_U+30FC 1
370
     0
100
AcDb2dPolyline
 66
     1
 10
0.0
 20
0.0
 30
0.0
  0
VERTEX
  5
6A
330
69
100
AcDbEntity
  8
_U+30EC_U+30A4_U+30E4_U+30FC 1
370
     0
100
AcDbVertex
100
AcDb2dVertex
 10
97.20095754948449
 20
-118.753819414756
 30
0.0
  0
VERTEX
  5
6B
330
69
100
AcDbEntity
  8
_U+30EC_U+30A4_U+30E4_U+30FC 1
370
     0
100
AcDbVertex
100
AcDb2dVertex
 10
96.76274140376071
 20
-118.753819414756
 30
0.0
  0
VERTEX
  5
6C
330
69
100
AcDbEntity
  8
_U+30EC_U+30A4_U+30E4_U+30FC 1
370
     0
100
AcDbVertex
100
AcDb2dVertex
 10
96.76274140376071
 20
-119.0628444797829
 30
0.0
  0
VERTEX
  5
6D
330
69
100
AcDbEntity
  8
_U+30EC_U+30A4_U+30E4_U+30FC 1
370
     0
100
AcDbVertex
100
AcDb2dVertex
 10
97.20095754948449
 20
-119.0628444797829
 30
0.0
  0
VERTEX
  5
6E
330
69
100
AcDbEntity
  8
_U+30EC_U+30A4_U+30E4_U+30FC 1
370
     0
100
AcDbVertex
100
AcDb2dVertex
 10
97.20095754948449
 20
-118.753819414756
 30
0.0
  0
SEQEND
  5
6F
330
69
100
AcDbEntity
  8
_U+30EC_U+30A4_U+30E4_U+30FC 1
370
     0
  0
POLYLINE
  5
70
330
4E
100
AcDbEntity
  8
_U+30EC_U+30A4_U+30E4_U+30FC 1
370
     0
100
AcDb2dPolyline
 66
     1
 10
0.0
 20
0.0
 30
0.0
  0
VERTEX
  5
71
330
70
100
AcDbEntity
  8
_U+30EC_U+30A4_U+30E4_U+30FC 1
370
     0
100
AcDbVertex
100
AcDb2dVertex
 10
97.85035804845408
 20
-118.2821858428253
 30
0.0
  0
VERTEX
  5
72
330
70
100
AcDbEntity
  8
_U+30EC_U+30A4_U+30E4_U+30FC 1
370
     0
100
AcDbVertex
100
AcDb2dVertex
 10
97.39112682027027
 20
-118.2821858428253
 30
0.0
  0
VERTEX
  5
73
330
70
100
AcDbEntity
  8
_U+30EC_U+30A4_U+30E4_U+30FC 1
370
     0
100
AcDbVertex
100
AcDb2dVertex
 10
97.39112682027027
 20
-118.5867322837214
 30
0.0
  0
VERTEX
  5
74
330
70
100
AcDbEntity
  8
_U+30EC_U+30A4_U+30E4_U+30FC 1
370
     0
100
AcDbVertex
100
AcDb2dVertex
 10
97.85035804845408
 20
-118.5867322837214
 30
0.0
  0
VERTEX
  5
75
330
70
100
AcDbEntity
  8
_U+30EC_U+30A4_U+30E4_U+30FC 1
370
     0
100
AcDbVertex
100
AcDb2dVertex
 10
97.85035804845408
 20
-118.2821858428253
 30
0.0
  0
SEQEND
  5
76
330
70
100
AcDbEntity
  8
_U+30EC_U+30A4_U+30E4_U+30FC 1
370
     0
  0
POLYLINE
  5
77
330
4E
100
AcDbEntity
  8
_U+30EC_U+30A4_U+30E4_U+30FC 1
370
     0
100
AcDb2dPolyline
 66
     1
 10
0.0
 20
0.0
 30
0.0
  0
VERTEX
  5
78
330
77
100
AcDbEntity
  8
_U+30EC_U+30A4_U+30E4_U+30FC 1
370
     0
100
AcDbVertex
100
AcDb2dVertex
 10
97.85035804845408
 20
-118.753819414756
 30
0.0
  0
VERTEX
  5
79
330
77
100
AcDbEntity
  8
_U+30EC_U+30A4_U+30E4_U+30FC 1
370
     0
100
AcDbVertex
100
AcDb2dVertex
 10
97.39112682027027
 20
-118.753819414756
 30
0.0
  0
VERTEX
  5
7A
330
77
100
AcDbEntity
  8
_U+30EC_U+30A4_U+30E4_U+30FC 1
370
     0
100
AcDbVertex
100
AcDb2dVertex
 10
97.39112682027027
 20
-119.0628444797829
 30
0.0
  0
VERTEX
  5
7B
330
77
100
AcDbEntity
  8
_U+30EC_U+30A4_U+30E4_U+30FC 1
370
     0
100
AcDbVertex
100
AcDb2dVertex
 10
97.85035804845408
 20
-119.0628444797829
 30
0.0
  0
VERTEX
  5
7C
330
77
100
AcDbEntity
  8
_U+30EC_U+30A4_U+30E4_U+30FC 1
370
     0
100
AcDbVertex
100
AcDb2dVertex
 10
97.85035804845408
 20
-118.753819414756
 30
0.0
  0
SEQEND
  5
7D
330
77
100
AcDbEntity
  8
_U+30EC_U+30A4_U+30E4_U+30FC 1
370
     0
  0
HATCH
  5
7E
330
4E
100
AcDbEntity
  8
_U+30EC_U+30A4_U+30E4_U+30FC 1
 62
   179
420
  2234388
100
AcDbHatch
 10
0.0
 20
0.0
 30
0.0
210
0.0
220
0.0
230
1.0
  2
SOLID
 70
     1
 71
     0
 91
        5
 92
        1
 93
        1
 72
     4
 94
        3
 73
     0
 74
     1
 95
       77
 96
       73
 40
0.0
 40
0.0
 40
0.0
 40
0.0
 40
1.0
 40
1.0
 40
1.0
 40
2.0
 40
2.0
 40
2.0
 40
3.0
 40
3.0
 40
3.0
 40
4.0
 40
4.0
 40
4.0
 40
5.0
 40
5.0
 40
5.0
 40
6.0
 40
6.0
 40
6.0
 40
7.0
 40
7.0
 40
7.0
 40
8.0
 40
8.0
 40
8.0
 40
9.0
 40
9.0
 40
9.0
 40
10.0
 40
10.0
 40
10.0
 40
11.0
 40
11.0
 40
11.0
 40
12.0
 40
12.0
 40
12.0
 40
13.0
 40
13.0
 40
13.0
 40
14.0
 40
14.0
 40
14.0
 40
15.0
 40
15.0
 40
15.0
 40
16.0
 40
16.0
 40
16.0
 40
17.0
 40
17.0
 40
17.0
 40
18.0
 40
18.0
 40
18.0
 40
19.0
 40
19.0
 40
19.0
 40
20.0
 40
20.0
 40
20.0
 40
21.0
 40
21.0
 40
21.0
 40
22.0
 40
22.0
 40
22.0
 40
23.0
 40
23.0
 40
23.0
 40
24.0
 40
24.0
 40
24.0
 40
24.0
 10
97.9857503010244
 20
-119.8686523137828
 10
97.93924151197352
 20
-119.8941460203737
 10
97.81418454585896
 20
-119.9068928736691
 10
97.73598087834378
 20
-119.9068928736691
 10
97.72323402504836
 20
-119.9068928736691
 10
97.69808482800605
 20
-119.9068928736691
 10
97.66397838270207
 20
-119.9027587590868
 10
97.66397838270207
 20
-119.9027587590868
 10
97.56682669001802
 20
-119.6764159857059
 10
97.56682669001802
 20
-119.6764159857059
 10
97.59645451119117
 20
-119.6826171575794
 10
97.65364309624631
 20
-119.6912298962925
 10
97.76974281409923
 20
-119.6912298962925
 10
97.84829099116293
 20
-119.6912298962925
 10
97.85035804845408
 20
-119.6488552218239
 10
97.85035804845408
 20
-119.5916666367687
 10
97.85035804845408
 20
-119.5916666367687
 10
97.85035804845408
 20
-119.2426784641129
 10
97.85035804845408
 20
-119.2426784641129
 10
97.85035804845408
 20
-119.2426784641129
 10
97.39112682027027
 20
-119.2426784641129
 10
97.39112682027027
 20
-119.2426784641129
 10
97.39319387756143
 20
-119.3801377739744
 10
97.3956054444011
 20
-119.5789197834733
 10
97.40180661627456
 20
-119.7122449787525
 10
97.4038736735657
 20
-119.7398057426345
 10
97.4038736735657
 20
-119.7842474743942
 10
97.41662052686112
 20
-119.8455701740317
 10
97.41662052686112
 20
-119.8455701740317
 10
97.17546384289363
 20
-119.8455701740317
 10
97.17546384289363
 20
-119.8455701740317
 10
97.20095754948449
 20
-119.7208577174656
 10
97.20095754948449
 20
-119.3801377739744
 10
97.20095754948449
 20
-119.2426784641129
 10
97.20095754948449
 20
-119.2426784641129
 10
96.75860728917841
 20
-119.2426784641129
 10
96.75860728917841
 20
-119.2426784641129
 10
96.73552514942723
 20
-119.450073212325
 10
96.66972382565896
 20
-119.718446150626
 10
96.47300887345119
 20
-119.9027587590868
 10
96.47300887345119
 20
-119.9027587590868
 10
96.28490665995656
 20
-119.7801133598119
 10
96.28490665995656
 20
-119.7801133598119
 10
96.53881019721946
 20
-119.5599717583045
 10
96.57050507568377
 20
-119.2278645535264
 10
96.57050507568377
 20
-118.8957573487483
 10
96.57050507568377
 20
-118.8957573487483
 10
96.57050507568377
 20
-118.4599527698642
 10
96.57050507568377
 20
-118.4599527698642
 10
96.57050507568377
 20
-118.4237792672691
 10
96.56843801839261
 20
-118.1912353220147
 10
96.55982527967949
 20
-118.0896050051998
 10
96.69935164683211
 20
-118.1002848012041
 10
96.9405083307996
 20
-118.1002848012041
 10
97.08451332208304
 20
-118.1002848012041
 10
97.08451332208304
 20
-118.1002848012041
 10
97.54340004071832
 20
-118.1002848012041
 10
97.54340004071832
 20
-118.1002848012041
 10
97.5582139513049
 20
-118.1002848012041
 10
97.90754663350923
 20
-118.1002848012041
 10
98.06602102583072
 20
-118.0896050051998
 10
98.06395396853956
 20
-118.1426594756727
 10
98.05775279666612
 20
-118.3032009252853
 10
98.05775279666612
 20
-118.354188338467
 10
98.05775279666612
 20
-118.354188338467
 10
98.05775279666612
 20
-118.961214162968
 10
98.05775279666612
 20
-118.961214162968
 10
98.05775279666612
 20
-118.9801621881369
 10
98.06808808312186
 20
-119.5513590195913
 10
98.06808808312186
 20
-119.6636691324105
 10
98.06808808312186
 20
-119.7208577174656
 10
98.06808808312186
 20
-119.822143524732
 10
97.9857503010244
 20
-119.8686523137828
 97
        0
 97
        0
 92
        1
 93
        4
 72
     1
 10
97.20095754948449
 20
-118.2821858428253
 11
96.76274140376071
 21
-118.2821858428253
 72
     1
 10
96.76274140376071
 20
-118.2821858428253
 11
96.76274140376071
 21
-118.5867322837214
 72
     1
 10
96.76274140376071
 20
-118.5867322837214
 11
97.20095754948449
 21
-118.5867322837214
 72
     1
 10
97.20095754948449
 20
-118.5867322837214
 11
97.20095754948449
 21
-118.2821858428253
 97
        0
 92
        1
 93
        4
 72
     1
 10
97.20095754948449
 20
-118.753819414756
 11
96.76274140376071
 21
-118.753819414756
 72
     1
 10
96.76274140376071
 20
-118.753819414756
 11
96.76274140376071
 21
-119.0628444797829
 72
     1
 10
96.76274140376071
 20
-119.0628444797829
 11
97.20095754948449
 21
-119.0628444797829
 72
     1
 10
97.20095754948449
 20
-119.0628444797829
 11
97.20095754948449
 21
-118.753819414756
 97
        0
 92
        1
 93
        4
 72
     1
 10
97.85035804845408
 20
-118.2821858428253
 11
97.39112682027027
 21
-118.2821858428253
 72
     1
 10
97.39112682027027
 20
-118.2821858428253
 11
97.39112682027027
 21
-118.5867322837214
 72
     1
 10
97.39112682027027
 20
-118.5867322837214
 11
97.85035804845408
 21
-118.5867322837214
 72
     1
 10
97.85035804845408
 20
-118.5867322837214
 11
97.85035804845408
 21
-118.2821858428253
 97
        0
 92
        1
 93
        4
 72
     1
 10
97.85035804845408
 20
-118.753819414756
 11
97.39112682027027
 21
-118.753819414756
 72
     1
 10
97.39112682027027
 20
-118.753819414756
 11
97.39112682027027
 21
-119.0628444797829
 72
     1
 10
97.39112682027027
 20
-119.0628444797829
 11
97.85035804845408
 21
-119.0628444797829
 72
     1
 10
97.85035804845408
 20
-119.0628444797829
 11
97.85035804845408
 21
-118.753819414756
 97
        0
 75
     2
 76
     1
 98
        0
  0
SPLINE
  5
7F
330
4E
100
AcDbEntity
  8
_U+30EC_U+30A4_U+30E4_U+30FC 1
370
     0
100
AcDbSpline
210
0.0
220
0.0
230
1.0
 70
    11
 71
     3
 72
    44
 73
    40
 74
     0
 42
0.0000000001
 43
0.0000000001
 12
1.0
 22
0.0
 32
0.0
 13
1.0
 23
0.0
 33
0.0
 40
0.0
 40
0.0
 40
0.0
 40
0.0
 40
1.0
 40
1.0
 40
1.0
 40
2.0
 40
2.0
 40
2.0
 40
3.0
 40
3.0
 40
3.0
 40
4.0
 40
4.0
 40
4.0
 40
5.0
 40
5.0
 40
5.0
 40
6.0
 40
6.0
 40
6.0
 40
7.0
 40
7.0
 40
7.0
 40
8.0
 40
8.0
 40
8.0
 40
9.0
 40
9.0
 40
9.0
 40
10.0
 40
10.0
 40
10.0
 40
11.0
 40
11.0
 40
11.0
 40
12.0
 40
12.0
 40
12.0
 40
13.0
 40
13.0
 40
13.0
 40
13.0
 10
99.86332734048557
 20
-118.6184271621857
 30
0.0
 10
99.75101722766642
 20
-118.9867078695589
 30
0.0
 10
99.70037432403325
 20
-119.1451822618804
 30
0.0
 10
99.50365937182548
 20
-119.394951684561
 30
0.0
 10
99.31969127291313
 20
-119.6254285725242
 30
0.0
 10
99.08266870352794
 20
-119.8118082382762
 30
0.0
 10
98.80327145967419
 20
-119.904825816378
 30
0.0
 10
98.80327145967419
 20
-119.904825816378
 30
0.0
 10
98.61069062204872
 20
-119.7249918320479
 30
0.0
 10
98.61069062204872
 20
-119.7249918320479
 30
0.0
 10
99.25182289185372
 20
-119.5727186115999
 30
0.0
 10
99.58186303934065
 20
-119.016335690732
 30
0.0
 10
99.64525279626925
 20
-118.5763969972656
 30
0.0
 10
99.64525279626925
 20
-118.5763969972656
 30
0.0
 10
98.8794080698982
 20
-118.5763969972656
 30
0.0
 10
98.8794080698982
 20
-118.5763969972656
 30
0.0
 10
98.78639049179647
 20
-118.5763969972656
 30
0.0
 10
98.60242239288412
 20
-118.5805311118479
 30
0.0
 10
98.44567054830526
 20
-118.5994791370168
 30
0.0
 10
98.44567054830526
 20
-118.5994791370168
 30
0.0
 10
98.44567054830526
 20
-118.3793375355093
 30
0.0
 10
98.44567054830526
 20
-118.3793375355093
 30
0.0
 10
98.53248695453355
 20
-118.4006971275179
 30
0.0
 10
98.78432343450531
 20
-118.4006971275179
 30
0.0
 10
98.88388669402903
 20
-118.4006971275179
 30
0.0
 10
98.88388669402903
 20
-118.4006971275179
 30
0.0
 10
99.3152126487823
 20
-118.4006971275179
 30
0.0
 10
99.3152126487823
 20
-118.4006971275179
 30
0.0
 10
99.35758732325088
 20
-118.4006971275179
 30
0.0
 10
99.59254283534493
 20
-118.3986300702267
 30
0.0
 10
99.63043888568268
 20
-118.3920843888048
 30
0.0
 10
99.67281356015124
 20
-118.3858832169313
 30
0.0
 10
99.6748806174424
 20
-118.3838161596402
 30
0.0
 10
99.73620331707984
 20
-118.3435085424627
 30
0.0
 10
99.73620331707984
 20
-118.3435085424627
 30
0.0
 10
99.92465004012301
 20
-118.4978488202019
 30
0.0
 10
99.92465004012301
 20
-118.4978488202019
 30
0.0
 10
99.89502221894986
 20
-118.5274766413751
 30
0.0
 10
99.88020830836328
 20
-118.5591715198394
 30
0.0
 10
99.86332734048557
 20
-118.6184271621857
 30
0.0
  0
SPLINE
  5
80
330
4E
100
AcDbEntity
  8
_U+30EC_U+30A4_U+30E4_U+30FC 1
370
     0
100
AcDbSpline
210
0.0
220
0.0
230
1.0
 70
    11
 71
     3
 72
    17
 73
    13
 74
     0
 42
0.0000000001
 43
0.0000000001
 12
1.0
 22
0.0
 32
0.0
 13
1.0
 23
0.0
 33
0.0
 40
0.0
 40
0.0
 40
0.0
 40
0.0
 40
1.0
 40
1.0
 40
1.0
 40
2.0
 40
2.0
 40
2.0
 40
3.0
 40
3.0
 40
3.0
 40
4.0
 40
4.0
 40
4.0
 40
4.0
 10
100.0727891459888
 20
-118.4196451526868
 30
0.0
 10
99.94566512258304
 20
-118.4196451526868
 30
0.0
 10
99.84403480576816
 20
-118.3180148358719
 30
0.0
 10
99.84403480576816
 20
-118.1912353220147
 30
0.0
 10
99.84403480576816
 20
-118.0644558081575
 30
0.0
 10
99.94566512258304
 20
-117.9607584340515
 30
0.0
 10
100.0727891459888
 20
-117.9607584340515
 30
0.0
 10
100.199568659846
 20
-117.9607584340515
 30
0.0
 10
100.303266033952
 20
-118.0644558081575
 30
0.0
 10
100.303266033952
 20
-118.1912353220147
 30
0.0
 10
100.303266033952
 20
-118.3180148358719
 30
0.0
 10
100.199568659846
 20
-118.4196451526868
 30
0.0
 10
100.0727891459888
 20
-118.4196451526868
 30
0.0
  0
SPLINE
  5
81
330
4E
100
AcDbEntity
  8
_U+30EC_U+30A4_U+30E4_U+30FC 1
370
     0
100
AcDbSpline
210
0.0
220
0.0
230
1.0
 70
    11
 71
     3
 72
    17
 73
    13
 74
     0
 42
0.0000000001
 43
0.0000000001
 12
1.0
 22
0.0
 32
0.0
 13
1.0
 23
0.0
 33
0.0
 40
0.0
 40
0.0
 40
0.0
 40
0.0
 40
1.0
 40
1.0
 40
1.0
 40
2.0
 40
2.0
 40
2.0
 40
3.0
 40
3.0
 40
3.0
 40
4.0
 40
4.0
 40
4.0
 40
4.0
 10
100.0703775791491
 20
-118.0896050051998
 30
0.0
 10
100.0156005609336
 20
-118.0896050051998
 30
0.0
 10
99.97115882917389
 20
-118.1340467369595
 30
0.0
 10
99.97115882917389
 20
-118.1891682647235
 30
0.0
 10
99.97115882917389
 20
-118.2463568497787
 30
0.0
 10
100.0156005609336
 20
-118.2949326961207
 30
0.0
 10
100.0748562032799
 20
-118.2949326961207
 30
0.0
 10
100.1341118456262
 20
-118.2949326961207
 30
0.0
 10
100.1740749532551
 20
-118.243945282939
 30
0.0
 10
100.1740749532551
 20
-118.1912353220147
 30
0.0
 10
100.1740749532551
 20
-118.1340467369595
 30
0.0
 10
100.1275661642042
 20
-118.0896050051998
 30
0.0
 10
100.0703775791491
 20
-118.0896050051998
 30
0.0
  0
HATCH
  5
82
330
4E
100
AcDbEntity
  8
_U+30EC_U+30A4_U+30E4_U+30FC 1
 62
   179
420
  2234388
100
AcDbHatch
 10
0.0
 20
0.0
 30
0.0
210
0.0
220
0.0
230
1.0
  2
SOLID
 70
     1
 71
     0
 91
        3
 92
        1
 93
        1
 72
     4
 94
        3
 73
     0
 74
     1
 95
       44
 96
       40
 40
0.0
 40
0.0
 40
0.0
 40
0.0
 40
1.0
 40
1.0
 40
1.0
 40
2.0
 40
2.0
 40
2.0
 40
3.0
 40
3.0
 40
3.0
 40
4.0
 40
4.0
 40
4.0
 40
5.0
 40
5.0
 40
5.0
 40
6.0
 40
6.0
 40
6.0
 40
7.0
 40
7.0
 40
7.0
 40
8.0
 40
8.0
 40
8.0
 40
9.0
 40
9.0
 40
9.0
 40
10.0
 40
10.0
 40
10.0
 40
11.0
 40
11.0
 40
11.0
 40
12.0
 40
12.0
 40
12.0
 40
13.0
 40
13.0
 40
13.0
 40
13.0
 10
99.86332734048557
 20
-118.6184271621857
 10
99.75101722766642
 20
-118.9867078695589
 10
99.70037432403325
 20
-119.1451822618804
 10
99.50365937182548
 20
-119.394951684561
 10
99.31969127291313
 20
-119.6254285725242
 10
99.08266870352794
 20
-119.8118082382762
 10
98.80327145967419
 20
-119.904825816378
 10
98.80327145967419
 20
-119.904825816378
 10
98.61069062204872
 20
-119.7249918320479
 10
98.61069062204872
 20
-119.7249918320479
 10
99.25182289185372
 20
-119.5727186115999
 10
99.58186303934065
 20
-119.016335690732
 10
99.64525279626925
 20
-118.5763969972656
 10
99.64525279626925
 20
-118.5763969972656
 10
98.8794080698982
 20
-118.5763969972656
 10
98.8794080698982
 20
-118.5763969972656
 10
98.78639049179647
 20
-118.5763969972656
 10
98.60242239288412
 20
-118.5805311118479
 10
98.44567054830526
 20
-118.5994791370168
 10
98.44567054830526
 20
-118.5994791370168
 10
98.44567054830526
 20
-118.3793375355093
 10
98.44567054830526
 20
-118.3793375355093
 10
98.53248695453355
 20
-118.4006971275179
 10
98.78432343450531
 20
-118.4006971275179
 10
98.88388669402903
 20
-118.4006971275179
 10
98.88388669402903
 20
-118.4006971275179
 10
99.3152126487823
 20
-118.4006971275179
 10
99.3152126487823
 20
-118.4006971275179
 10
99.35758732325088
 20
-118.4006971275179
 10
99.59254283534493
 20
-118.3986300702267
 10
99.63043888568268
 20
-118.3920843888048
 10
99.67281356015124
 20
-118.3858832169313
 10
99.6748806174424
 20
-118.3838161596402
 10
99.73620331707984
 20
-118.3435085424627
 10
99.73620331707984
 20
-118.3435085424627
 10
99.92465004012301
 20
-118.4978488202019
 10
99.92465004012301
 20
-118.4978488202019
 10
99.89502221894986
 20
-118.5274766413751
 10
99.88020830836328
 20
-118.5591715198394
 10
99.86332734048557
 20
-118.6184271621857
 97
        0
 97
        0
 92
        1
 93
        1
 72
     4
 94
        3
 73
     0
 74
     1
 95
       17
 96
       13
 40
0.0
 40
0.0
 40
0.0
 40
0.0
 40
1.0
 40
1.0
 40
1.0
 40
2.0
 40
2.0
 40
2.0
 40
3.0
 40
3.0
 40
3.0
 40
4.0
 40
4.0
 40
4.0
 40
4.0
 10
100.0727891459888
 20
-118.4196451526868
 10
99.94566512258304
 20
-118.4196451526868
 10
99.84403480576816
 20
-118.3180148358719
 10
99.84403480576816
 20
-118.1912353220147
 10
99.84403480576816
 20
-118.0644558081575
 10
99.94566512258304
 20
-117.9607584340515
 10
100.0727891459888
 20
-117.9607584340515
 10
100.199568659846
 20
-117.9607584340515
 10
100.303266033952
 20
-118.0644558081575
 10
100.303266033952
 20
-118.1912353220147
 10
100.303266033952
 20
-118.3180148358719
 10
100.199568659846
 20
-118.4196451526868
 10
100.0727891459888
 20
-118.4196451526868
 97
        0
 97
        0
 92
        1
 93
        1
 72
     4
 94
        3
 73
     0
 74
     1
 95
       17
 96
       13
 40
0.0
 40
0.0
 40
0.0
 40
0.0
 40
1.0
 40
1.0
 40
1.0
 40
2.0
 40
2.0
 40
2.0
 40
3.0
 40
3.0
 40
3.0
 40
4.0
 40
4.0
 40
4.0
 40
4.0
 10
100.0703775791491
 20
-118.0896050051998
 10
100.0156005609336
 20
-118.0896050051998
 10
99.97115882917389
 20
-118.1340467369595
 10
99.97115882917389
 20
-118.1891682647235
 10
99.97115882917389
 20
-118.2463568497787
 10
100.0156005609336
 20
-118.2949326961207
 10
100.0748562032799
 20
-118.2949326961207
 10
100.1341118456262
 20
-118.2949326961207
 10
100.1740749532551
 20
-118.243945282939
 10
100.1740749532551
 20
-118.1912353220147
 10
100.1740749532551
 20
-118.1340467369595
 10
100.1275661642042
 20
-118.0896050051998
 10
100.0703775791491
 20
-118.0896050051998
 97
        0
 97
        0
 75
     2
 76
     1
 98
        0
  0
SPLINE
  5
83
330
4E
100
AcDbEntity
  8
_U+30EC_U+30A4_U+30E4_U+30FC 1
370
     0
100
AcDbSpline
210
0.0
220
0.0
230
1.0
 70
    11
 71
     3
 72
    50
 73
    46
 74
     0
 42
0.0000000001
 43
0.0000000001
 12
1.0
 22
0.0
 32
0.0
 13
1.0
 23
0.0
 33
0.0
 40
0.0
 40
0.0
 40
0.0
 40
0.0
 40
1.0
 40
1.0
 40
1.0
 40
2.0
 40
2.0
 40
2.0
 40
3.0
 40
3.0
 40
3.0
 40
4.0
 40
4.0
 40
4.0
 40
5.0
 40
5.0
 40
5.0
 40
6.0
 40
6.0
 40
6.0
 40
7.0
 40
7.0
 40
7.0
 40
8.0
 40
8.0
 40
8.0
 40
9.0
 40
9.0
 40
9.0
 40
10.0
 40
10.0
 40
10.0
 40
11.0
 40
11.0
 40
11.0
 40
12.0
 40
12.0
 40
12.0
 40
13.0
 40
13.0
 40
13.0
 40
14.0
 40
14.0
 40
14.0
 40
15.0
 40
15.0
 40
15.0
 40
15.0
 10
101.8676838938039
 20
-118.9274522272126
 30
0.0
 10
101.7891357167402
 20
-119.1052191542515
 30
0.0
 10
101.6537434641699
 20
-119.312269392915
 30
0.0
 10
101.5162841543084
 20
-119.4521402696161
 30
0.0
 10
101.3471299659827
 20
-119.6233615152331
 30
0.0
 10
101.1841769495304
 20
-119.7122449787525
 30
0.0
 10
100.8648165980477
 20
-119.8538384031963
 30
0.0
 10
100.8648165980477
 20
-119.8538384031963
 30
0.0
 10
100.6956624097219
 20
-119.6657361897016
 30
0.0
 10
100.6956624097219
 20
-119.6657361897016
 30
0.0
 10
100.8816975659254
 20
-119.6423095404019
 30
0.0
 10
101.0529188115423
 20
-119.5558376437222
 30
0.0
 10
101.2055365415389
 20
-119.450073212325
 30
0.0
 10
101.4677083079664
 20
-119.2681721707038
 30
0.0
 10
101.6582220883007
 20
-118.9550129910946
 30
0.0
 10
101.7067979346428
 20
-118.7731119494734
 30
0.0
 10
101.7067979346428
 20
-118.7731119494734
 30
0.0
 10
101.0360378436646
 20
-118.7731119494734
 30
0.0
 10
101.0360378436646
 20
-118.7731119494734
 30
0.0
 10
100.8775634513431
 20
-118.7731119494734
 30
0.0
 10
100.5854193541939
 20
-118.781380178638
 30
0.0
 10
100.4331461337459
 20
-118.7982611465157
 30
0.0
 10
100.4331461337459
 20
-118.7982611465157
 30
0.0
 10
100.4331461337459
 20
-118.5698513158436
 30
0.0
 10
100.4331461337459
 20
-118.5698513158436
 30
0.0
 10
100.4672525790499
 20
-118.5763969972656
 30
0.0
 10
100.4924017760922
 20
-118.5825981691391
 30
0.0
 10
100.545456246565
 20
-118.5867322837214
 30
0.0
 10
100.6467420538314
 20
-118.5932779651434
 30
0.0
 10
100.8438015155877
 20
-118.5953450224345
 30
0.0
 10
100.9282063549763
 20
-118.5953450224345
 30
0.0
 10
100.9282063549763
 20
-118.5953450224345
 30
0.0
 10
101.433946372211
 20
-118.5953450224345
 30
0.0
 10
101.433946372211
 20
-118.5953450224345
 30
0.0
 10
101.5014702437219
 20
-118.5953450224345
 30
0.0
 10
101.6475422922964
 20
-118.5912109078522
 30
0.0
 10
101.7088649919339
 20
-118.5846652264302
 30
0.0
 10
101.7808674875756
 20
-118.5763969972656
 30
0.0
 10
101.8084282514576
 20
-118.5615830866791
 30
0.0
 10
101.8421901872131
 20
-118.5381564373794
 30
0.0
 10
101.8421901872131
 20
-118.5381564373794
 30
0.0
 10
102.0072102609565
 20
-118.705243568414
 30
0.0
 10
102.0072102609565
 20
-118.705243568414
 30
0.0
 10
101.937274822606
 20
-118.7731119494734
 30
0.0
 10
101.8907660335551
 20
-118.8768093235794
 30
0.0
 10
101.8676838938039
 20
-118.9274522272126
 30
0.0
  0
SPLINE
  5
84
330
4E
100
AcDbEntity
  8
_U+30EC_U+30A4_U+30E4_U+30FC 1
370
     0
100
AcDbSpline
210
0.0
220
0.0
230
1.0
 70
    11
 71
     3
 72
    29
 73
    25
 74
     0
 42
0.0000000001
 43
0.0000000001
 12
1.0
 22
0.0
 32
0.0
 13
1.0
 23
0.0
 33
0.0
 40
0.0
 40
0.0
 40
0.0
 40
0.0
 40
1.0
 40
1.0
 40
1.0
 40
2.0
 40
2.0
 40
2.0
 40
3.0
 40
3.0
 40
3.0
 40
4.0
 40
4.0
 40
4.0
 40
5.0
 40
5.0
 40
5.0
 40
6.0
 40
6.0
 40
6.0
 40
7.0
 40
7.0
 40
7.0
 40
8.0
 40
8.0
 40
8.0
 40
8.0
 10
101.3746907298647
 20
-118.3011338679942
 30
0.0
 10
101.3746907298647
 20
-118.3011338679942
 30
0.0
 10
101.0339707863735
 20
-118.3011338679942
 30
0.0
 10
101.0339707863735
 20
-118.3011338679942
 30
0.0
 10
100.9199381258117
 20
-118.3011338679942
 30
0.0
 10
100.8034938984102
 20
-118.305612492125
 30
0.0
 10
100.6891167283
 20
-118.3204264027116
 30
0.0
 10
100.6891167283
 20
-118.3204264027116
 30
0.0
 10
100.6891167283
 20
-118.1109645972084
 30
0.0
 10
100.6891167283
 20
-118.1109645972084
 30
0.0
 10
100.8076280129925
 20
-118.1257785077949
 30
0.0
 10
100.9812608254491
 20
-118.1299126223772
 30
0.0
 10
101.0339707863735
 20
-118.1299126223772
 30
0.0
 10
101.0339707863735
 20
-118.1299126223772
 30
0.0
 10
101.3746907298647
 20
-118.1299126223772
 30
0.0
 10
101.3746907298647
 20
-118.1299126223772
 30
0.0
 10
101.4911349572661
 20
-118.1299126223772
 30
0.0
 10
101.607234675119
 20
-118.1257785077949
 30
0.0
 10
101.7236789025205
 20
-118.1109645972084
 30
0.0
 10
101.7236789025205
 20
-118.1109645972084
 30
0.0
 10
101.7236789025205
 20
-118.3204264027116
 30
0.0
 10
101.7236789025205
 20
-118.3204264027116
 30
0.0
 10
101.5734727393636
 20
-118.3011338679942
 30
0.0
 10
101.3895046404512
 20
-118.3011338679942
 30
0.0
 10
101.3746907298647
 20
-118.3011338679942
 30
0.0
  0
HATCH
  5
85
330
4E
100
AcDbEntity
  8
_U+30EC_U+30A4_U+30E4_U+30FC 1
 62
   179
420
  2234388
100
AcDbHatch
 10
0.0
 20
0.0
 30
0.0
210
0.0
220
0.0
230
1.0
  2
SOLID
 70
     1
 71
     0
 91
        2
 92
        1
 93
        1
 72
     4
 94
        3
 73
     0
 74
     1
 95
       50
 96
       46
 40
0.0
 40
0.0
 40
0.0
 40
0.0
 40
1.0
 40
1.0
 40
1.0
 40
2.0
 40
2.0
 40
2.0
 40
3.0
 40
3.0
 40
3.0
 40
4.0
 40
4.0
 40
4.0
 40
5.0
 40
5.0
 40
5.0
 40
6.0
 40
6.0
 40
6.0
 40
7.0
 40
7.0
 40
7.0
 40
8.0
 40
8.0
 40
8.0
 40
9.0
 40
9.0
 40
9.0
 40
10.0
 40
10.0
 40
10.0
 40
11.0
 40
11.0
 40
11.0
 40
12.0
 40
12.0
 40
12.0
 40
13.0
 40
13.0
 40
13.0
 40
14.0
 40
14.0
 40
14.0
 40
15.0
 40
15.0
 40
15.0
 40
15.0
 10
101.8676838938039
 20
-118.9274522272126
 10
101.7891357167402
 20
-119.1052191542515
 10
101.6537434641699
 20
-119.312269392915
 10
101.5162841543084
 20
-119.4521402696161
 10
101.3471299659827
 20
-119.6233615152331
 10
101.1841769495304
 20
-119.7122449787525
 10
100.8648165980477
 20
-119.8538384031963
 10
100.8648165980477
 20
-119.8538384031963
 10
100.6956624097219
 20
-119.6657361897016
 10
100.6956624097219
 20
-119.6657361897016
 10
100.8816975659254
 20
-119.6423095404019
 10
101.0529188115423
 20
-119.5558376437222
 10
101.2055365415389
 20
-119.450073212325
 10
101.4677083079664
 20
-119.2681721707038
 10
101.6582220883007
 20
-118.9550129910946
 10
101.7067979346428
 20
-118.7731119494734
 10
101.7067979346428
 20
-118.7731119494734
 10
101.0360378436646
 20
-118.7731119494734
 10
101.0360378436646
 20
-118.7731119494734
 10
100.8775634513431
 20
-118.7731119494734
 10
100.5854193541939
 20
-118.781380178638
 10
100.4331461337459
 20
-118.7982611465157
 10
100.4331461337459
 20
-118.7982611465157
 10
100.4331461337459
 20
-118.5698513158436
 10
100.4331461337459
 20
-118.5698513158436
 10
100.4672525790499
 20
-118.5763969972656
 10
100.4924017760922
 20
-118.5825981691391
 10
100.545456246565
 20
-118.5867322837214
 10
100.6467420538314
 20
-118.5932779651434
 10
100.8438015155877
 20
-118.5953450224345
 10
100.9282063549763
 20
-118.5953450224345
 10
100.9282063549763
 20
-118.5953450224345
 10
101.433946372211
 20
-118.5953450224345
 10
101.433946372211
 20
-118.5953450224345
 10
101.5014702437219
 20
-118.5953450224345
 10
101.6475422922964
 20
-118.5912109078522
 10
101.7088649919339
 20
-118.5846652264302
 10
101.7808674875756
 20
-118.5763969972656
 10
101.8084282514576
 20
-118.5615830866791
 10
101.8421901872131
 20
-118.5381564373794
 10
101.8421901872131
 20
-118.5381564373794
 10
102.0072102609565
 20
-118.705243568414
 10
102.0072102609565
 20
-118.705243568414
 10
101.937274822606
 20
-118.7731119494734
 10
101.8907660335551
 20
-118.8768093235794
 10
101.8676838938039
 20
-118.9274522272126
 97
        0
 97
        0
 92
        1
 93
        1
 72
     4
 94
        3
 73
     0
 74
     1
 95
       29
 96
       25
 40
0.0
 40
0.0
 40
0.0
 40
0.0
 40
1.0
 40
1.0
 40
1.0
 40
2.0
 40
2.0
 40
2.0
 40
3.0
 40
3.0
 40
3.0
 40
4.0
 40
4.0
 40
4.0
 40
5.0
 40
5.0
 40
5.0
 40
6.0
 40
6.0
 40
6.0
 40
7.0
 40
7.0
 40
7.0
 40
8.0
 40
8.0
 40
8.0
 40
8.0
 10
101.3746907298647
 20
-118.3011338679942
 10
101.3746907298647
 20
-118.3011338679942
 10
101.0339707863735
 20
-118.3011338679942
 10
101.0339707863735
 20
-118.3011338679942
 10
100.9199381258117
 20
-118.3011338679942
 10
100.8034938984102
 20
-118.305612492125
 10
100.6891167283
 20
-118.3204264027116
 10
100.6891167283
 20
-118.3204264027116
 10
100.6891167283
 20
-118.1109645972084
 10
100.6891167283
 20
-118.1109645972084
 10
100.8076280129925
 20
-118.1257785077949
 10
100.9812608254491
 20
-118.1299126223772
 10
101.0339707863735
 20
-118.1299126223772
 10
101.0339707863735
 20
-118.1299126223772
 10
101.3746907298647
 20
-118.1299126223772
 10
101.3746907298647
 20
-118.1299126223772
 10
101.4911349572661
 20
-118.1299126223772
 10
101.607234675119
 20
-118.1257785077949
 10
101.7236789025205
 20
-118.1109645972084
 10
101.7236789025205
 20
-118.1109645972084
 10
101.7236789025205
 20
-118.3204264027116
 10
101.7236789025205
 20
-118.3204264027116
 10
101.5734727393636
 20
-118.3011338679942
 10
101.3895046404512
 20
-118.3011338679942
 10
101.3746907298647
 20
-118.3011338679942
 97
        0
 97
        0
 75
     2
 76
     1
 98
        0
  0
SPLINE
  5
86
330
4E
100
AcDbEntity
  8
_U+30EC_U+30A4_U+30E4_U+30FC 1
370
     0
100
AcDbSpline
210
0.0
220
0.0
230
1.0
 70
    11
 71
     3
 72
    50
 73
    46
 74
     0
 42
0.0000000001
 43
0.0000000001
 12
1.0
 22
0.0
 32
0.0
 13
1.0
 23
0.0
 33
0.0
 40
0.0
 40
0.0
 40
0.0
 40
0.0
 40
1.0
 40
1.0
 40
1.0
 40
2.0
 40
2.0
 40
2.0
 40
3.0
 40
3.0
 40
3.0
 40
4.0
 40
4.0
 40
4.0
 40
5.0
 40
5.0
 40
5.0
 40
6.0
 40
6.0
 40
6.0
 40
7.0
 40
7.0
 40
7.0
 40
8.0
 40
8.0
 40
8.0
 40
9.0
 40
9.0
 40
9.0
 40
10.0
 40
10.0
 40
10.0
 40
11.0
 40
11.0
 40
11.0
 40
12.0
 40
12.0
 40
12.0
 40
13.0
 40
13.0
 40
13.0
 40
14.0
 40
14.0
 40
14.0
 40
15.0
 40
15.0
 40
15.0
 40
15.0
 10
103.5778292926819
 20
-118.2863199574076
 30
0.0
 10
103.3683674871787
 20
-118.4999158774931
 30
0.0
 10
103.2967095010855
 20
-118.5719183731348
 30
0.0
 10
103.1547715670933
 20
-118.6904296578274
 30
0.0
 10
103.1547715670933
 20
-118.6904296578274
 30
0.0
 10
103.1547715670933
 20
-119.2574923746995
 30
0.0
 10
103.1547715670933
 20
-119.2574923746995
 30
0.0
 10
103.1547715670933
 20
-119.4076985378564
 30
0.0
 10
103.1613172485152
 20
-119.4266465630253
 30
0.0
 10
103.1654513630975
 20
-119.6044134900642
 30
0.0
 10
103.1675184203887
 20
-119.7356716280522
 30
0.0
 10
103.1737195922621
 20
-119.7842474743942
 30
0.0
 10
103.1802652736841
 20
-119.8435031167405
 30
0.0
 10
103.1802652736841
 20
-119.8435031167405
 30
0.0
 10
102.9539225003032
 20
-119.8435031167405
 30
0.0
 10
102.9539225003032
 20
-119.8435031167405
 30
0.0
 10
102.9580566148855
 20
-119.7990613849808
 30
0.0
 10
102.9621907294678
 20
-119.7525525959299
 30
0.0
 10
102.9621907294678
 20
-119.7439398572168
 30
0.0
 10
102.9621907294678
 20
-119.6636691324105
 30
0.0
 10
102.9666693535986
 20
-119.312269392915
 30
0.0
 10
102.9666693535986
 20
-119.2406114068218
 30
0.0
 10
102.9666693535986
 20
-119.2406114068218
 30
0.0
 10
102.9666693535986
 20
-118.8344346491108
 30
0.0
 10
102.9666693535986
 20
-118.8344346491108
 30
0.0
 10
102.7847683119774
 20
-118.9591471056769
 30
0.0
 10
102.5901204170608
 20
-119.0690456516564
 30
0.0
 10
102.3868597834311
 20
-119.1558620578846
 30
0.0
 10
102.3868597834311
 20
-119.1558620578846
 30
0.0
 10
102.1839436593499
 20
-118.9929090414323
 30
0.0
 10
102.1839436593499
 20
-118.9929090414323
 30
0.0
 10
102.3065890586248
 20
-118.9570800483857
 30
0.0
 10
102.5625596531788
 20
-118.8830104954529
 30
0.0
 10
102.9074137112523
 20
-118.6270399008988
 30
0.0
 10
103.123076688629
 20
-118.4682209990288
 30
0.0
 10
103.3156575262544
 20
-118.2801187855341
 30
0.0
 10
103.4679307467025
 20
-118.0599771840267
 30
0.0
 10
103.4679307467025
 20
-118.0599771840267
 30
0.0
 10
103.6605115843279
 20
-118.2039821753101
 30
0.0
 10
103.6605115843279
 20
-118.2039821753101
 30
0.0
 10
103.6732584376234
 20
-118.2146619713144
 30
0.0
 10
103.681526666788
 20
-118.2291313723524
 30
0.0
 10
103.681526666788
 20
-118.2418782256479
 30
0.0
 10
103.681526666788
 20
-118.2821858428253
 30
0.0
 10
103.6436306164502
 20
-118.2821858428253
 30
0.0
 10
103.5778292926819
 20
-118.2863199574076
 30
0.0
  0
HATCH
  5
87
330
4E
100
AcDbEntity
  8
_U+30EC_U+30A4_U+30E4_U+30FC 1
 62
   179
420
  2234388
100
AcDbHatch
 10
0.0
 20
0.0
 30
0.0
210
0.0
220
0.0
230
1.0
  2
SOLID
 70
     1
 71
     0
 91
        1
 92
        1
 93
        1
 72
     4
 94
        3
 73
     0
 74
     1
 95
       50
 96
       46
 40
0.0
 40
0.0
 40
0.0
 40
0.0
 40
1.0
 40
1.0
 40
1.0
 40
2.0
 40
2.0
 40
2.0
 40
3.0
 40
3.0
 40
3.0
 40
4.0
 40
4.0
 40
4.0
 40
5.0
 40
5.0
 40
5.0
 40
6.0
 40
6.0
 40
6.0
 40
7.0
 40
7.0
 40
7.0
 40
8.0
 40
8.0
 40
8.0
 40
9.0
 40
9.0
 40
9.0
 40
10.0
 40
10.0
 40
10.0
 40
11.0
 40
11.0
 40
11.0
 40
12.0
 40
12.0
 40
12.0
 40
13.0
 40
13.0
 40
13.0
 40
14.0
 40
14.0
 40
14.0
 40
15.0
 40
15.0
 40
15.0
 40
15.0
 10
103.5778292926819
 20
-118.2863199574076
 10
103.3683674871787
 20
-118.4999158774931
 10
103.2967095010855
 20
-118.5719183731348
 10
103.1547715670933
 20
-118.6904296578274
 10
103.1547715670933
 20
-118.6904296578274
 10
103.1547715670933
 20
-119.2574923746995
 10
103.1547715670933
 20
-119.2574923746995
 10
103.1547715670933
 20
-119.4076985378564
 10
103.1613172485152
 20
-119.4266465630253
 10
103.1654513630975
 20
-119.6044134900642
 10
103.1675184203887
 20
-119.7356716280522
 10
103.1737195922621
 20
-119.7842474743942
 10
103.1802652736841
 20
-119.8435031167405
 10
103.1802652736841
 20
-119.8435031167405
 10
102.9539225003032
 20
-119.8435031167405
 10
102.9539225003032
 20
-119.8435031167405
 10
102.9580566148855
 20
-119.7990613849808
 10
102.9621907294678
 20
-119.7525525959299
 10
102.9621907294678
 20
-119.7439398572168
 10
102.9621907294678
 20
-119.6636691324105
 10
102.9666693535986
 20
-119.312269392915
 10
102.9666693535986
 20
-119.2406114068218
 10
102.9666693535986
 20
-119.2406114068218
 10
102.9666693535986
 20
-118.8344346491108
 10
102.9666693535986
 20
-118.8344346491108
 10
102.7847683119774
 20
-118.9591471056769
 10
102.5901204170608
 20
-119.0690456516564
 10
102.3868597834311
 20
-119.1558620578846
 10
102.3868597834311
 20
-119.1558620578846
 10
102.1839436593499
 20
-118.9929090414323
 10
102.1839436593499
 20
-118.9929090414323
 10
102.3065890586248
 20
-118.9570800483857
 10
102.5625596531788
 20
-118.8830104954529
 10
102.9074137112523
 20
-118.6270399008988
 10
103.123076688629
 20
-118.4682209990288
 10
103.3156575262544
 20
-118.2801187855341
 10
103.4679307467025
 20
-118.0599771840267
 10
103.4679307467025
 20
-118.0599771840267
 10
103.6605115843279
 20
-118.2039821753101
 10
103.6605115843279
 20
-118.2039821753101
 10
103.6732584376234
 20
-118.2146619713144
 10
103.681526666788
 20
-118.2291313723524
 10
103.681526666788
 20
-118.2418782256479
 10
103.681526666788
 20
-118.2821858428253
 10
103.6436306164502
 20
-118.2821858428253
 10
103.5778292926819
 20
-118.2863199574076
 97
        0
 97
        0
 75
     2
 76
     1
 98
        0
  0
SPLINE
  5
88
330
4E
100
AcDbEntity
  8
_U+30EC_U+30A4_U+30E4_U+30FC 1
370
     0
100
AcDbSpline
210
0.0
220
0.0
230
1.0
 70
    11
 71
     3
 72
    50
 73
    46
 74
     0
 42
0.0000000001
 43
0.0000000001
 12
1.0
 22
0.0
 32
0.0
 13
1.0
 23
0.0
 33
0.0
 40
0.0
 40
0.0
 40
0.0
 40
0.0
 40
1.0
 40
1.0
 40
1.0
 40
2.0
 40
2.0
 40
2.0
 40
3.0
 40
3.0
 40
3.0
 40
4.0
 40
4.0
 40
4.0
 40
5.0
 40
5.0
 40
5.0
 40
6.0
 40
6.0
 40
6.0
 40
7.0
 40
7.0
 40
7.0
 40
8.0
 40
8.0
 40
8.0
 40
9.0
 40
9.0
 40
9.0
 40
10.0
 40
10.0
 40
10.0
 40
11.0
 40
11.0
 40
11.0
 40
12.0
 40
12.0
 40
12.0
 40
13.0
 40
13.0
 40
13.0
 40
14.0
 40
14.0
 40
14.0
 40
15.0
 40
15.0
 40
15.0
 40
15.0
 10
105.2862521438173
 20
-118.8130750571023
 30
0.0
 10
105.2249294441799
 20
-118.885077552744
 30
0.0
 10
104.964480225495
 20
-119.2023708469355
 30
0.0
 10
104.9076361499884
 20
-119.2657606038641
 30
0.0
 10
104.992040989377
 20
-119.3632568060967
 30
0.0
 10
105.0430284025587
 20
-119.4266465630253
 30
0.0
 10
105.1084852167784
 20
-119.5175970838359
 30
0.0
 10
105.1084852167784
 20
-119.5175970838359
 30
0.0
 10
104.9245171178661
 20
-119.6550563936974
 30
0.0
 10
104.9245171178661
 20
-119.6550563936974
 30
0.0
 10
104.7891248652958
 20
-119.443527530903
 30
0.0
 10
104.6175591101303
 20
-119.2192518148132
 30
0.0
 10
104.3236924652385
 20
-119.0204698053143
 30
0.0
 10
104.3236924652385
 20
-119.0204698053143
 30
0.0
 10
104.4718315711043
 20
-118.8661295275751
 30
0.0
 10
104.4718315711043
 20
-118.8661295275751
 30
0.0
 10
104.5817301170837
 20
-118.9464002523815
 30
0.0
 10
104.6854274911898
 20
-119.0352837159009
 30
0.0
 10
104.7825791838738
 20
-119.1303683512938
 30
0.0
 10
104.8504475649332
 20
-119.0542317410698
 30
0.0
 10
105.0533636890144
 20
-118.8110079998111
 30
0.0
 10
105.1866888842936
 20
-118.5825981691391
 30
0.0
 10
105.1866888842936
 20
-118.5825981691391
 30
0.0
 10
104.5138617360243
 20
-118.5825981691391
 30
0.0
 10
104.5138617360243
 20
-118.5825981691391
 30
0.0
 10
104.3891492794583
 20
-118.5825981691391
 30
0.0
 10
104.1373127994865
 20
-118.5912109078522
 30
0.0
 10
103.9278509939833
 20
-118.601546194308
 30
0.0
 10
103.9278509939833
 20
-118.601546194308
 30
0.0
 10
103.9278509939833
 20
-118.381749102349
 30
0.0
 10
103.9278509939833
 20
-118.381749102349
 30
0.0
 10
104.1121636024442
 20
-118.4006971275179
 30
0.0
 10
104.3171467838166
 20
-118.4048312421002
 30
0.0
 10
104.5055935068597
 20
-118.4048312421002
 30
0.0
 10
104.5055935068597
 20
-118.4048312421002
 30
0.0
 10
105.0089219572547
 20
-118.4048312421002
 30
0.0
 10
105.0089219572547
 20
-118.4048312421002
 30
0.0
 10
105.3475748434548
 20
-118.4048312421002
 30
0.0
 10
105.3920165752145
 20
-118.3900173315136
 30
0.0
 10
105.474354357312
 20
-118.3497097143362
 30
0.0
 10
105.474354357312
 20
-118.3497097143362
 30
0.0
 10
105.6414414883466
 20
-118.5085286162062
 30
0.0
 10
105.6414414883466
 20
-118.5085286162062
 30
0.0
 10
105.4891682678985
 20
-118.5805311118479
 30
0.0
 10
105.3455077861636
 20
-118.7434841283002
 30
0.0
 10
105.2862521438173
 20
-118.8130750571023
 30
0.0
  0
HATCH
  5
89
330
4E
100
AcDbEntity
  8
_U+30EC_U+30A4_U+30E4_U+30FC 1
 62
   179
420
  2234388
100
AcDbHatch
 10
0.0
 20
0.0
 30
0.0
210
0.0
220
0.0
230
1.0
  2
SOLID
 70
     1
 71
     0
 91
        1
 92
        1
 93
        1
 72
     4
 94
        3
 73
     0
 74
     1
 95
       50
 96
       46
 40
0.0
 40
0.0
 40
0.0
 40
0.0
 40
1.0
 40
1.0
 40
1.0
 40
2.0
 40
2.0
 40
2.0
 40
3.0
 40
3.0
 40
3.0
 40
4.0
 40
4.0
 40
4.0
 40
5.0
 40
5.0
 40
5.0
 40
6.0
 40
6.0
 40
6.0
 40
7.0
 40
7.0
 40
7.0
 40
8.0
 40
8.0
 40
8.0
 40
9.0
 40
9.0
 40
9.0
 40
10.0
 40
10.0
 40
10.0
 40
11.0
 40
11.0
 40
11.0
 40
12.0
 40
12.0
 40
12.0
 40
13.0
 40
13.0
 40
13.0
 40
14.0
 40
14.0
 40
14.0
 40
15.0
 40
15.0
 40
15.0
 40
15.0
 10
105.2862521438173
 20
-118.8130750571023
 10
105.2249294441799
 20
-118.885077552744
 10
104.964480225495
 20
-119.2023708469355
 10
104.9076361499884
 20
-119.2657606038641
 10
104.992040989377
 20
-119.3632568060967
 10
105.0430284025587
 20
-119.4266465630253
 10
105.1084852167784
 20
-119.5175970838359
 10
105.1084852167784
 20
-119.5175970838359
 10
104.9245171178661
 20
-119.6550563936974
 10
104.9245171178661
 20
-119.6550563936974
 10
104.7891248652958
 20
-119.443527530903
 10
104.6175591101303
 20
-119.2192518148132
 10
104.3236924652385
 20
-119.0204698053143
 10
104.3236924652385
 20
-119.0204698053143
 10
104.4718315711043
 20
-118.8661295275751
 10
104.4718315711043
 20
-118.8661295275751
 10
104.5817301170837
 20
-118.9464002523815
 10
104.6854274911898
 20
-119.0352837159009
 10
104.7825791838738
 20
-119.1303683512938
 10
104.8504475649332
 20
-119.0542317410698
 10
105.0533636890144
 20
-118.8110079998111
 10
105.1866888842936
 20
-118.5825981691391
 10
105.1866888842936
 20
-118.5825981691391
 10
104.5138617360243
 20
-118.5825981691391
 10
104.5138617360243
 20
-118.5825981691391
 10
104.3891492794583
 20
-118.5825981691391
 10
104.1373127994865
 20
-118.5912109078522
 10
103.9278509939833
 20
-118.601546194308
 10
103.9278509939833
 20
-118.601546194308
 10
103.9278509939833
 20
-118.381749102349
 10
103.9278509939833
 20
-118.381749102349
 10
104.1121636024442
 20
-118.4006971275179
 10
104.3171467838166
 20
-118.4048312421002
 10
104.5055935068597
 20
-118.4048312421002
 10
104.5055935068597
 20
-118.4048312421002
 10
105.0089219572547
 20
-118.4048312421002
 10
105.0089219572547
 20
-118.4048312421002
 10
105.3475748434548
 20
-118.4048312421002
 10
105.3920165752145
 20
-118.3900173315136
 10
105.474354357312
 20
-118.3497097143362
 10
105.474354357312
 20
-118.3497097143362
 10
105.6414414883466
 20
-118.5085286162062
 10
105.6414414883466
 20
-118.5085286162062
 10
105.4891682678985
 20
-118.5805311118479
 10
105.3455077861636
 20
-118.7434841283002
 10
105.2862521438173
 20
-118.8130750571023
 97
        0
 97
        0
 75
     2
 76
     1
 98
        0
  0
SPLINE
  5
8A
330
4E
100
AcDbEntity
  8
_U+30EC_U+30A4_U+30E4_U+30FC 1
370
     0
100
AcDbSpline
210
0.0
220
0.0
230
1.0
 70
    11
 71
     3
 72
    29
 73
    25
 74
     0
 42
0.0000000001
 43
0.0000000001
 12
1.0
 22
0.0
 32
0.0
 13
1.0
 23
0.0
 33
0.0
 40
0.0
 40
0.0
 40
0.0
 40
0.0
 40
1.0
 40
1.0
 40
1.0
 40
2.0
 40
2.0
 40
2.0
 40
3.0
 40
3.0
 40
3.0
 40
4.0
 40
4.0
 40
4.0
 40
5.0
 40
5.0
 40
5.0
 40
6.0
 40
6.0
 40
6.0
 40
7.0
 40
7.0
 40
7.0
 40
8.0
 40
8.0
 40
8.0
 40
8.0
 10
106.9095811364671
 20
-119.0562987983609
 30
0.0
 10
106.9095811364671
 20
-119.0562987983609
 30
0.0
 10
106.4252007112409
 20
-119.0562987983609
 30
0.0
 10
106.4252007112409
 20
-119.0562987983609
 30
0.0
 10
106.3976399473589
 20
-119.0562987983609
 30
0.0
 10
106.0803466531674
 20
-119.0562987983609
 30
0.0
 10
105.8688177903731
 20
-119.0817925049518
 30
0.0
 10
105.8688177903731
 20
-119.0817925049518
 30
0.0
 10
105.8688177903731
 20
-118.8513156169886
 30
0.0
 10
105.8688177903731
 20
-118.8513156169886
 30
0.0
 10
106.0272921826946
 20
-118.8743977567397
 30
0.0
 10
106.2178059630289
 20
-118.8768093235794
 30
0.0
 10
106.4252007112409
 20
-118.8768093235794
 30
0.0
 10
106.4252007112409
 20
-118.8768093235794
 30
0.0
 10
106.9095811364671
 20
-118.8768093235794
 30
0.0
 10
106.9095811364671
 20
-118.8768093235794
 30
0.0
 10
107.0956162926705
 20
-118.8768093235794
 30
0.0
 10
107.2819959584226
 20
-118.8743977567397
 30
0.0
 10
107.4659640573349
 20
-118.8513156169886
 30
0.0
 10
107.4659640573349
 20
-118.8513156169886
 30
0.0
 10
107.4659640573349
 20
-119.0817925049518
 30
0.0
 10
107.4659640573349
 20
-119.0817925049518
 30
0.0
 10
107.2819959584226
 20
-119.0587103652006
 30
0.0
 10
107.0342935930331
 20
-119.0562987983609
 30
0.0
 10
106.9095811364671
 20
-119.0562987983609
 30
0.0
  0
HATCH
  5
8B
330
4E
100
AcDbEntity
  8
_U+30EC_U+30A4_U+30E4_U+30FC 1
 62
   179
420
  2234388
100
AcDbHatch
 10
0.0
 20
0.0
 30
0.0
210
0.0
220
0.0
230
1.0
  2
SOLID
 70
     1
 71
     0
 91
        1
 92
        1
 93
        1
 72
     4
 94
        3
 73
     0
 74
     1
 95
       29
 96
       25
 40
0.0
 40
0.0
 40
0.0
 40
0.0
 40
1.0
 40
1.0
 40
1.0
 40
2.0
 40
2.0
 40
2.0
 40
3.0
 40
3.0
 40
3.0
 40
4.0
 40
4.0
 40
4.0
 40
5.0
 40
5.0
 40
5.0
 40
6.0
 40
6.0
 40
6.0
 40
7.0
 40
7.0
 40
7.0
 40
8.0
 40
8.0
 40
8.0
 40
8.0
 10
106.9095811364671
 20
-119.0562987983609
 10
106.9095811364671
 20
-119.0562987983609
 10
106.4252007112409
 20
-119.0562987983609
 10
106.4252007112409
 20
-119.0562987983609
 10
106.3976399473589
 20
-119.0562987983609
 10
106.0803466531674
 20
-119.0562987983609
 10
105.8688177903731
 20
-119.0817925049518
 10
105.8688177903731
 20
-119.0817925049518
 10
105.8688177903731
 20
-118.8513156169886
 10
105.8688177903731
 20
-118.8513156169886
 10
106.0272921826946
 20
-118.8743977567397
 10
106.2178059630289
 20
-118.8768093235794
 10
106.4252007112409
 20
-118.8768093235794
 10
106.4252007112409
 20
-118.8768093235794
 10
106.9095811364671
 20
-118.8768093235794
 10
106.9095811364671
 20
-118.8768093235794
 10
107.0956162926705
 20
-118.8768093235794
 10
107.2819959584226
 20
-118.8743977567397
 10
107.4659640573349
 20
-118.8513156169886
 10
107.4659640573349
 20
-118.8513156169886
 10
107.4659640573349
 20
-119.0817925049518
 10
107.4659640573349
 20
-119.0817925049518
 10
107.2819959584226
 20
-119.0587103652006
 10
107.0342935930331
 20
-119.0562987983609
 10
106.9095811364671
 20
-119.0562987983609
 97
        0
 97
        0
 75
     2
 76
     1
 98
        0
  0
ENDBLK
  5
51
330
4E
100
AcDbEntity
  8
0
100
AcDbBlockEnd
  0
BLOCK
  5
C7
330
C5
100
AcDbEntity
  8
0
100
AcDbBlockBegin
  2
block 3
 70
     0
 10
0.0
 20
0.0
 30
0.0
  3
block 3
  1

  0
SPLINE
  5
C9
330
C5
100
AcDbEntity
  8
_U+30EC_U+30A4_U+30E4_U+30FC 1
370
     0
100
AcDbSpline
210
0.0
220
0.0
230
1.0
 70
    11
 71
     3
 72
    26
 73
    22
 74
     0
 42
0.0000000001
 43
0.0000000001
 12
1.0
 22
0.0
 32
0.0
 13
1.0
 23
0.0
 33
0.0
 40
0.0
 40
0.0
 40
0.0
 40
0.0
 40
1.0
 40
1.0
 40
1.0
 40
2.0
 40
2.0
 40
2.0
 40
3.0
 40
3.0
 40
3.0
 40
4.0
 40
4.0
 40
4.0
 40
5.0
 40
5.0
 40
5.0
 40
6.0
 40
6.0
 40
6.0
 40
7.0
 40
7.0
 40
7.0
 40
7.0
 10
84.65822616156115
 20
-126.3866007171013
 30
0.0
 10
84.65822616156115
 20
-126.3866007171013
 30
0.0
 10
84.65822616156115
 20
-125.2822753593044
 30
0.0
 10
84.65822616156115
 20
-125.2822753593044
 30
0.0
 10
84.65822616156115
 20
-125.2822753593044
 30
0.0
 10
84.30544838387156
 20
-125.2822753593044
 30
0.0
 10
84.30544838387156
 20
-125.2822753593044
 30
0.0
 10
84.30544838387156
 20
-125.2822753593044
 30
0.0
 10
84.30544838387156
 20
-125.1341362534387
 30
0.0
 10
84.30544838387156
 20
-125.1341362534387
 30
0.0
 10
84.66046547362656
 20
-125.1194945976264
 30
0.0
 10
84.71024710338841
 20
-124.9565415811741
 30
0.0
 10
84.74176972707845
 20
-124.842336665838
 30
0.0
 10
84.74176972707845
 20
-124.842336665838
 30
0.0
 10
84.89783255256027
 20
-124.842336665838
 30
0.0
 10
84.89783255256027
 20
-124.842336665838
 30
0.0
 10
84.89783255256027
 20
-124.842336665838
 30
0.0
 10
84.89783255256027
 20
-126.3866007171013
 30
0.0
 10
84.89783255256027
 20
-126.3866007171013
 30
0.0
 10
84.89783255256027
 20
-126.3866007171013
 30
0.0
 10
84.65822616156115
 20
-126.3866007171013
 30
0.0
 10
84.65822616156115
 20
-126.3866007171013
 30
0.0
  0
HATCH
  5
CA
330
C5
100
AcDbEntity
  8
_U+30EC_U+30A4_U+30E4_U+30FC 1
 62
     7
420
 16777215
100
AcDbHatch
 10
0.0
 20
0.0
 30
0.0
210
0.0
220
0.0
230
1.0
  2
SOLID
 70
     1
 71
     0
 91
        1
 92
        1
 93
        1
 72
     4
 94
        3
 73
     0
 74
     1
 95
       26
 96
       22
 40
0.0
 40
0.0
 40
0.0
 40
0.0
 40
1.0
 40
1.0
 40
1.0
 40
2.0
 40
2.0
 40
2.0
 40
3.0
 40
3.0
 40
3.0
 40
4.0
 40
4.0
 40
4.0
 40
5.0
 40
5.0
 40
5.0
 40
6.0
 40
6.0
 40
6.0
 40
7.0
 40
7.0
 40
7.0
 40
7.0
 10
84.65822616156115
 20
-126.3866007171013
 10
84.65822616156115
 20
-126.3866007171013
 10
84.65822616156115
 20
-125.2822753593044
 10
84.65822616156115
 20
-125.2822753593044
 10
84.65822616156115
 20
-125.2822753593044
 10
84.30544838387156
 20
-125.2822753593044
 10
84.30544838387156
 20
-125.2822753593044
 10
84.30544838387156
 20
-125.2822753593044
 10
84.30544838387156
 20
-125.1341362534387
 10
84.30544838387156
 20
-125.1341362534387
 10
84.66046547362656
 20
-125.1194945976264
 10
84.71024710338841
 20
-124.9565415811741
 10
84.74176972707845
 20
-124.842336665838
 10
84.74176972707845
 20
-124.842336665838
 10
84.89783255256027
 20
-124.842336665838
 10
84.89783255256027
 20
-124.842336665838
 10
84.89783255256027
 20
-124.842336665838
 10
84.89783255256027
 20
-126.3866007171013
 10
84.89783255256027
 20
-126.3866007171013
 10
84.89783255256027
 20
-126.3866007171013
 10
84.65822616156115
 20
-126.3866007171013
 10
84.65822616156115
 20
-126.3866007171013
 97
        0
 97
        0
 75
     2
 76
     1
 98
        0
  0
ENDBLK
  5
C8
330
C5
100
AcDbEntity
  8
0
100
AcDbBlockEnd
  0
BLOCK
  5
D9
330
D7
100
AcDbEntity
  8
0
100
AcDbBlockBegin
  2
block 4
 70
     0
 10
0.0
 20
0.0
 30
0.0
  3
block 4
  1

  0
SPLINE
  5
DB
330
D7
100
AcDbEntity
  8
_U+30EC_U+30A4_U+30E4_U+30FC 1
370
     0
100
AcDbSpline
210
0.0
220
0.0
230
1.0
 70
    11
 71
     3
 72
    26
 73
    22
 74
     0
 42
0.0000000001
 43
0.0000000001
 12
1.0
 22
0.0
 32
0.0
 13
1.0
 23
0.0
 33
0.0
 40
0.0
 40
0.0
 40
0.0
 40
0.0
 40
1.0
 40
1.0
 40
1.0
 40
2.0
 40
2.0
 40
2.0
 40
3.0
 40
3.0
 40
3.0
 40
4.0
 40
4.0
 40
4.0
 40
5.0
 40
5.0
 40
5.0
 40
6.0
 40
6.0
 40
6.0
 40
7.0
 40
7.0
 40
7.0
 40
7.0
 10
86.98624943571872
 20
-137.5054741409708
 30
0.0
 10
86.98624943571872
 20
-137.5054741409708
 30
0.0
 10
86.98624943571872
 20
-136.4013210379483
 30
0.0
 10
86.98624943571872
 20
-136.4013210379483
 30
0.0
 10
86.98624943571872
 20
-136.4013210379483
 30
0.0
 10
86.63381616757766
 20
-136.4013210379483
 30
0.0
 10
86.63381616757766
 20
-136.4013210379483
 30
0.0
 10
86.63381616757766
 20
-136.4013210379483
 30
0.0
 10
86.63381616757766
 20
-136.2531819320826
 30
0.0
 10
86.63381616757766
 20
-136.2531819320826
 30
0.0
 10
86.98866100255839
 20
-136.238368021496
 30
0.0
 10
87.038270377546
 20
-136.0754150050437
 30
0.0
 10
87.06996525601029
 20
-135.9610378349334
 30
0.0
 10
87.06996525601029
 20
-135.9610378349334
 30
0.0
 10
87.2260280814921
 20
-135.9610378349334
 30
0.0
 10
87.2260280814921
 20
-135.9610378349334
 30
0.0
 10
87.2260280814921
 20
-135.9610378349334
 30
0.0
 10
87.2260280814921
 20
-137.5054741409708
 30
0.0
 10
87.2260280814921
 20
-137.5054741409708
 30
0.0
 10
87.2260280814921
 20
-137.5054741409708
 30
0.0
 10
86.98624943571872
 20
-137.5054741409708
 30
0.0
 10
86.98624943571872
 20
-137.5054741409708
 30
0.0
  0
HATCH
  5
DC
330
D7
100
AcDbEntity
  8
_U+30EC_U+30A4_U+30E4_U+30FC 1
 62
     7
420
 16777215
100
AcDbHatch
 10
0.0
 20
0.0
 30
0.0
210
0.0
220
0.0
230
1.0
  2
SOLID
 70
     1
 71
     0
 91
        1
 92
        1
 93
        1
 72
     4
 94
        3
 73
     0
 74
     1
 95
       26
 96
       22
 40
0.0
 40
0.0
 40
0.0
 40
0.0
 40
1.0
 40
1.0
 40
1.0
 40
2.0
 40
2.0
 40
2.0
 40
3.0
 40
3.0
 40
3.0
 40
4.0
 40
4.0
 40
4.0
 40
5.0
 40
5.0
 40
5.0
 40
6.0
 40
6.0
 40
6.0
 40
7.0
 40
7.0
 40
7.0
 40
7.0
 10
86.98624943571872
 20
-137.5054741409708
 10
86.98624943571872
 20
-137.5054741409708
 10
86.98624943571872
 20
-136.4013210379483
 10
86.98624943571872
 20
-136.4013210379483
 10
86.98624943571872
 20
-136.4013210379483
 10
86.63381616757766
 20
-136.4013210379483
 10
86.63381616757766
 20
-136.4013210379483
 10
86.63381616757766
 20
-136.4013210379483
 10
86.63381616757766
 20
-136.2531819320826
 10
86.63381616757766
 20
-136.2531819320826
 10
86.98866100255839
 20
-136.238368021496
 10
87.038270377546
 20
-136.0754150050437
 10
87.06996525601029
 20
-135.9610378349334
 10
87.06996525601029
 20
-135.9610378349334
 10
87.2260280814921
 20
-135.9610378349334
 10
87.2260280814921
 20
-135.9610378349334
 10
87.2260280814921
 20
-135.9610378349334
 10
87.2260280814921
 20
-137.5054741409708
 10
87.2260280814921
 20
-137.5054741409708
 10
87.2260280814921
 20
-137.5054741409708
 10
86.98624943571872
 20
-137.5054741409708
 10
86.98624943571872
 20
-137.5054741409708
 97
        0
 97
        0
 75
     2
 76
     1
 98
        0
  0
POLYLINE
  5
DD
330
D7
100
AcDbEntity
  8
_U+30EC_U+30A4_U+30E4_U+30FC 1
370
     0
100
AcDb2dPolyline
 66
     1
 10
0.0
 20
0.0
 30
0.0
  0
VERTEX
  5
DE
330
DD
100
AcDbEntity
  8
_U+30EC_U+30A4_U+30E4_U+30FC 1
370
     0
100
AcDbVertex
100
AcDb2dVertex
 10
88.65126408373996
 20
-137.1585530256062
 30
0.0
  0
VERTEX
  5
DF
330
DD
100
AcDbEntity
  8
_U+30EC_U+30A4_U+30E4_U+30FC 1
370
     0
100
AcDbVertex
100
AcDb2dVertex
 10
88.65126408373996
 20
-137.5054741409708
 30
0.0
  0
VERTEX
  5
E0
330
DD
100
AcDbEntity
  8
_U+30EC_U+30A4_U+30E4_U+30FC 1
370
     0
100
AcDbVertex
100
AcDb2dVertex
 10
88.41837562893707
 20
-137.5054741409708
 30
0.0
  0
VERTEX
  5
E1
330
DD
100
AcDbEntity
  8
_U+30EC_U+30A4_U+30E4_U+30FC 1
370
     0
100
AcDbVertex
100
AcDb2dVertex
 10
88.41837562893707
 20
-137.1585530256062
 30
0.0
  0
VERTEX
  5
E2
330
DD
100
AcDbEntity
  8
_U+30EC_U+30A4_U+30E4_U+30FC 1
370
     0
100
AcDbVertex
100
AcDb2dVertex
 10
87.71729869768873
 20
-137.1585530256062
 30
0.0
  0
VERTEX
  5
E3
330
DD
100
AcDbEntity
  8
_U+30EC_U+30A4_U+30E4_U+30FC 1
370
     0
100
AcDbVertex
100
AcDb2dVertex
 10
87.71729869768873
 20
-136.9342773095164
 30
0.0
  0
VERTEX
  5
E4
330
DD
100
AcDbEntity
  8
_U+30EC_U+30A4_U+30E4_U+30FC 1
370
     0
100
AcDbVertex
100
AcDb2dVertex
 10
88.44318031643087
 20
-135.9610378349334
 30
0.0
  0
VERTEX
  5
E5
330
DD
100
AcDbEntity
  8
_U+30EC_U+30A4_U+30E4_U+30FC 1
370
     0
100
AcDbVertex
100
AcDb2dVertex
 10
88.65126408373996
 20
-135.9610378349334
 30
0.0
  0
VERTEX
  5
E6
330
DD
100
AcDbEntity
  8
_U+30EC_U+30A4_U+30E4_U+30FC 1
370
     0
100
AcDbVertex
100
AcDb2dVertex
 10
88.65126408373996
 20
-136.9597710161073
 30
0.0
  0
VERTEX
  5
E7
330
DD
100
AcDbEntity
  8
_U+30EC_U+30A4_U+30E4_U+30FC 1
370
     0
100
AcDbVertex
100
AcDb2dVertex
 10
88.87278372344153
 20
-136.9597710161073
 30
0.0
  0
VERTEX
  5
E8
330
DD
100
AcDbEntity
  8
_U+30EC_U+30A4_U+30E4_U+30FC 1
370
     0
100
AcDbVertex
100
AcDb2dVertex
 10
88.87278372344153
 20
-137.1585530256062
 30
0.0
  0
VERTEX
  5
E9
330
DD
100
AcDbEntity
  8
_U+30EC_U+30A4_U+30E4_U+30FC 1
370
     0
100
AcDbVertex
100
AcDb2dVertex
 10
88.65126408373996
 20
-137.1585530256062
 30
0.0
  0
SEQEND
  5
EA
330
DD
100
AcDbEntity
  8
_U+30EC_U+30A4_U+30E4_U+30FC 1
370
     0
  0
POLYLINE
  5
EB
330
D7
100
AcDbEntity
  8
_U+30EC_U+30A4_U+30E4_U+30FC 1
370
     0
100
AcDb2dPolyline
 66
     1
 10
0.0
 20
0.0
 30
0.0
  0
VERTEX
  5
EC
330
EB
100
AcDbEntity
  8
_U+30EC_U+30A4_U+30E4_U+30FC 1
370
     0
100
AcDbVertex
100
AcDb2dVertex
 10
88.41837562893707
 20
-136.3038248357157
 30
0.0
  0
VERTEX
  5
ED
330
EB
100
AcDbEntity
  8
_U+30EC_U+30A4_U+30E4_U+30FC 1
370
     0
100
AcDbVertex
100
AcDb2dVertex
 10
87.92986108912865
 20
-136.9597710161073
 30
0.0
  0
VERTEX
  5
EE
330
EB
100
AcDbEntity
  8
_U+30EC_U+30A4_U+30E4_U+30FC 1
370
     0
100
AcDbVertex
100
AcDb2dVertex
 10
88.41837562893707
 20
-136.9597710161073
 30
0.0
  0
VERTEX
  5
EF
330
EB
100
AcDbEntity
  8
_U+30EC_U+30A4_U+30E4_U+30FC 1
370
     0
100
AcDbVertex
100
AcDb2dVertex
 10
88.41837562893707
 20
-136.3038248357157
 30
0.0
  0
SEQEND
  5
F0
330
EB
100
AcDbEntity
  8
_U+30EC_U+30A4_U+30E4_U+30FC 1
370
     0
  0
HATCH
  5
F1
330
D7
100
AcDbEntity
  8
_U+30EC_U+30A4_U+30E4_U+30FC 1
 62
     7
420
 16777215
100
AcDbHatch
 10
0.0
 20
0.0
 30
0.0
210
0.0
220
0.0
230
1.0
  2
SOLID
 70
     1
 71
     0
 91
        2
 92
        1
 93
       11
 72
     1
 10
88.65126408373996
 20
-137.1585530256062
 11
88.65126408373996
 21
-137.5054741409708
 72
     1
 10
88.65126408373996
 20
-137.5054741409708
 11
88.41837562893707
 21
-137.5054741409708
 72
     1
 10
88.41837562893707
 20
-137.5054741409708
 11
88.41837562893707
 21
-137.1585530256062
 72
     1
 10
88.41837562893707
 20
-137.1585530256062
 11
87.71729869768873
 21
-137.1585530256062
 72
     1
 10
87.71729869768873
 20
-137.1585530256062
 11
87.71729869768873
 21
-136.9342773095164
 72
     1
 10
87.71729869768873
 20
-136.9342773095164
 11
88.44318031643087
 21
-135.9610378349334
 72
     1
 10
88.44318031643087
 20
-135.9610378349334
 11
88.65126408373996
 21
-135.9610378349334
 72
     1
 10
88.65126408373996
 20
-135.9610378349334
 11
88.65126408373996
 21
-136.9597710161073
 72
     1
 10
88.65126408373996
 20
-136.9597710161073
 11
88.87278372344153
 21
-136.9597710161073
 72
     1
 10
88.87278372344153
 20
-136.9597710161073
 11
88.87278372344153
 21
-137.1585530256062
 72
     1
 10
88.87278372344153
 20
-137.1585530256062
 11
88.65126408373996
 21
-137.1585530256062
 97
        0
 92
        1
 93
        3
 72
     1
 10
88.41837562893707
 20
-136.3038248357157
 11
87.92986108912865
 21
-136.9597710161073
 72
     1
 10
87.92986108912865
 20
-136.9597710161073
 11
88.41837562893707
 21
-136.9597710161073
 72
     1
 10
88.41837562893707
 20
-136.9597710161073
 11
88.41837562893707
 21
-136.3038248357157
 97
        0
 75
     2
 76
     1
 98
        0
  0
ENDBLK
  5
DA
330
D7
100
AcDbEntity
  8
0
100
AcDbBlockEnd
  0
BLOCK
  5
102
330
100
100
AcDbEntity
  8
0
100
AcDbBlockBegin
  2
block 5
 70
     0
 10
0.0
 20
0.0
 30
0.0
  3
block 5
  1

  0
SPLINE
  5
104
330
100
100
AcDbEntity
  8
_U+30EC_U+30A4_U+30E4_U+30FC 1
370
     0
100
AcDbSpline
210
0.0
220
0.0
230
1.0
 70
    11
 71
     3
 72
    32
 73
    28
 74
     0
 42
0.0000000001
 43
0.0000000001
 12
1.0
 22
0.0
 32
0.0
 13
1.0
 23
0.0
 33
0.0
 40
0.0
 40
0.0
 40
0.0
 40
0.0
 40
1.0
 40
1.0
 40
1.0
 40
2.0
 40
2.0
 40
2.0
 40
3.0
 40
3.0
 40
3.0
 40
4.0
 40
4.0
 40
4.0
 40
5.0
 40
5.0
 40
5.0
 40
6.0
 40
6.0
 40
6.0
 40
7.0
 40
7.0
 40
7.0
 40
8.0
 40
8.0
 40
8.0
 40
9.0
 40
9.0
 40
9.0
 40
9.0
 10
84.77174205780013
 20
-120.036083954366
 30
0.0
 10
84.22018227061163
 20
-120.036083954366
 30
0.0
 10
84.21122502234998
 20
-119.4821126003378
 30
0.0
 10
84.21122502234998
 20
-119.2681721707038
 30
0.0
 10
84.21122502234998
 20
-119.0376952827406
 30
0.0
 10
84.23155108571295
 20
-118.3903618410621
 30
0.0
 10
84.8127386940746
 20
-118.3903618410621
 30
0.0
 10
84.99808483118103
 20
-118.3903618410621
 30
0.0
 10
85.26025659760855
 20
-118.4602972794127
 30
0.0
 10
85.3009087243345
 20
-118.7924044841908
 30
0.0
 10
85.3009087243345
 20
-118.7924044841908
 30
0.0
 10
85.07249889366244
 20
-118.7924044841908
 30
0.0
 10
85.07249889366244
 20
-118.7924044841908
 30
0.0
 10
85.0611300785611
 20
-118.7352158991356
 30
0.0
 10
85.02736814280566
 20
-118.5870767932699
 30
0.0
 10
84.81032712723493
 20
-118.5870767932699
 30
0.0
 10
84.49820147627129
 20
-118.5870767932699
 30
0.0
 10
84.45548229225419
 20
-118.9150498834657
 30
0.0
 10
84.44170191031318
 20
-119.1200330648381
 30
0.0
 10
84.5412651698369
 20
-119.0418293973229
 30
0.0
 10
84.61361217502716
 20
-118.9825737549766
 30
0.0
 10
84.80826006994377
 20
-118.9825737549766
 30
0.0
 10
85.00015188847219
 20
-118.9825737549766
 30
0.0
 10
85.32364635453715
 20
-119.0907497532134
 30
0.0
 10
85.32364635453715
 20
-119.4969265109244
 30
0.0
 10
85.32364635453715
 20
-119.816286862407
 30
0.0
 10
85.11108396309723
 20
-120.036083954366
 30
0.0
 10
84.77174205780013
 20
-120.036083954366
 30
0.0
  0
SPLINE
  5
105
330
100
100
AcDbEntity
  8
_U+30EC_U+30A4_U+30E4_U+30FC 1
370
     0
100
AcDbSpline
210
0.0
220
0.0
230
1.0
 70
    11
 71
     3
 72
    17
 73
    13
 74
     0
 42
0.0000000001
 43
0.0000000001
 12
1.0
 22
0.0
 32
0.0
 13
1.0
 23
0.0
 33
0.0
 40
0.0
 40
0.0
 40
0.0
 40
0.0
 40
1.0
 40
1.0
 40
1.0
 40
2.0
 40
2.0
 40
2.0
 40
3.0
 40
3.0
 40
3.0
 40
4.0
 40
4.0
 40
4.0
 40
4.0
 10
84.79000106387196
 20
-119.1772216498932
 30
0.0
 10
84.50957029137261
 20
-119.1772216498932
 30
0.0
 10
84.46891816464667
 20
-119.3887505126875
 30
0.0
 10
84.46891816464667
 20
-119.505194740089
 30
0.0
 10
84.46891816464667
 20
-119.6808946098367
 30
0.0
 10
84.57054848146153
 20
-119.843847626289
 30
0.0
 10
84.7672634336693
 20
-119.843847626289
 30
0.0
 10
84.89611000481764
 20
-119.843847626289
 30
0.0
 10
85.08386770876376
 20
-119.7845919839427
 30
0.0
 10
85.08386770876376
 20
-119.4989935682155
 30
0.0
 10
85.08386770876376
 20
-119.2747178521258
 30
0.0
 10
84.93469507425245
 20
-119.1772216498932
 30
0.0
 10
84.79000106387196
 20
-119.1772216498932
 30
0.0
  0
HATCH
  5
106
330
100
100
AcDbEntity
  8
_U+30EC_U+30A4_U+30E4_U+30FC 1
 62
     7
420
 16777215
100
AcDbHatch
 10
0.0
 20
0.0
 30
0.0
210
0.0
220
0.0
230
1.0
  2
SOLID
 70
     1
 71
     0
 91
        2
 92
        1
 93
        1
 72
     4
 94
        3
 73
     0
 74
     1
 95
       32
 96
       28
 40
0.0
 40
0.0
 40
0.0
 40
0.0
 40
1.0
 40
1.0
 40
1.0
 40
2.0
 40
2.0
 40
2.0
 40
3.0
 40
3.0
 40
3.0
 40
4.0
 40
4.0
 40
4.0
 40
5.0
 40
5.0
 40
5.0
 40
6.0
 40
6.0
 40
6.0
 40
7.0
 40
7.0
 40
7.0
 40
8.0
 40
8.0
 40
8.0
 40
9.0
 40
9.0
 40
9.0
 40
9.0
 10
84.77174205780013
 20
-120.036083954366
 10
84.22018227061163
 20
-120.036083954366
 10
84.21122502234998
 20
-119.4821126003378
 10
84.21122502234998
 20
-119.2681721707038
 10
84.21122502234998
 20
-119.0376952827406
 10
84.23155108571295
 20
-118.3903618410621
 10
84.8127386940746
 20
-118.3903618410621
 10
84.99808483118103
 20
-118.3903618410621
 10
85.26025659760855
 20
-118.4602972794127
 10
85.3009087243345
 20
-118.7924044841908
 10
85.3009087243345
 20
-118.7924044841908
 10
85.07249889366244
 20
-118.7924044841908
 10
85.07249889366244
 20
-118.7924044841908
 10
85.0611300785611
 20
-118.7352158991356
 10
85.02736814280566
 20
-118.5870767932699
 10
84.81032712723493
 20
-118.5870767932699
 10
84.49820147627129
 20
-118.5870767932699
 10
84.45548229225419
 20
-118.9150498834657
 10
84.44170191031318
 20
-119.1200330648381
 10
84.5412651698369
 20
-119.0418293973229
 10
84.61361217502716
 20
-118.9825737549766
 10
84.80826006994377
 20
-118.9825737549766
 10
85.00015188847219
 20
-118.9825737549766
 10
85.32364635453715
 20
-119.0907497532134
 10
85.32364635453715
 20
-119.4969265109244
 10
85.32364635453715
 20
-119.816286862407
 10
85.11108396309723
 20
-120.036083954366
 10
84.77174205780013
 20
-120.036083954366
 97
        0
 97
        0
 92
        1
 93
        1
 72
     4
 94
        3
 73
     0
 74
     1
 95
       17
 96
       13
 40
0.0
 40
0.0
 40
0.0
 40
0.0
 40
1.0
 40
1.0
 40
1.0
 40
2.0
 40
2.0
 40
2.0
 40
3.0
 40
3.0
 40
3.0
 40
4.0
 40
4.0
 40
4.0
 40
4.0
 10
84.79000106387196
 20
-119.1772216498932
 10
84.50957029137261
 20
-119.1772216498932
 10
84.46891816464667
 20
-119.3887505126875
 10
84.46891816464667
 20
-119.505194740089
 10
84.46891816464667
 20
-119.6808946098367
 10
84.57054848146153
 20
-119.843847626289
 10
84.7672634336693
 20
-119.843847626289
 10
84.89611000481764
 20
-119.843847626289
 10
85.08386770876376
 20
-119.7845919839427
 10
85.08386770876376
 20
-119.4989935682155
 10
85.08386770876376
 20
-119.2747178521258
 10
84.93469507425245
 20
-119.1772216498932
 10
84.79000106387196
 20
-119.1772216498932
 97
        0
 97
        0
 75
     2
 76
     1
 98
        0
  0
ENDBLK
  5
103
330
100
100
AcDbEntity
  8
0
100
AcDbBlockEnd
  0
BLOCK
  5
115
330
113
100
AcDbEntity
  8
0
100
AcDbBlockBegin
  2
block 6
 70
     0
 10
0.0
 20
0.0
 30
0.0
  3
block 6
  1

  0
SPLINE
  5
117
330
113
100
AcDbEntity
  8
_U+30EC_U+30A4_U+30E4_U+30FC 1
370
     0
100
AcDbSpline
210
0.0
220
0.0
230
1.0
 70
    11
 71
     3
 72
    26
 73
    22
 74
     0
 42
0.0000000001
 43
0.0000000001
 12
1.0
 22
0.0
 32
0.0
 13
1.0
 23
0.0
 33
0.0
 40
0.0
 40
0.0
 40
0.0
 40
0.0
 40
1.0
 40
1.0
 40
1.0
 40
2.0
 40
2.0
 40
2.0
 40
3.0
 40
3.0
 40
3.0
 40
4.0
 40
4.0
 40
4.0
 40
5.0
 40
5.0
 40
5.0
 40
6.0
 40
6.0
 40
6.0
 40
7.0
 40
7.0
 40
7.0
 40
7.0
 10
76.07115340980165
 20
-129.9114501628347
 30
0.0
 10
76.07115340980165
 20
-129.9114501628347
 30
0.0
 10
74.96682805200483
 20
-129.9114501628347
 30
0.0
 10
74.96682805200483
 20
-129.9114501628347
 30
0.0
 10
74.96682805200483
 20
-129.9114501628347
 30
0.0
 10
74.96682805200483
 20
-130.2642279405242
 30
0.0
 10
74.96682805200483
 20
-130.2642279405242
 30
0.0
 10
74.96682805200483
 20
-130.2642279405242
 30
0.0
 10
74.81868894613908
 20
-130.2642279405242
 30
0.0
 10
74.81868894613908
 20
-130.2642279405242
 30
0.0
 10
74.80404729032676
 20
-129.9093831055435
 30
0.0
 10
74.64109427387446
 20
-129.8594292210074
 30
0.0
 10
74.52688935853843
 20
-129.8277343425431
 30
0.0
 10
74.52688935853843
 20
-129.8277343425431
 30
0.0
 10
74.52688935853843
 20
-129.6720160266098
 30
0.0
 10
74.52688935853843
 20
-129.6720160266098
 30
0.0
 10
74.52688935853843
 20
-129.6720160266098
 30
0.0
 10
76.07115340980165
 20
-129.6720160266098
 30
0.0
 10
76.07115340980165
 20
-129.6720160266098
 30
0.0
 10
76.07115340980165
 20
-129.6720160266098
 30
0.0
 10
76.07115340980165
 20
-129.9114501628347
 30
0.0
 10
76.07115340980165
 20
-129.9114501628347
 30
0.0
  0
HATCH
  5
118
330
113
100
AcDbEntity
  8
_U+30EC_U+30A4_U+30E4_U+30FC 1
 62
     7
420
 16777215
100
AcDbHatch
 10
0.0
 20
0.0
 30
0.0
210
0.0
220
0.0
230
1.0
  2
SOLID
 70
     1
 71
     0
 91
        1
 92
        1
 93
        1
 72
     4
 94
        3
 73
     0
 74
     1
 95
       26
 96
       22
 40
0.0
 40
0.0
 40
0.0
 40
0.0
 40
1.0
 40
1.0
 40
1.0
 40
2.0
 40
2.0
 40
2.0
 40
3.0
 40
3.0
 40
3.0
 40
4.0
 40
4.0
 40
4.0
 40
5.0
 40
5.0
 40
5.0
 40
6.0
 40
6.0
 40
6.0
 40
7.0
 40
7.0
 40
7.0
 40
7.0
 10
76.07115340980165
 20
-129.9114501628347
 10
76.07115340980165
 20
-129.9114501628347
 10
74.96682805200483
 20
-129.9114501628347
 10
74.96682805200483
 20
-129.9114501628347
 10
74.96682805200483
 20
-129.9114501628347
 10
74.96682805200483
 20
-130.2642279405242
 10
74.96682805200483
 20
-130.2642279405242
 10
74.96682805200483
 20
-130.2642279405242
 10
74.81868894613908
 20
-130.2642279405242
 10
74.81868894613908
 20
-130.2642279405242
 10
74.80404729032676
 20
-129.9093831055435
 10
74.64109427387446
 20
-129.8594292210074
 10
74.52688935853843
 20
-129.8277343425431
 10
74.52688935853843
 20
-129.8277343425431
 10
74.52688935853843
 20
-129.6720160266098
 10
74.52688935853843
 20
-129.6720160266098
 10
74.52688935853843
 20
-129.6720160266098
 10
76.07115340980165
 20
-129.6720160266098
 10
76.07115340980165
 20
-129.6720160266098
 10
76.07115340980165
 20
-129.6720160266098
 10
76.07115340980165
 20
-129.9114501628347
 10
76.07115340980165
 20
-129.9114501628347
 97
        0
 97
        0
 75
     2
 76
     1
 98
        0
  0
SPLINE
  5
119
330
113
100
AcDbEntity
  8
_U+30EC_U+30A4_U+30E4_U+30FC 1
370
     0
100
AcDbSpline
210
0.0
220
0.0
230
1.0
 70
    11
 71
     3
 72
    26
 73
    22
 74
     0
 42
0.0000000001
 43
0.0000000001
 12
1.0
 22
0.0
 32
0.0
 13
1.0
 23
0.0
 33
0.0
 40
0.0
 40
0.0
 40
0.0
 40
0.0
 40
1.0
 40
1.0
 40
1.0
 40
2.0
 40
2.0
 40
2.0
 40
3.0
 40
3.0
 40
3.0
 40
4.0
 40
4.0
 40
4.0
 40
5.0
 40
5.0
 40
5.0
 40
6.0
 40
6.0
 40
6.0
 40
7.0
 40
7.0
 40
7.0
 40
7.0
 10
76.07115340980165
 20
-128.6536458011699
 30
0.0
 10
76.07115340980165
 20
-128.6536458011699
 30
0.0
 10
74.96682805200483
 20
-128.6536458011699
 30
0.0
 10
74.96682805200483
 20
-128.6536458011699
 30
0.0
 10
74.96682805200483
 20
-128.6536458011699
 30
0.0
 10
74.96682805200483
 20
-129.0064235788595
 30
0.0
 10
74.96682805200483
 20
-129.0064235788595
 30
0.0
 10
74.96682805200483
 20
-129.0064235788595
 30
0.0
 10
74.81868894613908
 20
-129.0064235788595
 30
0.0
 10
74.81868894613908
 20
-129.0064235788595
 30
0.0
 10
74.80404729032676
 20
-128.6514064891045
 30
0.0
 10
74.64109427387446
 20
-128.6016248593426
 30
0.0
 10
74.52688935853843
 20
-128.5699299808784
 30
0.0
 10
74.52688935853843
 20
-128.5699299808784
 30
0.0
 10
74.52688935853843
 20
-128.4140394101708
 30
0.0
 10
74.52688935853843
 20
-128.4140394101708
 30
0.0
 10
74.52688935853843
 20
-128.4140394101708
 30
0.0
 10
76.07115340980165
 20
-128.4140394101708
 30
0.0
 10
76.07115340980165
 20
-128.4140394101708
 30
0.0
 10
76.07115340980165
 20
-128.4140394101708
 30
0.0
 10
76.07115340980165
 20
-128.6536458011699
 30
0.0
 10
76.07115340980165
 20
-128.6536458011699
 30
0.0
  0
HATCH
  5
11A
330
113
100
AcDbEntity
  8
_U+30EC_U+30A4_U+30E4_U+30FC 1
 62
     7
420
 16777215
100
AcDbHatch
 10
0.0
 20
0.0
 30
0.0
210
0.0
220
0.0
230
1.0
  2
SOLID
 70
     1
 71
     0
 91
        1
 92
        1
 93
        1
 72
     4
 94
        3
 73
     0
 74
     1
 95
       26
 96
       22
 40
0.0
 40
0.0
 40
0.0
 40
0.0
 40
1.0
 40
1.0
 40
1.0
 40
2.0
 40
2.0
 40
2.0
 40
3.0
 40
3.0
 40
3.0
 40
4.0
 40
4.0
 40
4.0
 40
5.0
 40
5.0
 40
5.0
 40
6.0
 40
6.0
 40
6.0
 40
7.0
 40
7.0
 40
7.0
 40
7.0
 10
76.07115340980165
 20
-128.6536458011699
 10
76.07115340980165
 20
-128.6536458011699
 10
74.96682805200483
 20
-128.6536458011699
 10
74.96682805200483
 20
-128.6536458011699
 10
74.96682805200483
 20
-128.6536458011699
 10
74.96682805200483
 20
-129.0064235788595
 10
74.96682805200483
 20
-129.0064235788595
 10
74.96682805200483
 20
-129.0064235788595
 10
74.81868894613908
 20
-129.0064235788595
 10
74.81868894613908
 20
-129.0064235788595
 10
74.80404729032676
 20
-128.6514064891045
 10
74.64109427387446
 20
-128.6016248593426
 10
74.52688935853843
 20
-128.5699299808784
 10
74.52688935853843
 20
-128.5699299808784
 10
74.52688935853843
 20
-128.4140394101708
 10
74.52688935853843
 20
-128.4140394101708
 10
74.52688935853843
 20
-128.4140394101708
 10
76.07115340980165
 20
-128.4140394101708
 10
76.07115340980165
 20
-128.4140394101708
 10
76.07115340980165
 20
-128.4140394101708
 10
76.07115340980165
 20
-128.6536458011699
 10
76.07115340980165
 20
-128.6536458011699
 97
        0
 97
        0
 75
     2
 76
     1
 98
        0
  0
POLYLINE
  5
11B
330
113
100
AcDbEntity
  8
_U+30EC_U+30A4_U+30E4_U+30FC 1
370
     0
100
AcDb2dPolyline
 66
     1
 10
0.0
 20
0.0
 30
0.0
  0
VERTEX
  5
11C
330
11B
100
AcDbEntity
  8
_U+30EC_U+30A4_U+30E4_U+30FC 1
370
     0
100
AcDbVertex
100
AcDb2dVertex
 10
76.07115340980165
 20
-127.8140760314145
 30
0.0
  0
VERTEX
  5
11D
330
11B
100
AcDbEntity
  8
_U+30EC_U+30A4_U+30E4_U+30FC 1
370
     0
100
AcDbVertex
100
AcDb2dVertex
 10
75.81948918460417
 20
-127.8140760314145
 30
0.0
  0
VERTEX
  5
11E
330
11B
100
AcDbEntity
  8
_U+30EC_U+30A4_U+30E4_U+30FC 1
370
     0
100
AcDbVertex
100
AcDb2dVertex
 10
75.81948918460417
 20
-127.5450140740165
 30
0.0
  0
VERTEX
  5
11F
330
11B
100
AcDbEntity
  8
_U+30EC_U+30A4_U+30E4_U+30FC 1
370
     0
100
AcDbVertex
100
AcDb2dVertex
 10
76.07115340980165
 20
-127.5450140740165
 30
0.0
  0
VERTEX
  5
120
330
11B
100
AcDbEntity
  8
_U+30EC_U+30A4_U+30E4_U+30FC 1
370
     0
100
AcDbVertex
100
AcDb2dVertex
 10
76.07115340980165
 20
-127.8140760314145
 30
0.0
  0
SEQEND
  5
121
330
11B
100
AcDbEntity
  8
_U+30EC_U+30A4_U+30E4_U+30FC 1
370
     0
  0
HATCH
  5
122
330
113
100
AcDbEntity
  8
_U+30EC_U+30A4_U+30E4_U+30FC 1
 62
     7
420
 16777215
100
AcDbHatch
 10
0.0
 20
0.0
 30
0.0
210
0.0
220
0.0
230
1.0
  2
SOLID
 70
     1
 71
     0
 91
        1
 92
        1
 93
        4
 72
     1
 10
76.07115340980165
 20
-127.8140760314145
 11
75.81948918460417
 21
-127.8140760314145
 72
     1
 10
75.81948918460417
 20
-127.8140760314145
 11
75.81948918460417
 21
-127.5450140740165
 72
     1
 10
75.81948918460417
 20
-127.5450140740165
 11
76.07115340980165
 21
-127.5450140740165
 72
     1
 10
76.07115340980165
 20
-127.5450140740165
 11
76.07115340980165
 21
-127.8140760314145
 97
        0
 75
     2
 76
     1
 98
        0
  0
SPLINE
  5
123
330
113
100
AcDbEntity
  8
_U+30EC_U+30A4_U+30E4_U+30FC 1
370
     0
100
AcDbSpline
210
0.0
220
0.0
230
1.0
 70
    11
 71
     3
 72
    53
 73
    49
 74
     0
 42
0.0000000001
 43
0.0000000001
 12
1.0
 22
0.0
 32
0.0
 13
1.0
 23
0.0
 33
0.0
 40
0.0
 40
0.0
 40
0.0
 40
0.0
 40
1.0
 40
1.0
 40
1.0
 40
2.0
 40
2.0
 40
2.0
 40
3.0
 40
3.0
 40
3.0
 40
4.0
 40
4.0
 40
4.0
 40
5.0
 40
5.0
 40
5.0
 40
6.0
 40
6.0
 40
6.0
 40
7.0
 40
7.0
 40
7.0
 40
8.0
 40
8.0
 40
8.0
 40
9.0
 40
9.0
 40
9.0
 40
10.0
 40
10.0
 40
10.0
 40
11.0
 40
11.0
 40
11.0
 40
12.0
 40
12.0
 40
12.0
 40
13.0
 40
13.0
 40
13.0
 40
14.0
 40
14.0
 40
14.0
 40
15.0
 40
15.0
 40
15.0
 40
16.0
 40
16.0
 40
16.0
 40
16.0
 10
76.1219685682091
 20
-126.7781358189999
 30
0.0
 10
76.1219685682091
 20
-126.8618516392915
 30
0.0
 10
76.10508760033137
 20
-126.9703721470769
 30
0.0
 10
76.04152558862852
 20
-127.0788926548622
 30
0.0
 10
75.93145478787478
 20
-127.2642387919687
 30
0.0
 10
75.80036890466103
 20
-127.2869764221713
 30
0.0
 10
75.69253741597271
 20
-127.3073024855343
 30
0.0
 10
75.69253741597271
 20
-127.3073024855343
 30
0.0
 10
75.69253741597271
 20
-127.0699354066006
 30
0.0
 10
75.69253741597271
 20
-127.0699354066006
 30
0.0
 10
75.89131942547162
 20
-127.0110242738028
 30
0.0
 10
75.92094724664477
 20
-126.8754597664582
 30
0.0
 10
75.92094724664477
 20
-126.7758965069345
 30
0.0
 10
75.92094724664477
 20
-126.6267238724232
 30
0.0
 10
75.82155624189531
 20
-126.4639431107451
 30
0.0
 10
75.58884004186669
 20
-126.4639431107451
 30
0.0
 10
75.33286944731262
 20
-126.4639431107451
 30
0.0
 10
75.2631062637363
 20
-126.6561794388221
 30
0.0
 10
75.2631062637363
 20
-126.7850260099704
 30
0.0
 10
75.2631062637363
 20
-126.8189602005001
 30
0.0
 10
75.2631062637363
 20
-126.9703721470769
 30
0.0
 10
75.39212508965892
 20
-127.0652845276955
 30
0.0
 10
75.39212508965892
 20
-127.0652845276955
 30
0.0
 10
75.37300480971578
 20
-127.2530422316416
 30
0.0
 10
75.37300480971578
 20
-127.2530422316416
 30
0.0
 10
75.37300480971578
 20
-127.2530422316416
 30
0.0
 10
74.52688935853843
 20
-127.124023405719
 30
0.0
 10
74.52688935853843
 20
-127.124023405719
 30
0.0
 10
74.52688935853843
 20
-127.124023405719
 30
0.0
 10
74.52688935853843
 20
-126.2920328460312
 30
0.0
 10
74.52688935853843
 20
-126.2920328460312
 30
0.0
 10
74.52688935853843
 20
-126.2920328460312
 30
0.0
 10
74.72153725345504
 20
-126.2920328460312
 30
0.0
 10
74.72153725345504
 20
-126.2920328460312
 30
0.0
 10
74.72153725345504
 20
-126.2920328460312
 30
0.0
 10
74.72153725345504
 20
-126.9500460837139
 30
0.0
 10
74.72153725345504
 20
-126.9500460837139
 30
0.0
 10
74.72153725345504
 20
-126.9500460837139
 30
0.0
 10
75.14459497904372
 20
-127.0201537768387
 30
0.0
 10
75.14459497904372
 20
-127.0201537768387
 30
0.0
 10
75.11066078851401
 20
-126.9545247078447
 30
0.0
 10
75.07052542611085
 20
-126.8663302634223
 30
0.0
 10
75.07052542611085
 20
-126.7397230043394
 30
0.0
 10
75.07052542611085
 20
-126.468421734876
 30
0.0
 10
75.25673283708859
 20
-126.2152072167101
 30
0.0
 10
75.56971976192355
 20
-126.2152072167101
 30
0.0
 10
75.88718531088932
 20
-126.2152072167101
 30
0.0
 10
76.1219685682091
 20
-126.4549858624835
 30
0.0
 10
76.1219685682091
 20
-126.7781358189999
 30
0.0
  0
HATCH
  5
124
330
113
100
AcDbEntity
  8
_U+30EC_U+30A4_U+30E4_U+30FC 1
 62
     7
420
 16777215
100
AcDbHatch
 10
0.0
 20
0.0
 30
0.0
210
0.0
220
0.0
230
1.0
  2
SOLID
 70
     1
 71
     0
 91
        1
 92
        1
 93
        1
 72
     4
 94
        3
 73
     0
 74
     1
 95
       53
 96
       49
 40
0.0
 40
0.0
 40
0.0
 40
0.0
 40
1.0
 40
1.0
 40
1.0
 40
2.0
 40
2.0
 40
2.0
 40
3.0
 40
3.0
 40
3.0
 40
4.0
 40
4.0
 40
4.0
 40
5.0
 40
5.0
 40
5.0
 40
6.0
 40
6.0
 40
6.0
 40
7.0
 40
7.0
 40
7.0
 40
8.0
 40
8.0
 40
8.0
 40
9.0
 40
9.0
 40
9.0
 40
10.0
 40
10.0
 40
10.0
 40
11.0
 40
11.0
 40
11.0
 40
12.0
 40
12.0
 40
12.0
 40
13.0
 40
13.0
 40
13.0
 40
14.0
 40
14.0
 40
14.0
 40
15.0
 40
15.0
 40
15.0
 40
16.0
 40
16.0
 40
16.0
 40
16.0
 10
76.1219685682091
 20
-126.7781358189999
 10
76.1219685682091
 20
-126.8618516392915
 10
76.10508760033137
 20
-126.9703721470769
 10
76.04152558862852
 20
-127.0788926548622
 10
75.93145478787478
 20
-127.2642387919687
 10
75.80036890466103
 20
-127.2869764221713
 10
75.69253741597271
 20
-127.3073024855343
 10
75.69253741597271
 20
-127.3073024855343
 10
75.69253741597271
 20
-127.0699354066006
 10
75.69253741597271
 20
-127.0699354066006
 10
75.89131942547162
 20
-127.0110242738028
 10
75.92094724664477
 20
-126.8754597664582
 10
75.92094724664477
 20
-126.7758965069345
 10
75.92094724664477
 20
-126.6267238724232
 10
75.82155624189531
 20
-126.4639431107451
 10
75.58884004186669
 20
-126.4639431107451
 10
75.33286944731262
 20
-126.4639431107451
 10
75.2631062637363
 20
-126.6561794388221
 10
75.2631062637363
 20
-126.7850260099704
 10
75.2631062637363
 20
-126.8189602005001
 10
75.2631062637363
 20
-126.9703721470769
 10
75.39212508965892
 20
-127.0652845276955
 10
75.39212508965892
 20
-127.0652845276955
 10
75.37300480971578
 20
-127.2530422316416
 10
75.37300480971578
 20
-127.2530422316416
 10
75.37300480971578
 20
-127.2530422316416
 10
74.52688935853843
 20
-127.124023405719
 10
74.52688935853843
 20
-127.124023405719
 10
74.52688935853843
 20
-127.124023405719
 10
74.52688935853843
 20
-126.2920328460312
 10
74.52688935853843
 20
-126.2920328460312
 10
74.52688935853843
 20
-126.2920328460312
 10
74.72153725345504
 20
-126.2920328460312
 10
74.72153725345504
 20
-126.2920328460312
 10
74.72153725345504
 20
-126.2920328460312
 10
74.72153725345504
 20
-126.9500460837139
 10
74.72153725345504
 20
-126.9500460837139
 10
74.72153725345504
 20
-126.9500460837139
 10
75.14459497904372
 20
-127.0201537768387
 10
75.14459497904372
 20
-127.0201537768387
 10
75.11066078851401
 20
-126.9545247078447
 10
75.07052542611085
 20
-126.8663302634223
 10
75.07052542611085
 20
-126.7397230043394
 10
75.07052542611085
 20
-126.468421734876
 10
75.25673283708859
 20
-126.2152072167101
 10
75.56971976192355
 20
-126.2152072167101
 10
75.88718531088932
 20
-126.2152072167101
 10
76.1219685682091
 20
-126.4549858624835
 10
76.1219685682091
 20
-126.7781358189999
 97
        0
 97
        0
 75
     2
 76
     1
 98
        0
  0
ENDBLK
  5
116
330
113
100
AcDbEntity
  8
0
100
AcDbBlockEnd
  0
BLOCK
  5
138
330
136
100
AcDbEntity
  8
0
100
AcDbBlockBegin
  2
block 7
 70
     0
 10
0.0
 20
0.0
 30
0.0
  3
block 7
  1

  0
SPLINE
  5
13A
330
136
100
AcDbEntity
  8
_U+30EC_U+30A4_U+30E4_U+30FC 1
370
     0
100
AcDbSpline
210
0.0
220
0.0
230
1.0
 70
    11
 71
     3
 72
    62
 73
    58
 74
     0
 42
0.0000000001
 43
0.0000000001
 12
1.0
 22
0.0
 32
0.0
 13
1.0
 23
0.0
 33
0.0
 40
0.0
 40
0.0
 40
0.0
 40
0.0
 40
1.0
 40
1.0
 40
1.0
 40
2.0
 40
2.0
 40
2.0
 40
3.0
 40
3.0
 40
3.0
 40
4.0
 40
4.0
 40
4.0
 40
5.0
 40
5.0
 40
5.0
 40
6.0
 40
6.0
 40
6.0
 40
7.0
 40
7.0
 40
7.0
 40
8.0
 40
8.0
 40
8.0
 40
9.0
 40
9.0
 40
9.0
 40
10.0
 40
10.0
 40
10.0
 40
11.0
 40
11.0
 40
11.0
 40
12.0
 40
12.0
 40
12.0
 40
13.0
 40
13.0
 40
13.0
 40
14.0
 40
14.0
 40
14.0
 40
15.0
 40
15.0
 40
15.0
 40
16.0
 40
16.0
 40
16.0
 40
17.0
 40
17.0
 40
17.0
 40
18.0
 40
18.0
 40
18.0
 40
19.0
 40
19.0
 40
19.0
 40
19.0
 10
96.53467608263716
 20
-132.2830538948806
 30
0.0
 10
96.53467608263716
 20
-132.3846842116955
 30
0.0
 10
96.51366100017715
 20
-132.6175726664984
 30
0.0
 10
96.32762584397365
 20
-132.7508978617776
 30
0.0
 10
96.2153157311545
 20
-132.8301350579383
 30
0.0
 10
96.11609698117931
 20
-132.8346136820691
 30
0.0
 10
96.03134763224217
 20
-132.8390923061999
 30
0.0
 10
96.03134763224217
 20
-132.8390923061999
 30
0.0
 10
96.03134763224217
 20
-132.6041367941059
 30
0.0
 10
96.03134763224217
 20
-132.6041367941059
 30
0.0
 10
96.10541718517504
 20
-132.6017252272662
 30
0.0
 10
96.34002818772055
 20
-132.5903564121649
 30
0.0
 10
96.34002818772055
 20
-132.2875325190114
 30
0.0
 10
96.34002818772055
 20
-132.1404269417913
 30
0.0
 10
96.2704372589185
 20
-131.9778184348875
 30
0.0
 10
96.04202742824644
 20
-131.9778184348875
 30
0.0
 10
95.925583200845
 20
-131.9778184348875
 30
0.0
 10
95.87700735450298
 20
-132.0184705616134
 30
0.0
 10
95.84531247603867
 20
-132.0522324973689
 30
0.0
 10
95.7712429231058
 20
-132.1314696935297
 30
0.0
 10
95.75849606981038
 20
-132.2558376405472
 30
0.0
 10
95.75849606981038
 20
-132.3147487733449
 30
0.0
 10
95.75849606981038
 20
-132.3350748367079
 30
0.0
 10
95.76056312710153
 20
-132.3733153965942
 30
0.0
 10
95.76469724168383
 20
-132.4029432177673
 30
0.0
 10
95.76469724168383
 20
-132.4029432177673
 30
0.0
 10
95.57004934676722
 20
-132.4029432177673
 30
0.0
 10
95.57004934676722
 20
-132.4029432177673
 30
0.0
 10
95.57659502818919
 20
-132.3622910910414
 30
0.0
 10
95.57866208548035
 20
-132.3168158306361
 30
0.0
 10
95.57866208548035
 20
-132.3102701492141
 30
0.0
 10
95.57866208548035
 20
-132.239990201315
 30
0.0
 10
95.5573024934718
 20
-132.0274278098751
 30
0.0
 10
95.32062443363513
 20
-132.0274278098751
 30
0.0
 10
95.14285750659623
 20
-132.0274278098751
 30
0.0
 10
95.08773597883224
 20
-132.1676431961248
 30
0.0
 10
95.08773597883224
 20
-132.2851209521718
 30
0.0
 10
95.08773597883224
 20
-132.5679632915108
 30
0.0
 10
95.32062443363513
 20
-132.5769205397724
 30
0.0
 10
95.39228241972832
 20
-132.5813991639033
 30
0.0
 10
95.39228241972832
 20
-132.5813991639033
 30
0.0
 10
95.39228241972832
 20
-132.798440179474
 30
0.0
 10
95.39228241972832
 20
-132.798440179474
 30
0.0
 10
95.26756996316227
 20
-132.7894829312123
 30
0.0
 10
94.89102102662447
 20
-132.7601996195877
 30
0.0
 10
94.89102102662447
 20
-132.2716850797793
 30
0.0
 10
94.89102102662447
 20
-132.0319064340059
 30
0.0
 10
95.01814505003018
 20
-131.7742132917092
 30
0.0
 10
95.31407875221315
 20
-131.7742132917092
 30
0.0
 10
95.50045841796516
 20
-131.7742132917092
 30
0.0
 10
95.58279620006265
 20
-131.8761881180726
 30
0.0
 10
95.64411889970009
 20
-131.9822970590183
 30
0.0
 10
95.67167966358208
 20
-131.9168402447986
 30
0.0
 10
95.75195038838841
 20
-131.722192349882
 30
0.0
 10
96.02928057495102
 20
-131.722192349882
 30
0.0
 10
96.36758895160256
 20
-131.722192349882
 30
0.0
 10
96.53467608263716
 20
-131.9867756831491
 30
0.0
 10
96.53467608263716
 20
-132.2830538948806
 30
0.0
  0
HATCH
  5
13B
330
136
100
AcDbEntity
  8
_U+30EC_U+30A4_U+30E4_U+30FC 1
 62
     7
420
 16777215
100
AcDbHatch
 10
0.0
 20
0.0
 30
0.0
210
0.0
220
0.0
230
1.0
  2
SOLID
 70
     1
 71
     0
 91
        1
 92
        1
 93
        1
 72
     4
 94
        3
 73
     0
 74
     1
 95
       62
 96
       58
 40
0.0
 40
0.0
 40
0.0
 40
0.0
 40
1.0
 40
1.0
 40
1.0
 40
2.0
 40
2.0
 40
2.0
 40
3.0
 40
3.0
 40
3.0
 40
4.0
 40
4.0
 40
4.0
 40
5.0
 40
5.0
 40
5.0
 40
6.0
 40
6.0
 40
6.0
 40
7.0
 40
7.0
 40
7.0
 40
8.0
 40
8.0
 40
8.0
 40
9.0
 40
9.0
 40
9.0
 40
10.0
 40
10.0
 40
10.0
 40
11.0
 40
11.0
 40
11.0
 40
12.0
 40
12.0
 40
12.0
 40
13.0
 40
13.0
 40
13.0
 40
14.0
 40
14.0
 40
14.0
 40
15.0
 40
15.0
 40
15.0
 40
16.0
 40
16.0
 40
16.0
 40
17.0
 40
17.0
 40
17.0
 40
18.0
 40
18.0
 40
18.0
 40
19.0
 40
19.0
 40
19.0
 40
19.0
 10
96.53467608263716
 20
-132.2830538948806
 10
96.53467608263716
 20
-132.3846842116955
 10
96.51366100017715
 20
-132.6175726664984
 10
96.32762584397365
 20
-132.7508978617776
 10
96.2153157311545
 20
-132.8301350579383
 10
96.11609698117931
 20
-132.8346136820691
 10
96.03134763224217
 20
-132.8390923061999
 10
96.03134763224217
 20
-132.8390923061999
 10
96.03134763224217
 20
-132.6041367941059
 10
96.03134763224217
 20
-132.6041367941059
 10
96.10541718517504
 20
-132.6017252272662
 10
96.34002818772055
 20
-132.5903564121649
 10
96.34002818772055
 20
-132.2875325190114
 10
96.34002818772055
 20
-132.1404269417913
 10
96.2704372589185
 20
-131.9778184348875
 10
96.04202742824644
 20
-131.9778184348875
 10
95.925583200845
 20
-131.9778184348875
 10
95.87700735450298
 20
-132.0184705616134
 10
95.84531247603867
 20
-132.0522324973689
 10
95.7712429231058
 20
-132.1314696935297
 10
95.75849606981038
 20
-132.2558376405472
 10
95.75849606981038
 20
-132.3147487733449
 10
95.75849606981038
 20
-132.3350748367079
 10
95.76056312710153
 20
-132.3733153965942
 10
95.76469724168383
 20
-132.4029432177673
 10
95.76469724168383
 20
-132.4029432177673
 10
95.57004934676722
 20
-132.4029432177673
 10
95.57004934676722
 20
-132.4029432177673
 10
95.57659502818919
 20
-132.3622910910414
 10
95.57866208548035
 20
-132.3168158306361
 10
95.57866208548035
 20
-132.3102701492141
 10
95.57866208548035
 20
-132.239990201315
 10
95.5573024934718
 20
-132.0274278098751
 10
95.32062443363513
 20
-132.0274278098751
 10
95.14285750659623
 20
-132.0274278098751
 10
95.08773597883224
 20
-132.1676431961248
 10
95.08773597883224
 20
-132.2851209521718
 10
95.08773597883224
 20
-132.5679632915108
 10
95.32062443363513
 20
-132.5769205397724
 10
95.39228241972832
 20
-132.5813991639033
 10
95.39228241972832
 20
-132.5813991639033
 10
95.39228241972832
 20
-132.798440179474
 10
95.39228241972832
 20
-132.798440179474
 10
95.26756996316227
 20
-132.7894829312123
 10
94.89102102662447
 20
-132.7601996195877
 10
94.89102102662447
 20
-132.2716850797793
 10
94.89102102662447
 20
-132.0319064340059
 10
95.01814505003018
 20
-131.7742132917092
 10
95.31407875221315
 20
-131.7742132917092
 10
95.50045841796516
 20
-131.7742132917092
 10
95.58279620006265
 20
-131.8761881180726
 10
95.64411889970009
 20
-131.9822970590183
 10
95.67167966358208
 20
-131.9168402447986
 10
95.75195038838841
 20
-131.722192349882
 10
96.02928057495102
 20
-131.722192349882
 10
96.36758895160256
 20
-131.722192349882
 10
96.53467608263716
 20
-131.9867756831491
 10
96.53467608263716
 20
-132.2830538948806
 97
        0
 97
        0
 75
     2
 76
     1
 98
        0
  0
POLYLINE
  5
13C
330
136
100
AcDbEntity
  8
_U+30EC_U+30A4_U+30E4_U+30FC 1
370
     0
100
AcDb2dPolyline
 66
     1
 10
0.0
 20
0.0
 30
0.0
  0
VERTEX
  5
13D
330
13C
100
AcDbEntity
  8
_U+30EC_U+30A4_U+30E4_U+30FC 1
370
     0
100
AcDbVertex
100
AcDb2dVertex
 10
96.484033179004
 20
-131.4865478186909
 30
0.0
  0
VERTEX
  5
13E
330
13C
100
AcDbEntity
  8
_U+30EC_U+30A4_U+30E4_U+30FC 1
370
     0
100
AcDbVertex
100
AcDb2dVertex
 10
96.23219669903223
 20
-131.4865478186909
 30
0.0
  0
VERTEX
  5
13F
330
13C
100
AcDbEntity
  8
_U+30EC_U+30A4_U+30E4_U+30FC 1
370
     0
100
AcDbVertex
100
AcDb2dVertex
 10
96.23219669903223
 20
-131.2174858612929
 30
0.0
  0
VERTEX
  5
140
330
13C
100
AcDbEntity
  8
_U+30EC_U+30A4_U+30E4_U+30FC 1
370
     0
100
AcDbVertex
100
AcDb2dVertex
 10
96.484033179004
 20
-131.2174858612929
 30
0.0
  0
VERTEX
  5
141
330
13C
100
AcDbEntity
  8
_U+30EC_U+30A4_U+30E4_U+30FC 1
370
     0
100
AcDbVertex
100
AcDb2dVertex
 10
96.484033179004
 20
-131.4865478186909
 30
0.0
  0
SEQEND
  5
142
330
13C
100
AcDbEntity
  8
_U+30EC_U+30A4_U+30E4_U+30FC 1
370
     0
  0
HATCH
  5
143
330
136
100
AcDbEntity
  8
_U+30EC_U+30A4_U+30E4_U+30FC 1
 62
     7
420
 16777215
100
AcDbHatch
 10
0.0
 20
0.0
 30
0.0
210
0.0
220
0.0
230
1.0
  2
SOLID
 70
     1
 71
     0
 91
        1
 92
        1
 93
        4
 72
     1
 10
96.484033179004
 20
-131.4865478186909
 11
96.23219669903223
 21
-131.4865478186909
 72
     1
 10
96.23219669903223
 20
-131.4865478186909
 11
96.23219669903223
 21
-131.2174858612929
 72
     1
 10
96.23219669903223
 20
-131.2174858612929
 11
96.484033179004
 21
-131.2174858612929
 72
     1
 10
96.484033179004
 20
-131.2174858612929
 11
96.484033179004
 21
-131.4865478186909
 97
        0
 75
     2
 76
     1
 98
        0
  0
SPLINE
  5
144
330
136
100
AcDbEntity
  8
_U+30EC_U+30A4_U+30E4_U+30FC 1
370
     0
100
AcDbSpline
210
0.0
220
0.0
230
1.0
 70
    11
 71
     3
 72
    53
 73
    49
 74
     0
 42
0.0000000001
 43
0.0000000001
 12
1.0
 22
0.0
 32
0.0
 13
1.0
 23
0.0
 33
0.0
 40
0.0
 40
0.0
 40
0.0
 40
0.0
 40
1.0
 40
1.0
 40
1.0
 40
2.0
 40
2.0
 40
2.0
 40
3.0
 40
3.0
 40
3.0
 40
4.0
 40
4.0
 40
4.0
 40
5.0
 40
5.0
 40
5.0
 40
6.0
 40
6.0
 40
6.0
 40
7.0
 40
7.0
 40
7.0
 40
8.0
 40
8.0
 40
8.0
 40
9.0
 40
9.0
 40
9.0
 40
10.0
 40
10.0
 40
10.0
 40
11.0
 40
11.0
 40
11.0
 40
12.0
 40
12.0
 40
12.0
 40
13.0
 40
13.0
 40
13.0
 40
14.0
 40
14.0
 40
14.0
 40
15.0
 40
15.0
 40
15.0
 40
16.0
 40
16.0
 40
16.0
 40
16.0
 10
96.53467608263716
 20
-130.4506076062762
 30
0.0
 10
96.53467608263716
 20
-130.5343234265678
 30
0.0
 10
96.51779511475945
 20
-130.6424994248047
 30
0.0
 10
96.45440535783085
 20
-130.7513644421386
 30
0.0
 10
96.34450681185137
 20
-130.936710579245
 30
0.0
 10
96.21324867386336
 20
-130.9591036998991
 30
0.0
 10
96.10541718517504
 20
-130.9794297632621
 30
0.0
 10
96.10541718517504
 20
-130.9794297632621
 30
0.0
 10
96.10541718517504
 20
-130.7420626843284
 30
0.0
 10
96.10541718517504
 20
-130.7420626843284
 30
0.0
 10
96.30419919467396
 20
-130.6834960610791
 30
0.0
 10
96.3338270158471
 20
-130.5477592989603
 30
0.0
 10
96.3338270158471
 20
-130.4481960394366
 30
0.0
 10
96.3338270158471
 20
-130.2990234049252
 30
0.0
 10
96.23426375632339
 20
-130.1360703884729
 30
0.0
 10
96.00171981106902
 20
-130.1360703884729
 30
0.0
 10
95.74574921651495
 20
-130.1360703884729
 30
0.0
 10
95.67581377816438
 20
-130.3283067165499
 30
0.0
 10
95.67581377816438
 20
-130.4571532876982
 30
0.0
 10
95.67581377816438
 20
-130.4912597330022
 30
0.0
 10
95.67581377816438
 20
-130.6424994248047
 30
0.0
 10
95.80500485886125
 20
-130.7375840601975
 30
0.0
 10
95.80500485886125
 20
-130.7375840601975
 30
0.0
 10
95.78605683369238
 20
-130.9253417641437
 30
0.0
 10
95.78605683369238
 20
-130.9253417641437
 30
0.0
 10
95.78605683369238
 20
-130.9253417641437
 30
0.0
 10
94.93959687296649
 20
-130.7964951929953
 30
0.0
 10
94.93959687296649
 20
-130.7964951929953
 30
0.0
 10
94.93959687296649
 20
-130.7964951929953
 30
0.0
 10
94.93959687296649
 20
-129.9645046333075
 30
0.0
 10
94.93959687296649
 20
-129.9645046333075
 30
0.0
 10
94.93959687296649
 20
-129.9645046333075
 30
0.0
 10
95.1342447678831
 20
-129.9645046333075
 30
0.0
 10
95.1342447678831
 20
-129.9645046333075
 30
0.0
 10
95.1342447678831
 20
-129.9645046333075
 30
0.0
 10
95.1342447678831
 20
-130.6221733614417
 30
0.0
 10
95.1342447678831
 20
-130.6221733614417
 30
0.0
 10
95.1342447678831
 20
-130.6221733614417
 30
0.0
 10
95.5573024934718
 20
-130.6924533093408
 30
0.0
 10
95.5573024934718
 20
-130.6924533093408
 30
0.0
 10
95.52354055771634
 20
-130.626996495121
 30
0.0
 10
95.48323294053891
 20
-130.5388020506986
 30
0.0
 10
95.48323294053891
 20
-130.4120225368414
 30
0.0
 10
95.48323294053891
 20
-130.1405490126038
 30
0.0
 10
95.66961260629094
 20
-129.8873344944379
 30
0.0
 10
95.98277178590014
 20
-129.8873344944379
 30
0.0
 10
96.30006508009166
 20
-129.8873344944379
 30
0.0
 10
96.53467608263716
 20
-130.1271131402113
 30
0.0
 10
96.53467608263716
 20
-130.4506076062762
 30
0.0
  0
HATCH
  5
145
330
136
100
AcDbEntity
  8
_U+30EC_U+30A4_U+30E4_U+30FC 1
 62
     7
420
 16777215
100
AcDbHatch
 10
0.0
 20
0.0
 30
0.0
210
0.0
220
0.0
230
1.0
  2
SOLID
 70
     1
 71
     0
 91
        1
 92
        1
 93
        1
 72
     4
 94
        3
 73
     0
 74
     1
 95
       53
 96
       49
 40
0.0
 40
0.0
 40
0.0
 40
0.0
 40
1.0
 40
1.0
 40
1.0
 40
2.0
 40
2.0
 40
2.0
 40
3.0
 40
3.0
 40
3.0
 40
4.0
 40
4.0
 40
4.0
 40
5.0
 40
5.0
 40
5.0
 40
6.0
 40
6.0
 40
6.0
 40
7.0
 40
7.0
 40
7.0
 40
8.0
 40
8.0
 40
8.0
 40
9.0
 40
9.0
 40
9.0
 40
10.0
 40
10.0
 40
10.0
 40
11.0
 40
11.0
 40
11.0
 40
12.0
 40
12.0
 40
12.0
 40
13.0
 40
13.0
 40
13.0
 40
14.0
 40
14.0
 40
14.0
 40
15.0
 40
15.0
 40
15.0
 40
16.0
 40
16.0
 40
16.0
 40
16.0
 10
96.53467608263716
 20
-130.4506076062762
 10
96.53467608263716
 20
-130.5343234265678
 10
96.51779511475945
 20
-130.6424994248047
 10
96.45440535783085
 20
-130.7513644421386
 10
96.34450681185137
 20
-130.936710579245
 10
96.21324867386336
 20
-130.9591036998991
 10
96.10541718517504
 20
-130.9794297632621
 10
96.10541718517504
 20
-130.9794297632621
 10
96.10541718517504
 20
-130.7420626843284
 10
96.10541718517504
 20
-130.7420626843284
 10
96.30419919467396
 20
-130.6834960610791
 10
96.3338270158471
 20
-130.5477592989603
 10
96.3338270158471
 20
-130.4481960394366
 10
96.3338270158471
 20
-130.2990234049252
 10
96.23426375632339
 20
-130.1360703884729
 10
96.00171981106902
 20
-130.1360703884729
 10
95.74574921651495
 20
-130.1360703884729
 10
95.67581377816438
 20
-130.3283067165499
 10
95.67581377816438
 20
-130.4571532876982
 10
95.67581377816438
 20
-130.4912597330022
 10
95.67581377816438
 20
-130.6424994248047
 10
95.80500485886125
 20
-130.7375840601975
 10
95.80500485886125
 20
-130.7375840601975
 10
95.78605683369238
 20
-130.9253417641437
 10
95.78605683369238
 20
-130.9253417641437
 10
95.78605683369238
 20
-130.9253417641437
 10
94.93959687296649
 20
-130.7964951929953
 10
94.93959687296649
 20
-130.7964951929953
 10
94.93959687296649
 20
-130.7964951929953
 10
94.93959687296649
 20
-129.9645046333075
 10
94.93959687296649
 20
-129.9645046333075
 10
94.93959687296649
 20
-129.9645046333075
 10
95.1342447678831
 20
-129.9645046333075
 10
95.1342447678831
 20
-129.9645046333075
 10
95.1342447678831
 20
-129.9645046333075
 10
95.1342447678831
 20
-130.6221733614417
 10
95.1342447678831
 20
-130.6221733614417
 10
95.1342447678831
 20
-130.6221733614417
 10
95.5573024934718
 20
-130.6924533093408
 10
95.5573024934718
 20
-130.6924533093408
 10
95.52354055771634
 20
-130.626996495121
 10
95.48323294053891
 20
-130.5388020506986
 10
95.48323294053891
 20
-130.4120225368414
 10
95.48323294053891
 20
-130.1405490126038
 10
95.66961260629094
 20
-129.8873344944379
 10
95.98277178590014
 20
-129.8873344944379
 10
96.30006508009166
 20
-129.8873344944379
 10
96.53467608263716
 20
-130.1271131402113
 10
96.53467608263716
 20
-130.4506076062762
 97
        0
 97
        0
 75
     2
 76
     1
 98
        0
  0
ENDBLK
  5
139
330
136
100
AcDbEntity
  8
0
100
AcDbBlockEnd
  0
BLOCK
  5
150
330
14E
100
AcDbEntity
  8
0
100
AcDbBlockBegin
  2
block 8
 70
     0
 10
0.0
 20
0.0
 30
0.0
  3
block 8
  1

  0
SPLINE
  5
152
330
14E
100
AcDbEntity
  8
_U+30EC_U+30A4_U+30E4_U+30FC 1
370
     0
100
AcDbSpline
210
0.0
220
0.0
230
1.0
 70
    11
 71
     3
 72
    32
 73
    28
 74
     0
 42
0.0000000001
 43
0.0000000001
 12
1.0
 22
0.0
 32
0.0
 13
1.0
 23
0.0
 33
0.0
 40
0.0
 40
0.0
 40
0.0
 40
0.0
 40
1.0
 40
1.0
 40
1.0
 40
2.0
 40
2.0
 40
2.0
 40
3.0
 40
3.0
 40
3.0
 40
4.0
 40
4.0
 40
4.0
 40
5.0
 40
5.0
 40
5.0
 40
6.0
 40
6.0
 40
6.0
 40
7.0
 40
7.0
 40
7.0
 40
8.0
 40
8.0
 40
8.0
 40
9.0
 40
9.0
 40
9.0
 40
9.0
 10
96.53467608263716
 20
-125.6564127290026
 30
0.0
 10
96.53467608263716
 20
-126.2079725161911
 30
0.0
 10
95.980704728609
 20
-126.217102019227
 30
0.0
 10
95.76676429897498
 20
-126.217102019227
 30
0.0
 10
95.53628741101177
 20
-126.217102019227
 30
0.0
 10
94.88895396933331
 20
-126.196775955864
 30
0.0
 10
94.88895396933331
 20
-125.6157606022766
 30
0.0
 10
94.88895396933331
 20
-125.4304144651702
 30
0.0
 10
94.9588894076839
 20
-125.1680704439684
 30
0.0
 10
95.29099661246198
 20
-125.1274183172425
 30
0.0
 10
95.29099661246198
 20
-125.1274183172425
 30
0.0
 10
95.29099661246198
 20
-125.3556558931403
 30
0.0
 10
95.29099661246198
 20
-125.3556558931403
 30
0.0
 10
95.23380802740682
 20
-125.3670247082416
 30
0.0
 10
95.08566892154109
 20
-125.4009588987713
 30
0.0
 10
95.08566892154109
 20
-125.617999914342
 30
0.0
 10
95.08566892154109
 20
-125.9299533105314
 30
0.0
 10
95.41364201173687
 20
-125.973017004097
 30
0.0
 10
95.61862519310924
 20
-125.9864528764895
 30
0.0
 10
95.54042152559407
 20
-125.88706187174
 30
0.0
 10
95.48116588324777
 20
-125.8147148665498
 30
0.0
 10
95.48116588324777
 20
-125.6202392264074
 30
0.0
 10
95.48116588324777
 20
-125.4280028983305
 30
0.0
 10
95.58934188148461
 20
-125.1048529418141
 30
0.0
 10
95.99551863919557
 20
-125.1048529418141
 30
0.0
 10
96.31487899067822
 20
-125.1048529418141
 30
0.0
 10
96.53467608263716
 20
-125.3172430784797
 30
0.0
 10
96.53467608263716
 20
-125.6564127290026
 30
0.0
  0
SPLINE
  5
153
330
14E
100
AcDbEntity
  8
_U+30EC_U+30A4_U+30E4_U+30FC 1
370
     0
100
AcDbSpline
210
0.0
220
0.0
230
1.0
 70
    11
 71
     3
 72
    17
 73
    13
 74
     0
 42
0.0000000001
 43
0.0000000001
 12
1.0
 22
0.0
 32
0.0
 13
1.0
 23
0.0
 33
0.0
 40
0.0
 40
0.0
 40
0.0
 40
0.0
 40
1.0
 40
1.0
 40
1.0
 40
2.0
 40
2.0
 40
2.0
 40
3.0
 40
3.0
 40
3.0
 40
4.0
 40
4.0
 40
4.0
 40
4.0
 10
95.67581377816438
 20
-125.638325977705
 30
0.0
 10
95.67581377816438
 20
-125.9185844954301
 30
0.0
 10
95.88734264095872
 20
-125.9594088769303
 30
0.0
 10
96.00378686836017
 20
-125.9594088769303
 30
0.0
 10
96.17948673810791
 20
-125.9594088769303
 30
0.0
 10
96.34243975456023
 20
-125.8576063053412
 30
0.0
 10
96.34243975456023
 20
-125.6608913531334
 30
0.0
 10
96.34243975456023
 20
-125.5320447819851
 30
0.0
 10
96.28318411221393
 20
-125.3444593328132
 30
0.0
 10
95.99758569648672
 20
-125.3444593328132
 30
0.0
 10
95.77330998039696
 20
-125.3444593328132
 30
0.0
 10
95.67581377816438
 20
-125.4936319673245
 30
0.0
 10
95.67581377816438
 20
-125.638325977705
 30
0.0
  0
HATCH
  5
154
330
14E
100
AcDbEntity
  8
_U+30EC_U+30A4_U+30E4_U+30FC 1
 62
     7
420
 16777215
100
AcDbHatch
 10
0.0
 20
0.0
 30
0.0
210
0.0
220
0.0
230
1.0
  2
SOLID
 70
     1
 71
     0
 91
        2
 92
        1
 93
        1
 72
     4
 94
        3
 73
     0
 74
     1
 95
       32
 96
       28
 40
0.0
 40
0.0
 40
0.0
 40
0.0
 40
1.0
 40
1.0
 40
1.0
 40
2.0
 40
2.0
 40
2.0
 40
3.0
 40
3.0
 40
3.0
 40
4.0
 40
4.0
 40
4.0
 40
5.0
 40
5.0
 40
5.0
 40
6.0
 40
6.0
 40
6.0
 40
7.0
 40
7.0
 40
7.0
 40
8.0
 40
8.0
 40
8.0
 40
9.0
 40
9.0
 40
9.0
 40
9.0
 10
96.53467608263716
 20
-125.6564127290026
 10
96.53467608263716
 20
-126.2079725161911
 10
95.980704728609
 20
-126.217102019227
 10
95.76676429897498
 20
-126.217102019227
 10
95.53628741101177
 20
-126.217102019227
 10
94.88895396933331
 20
-126.196775955864
 10
94.88895396933331
 20
-125.6157606022766
 10
94.88895396933331
 20
-125.4304144651702
 10
94.9588894076839
 20
-125.1680704439684
 10
95.29099661246198
 20
-125.1274183172425
 10
95.29099661246198
 20
-125.1274183172425
 10
95.29099661246198
 20
-125.3556558931403
 10
95.29099661246198
 20
-125.3556558931403
 10
95.23380802740682
 20
-125.3670247082416
 10
95.08566892154109
 20
-125.4009588987713
 10
95.08566892154109
 20
-125.617999914342
 10
95.08566892154109
 20
-125.9299533105314
 10
95.41364201173687
 20
-125.973017004097
 10
95.61862519310924
 20
-125.9864528764895
 10
95.54042152559407
 20
-125.88706187174
 10
95.48116588324777
 20
-125.8147148665498
 10
95.48116588324777
 20
-125.6202392264074
 10
95.48116588324777
 20
-125.4280028983305
 10
95.58934188148461
 20
-125.1048529418141
 10
95.99551863919557
 20
-125.1048529418141
 10
96.31487899067822
 20
-125.1048529418141
 10
96.53467608263716
 20
-125.3172430784797
 10
96.53467608263716
 20
-125.6564127290026
 97
        0
 97
        0
 92
        1
 93
        1
 72
     4
 94
        3
 73
     0
 74
     1
 95
       17
 96
       13
 40
0.0
 40
0.0
 40
0.0
 40
0.0
 40
1.0
 40
1.0
 40
1.0
 40
2.0
 40
2.0
 40
2.0
 40
3.0
 40
3.0
 40
3.0
 40
4.0
 40
4.0
 40
4.0
 40
4.0
 10
95.67581377816438
 20
-125.638325977705
 10
95.67581377816438
 20
-125.9185844954301
 10
95.88734264095872
 20
-125.9594088769303
 10
96.00378686836017
 20
-125.9594088769303
 10
96.17948673810791
 20
-125.9594088769303
 10
96.34243975456023
 20
-125.8576063053412
 10
96.34243975456023
 20
-125.6608913531334
 10
96.34243975456023
 20
-125.5320447819851
 10
96.28318411221393
 20
-125.3444593328132
 10
95.99758569648672
 20
-125.3444593328132
 10
95.77330998039696
 20
-125.3444593328132
 10
95.67581377816438
 20
-125.4936319673245
 10
95.67581377816438
 20
-125.638325977705
 97
        0
 97
        0
 75
     2
 76
     1
 98
        0
  0
ENDBLK
  5
151
330
14E
100
AcDbEntity
  8
0
100
AcDbBlockEnd
  0
ENDSEC
  0
SECTION
  2
ENTITIES
  0
POLYLINE
  5
41
330
1F
100
AcDbEntity
  8
_U+30EC_U+30A4_U+30E4_U+30FC 1
  6
AI-Linetype-1
 62
   154
420
    23468
370
    25
100
AcDb2dPolyline
 66
     1
 10
0.0
 20
0.0
 30
0.0
  0
VERTEX
  5
42
330
41
100
AcDbEntity
  8
_U+30EC_U+30A4_U+30E4_U+30FC 1
  6
AI-Linetype-1
 62
   154
420
    23468
370
    25
100
AcDbVertex
100
AcDb2dVertex
 10
80.63847155385231
 20
-122.0044549694988
 30
0.0
  0
VERTEX
  5
43
330
41
100
AcDbEntity
  8
_U+30EC_U+30A4_U+30E4_U+30FC 1
  6
AI-Linetype-1
 62
   154
420
    23468
370
    25
100
AcDbVertex
100
AcDb2dVertex
 10
82.26802262339011
 20
-122.0044549694988
 30
0.0
  0
VERTEX
  5
44
330
41
100
AcDbEntity
  8
_U+30EC_U+30A4_U+30E4_U+30FC 1
  6
AI-Linetype-1
 62
   154
420
    23468
370
    25
100
AcDbVertex
100
AcDb2dVertex
 10
82.26802262339011
 20
-128.001324412444
 30
0.0
  0
VERTEX
  5
45
330
41
100
AcDbEntity
  8
_U+30EC_U+30A4_U+30E4_U+30FC 1
  6
AI-Linetype-1
 62
   154
420
    23468
370
    25
100
AcDbVertex
100
AcDb2dVertex
 10
88.27349969239985
 20
-128.001324412444
 30
0.0
  0
VERTEX
  5
46
330
41
100
AcDbEntity
  8
_U+30EC_U+30A4_U+30E4_U+30FC 1
  6
AI-Linetype-1
 62
   154
420
    23468
370
    25
100
AcDbVertex
100
AcDb2dVertex
 10
88.27349969239985
 20
-129.4880358009614
 30
0.0
  0
SEQEND
  5
48
330
41
100
AcDbEntity
  8
_U+30EC_U+30A4_U+30E4_U+30FC 1
  6
AI-Linetype-1
 62
   154
420
    23468
370
    25
  0
POLYLINE
  5
49
330
1F
100
AcDbEntity
  8
_U+30EC_U+30A4_U+30E4_U+30FC 1
 62
   179
420
  2234388
370
     9
100
AcDb2dPolyline
 66
     1
 10
0.0
 20
0.0
 30
0.0
  0
VERTEX
  5
4A
330
49
100
AcDbEntity
  8
_U+30EC_U+30A4_U+30E4_U+30FC 1
 62
   179
420
  2234388
370
     9
100
AcDbVertex
100
AcDb2dVertex
 10
86.20989085615801
 20
-127.8693855235882
 30
0.0
  0
VERTEX
  5
4B
330
49
100
AcDbEntity
  8
_U+30EC_U+30A4_U+30E4_U+30FC 1
 62
   179
420
  2234388
370
     9
100
AcDbVertex
100
AcDb2dVertex
 10
91.58993053265807
 20
-120.2277955254987
 30
0.0
  0
VERTEX
  5
4C
330
49
100
AcDbEntity
  8
_U+30EC_U+30A4_U+30E4_U+30FC 1
 62
   179
420
  2234388
370
     9
100
AcDbVertex
100
AcDb2dVertex
 10
107.949294417457
 20
-120.2277955254987
 30
0.0
  0
SEQEND
  5
4D
330
49
100
AcDbEntity
  8
_U+30EC_U+30A4_U+30E4_U+30FC 1
 62
   179
420
  2234388
370
     9
  0
INSERT
  5
4F
330
1F
100
AcDbEntity
  8
_U+30EC_U+30A4_U+30E4_U+30FC 1
100
AcDbBlockReference
  2
block 2
 10
0.0
 20
0.0
 30
0.0
  0
POLYLINE
  5
8C
330
1F
100
AcDbEntity
  8
_U+30EC_U+30A4_U+30E4_U+30FC 1
 62
     7
420
 16777215
370
    25
100
AcDb2dPolyline
 66
     1
 10
0.0
 20
0.0
 30
0.0
  0
VERTEX
  5
8D
330
8C
100
AcDbEntity
  8
_U+30EC_U+30A4_U+30E4_U+30FC 1
 62
     7
420
 16777215
370
    25
100
AcDbVertex
100
AcDb2dVertex
 10
81.66787708314554
 20
-133.101609133391
 30
0.0
  0
VERTEX
  5
8E
330
8C
100
AcDbEntity
  8
_U+30EC_U+30A4_U+30E4_U+30FC 1
 62
     7
420
 16777215
370
    25
100
AcDbVertex
100
AcDb2dVertex
 10
87.66785081896235
 20
-133.101609133391
 30
0.0
  0
SEQEND
  5
8F
330
8C
100
AcDbEntity
  8
_U+30EC_U+30A4_U+30E4_U+30FC 1
 62
     7
420
 16777215
370
    25
  0
POLYLINE
  5
90
330
1F
100
AcDbEntity
  8
_U+30EC_U+30A4_U+30E4_U+30FC 1
 62
     7
420
 16777215
370
    25
100
AcDb2dPolyline
 66
     1
 10
0.0
 20
0.0
 30
0.0
  0
VERTEX
  5
91
330
90
100
AcDbEntity
  8
_U+30EC_U+30A4_U+30E4_U+30FC 1
 62
     7
420
 16777215
370
    25
100
AcDbVertex
100
AcDb2dVertex
 10
81.66787708314554
 20
-129.6017360787107
 30
0.0
  0
VERTEX
  5
92
330
90
100
AcDbEntity
  8
_U+30EC_U+30A4_U+30E4_U+30FC 1
 62
     7
420
 16777215
370
    25
100
AcDbVertex
100
AcDb2dVertex
 10
87.66785081896235
 20
-129.6017360787107
 30
0.0
  0
SEQEND
  5
93
330
90
100
AcDbEntity
  8
_U+30EC_U+30A4_U+30E4_U+30FC 1
 62
     7
420
 16777215
370
    25
  0
POLYLINE
  5
94
330
1F
100
AcDbEntity
  8
_U+30EC_U+30A4_U+30E4_U+30FC 1
 62
     7
420
 16777215
370
    25
100
AcDb2dPolyline
 66
     1
 10
0.0
 20
0.0
 30
0.0
  0
VERTEX
  5
95
330
94
100
AcDbEntity
  8
_U+30EC_U+30A4_U+30E4_U+30FC 1
 62
     7
420
 16777215
370
    25
100
AcDbVertex
100
AcDb2dVertex
 10
81.66787708314554
 20
-134.1017341331413
 30
0.0
  0
VERTEX
  5
96
330
94
100
AcDbEntity
  8
_U+30EC_U+30A4_U+30E4_U+30FC 1
 62
     7
420
 16777215
370
    25
100
AcDbVertex
100
AcDb2dVertex
 10
94.66777314037945
 20
-134.1017341331413
 30
0.0
  0
SEQEND
  5
97
330
94
100
AcDbEntity
  8
_U+30EC_U+30A4_U+30E4_U+30FC 1
 62
     7
420
 16777215
370
    25
  0
POLYLINE
  5
98
330
1F
100
AcDbEntity
  8
_U+30EC_U+30A4_U+30E4_U+30FC 1
 62
     7
420
 16777215
370
    25
100
AcDb2dPolyline
 66
     1
 10
0.0
 20
0.0
 30
0.0
  0
VERTEX
  5
99
330
98
100
AcDbEntity
  8
_U+30EC_U+30A4_U+30E4_U+30FC 1
 62
     7
420
 16777215
370
    25
100
AcDbVertex
100
AcDb2dVertex
 10
80.66743460866896
 20
-122.6014608026828
 30
0.0
  0
VERTEX
  5
9A
330
98
100
AcDbEntity
  8
_U+30EC_U+30A4_U+30E4_U+30FC 1
 62
     7
420
 16777215
370
    25
100
AcDbVertex
100
AcDb2dVertex
 10
80.66743460866896
 20
-133.101609133391
 30
0.0
  0
SEQEND
  5
9B
330
98
100
AcDbEntity
  8
_U+30EC_U+30A4_U+30E4_U+30FC 1
 62
     7
420
 16777215
370
    25
  0
POLYLINE
  5
9C
330
1F
100
AcDbEntity
  8
_U+30EC_U+30A4_U+30E4_U+30FC 1
 62
     7
420
 16777215
370
    25
100
AcDb2dPolyline
 66
     1
 10
0.0
 20
0.0
 30
0.0
  0
VERTEX
  5
9D
330
9C
100
AcDbEntity
  8
_U+30EC_U+30A4_U+30E4_U+30FC 1
 62
     7
420
 16777215
370
    25
100
AcDbVertex
100
AcDb2dVertex
 10
81.66787708314554
 20
-123.6015858024331
 30
0.0
  0
VERTEX
  5
9E
330
9C
100
AcDbEntity
  8
_U+30EC_U+30A4_U+30E4_U+30FC 1
 62
     7
420
 16777215
370
    25
100
AcDbVertex
100
AcDb2dVertex
 10
81.66787708314554
 20
-128.6014699678497
 30
0.0
  0
SEQEND
  5
9F
330
9C
100
AcDbEntity
  8
_U+30EC_U+30A4_U+30E4_U+30FC 1
 62
     7
420
 16777215
370
    25
  0
POLYLINE
  5
A0
330
1F
100
AcDbEntity
  8
_U+30EC_U+30A4_U+30E4_U+30FC 1
 62
     7
420
 16777215
370
    25
100
AcDb2dPolyline
 66
     1
 10
0.0
 20
0.0
 30
0.0
  0
VERTEX
  5
A1
330
A0
100
AcDbEntity
  8
_U+30EC_U+30A4_U+30E4_U+30FC 1
 62
     7
420
 16777215
370
    25
100
AcDbVertex
100
AcDb2dVertex
 10
81.66787708314554
 20
-128.6014699678497
 30
0.0
  0
VERTEX
  5
A2
330
A0
100
AcDbEntity
  8
_U+30EC_U+30A4_U+30E4_U+30FC 1
 62
     7
420
 16777215
370
    25
100
AcDbVertex
100
AcDb2dVertex
 10
86.66740834448576
 20
-128.6014699678497
 30
0.0
  0
SEQEND
  5
A3
330
A0
100
AcDbEntity
  8
_U+30EC_U+30A4_U+30E4_U+30FC 1
 62
     7
420
 16777215
370
    25
  0
POLYLINE
  5
A4
330
1F
100
AcDbEntity
  8
_U+30EC_U+30A4_U+30E4_U+30FC 1
 62
     7
420
 16777215
370
    25
100
AcDb2dPolyline
 66
     1
 10
0.0
 20
0.0
 30
0.0
  0
VERTEX
  5
A5
330
A4
100
AcDbEntity
  8
_U+30EC_U+30A4_U+30E4_U+30FC 1
 62
     7
420
 16777215
370
    25
100
AcDbVertex
100
AcDb2dVertex
 10
81.66787708314554
 20
-129.6017360787107
 30
0.0
  0
VERTEX
  5
A6
330
A4
100
AcDbEntity
  8
_U+30EC_U+30A4_U+30E4_U+30FC 1
 62
     7
420
 16777215
370
    25
100
AcDbVertex
100
AcDb2dVertex
 10
81.66787708314554
 20
-133.101609133391
 30
0.0
  0
SEQEND
  5
A7
330
A4
100
AcDbEntity
  8
_U+30EC_U+30A4_U+30E4_U+30FC 1
 62
     7
420
 16777215
370
    25
  0
POLYLINE
  5
A8
330
1F
100
AcDbEntity
  8
_U+30EC_U+30A4_U+30E4_U+30FC 1
 62
     7
420
 16777215
370
    25
100
AcDb2dPolyline
 66
     1
 10
0.0
 20
0.0
 30
0.0
  0
VERTEX
  5
A9
330
A8
100
AcDbEntity
  8
_U+30EC_U+30A4_U+30E4_U+30FC 1
 62
     7
420
 16777215
370
    25
100
AcDbVertex
100
AcDb2dVertex
 10
88.02613192093295
 20
-133.3017752444526
 30
0.0
  0
VERTEX
  5
AA
330
A8
100
AcDbEntity
  8
_U+30EC_U+30A4_U+30E4_U+30FC 1
 62
     7
420
 16777215
370
    25
100
AcDbVertex
100
AcDb2dVertex
 10
93.86781664319983
 20
-133.3017752444526
 30
0.0
  0
SEQEND
  5
AB
330
A8
100
AcDbEntity
  8
_U+30EC_U+30A4_U+30E4_U+30FC 1
 62
     7
420
 16777215
370
    25
  0
POLYLINE
  5
AC
330
1F
100
AcDbEntity
  8
_U+30EC_U+30A4_U+30E4_U+30FC 1
 62
     7
420
 16777215
370
    25
100
AcDb2dPolyline
 66
     1
 10
0.0
 20
0.0
 30
0.0
  0
VERTEX
  5
AD
330
AC
100
AcDbEntity
  8
_U+30EC_U+30A4_U+30E4_U+30FC 1
 62
     7
420
 16777215
370
    25
100
AcDbVertex
100
AcDb2dVertex
 10
87.66785081896235
 20
-133.101609133391
 30
0.0
  0
VERTEX
  5
AE
330
AC
100
AcDbEntity
  8
_U+30EC_U+30A4_U+30E4_U+30FC 1
 62
     7
420
 16777215
370
    25
100
AcDbVertex
100
AcDb2dVertex
 10
88.01374942124885
 20
-133.3017752444526
 30
0.0
  0
SEQEND
  5
AF
330
AC
100
AcDbEntity
  8
_U+30EC_U+30A4_U+30E4_U+30FC 1
 62
     7
420
 16777215
370
    25
  0
SPLINE
  5
B0
330
1F
100
AcDbEntity
  8
_U+30EC_U+30A4_U+30E4_U+30FC 1
 62
     7
420
 16777215
370
    25
100
AcDbSpline
210
0.0
220
0.0
230
1.0
 70
     8
 71
     3
 72
     8
 73
     4
 74
     0
 42
0.0000000001
 43
0.0000000001
 12
1.0
 22
0.0
 32
0.0
 13
1.0
 23
0.0
 33
0.0
 40
0.0
 40
0.0
 40
0.0
 40
0.0
 40
1.0
 40
1.0
 40
1.0
 40
1.0
 10
80.66743460866896
 20
-133.101609133391
 30
0.0
 10
80.66743460866896
 20
-133.6542002443645
 30
0.0
 10
81.1152859861322
 20
-134.1017341331413
 30
0.0
 10
81.66787708314554
 20
-134.1017341331413
 30
0.0
  0
SPLINE
  5
B1
330
1F
100
AcDbEntity
  8
_U+30EC_U+30A4_U+30E4_U+30FC 1
 62
     7
420
 16777215
370
     9
100
AcDbSpline
210
0.0
220
0.0
230
1.0
 70
    11
 71
     3
 72
    17
 73
    13
 74
     0
 42
0.0000000001
 43
0.0000000001
 12
1.0
 22
0.0
 32
0.0
 13
1.0
 23
0.0
 33
0.0
 40
0.0
 40
0.0
 40
0.0
 40
0.0
 40
1.0
 40
1.0
 40
1.0
 40
2.0
 40
2.0
 40
2.0
 40
3.0
 40
3.0
 40
3.0
 40
4.0
 40
4.0
 40
4.0
 40
4.0
 10
80.7673412727868
 20
-126.8358524682911
 30
0.0
 10
80.7673412727868
 20
-126.780713301638
 30
0.0
 10
80.72253849615203
 20
-126.7359458016495
 30
0.0
 10
80.66743460866896
 20
-126.7359458016495
 30
0.0
 10
80.61229544340901
 20
-126.7359458016495
 30
0.0
 10
80.56752794455112
 20
-126.780713301638
 30
0.0
 10
80.56752794455112
 20
-126.8358524682911
 30
0.0
 10
80.56752794455112
 20
-126.890956357166
 30
0.0
 10
80.61229544340901
 20
-126.9357591349327
 30
0.0
 10
80.66743460866896
 20
-126.9357591349327
 30
0.0
 10
80.72253849615203
 20
-126.9357591349327
 30
0.0
 10
80.7673412727868
 20
-126.890956357166
 30
0.0
 10
80.7673412727868
 20
-126.8358524682911
 30
0.0
  0
SPLINE
  5
B2
330
1F
100
AcDbEntity
  8
_U+30EC_U+30A4_U+30E4_U+30FC 1
 62
     7
420
 16777215
370
     9
100
AcDbSpline
210
0.0
220
0.0
230
1.0
 70
    11
 71
     3
 72
    17
 73
    13
 74
     0
 42
0.0000000001
 43
0.0000000001
 12
1.0
 22
0.0
 32
0.0
 13
1.0
 23
0.0
 33
0.0
 40
0.0
 40
0.0
 40
0.0
 40
0.0
 40
1.0
 40
1.0
 40
1.0
 40
2.0
 40
2.0
 40
2.0
 40
3.0
 40
3.0
 40
3.0
 40
4.0
 40
4.0
 40
4.0
 40
4.0
 10
81.76778374726338
 20
-126.8358524682911
 30
0.0
 10
81.76778374726338
 20
-126.780713301638
 30
0.0
 10
81.72301624840549
 20
-126.7359458016495
 30
0.0
 10
81.66787708314554
 20
-126.7359458016495
 30
0.0
 10
81.61206764012492
 20
-126.7359458016495
 30
0.0
 10
81.56730014126703
 20
-126.780713301638
 30
0.0
 10
81.56730014126703
 20
-126.8358524682911
 30
0.0
 10
81.56730014126703
 20
-126.890956357166
 30
0.0
 10
81.61206764012492
 20
-126.9357591349327
 30
0.0
 10
81.66787708314554
 20
-126.9357591349327
 30
0.0
 10
81.72301624840549
 20
-126.9357591349327
 30
0.0
 10
81.76778374726338
 20
-126.890956357166
 30
0.0
 10
81.76778374726338
 20
-126.8358524682911
 30
0.0
  0
SPLINE
  5
B3
330
1F
100
AcDbEntity
  8
_U+30EC_U+30A4_U+30E4_U+30FC 1
 62
     7
420
 16777215
370
     9
100
AcDbSpline
210
0.0
220
0.0
230
1.0
 70
    11
 71
     3
 72
    17
 73
    13
 74
     0
 42
0.0000000001
 43
0.0000000001
 12
1.0
 22
0.0
 32
0.0
 13
1.0
 23
0.0
 33
0.0
 40
0.0
 40
0.0
 40
0.0
 40
0.0
 40
1.0
 40
1.0
 40
1.0
 40
2.0
 40
2.0
 40
2.0
 40
3.0
 40
3.0
 40
3.0
 40
4.0
 40
4.0
 40
4.0
 40
4.0
 10
94.66777314037945
 20
-138.1018107988078
 30
0.0
 10
94.66777314037945
 20
-138.0467069099329
 30
0.0
 10
94.62300564152157
 20
-138.0019041321661
 30
0.0
 10
94.56786647626161
 20
-138.0019041321661
 30
0.0
 10
94.51276258877854
 20
-138.0019041321661
 30
0.0
 10
94.46795981214377
 20
-138.0467069099329
 30
0.0
 10
94.46795981214377
 20
-138.1018107988078
 30
0.0
 10
94.46795981214377
 20
-138.1569499654609
 30
0.0
 10
94.51276258877854
 20
-138.2017174654494
 30
0.0
 10
94.56786647626161
 20
-138.2017174654494
 30
0.0
 10
94.62300564152157
 20
-138.2017174654494
 30
0.0
 10
94.66777314037945
 20
-138.1569499654609
 30
0.0
 10
94.66777314037945
 20
-138.1018107988078
 30
0.0
  0
SPLINE
  5
B4
330
1F
100
AcDbEntity
  8
_U+30EC_U+30A4_U+30E4_U+30FC 1
 62
     7
420
 16777215
370
     9
100
AcDbSpline
210
0.0
220
0.0
230
1.0
 70
    11
 71
     3
 72
    17
 73
    13
 74
     0
 42
0.0000000001
 43
0.0000000001
 12
1.0
 22
0.0
 32
0.0
 13
1.0
 23
0.0
 33
0.0
 40
0.0
 40
0.0
 40
0.0
 40
0.0
 40
1.0
 40
1.0
 40
1.0
 40
2.0
 40
2.0
 40
2.0
 40
3.0
 40
3.0
 40
3.0
 40
4.0
 40
4.0
 40
4.0
 40
4.0
 10
80.7673412727868
 20
-138.1018107988078
 30
0.0
 10
80.7673412727868
 20
-138.0467069099329
 30
0.0
 10
80.72253849615203
 20
-138.0019041321661
 30
0.0
 10
80.66743460866896
 20
-138.0019041321661
 30
0.0
 10
80.61229544340901
 20
-138.0019041321661
 30
0.0
 10
80.56752794455112
 20
-138.0467069099329
 30
0.0
 10
80.56752794455112
 20
-138.1018107988078
 30
0.0
 10
80.56752794455112
 20
-138.1569499654609
 30
0.0
 10
80.61229544340901
 20
-138.2017174654494
 30
0.0
 10
80.66743460866896
 20
-138.2017174654494
 30
0.0
 10
80.72253849615203
 20
-138.2017174654494
 30
0.0
 10
80.7673412727868
 20
-138.1569499654609
 30
0.0
 10
80.7673412727868
 20
-138.1018107988078
 30
0.0
  0
SPLINE
  5
B5
330
1F
100
AcDbEntity
  8
_U+30EC_U+30A4_U+30E4_U+30FC 1
 62
     7
420
 16777215
370
    25
100
AcDbSpline
210
0.0
220
0.0
230
1.0
 70
     8
 71
     3
 72
     8
 73
     4
 74
     0
 42
0.0000000001
 43
0.0000000001
 12
1.0
 22
0.0
 32
0.0
 13
1.0
 23
0.0
 33
0.0
 40
0.0
 40
0.0
 40
0.0
 40
0.0
 40
1.0
 40
1.0
 40
1.0
 40
1.0
 10
81.66787708314554
 20
-123.6012330246554
 30
0.0
 10
81.66787708314554
 20
-123.0493474692377
 30
0.0
 10
81.22002775747262
 20
-122.6014608026828
 30
0.0
 10
80.66743460866896
 20
-122.6014608026828
 30
0.0
  0
SPLINE
  5
B6
330
1F
100
AcDbEntity
  8
_U+30EC_U+30A4_U+30E4_U+30FC 1
 62
     7
420
 16777215
370
    25
100
AcDbSpline
210
0.0
220
0.0
230
1.0
 70
     8
 71
     3
 72
     8
 73
     4
 74
     0
 42
0.0000000001
 43
0.0000000001
 12
1.0
 22
0.0
 32
0.0
 13
1.0
 23
0.0
 33
0.0
 40
0.0
 40
0.0
 40
0.0
 40
0.0
 40
1.0
 40
1.0
 40
1.0
 40
1.0
 10
87.66785081896235
 20
-129.6017360787107
 30
0.0
 10
87.66785081896235
 20
-129.0491449677378
 30
0.0
 10
87.2199994414991
 20
-128.6014699678497
 30
0.0
 10
86.66740834448576
 20
-128.6014699678497
 30
0.0
  0
SPLINE
  5
B7
330
1F
100
AcDbEntity
  8
_U+30EC_U+30A4_U+30E4_U+30FC 1
 62
     7
420
 16777215
370
    25
100
AcDbSpline
210
0.0
220
0.0
230
1.0
 70
     8
 71
     3
 72
     8
 73
     4
 74
     0
 42
0.0000000001
 43
0.0000000001
 12
1.0
 22
0.0
 32
0.0
 13
1.0
 23
0.0
 33
0.0
 40
0.0
 40
0.0
 40
0.0
 40
0.0
 40
1.0
 40
1.0
 40
1.0
 40
1.0
 10
94.66777314037945
 20
-134.1017341331413
 30
0.0
 10
94.66777314037945
 20
-133.6600563554738
 30
0.0
 10
94.30949442086734
 20
-133.3017752444526
 30
0.0
 10
93.86781664319983
 20
-133.3017752444526
 30
0.0
  0
SPLINE
  5
B8
330
1F
100
AcDbEntity
  8
_U+30EC_U+30A4_U+30E4_U+30FC 1
 62
     7
420
 16777215
370
     9
100
AcDbSpline
210
0.0
220
0.0
230
1.0
 70
    11
 71
     3
 72
    17
 73
    13
 74
     0
 42
0.0000000001
 43
0.0000000001
 12
1.0
 22
0.0
 32
0.0
 13
1.0
 23
0.0
 33
0.0
 40
0.0
 40
0.0
 40
0.0
 40
0.0
 40
1.0
 40
1.0
 40
1.0
 40
2.0
 40
2.0
 40
2.0
 40
3.0
 40
3.0
 40
3.0
 40
4.0
 40
4.0
 40
4.0
 40
4.0
 10
76.76758220816248
 20
-122.6014608026828
 30
0.0
 10
76.76758220816248
 20
-122.5463569138079
 30
0.0
 10
76.72277943152771
 20
-122.5015541360412
 30
0.0
 10
76.66767554404464
 20
-122.5015541360412
 30
0.0
 10
76.6125363787847
 20
-122.5015541360412
 30
0.0
 10
76.5677688799268
 20
-122.5463569138079
 30
0.0
 10
76.5677688799268
 20
-122.6014608026828
 30
0.0
 10
76.5677688799268
 20
-122.6565999693359
 30
0.0
 10
76.6125363787847
 20
-122.7013674693248
 30
0.0
 10
76.66767554404464
 20
-122.7013674693248
 30
0.0
 10
76.72277943152771
 20
-122.7013674693248
 30
0.0
 10
76.76758220816248
 20
-122.6565999693359
 30
0.0
 10
76.76758220816248
 20
-122.6014608026828
 30
0.0
  0
SPLINE
  5
B9
330
1F
100
AcDbEntity
  8
_U+30EC_U+30A4_U+30E4_U+30FC 1
 62
     7
420
 16777215
370
     9
100
AcDbSpline
210
0.0
220
0.0
230
1.0
 70
    11
 71
     3
 72
    17
 73
    13
 74
     0
 42
0.0000000001
 43
0.0000000001
 12
1.0
 22
0.0
 32
0.0
 13
1.0
 23
0.0
 33
0.0
 40
0.0
 40
0.0
 40
0.0
 40
0.0
 40
1.0
 40
1.0
 40
1.0
 40
2.0
 40
2.0
 40
2.0
 40
3.0
 40
3.0
 40
3.0
 40
4.0
 40
4.0
 40
4.0
 40
4.0
 10
76.76758220816248
 20
-134.1017341331413
 30
0.0
 10
76.76758220816248
 20
-134.0465949664882
 30
0.0
 10
76.72277943152771
 20
-134.0018274664996
 30
0.0
 10
76.66767554404464
 20
-134.0018274664996
 30
0.0
 10
76.6125363787847
 20
-134.0018274664996
 30
0.0
 10
76.5677688799268
 20
-134.0465949664882
 30
0.0
 10
76.5677688799268
 20
-134.1017341331413
 30
0.0
 10
76.5677688799268
 20
-134.157190799794
 30
0.0
 10
76.6125363787847
 20
-134.2019582997832
 30
0.0
 10
76.66767554404464
 20
-134.2019582997832
 30
0.0
 10
76.72277943152771
 20
-134.2019582997832
 30
0.0
 10
76.76758220816248
 20
-134.157190799794
 30
0.0
 10
76.76758220816248
 20
-134.1017341331413
 30
0.0
  0
SPLINE
  5
BA
330
1F
100
AcDbEntity
  8
_U+30EC_U+30A4_U+30E4_U+30FC 1
 62
     7
420
 16777215
370
     9
100
AcDbSpline
210
0.0
220
0.0
230
1.0
 70
    11
 71
     3
 72
    17
 73
    13
 74
     0
 42
0.0000000001
 43
0.0000000001
 12
1.0
 22
0.0
 32
0.0
 13
1.0
 23
0.0
 33
0.0
 40
0.0
 40
0.0
 40
0.0
 40
0.0
 40
1.0
 40
1.0
 40
1.0
 40
2.0
 40
2.0
 40
2.0
 40
3.0
 40
3.0
 40
3.0
 40
4.0
 40
4.0
 40
4.0
 40
4.0
 10
97.1799389096221
 20
-133.101609133391
 30
0.0
 10
97.1799389096221
 20
-133.0464699667385
 30
0.0
 10
97.13517141076422
 20
-133.0017024667494
 30
0.0
 10
97.08003224550426
 20
-133.0017024667494
 30
0.0
 10
97.02492835802119
 20
-133.0017024667494
 30
0.0
 10
96.98012558138643
 20
-133.0464699667385
 30
0.0
 10
96.98012558138643
 20
-133.101609133391
 30
0.0
 10
96.98012558138643
 20
-133.1570658000443
 30
0.0
 10
97.02492835802119
 20
-133.2018685778104
 30
0.0
 10
97.08003224550426
 20
-133.2018685778104
 30
0.0
 10
97.13517141076422
 20
-133.2018685778104
 30
0.0
 10
97.1799389096221
 20
-133.1570658000443
 30
0.0
 10
97.1799389096221
 20
-133.101609133391
 30
0.0
  0
SPLINE
  5
BB
330
1F
100
AcDbEntity
  8
_U+30EC_U+30A4_U+30E4_U+30FC 1
 62
     7
420
 16777215
370
     9
100
AcDbSpline
210
0.0
220
0.0
230
1.0
 70
    11
 71
     3
 72
    17
 73
    13
 74
     0
 42
0.0000000001
 43
0.0000000001
 12
1.0
 22
0.0
 32
0.0
 13
1.0
 23
0.0
 33
0.0
 40
0.0
 40
0.0
 40
0.0
 40
0.0
 40
1.0
 40
1.0
 40
1.0
 40
2.0
 40
2.0
 40
2.0
 40
3.0
 40
3.0
 40
3.0
 40
4.0
 40
4.0
 40
4.0
 40
4.0
 10
97.1799389096221
 20
-129.6017360787107
 30
0.0
 10
97.1799389096221
 20
-129.5466321898358
 30
0.0
 10
97.13517141076422
 20
-129.501829412069
 30
0.0
 10
97.08003224550426
 20
-129.501829412069
 30
0.0
 10
97.02492835802119
 20
-129.501829412069
 30
0.0
 10
96.98012558138643
 20
-129.5466321898358
 30
0.0
 10
96.98012558138643
 20
-129.6017360787107
 30
0.0
 10
96.98012558138643
 20
-129.6568752453638
 30
0.0
 10
97.02492835802119
 20
-129.7016427453523
 30
0.0
 10
97.08003224550426
 20
-129.7016427453523
 30
0.0
 10
97.13517141076422
 20
-129.7016427453523
 30
0.0
 10
97.1799389096221
 20
-129.6568752453638
 30
0.0
 10
97.1799389096221
 20
-129.6017360787107
 30
0.0
  0
SPLINE
  5
BC
330
1F
100
AcDbEntity
  8
_U+30EC_U+30A4_U+30E4_U+30FC 1
 62
     7
420
 16777215
370
     9
100
AcDbSpline
210
0.0
220
0.0
230
1.0
 70
    11
 71
     3
 72
    17
 73
    13
 74
     0
 42
0.0000000001
 43
0.0000000001
 12
1.0
 22
0.0
 32
0.0
 13
1.0
 23
0.0
 33
0.0
 40
0.0
 40
0.0
 40
0.0
 40
0.0
 40
1.0
 40
1.0
 40
1.0
 40
2.0
 40
2.0
 40
2.0
 40
3.0
 40
3.0
 40
3.0
 40
4.0
 40
4.0
 40
4.0
 40
4.0
 10
97.1799389096221
 20
-122.6014608026828
 30
0.0
 10
97.1799389096221
 20
-122.5463569138079
 30
0.0
 10
97.13517141076422
 20
-122.5015541360412
 30
0.0
 10
97.08003224550426
 20
-122.5015541360412
 30
0.0
 10
97.02492835802119
 20
-122.5015541360412
 30
0.0
 10
96.98012558138643
 20
-122.5463569138079
 30
0.0
 10
96.98012558138643
 20
-122.6014608026828
 30
0.0
 10
96.98012558138643
 20
-122.6565999693359
 30
0.0
 10
97.02492835802119
 20
-122.7013674693248
 30
0.0
 10
97.08003224550426
 20
-122.7013674693248
 30
0.0
 10
97.13517141076422
 20
-122.7013674693248
 30
0.0
 10
97.1799389096221
 20
-122.6565999693359
 30
0.0
 10
97.1799389096221
 20
-122.6014608026828
 30
0.0
  0
POLYLINE
  5
BD
330
1F
100
AcDbEntity
  8
_U+30EC_U+30A4_U+30E4_U+30FC 1
 62
     7
420
 16777215
370
     9
100
AcDb2dPolyline
 66
     1
 10
0.0
 20
0.0
 30
0.0
  0
VERTEX
  5
BE
330
BD
100
AcDbEntity
  8
_U+30EC_U+30A4_U+30E4_U+30FC 1
 62
     7
420
 16777215
370
     9
100
AcDbVertex
100
AcDb2dVertex
 10
81.66787708314554
 20
-126.8358524682911
 30
0.0
  0
VERTEX
  5
BF
330
BD
100
AcDbEntity
  8
_U+30EC_U+30A4_U+30E4_U+30FC 1
 62
     7
420
 16777215
370
     9
100
AcDbVertex
100
AcDb2dVertex
 10
85.43819164530709
 20
-126.8358524682911
 30
0.0
  0
SEQEND
  5
C0
330
BD
100
AcDbEntity
  8
_U+30EC_U+30A4_U+30E4_U+30FC 1
 62
     7
420
 16777215
370
     9
  0
POLYLINE
  5
C1
330
1F
100
AcDbEntity
  8
_U+30EC_U+30A4_U+30E4_U+30FC 1
 62
     7
420
 16777215
370
     9
100
AcDb2dPolyline
 66
     1
 10
0.0
 20
0.0
 30
0.0
  0
VERTEX
  5
C2
330
C1
100
AcDbEntity
  8
_U+30EC_U+30A4_U+30E4_U+30FC 1
 62
     7
420
 16777215
370
     9
100
AcDbVertex
100
AcDb2dVertex
 10
79.66766241195305
 20
-126.8358524682911
 30
0.0
  0
VERTEX
  5
C3
330
C1
100
AcDbEntity
  8
_U+30EC_U+30A4_U+30E4_U+30FC 1
 62
     7
420
 16777215
370
     9
100
AcDbVertex
100
AcDb2dVertex
 10
81.66787708314554
 20
-126.8358524682911
 30
0.0
  0
SEQEND
  5
C4
330
C1
100
AcDbEntity
  8
_U+30EC_U+30A4_U+30E4_U+30FC 1
 62
     7
420
 16777215
370
     9
  0
INSERT
  5
C6
330
1F
100
AcDbEntity
  8
_U+30EC_U+30A4_U+30E4_U+30FC 1
100
AcDbBlockReference
  2
block 3
 10
0.0
 20
0.0
 30
0.0
  0
POLYLINE
  5
CB
330
1F
100
AcDbEntity
  8
_U+30EC_U+30A4_U+30E4_U+30FC 1
 62
     7
420
 16777215
370
     9
100
AcDb2dPolyline
 66
     1
 10
0.0
 20
0.0
 30
0.0
  0
VERTEX
  5
CC
330
CB
100
AcDbEntity
  8
_U+30EC_U+30A4_U+30E4_U+30FC 1
 62
     7
420
 16777215
370
     9
100
AcDbVertex
100
AcDb2dVertex
 10
80.66743460866896
 20
-138.1018107988078
 30
0.0
  0
VERTEX
  5
CD
330
CB
100
AcDbEntity
  8
_U+30EC_U+30A4_U+30E4_U+30FC 1
 62
     7
420
 16777215
370
     9
100
AcDbVertex
100
AcDb2dVertex
 10
94.66777314037945
 20
-138.1018107988078
 30
0.0
  0
SEQEND
  5
CE
330
CB
100
AcDbEntity
  8
_U+30EC_U+30A4_U+30E4_U+30FC 1
 62
     7
420
 16777215
370
     9
  0
POLYLINE
  5
CF
330
1F
100
AcDbEntity
  8
_U+30EC_U+30A4_U+30E4_U+30FC 1
 62
     7
420
 16777215
370
     9
100
AcDb2dPolyline
 66
     1
 10
0.0
 20
0.0
 30
0.0
  0
VERTEX
  5
D0
330
CF
100
AcDbEntity
  8
_U+30EC_U+30A4_U+30E4_U+30FC 1
 62
     7
420
 16777215
370
     9
100
AcDbVertex
100
AcDb2dVertex
 10
80.66743460866896
 20
-135.6416796883119
 30
0.0
  0
VERTEX
  5
D1
330
CF
100
AcDbEntity
  8
_U+30EC_U+30A4_U+30E4_U+30FC 1
 62
     7
420
 16777215
370
     9
100
AcDbVertex
100
AcDb2dVertex
 10
80.66743460866896
 20
-139.1019357985581
 30
0.0
  0
SEQEND
  5
D2
330
CF
100
AcDbEntity
  8
_U+30EC_U+30A4_U+30E4_U+30FC 1
 62
     7
420
 16777215
370
     9
  0
POLYLINE
  5
D3
330
1F
100
AcDbEntity
  8
_U+30EC_U+30A4_U+30E4_U+30FC 1
 62
     7
420
 16777215
370
     9
100
AcDb2dPolyline
 66
     1
 10
0.0
 20
0.0
 30
0.0
  0
VERTEX
  5
D4
330
D3
100
AcDbEntity
  8
_U+30EC_U+30A4_U+30E4_U+30FC 1
 62
     7
420
 16777215
370
     9
100
AcDbVertex
100
AcDb2dVertex
 10
94.56786647626161
 20
-135.6416796883119
 30
0.0
  0
VERTEX
  5
D5
330
D3
100
AcDbEntity
  8
_U+30EC_U+30A4_U+30E4_U+30FC 1
 62
     7
420
 16777215
370
     9
100
AcDbVertex
100
AcDb2dVertex
 10
94.56786647626161
 20
-139.1019357985581
 30
0.0
  0
SEQEND
  5
D6
330
D3
100
AcDbEntity
  8
_U+30EC_U+30A4_U+30E4_U+30FC 1
 62
     7
420
 16777215
370
     9
  0
INSERT
  5
D8
330
1F
100
AcDbEntity
  8
_U+30EC_U+30A4_U+30E4_U+30FC 1
100
AcDbBlockReference
  2
block 4
 10
0.0
 20
0.0
 30
0.0
  0
SPLINE
  5
F2
330
1F
100
AcDbEntity
  8
_U+30EC_U+30A4_U+30E4_U+30FC 1
 62
     7
420
 16777215
370
     9
100
AcDbSpline
210
0.0
220
0.0
230
1.0
 70
    11
 71
     3
 72
    17
 73
    13
 74
     0
 42
0.0000000001
 43
0.0000000001
 12
1.0
 22
0.0
 32
0.0
 13
1.0
 23
0.0
 33
0.0
 40
0.0
 40
0.0
 40
0.0
 40
0.0
 40
1.0
 40
1.0
 40
1.0
 40
2.0
 40
2.0
 40
2.0
 40
3.0
 40
3.0
 40
3.0
 40
4.0
 40
4.0
 40
4.0
 40
4.0
 10
87.86766414719801
 20
-120.5816316365213
 30
0.0
 10
87.86766414719801
 20
-120.5264924698685
 30
0.0
 10
87.82289664834013
 20
-120.4816896921018
 30
0.0
 10
87.76775748308019
 20
-120.4816896921018
 30
0.0
 10
87.71265359559712
 20
-120.4816896921018
 30
0.0
 10
87.66785081896235
 20
-120.5264924698685
 30
0.0
 10
87.66785081896235
 20
-120.5816316365213
 30
0.0
 10
87.66785081896235
 20
-120.6367355253965
 30
0.0
 10
87.71265359559712
 20
-120.6815383031629
 30
0.0
 10
87.76775748308019
 20
-120.6815383031629
 30
0.0
 10
87.82289664834013
 20
-120.6815383031629
 30
0.0
 10
87.86766414719801
 20
-120.6367355253965
 30
0.0
 10
87.86766414719801
 20
-120.5816316365213
 30
0.0
  0
SPLINE
  5
F3
330
1F
100
AcDbEntity
  8
_U+30EC_U+30A4_U+30E4_U+30FC 1
 62
     7
420
 16777215
370
     9
100
AcDbSpline
210
0.0
220
0.0
230
1.0
 70
    11
 71
     3
 72
    17
 73
    13
 74
     0
 42
0.0000000001
 43
0.0000000001
 12
1.0
 22
0.0
 32
0.0
 13
1.0
 23
0.0
 33
0.0
 40
0.0
 40
0.0
 40
0.0
 40
0.0
 40
1.0
 40
1.0
 40
1.0
 40
2.0
 40
2.0
 40
2.0
 40
3.0
 40
3.0
 40
3.0
 40
4.0
 40
4.0
 40
4.0
 40
4.0
 10
81.86769041138122
 20
-120.5816316365213
 30
0.0
 10
81.86769041138122
 20
-120.5264924698685
 30
0.0
 10
81.82292497954438
 20
-120.4816896921018
 30
0.0
 10
81.76778374726338
 20
-120.4816896921018
 30
0.0
 10
81.71267985978031
 20
-120.4816896921018
 30
0.0
 10
81.66787708314554
 20
-120.5264924698685
 30
0.0
 10
81.66787708314554
 20
-120.5816316365213
 30
0.0
 10
81.66787708314554
 20
-120.6367355253965
 30
0.0
 10
81.71267985978031
 20
-120.6815383031629
 30
0.0
 10
81.76778374726338
 20
-120.6815383031629
 30
0.0
 10
81.82292497954438
 20
-120.6815383031629
 30
0.0
 10
81.86769041138122
 20
-120.6367355253965
 30
0.0
 10
81.86769041138122
 20
-120.5816316365213
 30
0.0
  0
POLYLINE
  5
F4
330
1F
100
AcDbEntity
  8
_U+30EC_U+30A4_U+30E4_U+30FC 1
 62
     7
420
 16777215
370
     9
100
AcDb2dPolyline
 66
     1
 10
0.0
 20
0.0
 30
0.0
  0
VERTEX
  5
F5
330
F4
100
AcDbEntity
  8
_U+30EC_U+30A4_U+30E4_U+30FC 1
 62
     7
420
 16777215
370
     9
100
AcDbVertex
100
AcDb2dVertex
 10
81.76778374726338
 20
-120.5816316365213
 30
0.0
  0
VERTEX
  5
F6
330
F4
100
AcDbEntity
  8
_U+30EC_U+30A4_U+30E4_U+30FC 1
 62
     7
420
 16777215
370
     9
100
AcDbVertex
100
AcDb2dVertex
 10
87.76775748308019
 20
-120.5816316365213
 30
0.0
  0
SEQEND
  5
F7
330
F4
100
AcDbEntity
  8
_U+30EC_U+30A4_U+30E4_U+30FC 1
 62
     7
420
 16777215
370
     9
  0
POLYLINE
  5
F8
330
1F
100
AcDbEntity
  8
_U+30EC_U+30A4_U+30E4_U+30FC 1
 62
     7
420
 16777215
370
     9
100
AcDb2dPolyline
 66
     1
 10
0.0
 20
0.0
 30
0.0
  0
VERTEX
  5
F9
330
F8
100
AcDbEntity
  8
_U+30EC_U+30A4_U+30E4_U+30FC 1
 62
     7
420
 16777215
370
     9
100
AcDbVertex
100
AcDb2dVertex
 10
81.76778374726338
 20
-119.1215902479972
 30
0.0
  0
VERTEX
  5
FA
330
F8
100
AcDbEntity
  8
_U+30EC_U+30A4_U+30E4_U+30FC 1
 62
     7
420
 16777215
370
     9
100
AcDbVertex
100
AcDb2dVertex
 10
81.76778374726338
 20
-121.5817213584934
 30
0.0
  0
SEQEND
  5
FB
330
F8
100
AcDbEntity
  8
_U+30EC_U+30A4_U+30E4_U+30FC 1
 62
     7
420
 16777215
370
     9
  0
POLYLINE
  5
FC
330
1F
100
AcDbEntity
  8
_U+30EC_U+30A4_U+30E4_U+30FC 1
 62
     7
420
 16777215
370
     9
100
AcDb2dPolyline
 66
     1
 10
0.0
 20
0.0
 30
0.0
  0
VERTEX
  5
FD
330
FC
100
AcDbEntity
  8
_U+30EC_U+30A4_U+30E4_U+30FC 1
 62
     7
420
 16777215
370
     9
100
AcDbVertex
100
AcDb2dVertex
 10
87.76775748308019
 20
-119.1215902479972
 30
0.0
  0
VERTEX
  5
FE
330
FC
100
AcDbEntity
  8
_U+30EC_U+30A4_U+30E4_U+30FC 1
 62
     7
420
 16777215
370
     9
100
AcDbVertex
100
AcDb2dVertex
 10
87.76775748308019
 20
-121.5817213584934
 30
0.0
  0
SEQEND
  5
FF
330
FC
100
AcDbEntity
  8
_U+30EC_U+30A4_U+30E4_U+30FC 1
 62
     7
420
 16777215
370
     9
  0
INSERT
  5
101
330
1F
100
AcDbEntity
  8
_U+30EC_U+30A4_U+30E4_U+30FC 1
100
AcDbBlockReference
  2
block 5
 10
0.0
 20
0.0
 30
0.0
  0
POLYLINE
  5
107
330
1F
100
AcDbEntity
  8
_U+30EC_U+30A4_U+30E4_U+30FC 1
 62
     7
420
 16777215
370
     9
100
AcDb2dPolyline
 66
     1
 10
0.0
 20
0.0
 30
0.0
  0
VERTEX
  5
108
330
107
100
AcDbEntity
  8
_U+30EC_U+30A4_U+30E4_U+30FC 1
 62
     7
420
 16777215
370
     9
100
AcDbVertex
100
AcDb2dVertex
 10
76.66767554404464
 20
-134.1017341331413
 30
0.0
  0
VERTEX
  5
109
330
107
100
AcDbEntity
  8
_U+30EC_U+30A4_U+30E4_U+30FC 1
 62
     7
420
 16777215
370
     9
100
AcDbVertex
100
AcDb2dVertex
 10
76.66767554404464
 20
-122.6014608026828
 30
0.0
  0
SEQEND
  5
10A
330
107
100
AcDbEntity
  8
_U+30EC_U+30A4_U+30E4_U+30FC 1
 62
     7
420
 16777215
370
     9
  0
POLYLINE
  5
10B
330
1F
100
AcDbEntity
  8
_U+30EC_U+30A4_U+30E4_U+30FC 1
 62
     7
420
 16777215
370
     9
100
AcDb2dPolyline
 66
     1
 10
0.0
 20
0.0
 30
0.0
  0
VERTEX
  5
10C
330
10B
100
AcDbEntity
  8
_U+30EC_U+30A4_U+30E4_U+30FC 1
 62
     7
420
 16777215
370
     9
100
AcDbVertex
100
AcDb2dVertex
 10
79.1274538146238
 20
-134.1017341331413
 30
0.0
  0
VERTEX
  5
10D
330
10B
100
AcDbEntity
  8
_U+30EC_U+30A4_U+30E4_U+30FC 1
 62
     7
420
 16777215
370
     9
100
AcDbVertex
100
AcDb2dVertex
 10
75.66790334732873
 20
-134.1017341331413
 30
0.0
  0
SEQEND
  5
10E
330
10B
100
AcDbEntity
  8
_U+30EC_U+30A4_U+30E4_U+30FC 1
 62
     7
420
 16777215
370
     9
  0
POLYLINE
  5
10F
330
1F
100
AcDbEntity
  8
_U+30EC_U+30A4_U+30E4_U+30FC 1
 62
     7
420
 16777215
370
     9
100
AcDb2dPolyline
 66
     1
 10
0.0
 20
0.0
 30
0.0
  0
VERTEX
  5
110
330
10F
100
AcDbEntity
  8
_U+30EC_U+30A4_U+30E4_U+30FC 1
 62
     7
420
 16777215
370
     9
100
AcDbVertex
100
AcDb2dVertex
 10
78.12771689568477
 20
-122.6014608026828
 30
0.0
  0
VERTEX
  5
111
330
10F
100
AcDbEntity
  8
_U+30EC_U+30A4_U+30E4_U+30FC 1
 62
     7
420
 16777215
370
     9
100
AcDbVertex
100
AcDb2dVertex
 10
75.66790334732873
 20
-122.6014608026828
 30
0.0
  0
SEQEND
  5
112
330
10F
100
AcDbEntity
  8
_U+30EC_U+30A4_U+30E4_U+30FC 1
 62
     7
420
 16777215
370
     9
  0
INSERT
  5
114
330
1F
100
AcDbEntity
  8
_U+30EC_U+30A4_U+30E4_U+30FC 1
100
AcDbBlockReference
  2
block 6
 10
0.0
 20
0.0
 30
0.0
  0
POLYLINE
  5
125
330
1F
100
AcDbEntity
  8
_U+30EC_U+30A4_U+30E4_U+30FC 1
 62
     7
420
 16777215
370
     9
100
AcDb2dPolyline
 66
     1
 10
0.0
 20
0.0
 30
0.0
  0
VERTEX
  5
126
330
125
100
AcDbEntity
  8
_U+30EC_U+30A4_U+30E4_U+30FC 1
 62
     7
420
 16777215
370
     9
100
AcDbVertex
100
AcDb2dVertex
 10
97.08003224550426
 20
-133.101609133391
 30
0.0
  0
VERTEX
  5
127
330
125
100
AcDbEntity
  8
_U+30EC_U+30A4_U+30E4_U+30FC 1
 62
     7
420
 16777215
370
     9
100
AcDbVertex
100
AcDb2dVertex
 10
97.08003224550426
 20
-129.6017360787107
 30
0.0
  0
SEQEND
  5
128
330
125
100
AcDbEntity
  8
_U+30EC_U+30A4_U+30E4_U+30FC 1
 62
     7
420
 16777215
370
     9
  0
POLYLINE
  5
129
330
1F
100
AcDbEntity
  8
_U+30EC_U+30A4_U+30E4_U+30FC 1
 62
     7
420
 16777215
370
     9
100
AcDb2dPolyline
 66
     1
 10
0.0
 20
0.0
 30
0.0
  0
VERTEX
  5
12A
330
129
100
AcDbEntity
  8
_U+30EC_U+30A4_U+30E4_U+30FC 1
 62
     7
420
 16777215
370
     9
100
AcDbVertex
100
AcDb2dVertex
 10
90.61961296587884
 20
-133.101609133391
 30
0.0
  0
VERTEX
  5
12B
330
129
100
AcDbEntity
  8
_U+30EC_U+30A4_U+30E4_U+30FC 1
 62
     7
420
 16777215
370
     9
100
AcDbVertex
100
AcDb2dVertex
 10
98.07980444222017
 20
-133.101609133391
 30
0.0
  0
SEQEND
  5
12C
330
129
100
AcDbEntity
  8
_U+30EC_U+30A4_U+30E4_U+30FC 1
 62
     7
420
 16777215
370
     9
  0
POLYLINE
  5
12D
330
1F
100
AcDbEntity
  8
_U+30EC_U+30A4_U+30E4_U+30FC 1
 62
     7
420
 16777215
370
     9
100
AcDb2dPolyline
 66
     1
 10
0.0
 20
0.0
 30
0.0
  0
VERTEX
  5
12E
330
12D
100
AcDbEntity
  8
_U+30EC_U+30A4_U+30E4_U+30FC 1
 62
     7
420
 16777215
370
     9
100
AcDbVertex
100
AcDb2dVertex
 10
90.61961296587884
 20
-129.6017360787107
 30
0.0
  0
VERTEX
  5
12F
330
12D
100
AcDbEntity
  8
_U+30EC_U+30A4_U+30E4_U+30FC 1
 62
     7
420
 16777215
370
     9
100
AcDbVertex
100
AcDb2dVertex
 10
98.07980444222017
 20
-129.6017360787107
 30
0.0
  0
SEQEND
  5
130
330
12D
100
AcDbEntity
  8
_U+30EC_U+30A4_U+30E4_U+30FC 1
 62
     7
420
 16777215
370
     9
  0
SPLINE
  5
131
330
1F
100
AcDbEntity
  8
_U+30EC_U+30A4_U+30E4_U+30FC 1
 62
     7
420
 16777215
370
     9
100
AcDbSpline
210
0.0
220
0.0
230
1.0
 70
    11
 71
     3
 72
    17
 73
    13
 74
     0
 42
0.0000000001
 43
0.0000000001
 12
1.0
 22
0.0
 32
0.0
 13
1.0
 23
0.0
 33
0.0
 40
0.0
 40
0.0
 40
0.0
 40
0.0
 40
1.0
 40
1.0
 40
1.0
 40
2.0
 40
2.0
 40
2.0
 40
3.0
 40
3.0
 40
3.0
 40
4.0
 40
4.0
 40
4.0
 40
4.0
 10
97.1799389096221
 20
-128.5012105234303
 30
0.0
 10
97.1799389096221
 20
-128.4460713567775
 30
0.0
 10
97.13517141076422
 20
-128.4013038567886
 30
0.0
 10
97.08003224550426
 20
-128.4013038567886
 30
0.0
 10
97.02492835802119
 20
-128.4013038567886
 30
0.0
 10
96.98012558138643
 20
-128.4460713567775
 30
0.0
 10
96.98012558138643
 20
-128.5012105234303
 30
0.0
 10
96.98012558138643
 20
-128.5566671900829
 30
0.0
 10
97.02492835802119
 20
-128.6014699678497
 30
0.0
 10
97.08003224550426
 20
-128.6014699678497
 30
0.0
 10
97.13517141076422
 20
-128.6014699678497
 30
0.0
 10
97.1799389096221
 20
-128.5566671900829
 30
0.0
 10
97.1799389096221
 20
-128.5012105234303
 30
0.0
  0
POLYLINE
  5
132
330
1F
100
AcDbEntity
  8
_U+30EC_U+30A4_U+30E4_U+30FC 1
 62
     7
420
 16777215
370
     9
100
AcDb2dPolyline
 66
     1
 10
0.0
 20
0.0
 30
0.0
  0
VERTEX
  5
133
330
132
100
AcDbEntity
  8
_U+30EC_U+30A4_U+30E4_U+30FC 1
 62
     7
420
 16777215
370
     9
100
AcDbVertex
100
AcDb2dVertex
 10
90.61961296587884
 20
-128.5012105234303
 30
0.0
  0
VERTEX
  5
134
330
132
100
AcDbEntity
  8
_U+30EC_U+30A4_U+30E4_U+30FC 1
 62
     7
420
 16777215
370
     9
100
AcDbVertex
100
AcDb2dVertex
 10
98.07980444222017
 20
-128.5012105234303
 30
0.0
  0
SEQEND
  5
135
330
132
100
AcDbEntity
  8
_U+30EC_U+30A4_U+30E4_U+30FC 1
 62
     7
420
 16777215
370
     9
  0
INSERT
  5
137
330
1F
100
AcDbEntity
  8
_U+30EC_U+30A4_U+30E4_U+30FC 1
100
AcDbBlockReference
  2
block 7
 10
0.0
 20
0.0
 30
0.0
  0
POLYLINE
  5
146
330
1F
100
AcDbEntity
  8
_U+30EC_U+30A4_U+30E4_U+30FC 1
 62
     7
420
 16777215
370
     9
100
AcDb2dPolyline
 66
     1
 10
0.0
 20
0.0
 30
0.0
  0
VERTEX
  5
147
330
146
100
AcDbEntity
  8
_U+30EC_U+30A4_U+30E4_U+30FC 1
 62
     7
420
 16777215
370
     9
100
AcDbVertex
100
AcDb2dVertex
 10
97.08003224550426
 20
-129.6017360787107
 30
0.0
  0
VERTEX
  5
148
330
146
100
AcDbEntity
  8
_U+30EC_U+30A4_U+30E4_U+30FC 1
 62
     7
420
 16777215
370
     9
100
AcDbVertex
100
AcDb2dVertex
 10
97.08003224550426
 20
-122.6014608026828
 30
0.0
  0
SEQEND
  5
149
330
146
100
AcDbEntity
  8
_U+30EC_U+30A4_U+30E4_U+30FC 1
 62
     7
420
 16777215
370
     9
  0
POLYLINE
  5
14A
330
1F
100
AcDbEntity
  8
_U+30EC_U+30A4_U+30E4_U+30FC 1
 62
     7
420
 16777215
370
     9
100
AcDb2dPolyline
 66
     1
 10
0.0
 20
0.0
 30
0.0
  0
VERTEX
  5
14B
330
14A
100
AcDbEntity
  8
_U+30EC_U+30A4_U+30E4_U+30FC 1
 62
     7
420
 16777215
370
     9
100
AcDbVertex
100
AcDb2dVertex
 10
90.61961296587884
 20
-122.6014608026828
 30
0.0
  0
VERTEX
  5
14C
330
14A
100
AcDbEntity
  8
_U+30EC_U+30A4_U+30E4_U+30FC 1
 62
     7
420
 16777215
370
     9
100
AcDbVertex
100
AcDb2dVertex
 10
98.07980444222017
 20
-122.6014608026828
 30
0.0
  0
SEQEND
  5
14D
330
14A
100
AcDbEntity
  8
_U+30EC_U+30A4_U+30E4_U+30FC 1
 62
     7
420
 16777215
370
     9
  0
INSERT
  5
14F
330
1F
100
AcDbEntity
  8
_U+30EC_U+30A4_U+30E4_U+30FC 1
100
AcDbBlockReference
  2
block 8
 10
0.0
 20
0.0
 30
0.0
  0
ENDSEC
  0
SECTION
  2
OBJECTS
  0
DICTIONARY
  5
C
330
0
100
AcDbDictionary
281
     1
  3
ACAD_GROUP
350
D
  3
ACAD_LAYOUT
350
1A
  3
ACAD_MATERIAL
350
3B
  3
ACAD_MLEADERSTYLE
350
156
  3
ACAD_MLINESTYLE
350
17
  3
ACAD_PLOTSETTINGS
350
19
  3
ACAD_PLOTSTYLENAME
350
E
  3
ACAD_TABLESTYLE
350
155
  3
ACAD_VISUALSTYLE
350
2A
  0
SUN
  5
3F
330
29
100
AcDbSun
 90
        1
290
     0
 63
     7
421
 16777215
 40
1.0
291
     1
 91
  2455826
 92
 54000000
292
     0
 70
     2
 71
   256
280
     1
  0
DICTIONARY
  5
D
102
{ACAD_REACTORS
330
C
102
}
330
C
100
AcDbDictionary
281
     1
  0
DICTIONARY
  5
1A
102
{ACAD_REACTORS
330
C
102
}
330
C
100
AcDbDictionary
281
     1
  3
Layout1
350
1E
  3
Layout2
350
26
  3
Model
350
22
  0
DICTIONARY
  5
3B
102
{ACAD_REACTORS
330
C
102
}
330
C
100
AcDbDictionary
281
     1
  3
ByBlock
350
3D
  3
ByLayer
350
3C
  3
Global
350
3E
  0
DICTIONARY
  5
156
102
{ACAD_REACTORS
330
C
102
}
330
C
100
AcDbDictionary
281
     1
  0
DICTIONARY
  5
17
102
{ACAD_REACTORS
330
C
102
}
330
C
100
AcDbDictionary
281
     1
  3
Standard
350
18
  0
DICTIONARY
  5
19
102
{ACAD_REACTORS
330
C
102
}
330
C
100
AcDbDictionary
281
     1
  0
ACDBDICTIONARYWDFLT
  5
E
102
{ACAD_REACTORS
330
C
102
}
330
C
100
AcDbDictionary
281
     1
  3
Normal
350
F
100
AcDbDictionaryWithDefault
340
F
  0
DICTIONARY
  5
155
102
{ACAD_REACTORS
330
C
102
}
330
C
100
AcDbDictionary
281
     1
  0
DICTIONARY
  5
2A
102
{ACAD_REACTORS
330
C
102
}
330
C
100
AcDbDictionary
281
     1
  3
2dWireframe
350
2F
  3
3D Hidden
350
31
  3
3dWireframe
350
30
  3
Basic
350
32
  3
Brighten
350
36
  3
ColorChange
350
3A
  3
Conceptual
350
34
  3
Dim
350
35
  3
Facepattern
350
39
  3
Flat
350
2B
  3
FlatWithEdges
350
2C
  3
Gouraud
350
2D
  3
GouraudWithEdges
350
2E
  3
Linepattern
350
38
  3
Realistic
350
33
  3
Thicken
350
37
  0
LAYOUT
  5
1E
102
{ACAD_REACTORS
330
1A
102
}
330
1A
100
AcDbPlotSettings
  1

  2
none_device
  4

  6

 40
0.0
 41
0.0
 42
0.0
 43
0.0
 44
0.0
 45
0.0
 46
0.0
 47
0.0
 48
0.0
 49
0.0
140
0.0
141
0.0
142
1.0
143
1.0
 70
   688
 72
     0
 73
     0
 74
     5
  7

 75
    16
 76
     0
 77
     2
 78
   300
147
1.0
148
0.0
149
0.0
100
AcDbLayout
  1
Layout1
 70
     1
 71
     1
 10
0.0
 20
0.0
 11
12.0
 21
9.0
 12
0.0
 22
0.0
 32
0.0
 14
1.000000000000000E+20
 24
1.000000000000000E+20
 34
1.000000000000000E+20
 15
-1.000000000000000E+20
 25
-1.000000000000000E+20
 35
-1.000000000000000E+20
146
0.0
 13
0.0
 23
0.0
 33
0.0
 16
1.0
 26
0.0
 36
0.0
 17
0.0
 27
1.0
 37
0.0
 76
     0
330
1B
  0
LAYOUT
  5
26
102
{ACAD_REACTORS
330
1A
102
}
330
1A
100
AcDbPlotSettings
  1

  2
none_device
  4

  6

 40
0.0
 41
0.0
 42
0.0
 43
0.0
 44
0.0
 45
0.0
 46
0.0
 47
0.0
 48
0.0
 49
0.0
140
0.0
141
0.0
142
1.0
143
1.0
 70
   688
 72
     0
 73
     0
 74
     5
  7

 75
    16
 76
     0
 77
     2
 78
   300
147
1.0
148
0.0
149
0.0
100
AcDbLayout
  1
Layout2
 70
     1
 71
     2
 10
0.0
 20
0.0
 11
0.0
 21
0.0
 12
0.0
 22
0.0
 32
0.0
 14
0.0
 24
0.0
 34
0.0
 15
0.0
 25
0.0
 35
0.0
146
0.0
 13
0.0
 23
0.0
 33
0.0
 16
1.0
 26
0.0
 36
0.0
 17
0.0
 27
1.0
 37
0.0
 76
     0
330
23
  0
LAYOUT
  5
22
102
{ACAD_REACTORS
330
1A
102
}
330
1A
100
AcDbPlotSettings
  1

  2
none_device
  4

  6

 40
0.0
 41
0.0
 42
0.0
 43
0.0
 44
0.0
 45
0.0
 46
0.0
 47
0.0
 48
0.0
 49
0.0
140
0.0
141
0.0
142
1.0
143
1.0
 70
  1712
 72
     0
 73
     0
 74
     0
  7

 75
     0
 76
     0
 77
     2
 78
   300
147
1.0
148
0.0
149
0.0
100
AcDbLayout
  1
Model
 70
     1
 71
     0
 10
0.0
 20
0.0
 11
12.0
 21
9.0
 12
0.0
 22
0.0
 32
0.0
 14
1.000000000000000E+20
 24
1.000000000000000E+20
 34
1.000000000000000E+20
 15
-1.000000000000000E+20
 25
-1.000000000000000E+20
 35
-1.000000000000000E+20
146
0.0
 13
0.0
 23
0.0
 33
0.0
 16
1.0
 26
0.0
 36
0.0
 17
0.0
 27
1.0
 37
0.0
 76
     0
330
1F
331
29
  0
MATERIAL
  5
3D
102
{ACAD_REACTORS
330
3B
102
}
330
3B
100
AcDbMaterial
  1
ByBlock
 72
     1
 94
      127
  0
MATERIAL
  5
3C
102
{ACAD_REACTORS
330
3B
102
}
330
3B
100
AcDbMaterial
  1
ByLayer
 72
     1
 94
      127
  0
MATERIAL
  5
3E
102
{ACAD_REACTORS
330
3B
102
}
330
3B
100
AcDbMaterial
  1
Global
 72
     1
 94
      127
  0
MLINESTYLE
  5
18
102
{ACAD_REACTORS
330
17
102
}
330
17
100
AcDbMlineStyle
  2
Standard
 70
     0
  3

 62
   256
 51
90.0
 52
90.0
 71
     2
 49
0.5
 62
   256
  6
BYLAYER
 49
-0.5
 62
   256
  6
BYLAYER
  0
ACDBPLACEHOLDER
  5
F
102
{ACAD_REACTORS
330
E
102
}
330
E
  0
VISUALSTYLE
  5
2F
102
{ACAD_REACTORS
330
2A
102
}
330
2A
100
AcDbVisualStyle
  2
2dWireframe
 70
     4
177
     2
291
     0
 71
     0
176
     1
 72
     2
176
     1
 73
     0
176
     1
 90
        0
176
     1
 40
-0.6
176
     1
 41
-30.0
176
     1
 62
     5
 63
     7
421
 16777215
176
     1
 74
     1
176
     1
 91
        4
176
     1
 64
     7
176
     1
 65
   257
176
     1
 75
     1
176
     1
175
     1
176
     1
 42
1.0
176
     1
 92
        0
176
     1
 66
   257
176
     1
 43
1.0
176
     1
 76
     1
176
     1
 77
     6
176
     1
 78
     2
176
     1
 67
     7
176
     1
 79
     5
176
     1
170
     0
176
     1
171
     0
176
     1
290
     0
176
     1
 93
        1
176
     1
 44
0.0
176
     1
173
     0
176
     1
  0
VISUALSTYLE
  5
31
102
{ACAD_REACTORS
330
2A
102
}
330
2A
100
AcDbVisualStyle
  2
3D Hidden
 70
     6
177
     2
291
     0
 71
     1
176
     1
 72
     2
176
     1
 73
     2
176
     1
 90
        0
176
     1
 40
-0.6
176
     1
 41
-30.0
176
     1
 62
     5
 63
     7
421
 16777215
176
     1
 74
     2
176
     1
 91
        2
176
     1
 64
     7
176
     1
 65
   257
176
     1
 75
     2
176
     1
175
     1
176
     1
 42
40.0
176
     1
 92
        0
176
     1
 66
   257
176
     1
 43
1.0
176
     1
 76
     1
176
     1
 77
     6
176
     1
 78
     2
176
     1
 67
     7
176
     1
 79
     3
176
     1
170
     0
176
     1
171
     0
176
     1
290
     0
176
     1
 93
        1
176
     1
 44
0.0
176
     1
173
     0
176
     1
  0
VISUALSTYLE
  5
30
102
{ACAD_REACTORS
330
2A
102
}
330
2A
100
AcDbVisualStyle
  2
3dWireframe
 70
     5
177
     2
291
     0
 71
     0
176
     1
 72
     2
176
     1
 73
     0
176
     1
 90
        0
176
     1
 40
-0.6
176
     1
 41
-30.0
176
     1
 62
     5
 63
     7
421
 16777215
176
     1
 74
     1
176
     1
 91
        4
176
     1
 64
     7
176
     1
 65
   257
176
     1
 75
     1
176
     1
175
     1
176
     1
 42
1.0
176
     1
 92
        0
176
     1
 66
   257
176
     1
 43
1.0
176
     1
 76
     1
176
     1
 77
     6
176
     1
 78
     2
176
     1
 67
     7
176
     1
 79
     5
176
     1
170
     0
176
     1
171
     0
176
     1
290
     0
176
     1
 93
        1
176
     1
 44
0.0
176
     1
173
     0
176
     1
  0
VISUALSTYLE
  5
32
102
{ACAD_REACTORS
330
2A
102
}
330
2A
100
AcDbVisualStyle
  2
Basic
 70
     7
177
     2
291
     1
 71
     1
176
     1
 72
     0
176
     1
 73
     1
176
     1
 90
        0
176
     1
 40
-0.6
176
     1
 41
-30.0
176
     1
 62
     5
 63
     7
421
 16777215
176
     1
 74
     0
176
     1
 91
        4
176
     1
 64
     7
176
     1
 65
   257
176
     1
 75
     1
176
     1
175
     1
176
     1
 42
1.0
176
     1
 92
        8
176
     1
 66
     7
176
     1
 43
1.0
176
     1
 76
     1
176
     1
 77
     6
176
     1
 78
     2
176
     1
 67
     7
176
     1
 79
     5
176
     1
170
     0
176
     1
171
     0
176
     1
290
     0
176
     1
 93
        1
176
     1
 44
0.0
176
     1
173
     0
176
     1
  0
VISUALSTYLE
  5
36
102
{ACAD_REACTORS
330
2A
102
}
330
2A
100
AcDbVisualStyle
  2
Brighten
 70
    12
177
     2
291
     1
 71
     2
176
     1
 72
     2
176
     1
 73
     0
176
     1
 90
        0
176
     1
 40
-0.6
176
     1
 41
-30.0
176
     1
 62
     5
 63
     7
421
 16777215
176
     1
 74
     1
176
     1
 91
        4
176
     1
 64
     7
176
     1
 65
   257
176
     1
 75
     1
176
     1
175
     1
176
     1
 42
1.0
176
     1
 92
        8
176
     1
 66
     7
176
     1
 43
1.0
176
     1
 76
     1
176
     1
 77
     6
176
     1
 78
     2
176
     1
 67
     7
176
     1
 79
     5
176
     1
170
     0
176
     1
171
     0
176
     1
290
     0
176
     1
 93
        1
176
     1
 44
50.0
176
     1
173
     0
176
     1
  0
VISUALSTYLE
  5
3A
102
{ACAD_REACTORS
330
2A
102
}
330
2A
100
AcDbVisualStyle
  2
ColorChange
 70
    16
177
     2
291
     1
 71
     2
176
     1
 72
     2
176
     1
 73
     3
176
     1
 90
        0
176
     1
 40
-0.6
176
     1
 41
-30.0
176
     1
 62
     5
 63
     8
421
  8421504
176
     1
 74
     1
176
     1
 91
        4
176
     1
 64
     7
176
     1
 65
   257
176
     1
 75
     1
176
     1
175
     1
176
     1
 42
1.0
176
     1
 92
        8
176
     1
 66
     8
424
  8421504
176
     1
 43
1.0
176
     1
 76
     1
176
     1
 77
     6
176
     1
 78
     2
176
     1
 67
     7
176
     1
 79
     5
176
     1
170
     0
176
     1
171
     0
176
     1
290
     0
176
     1
 93
        1
176
     1
 44
0.0
176
     1
173
     0
176
     1
  0
VISUALSTYLE
  5
34
102
{ACAD_REACTORS
330
2A
102
}
330
2A
100
AcDbVisualStyle
  2
Conceptual
 70
     9
177
     2
291
     0
 71
     3
176
     1
 72
     2
176
     1
 73
     0
176
     1
 90
        0
176
     1
 40
-0.6
176
     1
 41
-30.0
176
     1
 62
     5
 63
     7
421
 16777215
176
     1
 74
     2
176
     1
 91
        2
176
     1
 64
     7
176
     1
 65
   257
176
     1
 75
     1
176
     1
175
     1
176
     1
 42
40.0
176
     1
 92
        8
176
     1
 66
     7
176
     1
 43
1.0
176
     1
 76
     1
176
     1
 77
     6
176
     1
 78
     2
176
     1
 67
     7
176
     1
 79
     3
176
     1
170
     0
176
     1
171
     0
176
     1
290
     0
176
     1
 93
        1
176
     1
 44
0.0
176
     1
173
     0
176
     1
  0
VISUALSTYLE
  5
35
102
{ACAD_REACTORS
330
2A
102
}
330
2A
100
AcDbVisualStyle
  2
Dim
 70
    11
177
     2
291
     1
 71
     2
176
     1
 72
     2
176
     1
 73
     0
176
     1
 90
        0
176
     1
 40
-0.6
176
     1
 41
-30.0
176
     1
 62
     5
 63
     7
421
 16777215
176
     1
 74
     1
176
     1
 91
        4
176
     1
 64
     7
176
     1
 65
   257
176
     1
 75
     1
176
     1
175
     1
176
     1
 42
1.0
176
     1
 92
        8
176
     1
 66
     7
176
     1
 43
1.0
176
     1
 76
     1
176
     1
 77
     6
176
     1
 78
     2
176
     1
 67
     7
176
     1
 79
     5
176
     1
170
     0
176
     1
171
     0
176
     1
290
     0
176
     1
 93
        1
176
     1
 44
-50.0
176
     1
173
     0
176
     1
  0
VISUALSTYLE
  5
39
102
{ACAD_REACTORS
330
2A
102
}
330
2A
100
AcDbVisualStyle
  2
Facepattern
 70
    15
177
     2
291
     1
 71
     2
176
     1
 72
     2
176
     1
 73
     0
176
     1
 90
        0
176
     1
 40
-0.6
176
     1
 41
-30.0
176
     1
 62
     5
 63
     7
421
 16777215
176
     1
 74
     1
176
     1
 91
        4
176
     1
 64
     7
176
     1
 65
   257
176
     1
 75
     1
176
     1
175
     1
176
     1
 42
1.0
176
     1
 92
        8
176
     1
 66
     7
176
     1
 43
1.0
176
     1
 76
     1
176
     1
 77
     6
176
     1
 78
     2
176
     1
 67
     7
176
     1
 79
     5
176
     1
170
     0
176
     1
171
     0
176
     1
290
     0
176
     1
 93
        1
176
     1
 44
0.0
176
     1
173
     0
176
     1
  0
VISUALSTYLE
  5
2B
102
{ACAD_REACTORS
330
2A
102
}
330
2A
100
AcDbVisualStyle
  2
Flat
 70
     0
177
     2
291
     1
 71
     2
176
     1
 72
     1
176
     1
 73
     1
176
     1
 90
        2
176
     1
 40
-0.6
176
     1
 41
30.0
176
     1
 62
     5
 63
     7
421
 16777215
176
     1
 74
     0
176
     1
 91
        4
176
     1
 64
     7
176
     1
 65
   257
176
     1
 75
     1
176
     1
175
     1
176
     1
 42
1.0
176
     1
 92
        8
176
     1
 66
     7
176
     1
 43
1.0
176
     1
 76
     1
176
     1
 77
     6
176
     1
 78
     2
176
     1
 67
     7
176
     1
 79
     5
176
     1
170
     0
176
     1
171
     0
176
     1
290
     0
176
     1
 93
       13
176
     1
 44
0.0
176
     1
173
     0
176
     1
  0
VISUALSTYLE
  5
2C
102
{ACAD_REACTORS
330
2A
102
}
330
2A
100
AcDbVisualStyle
  2
FlatWithEdges
 70
     1
177
     2
291
     1
 71
     2
176
     1
 72
     1
176
     1
 73
     1
176
     1
 90
        2
176
     1
 40
-0.6
176
     1
 41
30.0
176
     1
 62
     5
 63
     7
421
 16777215
176
     1
 74
     1
176
     1
 91
        4
176
     1
 64
     7
176
     1
 65
   257
176
     1
 75
     1
176
     1
175
     1
176
     1
 42
1.0
176
     1
 92
        0
176
     1
 66
   257
176
     1
 43
1.0
176
     1
 76
     1
176
     1
 77
     6
176
     1
 78
     2
176
     1
 67
     7
176
     1
 79
     5
176
     1
170
     0
176
     1
171
     0
176
     1
290
     0
176
     1
 93
       13
176
     1
 44
0.0
176
     1
173
     0
176
     1
  0
VISUALSTYLE
  5
2D
102
{ACAD_REACTORS
330
2A
102
}
330
2A
100
AcDbVisualStyle
  2
Gouraud
 70
     2
177
     2
291
     1
 71
     2
176
     1
 72
     2
176
     1
 73
     1
176
     1
 90
        2
176
     1
 40
-0.6
176
     1
 41
30.0
176
     1
 62
     5
 63
     7
421
 16777215
176
     1
 74
     0
176
     1
 91
        4
176
     1
 64
     7
176
     1
 65
   257
176
     1
 75
     1
176
     1
175
     1
176
     1
 42
1.0
176
     1
 92
        0
176
     1
 66
     7
176
     1
 43
1.0
176
     1
 76
     1
176
     1
 77
     6
176
     1
 78
     2
176
     1
 67
     7
176
     1
 79
     5
176
     1
170
     0
176
     1
171
     0
176
     1
290
     0
176
     1
 93
       13
176
     1
 44
0.0
176
     1
173
     0
176
     1
  0
VISUALSTYLE
  5
2E
102
{ACAD_REACTORS
330
2A
102
}
330
2A
100
AcDbVisualStyle
  2
GouraudWithEdges
 70
     3
177
     2
291
     1
 71
     2
176
     1
 72
     2
176
     1
 73
     1
176
     1
 90
        2
176
     1
 40
-0.6
176
     1
 41
30.0
176
     1
 62
     5
 63
     7
421
 16777215
176
     1
 74
     1
176
     1
 91
        4
176
     1
 64
     7
176
     1
 65
   257
176
     1
 75
     1
176
     1
175
     1
176
     1
 42
1.0
176
     1
 92
        0
176
     1
 66
   257
176
     1
 43
1.0
176
     1
 76
     1
176
     1
 77
     6
176
     1
 78
     2
176
     1
 67
     7
176
     1
 79
     5
176
     1
170
     0
176
     1
171
     0
176
     1
290
     0
176
     1
 93
       13
176
     1
 44
0.0
176
     1
173
     0
176
     1
  0
VISUALSTYLE
  5
38
102
{ACAD_REACTORS
330
2A
102
}
330
2A
100
AcDbVisualStyle
  2
Linepattern
 70
    14
177
     2
291
     1
 71
     2
176
     1
 72
     2
176
     1
 73
     0
176
     1
 90
        0
176
     1
 40
-0.6
176
     1
 41
-30.0
176
     1
 62
     5
 63
     7
421
 16777215
176
     1
 74
     1
176
     1
 91
        4
176
     1
 64
     7
176
     1
 65
   257
176
     1
 75
     7
176
     1
175
     7
176
     1
 42
1.0
176
     1
 92
        8
176
     1
 66
     7
176
     1
 43
1.0
176
     1
 76
     1
176
     1
 77
     6
176
     1
 78
     2
176
     1
 67
     7
176
     1
 79
     5
176
     1
170
     0
176
     1
171
     0
176
     1
290
     0
176
     1
 93
        1
176
     1
 44
0.0
176
     1
173
     0
176
     1
  0
VISUALSTYLE
  5
33
102
{ACAD_REACTORS
330
2A
102
}
330
2A
100
AcDbVisualStyle
  2
Realistic
 70
     8
177
     2
291
     0
 71
     2
176
     1
 72
     2
176
     1
 73
     0
176
     1
 90
        0
176
     1
 40
-0.6
176
     1
 41
-30.0
176
     1
 62
     5
 63
     7
421
 16777215
176
     1
 74
     1
176
     1
 91
        0
176
     1
 64
     7
176
     1
 65
   257
176
     1
 75
     1
176
     1
175
     1
176
     1
 42
1.0
176
     1
 92
        8
176
     1
 66
     8
424
  7895160
176
     1
 43
1.0
176
     1
 76
     1
176
     1
 77
     6
176
     1
 78
     2
176
     1
 67
     7
176
     1
 79
     5
176
     1
170
     0
176
     1
171
     0
176
     1
290
     0
176
     1
 93
       13
176
     1
 44
0.0
176
     1
173
     0
176
     1
  0
VISUALSTYLE
  5
37
102
{ACAD_REACTORS
330
2A
102
}
330
2A
100
AcDbVisualStyle
  2
Thicken
 70
    13
177
     2
291
     1
 71
     2
176
     1
 72
     2
176
     1
 73
     0
176
     1
 90
        0
176
     1
 40
-0.6
176
     1
 41
-30.0
176
     1
 62
     5
 63
     7
421
 16777215
176
     1
 74
     1
176
     1
 91
        4
176
     1
 64
     7
176
     1
 65
   257
176
     1
 75
     1
176
     1
175
     1
176
     1
 42
1.0
176
     1
 92
       12
176
     1
 66
     7
176
     1
 43
1.0
176
     1
 76
     1
176
     1
 77
     6
176
     1
 78
     2
176
     1
 67
     7
176
     1
 79
     5
176
     1
170
     0
176
     1
171
     0
176
     1
290
     0
176
     1
 93
        1
176
     1
 44
0.0
176
     1
173
     0
176
     1
  0
ENDSEC
  0
EOF
