  0
SECTION
  2
HEADER
  9
$ACADVER
  1
AC1024
  9
$ACADMAINTVER
 70
     6
  9
$DWGCODEPAGE
  3
UNDEFINED
  9
$INSBASE
 10
0.0
 20
0.0
 30
0.0
  9
$EXTMIN
 10
1.000000000000000E+20
 20
1.000000000000000E+20
 30
1.000000000000000E+20
  9
$EXTMAX
 10
-1.000000000000000E+20
 20
-1.000000000000000E+20
 30
-1.000000000000000E+20
  9
$LIMMIN
 10
0.0
 20
0.0
  9
$LIMMAX
 10
12.0
 20
9.0
  9
$ORTHOMODE
 70
     0
  9
$REGENMODE
 70
     1
  9
$FILLMODE
 70
     1
  9
$QTEXTMODE
 70
     0
  9
$MIRRTEXT
 70
     1
  9
$LTSCALE
 40
1.0
  9
$ATTMODE
 70
     1
  9
$TEXTSIZE
 40
0.2
  9
$TRACEWID
 40
0.05
  9
$TEXTSTYLE
  7
Standard
  9
$CLAYER
  8
0
  9
$CELTYPE
  6
ByLayer
  9
$CECOLOR
 62
   256
  9
$CELTSCALE
 40
1.0
  9
$DISPSILH
 70
     0
  9
$DIMSCALE
 40
1.0
  9
$DIMASZ
 40
0.18
  9
$DIMEXO
 40
0.0625
  9
$DIMDLI
 40
0.38
  9
$DIMRND
 40
0.0
  9
$DIMDLE
 40
0.0
  9
$DIMEXE
 40
0.18
  9
$DIMTP
 40
0.0
  9
$DIMTM
 40
0.0
  9
$DIMTXT
 40
0.18
  9
$DIMCEN
 40
0.09
  9
$DIMTSZ
 40
0.0
  9
$DIMTOL
 70
     0
  9
$DIMLIM
 70
     0
  9
$DIMTIH
 70
     1
  9
$DIMTOH
 70
     1
  9
$DIMSE1
 70
     0
  9
$DIMSE2
 70
     0
  9
$DIMTAD
 70
     0
  9
$DIMZIN
 70
     0
  9
$DIMBLK
  1

  9
$DIMASO
 70
     1
  9
$DIMSHO
 70
     1
  9
$DIMPOST
  1

  9
$DIMAPOST
  1

  9
$DIMALT
 70
     0
  9
$DIMALTD
 70
     2
  9
$DIMALTF
 40
25.4
  9
$DIMLFAC
 40
1.0
  9
$DIMTOFL
 70
     0
  9
$DIMTVP
 40
0.0
  9
$DIMTIX
 70
     0
  9
$DIMSOXD
 70
     0
  9
$DIMSAH
 70
     0
  9
$DIMBLK1
  1

  9
$DIMBLK2
  1

  9
$DIMSTYLE
  2
Standard
  9
$DIMCLRD
 70
     0
  9
$DIMCLRE
 70
     0
  9
$DIMCLRT
 70
     0
  9
$DIMTFAC
 40
1.0
  9
$DIMGAP
 40
0.09
  9
$DIMJUST
 70
     0
  9
$DIMSD1
 70
     0
  9
$DIMSD2
 70
     0
  9
$DIMTOLJ
 70
     1
  9
$DIMTZIN
 70
     0
  9
$DIMALTZ
 70
     0
  9
$DIMALTTZ
 70
     0
  9
$DIMUPT
 70
     0
  9
$DIMDEC
 70
     4
  9
$DIMTDEC
 70
     4
  9
$DIMALTU
 70
     2
  9
$DIMALTTD
 70
     2
  9
$DIMTXSTY
  7
Standard
  9
$DIMAUNIT
 70
     0
  9
$DIMADEC
 70
     0
  9
$DIMALTRND
 40
0.0
  9
$DIMAZIN
 70
     0
  9
$DIMDSEP
 70
    46
  9
$DIMATFIT
 70
     3
  9
$DIMFRAC
 70
     0
  9
$DIMLDRBLK
  1

  9
$DIMLUNIT
 70
     2
  9
$DIMLWD
 70
    -2
  9
$DIMLWE
 70
    -2
  9
$DIMTMOVE
 70
     0
  9
$DIMFXL
 40
1.0
  9
$DIMFXLON
 70
     0
  9
$DIMJOGANG
 40
0.7853981633974483
  9
$DIMTFILL
 70
     0
  9
$DIMTFILLCLR
 70
     0
  9
$DIMARCSYM
 70
     0
  9
$DIMLTYPE
  6

  9
$DIMLTEX1
  6

  9
$DIMLTEX2
  6

  9
$DIMTXTDIRECTION
 70
     0
  9
$LUNITS
 70
     2
  9
$LUPREC
 70
     4
  9
$SKETCHINC
 40
0.1
  9
$FILLETRAD
 40
0.5
  9
$AUNITS
 70
     0
  9
$AUPREC
 70
     0
  9
$MENU
  1
.
  9
$ELEVATION
 40
0.0
  9
$PELEVATION
 40
0.0
  9
$THICKNESS
 40
0.0
  9
$LIMCHECK
 70
     0
  9
$CHAMFERA
 40
0.5
  9
$CHAMFERB
 40
0.5
  9
$CHAMFERC
 40
1.0
  9
$CHAMFERD
 40
0.0
  9
$SKPOLY
 70
     0
  9
$TDCREATE
 40
2457917.599675914
  9
$TDUCREATE
 40
2457917.224675926
  9
$TDUPDATE
 40
2457917.599675914
  9
$TDUUPDATE
 40
2457917.224675926
  9
$TDINDWG
 40
0.0000000116
  9
$TDUSRTIMER
 40
0.0000000116
  9
$USRTIMER
 70
     1
  9
$ANGBASE
 50
0.0
  9
$ANGDIR
 70
     0
  9
$PDMODE
 70
     0
  9
$PDSIZE
 40
0.0
  9
$PLINEWID
 40
0.0
  9
$SPLFRAME
 70
     0
  9
$SPLINETYPE
 70
     6
  9
$SPLINESEGS
 70
     8
  9
$HANDSEED
  5
14C
  9
$SURFTAB1
 70
     6
  9
$SURFTAB2
 70
     6
  9
$SURFTYPE
 70
     6
  9
$SURFU
 70
     6
  9
$SURFV
 70
     6
  9
$UCSBASE
  2

  9
$UCSNAME
  2

  9
$UCSORG
 10
0.0
 20
0.0
 30
0.0
  9
$UCSXDIR
 10
1.0
 20
0.0
 30
0.0
  9
$UCSYDIR
 10
0.0
 20
1.0
 30
0.0
  9
$UCSORTHOREF
  2

  9
$UCSORTHOVIEW
 70
     0
  9
$UCSORGTOP
 10
0.0
 20
0.0
 30
0.0
  9
$UCSORGBOTTOM
 10
0.0
 20
0.0
 30
0.0
  9
$UCSORGLEFT
 10
0.0
 20
0.0
 30
0.0
  9
$UCSORGRIGHT
 10
0.0
 20
0.0
 30
0.0
  9
$UCSORGFRONT
 10
0.0
 20
0.0
 30
0.0
  9
$UCSORGBACK
 10
0.0
 20
0.0
 30
0.0
  9
$PUCSBASE
  2

  9
$PUCSNAME
  2

  9
$PUCSORG
 10
0.0
 20
0.0
 30
0.0
  9
$PUCSXDIR
 10
1.0
 20
0.0
 30
0.0
  9
$PUCSYDIR
 10
0.0
 20
1.0
 30
0.0
  9
$PUCSORTHOREF
  2

  9
$PUCSORTHOVIEW
 70
     0
  9
$PUCSORGTOP
 10
0.0
 20
0.0
 30
0.0
  9
$PUCSORGBOTTOM
 10
0.0
 20
0.0
 30
0.0
  9
$PUCSORGLEFT
 10
0.0
 20
0.0
 30
0.0
  9
$PUCSORGRIGHT
 10
0.0
 20
0.0
 30
0.0
  9
$PUCSORGFRONT
 10
0.0
 20
0.0
 30
0.0
  9
$PUCSORGBACK
 10
0.0
 20
0.0
 30
0.0
  9
$USERI1
 70
     0
  9
$USERI2
 70
     0
  9
$USERI3
 70
     0
  9
$USERI4
 70
     0
  9
$USERI5
 70
     0
  9
$USERR1
 40
0.0
  9
$USERR2
 40
0.0
  9
$USERR3
 40
0.0
  9
$USERR4
 40
0.0
  9
$USERR5
 40
0.0
  9
$WORLDVIEW
 70
     1
  9
$SHADEDGE
 70
     3
  9
$SHADEDIF
 70
    70
  9
$TILEMODE
 70
     1
  9
$MAXACTVP
 70
    64
  9
$PINSBASE
 10
0.0
 20
0.0
 30
0.0
  9
$PLIMCHECK
 70
     0
  9
$PEXTMIN
 10
1.000000000000000E+20
 20
1.000000000000000E+20
 30
1.000000000000000E+20
  9
$PEXTMAX
 10
-1.000000000000000E+20
 20
-1.000000000000000E+20
 30
-1.000000000000000E+20
  9
$PLIMMIN
 10
0.0
 20
0.0
  9
$PLIMMAX
 10
12.0
 20
9.0
  9
$UNITMODE
 70
     0
  9
$VISRETAIN
 70
     1
  9
$PLINEGEN
 70
     0
  9
$PSLTSCALE
 70
     1
  9
$TREEDEPTH
 70
  3020
  9
$CMLSTYLE
  2
Standard
  9
$CMLJUST
 70
     0
  9
$CMLSCALE
 40
1.0
  9
$PROXYGRAPHICS
 70
     1
  9
$MEASUREMENT
 70
     0
  9
$CELWEIGHT
370
    -1
  9
$ENDCAPS
280
     0
  9
$JOINSTYLE
280
     0
  9
$LWDISPLAY
290
     1
  9
$INSUNITS
 70
     1
  9
$HYPERLINKBASE
  1

  9
$STYLESHEET
  1

  9
$XEDIT
290
     1
  9
$CEPSNTYPE
380
     0
  9
$PSTYLEMODE
290
     1
  9
$FINGERPRINTGUID
  2
{1E8C3A2F-930C-2A3E-7137-7B3ECFF67759}
  9
$VERSIONGUID
  2
{FAEB1C32-E019-11D5-929B-00C0DF256EC4}
  9
$EXTNAMES
290
     1
  9
$PSVPSCALE
 40
0.0
  9
$OLESTARTUP
290
     0
  9
$SORTENTS
280
   127
  9
$INDEXCTL
280
     0
  9
$HIDETEXT
280
     1
  9
$XCLIPFRAME
280
     2
  9
$HALOGAP
280
     0
  9
$OBSCOLOR
 70
   257
  9
$OBSLTYPE
280
     0
  9
$INTERSECTIONDISPLAY
280
     0
  9
$INTERSECTIONCOLOR
 70
   257
  9
$DIMASSOC
280
     2
  9
$PROJECTNAME
  1

  9
$CAMERADISPLAY
290
     0
  9
$LENSLENGTH
 40
50.0
  9
$CAMERAHEIGHT
 40
0.0
  9
$STEPSPERSEC
 40
2.0
  9
$STEPSIZE
 40
6.0
  9
$3DDWFPREC
 40
2.0
  9
$PSOLWIDTH
 40
0.25
  9
$PSOLHEIGHT
 40
4.0
  9
$LOFTANG1
 40
1.570796326794897
  9
$LOFTANG2
 40
1.570796326794897
  9
$LOFTMAG1
 40
0.0
  9
$LOFTMAG2
 40
0.0
  9
$LOFTPARAM
 70
     7
  9
$LOFTNORMALS
280
     1
  9
$LATITUDE
 40
37.795
  9
$LONGITUDE
 40
-122.394
  9
$NORTHDIRECTION
 40
0.0
  9
$TIMEZONE
 70
 -8000
  9
$LIGHTGLYPHDISPLAY
280
     1
  9
$TILEMODELIGHTSYNCH
280
     1
  9
$CMATERIAL
347
3C
  9
$SOLIDHIST
280
     1
  9
$SHOWHIST
280
     1
  9
$DWFFRAME
280
     2
  9
$DGNFRAME
280
     2
  9
$REALWORLDSCALE
290
     1
  9
$INTERFERECOLOR
 62
   256
  9
$CSHADOW
280
     0
  9
$SHADOWPLANELOCATION
 40
0.0
  0
ENDSEC
  0
SECTION
  2
CLASSES
  0
CLASS
  1
ACDBDICTIONARYWDFLT
  2
AcDbDictionaryWithDefault
  3
ObjectDBX Classes
 90
        0
 91
        4
280
     0
281
     0
  0
CLASS
  1
VISUALSTYLE
  2
AcDbVisualStyle
  3
ObjectDBX Classes
 90
     4095
 91
        4
280
     0
281
     0
  0
CLASS
  1
MATERIAL
  2
AcDbMaterial
  3
ObjectDBX Classes
 90
     1153
 91
        4
280
     0
281
     0
  0
CLASS
  1
SUN
  2
AcDbSun
  3
SCENEOE
 90
     1024
 91
        4
280
     0
281
     0
  0
ENDSEC
  0
SECTION
  2
TABLES
  0
TABLE
  2
VPORT
  5
8
330
0
100
AcDbSymbolTable
 70
     1
  0
VPORT
  5
29
330
8
100
AcDbSymbolTableRecord
100
AcDbViewportTableRecord
  2
*Active
 70
     0
 10
0.0
 20
0.0
 11
1.0
 21
1.0
 12
0.0
 22
0.0
 13
0.0
 23
0.0
 14
0.5
 24
0.5
 15
0.5
 25
0.5
 16
0.0
 26
0.0
 36
1.0
 17
91.00082462281999
 27
-128.4993055234307
 37
0.0
 40
256.9986110468615
 41
0.7081814508812795
 42
50.0
 43
0.0
 44
0.0
 50
0.0
 51
0.0
 71
     0
 72
   100
 73
     1
 74
     3
 75
     0
 76
     0
 77
     0
 78
     0
281
     0
 65
     1
110
0.0
120
0.0
130
0.0
111
1.0
121
0.0
131
0.0
112
0.0
122
1.0
132
0.0
 79
     0
146
0.0
 60
     3
 61
     5
292
     1
282
     1
141
0.0
142
0.0
 63
   250
361
3F
  0
ENDTAB
  0
TABLE
  2
LTYPE
  5
5
330
0
100
AcDbSymbolTable
 70
     2
  0
LTYPE
  5
14
330
5
100
AcDbSymbolTableRecord
100
AcDbLinetypeTableRecord
  2
ByBlock
 70
     0
  3

 72
    65
 73
     0
 40
0.0
  0
LTYPE
  5
15
330
5
100
AcDbSymbolTableRecord
100
AcDbLinetypeTableRecord
  2
ByLayer
 70
     0
  3

 72
    65
 73
     0
 40
0.0
  0
LTYPE
  5
16
330
5
100
AcDbSymbolTableRecord
100
AcDbLinetypeTableRecord
  2
Continuous
 70
     0
  3
Solid line
 72
    65
 73
     0
 40
0.0
  0
LTYPE
  5
47
330
5
100
AcDbSymbolTableRecord
100
AcDbLinetypeTableRecord
  2
AI-Linetype-1
 70
     0
  3
Adobe Illustrator Linetype No. 1
 72
    65
 73
     2
 40
1.411111110758333
 49
0.7055555553791667
 74
     0
 49
-0.7055555553791667
 74
     0
  0
ENDTAB
  0
TABLE
  2
LAYER
  5
2
330
0
100
AcDbSymbolTable
 70
     2
  0
LAYER
  5
10
330
2
100
AcDbSymbolTableRecord
100
AcDbLayerTableRecord
  2
0
 70
     0
 62
     7
  6
Continuous
370
    -3
390
F
347
3E
  0
LAYER
  5
40
330
2
100
AcDbSymbolTableRecord
100
AcDbLayerTableRecord
  2
_U+30EC_U+30A4_U+30E4_U+30FC 1
 70
     0
 62
     7
  6
Continuous
370
    -3
390
F
347
3E
  0
ENDTAB
  0
TABLE
  2
STYLE
  5
3
330
0
100
AcDbSymbolTable
 70
     1
  0
STYLE
  5
11
330
3
100
AcDbSymbolTableRecord
100
AcDbTextStyleTableRecord
  2
Standard
 70
     0
 40
0.0
 41
1.0
 50
0.0
 71
     0
 42
0.2
  3
txt
  4

  0
ENDTAB
  0
TABLE
  2
VIEW
  5
6
330
0
100
AcDbSymbolTable
 70
     0
  0
ENDTAB
  0
TABLE
  2
UCS
  5
7
330
0
100
AcDbSymbolTable
 70
     0
  0
ENDTAB
  0
TABLE
  2
APPID
  5
9
330
0
100
AcDbSymbolTable
 70
     1
  0
APPID
  5
12
330
9
100
AcDbSymbolTableRecord
100
AcDbRegAppTableRecord
  2
ACAD
 70
     0
  0
ENDTAB
  0
TABLE
  2
DIMSTYLE
  5
A
330
0
100
AcDbSymbolTable
 70
     1
100
AcDbDimStyleTable
  0
DIMSTYLE
105
27
330
A
100
AcDbSymbolTableRecord
100
AcDbDimStyleTableRecord
  2
Standard
 70
     0
178
     0
340
11
  0
ENDTAB
  0
TABLE
  2
BLOCK_RECORD
  5
1
330
0
100
AcDbSymbolTable
 70
     8
  0
BLOCK_RECORD
  5
1F
330
1
100
AcDbSymbolTableRecord
100
AcDbBlockTableRecord
  2
*Model_Space
340
22
 70
     0
280
     1
281
     0
  0
BLOCK_RECORD
  5
1B
330
1
100
AcDbSymbolTableRecord
100
AcDbBlockTableRecord
  2
*Paper_Space
340
1E
 70
     0
280
     1
281
     0
  0
BLOCK_RECORD
  5
23
330
1
100
AcDbSymbolTableRecord
100
AcDbBlockTableRecord
  2
*Paper_Space0
340
26
 70
     0
280
     1
281
     0
  0
BLOCK_RECORD
  5
8B
330
1
100
AcDbSymbolTableRecord
100
AcDbBlockTableRecord
  2
block 2
340
0
102
{BLKREFS
331
8C
102
}
 70
     0
280
     1
281
     0
  0
BLOCK_RECORD
  5
A0
330
1
100
AcDbSymbolTableRecord
100
AcDbBlockTableRecord
  2
block 3
340
0
102
{BLKREFS
331
A1
102
}
 70
     0
280
     1
281
     0
  0
BLOCK_RECORD
  5
C3
330
1
100
AcDbSymbolTableRecord
100
AcDbBlockTableRecord
  2
block 4
340
0
102
{BLKREFS
331
C4
102
}
 70
     0
280
     1
281
     0
  0
BLOCK_RECORD
  5
D5
330
1
100
AcDbSymbolTableRecord
100
AcDbBlockTableRecord
  2
block 5
340
0
102
{BLKREFS
331
D6
102
}
 70
     0
280
     1
281
     0
  0
BLOCK_RECORD
  5
EA
330
1
100
AcDbSymbolTableRecord
100
AcDbBlockTableRecord
  2
block 6
340
0
102
{BLKREFS
331
EB
102
}
 70
     0
280
     1
281
     0
  0
BLOCK_RECORD
  5
FF
330
1
100
AcDbSymbolTableRecord
100
AcDbBlockTableRecord
  2
block 7
340
0
102
{BLKREFS
331
100
102
}
 70
     0
280
     1
281
     0
  0
BLOCK_RECORD
  5
10C
330
1
100
AcDbSymbolTableRecord
100
AcDbBlockTableRecord
  2
block 8
340
0
102
{BLKREFS
331
10D
102
}
 70
     0
280
     1
281
     0
  0
ENDTAB
  0
ENDSEC
  0
SECTION
  2
BLOCKS
  0
BLOCK
  5
20
330
1F
100
AcDbEntity
  8
0
100
AcDbBlockBegin
  2
*Model_Space
 70
     0
 10
0.0
 20
0.0
 30
0.0
  3
*Model_Space
  1

  0
ENDBLK
  5
21
330
1F
100
AcDbEntity
  8
0
100
AcDbBlockEnd
  0
BLOCK
  5
1C
330
1B
100
AcDbEntity
 67
     1
  8
0
100
AcDbBlockBegin
  2
*Paper_Space
 70
     0
 10
0.0
 20
0.0
 30
0.0
  3
*Paper_Space
  1

  0
ENDBLK
  5
1D
330
1B
100
AcDbEntity
 67
     1
  8
0
100
AcDbBlockEnd
  0
BLOCK
  5
24
330
23
100
AcDbEntity
  8
0
100
AcDbBlockBegin
  2
*Paper_Space0
 70
     0
 10
0.0
 20
0.0
 30
0.0
  3
*Paper_Space0
  1

  0
ENDBLK
  5
25
330
23
100
AcDbEntity
  8
0
100
AcDbBlockEnd
  0
BLOCK
  5
8D
330
8B
100
AcDbEntity
  8
0
100
AcDbBlockBegin
  2
block 2
 70
     0
 10
0.0
 20
0.0
 30
0.0
  3
block 2
  1

  0
SPLINE
  5
8F
330
8B
100
AcDbEntity
  8
_U+30EC_U+30A4_U+30E4_U+30FC 1
370
     0
100
AcDbSpline
210
0.0
220
0.0
230
1.0
 70
    11
 71
     3
 72
    26
 73
    22
 74
     0
 42
0.0000000001
 43
0.0000000001
 12
1.0
 22
0.0
 32
0.0
 13
1.0
 23
0.0
 33
0.0
 40
0.0
 40
0.0
 40
0.0
 40
0.0
 40
1.0
 40
1.0
 40
1.0
 40
2.0
 40
2.0
 40
2.0
 40
3.0
 40
3.0
 40
3.0
 40
4.0
 40
4.0
 40
4.0
 40
5.0
 40
5.0
 40
5.0
 40
6.0
 40
6.0
 40
6.0
 40
7.0
 40
7.0
 40
7.0
 40
7.0
 10
68.80234644547303
 20
-141.7160698430432
 30
0.0
 10
68.80234644547303
 20
-141.7160698430432
 30
0.0
 10
68.80234644547303
 20
-140.6119167400206
 30
0.0
 10
68.80234644547303
 20
-140.6119167400206
 30
0.0
 10
68.80234644547303
 20
-140.6119167400206
 30
0.0
 10
68.44956866778344
 20
-140.6119167400206
 30
0.0
 10
68.44956866778344
 20
-140.6119167400206
 30
0.0
 10
68.44956866778344
 20
-140.6119167400206
 30
0.0
 10
68.44956866778344
 20
-140.4637776341549
 30
0.0
 10
68.44956866778344
 20
-140.4637776341549
 30
0.0
 10
68.80458575753843
 20
-140.4489637235683
 30
0.0
 10
68.8543673873003
 20
-140.286010707116
 30
0.0
 10
68.88589001099034
 20
-140.1716335370057
 30
0.0
 10
68.88589001099034
 20
-140.1716335370057
 30
0.0
 10
69.04195283647215
 20
-140.1716335370057
 30
0.0
 10
69.04195283647215
 20
-140.1716335370057
 30
0.0
 10
69.04195283647215
 20
-140.1716335370057
 30
0.0
 10
69.04195283647215
 20
-141.7160698430432
 30
0.0
 10
69.04195283647215
 20
-141.7160698430432
 30
0.0
 10
69.04195283647215
 20
-141.7160698430432
 30
0.0
 10
68.80234644547303
 20
-141.7160698430432
 30
0.0
 10
68.80234644547303
 20
-141.7160698430432
 30
0.0
  0
HATCH
  5
90
330
8B
100
AcDbEntity
  8
_U+30EC_U+30A4_U+30E4_U+30FC 1
 62
     7
420
 16777215
100
AcDbHatch
 10
0.0
 20
0.0
 30
0.0
210
0.0
220
0.0
230
1.0
  2
SOLID
 70
     1
 71
     0
 91
        1
 92
        1
 93
        1
 72
     4
 94
        3
 73
     0
 74
     1
 95
       26
 96
       22
 40
0.0
 40
0.0
 40
0.0
 40
0.0
 40
1.0
 40
1.0
 40
1.0
 40
2.0
 40
2.0
 40
2.0
 40
3.0
 40
3.0
 40
3.0
 40
4.0
 40
4.0
 40
4.0
 40
5.0
 40
5.0
 40
5.0
 40
6.0
 40
6.0
 40
6.0
 40
7.0
 40
7.0
 40
7.0
 40
7.0
 10
68.80234644547303
 20
-141.7160698430432
 10
68.80234644547303
 20
-141.7160698430432
 10
68.80234644547303
 20
-140.6119167400206
 10
68.80234644547303
 20
-140.6119167400206
 10
68.80234644547303
 20
-140.6119167400206
 10
68.44956866778344
 20
-140.6119167400206
 10
68.44956866778344
 20
-140.6119167400206
 10
68.44956866778344
 20
-140.6119167400206
 10
68.44956866778344
 20
-140.4637776341549
 10
68.44956866778344
 20
-140.4637776341549
 10
68.80458575753843
 20
-140.4489637235683
 10
68.8543673873003
 20
-140.286010707116
 10
68.88589001099034
 20
-140.1716335370057
 10
68.88589001099034
 20
-140.1716335370057
 10
69.04195283647215
 20
-140.1716335370057
 10
69.04195283647215
 20
-140.1716335370057
 10
69.04195283647215
 20
-140.1716335370057
 10
69.04195283647215
 20
-141.7160698430432
 10
69.04195283647215
 20
-141.7160698430432
 10
69.04195283647215
 20
-141.7160698430432
 10
68.80234644547303
 20
-141.7160698430432
 10
68.80234644547303
 20
-141.7160698430432
 97
        0
 97
        0
 75
     2
 76
     1
 98
        0
  0
SPLINE
  5
91
330
8B
100
AcDbEntity
  8
_U+30EC_U+30A4_U+30E4_U+30FC 1
370
     0
100
AcDbSpline
210
0.0
220
0.0
230
1.0
 70
    11
 71
     3
 72
    44
 73
    40
 74
     0
 42
0.0000000001
 43
0.0000000001
 12
1.0
 22
0.0
 32
0.0
 13
1.0
 23
0.0
 33
0.0
 40
0.0
 40
0.0
 40
0.0
 40
0.0
 40
1.0
 40
1.0
 40
1.0
 40
2.0
 40
2.0
 40
2.0
 40
3.0
 40
3.0
 40
3.0
 40
4.0
 40
4.0
 40
4.0
 40
5.0
 40
5.0
 40
5.0
 40
6.0
 40
6.0
 40
6.0
 40
7.0
 40
7.0
 40
7.0
 40
8.0
 40
8.0
 40
8.0
 40
9.0
 40
9.0
 40
9.0
 40
10.0
 40
10.0
 40
10.0
 40
11.0
 40
11.0
 40
11.0
 40
12.0
 40
12.0
 40
12.0
 40
13.0
 40
13.0
 40
13.0
 40
13.0
 10
70.66149222408811
 20
-141.7160698430432
 30
0.0
 10
70.63668753659431
 20
-141.6716281112835
 30
0.0
 10
70.61394990639165
 20
-141.6189181503592
 30
0.0
 10
70.61171059432624
 20
-141.3880967528474
 30
0.0
 10
70.60723197019541
 20
-141.1448730115888
 30
0.0
 10
70.54401446804108
 20
-141.0749375732382
 30
0.0
 10
70.35401745202955
 20
-141.0749375732382
 30
0.0
 10
70.35401745202955
 20
-141.0749375732382
 30
0.0
 10
69.91769610882267
 20
-141.0749375732382
 30
0.0
 10
69.91769610882267
 20
-141.0749375732382
 30
0.0
 10
69.91769610882267
 20
-141.0749375732382
 30
0.0
 10
69.91769610882267
 20
-141.7160698430432
 30
0.0
 10
69.91769610882267
 20
-141.7160698430432
 30
0.0
 10
69.91769610882267
 20
-141.7160698430432
 30
0.0
 10
69.66672090272222
 20
-141.7160698430432
 30
0.0
 10
69.66672090272222
 20
-141.7160698430432
 30
0.0
 10
69.66672090272222
 20
-141.7160698430432
 30
0.0
 10
69.66672090272222
 20
-140.1716335370057
 30
0.0
 10
69.66672090272222
 20
-140.1716335370057
 30
0.0
 10
69.66672090272222
 20
-140.1716335370057
 30
0.0
 10
70.38795164255926
 20
-140.1716335370057
 30
0.0
 10
70.38795164255926
 20
-140.1716335370057
 30
0.0
 10
70.71575247798079
 20
-140.1716335370057
 30
0.0
 10
70.894380678891
 20
-140.3431992921712
 30
0.0
 10
70.894380678891
 20
-140.5991698867252
 30
0.0
 10
70.894380678891
 20
-140.6498127903584
 30
0.0
 10
70.88542343062934
 20
-140.7324950820044
 30
0.0
 10
70.83788111293289
 20
-140.8127658068107
 30
0.0
 10
70.77449135600429
 20
-140.9164631809167
 30
0.0
 10
70.70455591765372
 20
-140.9354112060856
 30
0.0
 10
70.63892684865972
 20
-140.9522921739633
 30
0.0
 10
70.78586017110563
 20
-140.9946668484319
 30
0.0
 10
70.85820717629586
 20
-141.0432426947739
 30
0.0
 10
70.86268580042669
 20
-141.3584689316743
 30
0.0
 10
70.86716442455752
 20
-141.6292534368149
 30
0.0
 10
70.90574949399232
 20
-141.6609483152792
 30
0.0
 10
70.97809649918256
 20
-141.7160698430432
 30
0.0
 10
70.97809649918256
 20
-141.7160698430432
 30
0.0
 10
70.66149222408811
 20
-141.7160698430432
 30
0.0
 10
70.66149222408811
 20
-141.7160698430432
 30
0.0
  0
SPLINE
  5
92
330
8B
100
AcDbEntity
  8
_U+30EC_U+30A4_U+30E4_U+30FC 1
370
     0
100
AcDbSpline
210
0.0
220
0.0
230
1.0
 70
    11
 71
     3
 72
    20
 73
    16
 74
     0
 42
0.0000000001
 43
0.0000000001
 12
1.0
 22
0.0
 32
0.0
 13
1.0
 23
0.0
 33
0.0
 40
0.0
 40
0.0
 40
0.0
 40
0.0
 40
1.0
 40
1.0
 40
1.0
 40
2.0
 40
2.0
 40
2.0
 40
3.0
 40
3.0
 40
3.0
 40
4.0
 40
4.0
 40
4.0
 40
5.0
 40
5.0
 40
5.0
 40
5.0
 10
70.39243026669008
 20
-140.3831623998001
 30
0.0
 10
70.39243026669008
 20
-140.3831623998001
 30
0.0
 10
69.91769610882267
 20
-140.3831623998001
 30
0.0
 10
69.91769610882267
 20
-140.3831623998001
 30
0.0
 10
69.91769610882267
 20
-140.3831623998001
 30
0.0
 10
69.91769610882267
 20
-140.8634087104439
 30
0.0
 10
69.91769610882267
 20
-140.8634087104439
 30
0.0
 10
69.91769610882267
 20
-140.8634087104439
 30
0.0
 10
70.39019095462467
 20
-140.8634087104439
 30
0.0
 10
70.39019095462467
 20
-140.8634087104439
 30
0.0
 10
70.49647215034463
 20
-140.8634087104439
 30
0.0
 10
70.64116616072513
 20
-140.7872721002199
 30
0.0
 10
70.64116616072513
 20
-140.6160508546029
 30
0.0
 10
70.64116616072513
 20
-140.5378471870878
 30
0.0
 10
70.60499265813
 20
-140.3831623998001
 30
0.0
 10
70.39243026669008
 20
-140.3831623998001
 30
0.0
  0
HATCH
  5
93
330
8B
100
AcDbEntity
  8
_U+30EC_U+30A4_U+30E4_U+30FC 1
 62
     7
420
 16777215
100
AcDbHatch
 10
0.0
 20
0.0
 30
0.0
210
0.0
220
0.0
230
1.0
  2
SOLID
 70
     1
 71
     0
 91
        2
 92
        1
 93
        1
 72
     4
 94
        3
 73
     0
 74
     1
 95
       44
 96
       40
 40
0.0
 40
0.0
 40
0.0
 40
0.0
 40
1.0
 40
1.0
 40
1.0
 40
2.0
 40
2.0
 40
2.0
 40
3.0
 40
3.0
 40
3.0
 40
4.0
 40
4.0
 40
4.0
 40
5.0
 40
5.0
 40
5.0
 40
6.0
 40
6.0
 40
6.0
 40
7.0
 40
7.0
 40
7.0
 40
8.0
 40
8.0
 40
8.0
 40
9.0
 40
9.0
 40
9.0
 40
10.0
 40
10.0
 40
10.0
 40
11.0
 40
11.0
 40
11.0
 40
12.0
 40
12.0
 40
12.0
 40
13.0
 40
13.0
 40
13.0
 40
13.0
 10
70.66149222408811
 20
-141.7160698430432
 10
70.63668753659431
 20
-141.6716281112835
 10
70.61394990639165
 20
-141.6189181503592
 10
70.61171059432624
 20
-141.3880967528474
 10
70.60723197019541
 20
-141.1448730115888
 10
70.54401446804108
 20
-141.0749375732382
 10
70.35401745202955
 20
-141.0749375732382
 10
70.35401745202955
 20
-141.0749375732382
 10
69.91769610882267
 20
-141.0749375732382
 10
69.91769610882267
 20
-141.0749375732382
 10
69.91769610882267
 20
-141.0749375732382
 10
69.91769610882267
 20
-141.7160698430432
 10
69.91769610882267
 20
-141.7160698430432
 10
69.91769610882267
 20
-141.7160698430432
 10
69.66672090272222
 20
-141.7160698430432
 10
69.66672090272222
 20
-141.7160698430432
 10
69.66672090272222
 20
-141.7160698430432
 10
69.66672090272222
 20
-140.1716335370057
 10
69.66672090272222
 20
-140.1716335370057
 10
69.66672090272222
 20
-140.1716335370057
 10
70.38795164255926
 20
-140.1716335370057
 10
70.38795164255926
 20
-140.1716335370057
 10
70.71575247798079
 20
-140.1716335370057
 10
70.894380678891
 20
-140.3431992921712
 10
70.894380678891
 20
-140.5991698867252
 10
70.894380678891
 20
-140.6498127903584
 10
70.88542343062934
 20
-140.7324950820044
 10
70.83788111293289
 20
-140.8127658068107
 10
70.77449135600429
 20
-140.9164631809167
 10
70.70455591765372
 20
-140.9354112060856
 10
70.63892684865972
 20
-140.9522921739633
 10
70.78586017110563
 20
-140.9946668484319
 10
70.85820717629586
 20
-141.0432426947739
 10
70.86268580042669
 20
-141.3584689316743
 10
70.86716442455752
 20
-141.6292534368149
 10
70.90574949399232
 20
-141.6609483152792
 10
70.97809649918256
 20
-141.7160698430432
 10
70.97809649918256
 20
-141.7160698430432
 10
70.66149222408811
 20
-141.7160698430432
 10
70.66149222408811
 20
-141.7160698430432
 97
        0
 97
        0
 92
        1
 93
        1
 72
     4
 94
        3
 73
     0
 74
     1
 95
       20
 96
       16
 40
0.0
 40
0.0
 40
0.0
 40
0.0
 40
1.0
 40
1.0
 40
1.0
 40
2.0
 40
2.0
 40
2.0
 40
3.0
 40
3.0
 40
3.0
 40
4.0
 40
4.0
 40
4.0
 40
5.0
 40
5.0
 40
5.0
 40
5.0
 10
70.39243026669008
 20
-140.3831623998001
 10
70.39243026669008
 20
-140.3831623998001
 10
69.91769610882267
 20
-140.3831623998001
 10
69.91769610882267
 20
-140.3831623998001
 10
69.91769610882267
 20
-140.3831623998001
 10
69.91769610882267
 20
-140.8634087104439
 10
69.91769610882267
 20
-140.8634087104439
 10
69.91769610882267
 20
-140.8634087104439
 10
70.39019095462467
 20
-140.8634087104439
 10
70.39019095462467
 20
-140.8634087104439
 10
70.49647215034463
 20
-140.8634087104439
 10
70.64116616072513
 20
-140.7872721002199
 10
70.64116616072513
 20
-140.6160508546029
 10
70.64116616072513
 20
-140.5378471870878
 10
70.60499265813
 20
-140.3831623998001
 10
70.39243026669008
 20
-140.3831623998001
 97
        0
 97
        0
 75
     2
 76
     1
 98
        0
  0
ENDBLK
  5
8E
330
8B
100
AcDbEntity
  8
0
100
AcDbBlockEnd
  0
BLOCK
  5
A2
330
A0
100
AcDbEntity
  8
0
100
AcDbBlockBegin
  2
block 3
 70
     0
 10
0.0
 20
0.0
 30
0.0
  3
block 3
  1

  0
SPLINE
  5
A4
330
A0
100
AcDbEntity
  8
_U+30EC_U+30A4_U+30E4_U+30FC 1
370
     0
100
AcDbSpline
210
0.0
220
0.0
230
1.0
 70
    11
 71
     3
 72
    44
 73
    40
 74
     0
 42
0.0000000001
 43
0.0000000001
 12
1.0
 22
0.0
 32
0.0
 13
1.0
 23
0.0
 33
0.0
 40
0.0
 40
0.0
 40
0.0
 40
0.0
 40
1.0
 40
1.0
 40
1.0
 40
2.0
 40
2.0
 40
2.0
 40
3.0
 40
3.0
 40
3.0
 40
4.0
 40
4.0
 40
4.0
 40
5.0
 40
5.0
 40
5.0
 40
6.0
 40
6.0
 40
6.0
 40
7.0
 40
7.0
 40
7.0
 40
8.0
 40
8.0
 40
8.0
 40
9.0
 40
9.0
 40
9.0
 40
10.0
 40
10.0
 40
10.0
 40
11.0
 40
11.0
 40
11.0
 40
12.0
 40
12.0
 40
12.0
 40
13.0
 40
13.0
 40
13.0
 40
13.0
 10
88.35533038155701
 20
-114.6846448823532
 30
0.0
 10
88.12244192675412
 20
-114.8432915294489
 30
0.0
 10
88.0228786672304
 20
-114.9173610823818
 30
0.0
 10
87.97120223495165
 20
-115.0610215641167
 30
0.0
 10
87.97120223495165
 20
-115.0610215641167
 30
0.0
 10
88.80284828509096
 20
-115.0610215641167
 30
0.0
 10
88.80284828509096
 20
-115.0610215641167
 30
0.0
 10
88.80284828509096
 20
-115.0610215641167
 30
0.0
 10
88.80284828509096
 20
-115.2663492550376
 30
0.0
 10
88.80284828509096
 20
-115.2663492550376
 30
0.0
 10
88.80284828509096
 20
-115.2663492550376
 30
0.0
 10
87.70420733484478
 20
-115.2663492550376
 30
0.0
 10
87.70420733484478
 20
-115.2663492550376
 30
0.0
 10
87.73831378014876
 20
-114.9087483436686
 30
0.0
 10
87.80824921849933
 20
-114.8305446761535
 30
0.0
 10
88.21959361943816
 20
-114.5321994071308
 30
0.0
 10
88.49313420096699
 20
-114.3334173976319
 30
0.0
 10
88.5634141488661
 20
-114.2657212713468
 30
0.0
 10
88.5634141488661
 20
-114.1282619614853
 30
0.0
 10
88.5634141488661
 20
-114.0097506767927
 30
0.0
 10
88.48658851954502
 20
-113.8786647935789
 30
0.0
 10
88.27609318539626
 20
-113.8786647935789
 30
0.0
 10
87.9980739797366
 20
-113.8786647935789
 30
0.0
 10
87.98911673147495
 20
-114.1091416815422
 30
0.0
 10
87.98463810734413
 20
-114.2255859089436
 30
0.0
 10
87.98463810734413
 20
-114.2255859089436
 30
0.0
 10
87.74485946157074
 20
-114.2255859089436
 30
0.0
 10
87.74485946157074
 20
-114.2255859089436
 30
0.0
 10
87.7541612193809
 20
-114.0986341403122
 30
0.0
 10
87.76518552493371
 20
-113.9864962822673
 30
0.0
 10
87.85131291206496
 20
-113.8679849975747
 30
0.0
 10
87.96879066811198
 20
-113.7072712931878
 30
0.0
 10
88.16757267761089
 20
-113.6733371026581
 30
0.0
 10
88.29194062462841
 20
-113.6733371026581
 30
0.0
 10
88.5882188363599
 20
-113.6733371026581
 30
0.0
 10
88.80973847606145
 20
-113.8574774563447
 30
0.0
 10
88.80973847606145
 20
-114.1303290187765
 30
0.0
 10
88.80973847606145
 20
-114.3587388494485
 30
0.0
 10
88.68537052904394
 20
-114.4583021089722
 30
0.0
 10
88.35533038155701
 20
-114.6846448823532
 30
0.0
  0
HATCH
  5
A5
330
A0
100
AcDbEntity
  8
_U+30EC_U+30A4_U+30E4_U+30FC 1
 62
     7
420
 16777215
100
AcDbHatch
 10
0.0
 20
0.0
 30
0.0
210
0.0
220
0.0
230
1.0
  2
SOLID
 70
     1
 71
     0
 91
        1
 92
        1
 93
        1
 72
     4
 94
        3
 73
     0
 74
     1
 95
       44
 96
       40
 40
0.0
 40
0.0
 40
0.0
 40
0.0
 40
1.0
 40
1.0
 40
1.0
 40
2.0
 40
2.0
 40
2.0
 40
3.0
 40
3.0
 40
3.0
 40
4.0
 40
4.0
 40
4.0
 40
5.0
 40
5.0
 40
5.0
 40
6.0
 40
6.0
 40
6.0
 40
7.0
 40
7.0
 40
7.0
 40
8.0
 40
8.0
 40
8.0
 40
9.0
 40
9.0
 40
9.0
 40
10.0
 40
10.0
 40
10.0
 40
11.0
 40
11.0
 40
11.0
 40
12.0
 40
12.0
 40
12.0
 40
13.0
 40
13.0
 40
13.0
 40
13.0
 10
88.35533038155701
 20
-114.6846448823532
 10
88.12244192675412
 20
-114.8432915294489
 10
88.0228786672304
 20
-114.9173610823818
 10
87.97120223495165
 20
-115.0610215641167
 10
87.97120223495165
 20
-115.0610215641167
 10
88.80284828509096
 20
-115.0610215641167
 10
88.80284828509096
 20
-115.0610215641167
 10
88.80284828509096
 20
-115.0610215641167
 10
88.80284828509096
 20
-115.2663492550376
 10
88.80284828509096
 20
-115.2663492550376
 10
88.80284828509096
 20
-115.2663492550376
 10
87.70420733484478
 20
-115.2663492550376
 10
87.70420733484478
 20
-115.2663492550376
 10
87.73831378014876
 20
-114.9087483436686
 10
87.80824921849933
 20
-114.8305446761535
 10
88.21959361943816
 20
-114.5321994071308
 10
88.49313420096699
 20
-114.3334173976319
 10
88.5634141488661
 20
-114.2657212713468
 10
88.5634141488661
 20
-114.1282619614853
 10
88.5634141488661
 20
-114.0097506767927
 10
88.48658851954502
 20
-113.8786647935789
 10
88.27609318539626
 20
-113.8786647935789
 10
87.9980739797366
 20
-113.8786647935789
 10
87.98911673147495
 20
-114.1091416815422
 10
87.98463810734413
 20
-114.2255859089436
 10
87.98463810734413
 20
-114.2255859089436
 10
87.74485946157074
 20
-114.2255859089436
 10
87.74485946157074
 20
-114.2255859089436
 10
87.7541612193809
 20
-114.0986341403122
 10
87.76518552493371
 20
-113.9864962822673
 10
87.85131291206496
 20
-113.8679849975747
 10
87.96879066811198
 20
-113.7072712931878
 10
88.16757267761089
 20
-113.6733371026581
 10
88.29194062462841
 20
-113.6733371026581
 10
88.5882188363599
 20
-113.6733371026581
 10
88.80973847606145
 20
-113.8574774563447
 10
88.80973847606145
 20
-114.1303290187765
 10
88.80973847606145
 20
-114.3587388494485
 10
88.68537052904394
 20
-114.4583021089722
 10
88.35533038155701
 20
-114.6846448823532
 97
        0
 97
        0
 75
     2
 76
     1
 98
        0
  0
POLYLINE
  5
A6
330
A0
100
AcDbEntity
  8
_U+30EC_U+30A4_U+30E4_U+30FC 1
370
     0
100
AcDb2dPolyline
 66
     1
 10
0.0
 20
0.0
 30
0.0
  0
VERTEX
  5
A7
330
A6
100
AcDbEntity
  8
_U+30EC_U+30A4_U+30E4_U+30FC 1
370
     0
100
AcDbVertex
100
AcDb2dVertex
 10
89.86876082822725
 20
-114.9194281396729
 30
0.0
  0
VERTEX
  5
A8
330
A6
100
AcDbEntity
  8
_U+30EC_U+30A4_U+30E4_U+30FC 1
370
     0
100
AcDbVertex
100
AcDb2dVertex
 10
89.86876082822725
 20
-115.2663492550376
 30
0.0
  0
VERTEX
  5
A9
330
A6
100
AcDbEntity
  8
_U+30EC_U+30A4_U+30E4_U+30FC 1
370
     0
100
AcDbVertex
100
AcDb2dVertex
 10
89.63587237342436
 20
-115.2663492550376
 30
0.0
  0
VERTEX
  5
AA
330
A6
100
AcDbEntity
  8
_U+30EC_U+30A4_U+30E4_U+30FC 1
370
     0
100
AcDbVertex
100
AcDb2dVertex
 10
89.63587237342436
 20
-114.9194281396729
 30
0.0
  0
VERTEX
  5
AB
330
A6
100
AcDbEntity
  8
_U+30EC_U+30A4_U+30E4_U+30FC 1
370
     0
100
AcDbVertex
100
AcDb2dVertex
 10
88.93479544217602
 20
-114.9194281396729
 30
0.0
  0
VERTEX
  5
AC
330
A6
100
AcDbEntity
  8
_U+30EC_U+30A4_U+30E4_U+30FC 1
370
     0
100
AcDbVertex
100
AcDb2dVertex
 10
88.93479544217602
 20
-114.6951524235832
 30
0.0
  0
VERTEX
  5
AD
330
A6
100
AcDbEntity
  8
_U+30EC_U+30A4_U+30E4_U+30FC 1
370
     0
100
AcDbVertex
100
AcDb2dVertex
 10
89.66067706091818
 20
-113.7220852037743
 30
0.0
  0
VERTEX
  5
AE
330
A6
100
AcDbEntity
  8
_U+30EC_U+30A4_U+30E4_U+30FC 1
370
     0
100
AcDbVertex
100
AcDb2dVertex
 10
89.86876082822725
 20
-113.7220852037743
 30
0.0
  0
VERTEX
  5
AF
330
A6
100
AcDbEntity
  8
_U+30EC_U+30A4_U+30E4_U+30FC 1
370
     0
100
AcDbVertex
100
AcDb2dVertex
 10
89.86876082822725
 20
-114.7204738753997
 30
0.0
  0
VERTEX
  5
B0
330
A6
100
AcDbEntity
  8
_U+30EC_U+30A4_U+30E4_U+30FC 1
370
     0
100
AcDbVertex
100
AcDb2dVertex
 10
90.09028046792882
 20
-114.7204738753997
 30
0.0
  0
VERTEX
  5
B1
330
A6
100
AcDbEntity
  8
_U+30EC_U+30A4_U+30E4_U+30FC 1
370
     0
100
AcDbVertex
100
AcDb2dVertex
 10
90.09028046792882
 20
-114.9194281396729
 30
0.0
  0
VERTEX
  5
B2
330
A6
100
AcDbEntity
  8
_U+30EC_U+30A4_U+30E4_U+30FC 1
370
     0
100
AcDbVertex
100
AcDb2dVertex
 10
89.86876082822725
 20
-114.9194281396729
 30
0.0
  0
SEQEND
  5
B3
330
A6
100
AcDbEntity
  8
_U+30EC_U+30A4_U+30E4_U+30FC 1
370
     0
  0
POLYLINE
  5
B4
330
A0
100
AcDbEntity
  8
_U+30EC_U+30A4_U+30E4_U+30FC 1
370
     0
100
AcDb2dPolyline
 66
     1
 10
0.0
 20
0.0
 30
0.0
  0
VERTEX
  5
B5
330
B4
100
AcDbEntity
  8
_U+30EC_U+30A4_U+30E4_U+30FC 1
370
     0
100
AcDbVertex
100
AcDb2dVertex
 10
89.63587237342436
 20
-114.0646999497824
 30
0.0
  0
VERTEX
  5
B6
330
B4
100
AcDbEntity
  8
_U+30EC_U+30A4_U+30E4_U+30FC 1
370
     0
100
AcDbVertex
100
AcDb2dVertex
 10
89.14735783361594
 20
-114.7204738753997
 30
0.0
  0
VERTEX
  5
B7
330
B4
100
AcDbEntity
  8
_U+30EC_U+30A4_U+30E4_U+30FC 1
370
     0
100
AcDbVertex
100
AcDb2dVertex
 10
89.63587237342436
 20
-114.7204738753997
 30
0.0
  0
VERTEX
  5
B8
330
B4
100
AcDbEntity
  8
_U+30EC_U+30A4_U+30E4_U+30FC 1
370
     0
100
AcDbVertex
100
AcDb2dVertex
 10
89.63587237342436
 20
-114.0646999497824
 30
0.0
  0
SEQEND
  5
B9
330
B4
100
AcDbEntity
  8
_U+30EC_U+30A4_U+30E4_U+30FC 1
370
     0
  0
HATCH
  5
BA
330
A0
100
AcDbEntity
  8
_U+30EC_U+30A4_U+30E4_U+30FC 1
 62
     7
420
 16777215
100
AcDbHatch
 10
0.0
 20
0.0
 30
0.0
210
0.0
220
0.0
230
1.0
  2
SOLID
 70
     1
 71
     0
 91
        2
 92
        1
 93
       11
 72
     1
 10
89.86876082822725
 20
-114.9194281396729
 11
89.86876082822725
 21
-115.2663492550376
 72
     1
 10
89.86876082822725
 20
-115.2663492550376
 11
89.63587237342436
 21
-115.2663492550376
 72
     1
 10
89.63587237342436
 20
-115.2663492550376
 11
89.63587237342436
 21
-114.9194281396729
 72
     1
 10
89.63587237342436
 20
-114.9194281396729
 11
88.93479544217602
 21
-114.9194281396729
 72
     1
 10
88.93479544217602
 20
-114.9194281396729
 11
88.93479544217602
 21
-114.6951524235832
 72
     1
 10
88.93479544217602
 20
-114.6951524235832
 11
89.66067706091818
 21
-113.7220852037743
 72
     1
 10
89.66067706091818
 20
-113.7220852037743
 11
89.86876082822725
 21
-113.7220852037743
 72
     1
 10
89.86876082822725
 20
-113.7220852037743
 11
89.86876082822725
 21
-114.7204738753997
 72
     1
 10
89.86876082822725
 20
-114.7204738753997
 11
90.09028046792882
 21
-114.7204738753997
 72
     1
 10
90.09028046792882
 20
-114.7204738753997
 11
90.09028046792882
 21
-114.9194281396729
 72
     1
 10
90.09028046792882
 20
-114.9194281396729
 11
89.86876082822725
 21
-114.9194281396729
 97
        0
 92
        1
 93
        3
 72
     1
 10
89.63587237342436
 20
-114.0646999497824
 11
89.14735783361594
 21
-114.7204738753997
 72
     1
 10
89.14735783361594
 20
-114.7204738753997
 11
89.63587237342436
 21
-114.7204738753997
 72
     1
 10
89.63587237342436
 20
-114.7204738753997
 11
89.63587237342436
 21
-114.0646999497824
 97
        0
 75
     2
 76
     1
 98
        0
  0
ENDBLK
  5
A3
330
A0
100
AcDbEntity
  8
0
100
AcDbBlockEnd
  0
BLOCK
  5
C5
330
C3
100
AcDbEntity
  8
0
100
AcDbBlockBegin
  2
block 4
 70
     0
 10
0.0
 20
0.0
 30
0.0
  3
block 4
  1

  0
SPLINE
  5
C7
330
C3
100
AcDbEntity
  8
_U+30EC_U+30A4_U+30E4_U+30FC 1
370
     0
100
AcDbSpline
210
0.0
220
0.0
230
1.0
 70
    11
 71
     3
 72
    26
 73
    22
 74
     0
 42
0.0000000001
 43
0.0000000001
 12
1.0
 22
0.0
 32
0.0
 13
1.0
 23
0.0
 33
0.0
 40
0.0
 40
0.0
 40
0.0
 40
0.0
 40
1.0
 40
1.0
 40
1.0
 40
2.0
 40
2.0
 40
2.0
 40
3.0
 40
3.0
 40
3.0
 40
4.0
 40
4.0
 40
4.0
 40
5.0
 40
5.0
 40
5.0
 40
6.0
 40
6.0
 40
6.0
 40
7.0
 40
7.0
 40
7.0
 40
7.0
 10
78.5219943380084
 20
-121.7662109070585
 30
0.0
 10
78.5219943380084
 20
-121.7662109070585
 30
0.0
 10
78.5219943380084
 20
-120.6618855492616
 30
0.0
 10
78.5219943380084
 20
-120.6618855492616
 30
0.0
 10
78.5219943380084
 20
-120.6618855492616
 30
0.0
 10
78.16921656031882
 20
-120.6618855492616
 30
0.0
 10
78.16921656031882
 20
-120.6618855492616
 30
0.0
 10
78.16921656031882
 20
-120.6618855492616
 30
0.0
 10
78.16921656031882
 20
-120.5139186981701
 30
0.0
 10
78.16921656031882
 20
-120.5139186981701
 30
0.0
 10
78.52423365007381
 20
-120.4991047875836
 30
0.0
 10
78.57401527983566
 20
-120.3361517711312
 30
0.0
 10
78.60571015829997
 20
-120.2219468557952
 30
0.0
 10
78.60571015829997
 20
-120.2219468557952
 30
0.0
 10
78.76160072900753
 20
-120.2219468557952
 30
0.0
 10
78.76160072900753
 20
-120.2219468557952
 30
0.0
 10
78.76160072900753
 20
-120.2219468557952
 30
0.0
 10
78.76160072900753
 20
-121.7662109070585
 30
0.0
 10
78.76160072900753
 20
-121.7662109070585
 30
0.0
 10
78.76160072900753
 20
-121.7662109070585
 30
0.0
 10
78.5219943380084
 20
-121.7662109070585
 30
0.0
 10
78.5219943380084
 20
-121.7662109070585
 30
0.0
  0
HATCH
  5
C8
330
C3
100
AcDbEntity
  8
_U+30EC_U+30A4_U+30E4_U+30FC 1
 62
     7
420
 16777215
100
AcDbHatch
 10
0.0
 20
0.0
 30
0.0
210
0.0
220
0.0
230
1.0
  2
SOLID
 70
     1
 71
     0
 91
        1
 92
        1
 93
        1
 72
     4
 94
        3
 73
     0
 74
     1
 95
       26
 96
       22
 40
0.0
 40
0.0
 40
0.0
 40
0.0
 40
1.0
 40
1.0
 40
1.0
 40
2.0
 40
2.0
 40
2.0
 40
3.0
 40
3.0
 40
3.0
 40
4.0
 40
4.0
 40
4.0
 40
5.0
 40
5.0
 40
5.0
 40
6.0
 40
6.0
 40
6.0
 40
7.0
 40
7.0
 40
7.0
 40
7.0
 10
78.5219943380084
 20
-121.7662109070585
 10
78.5219943380084
 20
-121.7662109070585
 10
78.5219943380084
 20
-120.6618855492616
 10
78.5219943380084
 20
-120.6618855492616
 10
78.5219943380084
 20
-120.6618855492616
 10
78.16921656031882
 20
-120.6618855492616
 10
78.16921656031882
 20
-120.6618855492616
 10
78.16921656031882
 20
-120.6618855492616
 10
78.16921656031882
 20
-120.5139186981701
 10
78.16921656031882
 20
-120.5139186981701
 10
78.52423365007381
 20
-120.4991047875836
 10
78.57401527983566
 20
-120.3361517711312
 10
78.60571015829997
 20
-120.2219468557952
 10
78.60571015829997
 20
-120.2219468557952
 10
78.76160072900753
 20
-120.2219468557952
 10
78.76160072900753
 20
-120.2219468557952
 10
78.76160072900753
 20
-120.2219468557952
 10
78.76160072900753
 20
-121.7662109070585
 10
78.76160072900753
 20
-121.7662109070585
 10
78.76160072900753
 20
-121.7662109070585
 10
78.5219943380084
 20
-121.7662109070585
 10
78.5219943380084
 20
-121.7662109070585
 97
        0
 97
        0
 75
     2
 76
     1
 98
        0
  0
ENDBLK
  5
C6
330
C3
100
AcDbEntity
  8
0
100
AcDbBlockEnd
  0
BLOCK
  5
D7
330
D5
100
AcDbEntity
  8
0
100
AcDbBlockBegin
  2
block 5
 70
     0
 10
0.0
 20
0.0
 30
0.0
  3
block 5
  1

  0
SPLINE
  5
D9
330
D5
100
AcDbEntity
  8
_U+30EC_U+30A4_U+30E4_U+30FC 1
370
     0
100
AcDbSpline
210
0.0
220
0.0
230
1.0
 70
    11
 71
     3
 72
    26
 73
    22
 74
     0
 42
0.0000000001
 43
0.0000000001
 12
1.0
 22
0.0
 32
0.0
 13
1.0
 23
0.0
 33
0.0
 40
0.0
 40
0.0
 40
0.0
 40
0.0
 40
1.0
 40
1.0
 40
1.0
 40
2.0
 40
2.0
 40
2.0
 40
3.0
 40
3.0
 40
3.0
 40
4.0
 40
4.0
 40
4.0
 40
5.0
 40
5.0
 40
5.0
 40
6.0
 40
6.0
 40
6.0
 40
7.0
 40
7.0
 40
7.0
 40
7.0
 10
70.79895153394958
 20
-130.0389186957889
 30
0.0
 10
70.79895153394958
 20
-130.0389186957889
 30
0.0
 10
69.69462617615274
 20
-130.0389186957889
 30
0.0
 10
69.69462617615274
 20
-130.0389186957889
 30
0.0
 10
69.69462617615274
 20
-130.0389186957889
 30
0.0
 10
69.69462617615274
 20
-130.3913519639299
 30
0.0
 10
69.69462617615274
 20
-130.3913519639299
 30
0.0
 10
69.69462617615274
 20
-130.3913519639299
 30
0.0
 10
69.54648707028699
 20
-130.3913519639299
 30
0.0
 10
69.54648707028699
 20
-130.3913519639299
 30
0.0
 10
69.53184541447467
 20
-130.0365071289492
 30
0.0
 10
69.36889239802237
 20
-129.9868977539616
 30
0.0
 10
69.25468748268634
 20
-129.9552028754973
 30
0.0
 10
69.25468748268634
 20
-129.9552028754973
 30
0.0
 10
69.25468748268634
 20
-129.7991400500155
 30
0.0
 10
69.25468748268634
 20
-129.7991400500155
 30
0.0
 10
69.25468748268634
 20
-129.7991400500155
 30
0.0
 10
70.79895153394958
 20
-129.7991400500155
 30
0.0
 10
70.79895153394958
 20
-129.7991400500155
 30
0.0
 10
70.79895153394958
 20
-129.7991400500155
 30
0.0
 10
70.79895153394958
 20
-130.0389186957889
 30
0.0
 10
70.79895153394958
 20
-130.0389186957889
 30
0.0
  0
HATCH
  5
DA
330
D5
100
AcDbEntity
  8
_U+30EC_U+30A4_U+30E4_U+30FC 1
 62
     7
420
 16777215
100
AcDbHatch
 10
0.0
 20
0.0
 30
0.0
210
0.0
220
0.0
230
1.0
  2
SOLID
 70
     1
 71
     0
 91
        1
 92
        1
 93
        1
 72
     4
 94
        3
 73
     0
 74
     1
 95
       26
 96
       22
 40
0.0
 40
0.0
 40
0.0
 40
0.0
 40
1.0
 40
1.0
 40
1.0
 40
2.0
 40
2.0
 40
2.0
 40
3.0
 40
3.0
 40
3.0
 40
4.0
 40
4.0
 40
4.0
 40
5.0
 40
5.0
 40
5.0
 40
6.0
 40
6.0
 40
6.0
 40
7.0
 40
7.0
 40
7.0
 40
7.0
 10
70.79895153394958
 20
-130.0389186957889
 10
70.79895153394958
 20
-130.0389186957889
 10
69.69462617615274
 20
-130.0389186957889
 10
69.69462617615274
 20
-130.0389186957889
 10
69.69462617615274
 20
-130.0389186957889
 10
69.69462617615274
 20
-130.3913519639299
 10
69.69462617615274
 20
-130.3913519639299
 10
69.69462617615274
 20
-130.3913519639299
 10
69.54648707028699
 20
-130.3913519639299
 10
69.54648707028699
 20
-130.3913519639299
 10
69.53184541447467
 20
-130.0365071289492
 10
69.36889239802237
 20
-129.9868977539616
 10
69.25468748268634
 20
-129.9552028754973
 10
69.25468748268634
 20
-129.9552028754973
 10
69.25468748268634
 20
-129.7991400500155
 10
69.25468748268634
 20
-129.7991400500155
 10
69.25468748268634
 20
-129.7991400500155
 10
70.79895153394958
 20
-129.7991400500155
 10
70.79895153394958
 20
-129.7991400500155
 10
70.79895153394958
 20
-129.7991400500155
 10
70.79895153394958
 20
-130.0389186957889
 10
70.79895153394958
 20
-130.0389186957889
 97
        0
 97
        0
 75
     2
 76
     1
 98
        0
  0
SPLINE
  5
DB
330
D5
100
AcDbEntity
  8
_U+30EC_U+30A4_U+30E4_U+30FC 1
370
     0
100
AcDbSpline
210
0.0
220
0.0
230
1.0
 70
    11
 71
     3
 72
    32
 73
    28
 74
     0
 42
0.0000000001
 43
0.0000000001
 12
1.0
 22
0.0
 32
0.0
 13
1.0
 23
0.0
 33
0.0
 40
0.0
 40
0.0
 40
0.0
 40
0.0
 40
1.0
 40
1.0
 40
1.0
 40
2.0
 40
2.0
 40
2.0
 40
3.0
 40
3.0
 40
3.0
 40
4.0
 40
4.0
 40
4.0
 40
5.0
 40
5.0
 40
5.0
 40
6.0
 40
6.0
 40
6.0
 40
7.0
 40
7.0
 40
7.0
 40
8.0
 40
8.0
 40
8.0
 40
9.0
 40
9.0
 40
9.0
 40
9.0
 10
70.84976669235701
 20
-128.7742241431537
 30
0.0
 10
70.84976669235701
 20
-128.9595702802601
 30
0.0
 10
70.77983125400644
 20
-129.2217420466876
 30
0.0
 10
70.44772404922836
 20
-129.2623941734136
 30
0.0
 10
70.44772404922836
 20
-129.2623941734136
 30
0.0
 10
70.44772404922836
 20
-129.03432885229
 30
0.0
 10
70.44772404922836
 20
-129.03432885229
 30
0.0
 10
70.50697969157464
 20
-129.0229600371887
 30
0.0
 10
70.6551187974404
 20
-128.9888535918847
 30
0.0
 10
70.6551187974404
 20
-128.771812576314
 30
0.0
 10
70.6551187974404
 20
-128.4600314348989
 30
0.0
 10
70.32507864995345
 20
-128.4193793081729
 30
0.0
 10
70.11992321380683
 20
-128.4055989262319
 30
0.0
 10
70.20019393861315
 20
-128.502750618916
 30
0.0
 10
70.2573825236683
 20
-128.5750976241062
 30
0.0
 10
70.2573825236683
 20
-128.7697455190228
 30
0.0
 10
70.2573825236683
 20
-128.9619818470998
 30
0.0
 10
70.15161809227112
 20
-129.2851318036162
 30
0.0
 10
69.74544133456017
 20
-129.2851318036162
 30
0.0
 10
69.42590872830324
 20
-129.2851318036162
 30
0.0
 10
69.20593938157005
 20
-129.0725694121763
 30
0.0
 10
69.20593938157005
 20
-128.7335720164277
 30
0.0
 10
69.20593938157005
 20
-128.1840792865304
 30
0.0
 10
69.76025524514675
 20
-128.172710471429
 30
0.0
 10
69.97385116523223
 20
-128.172710471429
 30
0.0
 10
70.20450030796971
 20
-128.172710471429
 30
0.0
 10
70.84976669235701
 20
-128.193036534792
 30
0.0
 10
70.84976669235701
 20
-128.7742241431537
 30
0.0
  0
SPLINE
  5
DC
330
D5
100
AcDbEntity
  8
_U+30EC_U+30A4_U+30E4_U+30FC 1
370
     0
100
AcDbSpline
210
0.0
220
0.0
230
1.0
 70
    11
 71
     3
 72
    17
 73
    13
 74
     0
 42
0.0000000001
 43
0.0000000001
 12
1.0
 22
0.0
 32
0.0
 13
1.0
 23
0.0
 33
0.0
 40
0.0
 40
0.0
 40
0.0
 40
0.0
 40
1.0
 40
1.0
 40
1.0
 40
2.0
 40
2.0
 40
2.0
 40
3.0
 40
3.0
 40
3.0
 40
4.0
 40
4.0
 40
4.0
 40
4.0
 10
69.39852021919552
 20
-128.7311604495881
 30
0.0
 10
69.39852021919552
 20
-128.8579399634452
 30
0.0
 10
69.45553654947639
 20
-129.0453531578428
 30
0.0
 10
69.74113496520361
 20
-129.0453531578428
 30
0.0
 10
69.96747773858452
 20
-129.0453531578428
 30
0.0
 10
70.06273462875168
 20
-128.8961805233315
 30
0.0
 10
70.06273462875168
 20
-128.751486512951
 30
0.0
 10
70.06273462875168
 20
-128.4710557404517
 30
0.0
 10
69.85327282324849
 20
-128.4304036137257
 30
0.0
 10
69.73700085062131
 20
-128.4304036137257
 30
0.0
 10
69.56130098087357
 20
-128.4304036137257
 30
0.0
 10
69.39852021919552
 20
-128.5323784400891
 30
0.0
 10
69.39852021919552
 20
-128.7311604495881
 30
0.0
  0
HATCH
  5
DD
330
D5
100
AcDbEntity
  8
_U+30EC_U+30A4_U+30E4_U+30FC 1
 62
     7
420
 16777215
100
AcDbHatch
 10
0.0
 20
0.0
 30
0.0
210
0.0
220
0.0
230
1.0
  2
SOLID
 70
     1
 71
     0
 91
        2
 92
        1
 93
        1
 72
     4
 94
        3
 73
     0
 74
     1
 95
       32
 96
       28
 40
0.0
 40
0.0
 40
0.0
 40
0.0
 40
1.0
 40
1.0
 40
1.0
 40
2.0
 40
2.0
 40
2.0
 40
3.0
 40
3.0
 40
3.0
 40
4.0
 40
4.0
 40
4.0
 40
5.0
 40
5.0
 40
5.0
 40
6.0
 40
6.0
 40
6.0
 40
7.0
 40
7.0
 40
7.0
 40
8.0
 40
8.0
 40
8.0
 40
9.0
 40
9.0
 40
9.0
 40
9.0
 10
70.84976669235701
 20
-128.7742241431537
 10
70.84976669235701
 20
-128.9595702802601
 10
70.77983125400644
 20
-129.2217420466876
 10
70.44772404922836
 20
-129.2623941734136
 10
70.44772404922836
 20
-129.2623941734136
 10
70.44772404922836
 20
-129.03432885229
 10
70.44772404922836
 20
-129.03432885229
 10
70.50697969157464
 20
-129.0229600371887
 10
70.6551187974404
 20
-128.9888535918847
 10
70.6551187974404
 20
-128.771812576314
 10
70.6551187974404
 20
-128.4600314348989
 10
70.32507864995345
 20
-128.4193793081729
 10
70.11992321380683
 20
-128.4055989262319
 10
70.20019393861315
 20
-128.502750618916
 10
70.2573825236683
 20
-128.5750976241062
 10
70.2573825236683
 20
-128.7697455190228
 10
70.2573825236683
 20
-128.9619818470998
 10
70.15161809227112
 20
-129.2851318036162
 10
69.74544133456017
 20
-129.2851318036162
 10
69.42590872830324
 20
-129.2851318036162
 10
69.20593938157005
 20
-129.0725694121763
 10
69.20593938157005
 20
-128.7335720164277
 10
69.20593938157005
 20
-128.1840792865304
 10
69.76025524514675
 20
-128.172710471429
 10
69.97385116523223
 20
-128.172710471429
 10
70.20450030796971
 20
-128.172710471429
 10
70.84976669235701
 20
-128.193036534792
 10
70.84976669235701
 20
-128.7742241431537
 97
        0
 97
        0
 92
        1
 93
        1
 72
     4
 94
        3
 73
     0
 74
     1
 95
       17
 96
       13
 40
0.0
 40
0.0
 40
0.0
 40
0.0
 40
1.0
 40
1.0
 40
1.0
 40
2.0
 40
2.0
 40
2.0
 40
3.0
 40
3.0
 40
3.0
 40
4.0
 40
4.0
 40
4.0
 40
4.0
 10
69.39852021919552
 20
-128.7311604495881
 10
69.39852021919552
 20
-128.8579399634452
 10
69.45553654947639
 20
-129.0453531578428
 10
69.74113496520361
 20
-129.0453531578428
 10
69.96747773858452
 20
-129.0453531578428
 10
70.06273462875168
 20
-128.8961805233315
 10
70.06273462875168
 20
-128.751486512951
 10
70.06273462875168
 20
-128.4710557404517
 10
69.85327282324849
 20
-128.4304036137257
 10
69.73700085062131
 20
-128.4304036137257
 10
69.56130098087357
 20
-128.4304036137257
 10
69.39852021919552
 20
-128.5323784400891
 10
69.39852021919552
 20
-128.7311604495881
 97
        0
 97
        0
 75
     2
 76
     1
 98
        0
  0
ENDBLK
  5
D8
330
D5
100
AcDbEntity
  8
0
100
AcDbBlockEnd
  0
BLOCK
  5
EC
330
EA
100
AcDbEntity
  8
0
100
AcDbBlockBegin
  2
block 6
 70
     0
 10
0.0
 20
0.0
 30
0.0
  3
block 6
  1

  0
SPLINE
  5
EE
330
EA
100
AcDbEntity
  8
_U+30EC_U+30A4_U+30E4_U+30FC 1
370
     0
100
AcDbSpline
210
0.0
220
0.0
230
1.0
 70
    11
 71
     3
 72
    26
 73
    22
 74
     0
 42
0.0000000001
 43
0.0000000001
 12
1.0
 22
0.0
 32
0.0
 13
1.0
 23
0.0
 33
0.0
 40
0.0
 40
0.0
 40
0.0
 40
0.0
 40
1.0
 40
1.0
 40
1.0
 40
2.0
 40
2.0
 40
2.0
 40
3.0
 40
3.0
 40
3.0
 40
4.0
 40
4.0
 40
4.0
 40
5.0
 40
5.0
 40
5.0
 40
6.0
 40
6.0
 40
6.0
 40
7.0
 40
7.0
 40
7.0
 40
7.0
 10
84.94399683206261
 20
-142.2662515920376
 30
0.0
 10
84.94399683206261
 20
-142.2662515920376
 30
0.0
 10
84.94399683206261
 20
-141.1620984890151
 30
0.0
 10
84.94399683206261
 20
-141.1620984890151
 30
0.0
 10
84.94399683206261
 20
-141.1620984890151
 30
0.0
 10
84.59156356392155
 20
-141.1620984890151
 30
0.0
 10
84.59156356392155
 20
-141.1620984890151
 30
0.0
 10
84.59156356392155
 20
-141.1620984890151
 30
0.0
 10
84.59156356392155
 20
-141.0139593831493
 30
0.0
 10
84.59156356392155
 20
-141.0139593831493
 30
0.0
 10
84.94640839890229
 20
-140.9991454725627
 30
0.0
 10
84.99601777388989
 20
-140.8361924561104
 30
0.0
 10
85.02771265235418
 20
-140.7218152860001
 30
0.0
 10
85.02771265235418
 20
-140.7218152860001
 30
0.0
 10
85.18377547783601
 20
-140.7218152860001
 30
0.0
 10
85.18377547783601
 20
-140.7218152860001
 30
0.0
 10
85.18377547783601
 20
-140.7218152860001
 30
0.0
 10
85.18377547783601
 20
-142.2662515920376
 30
0.0
 10
85.18377547783601
 20
-142.2662515920376
 30
0.0
 10
85.18377547783601
 20
-142.2662515920376
 30
0.0
 10
84.94399683206261
 20
-142.2662515920376
 30
0.0
 10
84.94399683206261
 20
-142.2662515920376
 30
0.0
  0
HATCH
  5
EF
330
EA
100
AcDbEntity
  8
_U+30EC_U+30A4_U+30E4_U+30FC 1
 62
     7
420
 16777215
100
AcDbHatch
 10
0.0
 20
0.0
 30
0.0
210
0.0
220
0.0
230
1.0
  2
SOLID
 70
     1
 71
     0
 91
        1
 92
        1
 93
        1
 72
     4
 94
        3
 73
     0
 74
     1
 95
       26
 96
       22
 40
0.0
 40
0.0
 40
0.0
 40
0.0
 40
1.0
 40
1.0
 40
1.0
 40
2.0
 40
2.0
 40
2.0
 40
3.0
 40
3.0
 40
3.0
 40
4.0
 40
4.0
 40
4.0
 40
5.0
 40
5.0
 40
5.0
 40
6.0
 40
6.0
 40
6.0
 40
7.0
 40
7.0
 40
7.0
 40
7.0
 10
84.94399683206261
 20
-142.2662515920376
 10
84.94399683206261
 20
-142.2662515920376
 10
84.94399683206261
 20
-141.1620984890151
 10
84.94399683206261
 20
-141.1620984890151
 10
84.94399683206261
 20
-141.1620984890151
 10
84.59156356392155
 20
-141.1620984890151
 10
84.59156356392155
 20
-141.1620984890151
 10
84.59156356392155
 20
-141.1620984890151
 10
84.59156356392155
 20
-141.0139593831493
 10
84.59156356392155
 20
-141.0139593831493
 10
84.94640839890229
 20
-140.9991454725627
 10
84.99601777388989
 20
-140.8361924561104
 10
85.02771265235418
 20
-140.7218152860001
 10
85.02771265235418
 20
-140.7218152860001
 10
85.18377547783601
 20
-140.7218152860001
 10
85.18377547783601
 20
-140.7218152860001
 10
85.18377547783601
 20
-140.7218152860001
 10
85.18377547783601
 20
-142.2662515920376
 10
85.18377547783601
 20
-142.2662515920376
 10
85.18377547783601
 20
-142.2662515920376
 10
84.94399683206261
 20
-142.2662515920376
 10
84.94399683206261
 20
-142.2662515920376
 97
        0
 97
        0
 75
     2
 76
     1
 98
        0
  0
SPLINE
  5
F0
330
EA
100
AcDbEntity
  8
_U+30EC_U+30A4_U+30E4_U+30FC 1
370
     0
100
AcDbSpline
210
0.0
220
0.0
230
1.0
 70
    11
 71
     3
 72
    32
 73
    28
 74
     0
 42
0.0000000001
 43
0.0000000001
 12
1.0
 22
0.0
 32
0.0
 13
1.0
 23
0.0
 33
0.0
 40
0.0
 40
0.0
 40
0.0
 40
0.0
 40
1.0
 40
1.0
 40
1.0
 40
2.0
 40
2.0
 40
2.0
 40
3.0
 40
3.0
 40
3.0
 40
4.0
 40
4.0
 40
4.0
 40
5.0
 40
5.0
 40
5.0
 40
6.0
 40
6.0
 40
6.0
 40
7.0
 40
7.0
 40
7.0
 40
8.0
 40
8.0
 40
8.0
 40
9.0
 40
9.0
 40
9.0
 40
9.0
 10
86.20869138469783
 20
-142.3168944956708
 30
0.0
 10
86.0233452475914
 20
-142.3168944956708
 30
0.0
 10
85.76117348116388
 20
-142.2473035668687
 30
0.0
 10
85.72052135443793
 20
-141.9151963620907
 30
0.0
 10
85.72052135443793
 20
-141.9151963620907
 30
0.0
 10
85.94858667556147
 20
-141.9151963620907
 30
0.0
 10
85.94858667556147
 20
-141.9151963620907
 30
0.0
 10
85.9599554906628
 20
-141.974452004437
 30
0.0
 10
85.99406193596677
 20
-142.1222466007542
 30
0.0
 10
86.21110295153751
 20
-142.1222466007542
 30
0.0
 10
86.52288409295262
 20
-142.1222466007542
 30
0.0
 10
86.56353621967857
 20
-141.7925509628158
 30
0.0
 10
86.57731660161956
 20
-141.5872232718949
 30
0.0
 10
86.48016490893552
 20
-141.6674939967012
 30
0.0
 10
86.40781790374527
 20
-141.7246825817563
 30
0.0
 10
86.21317000882865
 20
-141.7246825817563
 30
0.0
 10
86.02093368075171
 20
-141.7246825817563
 30
0.0
 10
85.69778372423528
 20
-141.6189181503592
 30
0.0
 10
85.69778372423528
 20
-141.2127413926482
 30
0.0
 10
85.69778372423528
 20
-140.8933810411656
 30
0.0
 10
85.9103461156752
 20
-140.6732394396581
 30
0.0
 10
86.24934351142377
 20
-140.6732394396581
 30
0.0
 10
86.79883624132113
 20
-140.6732394396581
 30
0.0
 10
86.81020505642245
 20
-141.2275553032348
 30
0.0
 10
86.81020505642245
 20
-141.4411512233203
 30
0.0
 10
86.81020505642245
 20
-141.6716281112835
 30
0.0
 10
86.78987899305947
 20
-142.3168944956708
 30
0.0
 10
86.20869138469783
 20
-142.3168944956708
 30
0.0
  0
SPLINE
  5
F1
330
EA
100
AcDbEntity
  8
_U+30EC_U+30A4_U+30E4_U+30FC 1
370
     0
100
AcDbSpline
210
0.0
220
0.0
230
1.0
 70
    11
 71
     3
 72
    17
 73
    13
 74
     0
 42
0.0000000001
 43
0.0000000001
 12
1.0
 22
0.0
 32
0.0
 13
1.0
 23
0.0
 33
0.0
 40
0.0
 40
0.0
 40
0.0
 40
0.0
 40
1.0
 40
1.0
 40
1.0
 40
2.0
 40
2.0
 40
2.0
 40
3.0
 40
3.0
 40
3.0
 40
4.0
 40
4.0
 40
4.0
 40
4.0
 10
86.25175507826346
 20
-140.8658202772835
 30
0.0
 10
86.12497556440626
 20
-140.8658202772835
 30
0.0
 10
85.93756237000866
 20
-140.9230088623387
 30
0.0
 10
85.93756237000866
 20
-141.2086072780659
 30
0.0
 10
85.93756237000866
 20
-141.4349500514468
 30
0.0
 10
86.08673500451998
 20
-141.5300346868397
 30
0.0
 10
86.23142901490048
 20
-141.5300346868397
 30
0.0
 10
86.51151527785129
 20
-141.5300346868397
 30
0.0
 10
86.55251191412576
 20
-141.3205728813365
 30
0.0
 10
86.55251191412576
 20
-141.2041286539351
 30
0.0
 10
86.55251191412576
 20
-141.0287732937359
 30
0.0
 10
86.45053708776237
 20
-140.8658202772835
 30
0.0
 10
86.25175507826346
 20
-140.8658202772835
 30
0.0
  0
HATCH
  5
F2
330
EA
100
AcDbEntity
  8
_U+30EC_U+30A4_U+30E4_U+30FC 1
 62
     7
420
 16777215
100
AcDbHatch
 10
0.0
 20
0.0
 30
0.0
210
0.0
220
0.0
230
1.0
  2
SOLID
 70
     1
 71
     0
 91
        2
 92
        1
 93
        1
 72
     4
 94
        3
 73
     0
 74
     1
 95
       32
 96
       28
 40
0.0
 40
0.0
 40
0.0
 40
0.0
 40
1.0
 40
1.0
 40
1.0
 40
2.0
 40
2.0
 40
2.0
 40
3.0
 40
3.0
 40
3.0
 40
4.0
 40
4.0
 40
4.0
 40
5.0
 40
5.0
 40
5.0
 40
6.0
 40
6.0
 40
6.0
 40
7.0
 40
7.0
 40
7.0
 40
8.0
 40
8.0
 40
8.0
 40
9.0
 40
9.0
 40
9.0
 40
9.0
 10
86.20869138469783
 20
-142.3168944956708
 10
86.0233452475914
 20
-142.3168944956708
 10
85.76117348116388
 20
-142.2473035668687
 10
85.72052135443793
 20
-141.9151963620907
 10
85.72052135443793
 20
-141.9151963620907
 10
85.94858667556147
 20
-141.9151963620907
 10
85.94858667556147
 20
-141.9151963620907
 10
85.9599554906628
 20
-141.974452004437
 10
85.99406193596677
 20
-142.1222466007542
 10
86.21110295153751
 20
-142.1222466007542
 10
86.52288409295262
 20
-142.1222466007542
 10
86.56353621967857
 20
-141.7925509628158
 10
86.57731660161956
 20
-141.5872232718949
 10
86.48016490893552
 20
-141.6674939967012
 10
86.40781790374527
 20
-141.7246825817563
 10
86.21317000882865
 20
-141.7246825817563
 10
86.02093368075171
 20
-141.7246825817563
 10
85.69778372423528
 20
-141.6189181503592
 10
85.69778372423528
 20
-141.2127413926482
 10
85.69778372423528
 20
-140.8933810411656
 10
85.9103461156752
 20
-140.6732394396581
 10
86.24934351142377
 20
-140.6732394396581
 10
86.79883624132113
 20
-140.6732394396581
 10
86.81020505642245
 20
-141.2275553032348
 10
86.81020505642245
 20
-141.4411512233203
 10
86.81020505642245
 20
-141.6716281112835
 10
86.78987899305947
 20
-142.3168944956708
 10
86.20869138469783
 20
-142.3168944956708
 97
        0
 97
        0
 92
        1
 93
        1
 72
     4
 94
        3
 73
     0
 74
     1
 95
       17
 96
       13
 40
0.0
 40
0.0
 40
0.0
 40
0.0
 40
1.0
 40
1.0
 40
1.0
 40
2.0
 40
2.0
 40
2.0
 40
3.0
 40
3.0
 40
3.0
 40
4.0
 40
4.0
 40
4.0
 40
4.0
 10
86.25175507826346
 20
-140.8658202772835
 10
86.12497556440626
 20
-140.8658202772835
 10
85.93756237000866
 20
-140.9230088623387
 10
85.93756237000866
 20
-141.2086072780659
 10
85.93756237000866
 20
-141.4349500514468
 10
86.08673500451998
 20
-141.5300346868397
 10
86.23142901490048
 20
-141.5300346868397
 10
86.51151527785129
 20
-141.5300346868397
 10
86.55251191412576
 20
-141.3205728813365
 10
86.55251191412576
 20
-141.2041286539351
 10
86.55251191412576
 20
-141.0287732937359
 10
86.45053708776237
 20
-140.8658202772835
 10
86.25175507826346
 20
-140.8658202772835
 97
        0
 97
        0
 75
     2
 76
     1
 98
        0
  0
ENDBLK
  5
ED
330
EA
100
AcDbEntity
  8
0
100
AcDbBlockEnd
  0
BLOCK
  5
101
330
FF
100
AcDbEntity
  8
0
100
AcDbBlockBegin
  2
block 7
 70
     0
 10
0.0
 20
0.0
 30
0.0
  3
block 7
  1

  0
SPLINE
  5
103
330
FF
100
AcDbEntity
  8
_U+30EC_U+30A4_U+30E4_U+30FC 1
370
     0
100
AcDbSpline
210
0.0
220
0.0
230
1.0
 70
    11
 71
     3
 72
    26
 73
    22
 74
     0
 42
0.0000000001
 43
0.0000000001
 12
1.0
 22
0.0
 32
0.0
 13
1.0
 23
0.0
 33
0.0
 40
0.0
 40
0.0
 40
0.0
 40
0.0
 40
1.0
 40
1.0
 40
1.0
 40
2.0
 40
2.0
 40
2.0
 40
3.0
 40
3.0
 40
3.0
 40
4.0
 40
4.0
 40
4.0
 40
5.0
 40
5.0
 40
5.0
 40
6.0
 40
6.0
 40
6.0
 40
7.0
 40
7.0
 40
7.0
 40
7.0
 10
98.69922957601965
 20
-132.0632568029217
 30
0.0
 10
98.69922957601965
 20
-132.0632568029217
 30
0.0
 10
97.59507647299706
 20
-132.0632568029217
 30
0.0
 10
97.59507647299706
 20
-132.0632568029217
 30
0.0
 10
97.59507647299706
 20
-132.0632568029217
 30
0.0
 10
97.59507647299706
 20
-132.4156900710628
 30
0.0
 10
97.59507647299706
 20
-132.4156900710628
 30
0.0
 10
97.59507647299706
 20
-132.4156900710628
 30
0.0
 10
97.44693736713133
 20
-132.4156900710628
 30
0.0
 10
97.44693736713133
 20
-132.4156900710628
 30
0.0
 10
97.43212345654476
 20
-132.060845236082
 30
0.0
 10
97.26917044009244
 20
-132.0112358610944
 30
0.0
 10
97.15479326998214
 20
-131.9795409826301
 30
0.0
 10
97.15479326998214
 20
-131.9795409826301
 30
0.0
 10
97.15479326998214
 20
-131.8234781571483
 30
0.0
 10
97.15479326998214
 20
-131.8234781571483
 30
0.0
 10
97.15479326998214
 20
-131.8234781571483
 30
0.0
 10
98.69922957601965
 20
-131.8234781571483
 30
0.0
 10
98.69922957601965
 20
-131.8234781571483
 30
0.0
 10
98.69922957601965
 20
-131.8234781571483
 30
0.0
 10
98.69922957601965
 20
-132.0632568029217
 30
0.0
 10
98.69922957601965
 20
-132.0632568029217
 30
0.0
  0
HATCH
  5
104
330
FF
100
AcDbEntity
  8
_U+30EC_U+30A4_U+30E4_U+30FC 1
 62
     7
420
 16777215
100
AcDbHatch
 10
0.0
 20
0.0
 30
0.0
210
0.0
220
0.0
230
1.0
  2
SOLID
 70
     1
 71
     0
 91
        1
 92
        1
 93
        1
 72
     4
 94
        3
 73
     0
 74
     1
 95
       26
 96
       22
 40
0.0
 40
0.0
 40
0.0
 40
0.0
 40
1.0
 40
1.0
 40
1.0
 40
2.0
 40
2.0
 40
2.0
 40
3.0
 40
3.0
 40
3.0
 40
4.0
 40
4.0
 40
4.0
 40
5.0
 40
5.0
 40
5.0
 40
6.0
 40
6.0
 40
6.0
 40
7.0
 40
7.0
 40
7.0
 40
7.0
 10
98.69922957601965
 20
-132.0632568029217
 10
98.69922957601965
 20
-132.0632568029217
 10
97.59507647299706
 20
-132.0632568029217
 10
97.59507647299706
 20
-132.0632568029217
 10
97.59507647299706
 20
-132.0632568029217
 10
97.59507647299706
 20
-132.4156900710628
 10
97.59507647299706
 20
-132.4156900710628
 10
97.59507647299706
 20
-132.4156900710628
 10
97.44693736713133
 20
-132.4156900710628
 10
97.44693736713133
 20
-132.4156900710628
 10
97.43212345654476
 20
-132.060845236082
 10
97.26917044009244
 20
-132.0112358610944
 10
97.15479326998214
 20
-131.9795409826301
 10
97.15479326998214
 20
-131.9795409826301
 10
97.15479326998214
 20
-131.8234781571483
 10
97.15479326998214
 20
-131.8234781571483
 10
97.15479326998214
 20
-131.8234781571483
 10
98.69922957601965
 20
-131.8234781571483
 10
98.69922957601965
 20
-131.8234781571483
 10
98.69922957601965
 20
-131.8234781571483
 10
98.69922957601965
 20
-132.0632568029217
 10
98.69922957601965
 20
-132.0632568029217
 97
        0
 97
        0
 75
     2
 76
     1
 98
        0
  0
SPLINE
  5
105
330
FF
100
AcDbEntity
  8
_U+30EC_U+30A4_U+30E4_U+30FC 1
370
     0
100
AcDbSpline
210
0.0
220
0.0
230
1.0
 70
    11
 71
     3
 72
    62
 73
    58
 74
     0
 42
0.0000000001
 43
0.0000000001
 12
1.0
 22
0.0
 32
0.0
 13
1.0
 23
0.0
 33
0.0
 40
0.0
 40
0.0
 40
0.0
 40
0.0
 40
1.0
 40
1.0
 40
1.0
 40
2.0
 40
2.0
 40
2.0
 40
3.0
 40
3.0
 40
3.0
 40
4.0
 40
4.0
 40
4.0
 40
5.0
 40
5.0
 40
5.0
 40
6.0
 40
6.0
 40
6.0
 40
7.0
 40
7.0
 40
7.0
 40
8.0
 40
8.0
 40
8.0
 40
9.0
 40
9.0
 40
9.0
 40
10.0
 40
10.0
 40
10.0
 40
11.0
 40
11.0
 40
11.0
 40
12.0
 40
12.0
 40
12.0
 40
13.0
 40
13.0
 40
13.0
 40
14.0
 40
14.0
 40
14.0
 40
15.0
 40
15.0
 40
15.0
 40
16.0
 40
16.0
 40
16.0
 40
17.0
 40
17.0
 40
17.0
 40
18.0
 40
18.0
 40
18.0
 40
19.0
 40
19.0
 40
19.0
 40
19.0
 10
98.74987247965281
 20
-130.7623887476913
 30
0.0
 10
98.74987247965281
 20
-130.8640190645062
 30
0.0
 10
98.72885739719278
 20
-131.0969075193091
 30
0.0
 10
98.5428222409893
 20
-131.2302327145883
 30
0.0
 10
98.43051212817015
 20
-131.309469910749
 30
0.0
 10
98.33129337819496
 20
-131.3139485348798
 30
0.0
 10
98.24654402925782
 20
-131.3184271590107
 30
0.0
 10
98.24654402925782
 20
-131.3184271590107
 30
0.0
 10
98.24654402925782
 20
-131.0834716469166
 30
0.0
 10
98.24654402925782
 20
-131.0834716469166
 30
0.0
 10
98.32061358219069
 20
-131.081060080077
 30
0.0
 10
98.5552245847362
 20
-131.0696912649756
 30
0.0
 10
98.5552245847362
 20
-130.7668673718222
 30
0.0
 10
98.5552245847362
 20
-130.619761794602
 30
0.0
 10
98.48563365593415
 20
-130.4571532876982
 30
0.0
 10
98.25722382526209
 20
-130.4571532876982
 30
0.0
 10
98.14077959786064
 20
-130.4571532876982
 30
0.0
 10
98.09220375151862
 20
-130.4978054144242
 30
0.0
 10
98.06050887305432
 20
-130.5319118597281
 30
0.0
 10
97.98643932012145
 20
-130.6108045463403
 30
0.0
 10
97.97369246682602
 20
-130.7351724933579
 30
0.0
 10
97.97369246682602
 20
-130.7940836261556
 30
0.0
 10
97.97369246682602
 20
-130.8144096895186
 30
0.0
 10
97.97575952411718
 20
-130.8526502494049
 30
0.0
 10
97.97989363869948
 20
-130.8822780705781
 30
0.0
 10
97.97989363869948
 20
-130.8822780705781
 30
0.0
 10
97.78524574378287
 20
-130.8822780705781
 30
0.0
 10
97.78524574378287
 20
-130.8822780705781
 30
0.0
 10
97.79179142520483
 20
-130.8416259438521
 30
0.0
 10
97.79385848249598
 20
-130.7961506834468
 30
0.0
 10
97.79385848249598
 20
-130.7896050020248
 30
0.0
 10
97.79385848249598
 20
-130.7193250541257
 30
0.0
 10
97.77249889048744
 20
-130.5067626626858
 30
0.0
 10
97.53582083065078
 20
-130.5067626626858
 30
0.0
 10
97.35805390361188
 20
-130.5067626626858
 30
0.0
 10
97.30293237584789
 20
-130.6469780489355
 30
0.0
 10
97.30293237584789
 20
-130.7644558049825
 30
0.0
 10
97.30293237584789
 20
-131.0472981443215
 30
0.0
 10
97.53582083065078
 20
-131.0562553925832
 30
0.0
 10
97.60747881674396
 20
-131.060734016714
 30
0.0
 10
97.60747881674396
 20
-131.060734016714
 30
0.0
 10
97.60747881674396
 20
-131.2777750322847
 30
0.0
 10
97.60747881674396
 20
-131.2777750322847
 30
0.0
 10
97.48276636017792
 20
-131.2688177840231
 30
0.0
 10
97.10621742364012
 20
-131.2395344723984
 30
0.0
 10
97.10621742364012
 20
-130.75101993259
 30
0.0
 10
97.10621742364012
 20
-130.5112412868166
 30
0.0
 10
97.23334144704583
 20
-130.25354814452
 30
0.0
 10
97.5292751492288
 20
-130.25354814452
 30
0.0
 10
97.71565481498081
 20
-130.25354814452
 30
0.0
 10
97.79799259707828
 20
-130.3555229708834
 30
0.0
 10
97.85931529671574
 20
-130.461631911829
 30
0.0
 10
97.88687606059773
 20
-130.3961750976093
 30
0.0
 10
97.96714678540405
 20
-130.2015272026927
 30
0.0
 10
98.24447697196666
 20
-130.2015272026927
 30
0.0
 10
98.5827853486182
 20
-130.2015272026927
 30
0.0
 10
98.74987247965281
 20
-130.4661105359599
 30
0.0
 10
98.74987247965281
 20
-130.7623887476913
 30
0.0
  0
HATCH
  5
106
330
FF
100
AcDbEntity
  8
_U+30EC_U+30A4_U+30E4_U+30FC 1
 62
     7
420
 16777215
100
AcDbHatch
 10
0.0
 20
0.0
 30
0.0
210
0.0
220
0.0
230
1.0
  2
SOLID
 70
     1
 71
     0
 91
        1
 92
        1
 93
        1
 72
     4
 94
        3
 73
     0
 74
     1
 95
       62
 96
       58
 40
0.0
 40
0.0
 40
0.0
 40
0.0
 40
1.0
 40
1.0
 40
1.0
 40
2.0
 40
2.0
 40
2.0
 40
3.0
 40
3.0
 40
3.0
 40
4.0
 40
4.0
 40
4.0
 40
5.0
 40
5.0
 40
5.0
 40
6.0
 40
6.0
 40
6.0
 40
7.0
 40
7.0
 40
7.0
 40
8.0
 40
8.0
 40
8.0
 40
9.0
 40
9.0
 40
9.0
 40
10.0
 40
10.0
 40
10.0
 40
11.0
 40
11.0
 40
11.0
 40
12.0
 40
12.0
 40
12.0
 40
13.0
 40
13.0
 40
13.0
 40
14.0
 40
14.0
 40
14.0
 40
15.0
 40
15.0
 40
15.0
 40
16.0
 40
16.0
 40
16.0
 40
17.0
 40
17.0
 40
17.0
 40
18.0
 40
18.0
 40
18.0
 40
19.0
 40
19.0
 40
19.0
 40
19.0
 10
98.74987247965281
 20
-130.7623887476913
 10
98.74987247965281
 20
-130.8640190645062
 10
98.72885739719278
 20
-131.0969075193091
 10
98.5428222409893
 20
-131.2302327145883
 10
98.43051212817015
 20
-131.309469910749
 10
98.33129337819496
 20
-131.3139485348798
 10
98.24654402925782
 20
-131.3184271590107
 10
98.24654402925782
 20
-131.3184271590107
 10
98.24654402925782
 20
-131.0834716469166
 10
98.24654402925782
 20
-131.0834716469166
 10
98.32061358219069
 20
-131.081060080077
 10
98.5552245847362
 20
-131.0696912649756
 10
98.5552245847362
 20
-130.7668673718222
 10
98.5552245847362
 20
-130.619761794602
 10
98.48563365593415
 20
-130.4571532876982
 10
98.25722382526209
 20
-130.4571532876982
 10
98.14077959786064
 20
-130.4571532876982
 10
98.09220375151862
 20
-130.4978054144242
 10
98.06050887305432
 20
-130.5319118597281
 10
97.98643932012145
 20
-130.6108045463403
 10
97.97369246682602
 20
-130.7351724933579
 10
97.97369246682602
 20
-130.7940836261556
 10
97.97369246682602
 20
-130.8144096895186
 10
97.97575952411718
 20
-130.8526502494049
 10
97.97989363869948
 20
-130.8822780705781
 10
97.97989363869948
 20
-130.8822780705781
 10
97.78524574378287
 20
-130.8822780705781
 10
97.78524574378287
 20
-130.8822780705781
 10
97.79179142520483
 20
-130.8416259438521
 10
97.79385848249598
 20
-130.7961506834468
 10
97.79385848249598
 20
-130.7896050020248
 10
97.79385848249598
 20
-130.7193250541257
 10
97.77249889048744
 20
-130.5067626626858
 10
97.53582083065078
 20
-130.5067626626858
 10
97.35805390361188
 20
-130.5067626626858
 10
97.30293237584789
 20
-130.6469780489355
 10
97.30293237584789
 20
-130.7644558049825
 10
97.30293237584789
 20
-131.0472981443215
 10
97.53582083065078
 20
-131.0562553925832
 10
97.60747881674396
 20
-131.060734016714
 10
97.60747881674396
 20
-131.060734016714
 10
97.60747881674396
 20
-131.2777750322847
 10
97.60747881674396
 20
-131.2777750322847
 10
97.48276636017792
 20
-131.2688177840231
 10
97.10621742364012
 20
-131.2395344723984
 10
97.10621742364012
 20
-130.75101993259
 10
97.10621742364012
 20
-130.5112412868166
 10
97.23334144704583
 20
-130.25354814452
 10
97.5292751492288
 20
-130.25354814452
 10
97.71565481498081
 20
-130.25354814452
 10
97.79799259707828
 20
-130.3555229708834
 10
97.85931529671574
 20
-130.461631911829
 10
97.88687606059773
 20
-130.3961750976093
 10
97.96714678540405
 20
-130.2015272026927
 10
98.24447697196666
 20
-130.2015272026927
 10
98.5827853486182
 20
-130.2015272026927
 10
98.74987247965281
 20
-130.4661105359599
 10
98.74987247965281
 20
-130.7623887476913
 97
        0
 97
        0
 75
     2
 76
     1
 98
        0
  0
ENDBLK
  5
102
330
FF
100
AcDbEntity
  8
0
100
AcDbBlockEnd
  0
BLOCK
  5
10E
330
10C
100
AcDbEntity
  8
0
100
AcDbBlockBegin
  2
block 8
 70
     0
 10
0.0
 20
0.0
 30
0.0
  3
block 8
  1

  0
SPLINE
  5
110
330
10C
100
AcDbEntity
  8
_U+30EC_U+30A4_U+30E4_U+30FC 1
370
     0
100
AcDbSpline
210
0.0
220
0.0
230
1.0
 70
    11
 71
     3
 72
    17
 73
    13
 74
     0
 42
0.0000000001
 43
0.0000000001
 12
1.0
 22
0.0
 32
0.0
 13
1.0
 23
0.0
 33
0.0
 40
0.0
 40
0.0
 40
0.0
 40
0.0
 40
1.0
 40
1.0
 40
1.0
 40
2.0
 40
2.0
 40
2.0
 40
3.0
 40
3.0
 40
3.0
 40
4.0
 40
4.0
 40
4.0
 40
4.0
 10
98.34989689381531
 20
-140.7376627252323
 30
0.0
 10
98.24413246241814
 20
-140.6318982938351
 30
0.0
 10
98.16386173761181
 20
-140.5940022434973
 30
0.0
 10
98.07049964996155
 20
-140.5619628554845
 30
0.0
 10
98.07049964996155
 20
-140.5619628554845
 30
0.0
 10
98.18074270548954
 20
-140.396942781741
 30
0.0
 10
98.18074270548954
 20
-140.396942781741
 30
0.0
 10
98.27789439817359
 20
-140.4393174562096
 30
0.0
 10
98.39847274015733
 20
-140.5178656332733
 30
0.0
 10
98.45152721063018
 20
-140.5726426514888
 30
0.0
 10
98.45152721063018
 20
-140.5726426514888
 30
0.0
 10
98.34989689381531
 20
-140.7376627252323
 30
0.0
 10
98.34989689381531
 20
-140.7376627252323
 30
0.0
  0
SPLINE
  5
111
330
10C
100
AcDbEntity
  8
_U+30EC_U+30A4_U+30E4_U+30FC 1
370
     0
100
AcDbSpline
210
0.0
220
0.0
230
1.0
 70
    11
 71
     3
 72
   182
 73
   178
 74
     0
 42
0.0000000001
 43
0.0000000001
 12
1.0
 22
0.0
 32
0.0
 13
1.0
 23
0.0
 33
0.0
 40
0.0
 40
0.0
 40
0.0
 40
0.0
 40
1.0
 40
1.0
 40
1.0
 40
2.0
 40
2.0
 40
2.0
 40
3.0
 40
3.0
 40
3.0
 40
4.0
 40
4.0
 40
4.0
 40
5.0
 40
5.0
 40
5.0
 40
6.0
 40
6.0
 40
6.0
 40
7.0
 40
7.0
 40
7.0
 40
8.0
 40
8.0
 40
8.0
 40
9.0
 40
9.0
 40
9.0
 40
10.0
 40
10.0
 40
10.0
 40
11.0
 40
11.0
 40
11.0
 40
12.0
 40
12.0
 40
12.0
 40
13.0
 40
13.0
 40
13.0
 40
14.0
 40
14.0
 40
14.0
 40
15.0
 40
15.0
 40
15.0
 40
16.0
 40
16.0
 40
16.0
 40
17.0
 40
17.0
 40
17.0
 40
18.0
 40
18.0
 40
18.0
 40
19.0
 40
19.0
 40
19.0
 40
20.0
 40
20.0
 40
20.0
 40
21.0
 40
21.0
 40
21.0
 40
22.0
 40
22.0
 40
22.0
 40
23.0
 40
23.0
 40
23.0
 40
24.0
 40
24.0
 40
24.0
 40
25.0
 40
25.0
 40
25.0
 40
26.0
 40
26.0
 40
26.0
 40
27.0
 40
27.0
 40
27.0
 40
28.0
 40
28.0
 40
28.0
 40
29.0
 40
29.0
 40
29.0
 40
30.0
 40
30.0
 40
30.0
 40
31.0
 40
31.0
 40
31.0
 40
32.0
 40
32.0
 40
32.0
 40
33.0
 40
33.0
 40
33.0
 40
34.0
 40
34.0
 40
34.0
 40
35.0
 40
35.0
 40
35.0
 40
36.0
 40
36.0
 40
36.0
 40
37.0
 40
37.0
 40
37.0
 40
38.0
 40
38.0
 40
38.0
 40
39.0
 40
39.0
 40
39.0
 40
40.0
 40
40.0
 40
40.0
 40
41.0
 40
41.0
 40
41.0
 40
42.0
 40
42.0
 40
42.0
 40
43.0
 40
43.0
 40
43.0
 40
44.0
 40
44.0
 40
44.0
 40
45.0
 40
45.0
 40
45.0
 40
46.0
 40
46.0
 40
46.0
 40
47.0
 40
47.0
 40
47.0
 40
48.0
 40
48.0
 40
48.0
 40
49.0
 40
49.0
 40
49.0
 40
50.0
 40
50.0
 40
50.0
 40
51.0
 40
51.0
 40
51.0
 40
52.0
 40
52.0
 40
52.0
 40
53.0
 40
53.0
 40
53.0
 40
54.0
 40
54.0
 40
54.0
 40
55.0
 40
55.0
 40
55.0
 40
56.0
 40
56.0
 40
56.0
 40
57.0
 40
57.0
 40
57.0
 40
58.0
 40
58.0
 40
58.0
 40
59.0
 40
59.0
 40
59.0
 40
59.0
 10
99.3951388640401
 20
-141.9158853811877
 30
0.0
 10
99.3951388640401
 20
-141.9158853811877
 30
0.0
 10
98.75814070881741
 20
-141.9158853811877
 30
0.0
 10
98.75814070881741
 20
-141.9158853811877
 30
0.0
 10
98.54454478873193
 20
-141.9158853811877
 30
0.0
 10
98.32888181135529
 20
-141.9203640053185
 30
0.0
 10
98.11494138172127
 20
-141.933110858614
 30
0.0
 10
98.11494138172127
 20
-141.933110858614
 30
0.0
 10
98.11494138172127
 20
-141.7257161104019
 30
0.0
 10
98.11494138172127
 20
-141.7257161104019
 30
0.0
 10
98.33715004051989
 20
-141.7384629636973
 30
0.0
 10
98.66098901613337
 20
-141.7425970782796
 30
0.0
 10
98.75814070881741
 20
-141.7425970782796
 30
0.0
 10
98.75814070881741
 20
-141.7425970782796
 30
0.0
 10
98.97828231032487
 20
-141.7425970782796
 30
0.0
 10
98.97828231032487
 20
-141.7425970782796
 30
0.0
 10
98.97828231032487
 20
-141.7425970782796
 30
0.0
 10
98.97828231032487
 20
-141.6010036538359
 30
0.0
 10
98.97828231032487
 20
-141.6010036538359
 30
0.0
 10
98.97828231032487
 20
-141.6010036538359
 30
0.0
 10
98.81739635116371
 20
-141.6010036538359
 30
0.0
 10
98.81739635116371
 20
-141.6010036538359
 30
0.0
 10
98.65237627742025
 20
-141.6010036538359
 30
0.0
 10
98.48735620367678
 20
-141.6051377684182
 30
0.0
 10
98.3223361299333
 20
-141.6199516790047
 30
0.0
 10
98.3223361299333
 20
-141.6199516790047
 30
0.0
 10
98.3223361299333
 20
-141.4104898735015
 30
0.0
 10
98.3223361299333
 20
-141.4104898735015
 30
0.0
 10
98.49390188509875
 20
-141.4253037840881
 30
0.0
 10
98.7412597409397
 20
-141.4294378986704
 30
0.0
 10
98.81739635116371
 20
-141.4294378986704
 30
0.0
 10
98.81739635116371
 20
-141.4294378986704
 30
0.0
 10
98.97828231032487
 20
-141.4294378986704
 30
0.0
 10
98.97828231032487
 20
-141.4294378986704
 30
0.0
 10
98.97414819574257
 20
-141.3574354030287
 30
0.0
 10
98.97414819574257
 20
-141.3512342311552
 30
0.0
 10
98.9676025143206
 20
-141.2981797606824
 30
0.0
 10
98.9676025143206
 20
-141.2981797606824
 30
0.0
 10
99.10712888147322
 20
-141.312993671269
 30
0.0
 10
99.10712888147322
 20
-141.312993671269
 30
0.0
 10
99.10712888147322
 20
-141.312993671269
 30
0.0
 10
99.00791013149802
 20
-141.1417724256521
 30
0.0
 10
99.00791013149802
 20
-141.1417724256521
 30
0.0
 10
99.0544189205489
 20
-141.1479735975255
 30
0.0
 10
99.12848847348177
 20
-141.1565863362386
 30
0.0
 10
99.14536944135949
 20
-141.1565863362386
 30
0.0
 10
99.19601234499267
 20
-141.1565863362386
 30
0.0
 10
99.21289331287039
 20
-141.1355712537786
 30
0.0
 10
99.21289331287039
 20
-141.0783826687235
 30
0.0
 10
99.21289331287039
 20
-141.0783826687235
 30
0.0
 10
99.21289331287039
 20
-140.940923358862
 30
0.0
 10
99.21289331287039
 20
-140.940923358862
 30
0.0
 10
99.21289331287039
 20
-140.940923358862
 30
0.0
 10
99.10712888147322
 20
-140.940923358862
 30
0.0
 10
99.10712888147322
 20
-140.940923358862
 30
0.0
 10
98.97414819574257
 20
-140.940923358862
 30
0.0
 10
98.81739635116371
 20
-140.940923358862
 30
0.0
 10
98.69475095188882
 20
-140.9533257026089
 30
0.0
 10
98.69475095188882
 20
-140.9533257026089
 30
0.0
 10
98.69475095188882
 20
-140.7631564318231
 30
0.0
 10
98.69475095188882
 20
-140.7631564318231
 30
0.0
 10
98.86183808292343
 20
-140.7800373997008
 30
0.0
 10
99.09231497088665
 20
-140.782104456992
 30
0.0
 10
99.10712888147322
 20
-140.782104456992
 30
0.0
 10
99.10712888147322
 20
-140.782104456992
 30
0.0
 10
99.21289331287039
 20
-140.782104456992
 30
0.0
 10
99.21289331287039
 20
-140.782104456992
 30
0.0
 10
99.21289331287039
 20
-140.782104456992
 30
0.0
 10
99.21289331287039
 20
-140.650846319004
 30
0.0
 10
99.21289331287039
 20
-140.650846319004
 30
0.0
 10
99.21289331287039
 20
-140.650846319004
 30
0.0
 10
99.17499726253264
 20
-140.650846319004
 30
0.0
 10
99.17499726253264
 20
-140.650846319004
 30
0.0
 10
99.13055553077292
 20
-140.650846319004
 30
0.0
 10
99.00584307420688
 20
-140.6553249431348
 30
0.0
 10
98.91695961068743
 20
-140.6635931722994
 30
0.0
 10
98.91695961068743
 20
-140.6635931722994
 30
0.0
 10
98.91695961068743
 20
-140.5833224474931
 30
0.0
 10
98.91695961068743
 20
-140.5833224474931
 30
0.0
 10
98.86390514021458
 20
-140.6212184978308
 30
0.0
 10
98.83875594317226
 20
-140.6360324084174
 30
0.0
 10
98.79638126870368
 20
-140.6594590577171
 30
0.0
 10
98.79638126870368
 20
-140.6594590577171
 30
0.0
 10
98.60793454566053
 20
-140.5302679770202
 30
0.0
 10
98.60793454566053
 20
-140.5302679770202
 30
0.0
 10
98.6861382131757
 20
-140.4965060412648
 30
0.0
 10
98.84289005775456
 20
-140.4331162843362
 30
0.0
 10
98.9992973927849
 20
-140.2891112930527
 30
0.0
 10
99.0819796844309
 20
-140.2109076255375
 30
0.0
 10
99.16018335194607
 20
-140.1261582766004
 30
0.0
 10
99.21289331287039
 20
-140.0248724693341
 30
0.0
 10
99.21289331287039
 20
-140.0248724693341
 30
0.0
 10
99.42442217566473
 20
-140.0861951689715
 30
0.0
 10
99.42442217566473
 20
-140.0861951689715
 30
0.0
 10
99.44371471038212
 20
-140.092396340845
 30
0.0
 10
99.45404999683788
 20
-140.1010090795581
 30
0.0
 10
99.45404999683788
 20
-140.1137559328535
 30
0.0
 10
99.45404999683788
 20
-140.1306369007312
 30
0.0
 10
99.44164765309098
 20
-140.1368380726047
 30
0.0
 10
99.41615394650013
 20
-140.1495849259001
 30
0.0
 10
99.49642467130646
 20
-140.2470811281327
 30
0.0
 10
99.65937768775878
 20
-140.3442328208167
 30
0.0
 10
99.69313962351421
 20
-140.3631808459856
 30
0.0
 10
99.84334578667111
 20
-140.452064309505
 30
0.0
 10
99.95772295678141
 20
-140.479625073387
 30
0.0
 10
100.0359266242966
 20
-140.4985730985559
 30
0.0
 10
100.0359266242966
 20
-140.4985730985559
 30
0.0
 10
99.91741533960398
 20
-140.6677272868817
 30
0.0
 10
99.91741533960398
 20
-140.6677272868817
 30
0.0
 10
99.83301050021537
 20
-140.6384439752571
 30
0.0
 10
99.78202308703366
 20
-140.6191514405397
 30
0.0
 10
99.66351180234108
 20
-140.5536946263199
 30
0.0
 10
99.66351180234108
 20
-140.5536946263199
 30
0.0
 10
99.66351180234108
 20
-140.6635931722994
 30
0.0
 10
99.66351180234108
 20
-140.6635931722994
 30
0.0
 10
99.5811740202436
 20
-140.6553249431348
 30
0.0
 10
99.45404999683788
 20
-140.650846319004
 30
0.0
 10
99.40134003591356
 20
-140.650846319004
 30
0.0
 10
99.40134003591356
 20
-140.650846319004
 30
0.0
 10
99.40134003591356
 20
-140.782104456992
 30
0.0
 10
99.40134003591356
 20
-140.782104456992
 30
0.0
 10
99.40134003591356
 20
-140.782104456992
 30
0.0
 10
99.52191837789731
 20
-140.782104456992
 30
0.0
 10
99.52191837789731
 20
-140.782104456992
 30
0.0
 10
99.52398543518845
 20
-140.782104456992
 30
0.0
 10
99.75687388999134
 20
-140.7800373997008
 30
0.0
 10
99.9342963074817
 20
-140.7631564318231
 30
0.0
 10
99.9342963074817
 20
-140.7631564318231
 30
0.0
 10
99.9342963074817
 20
-140.9533257026089
 30
0.0
 10
99.9342963074817
 20
-140.9533257026089
 30
0.0
 10
99.80544973633336
 20
-140.940923358862
 30
0.0
 10
99.6486978917545
 20
-140.940923358862
 30
0.0
 10
99.52191837789731
 20
-140.940923358862
 30
0.0
 10
99.52191837789731
 20
-140.940923358862
 30
0.0
 10
99.40134003591356
 20
-140.940923358862
 30
0.0
 10
99.40134003591356
 20
-140.940923358862
 30
0.0
 10
99.40134003591356
 20
-140.940923358862
 30
0.0
 10
99.40134003591356
 20
-141.1672661322429
 30
0.0
 10
99.40134003591356
 20
-141.1672661322429
 30
0.0
 10
99.40134003591356
 20
-141.2857774169355
 30
0.0
 10
99.37584632932271
 20
-141.3216064099821
 30
0.0
 10
99.21530487971006
 20
-141.3364203205687
 30
0.0
 10
99.21943899429236
 20
-141.3553683457376
 30
0.0
 10
99.21289331287039
 20
-141.3660481417418
 30
0.0
 10
99.17499726253264
 20
-141.389130281493
 30
0.0
 10
99.1729302052415
 20
-141.4084228162104
 30
0.0
 10
99.1729302052415
 20
-141.4146239880839
 30
0.0
 10
99.17086314795034
 20
-141.4294378986704
 30
0.0
 10
99.17086314795034
 20
-141.4294378986704
 30
0.0
 10
99.30832245781181
 20
-141.4294378986704
 30
0.0
 10
99.30832245781181
 20
-141.4294378986704
 30
0.0
 10
99.47334253155528
 20
-141.4294378986704
 30
0.0
 10
99.6404296625899
 20
-141.4253037840881
 30
0.0
 10
99.80751679362452
 20
-141.4104898735015
 30
0.0
 10
99.80751679362452
 20
-141.4104898735015
 30
0.0
 10
99.80751679362452
 20
-141.6178846217136
 30
0.0
 10
99.80751679362452
 20
-141.6178846217136
 30
0.0
 10
99.59185381624788
 20
-141.6010036538359
 30
0.0
 10
99.32727048298068
 20
-141.6010036538359
 30
0.0
 10
99.30832245781181
 20
-141.6010036538359
 30
0.0
 10
99.30832245781181
 20
-141.6010036538359
 30
0.0
 10
99.16845158111067
 20
-141.6010036538359
 30
0.0
 10
99.16845158111067
 20
-141.6010036538359
 30
0.0
 10
99.16845158111067
 20
-141.6010036538359
 30
0.0
 10
99.16845158111067
 20
-141.7425970782796
 30
0.0
 10
99.16845158111067
 20
-141.7425970782796
 30
0.0
 10
99.16845158111067
 20
-141.7425970782796
 30
0.0
 10
99.3951388640401
 20
-141.7425970782796
 30
0.0
 10
99.3951388640401
 20
-141.7425970782796
 30
0.0
 10
99.61080184141674
 20
-141.7425970782796
 30
0.0
 10
99.82853187608454
 20
-141.7384629636973
 30
0.0
 10
100.0445393630097
 20
-141.7257161104019
 30
0.0
 10
100.0445393630097
 20
-141.7257161104019
 30
0.0
 10
100.0445393630097
 20
-141.933110858614
 30
0.0
 10
100.0445393630097
 20
-141.933110858614
 30
0.0
 10
99.7630750618648
 20
-141.9158853811877
 30
0.0
 10
99.41822100379129
 20
-141.9158853811877
 30
0.0
 10
99.3951388640401
 20
-141.9158853811877
 30
0.0
  0
SPLINE
  5
112
330
10C
100
AcDbEntity
  8
_U+30EC_U+30A4_U+30E4_U+30FC 1
370
     0
100
AcDbSpline
210
0.0
220
0.0
230
1.0
 70
    11
 71
     3
 72
    23
 73
    19
 74
     0
 42
0.0000000001
 43
0.0000000001
 12
1.0
 22
0.0
 32
0.0
 13
1.0
 23
0.0
 33
0.0
 40
0.0
 40
0.0
 40
0.0
 40
0.0
 40
1.0
 40
1.0
 40
1.0
 40
2.0
 40
2.0
 40
2.0
 40
3.0
 40
3.0
 40
3.0
 40
4.0
 40
4.0
 40
4.0
 40
5.0
 40
5.0
 40
5.0
 40
6.0
 40
6.0
 40
6.0
 40
6.0
 10
98.27582734088243
 20
-141.2878444742267
 30
0.0
 10
98.27582734088243
 20
-141.3088595566867
 30
0.0
 10
98.27789439817359
 20
-141.347100116573
 30
0.0
 10
98.25274520113126
 20
-141.347100116573
 30
0.0
 10
98.242065405127
 20
-141.347100116573
 30
0.0
 10
98.23345266641387
 20
-141.340554435151
 30
0.0
 10
98.22311737995811
 20
-141.3236734672733
 30
0.0
 10
98.22311737995811
 20
-141.3236734672733
 30
0.0
 10
98.11942000585209
 20
-141.1417724256521
 30
0.0
 10
98.11942000585209
 20
-141.1417724256521
 30
0.0
 10
98.33508298322873
 20
-141.0125813449552
 30
0.0
 10
98.5317979354365
 20
-140.7355956679411
 30
0.0
 10
98.57830672448738
 20
-140.6635931722994
 30
0.0
 10
98.57830672448738
 20
-140.6635931722994
 30
0.0
 10
98.65030922012909
 20
-140.8434271566294
 30
0.0
 10
98.65030922012909
 20
-140.8434271566294
 30
0.0
 10
98.51698402484992
 20
-141.0401421088372
 30
0.0
 10
98.34128415510219
 20
-141.2241102077495
 30
0.0
 10
98.27582734088243
 20
-141.2878444742267
 30
0.0
  0
SPLINE
  5
113
330
10C
100
AcDbEntity
  8
_U+30EC_U+30A4_U+30E4_U+30FC 1
370
     0
100
AcDbSpline
210
0.0
220
0.0
230
1.0
 70
    11
 71
     3
 72
    17
 73
    13
 74
     0
 42
0.0000000001
 43
0.0000000001
 12
1.0
 22
0.0
 32
0.0
 13
1.0
 23
0.0
 33
0.0
 40
0.0
 40
0.0
 40
0.0
 40
0.0
 40
1.0
 40
1.0
 40
1.0
 40
2.0
 40
2.0
 40
2.0
 40
3.0
 40
3.0
 40
3.0
 40
4.0
 40
4.0
 40
4.0
 40
4.0
 10
98.52973087814534
 20
-140.3928086671588
 30
0.0
 10
98.4684081785079
 20
-140.3166720569347
 30
0.0
 10
98.33921709781103
 20
-140.2405354467107
 30
0.0
 10
98.23551972370501
 20
-140.2109076255375
 30
0.0
 10
98.23551972370501
 20
-140.2109076255375
 30
0.0
 10
98.33094886864643
 20
-140.0458875517941
 30
0.0
 10
98.33094886864643
 20
-140.0458875517941
 30
0.0
 10
98.43257918546131
 20
-140.0820610543892
 30
0.0
 10
98.53834361685847
 20
-140.1389051298958
 30
0.0
 10
98.6268825708294
 20
-140.2195203642507
 30
0.0
 10
98.6268825708294
 20
-140.2195203642507
 30
0.0
 10
98.52973087814534
 20
-140.3928086671588
 30
0.0
 10
98.52973087814534
 20
-140.3928086671588
 30
0.0
  0
SPLINE
  5
114
330
10C
100
AcDbEntity
  8
_U+30EC_U+30A4_U+30E4_U+30FC 1
370
     0
100
AcDbSpline
210
0.0
220
0.0
230
1.0
 70
    11
 71
     3
 72
    23
 73
    19
 74
     0
 42
0.0000000001
 43
0.0000000001
 12
1.0
 22
0.0
 32
0.0
 13
1.0
 23
0.0
 33
0.0
 40
0.0
 40
0.0
 40
0.0
 40
0.0
 40
1.0
 40
1.0
 40
1.0
 40
2.0
 40
2.0
 40
2.0
 40
3.0
 40
3.0
 40
3.0
 40
4.0
 40
4.0
 40
4.0
 40
5.0
 40
5.0
 40
5.0
 40
6.0
 40
6.0
 40
6.0
 40
6.0
 10
98.98241642490717
 20
-141.0973306938923
 30
0.0
 10
98.96140134244716
 20
-141.120757343192
 30
0.0
 10
98.86390514021458
 20
-141.2327229464627
 30
0.0
 10
98.72437877306197
 20
-141.312993671269
 30
0.0
 10
98.72437877306197
 20
-141.312993671269
 30
0.0
 10
98.55729164202735
 20
-141.1924153292852
 30
0.0
 10
98.55729164202735
 20
-141.1924153292852
 30
0.0
 10
98.70749780518425
 20
-141.1162787190612
 30
0.0
 10
98.80671655515944
 20
-141.0211940836683
 30
0.0
 10
98.85563691104998
 20
-140.9681396131955
 30
0.0
 10
98.85563691104998
 20
-140.9681396131955
 30
0.0
 10
99.02892521395805
 20
-141.0508219048415
 30
0.0
 10
99.02892521395805
 20
-141.0508219048415
 30
0.0
 10
99.03753795267117
 20
-141.0549560194238
 30
0.0
 10
99.04580618183577
 20
-141.0615017008458
 30
0.0
 10
99.04580618183577
 20
-141.0718369873015
 30
0.0
 10
99.04580618183577
 20
-141.0973306938923
 30
0.0
 10
99.00997718878918
 20
-141.0973306938923
 30
0.0
 10
98.98241642490717
 20
-141.0973306938923
 30
0.0
  0
SPLINE
  5
115
330
10C
100
AcDbEntity
  8
_U+30EC_U+30A4_U+30E4_U+30FC 1
370
     0
100
AcDbSpline
210
0.0
220
0.0
230
1.0
 70
    11
 71
     3
 72
    20
 73
    16
 74
     0
 42
0.0000000001
 43
0.0000000001
 12
1.0
 22
0.0
 32
0.0
 13
1.0
 23
0.0
 33
0.0
 40
0.0
 40
0.0
 40
0.0
 40
0.0
 40
1.0
 40
1.0
 40
1.0
 40
2.0
 40
2.0
 40
2.0
 40
3.0
 40
3.0
 40
3.0
 40
4.0
 40
4.0
 40
4.0
 40
5.0
 40
5.0
 40
5.0
 40
5.0
 10
99.28076169392982
 20
-140.2553493572973
 30
0.0
 10
99.24252113404354
 20
-140.3039252036393
 30
0.0
 10
99.1811984344061
 20
-140.382473380703
 30
0.0
 10
99.04167206725347
 20
-140.4923719266825
 30
0.0
 10
99.1219427920598
 20
-140.4965060412648
 30
0.0
 10
99.15157061323295
 20
-140.4965060412648
 30
0.0
 10
99.17499726253264
 20
-140.4965060412648
 30
0.0
 10
99.17499726253264
 20
-140.4965060412648
 30
0.0
 10
99.4034070932047
 20
-140.4965060412648
 30
0.0
 10
99.4034070932047
 20
-140.4965060412648
 30
0.0
 10
99.43510197166901
 20
-140.4965060412648
 30
0.0
 10
99.48367781801103
 20
-140.4944389839736
 30
0.0
 10
99.5577473709439
 20
-140.4923719266825
 30
0.0
 10
99.44578176767328
 20
-140.4183023737496
 30
0.0
 10
99.39720592133126
 20
-140.3717935846987
 30
0.0
 10
99.28076169392982
 20
-140.2553493572973
 30
0.0
  0
SPLINE
  5
116
330
10C
100
AcDbEntity
  8
_U+30EC_U+30A4_U+30E4_U+30FC 1
370
     0
100
AcDbSpline
210
0.0
220
0.0
230
1.0
 70
    11
 71
     3
 72
    17
 73
    13
 74
     0
 42
0.0000000001
 43
0.0000000001
 12
1.0
 22
0.0
 32
0.0
 13
1.0
 23
0.0
 33
0.0
 40
0.0
 40
0.0
 40
0.0
 40
0.0
 40
1.0
 40
1.0
 40
1.0
 40
2.0
 40
2.0
 40
2.0
 40
3.0
 40
3.0
 40
3.0
 40
4.0
 40
4.0
 40
4.0
 40
4.0
 10
99.84127872937997
 20
-141.3109266139778
 30
0.0
 10
99.70588647680964
 20
-141.1989610107072
 30
0.0
 10
99.60012204541248
 20
-141.1355712537786
 30
0.0
 10
99.48161076071987
 20
-141.0718369873015
 30
0.0
 10
99.48161076071987
 20
-141.0718369873015
 30
0.0
 10
99.6087347841256
 20
-140.9598713840309
 30
0.0
 10
99.6087347841256
 20
-140.9598713840309
 30
0.0
 10
99.73964841256509
 20
-141.0063801730817
 30
0.0
 10
99.84989146809309
 20
-141.0635687581369
 30
0.0
 10
99.97460392465914
 20
-141.1651990749518
 30
0.0
 10
99.97460392465914
 20
-141.1651990749518
 30
0.0
 10
99.84127872937997
 20
-141.3109266139778
 30
0.0
 10
99.84127872937997
 20
-141.3109266139778
 30
0.0
  0
HATCH
  5
117
330
10C
100
AcDbEntity
  8
_U+30EC_U+30A4_U+30E4_U+30FC 1
 62
   179
420
  2234388
100
AcDbHatch
 10
0.0
 20
0.0
 30
0.0
210
0.0
220
0.0
230
1.0
  2
SOLID
 70
     1
 71
     0
 91
        7
 92
        1
 93
        1
 72
     4
 94
        3
 73
     0
 74
     1
 95
       17
 96
       13
 40
0.0
 40
0.0
 40
0.0
 40
0.0
 40
1.0
 40
1.0
 40
1.0
 40
2.0
 40
2.0
 40
2.0
 40
3.0
 40
3.0
 40
3.0
 40
4.0
 40
4.0
 40
4.0
 40
4.0
 10
98.34989689381531
 20
-140.7376627252323
 10
98.24413246241814
 20
-140.6318982938351
 10
98.16386173761181
 20
-140.5940022434973
 10
98.07049964996155
 20
-140.5619628554845
 10
98.07049964996155
 20
-140.5619628554845
 10
98.18074270548954
 20
-140.396942781741
 10
98.18074270548954
 20
-140.396942781741
 10
98.27789439817359
 20
-140.4393174562096
 10
98.39847274015733
 20
-140.5178656332733
 10
98.45152721063018
 20
-140.5726426514888
 10
98.45152721063018
 20
-140.5726426514888
 10
98.34989689381531
 20
-140.7376627252323
 10
98.34989689381531
 20
-140.7376627252323
 97
        0
 97
        0
 92
        1
 93
        1
 72
     4
 94
        3
 73
     0
 74
     1
 95
      182
 96
      178
 40
0.0
 40
0.0
 40
0.0
 40
0.0
 40
1.0
 40
1.0
 40
1.0
 40
2.0
 40
2.0
 40
2.0
 40
3.0
 40
3.0
 40
3.0
 40
4.0
 40
4.0
 40
4.0
 40
5.0
 40
5.0
 40
5.0
 40
6.0
 40
6.0
 40
6.0
 40
7.0
 40
7.0
 40
7.0
 40
8.0
 40
8.0
 40
8.0
 40
9.0
 40
9.0
 40
9.0
 40
10.0
 40
10.0
 40
10.0
 40
11.0
 40
11.0
 40
11.0
 40
12.0
 40
12.0
 40
12.0
 40
13.0
 40
13.0
 40
13.0
 40
14.0
 40
14.0
 40
14.0
 40
15.0
 40
15.0
 40
15.0
 40
16.0
 40
16.0
 40
16.0
 40
17.0
 40
17.0
 40
17.0
 40
18.0
 40
18.0
 40
18.0
 40
19.0
 40
19.0
 40
19.0
 40
20.0
 40
20.0
 40
20.0
 40
21.0
 40
21.0
 40
21.0
 40
22.0
 40
22.0
 40
22.0
 40
23.0
 40
23.0
 40
23.0
 40
24.0
 40
24.0
 40
24.0
 40
25.0
 40
25.0
 40
25.0
 40
26.0
 40
26.0
 40
26.0
 40
27.0
 40
27.0
 40
27.0
 40
28.0
 40
28.0
 40
28.0
 40
29.0
 40
29.0
 40
29.0
 40
30.0
 40
30.0
 40
30.0
 40
31.0
 40
31.0
 40
31.0
 40
32.0
 40
32.0
 40
32.0
 40
33.0
 40
33.0
 40
33.0
 40
34.0
 40
34.0
 40
34.0
 40
35.0
 40
35.0
 40
35.0
 40
36.0
 40
36.0
 40
36.0
 40
37.0
 40
37.0
 40
37.0
 40
38.0
 40
38.0
 40
38.0
 40
39.0
 40
39.0
 40
39.0
 40
40.0
 40
40.0
 40
40.0
 40
41.0
 40
41.0
 40
41.0
 40
42.0
 40
42.0
 40
42.0
 40
43.0
 40
43.0
 40
43.0
 40
44.0
 40
44.0
 40
44.0
 40
45.0
 40
45.0
 40
45.0
 40
46.0
 40
46.0
 40
46.0
 40
47.0
 40
47.0
 40
47.0
 40
48.0
 40
48.0
 40
48.0
 40
49.0
 40
49.0
 40
49.0
 40
50.0
 40
50.0
 40
50.0
 40
51.0
 40
51.0
 40
51.0
 40
52.0
 40
52.0
 40
52.0
 40
53.0
 40
53.0
 40
53.0
 40
54.0
 40
54.0
 40
54.0
 40
55.0
 40
55.0
 40
55.0
 40
56.0
 40
56.0
 40
56.0
 40
57.0
 40
57.0
 40
57.0
 40
58.0
 40
58.0
 40
58.0
 40
59.0
 40
59.0
 40
59.0
 40
59.0
 10
99.3951388640401
 20
-141.9158853811877
 10
99.3951388640401
 20
-141.9158853811877
 10
98.75814070881741
 20
-141.9158853811877
 10
98.75814070881741
 20
-141.9158853811877
 10
98.54454478873193
 20
-141.9158853811877
 10
98.32888181135529
 20
-141.9203640053185
 10
98.11494138172127
 20
-141.933110858614
 10
98.11494138172127
 20
-141.933110858614
 10
98.11494138172127
 20
-141.7257161104019
 10
98.11494138172127
 20
-141.7257161104019
 10
98.33715004051989
 20
-141.7384629636973
 10
98.66098901613337
 20
-141.7425970782796
 10
98.75814070881741
 20
-141.7425970782796
 10
98.75814070881741
 20
-141.7425970782796
 10
98.97828231032487
 20
-141.7425970782796
 10
98.97828231032487
 20
-141.7425970782796
 10
98.97828231032487
 20
-141.7425970782796
 10
98.97828231032487
 20
-141.6010036538359
 10
98.97828231032487
 20
-141.6010036538359
 10
98.97828231032487
 20
-141.6010036538359
 10
98.81739635116371
 20
-141.6010036538359
 10
98.81739635116371
 20
-141.6010036538359
 10
98.65237627742025
 20
-141.6010036538359
 10
98.48735620367678
 20
-141.6051377684182
 10
98.3223361299333
 20
-141.6199516790047
 10
98.3223361299333
 20
-141.6199516790047
 10
98.3223361299333
 20
-141.4104898735015
 10
98.3223361299333
 20
-141.4104898735015
 10
98.49390188509875
 20
-141.4253037840881
 10
98.7412597409397
 20
-141.4294378986704
 10
98.81739635116371
 20
-141.4294378986704
 10
98.81739635116371
 20
-141.4294378986704
 10
98.97828231032487
 20
-141.4294378986704
 10
98.97828231032487
 20
-141.4294378986704
 10
98.97414819574257
 20
-141.3574354030287
 10
98.97414819574257
 20
-141.3512342311552
 10
98.9676025143206
 20
-141.2981797606824
 10
98.9676025143206
 20
-141.2981797606824
 10
99.10712888147322
 20
-141.312993671269
 10
99.10712888147322
 20
-141.312993671269
 10
99.10712888147322
 20
-141.312993671269
 10
99.00791013149802
 20
-141.1417724256521
 10
99.00791013149802
 20
-141.1417724256521
 10
99.0544189205489
 20
-141.1479735975255
 10
99.12848847348177
 20
-141.1565863362386
 10
99.14536944135949
 20
-141.1565863362386
 10
99.19601234499267
 20
-141.1565863362386
 10
99.21289331287039
 20
-141.1355712537786
 10
99.21289331287039
 20
-141.0783826687235
 10
99.21289331287039
 20
-141.0783826687235
 10
99.21289331287039
 20
-140.940923358862
 10
99.21289331287039
 20
-140.940923358862
 10
99.21289331287039
 20
-140.940923358862
 10
99.10712888147322
 20
-140.940923358862
 10
99.10712888147322
 20
-140.940923358862
 10
98.97414819574257
 20
-140.940923358862
 10
98.81739635116371
 20
-140.940923358862
 10
98.69475095188882
 20
-140.9533257026089
 10
98.69475095188882
 20
-140.9533257026089
 10
98.69475095188882
 20
-140.7631564318231
 10
98.69475095188882
 20
-140.7631564318231
 10
98.86183808292343
 20
-140.7800373997008
 10
99.09231497088665
 20
-140.782104456992
 10
99.10712888147322
 20
-140.782104456992
 10
99.10712888147322
 20
-140.782104456992
 10
99.21289331287039
 20
-140.782104456992
 10
99.21289331287039
 20
-140.782104456992
 10
99.21289331287039
 20
-140.782104456992
 10
99.21289331287039
 20
-140.650846319004
 10
99.21289331287039
 20
-140.650846319004
 10
99.21289331287039
 20
-140.650846319004
 10
99.17499726253264
 20
-140.650846319004
 10
99.17499726253264
 20
-140.650846319004
 10
99.13055553077292
 20
-140.650846319004
 10
99.00584307420688
 20
-140.6553249431348
 10
98.91695961068743
 20
-140.6635931722994
 10
98.91695961068743
 20
-140.6635931722994
 10
98.91695961068743
 20
-140.5833224474931
 10
98.91695961068743
 20
-140.5833224474931
 10
98.86390514021458
 20
-140.6212184978308
 10
98.83875594317226
 20
-140.6360324084174
 10
98.79638126870368
 20
-140.6594590577171
 10
98.79638126870368
 20
-140.6594590577171
 10
98.60793454566053
 20
-140.5302679770202
 10
98.60793454566053
 20
-140.5302679770202
 10
98.6861382131757
 20
-140.4965060412648
 10
98.84289005775456
 20
-140.4331162843362
 10
98.9992973927849
 20
-140.2891112930527
 10
99.0819796844309
 20
-140.2109076255375
 10
99.16018335194607
 20
-140.1261582766004
 10
99.21289331287039
 20
-140.0248724693341
 10
99.21289331287039
 20
-140.0248724693341
 10
99.42442217566473
 20
-140.0861951689715
 10
99.42442217566473
 20
-140.0861951689715
 10
99.44371471038212
 20
-140.092396340845
 10
99.45404999683788
 20
-140.1010090795581
 10
99.45404999683788
 20
-140.1137559328535
 10
99.45404999683788
 20
-140.1306369007312
 10
99.44164765309098
 20
-140.1368380726047
 10
99.41615394650013
 20
-140.1495849259001
 10
99.49642467130646
 20
-140.2470811281327
 10
99.65937768775878
 20
-140.3442328208167
 10
99.69313962351421
 20
-140.3631808459856
 10
99.84334578667111
 20
-140.452064309505
 10
99.95772295678141
 20
-140.479625073387
 10
100.0359266242966
 20
-140.4985730985559
 10
100.0359266242966
 20
-140.4985730985559
 10
99.91741533960398
 20
-140.6677272868817
 10
99.91741533960398
 20
-140.6677272868817
 10
99.83301050021537
 20
-140.6384439752571
 10
99.78202308703366
 20
-140.6191514405397
 10
99.66351180234108
 20
-140.5536946263199
 10
99.66351180234108
 20
-140.5536946263199
 10
99.66351180234108
 20
-140.6635931722994
 10
99.66351180234108
 20
-140.6635931722994
 10
99.5811740202436
 20
-140.6553249431348
 10
99.45404999683788
 20
-140.650846319004
 10
99.40134003591356
 20
-140.650846319004
 10
99.40134003591356
 20
-140.650846319004
 10
99.40134003591356
 20
-140.782104456992
 10
99.40134003591356
 20
-140.782104456992
 10
99.40134003591356
 20
-140.782104456992
 10
99.52191837789731
 20
-140.782104456992
 10
99.52191837789731
 20
-140.782104456992
 10
99.52398543518845
 20
-140.782104456992
 10
99.75687388999134
 20
-140.7800373997008
 10
99.9342963074817
 20
-140.7631564318231
 10
99.9342963074817
 20
-140.7631564318231
 10
99.9342963074817
 20
-140.9533257026089
 10
99.9342963074817
 20
-140.9533257026089
 10
99.80544973633336
 20
-140.940923358862
 10
99.6486978917545
 20
-140.940923358862
 10
99.52191837789731
 20
-140.940923358862
 10
99.52191837789731
 20
-140.940923358862
 10
99.40134003591356
 20
-140.940923358862
 10
99.40134003591356
 20
-140.940923358862
 10
99.40134003591356
 20
-140.940923358862
 10
99.40134003591356
 20
-141.1672661322429
 10
99.40134003591356
 20
-141.1672661322429
 10
99.40134003591356
 20
-141.2857774169355
 10
99.37584632932271
 20
-141.3216064099821
 10
99.21530487971006
 20
-141.3364203205687
 10
99.21943899429236
 20
-141.3553683457376
 10
99.21289331287039
 20
-141.3660481417418
 10
99.17499726253264
 20
-141.389130281493
 10
99.1729302052415
 20
-141.4084228162104
 10
99.1729302052415
 20
-141.4146239880839
 10
99.17086314795034
 20
-141.4294378986704
 10
99.17086314795034
 20
-141.4294378986704
 10
99.30832245781181
 20
-141.4294378986704
 10
99.30832245781181
 20
-141.4294378986704
 10
99.47334253155528
 20
-141.4294378986704
 10
99.6404296625899
 20
-141.4253037840881
 10
99.80751679362452
 20
-141.4104898735015
 10
99.80751679362452
 20
-141.4104898735015
 10
99.80751679362452
 20
-141.6178846217136
 10
99.80751679362452
 20
-141.6178846217136
 10
99.59185381624788
 20
-141.6010036538359
 10
99.32727048298068
 20
-141.6010036538359
 10
99.30832245781181
 20
-141.6010036538359
 10
99.30832245781181
 20
-141.6010036538359
 10
99.16845158111067
 20
-141.6010036538359
 10
99.16845158111067
 20
-141.6010036538359
 10
99.16845158111067
 20
-141.6010036538359
 10
99.16845158111067
 20
-141.7425970782796
 10
99.16845158111067
 20
-141.7425970782796
 10
99.16845158111067
 20
-141.7425970782796
 10
99.3951388640401
 20
-141.7425970782796
 10
99.3951388640401
 20
-141.7425970782796
 10
99.61080184141674
 20
-141.7425970782796
 10
99.82853187608454
 20
-141.7384629636973
 10
100.0445393630097
 20
-141.7257161104019
 10
100.0445393630097
 20
-141.7257161104019
 10
100.0445393630097
 20
-141.933110858614
 10
100.0445393630097
 20
-141.933110858614
 10
99.7630750618648
 20
-141.9158853811877
 10
99.41822100379129
 20
-141.9158853811877
 10
99.3951388640401
 20
-141.9158853811877
 97
        0
 97
        0
 92
        1
 93
        1
 72
     4
 94
        3
 73
     0
 74
     1
 95
       23
 96
       19
 40
0.0
 40
0.0
 40
0.0
 40
0.0
 40
1.0
 40
1.0
 40
1.0
 40
2.0
 40
2.0
 40
2.0
 40
3.0
 40
3.0
 40
3.0
 40
4.0
 40
4.0
 40
4.0
 40
5.0
 40
5.0
 40
5.0
 40
6.0
 40
6.0
 40
6.0
 40
6.0
 10
98.27582734088243
 20
-141.2878444742267
 10
98.27582734088243
 20
-141.3088595566867
 10
98.27789439817359
 20
-141.347100116573
 10
98.25274520113126
 20
-141.347100116573
 10
98.242065405127
 20
-141.347100116573
 10
98.23345266641387
 20
-141.340554435151
 10
98.22311737995811
 20
-141.3236734672733
 10
98.22311737995811
 20
-141.3236734672733
 10
98.11942000585209
 20
-141.1417724256521
 10
98.11942000585209
 20
-141.1417724256521
 10
98.33508298322873
 20
-141.0125813449552
 10
98.5317979354365
 20
-140.7355956679411
 10
98.57830672448738
 20
-140.6635931722994
 10
98.57830672448738
 20
-140.6635931722994
 10
98.65030922012909
 20
-140.8434271566294
 10
98.65030922012909
 20
-140.8434271566294
 10
98.51698402484992
 20
-141.0401421088372
 10
98.34128415510219
 20
-141.2241102077495
 10
98.27582734088243
 20
-141.2878444742267
 97
        0
 97
        0
 92
        1
 93
        1
 72
     4
 94
        3
 73
     0
 74
     1
 95
       17
 96
       13
 40
0.0
 40
0.0
 40
0.0
 40
0.0
 40
1.0
 40
1.0
 40
1.0
 40
2.0
 40
2.0
 40
2.0
 40
3.0
 40
3.0
 40
3.0
 40
4.0
 40
4.0
 40
4.0
 40
4.0
 10
98.52973087814534
 20
-140.3928086671588
 10
98.4684081785079
 20
-140.3166720569347
 10
98.33921709781103
 20
-140.2405354467107
 10
98.23551972370501
 20
-140.2109076255375
 10
98.23551972370501
 20
-140.2109076255375
 10
98.33094886864643
 20
-140.0458875517941
 10
98.33094886864643
 20
-140.0458875517941
 10
98.43257918546131
 20
-140.0820610543892
 10
98.53834361685847
 20
-140.1389051298958
 10
98.6268825708294
 20
-140.2195203642507
 10
98.6268825708294
 20
-140.2195203642507
 10
98.52973087814534
 20
-140.3928086671588
 10
98.52973087814534
 20
-140.3928086671588
 97
        0
 97
        0
 92
        1
 93
        1
 72
     4
 94
        3
 73
     0
 74
     1
 95
       23
 96
       19
 40
0.0
 40
0.0
 40
0.0
 40
0.0
 40
1.0
 40
1.0
 40
1.0
 40
2.0
 40
2.0
 40
2.0
 40
3.0
 40
3.0
 40
3.0
 40
4.0
 40
4.0
 40
4.0
 40
5.0
 40
5.0
 40
5.0
 40
6.0
 40
6.0
 40
6.0
 40
6.0
 10
98.98241642490717
 20
-141.0973306938923
 10
98.96140134244716
 20
-141.120757343192
 10
98.86390514021458
 20
-141.2327229464627
 10
98.72437877306197
 20
-141.312993671269
 10
98.72437877306197
 20
-141.312993671269
 10
98.55729164202735
 20
-141.1924153292852
 10
98.55729164202735
 20
-141.1924153292852
 10
98.70749780518425
 20
-141.1162787190612
 10
98.80671655515944
 20
-141.0211940836683
 10
98.85563691104998
 20
-140.9681396131955
 10
98.85563691104998
 20
-140.9681396131955
 10
99.02892521395805
 20
-141.0508219048415
 10
99.02892521395805
 20
-141.0508219048415
 10
99.03753795267117
 20
-141.0549560194238
 10
99.04580618183577
 20
-141.0615017008458
 10
99.04580618183577
 20
-141.0718369873015
 10
99.04580618183577
 20
-141.0973306938923
 10
99.00997718878918
 20
-141.0973306938923
 10
98.98241642490717
 20
-141.0973306938923
 97
        0
 97
        0
 92
        1
 93
        1
 72
     4
 94
        3
 73
     0
 74
     1
 95
       20
 96
       16
 40
0.0
 40
0.0
 40
0.0
 40
0.0
 40
1.0
 40
1.0
 40
1.0
 40
2.0
 40
2.0
 40
2.0
 40
3.0
 40
3.0
 40
3.0
 40
4.0
 40
4.0
 40
4.0
 40
5.0
 40
5.0
 40
5.0
 40
5.0
 10
99.28076169392982
 20
-140.2553493572973
 10
99.24252113404354
 20
-140.3039252036393
 10
99.1811984344061
 20
-140.382473380703
 10
99.04167206725347
 20
-140.4923719266825
 10
99.1219427920598
 20
-140.4965060412648
 10
99.15157061323295
 20
-140.4965060412648
 10
99.17499726253264
 20
-140.4965060412648
 10
99.17499726253264
 20
-140.4965060412648
 10
99.4034070932047
 20
-140.4965060412648
 10
99.4034070932047
 20
-140.4965060412648
 10
99.43510197166901
 20
-140.4965060412648
 10
99.48367781801103
 20
-140.4944389839736
 10
99.5577473709439
 20
-140.4923719266825
 10
99.44578176767328
 20
-140.4183023737496
 10
99.39720592133126
 20
-140.3717935846987
 10
99.28076169392982
 20
-140.2553493572973
 97
        0
 97
        0
 92
        1
 93
        1
 72
     4
 94
        3
 73
     0
 74
     1
 95
       17
 96
       13
 40
0.0
 40
0.0
 40
0.0
 40
0.0
 40
1.0
 40
1.0
 40
1.0
 40
2.0
 40
2.0
 40
2.0
 40
3.0
 40
3.0
 40
3.0
 40
4.0
 40
4.0
 40
4.0
 40
4.0
 10
99.84127872937997
 20
-141.3109266139778
 10
99.70588647680964
 20
-141.1989610107072
 10
99.60012204541248
 20
-141.1355712537786
 10
99.48161076071987
 20
-141.0718369873015
 10
99.48161076071987
 20
-141.0718369873015
 10
99.6087347841256
 20
-140.9598713840309
 10
99.6087347841256
 20
-140.9598713840309
 10
99.73964841256509
 20
-141.0063801730817
 10
99.84989146809309
 20
-141.0635687581369
 10
99.97460392465914
 20
-141.1651990749518
 10
99.97460392465914
 20
-141.1651990749518
 10
99.84127872937997
 20
-141.3109266139778
 10
99.84127872937997
 20
-141.3109266139778
 97
        0
 97
        0
 75
     2
 76
     1
 98
        0
  0
SPLINE
  5
118
330
10C
100
AcDbEntity
  8
_U+30EC_U+30A4_U+30E4_U+30FC 1
370
     0
100
AcDbSpline
210
0.0
220
0.0
230
1.0
 70
    11
 71
     3
 72
   113
 73
   109
 74
     0
 42
0.0000000001
 43
0.0000000001
 12
1.0
 22
0.0
 32
0.0
 13
1.0
 23
0.0
 33
0.0
 40
0.0
 40
0.0
 40
0.0
 40
0.0
 40
1.0
 40
1.0
 40
1.0
 40
2.0
 40
2.0
 40
2.0
 40
3.0
 40
3.0
 40
3.0
 40
4.0
 40
4.0
 40
4.0
 40
5.0
 40
5.0
 40
5.0
 40
6.0
 40
6.0
 40
6.0
 40
7.0
 40
7.0
 40
7.0
 40
8.0
 40
8.0
 40
8.0
 40
9.0
 40
9.0
 40
9.0
 40
10.0
 40
10.0
 40
10.0
 40
11.0
 40
11.0
 40
11.0
 40
12.0
 40
12.0
 40
12.0
 40
13.0
 40
13.0
 40
13.0
 40
14.0
 40
14.0
 40
14.0
 40
15.0
 40
15.0
 40
15.0
 40
16.0
 40
16.0
 40
16.0
 40
17.0
 40
17.0
 40
17.0
 40
18.0
 40
18.0
 40
18.0
 40
19.0
 40
19.0
 40
19.0
 40
20.0
 40
20.0
 40
20.0
 40
21.0
 40
21.0
 40
21.0
 40
22.0
 40
22.0
 40
22.0
 40
23.0
 40
23.0
 40
23.0
 40
24.0
 40
24.0
 40
24.0
 40
25.0
 40
25.0
 40
25.0
 40
26.0
 40
26.0
 40
26.0
 40
27.0
 40
27.0
 40
27.0
 40
28.0
 40
28.0
 40
28.0
 40
29.0
 40
29.0
 40
29.0
 40
30.0
 40
30.0
 40
30.0
 40
31.0
 40
31.0
 40
31.0
 40
32.0
 40
32.0
 40
32.0
 40
33.0
 40
33.0
 40
33.0
 40
34.0
 40
34.0
 40
34.0
 40
35.0
 40
35.0
 40
35.0
 40
36.0
 40
36.0
 40
36.0
 40
36.0
 10
101.7209228261323
 20
-141.2878444742267
 30
0.0
 10
101.7209228261323
 20
-141.2878444742267
 30
0.0
 10
101.820486085656
 20
-141.3870632242019
 30
0.0
 10
101.820486085656
 20
-141.3870632242019
 30
0.0
 10
101.8311658816603
 20
-141.3977430202061
 30
0.0
 10
101.841501168116
 20
-141.4104898735015
 30
0.0
 10
101.841501168116
 20
-141.4253037840881
 30
0.0
 10
101.841501168116
 20
-141.4273708413793
 30
0.0
 10
101.841501168116
 20
-141.4569986625524
 30
0.0
 10
101.8036051177783
 20
-141.4569986625524
 30
0.0
 10
101.7949923790651
 20
-141.4569986625524
 30
0.0
 10
101.7550292714362
 20
-141.4528645479701
 30
0.0
 10
101.7484835900143
 20
-141.4528645479701
 30
0.0
 10
101.7085204823854
 20
-141.4845594264344
 30
0.0
 10
101.661667183786
 20
-141.5183213621899
 30
0.0
 10
101.5624484338108
 20
-141.575509947245
 30
0.0
 10
101.7085204823854
 20
-141.6833414359333
 30
0.0
 10
101.8669948747069
 20
-141.7405300209885
 30
0.0
 10
102.1398464371387
 20
-141.7784260713262
 30
0.0
 10
102.1398464371387
 20
-141.7784260713262
 30
0.0
 10
101.9896402739818
 20
-141.954125941074
 30
0.0
 10
101.9896402739818
 20
-141.954125941074
 30
0.0
 10
101.7274685075542
 20
-141.8821234454323
 30
0.0
 10
101.5707166629754
 20
-141.7932399819128
 30
0.0
 10
101.4945800527514
 20
-141.7405300209885
 30
0.0
 10
101.3443738895945
 20
-141.6388997041736
 30
0.0
 10
101.2007134078596
 20
-141.4759466877213
 30
0.0
 10
101.1245767976355
 20
-141.3109266139778
 30
0.0
 10
101.0567084165761
 20
-141.3767279377461
 30
0.0
 10
100.9826388636432
 20
-141.4294378986704
 30
0.0
 10
100.9044351961281
 20
-141.4780137450124
 30
0.0
 10
100.9044351961281
 20
-141.4780137450124
 30
0.0
 10
100.9044351961281
 20
-141.7298502249842
 30
0.0
 10
100.9044351961281
 20
-141.7298502249842
 30
0.0
 10
101.0673882125804
 20
-141.7043565183934
 30
0.0
 10
101.2534233687839
 20
-141.6599147866336
 30
0.0
 10
101.317157635261
 20
-141.6451008760471
 30
0.0
 10
101.317157635261
 20
-141.6451008760471
 30
0.0
 10
101.2875298140878
 20
-141.8145995739214
 30
0.0
 10
101.2875298140878
 20
-141.8145995739214
 30
0.0
 10
101.2851182472482
 20
-141.8145995739214
 30
0.0
 10
101.2661702220793
 20
-141.8208007457948
 30
0.0
 10
101.2641031647881
 20
-141.8208007457948
 30
0.0
 10
101.0653211552892
 20
-141.8590413056811
 30
0.0
 10
100.7480278610977
 20
-141.9244981199008
 30
0.0
 10
100.55131290889
 20
-141.9603271129474
 30
0.0
 10
100.5406331128857
 20
-141.9775525903737
 30
0.0
 10
100.517206463586
 20
-142.009247468838
 30
0.0
 10
100.4941243238348
 20
-142.009247468838
 30
0.0
 10
100.4665635599528
 20
-142.009247468838
 30
0.0
 10
100.4624294453705
 20
-141.9899549341206
 30
0.0
 10
100.4603623880794
 20
-141.9710069089517
 30
0.0
 10
100.4603623880794
 20
-141.9710069089517
 30
0.0
 10
100.4348686814885
 20
-141.7977186060436
 30
0.0
 10
100.4348686814885
 20
-141.7977186060436
 30
0.0
 10
100.5089382344214
 20
-141.7891058673305
 30
0.0
 10
100.6167697231097
 20
-141.7763590140351
 30
0.0
 10
100.724601211798
 20
-141.7553439315751
 30
0.0
 10
100.724601211798
 20
-141.7553439315751
 30
0.0
 10
100.724601211798
 20
-141.5775770045362
 30
0.0
 10
100.724601211798
 20
-141.5775770045362
 30
0.0
 10
100.5809407300631
 20
-141.6495795001779
 30
0.0
 10
100.4855115851217
 20
-141.679207321351
 30
0.0
 10
100.3204915113782
 20
-141.7088351425242
 30
0.0
 10
100.3204915113782
 20
-141.7088351425242
 30
0.0
 10
100.1999131693945
 20
-141.5393364446499
 30
0.0
 10
100.1999131693945
 20
-141.5393364446499
 30
0.0
 10
100.517206463586
 20
-141.5121201903164
 30
0.0
 10
100.7097873012114
 20
-141.4187581026661
 30
0.0
 10
100.8875542282503
 20
-141.2857774169355
 30
0.0
 10
100.7414821796757
 20
-141.2857774169355
 30
0.0
 10
100.441069853362
 20
-141.2899115315178
 30
0.0
 10
100.2443549011542
 20
-141.2961127033913
 30
0.0
 10
100.2443549011542
 20
-141.2961127033913
 30
0.0
 10
100.2443549011542
 20
-141.1183457763524
 30
0.0
 10
100.2443549011542
 20
-141.1183457763524
 30
0.0
 10
100.3990396884419
 20
-141.1248914577743
 30
0.0
 10
100.6949733906249
 20
-141.1310926296478
 30
0.0
 10
100.8789414895372
 20
-141.1310926296478
 30
0.0
 10
100.8789414895372
 20
-141.1310926296478
 30
0.0
 10
101.0908148618801
 20
-141.1310926296478
 30
0.0
 10
101.0908148618801
 20
-141.1310926296478
 30
0.0
 10
101.0908148618801
 20
-141.0360079942549
 30
0.0
 10
101.0884032950404
 20
-140.9853650906217
 30
0.0
 10
101.082202123167
 20
-140.9385117920223
 30
0.0
 10
101.082202123167
 20
-140.9385117920223
 30
0.0
 10
101.2978651005436
 20
-140.9557372694486
 30
0.0
 10
101.2978651005436
 20
-140.9557372694486
 30
0.0
 10
101.3467854564341
 20
-140.9598713840309
 30
0.0
 10
101.3550536855987
 20
-140.9746852946174
 30
0.0
 10
101.3550536855987
 20
-140.989499205204
 30
0.0
 10
101.3550536855987
 20
-141.0149929117949
 30
0.0
 10
101.338172717721
 20
-141.0232611409595
 30
0.0
 10
101.2875298140878
 20
-141.0487548475503
 30
0.0
 10
101.2851182472482
 20
-141.0742485541412
 30
0.0
 10
101.2851182472482
 20
-141.0804497260146
 30
0.0
 10
101.283051189957
 20
-141.1310926296478
 30
0.0
 10
101.283051189957
 20
-141.1310926296478
 30
0.0
 10
101.5138725874688
 20
-141.1310926296478
 30
0.0
 10
101.5138725874688
 20
-141.1310926296478
 30
0.0
 10
101.6788926612122
 20
-141.1310926296478
 30
0.0
 10
101.9706922488129
 20
-141.1248914577743
 30
0.0
 10
102.1505262331429
 20
-141.1183457763524
 30
0.0
 10
102.1505262331429
 20
-141.1183457763524
 30
0.0
 10
102.1505262331429
 20
-141.2961127033913
 30
0.0
 10
102.1505262331429
 20
-141.2961127033913
 30
0.0
 10
102.0213351524461
 20
-141.2919785888089
 30
0.0
 10
101.9982530126949
 20
-141.2919785888089
 30
0.0
 10
101.7209228261323
 20
-141.2878444742267
 30
0.0
  0
SPLINE
  5
119
330
10C
100
AcDbEntity
  8
_U+30EC_U+30A4_U+30E4_U+30FC 1
370
     0
100
AcDbSpline
210
0.0
220
0.0
230
1.0
 70
    11
 71
     3
 72
    23
 73
    19
 74
     0
 42
0.0000000001
 43
0.0000000001
 12
1.0
 22
0.0
 32
0.0
 13
1.0
 23
0.0
 33
0.0
 40
0.0
 40
0.0
 40
0.0
 40
0.0
 40
1.0
 40
1.0
 40
1.0
 40
2.0
 40
2.0
 40
2.0
 40
3.0
 40
3.0
 40
3.0
 40
4.0
 40
4.0
 40
4.0
 40
5.0
 40
5.0
 40
5.0
 40
6.0
 40
6.0
 40
6.0
 40
6.0
 10
100.4369357387797
 20
-140.9364447347312
 30
0.0
 10
100.4200547709019
 20
-140.9767523519086
 30
0.0
 10
100.4138535990285
 20
-140.9936333197863
 30
0.0
 10
100.3924940070199
 20
-140.9936333197863
 30
0.0
 10
100.3776800964334
 20
-140.9936333197863
 30
0.0
 10
100.3670003004291
 20
-140.9767523519086
 30
0.0
 10
100.3607991285556
 20
-140.9640054986132
 30
0.0
 10
100.3607991285556
 20
-140.9640054986132
 30
0.0
 10
100.2612358690319
 20
-140.7989854248697
 30
0.0
 10
100.2612358690319
 20
-140.7989854248697
 30
0.0
 10
100.3628661858468
 20
-140.7672905464054
 30
0.0
 10
100.5130723490037
 20
-140.7121690186414
 30
0.0
 10
100.7118543585026
 20
-140.5495605117376
 30
0.0
 10
100.7118543585026
 20
-140.5495605117376
 30
0.0
 10
100.7690429435577
 20
-140.7228488146457
 30
0.0
 10
100.7690429435577
 20
-140.7228488146457
 30
0.0
 10
100.676025365456
 20
-140.8055311062917
 30
0.0
 10
100.5871419019365
 20
-140.8623751817983
 30
0.0
 10
100.4369357387797
 20
-140.9364447347312
 30
0.0
  0
SPLINE
  5
11A
330
10C
100
AcDbEntity
  8
_U+30EC_U+30A4_U+30E4_U+30FC 1
370
     0
100
AcDbSpline
210
0.0
220
0.0
230
1.0
 70
    11
 71
     3
 72
    17
 73
    13
 74
     0
 42
0.0000000001
 43
0.0000000001
 12
1.0
 22
0.0
 32
0.0
 13
1.0
 23
0.0
 33
0.0
 40
0.0
 40
0.0
 40
0.0
 40
0.0
 40
1.0
 40
1.0
 40
1.0
 40
2.0
 40
2.0
 40
2.0
 40
3.0
 40
3.0
 40
3.0
 40
4.0
 40
4.0
 40
4.0
 40
4.0
 10
100.5892089592277
 20
-140.4710123346739
 30
0.0
 10
100.5595811380546
 20
-140.431049227045
 30
0.0
 10
100.4920572665437
 20
-140.3335530248125
 30
0.0
 10
100.3101562249225
 20
-140.223654478833
 30
0.0
 10
100.3101562249225
 20
-140.223654478833
 30
0.0
 10
100.4369357387797
 20
-140.0903292835538
 30
0.0
 10
100.4369357387797
 20
-140.0903292835538
 30
0.0
 10
100.6229708949832
 20
-140.1919596003687
 30
0.0
 10
100.6801594800383
 20
-140.2808430638881
 30
0.0
 10
100.7077202439203
 20
-140.3232177383567
 30
0.0
 10
100.7077202439203
 20
-140.3232177383567
 30
0.0
 10
100.5892089592277
 20
-140.4710123346739
 30
0.0
 10
100.5892089592277
 20
-140.4710123346739
 30
0.0
  0
SPLINE
  5
11B
330
10C
100
AcDbEntity
  8
_U+30EC_U+30A4_U+30E4_U+30FC 1
370
     0
100
AcDbSpline
210
0.0
220
0.0
230
1.0
 70
    11
 71
     3
 72
    38
 73
    34
 74
     0
 42
0.0000000001
 43
0.0000000001
 12
1.0
 22
0.0
 32
0.0
 13
1.0
 23
0.0
 33
0.0
 40
0.0
 40
0.0
 40
0.0
 40
0.0
 40
1.0
 40
1.0
 40
1.0
 40
2.0
 40
2.0
 40
2.0
 40
3.0
 40
3.0
 40
3.0
 40
4.0
 40
4.0
 40
4.0
 40
5.0
 40
5.0
 40
5.0
 40
6.0
 40
6.0
 40
6.0
 40
7.0
 40
7.0
 40
7.0
 40
8.0
 40
8.0
 40
8.0
 40
9.0
 40
9.0
 40
9.0
 40
10.0
 40
10.0
 40
10.0
 40
11.0
 40
11.0
 40
11.0
 40
11.0
 10
100.9574896666009
 20
-140.1664658937778
 30
0.0
 10
100.9554226093098
 20
-140.2129746828287
 30
0.0
 10
100.9530110424701
 20
-140.3294189102301
 30
0.0
 10
100.9530110424701
 20
-140.3738606419899
 30
0.0
 10
100.9530110424701
 20
-140.3738606419899
 30
0.0
 10
100.9530110424701
 20
-140.7207817573545
 30
0.0
 10
100.9530110424701
 20
-140.7207817573545
 30
0.0
 10
100.9530110424701
 20
-140.8075981635828
 30
0.0
 10
100.9554226093098
 20
-140.9491915880266
 30
0.0
 10
100.9657578957655
 20
-141.0697699300104
 30
0.0
 10
100.9657578957655
 20
-141.0697699300104
 30
0.0
 10
100.7755886249797
 20
-141.0697699300104
 30
0.0
 10
100.7755886249797
 20
-141.0697699300104
 30
0.0
 10
100.779722739562
 20
-141.0063801730817
 30
0.0
 10
100.7838568541443
 20
-140.9533257026089
 30
0.0
 10
100.7859239114355
 20
-140.8985486843934
 30
0.0
 10
100.7879909687266
 20
-140.7759032851185
 30
0.0
 10
100.7904025355663
 20
-140.761089374532
 30
0.0
 10
100.7904025355663
 20
-140.7166476427722
 30
0.0
 10
100.7904025355663
 20
-140.7166476427722
 30
0.0
 10
100.7904025355663
 20
-140.3948757244499
 30
0.0
 10
100.7904025355663
 20
-140.3948757244499
 30
0.0
 10
100.7904025355663
 20
-140.3400987062344
 30
0.0
 10
100.7776556822709
 20
-140.1010090795581
 30
0.0
 10
100.7755886249797
 20
-140.0500216663764
 30
0.0
 10
100.7755886249797
 20
-140.0500216663764
 30
0.0
 10
100.9764376917698
 20
-140.0775824302584
 30
0.0
 10
100.9764376917698
 20
-140.0775824302584
 30
0.0
 10
100.9974527742298
 20
-140.0796494875495
 30
0.0
 10
101.0291476526941
 20
-140.0841281116804
 30
0.0
 10
101.0291476526941
 20
-140.1092773087227
 30
0.0
 10
101.0291476526941
 20
-140.1368380726047
 30
0.0
 10
100.9785047490609
 20
-140.1581976646132
 30
0.0
 10
100.9574896666009
 20
-140.1664658937778
 30
0.0
  0
SPLINE
  5
11C
330
10C
100
AcDbEntity
  8
_U+30EC_U+30A4_U+30E4_U+30FC 1
370
     0
100
AcDbSpline
210
0.0
220
0.0
230
1.0
 70
    11
 71
     3
 72
    83
 73
    79
 74
     0
 42
0.0000000001
 43
0.0000000001
 12
1.0
 22
0.0
 32
0.0
 13
1.0
 23
0.0
 33
0.0
 40
0.0
 40
0.0
 40
0.0
 40
0.0
 40
1.0
 40
1.0
 40
1.0
 40
2.0
 40
2.0
 40
2.0
 40
3.0
 40
3.0
 40
3.0
 40
4.0
 40
4.0
 40
4.0
 40
5.0
 40
5.0
 40
5.0
 40
6.0
 40
6.0
 40
6.0
 40
7.0
 40
7.0
 40
7.0
 40
8.0
 40
8.0
 40
8.0
 40
9.0
 40
9.0
 40
9.0
 40
10.0
 40
10.0
 40
10.0
 40
11.0
 40
11.0
 40
11.0
 40
12.0
 40
12.0
 40
12.0
 40
13.0
 40
13.0
 40
13.0
 40
14.0
 40
14.0
 40
14.0
 40
15.0
 40
15.0
 40
15.0
 40
16.0
 40
16.0
 40
16.0
 40
17.0
 40
17.0
 40
17.0
 40
18.0
 40
18.0
 40
18.0
 40
19.0
 40
19.0
 40
19.0
 40
20.0
 40
20.0
 40
20.0
 40
21.0
 40
21.0
 40
21.0
 40
22.0
 40
22.0
 40
22.0
 40
23.0
 40
23.0
 40
23.0
 40
24.0
 40
24.0
 40
24.0
 40
25.0
 40
25.0
 40
25.0
 40
26.0
 40
26.0
 40
26.0
 40
26.0
 10
101.7591633860185
 20
-140.4882378121002
 30
0.0
 10
101.7591633860185
 20
-140.4882378121002
 30
0.0
 10
101.661667183786
 20
-140.4882378121002
 30
0.0
 10
101.661667183786
 20
-140.4882378121002
 30
0.0
 10
101.661667183786
 20
-140.4882378121002
 30
0.0
 10
101.661667183786
 20
-140.7355956679411
 30
0.0
 10
101.661667183786
 20
-140.7355956679411
 30
0.0
 10
101.661667183786
 20
-140.7355956679411
 30
0.0
 10
101.744349475432
 20
-140.7355956679411
 30
0.0
 10
101.744349475432
 20
-140.7355956679411
 30
0.0
 10
101.8098062896517
 20
-140.7355956679411
 30
0.0
 10
101.9496771663529
 20
-140.7314615533588
 30
0.0
 10
102.0488959163281
 20
-140.7228488146457
 30
0.0
 10
102.0488959163281
 20
-140.7228488146457
 30
0.0
 10
102.0488959163281
 20
-140.9026827989757
 30
0.0
 10
102.0488959163281
 20
-140.9026827989757
 30
0.0
 10
101.9558783382263
 20
-140.8944145698111
 30
0.0
 10
101.8056721750694
 20
-140.8899359456803
 30
0.0
 10
101.744349475432
 20
-140.8899359456803
 30
0.0
 10
101.744349475432
 20
-140.8899359456803
 30
0.0
 10
101.4398030345359
 20
-140.8899359456803
 30
0.0
 10
101.4398030345359
 20
-140.8899359456803
 30
0.0
 10
101.386748564063
 20
-140.8899359456803
 30
0.0
 10
101.241021025037
 20
-140.8944145698111
 30
0.0
 10
101.1349120840913
 20
-140.9026827989757
 30
0.0
 10
101.1349120840913
 20
-140.9026827989757
 30
0.0
 10
101.1349120840913
 20
-140.7228488146457
 30
0.0
 10
101.1349120840913
 20
-140.7228488146457
 30
0.0
 10
101.234475343615
 20
-140.7314615533588
 30
0.0
 10
101.3740017107676
 20
-140.7355956679411
 30
0.0
 10
101.4398030345359
 20
-140.7355956679411
 30
0.0
 10
101.4398030345359
 20
-140.7355956679411
 30
0.0
 10
101.4842447662956
 20
-140.7355956679411
 30
0.0
 10
101.4842447662956
 20
-140.7355956679411
 30
0.0
 10
101.4842447662956
 20
-140.7355956679411
 30
0.0
 10
101.4842447662956
 20
-140.4882378121002
 30
0.0
 10
101.4842447662956
 20
-140.4882378121002
 30
0.0
 10
101.4842447662956
 20
-140.4882378121002
 30
0.0
 10
101.4101752133627
 20
-140.4882378121002
 30
0.0
 10
101.4101752133627
 20
-140.4882378121002
 30
0.0
 10
101.3488525137253
 20
-140.4882378121002
 30
0.0
 10
101.1817653826907
 20
-140.4923719266825
 30
0.0
 10
101.0611870407069
 20
-140.5006401558471
 30
0.0
 10
101.0611870407069
 20
-140.5006401558471
 30
0.0
 10
101.0611870407069
 20
-140.3232177383567
 30
0.0
 10
101.0611870407069
 20
-140.3232177383567
 30
0.0
 10
101.1752197012687
 20
-140.3294189102301
 30
0.0
 10
101.3340386031387
 20
-140.3335530248125
 30
0.0
 10
101.4101752133627
 20
-140.3335530248125
 30
0.0
 10
101.4101752133627
 20
-140.3335530248125
 30
0.0
 10
101.4821777090045
 20
-140.3335530248125
 30
0.0
 10
101.4821777090045
 20
-140.3335530248125
 30
0.0
 10
101.4776990848736
 20
-140.1812798043644
 30
0.0
 10
101.4756320275825
 20
-140.147517868609
 30
0.0
 10
101.469430855709
 20
-140.0545002905072
 30
0.0
 10
101.469430855709
 20
-140.0545002905072
 30
0.0
 10
101.6809597185034
 20
-140.0775824302584
 30
0.0
 10
101.6809597185034
 20
-140.0775824302584
 30
0.0
 10
101.7061089155457
 20
-140.0796494875495
 30
0.0
 10
101.7295355648454
 20
-140.0841281116804
 30
0.0
 10
101.7295355648454
 20
-140.1072102514315
 30
0.0
 10
101.7295355648454
 20
-140.1389051298958
 30
0.0
 10
101.6850938330857
 20
-140.1557860977736
 30
0.0
 10
101.661667183786
 20
-140.1643988364867
 30
0.0
 10
101.661667183786
 20
-140.1643988364867
 30
0.0
 10
101.661667183786
 20
-140.3335530248125
 30
0.0
 10
101.661667183786
 20
-140.3335530248125
 30
0.0
 10
101.661667183786
 20
-140.3335530248125
 30
0.0
 10
101.7591633860185
 20
-140.3335530248125
 30
0.0
 10
101.7591633860185
 20
-140.3335530248125
 30
0.0
 10
101.8352999962426
 20
-140.3335530248125
 30
0.0
 10
101.9941188981126
 20
-140.3294189102301
 30
0.0
 10
102.1102186159655
 20
-140.3232177383567
 30
0.0
 10
102.1102186159655
 20
-140.3232177383567
 30
0.0
 10
102.1102186159655
 20
-140.5006401558471
 30
0.0
 10
102.1102186159655
 20
-140.5006401558471
 30
0.0
 10
102.0023871272772
 20
-140.4944389839736
 30
0.0
 10
101.8290988243691
 20
-140.4882378121002
 30
0.0
 10
101.7591633860185
 20
-140.4882378121002
 30
0.0
  0
SPLINE
  5
11D
330
10C
100
AcDbEntity
  8
_U+30EC_U+30A4_U+30E4_U+30FC 1
370
     0
100
AcDbSpline
210
0.0
220
0.0
230
1.0
 70
    11
 71
     3
 72
    17
 73
    13
 74
     0
 42
0.0000000001
 43
0.0000000001
 12
1.0
 22
0.0
 32
0.0
 13
1.0
 23
0.0
 33
0.0
 40
0.0
 40
0.0
 40
0.0
 40
0.0
 40
1.0
 40
1.0
 40
1.0
 40
2.0
 40
2.0
 40
2.0
 40
3.0
 40
3.0
 40
3.0
 40
4.0
 40
4.0
 40
4.0
 40
4.0
 10
101.5138725874688
 20
-141.2857774169355
 30
0.0
 10
101.5138725874688
 20
-141.2857774169355
 30
0.0
 10
101.310611953839
 20
-141.2857774169355
 30
0.0
 10
101.310611953839
 20
-141.2857774169355
 30
0.0
 10
101.338172717721
 20
-141.3450330592818
 30
0.0
 10
101.393294245485
 20
-141.416691045375
 30
0.0
 10
101.4205104998185
 20
-141.4463188665482
 30
0.0
 10
101.4480712637005
 20
-141.4315049559616
 30
0.0
 10
101.5624484338108
 20
-141.368115199033
 30
0.0
 10
101.6533989546214
 20
-141.2857774169355
 30
0.0
 10
101.6533989546214
 20
-141.2857774169355
 30
0.0
 10
101.5138725874688
 20
-141.2857774169355
 30
0.0
 10
101.5138725874688
 20
-141.2857774169355
 30
0.0
  0
HATCH
  5
11E
330
10C
100
AcDbEntity
  8
_U+30EC_U+30A4_U+30E4_U+30FC 1
 62
   179
420
  2234388
100
AcDbHatch
 10
0.0
 20
0.0
 30
0.0
210
0.0
220
0.0
230
1.0
  2
SOLID
 70
     1
 71
     0
 91
        6
 92
        1
 93
        1
 72
     4
 94
        3
 73
     0
 74
     1
 95
      113
 96
      109
 40
0.0
 40
0.0
 40
0.0
 40
0.0
 40
1.0
 40
1.0
 40
1.0
 40
2.0
 40
2.0
 40
2.0
 40
3.0
 40
3.0
 40
3.0
 40
4.0
 40
4.0
 40
4.0
 40
5.0
 40
5.0
 40
5.0
 40
6.0
 40
6.0
 40
6.0
 40
7.0
 40
7.0
 40
7.0
 40
8.0
 40
8.0
 40
8.0
 40
9.0
 40
9.0
 40
9.0
 40
10.0
 40
10.0
 40
10.0
 40
11.0
 40
11.0
 40
11.0
 40
12.0
 40
12.0
 40
12.0
 40
13.0
 40
13.0
 40
13.0
 40
14.0
 40
14.0
 40
14.0
 40
15.0
 40
15.0
 40
15.0
 40
16.0
 40
16.0
 40
16.0
 40
17.0
 40
17.0
 40
17.0
 40
18.0
 40
18.0
 40
18.0
 40
19.0
 40
19.0
 40
19.0
 40
20.0
 40
20.0
 40
20.0
 40
21.0
 40
21.0
 40
21.0
 40
22.0
 40
22.0
 40
22.0
 40
23.0
 40
23.0
 40
23.0
 40
24.0
 40
24.0
 40
24.0
 40
25.0
 40
25.0
 40
25.0
 40
26.0
 40
26.0
 40
26.0
 40
27.0
 40
27.0
 40
27.0
 40
28.0
 40
28.0
 40
28.0
 40
29.0
 40
29.0
 40
29.0
 40
30.0
 40
30.0
 40
30.0
 40
31.0
 40
31.0
 40
31.0
 40
32.0
 40
32.0
 40
32.0
 40
33.0
 40
33.0
 40
33.0
 40
34.0
 40
34.0
 40
34.0
 40
35.0
 40
35.0
 40
35.0
 40
36.0
 40
36.0
 40
36.0
 40
36.0
 10
101.7209228261323
 20
-141.2878444742267
 10
101.7209228261323
 20
-141.2878444742267
 10
101.820486085656
 20
-141.3870632242019
 10
101.820486085656
 20
-141.3870632242019
 10
101.8311658816603
 20
-141.3977430202061
 10
101.841501168116
 20
-141.4104898735015
 10
101.841501168116
 20
-141.4253037840881
 10
101.841501168116
 20
-141.4273708413793
 10
101.841501168116
 20
-141.4569986625524
 10
101.8036051177783
 20
-141.4569986625524
 10
101.7949923790651
 20
-141.4569986625524
 10
101.7550292714362
 20
-141.4528645479701
 10
101.7484835900143
 20
-141.4528645479701
 10
101.7085204823854
 20
-141.4845594264344
 10
101.661667183786
 20
-141.5183213621899
 10
101.5624484338108
 20
-141.575509947245
 10
101.7085204823854
 20
-141.6833414359333
 10
101.8669948747069
 20
-141.7405300209885
 10
102.1398464371387
 20
-141.7784260713262
 10
102.1398464371387
 20
-141.7784260713262
 10
101.9896402739818
 20
-141.954125941074
 10
101.9896402739818
 20
-141.954125941074
 10
101.7274685075542
 20
-141.8821234454323
 10
101.5707166629754
 20
-141.7932399819128
 10
101.4945800527514
 20
-141.7405300209885
 10
101.3443738895945
 20
-141.6388997041736
 10
101.2007134078596
 20
-141.4759466877213
 10
101.1245767976355
 20
-141.3109266139778
 10
101.0567084165761
 20
-141.3767279377461
 10
100.9826388636432
 20
-141.4294378986704
 10
100.9044351961281
 20
-141.4780137450124
 10
100.9044351961281
 20
-141.4780137450124
 10
100.9044351961281
 20
-141.7298502249842
 10
100.9044351961281
 20
-141.7298502249842
 10
101.0673882125804
 20
-141.7043565183934
 10
101.2534233687839
 20
-141.6599147866336
 10
101.317157635261
 20
-141.6451008760471
 10
101.317157635261
 20
-141.6451008760471
 10
101.2875298140878
 20
-141.8145995739214
 10
101.2875298140878
 20
-141.8145995739214
 10
101.2851182472482
 20
-141.8145995739214
 10
101.2661702220793
 20
-141.8208007457948
 10
101.2641031647881
 20
-141.8208007457948
 10
101.0653211552892
 20
-141.8590413056811
 10
100.7480278610977
 20
-141.9244981199008
 10
100.55131290889
 20
-141.9603271129474
 10
100.5406331128857
 20
-141.9775525903737
 10
100.517206463586
 20
-142.009247468838
 10
100.4941243238348
 20
-142.009247468838
 10
100.4665635599528
 20
-142.009247468838
 10
100.4624294453705
 20
-141.9899549341206
 10
100.4603623880794
 20
-141.9710069089517
 10
100.4603623880794
 20
-141.9710069089517
 10
100.4348686814885
 20
-141.7977186060436
 10
100.4348686814885
 20
-141.7977186060436
 10
100.5089382344214
 20
-141.7891058673305
 10
100.6167697231097
 20
-141.7763590140351
 10
100.724601211798
 20
-141.7553439315751
 10
100.724601211798
 20
-141.7553439315751
 10
100.724601211798
 20
-141.5775770045362
 10
100.724601211798
 20
-141.5775770045362
 10
100.5809407300631
 20
-141.6495795001779
 10
100.4855115851217
 20
-141.679207321351
 10
100.3204915113782
 20
-141.7088351425242
 10
100.3204915113782
 20
-141.7088351425242
 10
100.1999131693945
 20
-141.5393364446499
 10
100.1999131693945
 20
-141.5393364446499
 10
100.517206463586
 20
-141.5121201903164
 10
100.7097873012114
 20
-141.4187581026661
 10
100.8875542282503
 20
-141.2857774169355
 10
100.7414821796757
 20
-141.2857774169355
 10
100.441069853362
 20
-141.2899115315178
 10
100.2443549011542
 20
-141.2961127033913
 10
100.2443549011542
 20
-141.2961127033913
 10
100.2443549011542
 20
-141.1183457763524
 10
100.2443549011542
 20
-141.1183457763524
 10
100.3990396884419
 20
-141.1248914577743
 10
100.6949733906249
 20
-141.1310926296478
 10
100.8789414895372
 20
-141.1310926296478
 10
100.8789414895372
 20
-141.1310926296478
 10
101.0908148618801
 20
-141.1310926296478
 10
101.0908148618801
 20
-141.1310926296478
 10
101.0908148618801
 20
-141.0360079942549
 10
101.0884032950404
 20
-140.9853650906217
 10
101.082202123167
 20
-140.9385117920223
 10
101.082202123167
 20
-140.9385117920223
 10
101.2978651005436
 20
-140.9557372694486
 10
101.2978651005436
 20
-140.9557372694486
 10
101.3467854564341
 20
-140.9598713840309
 10
101.3550536855987
 20
-140.9746852946174
 10
101.3550536855987
 20
-140.989499205204
 10
101.3550536855987
 20
-141.0149929117949
 10
101.338172717721
 20
-141.0232611409595
 10
101.2875298140878
 20
-141.0487548475503
 10
101.2851182472482
 20
-141.0742485541412
 10
101.2851182472482
 20
-141.0804497260146
 10
101.283051189957
 20
-141.1310926296478
 10
101.283051189957
 20
-141.1310926296478
 10
101.5138725874688
 20
-141.1310926296478
 10
101.5138725874688
 20
-141.1310926296478
 10
101.6788926612122
 20
-141.1310926296478
 10
101.9706922488129
 20
-141.1248914577743
 10
102.1505262331429
 20
-141.1183457763524
 10
102.1505262331429
 20
-141.1183457763524
 10
102.1505262331429
 20
-141.2961127033913
 10
102.1505262331429
 20
-141.2961127033913
 10
102.0213351524461
 20
-141.2919785888089
 10
101.9982530126949
 20
-141.2919785888089
 10
101.7209228261323
 20
-141.2878444742267
 97
        0
 97
        0
 92
        1
 93
        1
 72
     4
 94
        3
 73
     0
 74
     1
 95
       23
 96
       19
 40
0.0
 40
0.0
 40
0.0
 40
0.0
 40
1.0
 40
1.0
 40
1.0
 40
2.0
 40
2.0
 40
2.0
 40
3.0
 40
3.0
 40
3.0
 40
4.0
 40
4.0
 40
4.0
 40
5.0
 40
5.0
 40
5.0
 40
6.0
 40
6.0
 40
6.0
 40
6.0
 10
100.4369357387797
 20
-140.9364447347312
 10
100.4200547709019
 20
-140.9767523519086
 10
100.4138535990285
 20
-140.9936333197863
 10
100.3924940070199
 20
-140.9936333197863
 10
100.3776800964334
 20
-140.9936333197863
 10
100.3670003004291
 20
-140.9767523519086
 10
100.3607991285556
 20
-140.9640054986132
 10
100.3607991285556
 20
-140.9640054986132
 10
100.2612358690319
 20
-140.7989854248697
 10
100.2612358690319
 20
-140.7989854248697
 10
100.3628661858468
 20
-140.7672905464054
 10
100.5130723490037
 20
-140.7121690186414
 10
100.7118543585026
 20
-140.5495605117376
 10
100.7118543585026
 20
-140.5495605117376
 10
100.7690429435577
 20
-140.7228488146457
 10
100.7690429435577
 20
-140.7228488146457
 10
100.676025365456
 20
-140.8055311062917
 10
100.5871419019365
 20
-140.8623751817983
 10
100.4369357387797
 20
-140.9364447347312
 97
        0
 97
        0
 92
        1
 93
        1
 72
     4
 94
        3
 73
     0
 74
     1
 95
       17
 96
       13
 40
0.0
 40
0.0
 40
0.0
 40
0.0
 40
1.0
 40
1.0
 40
1.0
 40
2.0
 40
2.0
 40
2.0
 40
3.0
 40
3.0
 40
3.0
 40
4.0
 40
4.0
 40
4.0
 40
4.0
 10
100.5892089592277
 20
-140.4710123346739
 10
100.5595811380546
 20
-140.431049227045
 10
100.4920572665437
 20
-140.3335530248125
 10
100.3101562249225
 20
-140.223654478833
 10
100.3101562249225
 20
-140.223654478833
 10
100.4369357387797
 20
-140.0903292835538
 10
100.4369357387797
 20
-140.0903292835538
 10
100.6229708949832
 20
-140.1919596003687
 10
100.6801594800383
 20
-140.2808430638881
 10
100.7077202439203
 20
-140.3232177383567
 10
100.7077202439203
 20
-140.3232177383567
 10
100.5892089592277
 20
-140.4710123346739
 10
100.5892089592277
 20
-140.4710123346739
 97
        0
 97
        0
 92
        1
 93
        1
 72
     4
 94
        3
 73
     0
 74
     1
 95
       38
 96
       34
 40
0.0
 40
0.0
 40
0.0
 40
0.0
 40
1.0
 40
1.0
 40
1.0
 40
2.0
 40
2.0
 40
2.0
 40
3.0
 40
3.0
 40
3.0
 40
4.0
 40
4.0
 40
4.0
 40
5.0
 40
5.0
 40
5.0
 40
6.0
 40
6.0
 40
6.0
 40
7.0
 40
7.0
 40
7.0
 40
8.0
 40
8.0
 40
8.0
 40
9.0
 40
9.0
 40
9.0
 40
10.0
 40
10.0
 40
10.0
 40
11.0
 40
11.0
 40
11.0
 40
11.0
 10
100.9574896666009
 20
-140.1664658937778
 10
100.9554226093098
 20
-140.2129746828287
 10
100.9530110424701
 20
-140.3294189102301
 10
100.9530110424701
 20
-140.3738606419899
 10
100.9530110424701
 20
-140.3738606419899
 10
100.9530110424701
 20
-140.7207817573545
 10
100.9530110424701
 20
-140.7207817573545
 10
100.9530110424701
 20
-140.8075981635828
 10
100.9554226093098
 20
-140.9491915880266
 10
100.9657578957655
 20
-141.0697699300104
 10
100.9657578957655
 20
-141.0697699300104
 10
100.7755886249797
 20
-141.0697699300104
 10
100.7755886249797
 20
-141.0697699300104
 10
100.779722739562
 20
-141.0063801730817
 10
100.7838568541443
 20
-140.9533257026089
 10
100.7859239114355
 20
-140.8985486843934
 10
100.7879909687266
 20
-140.7759032851185
 10
100.7904025355663
 20
-140.761089374532
 10
100.7904025355663
 20
-140.7166476427722
 10
100.7904025355663
 20
-140.7166476427722
 10
100.7904025355663
 20
-140.3948757244499
 10
100.7904025355663
 20
-140.3948757244499
 10
100.7904025355663
 20
-140.3400987062344
 10
100.7776556822709
 20
-140.1010090795581
 10
100.7755886249797
 20
-140.0500216663764
 10
100.7755886249797
 20
-140.0500216663764
 10
100.9764376917698
 20
-140.0775824302584
 10
100.9764376917698
 20
-140.0775824302584
 10
100.9974527742298
 20
-140.0796494875495
 10
101.0291476526941
 20
-140.0841281116804
 10
101.0291476526941
 20
-140.1092773087227
 10
101.0291476526941
 20
-140.1368380726047
 10
100.9785047490609
 20
-140.1581976646132
 10
100.9574896666009
 20
-140.1664658937778
 97
        0
 97
        0
 92
        1
 93
        1
 72
     4
 94
        3
 73
     0
 74
     1
 95
       83
 96
       79
 40
0.0
 40
0.0
 40
0.0
 40
0.0
 40
1.0
 40
1.0
 40
1.0
 40
2.0
 40
2.0
 40
2.0
 40
3.0
 40
3.0
 40
3.0
 40
4.0
 40
4.0
 40
4.0
 40
5.0
 40
5.0
 40
5.0
 40
6.0
 40
6.0
 40
6.0
 40
7.0
 40
7.0
 40
7.0
 40
8.0
 40
8.0
 40
8.0
 40
9.0
 40
9.0
 40
9.0
 40
10.0
 40
10.0
 40
10.0
 40
11.0
 40
11.0
 40
11.0
 40
12.0
 40
12.0
 40
12.0
 40
13.0
 40
13.0
 40
13.0
 40
14.0
 40
14.0
 40
14.0
 40
15.0
 40
15.0
 40
15.0
 40
16.0
 40
16.0
 40
16.0
 40
17.0
 40
17.0
 40
17.0
 40
18.0
 40
18.0
 40
18.0
 40
19.0
 40
19.0
 40
19.0
 40
20.0
 40
20.0
 40
20.0
 40
21.0
 40
21.0
 40
21.0
 40
22.0
 40
22.0
 40
22.0
 40
23.0
 40
23.0
 40
23.0
 40
24.0
 40
24.0
 40
24.0
 40
25.0
 40
25.0
 40
25.0
 40
26.0
 40
26.0
 40
26.0
 40
26.0
 10
101.7591633860185
 20
-140.4882378121002
 10
101.7591633860185
 20
-140.4882378121002
 10
101.661667183786
 20
-140.4882378121002
 10
101.661667183786
 20
-140.4882378121002
 10
101.661667183786
 20
-140.4882378121002
 10
101.661667183786
 20
-140.7355956679411
 10
101.661667183786
 20
-140.7355956679411
 10
101.661667183786
 20
-140.7355956679411
 10
101.744349475432
 20
-140.7355956679411
 10
101.744349475432
 20
-140.7355956679411
 10
101.8098062896517
 20
-140.7355956679411
 10
101.9496771663529
 20
-140.7314615533588
 10
102.0488959163281
 20
-140.7228488146457
 10
102.0488959163281
 20
-140.7228488146457
 10
102.0488959163281
 20
-140.9026827989757
 10
102.0488959163281
 20
-140.9026827989757
 10
101.9558783382263
 20
-140.8944145698111
 10
101.8056721750694
 20
-140.8899359456803
 10
101.744349475432
 20
-140.8899359456803
 10
101.744349475432
 20
-140.8899359456803
 10
101.4398030345359
 20
-140.8899359456803
 10
101.4398030345359
 20
-140.8899359456803
 10
101.386748564063
 20
-140.8899359456803
 10
101.241021025037
 20
-140.8944145698111
 10
101.1349120840913
 20
-140.9026827989757
 10
101.1349120840913
 20
-140.9026827989757
 10
101.1349120840913
 20
-140.7228488146457
 10
101.1349120840913
 20
-140.7228488146457
 10
101.234475343615
 20
-140.7314615533588
 10
101.3740017107676
 20
-140.7355956679411
 10
101.4398030345359
 20
-140.7355956679411
 10
101.4398030345359
 20
-140.7355956679411
 10
101.4842447662956
 20
-140.7355956679411
 10
101.4842447662956
 20
-140.7355956679411
 10
101.4842447662956
 20
-140.7355956679411
 10
101.4842447662956
 20
-140.4882378121002
 10
101.4842447662956
 20
-140.4882378121002
 10
101.4842447662956
 20
-140.4882378121002
 10
101.4101752133627
 20
-140.4882378121002
 10
101.4101752133627
 20
-140.4882378121002
 10
101.3488525137253
 20
-140.4882378121002
 10
101.1817653826907
 20
-140.4923719266825
 10
101.0611870407069
 20
-140.5006401558471
 10
101.0611870407069
 20
-140.5006401558471
 10
101.0611870407069
 20
-140.3232177383567
 10
101.0611870407069
 20
-140.3232177383567
 10
101.1752197012687
 20
-140.3294189102301
 10
101.3340386031387
 20
-140.3335530248125
 10
101.4101752133627
 20
-140.3335530248125
 10
101.4101752133627
 20
-140.3335530248125
 10
101.4821777090045
 20
-140.3335530248125
 10
101.4821777090045
 20
-140.3335530248125
 10
101.4776990848736
 20
-140.1812798043644
 10
101.4756320275825
 20
-140.147517868609
 10
101.469430855709
 20
-140.0545002905072
 10
101.469430855709
 20
-140.0545002905072
 10
101.6809597185034
 20
-140.0775824302584
 10
101.6809597185034
 20
-140.0775824302584
 10
101.7061089155457
 20
-140.0796494875495
 10
101.7295355648454
 20
-140.0841281116804
 10
101.7295355648454
 20
-140.1072102514315
 10
101.7295355648454
 20
-140.1389051298958
 10
101.6850938330857
 20
-140.1557860977736
 10
101.661667183786
 20
-140.1643988364867
 10
101.661667183786
 20
-140.1643988364867
 10
101.661667183786
 20
-140.3335530248125
 10
101.661667183786
 20
-140.3335530248125
 10
101.661667183786
 20
-140.3335530248125
 10
101.7591633860185
 20
-140.3335530248125
 10
101.7591633860185
 20
-140.3335530248125
 10
101.8352999962426
 20
-140.3335530248125
 10
101.9941188981126
 20
-140.3294189102301
 10
102.1102186159655
 20
-140.3232177383567
 10
102.1102186159655
 20
-140.3232177383567
 10
102.1102186159655
 20
-140.5006401558471
 10
102.1102186159655
 20
-140.5006401558471
 10
102.0023871272772
 20
-140.4944389839736
 10
101.8290988243691
 20
-140.4882378121002
 10
101.7591633860185
 20
-140.4882378121002
 97
        0
 97
        0
 92
        1
 93
        1
 72
     4
 94
        3
 73
     0
 74
     1
 95
       17
 96
       13
 40
0.0
 40
0.0
 40
0.0
 40
0.0
 40
1.0
 40
1.0
 40
1.0
 40
2.0
 40
2.0
 40
2.0
 40
3.0
 40
3.0
 40
3.0
 40
4.0
 40
4.0
 40
4.0
 40
4.0
 10
101.5138725874688
 20
-141.2857774169355
 10
101.5138725874688
 20
-141.2857774169355
 10
101.310611953839
 20
-141.2857774169355
 10
101.310611953839
 20
-141.2857774169355
 10
101.338172717721
 20
-141.3450330592818
 10
101.393294245485
 20
-141.416691045375
 10
101.4205104998185
 20
-141.4463188665482
 10
101.4480712637005
 20
-141.4315049559616
 10
101.5624484338108
 20
-141.368115199033
 10
101.6533989546214
 20
-141.2857774169355
 10
101.6533989546214
 20
-141.2857774169355
 10
101.5138725874688
 20
-141.2857774169355
 10
101.5138725874688
 20
-141.2857774169355
 97
        0
 97
        0
 75
     2
 76
     1
 98
        0
  0
SPLINE
  5
11F
330
10C
100
AcDbEntity
  8
_U+30EC_U+30A4_U+30E4_U+30FC 1
370
     0
100
AcDbSpline
210
0.0
220
0.0
230
1.0
 70
    11
 71
     3
 72
    77
 73
    73
 74
     0
 42
0.0000000001
 43
0.0000000001
 12
1.0
 22
0.0
 32
0.0
 13
1.0
 23
0.0
 33
0.0
 40
0.0
 40
0.0
 40
0.0
 40
0.0
 40
1.0
 40
1.0
 40
1.0
 40
2.0
 40
2.0
 40
2.0
 40
3.0
 40
3.0
 40
3.0
 40
4.0
 40
4.0
 40
4.0
 40
5.0
 40
5.0
 40
5.0
 40
6.0
 40
6.0
 40
6.0
 40
7.0
 40
7.0
 40
7.0
 40
8.0
 40
8.0
 40
8.0
 40
9.0
 40
9.0
 40
9.0
 40
10.0
 40
10.0
 40
10.0
 40
11.0
 40
11.0
 40
11.0
 40
12.0
 40
12.0
 40
12.0
 40
13.0
 40
13.0
 40
13.0
 40
14.0
 40
14.0
 40
14.0
 40
15.0
 40
15.0
 40
15.0
 40
16.0
 40
16.0
 40
16.0
 40
17.0
 40
17.0
 40
17.0
 40
18.0
 40
18.0
 40
18.0
 40
19.0
 40
19.0
 40
19.0
 40
20.0
 40
20.0
 40
20.0
 40
21.0
 40
21.0
 40
21.0
 40
22.0
 40
22.0
 40
22.0
 40
23.0
 40
23.0
 40
23.0
 40
24.0
 40
24.0
 40
24.0
 40
24.0
 10
104.0050211328529
 20
-141.9158853811877
 30
0.0
 10
103.958512343802
 20
-141.9413790877786
 30
0.0
 10
103.8334553776875
 20
-141.954125941074
 30
0.0
 10
103.7552517101723
 20
-141.954125941074
 30
0.0
 10
103.7425048568769
 20
-141.954125941074
 30
0.0
 10
103.7173556598346
 20
-141.954125941074
 30
0.0
 10
103.6832492145306
 20
-141.9499918264917
 30
0.0
 10
103.6832492145306
 20
-141.9499918264917
 30
0.0
 10
103.5860975218465
 20
-141.7236490531108
 30
0.0
 10
103.5860975218465
 20
-141.7236490531108
 30
0.0
 10
103.6157253430197
 20
-141.7298502249842
 30
0.0
 10
103.6729139280748
 20
-141.7384629636973
 30
0.0
 10
103.7890136459278
 20
-141.7384629636973
 30
0.0
 10
103.8675618229914
 20
-141.7384629636973
 30
0.0
 10
103.8696288802826
 20
-141.6960882892288
 30
0.0
 10
103.8696288802826
 20
-141.6388997041736
 30
0.0
 10
103.8696288802826
 20
-141.6388997041736
 30
0.0
 10
103.8696288802826
 20
-141.2899115315178
 30
0.0
 10
103.8696288802826
 20
-141.2899115315178
 30
0.0
 10
103.8696288802826
 20
-141.2899115315178
 30
0.0
 10
103.4103976520988
 20
-141.2899115315178
 30
0.0
 10
103.4103976520988
 20
-141.2899115315178
 30
0.0
 10
103.41246470939
 20
-141.4273708413793
 30
0.0
 10
103.4148762762296
 20
-141.6261528508782
 30
0.0
 10
103.4210774481031
 20
-141.7594780461574
 30
0.0
 10
103.4231445053942
 20
-141.7870388100393
 30
0.0
 10
103.4231445053942
 20
-141.8314805417991
 30
0.0
 10
103.4358913586896
 20
-141.8928032414365
 30
0.0
 10
103.4358913586896
 20
-141.8928032414365
 30
0.0
 10
103.1947346747222
 20
-141.8928032414365
 30
0.0
 10
103.1947346747222
 20
-141.8928032414365
 30
0.0
 10
103.220228381313
 20
-141.7680907848705
 30
0.0
 10
103.220228381313
 20
-141.4273708413793
 30
0.0
 10
103.220228381313
 20
-141.2899115315178
 30
0.0
 10
103.220228381313
 20
-141.2899115315178
 30
0.0
 10
102.7778781210069
 20
-141.2899115315178
 30
0.0
 10
102.7778781210069
 20
-141.2899115315178
 30
0.0
 10
102.7547959812558
 20
-141.4973062797299
 30
0.0
 10
102.6889946574875
 20
-141.7656792180308
 30
0.0
 10
102.4922797052797
 20
-141.9499918264917
 30
0.0
 10
102.4922797052797
 20
-141.9499918264917
 30
0.0
 10
102.3041774917851
 20
-141.8273464272168
 30
0.0
 10
102.3041774917851
 20
-141.8273464272168
 30
0.0
 10
102.558081029048
 20
-141.6072048257093
 30
0.0
 10
102.5897759075123
 20
-141.2750976209312
 30
0.0
 10
102.5897759075123
 20
-140.9429904161532
 30
0.0
 10
102.5897759075123
 20
-140.9429904161532
 30
0.0
 10
102.5897759075123
 20
-140.507185837269
 30
0.0
 10
102.5897759075123
 20
-140.507185837269
 30
0.0
 10
102.5897759075123
 20
-140.4710123346739
 30
0.0
 10
102.5877088502211
 20
-140.2384683894196
 30
0.0
 10
102.579096111508
 20
-140.1368380726047
 30
0.0
 10
102.7186224786606
 20
-140.147517868609
 30
0.0
 10
102.9597791626281
 20
-140.147517868609
 30
0.0
 10
103.1037841539116
 20
-140.147517868609
 30
0.0
 10
103.1037841539116
 20
-140.147517868609
 30
0.0
 10
103.5626708725468
 20
-140.147517868609
 30
0.0
 10
103.5626708725468
 20
-140.147517868609
 30
0.0
 10
103.5774847831334
 20
-140.147517868609
 30
0.0
 10
103.9268174653377
 20
-140.147517868609
 30
0.0
 10
104.0852918576592
 20
-140.1368380726047
 30
0.0
 10
104.0832248003681
 20
-140.1898925430775
 30
0.0
 10
104.0770236284946
 20
-140.3504339926902
 30
0.0
 10
104.0770236284946
 20
-140.4014214058719
 30
0.0
 10
104.0770236284946
 20
-140.4014214058719
 30
0.0
 10
104.0770236284946
 20
-141.0084472303729
 30
0.0
 10
104.0770236284946
 20
-141.0084472303729
 30
0.0
 10
104.0770236284946
 20
-141.0273952555418
 30
0.0
 10
104.0873589149504
 20
-141.5985920869962
 30
0.0
 10
104.0873589149504
 20
-141.7109021998153
 30
0.0
 10
104.0873589149504
 20
-141.7680907848705
 30
0.0
 10
104.0873589149504
 20
-141.8693765921368
 30
0.0
 10
104.0050211328529
 20
-141.9158853811877
 30
0.0
  0
POLYLINE
  5
120
330
10C
100
AcDbEntity
  8
_U+30EC_U+30A4_U+30E4_U+30FC 1
370
     0
100
AcDb2dPolyline
 66
     1
 10
0.0
 20
0.0
 30
0.0
  0
VERTEX
  5
121
330
120
100
AcDbEntity
  8
_U+30EC_U+30A4_U+30E4_U+30FC 1
370
     0
100
AcDbVertex
100
AcDb2dVertex
 10
103.220228381313
 20
-140.3294189102301
 30
0.0
  0
VERTEX
  5
122
330
120
100
AcDbEntity
  8
_U+30EC_U+30A4_U+30E4_U+30FC 1
370
     0
100
AcDbVertex
100
AcDb2dVertex
 10
102.7820122355892
 20
-140.3294189102301
 30
0.0
  0
VERTEX
  5
123
330
120
100
AcDbEntity
  8
_U+30EC_U+30A4_U+30E4_U+30FC 1
370
     0
100
AcDbVertex
100
AcDb2dVertex
 10
102.7820122355892
 20
-140.6339653511262
 30
0.0
  0
VERTEX
  5
124
330
120
100
AcDbEntity
  8
_U+30EC_U+30A4_U+30E4_U+30FC 1
370
     0
100
AcDbVertex
100
AcDb2dVertex
 10
103.220228381313
 20
-140.6339653511262
 30
0.0
  0
VERTEX
  5
125
330
120
100
AcDbEntity
  8
_U+30EC_U+30A4_U+30E4_U+30FC 1
370
     0
100
AcDbVertex
100
AcDb2dVertex
 10
103.220228381313
 20
-140.3294189102301
 30
0.0
  0
SEQEND
  5
126
330
120
100
AcDbEntity
  8
_U+30EC_U+30A4_U+30E4_U+30FC 1
370
     0
  0
POLYLINE
  5
127
330
10C
100
AcDbEntity
  8
_U+30EC_U+30A4_U+30E4_U+30FC 1
370
     0
100
AcDb2dPolyline
 66
     1
 10
0.0
 20
0.0
 30
0.0
  0
VERTEX
  5
128
330
127
100
AcDbEntity
  8
_U+30EC_U+30A4_U+30E4_U+30FC 1
370
     0
100
AcDbVertex
100
AcDb2dVertex
 10
103.220228381313
 20
-140.8010524821609
 30
0.0
  0
VERTEX
  5
129
330
127
100
AcDbEntity
  8
_U+30EC_U+30A4_U+30E4_U+30FC 1
370
     0
100
AcDbVertex
100
AcDb2dVertex
 10
102.7820122355892
 20
-140.8010524821609
 30
0.0
  0
VERTEX
  5
12A
330
127
100
AcDbEntity
  8
_U+30EC_U+30A4_U+30E4_U+30FC 1
370
     0
100
AcDbVertex
100
AcDb2dVertex
 10
102.7820122355892
 20
-141.1100775471878
 30
0.0
  0
VERTEX
  5
12B
330
127
100
AcDbEntity
  8
_U+30EC_U+30A4_U+30E4_U+30FC 1
370
     0
100
AcDbVertex
100
AcDb2dVertex
 10
103.220228381313
 20
-141.1100775471878
 30
0.0
  0
VERTEX
  5
12C
330
127
100
AcDbEntity
  8
_U+30EC_U+30A4_U+30E4_U+30FC 1
370
     0
100
AcDbVertex
100
AcDb2dVertex
 10
103.220228381313
 20
-140.8010524821609
 30
0.0
  0
SEQEND
  5
12D
330
127
100
AcDbEntity
  8
_U+30EC_U+30A4_U+30E4_U+30FC 1
370
     0
  0
POLYLINE
  5
12E
330
10C
100
AcDbEntity
  8
_U+30EC_U+30A4_U+30E4_U+30FC 1
370
     0
100
AcDb2dPolyline
 66
     1
 10
0.0
 20
0.0
 30
0.0
  0
VERTEX
  5
12F
330
12E
100
AcDbEntity
  8
_U+30EC_U+30A4_U+30E4_U+30FC 1
370
     0
100
AcDbVertex
100
AcDb2dVertex
 10
103.8696288802826
 20
-140.3294189102301
 30
0.0
  0
VERTEX
  5
130
330
12E
100
AcDbEntity
  8
_U+30EC_U+30A4_U+30E4_U+30FC 1
370
     0
100
AcDbVertex
100
AcDb2dVertex
 10
103.4103976520988
 20
-140.3294189102301
 30
0.0
  0
VERTEX
  5
131
330
12E
100
AcDbEntity
  8
_U+30EC_U+30A4_U+30E4_U+30FC 1
370
     0
100
AcDbVertex
100
AcDb2dVertex
 10
103.4103976520988
 20
-140.6339653511262
 30
0.0
  0
VERTEX
  5
132
330
12E
100
AcDbEntity
  8
_U+30EC_U+30A4_U+30E4_U+30FC 1
370
     0
100
AcDbVertex
100
AcDb2dVertex
 10
103.8696288802826
 20
-140.6339653511262
 30
0.0
  0
VERTEX
  5
133
330
12E
100
AcDbEntity
  8
_U+30EC_U+30A4_U+30E4_U+30FC 1
370
     0
100
AcDbVertex
100
AcDb2dVertex
 10
103.8696288802826
 20
-140.3294189102301
 30
0.0
  0
SEQEND
  5
134
330
12E
100
AcDbEntity
  8
_U+30EC_U+30A4_U+30E4_U+30FC 1
370
     0
  0
POLYLINE
  5
135
330
10C
100
AcDbEntity
  8
_U+30EC_U+30A4_U+30E4_U+30FC 1
370
     0
100
AcDb2dPolyline
 66
     1
 10
0.0
 20
0.0
 30
0.0
  0
VERTEX
  5
136
330
135
100
AcDbEntity
  8
_U+30EC_U+30A4_U+30E4_U+30FC 1
370
     0
100
AcDbVertex
100
AcDb2dVertex
 10
103.8696288802826
 20
-140.8010524821609
 30
0.0
  0
VERTEX
  5
137
330
135
100
AcDbEntity
  8
_U+30EC_U+30A4_U+30E4_U+30FC 1
370
     0
100
AcDbVertex
100
AcDb2dVertex
 10
103.4103976520988
 20
-140.8010524821609
 30
0.0
  0
VERTEX
  5
138
330
135
100
AcDbEntity
  8
_U+30EC_U+30A4_U+30E4_U+30FC 1
370
     0
100
AcDbVertex
100
AcDb2dVertex
 10
103.4103976520988
 20
-141.1100775471878
 30
0.0
  0
VERTEX
  5
139
330
135
100
AcDbEntity
  8
_U+30EC_U+30A4_U+30E4_U+30FC 1
370
     0
100
AcDbVertex
100
AcDb2dVertex
 10
103.8696288802826
 20
-141.1100775471878
 30
0.0
  0
VERTEX
  5
13A
330
135
100
AcDbEntity
  8
_U+30EC_U+30A4_U+30E4_U+30FC 1
370
     0
100
AcDbVertex
100
AcDb2dVertex
 10
103.8696288802826
 20
-140.8010524821609
 30
0.0
  0
SEQEND
  5
13B
330
135
100
AcDbEntity
  8
_U+30EC_U+30A4_U+30E4_U+30FC 1
370
     0
  0
HATCH
  5
13C
330
10C
100
AcDbEntity
  8
_U+30EC_U+30A4_U+30E4_U+30FC 1
 62
   179
420
  2234388
100
AcDbHatch
 10
0.0
 20
0.0
 30
0.0
210
0.0
220
0.0
230
1.0
  2
SOLID
 70
     1
 71
     0
 91
        5
 92
        1
 93
        1
 72
     4
 94
        3
 73
     0
 74
     1
 95
       77
 96
       73
 40
0.0
 40
0.0
 40
0.0
 40
0.0
 40
1.0
 40
1.0
 40
1.0
 40
2.0
 40
2.0
 40
2.0
 40
3.0
 40
3.0
 40
3.0
 40
4.0
 40
4.0
 40
4.0
 40
5.0
 40
5.0
 40
5.0
 40
6.0
 40
6.0
 40
6.0
 40
7.0
 40
7.0
 40
7.0
 40
8.0
 40
8.0
 40
8.0
 40
9.0
 40
9.0
 40
9.0
 40
10.0
 40
10.0
 40
10.0
 40
11.0
 40
11.0
 40
11.0
 40
12.0
 40
12.0
 40
12.0
 40
13.0
 40
13.0
 40
13.0
 40
14.0
 40
14.0
 40
14.0
 40
15.0
 40
15.0
 40
15.0
 40
16.0
 40
16.0
 40
16.0
 40
17.0
 40
17.0
 40
17.0
 40
18.0
 40
18.0
 40
18.0
 40
19.0
 40
19.0
 40
19.0
 40
20.0
 40
20.0
 40
20.0
 40
21.0
 40
21.0
 40
21.0
 40
22.0
 40
22.0
 40
22.0
 40
23.0
 40
23.0
 40
23.0
 40
24.0
 40
24.0
 40
24.0
 40
24.0
 10
104.0050211328529
 20
-141.9158853811877
 10
103.958512343802
 20
-141.9413790877786
 10
103.8334553776875
 20
-141.954125941074
 10
103.7552517101723
 20
-141.954125941074
 10
103.7425048568769
 20
-141.954125941074
 10
103.7173556598346
 20
-141.954125941074
 10
103.6832492145306
 20
-141.9499918264917
 10
103.6832492145306
 20
-141.9499918264917
 10
103.5860975218465
 20
-141.7236490531108
 10
103.5860975218465
 20
-141.7236490531108
 10
103.6157253430197
 20
-141.7298502249842
 10
103.6729139280748
 20
-141.7384629636973
 10
103.7890136459278
 20
-141.7384629636973
 10
103.8675618229914
 20
-141.7384629636973
 10
103.8696288802826
 20
-141.6960882892288
 10
103.8696288802826
 20
-141.6388997041736
 10
103.8696288802826
 20
-141.6388997041736
 10
103.8696288802826
 20
-141.2899115315178
 10
103.8696288802826
 20
-141.2899115315178
 10
103.8696288802826
 20
-141.2899115315178
 10
103.4103976520988
 20
-141.2899115315178
 10
103.4103976520988
 20
-141.2899115315178
 10
103.41246470939
 20
-141.4273708413793
 10
103.4148762762296
 20
-141.6261528508782
 10
103.4210774481031
 20
-141.7594780461574
 10
103.4231445053942
 20
-141.7870388100393
 10
103.4231445053942
 20
-141.8314805417991
 10
103.4358913586896
 20
-141.8928032414365
 10
103.4358913586896
 20
-141.8928032414365
 10
103.1947346747222
 20
-141.8928032414365
 10
103.1947346747222
 20
-141.8928032414365
 10
103.220228381313
 20
-141.7680907848705
 10
103.220228381313
 20
-141.4273708413793
 10
103.220228381313
 20
-141.2899115315178
 10
103.220228381313
 20
-141.2899115315178
 10
102.7778781210069
 20
-141.2899115315178
 10
102.7778781210069
 20
-141.2899115315178
 10
102.7547959812558
 20
-141.4973062797299
 10
102.6889946574875
 20
-141.7656792180308
 10
102.4922797052797
 20
-141.9499918264917
 10
102.4922797052797
 20
-141.9499918264917
 10
102.3041774917851
 20
-141.8273464272168
 10
102.3041774917851
 20
-141.8273464272168
 10
102.558081029048
 20
-141.6072048257093
 10
102.5897759075123
 20
-141.2750976209312
 10
102.5897759075123
 20
-140.9429904161532
 10
102.5897759075123
 20
-140.9429904161532
 10
102.5897759075123
 20
-140.507185837269
 10
102.5897759075123
 20
-140.507185837269
 10
102.5897759075123
 20
-140.4710123346739
 10
102.5877088502211
 20
-140.2384683894196
 10
102.579096111508
 20
-140.1368380726047
 10
102.7186224786606
 20
-140.147517868609
 10
102.9597791626281
 20
-140.147517868609
 10
103.1037841539116
 20
-140.147517868609
 10
103.1037841539116
 20
-140.147517868609
 10
103.5626708725468
 20
-140.147517868609
 10
103.5626708725468
 20
-140.147517868609
 10
103.5774847831334
 20
-140.147517868609
 10
103.9268174653377
 20
-140.147517868609
 10
104.0852918576592
 20
-140.1368380726047
 10
104.0832248003681
 20
-140.1898925430775
 10
104.0770236284946
 20
-140.3504339926902
 10
104.0770236284946
 20
-140.4014214058719
 10
104.0770236284946
 20
-140.4014214058719
 10
104.0770236284946
 20
-141.0084472303729
 10
104.0770236284946
 20
-141.0084472303729
 10
104.0770236284946
 20
-141.0273952555418
 10
104.0873589149504
 20
-141.5985920869962
 10
104.0873589149504
 20
-141.7109021998153
 10
104.0873589149504
 20
-141.7680907848705
 10
104.0873589149504
 20
-141.8693765921368
 10
104.0050211328529
 20
-141.9158853811877
 97
        0
 97
        0
 92
        1
 93
        4
 72
     1
 10
103.220228381313
 20
-140.3294189102301
 11
102.7820122355892
 21
-140.3294189102301
 72
     1
 10
102.7820122355892
 20
-140.3294189102301
 11
102.7820122355892
 21
-140.6339653511262
 72
     1
 10
102.7820122355892
 20
-140.6339653511262
 11
103.220228381313
 21
-140.6339653511262
 72
     1
 10
103.220228381313
 20
-140.6339653511262
 11
103.220228381313
 21
-140.3294189102301
 97
        0
 92
        1
 93
        4
 72
     1
 10
103.220228381313
 20
-140.8010524821609
 11
102.7820122355892
 21
-140.8010524821609
 72
     1
 10
102.7820122355892
 20
-140.8010524821609
 11
102.7820122355892
 21
-141.1100775471878
 72
     1
 10
102.7820122355892
 20
-141.1100775471878
 11
103.220228381313
 21
-141.1100775471878
 72
     1
 10
103.220228381313
 20
-141.1100775471878
 11
103.220228381313
 21
-140.8010524821609
 97
        0
 92
        1
 93
        4
 72
     1
 10
103.8696288802826
 20
-140.3294189102301
 11
103.4103976520988
 21
-140.3294189102301
 72
     1
 10
103.4103976520988
 20
-140.3294189102301
 11
103.4103976520988
 21
-140.6339653511262
 72
     1
 10
103.4103976520988
 20
-140.6339653511262
 11
103.8696288802826
 21
-140.6339653511262
 72
     1
 10
103.8696288802826
 20
-140.6339653511262
 11
103.8696288802826
 21
-140.3294189102301
 97
        0
 92
        1
 93
        4
 72
     1
 10
103.8696288802826
 20
-140.8010524821609
 11
103.4103976520988
 21
-140.8010524821609
 72
     1
 10
103.4103976520988
 20
-140.8010524821609
 11
103.4103976520988
 21
-141.1100775471878
 72
     1
 10
103.4103976520988
 20
-141.1100775471878
 11
103.8696288802826
 21
-141.1100775471878
 72
     1
 10
103.8696288802826
 20
-141.1100775471878
 11
103.8696288802826
 21
-140.8010524821609
 97
        0
 75
     2
 76
     1
 98
        0
  0
SPLINE
  5
13D
330
10C
100
AcDbEntity
  8
_U+30EC_U+30A4_U+30E4_U+30FC 1
370
     0
100
AcDbSpline
210
0.0
220
0.0
230
1.0
 70
    11
 71
     3
 72
    44
 73
    40
 74
     0
 42
0.0000000001
 43
0.0000000001
 12
1.0
 22
0.0
 32
0.0
 13
1.0
 23
0.0
 33
0.0
 40
0.0
 40
0.0
 40
0.0
 40
0.0
 40
1.0
 40
1.0
 40
1.0
 40
2.0
 40
2.0
 40
2.0
 40
3.0
 40
3.0
 40
3.0
 40
4.0
 40
4.0
 40
4.0
 40
5.0
 40
5.0
 40
5.0
 40
6.0
 40
6.0
 40
6.0
 40
7.0
 40
7.0
 40
7.0
 40
8.0
 40
8.0
 40
8.0
 40
9.0
 40
9.0
 40
9.0
 40
10.0
 40
10.0
 40
10.0
 40
11.0
 40
11.0
 40
11.0
 40
12.0
 40
12.0
 40
12.0
 40
13.0
 40
13.0
 40
13.0
 40
13.0
 10
105.8825981723141
 20
-140.6656602295905
 30
0.0
 10
105.7702880594949
 20
-141.0339409369637
 30
0.0
 10
105.7196451558618
 20
-141.1924153292852
 30
0.0
 10
105.522930203654
 20
-141.4421847519658
 30
0.0
 10
105.3389621047417
 20
-141.6726616399291
 30
0.0
 10
105.1019395353565
 20
-141.8590413056811
 30
0.0
 10
104.8225422915027
 20
-141.9520588837828
 30
0.0
 10
104.8225422915027
 20
-141.9520588837828
 30
0.0
 10
104.6299614538772
 20
-141.7722248994528
 30
0.0
 10
104.6299614538772
 20
-141.7722248994528
 30
0.0
 10
105.2710937236822
 20
-141.6199516790047
 30
0.0
 10
105.6011338711692
 20
-141.0635687581369
 30
0.0
 10
105.6645236280978
 20
-140.6236300646705
 30
0.0
 10
105.6645236280978
 20
-140.6236300646705
 30
0.0
 10
104.8986789017267
 20
-140.6236300646705
 30
0.0
 10
104.8986789017267
 20
-140.6236300646705
 30
0.0
 10
104.805661323625
 20
-140.6236300646705
 30
0.0
 10
104.6216932247126
 20
-140.6277641792528
 30
0.0
 10
104.4649413801338
 20
-140.6467122044217
 30
0.0
 10
104.4649413801338
 20
-140.6467122044217
 30
0.0
 10
104.4649413801338
 20
-140.4265706029142
 30
0.0
 10
104.4649413801338
 20
-140.4265706029142
 30
0.0
 10
104.5517577863621
 20
-140.4479301949227
 30
0.0
 10
104.8035942663338
 20
-140.4479301949227
 30
0.0
 10
104.9031575258576
 20
-140.4479301949227
 30
0.0
 10
104.9031575258576
 20
-140.4479301949227
 30
0.0
 10
105.3344834806108
 20
-140.4479301949227
 30
0.0
 10
105.3344834806108
 20
-140.4479301949227
 30
0.0
 10
105.3768581550794
 20
-140.4479301949227
 30
0.0
 10
105.6118136671734
 20
-140.4458631376316
 30
0.0
 10
105.6497097175112
 20
-140.4393174562096
 30
0.0
 10
105.6920843919798
 20
-140.4331162843362
 30
0.0
 10
105.6941514492709
 20
-140.431049227045
 30
0.0
 10
105.7554741489084
 20
-140.3907416098676
 30
0.0
 10
105.7554741489084
 20
-140.3907416098676
 30
0.0
 10
105.9439208719515
 20
-140.5450818876068
 30
0.0
 10
105.9439208719515
 20
-140.5450818876068
 30
0.0
 10
105.9142930507784
 20
-140.5747097087799
 30
0.0
 10
105.8994791401918
 20
-140.6064045872442
 30
0.0
 10
105.8825981723141
 20
-140.6656602295905
 30
0.0
  0
SPLINE
  5
13E
330
10C
100
AcDbEntity
  8
_U+30EC_U+30A4_U+30E4_U+30FC 1
370
     0
100
AcDbSpline
210
0.0
220
0.0
230
1.0
 70
    11
 71
     3
 72
    17
 73
    13
 74
     0
 42
0.0000000001
 43
0.0000000001
 12
1.0
 22
0.0
 32
0.0
 13
1.0
 23
0.0
 33
0.0
 40
0.0
 40
0.0
 40
0.0
 40
0.0
 40
1.0
 40
1.0
 40
1.0
 40
2.0
 40
2.0
 40
2.0
 40
3.0
 40
3.0
 40
3.0
 40
4.0
 40
4.0
 40
4.0
 40
4.0
 10
106.0920599778173
 20
-140.4668782200916
 30
0.0
 10
105.9649359544115
 20
-140.4668782200916
 30
0.0
 10
105.8633056375967
 20
-140.3652479032768
 30
0.0
 10
105.8633056375967
 20
-140.2384683894196
 30
0.0
 10
105.8633056375967
 20
-140.1116888755624
 30
0.0
 10
105.9649359544115
 20
-140.0079915014563
 30
0.0
 10
106.0920599778173
 20
-140.0079915014563
 30
0.0
 10
106.2188394916745
 20
-140.0079915014563
 30
0.0
 10
106.3225368657805
 20
-140.1116888755624
 30
0.0
 10
106.3225368657805
 20
-140.2384683894196
 30
0.0
 10
106.3225368657805
 20
-140.3652479032768
 30
0.0
 10
106.2188394916745
 20
-140.4668782200916
 30
0.0
 10
106.0920599778173
 20
-140.4668782200916
 30
0.0
  0
SPLINE
  5
13F
330
10C
100
AcDbEntity
  8
_U+30EC_U+30A4_U+30E4_U+30FC 1
370
     0
100
AcDbSpline
210
0.0
220
0.0
230
1.0
 70
    11
 71
     3
 72
    17
 73
    13
 74
     0
 42
0.0000000001
 43
0.0000000001
 12
1.0
 22
0.0
 32
0.0
 13
1.0
 23
0.0
 33
0.0
 40
0.0
 40
0.0
 40
0.0
 40
0.0
 40
1.0
 40
1.0
 40
1.0
 40
2.0
 40
2.0
 40
2.0
 40
3.0
 40
3.0
 40
3.0
 40
4.0
 40
4.0
 40
4.0
 40
4.0
 10
106.0896484109776
 20
-140.1368380726047
 30
0.0
 10
106.0348713927621
 20
-140.1368380726047
 30
0.0
 10
105.9904296610024
 20
-140.1812798043644
 30
0.0
 10
105.9904296610024
 20
-140.2364013321284
 30
0.0
 10
105.9904296610024
 20
-140.2935899171836
 30
0.0
 10
106.0348713927621
 20
-140.3421657635256
 30
0.0
 10
106.0941270351084
 20
-140.3421657635256
 30
0.0
 10
106.1533826774547
 20
-140.3421657635256
 30
0.0
 10
106.1933457850836
 20
-140.2911783503439
 30
0.0
 10
106.1933457850836
 20
-140.2384683894196
 30
0.0
 10
106.1933457850836
 20
-140.1812798043644
 30
0.0
 10
106.1468369960327
 20
-140.1368380726047
 30
0.0
 10
106.0896484109776
 20
-140.1368380726047
 30
0.0
  0
HATCH
  5
140
330
10C
100
AcDbEntity
  8
_U+30EC_U+30A4_U+30E4_U+30FC 1
 62
   179
420
  2234388
100
AcDbHatch
 10
0.0
 20
0.0
 30
0.0
210
0.0
220
0.0
230
1.0
  2
SOLID
 70
     1
 71
     0
 91
        3
 92
        1
 93
        1
 72
     4
 94
        3
 73
     0
 74
     1
 95
       44
 96
       40
 40
0.0
 40
0.0
 40
0.0
 40
0.0
 40
1.0
 40
1.0
 40
1.0
 40
2.0
 40
2.0
 40
2.0
 40
3.0
 40
3.0
 40
3.0
 40
4.0
 40
4.0
 40
4.0
 40
5.0
 40
5.0
 40
5.0
 40
6.0
 40
6.0
 40
6.0
 40
7.0
 40
7.0
 40
7.0
 40
8.0
 40
8.0
 40
8.0
 40
9.0
 40
9.0
 40
9.0
 40
10.0
 40
10.0
 40
10.0
 40
11.0
 40
11.0
 40
11.0
 40
12.0
 40
12.0
 40
12.0
 40
13.0
 40
13.0
 40
13.0
 40
13.0
 10
105.8825981723141
 20
-140.6656602295905
 10
105.7702880594949
 20
-141.0339409369637
 10
105.7196451558618
 20
-141.1924153292852
 10
105.522930203654
 20
-141.4421847519658
 10
105.3389621047417
 20
-141.6726616399291
 10
105.1019395353565
 20
-141.8590413056811
 10
104.8225422915027
 20
-141.9520588837828
 10
104.8225422915027
 20
-141.9520588837828
 10
104.6299614538772
 20
-141.7722248994528
 10
104.6299614538772
 20
-141.7722248994528
 10
105.2710937236822
 20
-141.6199516790047
 10
105.6011338711692
 20
-141.0635687581369
 10
105.6645236280978
 20
-140.6236300646705
 10
105.6645236280978
 20
-140.6236300646705
 10
104.8986789017267
 20
-140.6236300646705
 10
104.8986789017267
 20
-140.6236300646705
 10
104.805661323625
 20
-140.6236300646705
 10
104.6216932247126
 20
-140.6277641792528
 10
104.4649413801338
 20
-140.6467122044217
 10
104.4649413801338
 20
-140.6467122044217
 10
104.4649413801338
 20
-140.4265706029142
 10
104.4649413801338
 20
-140.4265706029142
 10
104.5517577863621
 20
-140.4479301949227
 10
104.8035942663338
 20
-140.4479301949227
 10
104.9031575258576
 20
-140.4479301949227
 10
104.9031575258576
 20
-140.4479301949227
 10
105.3344834806108
 20
-140.4479301949227
 10
105.3344834806108
 20
-140.4479301949227
 10
105.3768581550794
 20
-140.4479301949227
 10
105.6118136671734
 20
-140.4458631376316
 10
105.6497097175112
 20
-140.4393174562096
 10
105.6920843919798
 20
-140.4331162843362
 10
105.6941514492709
 20
-140.431049227045
 10
105.7554741489084
 20
-140.3907416098676
 10
105.7554741489084
 20
-140.3907416098676
 10
105.9439208719515
 20
-140.5450818876068
 10
105.9439208719515
 20
-140.5450818876068
 10
105.9142930507784
 20
-140.5747097087799
 10
105.8994791401918
 20
-140.6064045872442
 10
105.8825981723141
 20
-140.6656602295905
 97
        0
 97
        0
 92
        1
 93
        1
 72
     4
 94
        3
 73
     0
 74
     1
 95
       17
 96
       13
 40
0.0
 40
0.0
 40
0.0
 40
0.0
 40
1.0
 40
1.0
 40
1.0
 40
2.0
 40
2.0
 40
2.0
 40
3.0
 40
3.0
 40
3.0
 40
4.0
 40
4.0
 40
4.0
 40
4.0
 10
106.0920599778173
 20
-140.4668782200916
 10
105.9649359544115
 20
-140.4668782200916
 10
105.8633056375967
 20
-140.3652479032768
 10
105.8633056375967
 20
-140.2384683894196
 10
105.8633056375967
 20
-140.1116888755624
 10
105.9649359544115
 20
-140.0079915014563
 10
106.0920599778173
 20
-140.0079915014563
 10
106.2188394916745
 20
-140.0079915014563
 10
106.3225368657805
 20
-140.1116888755624
 10
106.3225368657805
 20
-140.2384683894196
 10
106.3225368657805
 20
-140.3652479032768
 10
106.2188394916745
 20
-140.4668782200916
 10
106.0920599778173
 20
-140.4668782200916
 97
        0
 97
        0
 92
        1
 93
        1
 72
     4
 94
        3
 73
     0
 74
     1
 95
       17
 96
       13
 40
0.0
 40
0.0
 40
0.0
 40
0.0
 40
1.0
 40
1.0
 40
1.0
 40
2.0
 40
2.0
 40
2.0
 40
3.0
 40
3.0
 40
3.0
 40
4.0
 40
4.0
 40
4.0
 40
4.0
 10
106.0896484109776
 20
-140.1368380726047
 10
106.0348713927621
 20
-140.1368380726047
 10
105.9904296610024
 20
-140.1812798043644
 10
105.9904296610024
 20
-140.2364013321284
 10
105.9904296610024
 20
-140.2935899171836
 10
106.0348713927621
 20
-140.3421657635256
 10
106.0941270351084
 20
-140.3421657635256
 10
106.1533826774547
 20
-140.3421657635256
 10
106.1933457850836
 20
-140.2911783503439
 10
106.1933457850836
 20
-140.2384683894196
 10
106.1933457850836
 20
-140.1812798043644
 10
106.1468369960327
 20
-140.1368380726047
 10
106.0896484109776
 20
-140.1368380726047
 97
        0
 97
        0
 75
     2
 76
     1
 98
        0
  0
SPLINE
  5
141
330
10C
100
AcDbEntity
  8
_U+30EC_U+30A4_U+30E4_U+30FC 1
370
     0
100
AcDbSpline
210
0.0
220
0.0
230
1.0
 70
    11
 71
     3
 72
    50
 73
    46
 74
     0
 42
0.0000000001
 43
0.0000000001
 12
1.0
 22
0.0
 32
0.0
 13
1.0
 23
0.0
 33
0.0
 40
0.0
 40
0.0
 40
0.0
 40
0.0
 40
1.0
 40
1.0
 40
1.0
 40
2.0
 40
2.0
 40
2.0
 40
3.0
 40
3.0
 40
3.0
 40
4.0
 40
4.0
 40
4.0
 40
5.0
 40
5.0
 40
5.0
 40
6.0
 40
6.0
 40
6.0
 40
7.0
 40
7.0
 40
7.0
 40
8.0
 40
8.0
 40
8.0
 40
9.0
 40
9.0
 40
9.0
 40
10.0
 40
10.0
 40
10.0
 40
11.0
 40
11.0
 40
11.0
 40
12.0
 40
12.0
 40
12.0
 40
13.0
 40
13.0
 40
13.0
 40
14.0
 40
14.0
 40
14.0
 40
15.0
 40
15.0
 40
15.0
 40
15.0
 10
107.8869547256324
 20
-140.9746852946174
 30
0.0
 10
107.8084065485687
 20
-141.1524522216563
 30
0.0
 10
107.6730142959984
 20
-141.3595024603198
 30
0.0
 10
107.5355549861369
 20
-141.499373337021
 30
0.0
 10
107.3664007978112
 20
-141.6705945826379
 30
0.0
 10
107.2034477813589
 20
-141.7594780461574
 30
0.0
 10
106.8840874298762
 20
-141.9010714706011
 30
0.0
 10
106.8840874298762
 20
-141.9010714706011
 30
0.0
 10
106.7149332415504
 20
-141.7129692571065
 30
0.0
 10
106.7149332415504
 20
-141.7129692571065
 30
0.0
 10
106.9009683977539
 20
-141.6895426078068
 30
0.0
 10
107.0721896433708
 20
-141.603070711127
 30
0.0
 10
107.2248073733674
 20
-141.4973062797299
 30
0.0
 10
107.4869791397949
 20
-141.3154052381087
 30
0.0
 10
107.6774929201292
 20
-141.0022460584995
 30
0.0
 10
107.7260687664713
 20
-140.8203450168783
 30
0.0
 10
107.7260687664713
 20
-140.8203450168783
 30
0.0
 10
107.0553086754931
 20
-140.8203450168783
 30
0.0
 10
107.0553086754931
 20
-140.8203450168783
 30
0.0
 10
106.8968342831716
 20
-140.8203450168783
 30
0.0
 10
106.6046901860224
 20
-140.8286132460429
 30
0.0
 10
106.4524169655744
 20
-140.8454942139206
 30
0.0
 10
106.4524169655744
 20
-140.8454942139206
 30
0.0
 10
106.4524169655744
 20
-140.6170843832485
 30
0.0
 10
106.4524169655744
 20
-140.6170843832485
 30
0.0
 10
106.4865234108784
 20
-140.6236300646705
 30
0.0
 10
106.5116726079207
 20
-140.6298312365439
 30
0.0
 10
106.5647270783935
 20
-140.6339653511262
 30
0.0
 10
106.6660128856599
 20
-140.6405110325482
 30
0.0
 10
106.8630723474162
 20
-140.6425780898394
 30
0.0
 10
106.9474771868048
 20
-140.6425780898394
 30
0.0
 10
106.9474771868048
 20
-140.6425780898394
 30
0.0
 10
107.4532172040395
 20
-140.6425780898394
 30
0.0
 10
107.4532172040395
 20
-140.6425780898394
 30
0.0
 10
107.5207410755504
 20
-140.6425780898394
 30
0.0
 10
107.666813124125
 20
-140.6384439752571
 30
0.0
 10
107.7281358237624
 20
-140.6318982938351
 30
0.0
 10
107.8001383194041
 20
-140.6236300646705
 30
0.0
 10
107.8276990832861
 20
-140.6088161540839
 30
0.0
 10
107.8614610190416
 20
-140.5853895047842
 30
0.0
 10
107.8614610190416
 20
-140.5853895047842
 30
0.0
 10
108.026481092785
 20
-140.7524766358188
 30
0.0
 10
108.026481092785
 20
-140.7524766358188
 30
0.0
 10
107.9565456544345
 20
-140.8203450168783
 30
0.0
 10
107.9100368653836
 20
-140.9240423909843
 30
0.0
 10
107.8869547256324
 20
-140.9746852946174
 30
0.0
  0
SPLINE
  5
142
330
10C
100
AcDbEntity
  8
_U+30EC_U+30A4_U+30E4_U+30FC 1
370
     0
100
AcDbSpline
210
0.0
220
0.0
230
1.0
 70
    11
 71
     3
 72
    29
 73
    25
 74
     0
 42
0.0000000001
 43
0.0000000001
 12
1.0
 22
0.0
 32
0.0
 13
1.0
 23
0.0
 33
0.0
 40
0.0
 40
0.0
 40
0.0
 40
0.0
 40
1.0
 40
1.0
 40
1.0
 40
2.0
 40
2.0
 40
2.0
 40
3.0
 40
3.0
 40
3.0
 40
4.0
 40
4.0
 40
4.0
 40
5.0
 40
5.0
 40
5.0
 40
6.0
 40
6.0
 40
6.0
 40
7.0
 40
7.0
 40
7.0
 40
8.0
 40
8.0
 40
8.0
 40
8.0
 10
107.3939615616932
 20
-140.348366935399
 30
0.0
 10
107.3939615616932
 20
-140.348366935399
 30
0.0
 10
107.053241618202
 20
-140.348366935399
 30
0.0
 10
107.053241618202
 20
-140.348366935399
 30
0.0
 10
106.9392089576402
 20
-140.348366935399
 30
0.0
 10
106.8227647302388
 20
-140.3528455595298
 30
0.0
 10
106.7083875601285
 20
-140.3676594701164
 30
0.0
 10
106.7083875601285
 20
-140.3676594701164
 30
0.0
 10
106.7083875601285
 20
-140.1581976646132
 30
0.0
 10
106.7083875601285
 20
-140.1581976646132
 30
0.0
 10
106.8268988448211
 20
-140.1730115751998
 30
0.0
 10
107.0005316572776
 20
-140.1771456897821
 30
0.0
 10
107.053241618202
 20
-140.1771456897821
 30
0.0
 10
107.053241618202
 20
-140.1771456897821
 30
0.0
 10
107.3939615616932
 20
-140.1771456897821
 30
0.0
 10
107.3939615616932
 20
-140.1771456897821
 30
0.0
 10
107.5104057890946
 20
-140.1771456897821
 30
0.0
 10
107.6265055069476
 20
-140.1730115751998
 30
0.0
 10
107.742949734349
 20
-140.1581976646132
 30
0.0
 10
107.742949734349
 20
-140.1581976646132
 30
0.0
 10
107.742949734349
 20
-140.3676594701164
 30
0.0
 10
107.742949734349
 20
-140.3676594701164
 30
0.0
 10
107.5927435711921
 20
-140.348366935399
 30
0.0
 10
107.4087754722798
 20
-140.348366935399
 30
0.0
 10
107.3939615616932
 20
-140.348366935399
 30
0.0
  0
HATCH
  5
143
330
10C
100
AcDbEntity
  8
_U+30EC_U+30A4_U+30E4_U+30FC 1
 62
   179
420
  2234388
100
AcDbHatch
 10
0.0
 20
0.0
 30
0.0
210
0.0
220
0.0
230
1.0
  2
SOLID
 70
     1
 71
     0
 91
        2
 92
        1
 93
        1
 72
     4
 94
        3
 73
     0
 74
     1
 95
       50
 96
       46
 40
0.0
 40
0.0
 40
0.0
 40
0.0
 40
1.0
 40
1.0
 40
1.0
 40
2.0
 40
2.0
 40
2.0
 40
3.0
 40
3.0
 40
3.0
 40
4.0
 40
4.0
 40
4.0
 40
5.0
 40
5.0
 40
5.0
 40
6.0
 40
6.0
 40
6.0
 40
7.0
 40
7.0
 40
7.0
 40
8.0
 40
8.0
 40
8.0
 40
9.0
 40
9.0
 40
9.0
 40
10.0
 40
10.0
 40
10.0
 40
11.0
 40
11.0
 40
11.0
 40
12.0
 40
12.0
 40
12.0
 40
13.0
 40
13.0
 40
13.0
 40
14.0
 40
14.0
 40
14.0
 40
15.0
 40
15.0
 40
15.0
 40
15.0
 10
107.8869547256324
 20
-140.9746852946174
 10
107.8084065485687
 20
-141.1524522216563
 10
107.6730142959984
 20
-141.3595024603198
 10
107.5355549861369
 20
-141.499373337021
 10
107.3664007978112
 20
-141.6705945826379
 10
107.2034477813589
 20
-141.7594780461574
 10
106.8840874298762
 20
-141.9010714706011
 10
106.8840874298762
 20
-141.9010714706011
 10
106.7149332415504
 20
-141.7129692571065
 10
106.7149332415504
 20
-141.7129692571065
 10
106.9009683977539
 20
-141.6895426078068
 10
107.0721896433708
 20
-141.603070711127
 10
107.2248073733674
 20
-141.4973062797299
 10
107.4869791397949
 20
-141.3154052381087
 10
107.6774929201292
 20
-141.0022460584995
 10
107.7260687664713
 20
-140.8203450168783
 10
107.7260687664713
 20
-140.8203450168783
 10
107.0553086754931
 20
-140.8203450168783
 10
107.0553086754931
 20
-140.8203450168783
 10
106.8968342831716
 20
-140.8203450168783
 10
106.6046901860224
 20
-140.8286132460429
 10
106.4524169655744
 20
-140.8454942139206
 10
106.4524169655744
 20
-140.8454942139206
 10
106.4524169655744
 20
-140.6170843832485
 10
106.4524169655744
 20
-140.6170843832485
 10
106.4865234108784
 20
-140.6236300646705
 10
106.5116726079207
 20
-140.6298312365439
 10
106.5647270783935
 20
-140.6339653511262
 10
106.6660128856599
 20
-140.6405110325482
 10
106.8630723474162
 20
-140.6425780898394
 10
106.9474771868048
 20
-140.6425780898394
 10
106.9474771868048
 20
-140.6425780898394
 10
107.4532172040395
 20
-140.6425780898394
 10
107.4532172040395
 20
-140.6425780898394
 10
107.5207410755504
 20
-140.6425780898394
 10
107.666813124125
 20
-140.6384439752571
 10
107.7281358237624
 20
-140.6318982938351
 10
107.8001383194041
 20
-140.6236300646705
 10
107.8276990832861
 20
-140.6088161540839
 10
107.8614610190416
 20
-140.5853895047842
 10
107.8614610190416
 20
-140.5853895047842
 10
108.026481092785
 20
-140.7524766358188
 10
108.026481092785
 20
-140.7524766358188
 10
107.9565456544345
 20
-140.8203450168783
 10
107.9100368653836
 20
-140.9240423909843
 10
107.8869547256324
 20
-140.9746852946174
 97
        0
 97
        0
 92
        1
 93
        1
 72
     4
 94
        3
 73
     0
 74
     1
 95
       29
 96
       25
 40
0.0
 40
0.0
 40
0.0
 40
0.0
 40
1.0
 40
1.0
 40
1.0
 40
2.0
 40
2.0
 40
2.0
 40
3.0
 40
3.0
 40
3.0
 40
4.0
 40
4.0
 40
4.0
 40
5.0
 40
5.0
 40
5.0
 40
6.0
 40
6.0
 40
6.0
 40
7.0
 40
7.0
 40
7.0
 40
8.0
 40
8.0
 40
8.0
 40
8.0
 10
107.3939615616932
 20
-140.348366935399
 10
107.3939615616932
 20
-140.348366935399
 10
107.053241618202
 20
-140.348366935399
 10
107.053241618202
 20
-140.348366935399
 10
106.9392089576402
 20
-140.348366935399
 10
106.8227647302388
 20
-140.3528455595298
 10
106.7083875601285
 20
-140.3676594701164
 10
106.7083875601285
 20
-140.3676594701164
 10
106.7083875601285
 20
-140.1581976646132
 10
106.7083875601285
 20
-140.1581976646132
 10
106.8268988448211
 20
-140.1730115751998
 10
107.0005316572776
 20
-140.1771456897821
 10
107.053241618202
 20
-140.1771456897821
 10
107.053241618202
 20
-140.1771456897821
 10
107.3939615616932
 20
-140.1771456897821
 10
107.3939615616932
 20
-140.1771456897821
 10
107.5104057890946
 20
-140.1771456897821
 10
107.6265055069476
 20
-140.1730115751998
 10
107.742949734349
 20
-140.1581976646132
 10
107.742949734349
 20
-140.1581976646132
 10
107.742949734349
 20
-140.3676594701164
 10
107.742949734349
 20
-140.3676594701164
 10
107.5927435711921
 20
-140.348366935399
 10
107.4087754722798
 20
-140.348366935399
 10
107.3939615616932
 20
-140.348366935399
 97
        0
 97
        0
 75
     2
 76
     1
 98
        0
  0
SPLINE
  5
144
330
10C
100
AcDbEntity
  8
_U+30EC_U+30A4_U+30E4_U+30FC 1
370
     0
100
AcDbSpline
210
0.0
220
0.0
230
1.0
 70
    11
 71
     3
 72
    50
 73
    46
 74
     0
 42
0.0000000001
 43
0.0000000001
 12
1.0
 22
0.0
 32
0.0
 13
1.0
 23
0.0
 33
0.0
 40
0.0
 40
0.0
 40
0.0
 40
0.0
 40
1.0
 40
1.0
 40
1.0
 40
2.0
 40
2.0
 40
2.0
 40
3.0
 40
3.0
 40
3.0
 40
4.0
 40
4.0
 40
4.0
 40
5.0
 40
5.0
 40
5.0
 40
6.0
 40
6.0
 40
6.0
 40
7.0
 40
7.0
 40
7.0
 40
8.0
 40
8.0
 40
8.0
 40
9.0
 40
9.0
 40
9.0
 40
10.0
 40
10.0
 40
10.0
 40
11.0
 40
11.0
 40
11.0
 40
12.0
 40
12.0
 40
12.0
 40
13.0
 40
13.0
 40
13.0
 40
14.0
 40
14.0
 40
14.0
 40
15.0
 40
15.0
 40
15.0
 40
15.0
 10
109.5971001245104
 20
-140.3335530248125
 30
0.0
 10
109.3876383190073
 20
-140.5471489448979
 30
0.0
 10
109.3159803329141
 20
-140.6191514405397
 30
0.0
 10
109.1740423989218
 20
-140.7376627252323
 30
0.0
 10
109.1740423989218
 20
-140.7376627252323
 30
0.0
 10
109.1740423989218
 20
-141.3047254421044
 30
0.0
 10
109.1740423989218
 20
-141.3047254421044
 30
0.0
 10
109.1740423989218
 20
-141.4549316052613
 30
0.0
 10
109.1805880803438
 20
-141.4738796304302
 30
0.0
 10
109.1847221949261
 20
-141.651646557469
 30
0.0
 10
109.1867892522172
 20
-141.7829046954571
 30
0.0
 10
109.1929904240907
 20
-141.8314805417991
 30
0.0
 10
109.1995361055126
 20
-141.8907361841454
 30
0.0
 10
109.1995361055126
 20
-141.8907361841454
 30
0.0
 10
108.9731933321317
 20
-141.8907361841454
 30
0.0
 10
108.9731933321317
 20
-141.8907361841454
 30
0.0
 10
108.977327446714
 20
-141.8462944523856
 30
0.0
 10
108.9814615612963
 20
-141.7997856633348
 30
0.0
 10
108.9814615612963
 20
-141.7911729246217
 30
0.0
 10
108.9814615612963
 20
-141.7109021998153
 30
0.0
 10
108.9859401854271
 20
-141.3595024603198
 30
0.0
 10
108.9859401854271
 20
-141.2878444742267
 30
0.0
 10
108.9859401854271
 20
-141.2878444742267
 30
0.0
 10
108.9859401854271
 20
-140.8816677165157
 30
0.0
 10
108.9859401854271
 20
-140.8816677165157
 30
0.0
 10
108.8040391438059
 20
-141.0063801730817
 30
0.0
 10
108.6093912488893
 20
-141.1162787190612
 30
0.0
 10
108.4061306152596
 20
-141.2030951252895
 30
0.0
 10
108.4061306152596
 20
-141.2030951252895
 30
0.0
 10
108.2032144911784
 20
-141.0401421088372
 30
0.0
 10
108.2032144911784
 20
-141.0401421088372
 30
0.0
 10
108.3258598904533
 20
-141.0043131157906
 30
0.0
 10
108.5818304850073
 20
-140.9302435628577
 30
0.0
 10
108.9266845430808
 20
-140.6742729683037
 30
0.0
 10
109.1423475204575
 20
-140.5154540664336
 30
0.0
 10
109.3349283580829
 20
-140.327351852939
 30
0.0
 10
109.487201578531
 20
-140.1072102514315
 30
0.0
 10
109.487201578531
 20
-140.1072102514315
 30
0.0
 10
109.6797824161564
 20
-140.251215242715
 30
0.0
 10
109.6797824161564
 20
-140.251215242715
 30
0.0
 10
109.6925292694519
 20
-140.2618950387192
 30
0.0
 10
109.7007974986165
 20
-140.2763644397573
 30
0.0
 10
109.7007974986165
 20
-140.2891112930527
 30
0.0
 10
109.7007974986165
 20
-140.3294189102301
 30
0.0
 10
109.6629014482787
 20
-140.3294189102301
 30
0.0
 10
109.5971001245104
 20
-140.3335530248125
 30
0.0
  0
HATCH
  5
145
330
10C
100
AcDbEntity
  8
_U+30EC_U+30A4_U+30E4_U+30FC 1
 62
   179
420
  2234388
100
AcDbHatch
 10
0.0
 20
0.0
 30
0.0
210
0.0
220
0.0
230
1.0
  2
SOLID
 70
     1
 71
     0
 91
        1
 92
        1
 93
        1
 72
     4
 94
        3
 73
     0
 74
     1
 95
       50
 96
       46
 40
0.0
 40
0.0
 40
0.0
 40
0.0
 40
1.0
 40
1.0
 40
1.0
 40
2.0
 40
2.0
 40
2.0
 40
3.0
 40
3.0
 40
3.0
 40
4.0
 40
4.0
 40
4.0
 40
5.0
 40
5.0
 40
5.0
 40
6.0
 40
6.0
 40
6.0
 40
7.0
 40
7.0
 40
7.0
 40
8.0
 40
8.0
 40
8.0
 40
9.0
 40
9.0
 40
9.0
 40
10.0
 40
10.0
 40
10.0
 40
11.0
 40
11.0
 40
11.0
 40
12.0
 40
12.0
 40
12.0
 40
13.0
 40
13.0
 40
13.0
 40
14.0
 40
14.0
 40
14.0
 40
15.0
 40
15.0
 40
15.0
 40
15.0
 10
109.5971001245104
 20
-140.3335530248125
 10
109.3876383190073
 20
-140.5471489448979
 10
109.3159803329141
 20
-140.6191514405397
 10
109.1740423989218
 20
-140.7376627252323
 10
109.1740423989218
 20
-140.7376627252323
 10
109.1740423989218
 20
-141.3047254421044
 10
109.1740423989218
 20
-141.3047254421044
 10
109.1740423989218
 20
-141.4549316052613
 10
109.1805880803438
 20
-141.4738796304302
 10
109.1847221949261
 20
-141.651646557469
 10
109.1867892522172
 20
-141.7829046954571
 10
109.1929904240907
 20
-141.8314805417991
 10
109.1995361055126
 20
-141.8907361841454
 10
109.1995361055126
 20
-141.8907361841454
 10
108.9731933321317
 20
-141.8907361841454
 10
108.9731933321317
 20
-141.8907361841454
 10
108.977327446714
 20
-141.8462944523856
 10
108.9814615612963
 20
-141.7997856633348
 10
108.9814615612963
 20
-141.7911729246217
 10
108.9814615612963
 20
-141.7109021998153
 10
108.9859401854271
 20
-141.3595024603198
 10
108.9859401854271
 20
-141.2878444742267
 10
108.9859401854271
 20
-141.2878444742267
 10
108.9859401854271
 20
-140.8816677165157
 10
108.9859401854271
 20
-140.8816677165157
 10
108.8040391438059
 20
-141.0063801730817
 10
108.6093912488893
 20
-141.1162787190612
 10
108.4061306152596
 20
-141.2030951252895
 10
108.4061306152596
 20
-141.2030951252895
 10
108.2032144911784
 20
-141.0401421088372
 10
108.2032144911784
 20
-141.0401421088372
 10
108.3258598904533
 20
-141.0043131157906
 10
108.5818304850073
 20
-140.9302435628577
 10
108.9266845430808
 20
-140.6742729683037
 10
109.1423475204575
 20
-140.5154540664336
 10
109.3349283580829
 20
-140.327351852939
 10
109.487201578531
 20
-140.1072102514315
 10
109.487201578531
 20
-140.1072102514315
 10
109.6797824161564
 20
-140.251215242715
 10
109.6797824161564
 20
-140.251215242715
 10
109.6925292694519
 20
-140.2618950387192
 10
109.7007974986165
 20
-140.2763644397573
 10
109.7007974986165
 20
-140.2891112930527
 10
109.7007974986165
 20
-140.3294189102301
 10
109.6629014482787
 20
-140.3294189102301
 10
109.5971001245104
 20
-140.3335530248125
 97
        0
 97
        0
 75
     2
 76
     1
 98
        0
  0
SPLINE
  5
146
330
10C
100
AcDbEntity
  8
_U+30EC_U+30A4_U+30E4_U+30FC 1
370
     0
100
AcDbSpline
210
0.0
220
0.0
230
1.0
 70
    11
 71
     3
 72
    50
 73
    46
 74
     0
 42
0.0000000001
 43
0.0000000001
 12
1.0
 22
0.0
 32
0.0
 13
1.0
 23
0.0
 33
0.0
 40
0.0
 40
0.0
 40
0.0
 40
0.0
 40
1.0
 40
1.0
 40
1.0
 40
2.0
 40
2.0
 40
2.0
 40
3.0
 40
3.0
 40
3.0
 40
4.0
 40
4.0
 40
4.0
 40
5.0
 40
5.0
 40
5.0
 40
6.0
 40
6.0
 40
6.0
 40
7.0
 40
7.0
 40
7.0
 40
8.0
 40
8.0
 40
8.0
 40
9.0
 40
9.0
 40
9.0
 40
10.0
 40
10.0
 40
10.0
 40
11.0
 40
11.0
 40
11.0
 40
12.0
 40
12.0
 40
12.0
 40
13.0
 40
13.0
 40
13.0
 40
14.0
 40
14.0
 40
14.0
 40
15.0
 40
15.0
 40
15.0
 40
15.0
 10
111.3055229756458
 20
-140.8603081245072
 30
0.0
 10
111.2442002760084
 20
-140.9323106201489
 30
0.0
 10
110.9837510573235
 20
-141.2496039143404
 30
0.0
 10
110.9269069818169
 20
-141.312993671269
 30
0.0
 10
111.0113118212055
 20
-141.4104898735015
 30
0.0
 10
111.0622992343872
 20
-141.4738796304302
 30
0.0
 10
111.127756048607
 20
-141.5648301512408
 30
0.0
 10
111.127756048607
 20
-141.5648301512408
 30
0.0
 10
110.9437879496946
 20
-141.7022894611022
 30
0.0
 10
110.9437879496946
 20
-141.7022894611022
 30
0.0
 10
110.8083956971243
 20
-141.4907605983079
 30
0.0
 10
110.6368299419589
 20
-141.2664848822181
 30
0.0
 10
110.342963297067
 20
-141.0677028727192
 30
0.0
 10
110.342963297067
 20
-141.0677028727192
 30
0.0
 10
110.4911024029328
 20
-140.91336259498
 30
0.0
 10
110.4911024029328
 20
-140.91336259498
 30
0.0
 10
110.6010009489123
 20
-140.9936333197863
 30
0.0
 10
110.7046983230183
 20
-141.0825167833058
 30
0.0
 10
110.8018500157023
 20
-141.1776014186987
 30
0.0
 10
110.8697183967617
 20
-141.1014648084746
 30
0.0
 10
111.072634520843
 20
-140.858241067216
 30
0.0
 10
111.2059597161221
 20
-140.6298312365439
 30
0.0
 10
111.2059597161221
 20
-140.6298312365439
 30
0.0
 10
110.5331325678528
 20
-140.6298312365439
 30
0.0
 10
110.5331325678528
 20
-140.6298312365439
 30
0.0
 10
110.4084201112868
 20
-140.6298312365439
 30
0.0
 10
110.156583631315
 20
-140.6384439752571
 30
0.0
 10
109.9471218258118
 20
-140.6487792617128
 30
0.0
 10
109.9471218258118
 20
-140.6487792617128
 30
0.0
 10
109.9471218258118
 20
-140.4289821697539
 30
0.0
 10
109.9471218258118
 20
-140.4289821697539
 30
0.0
 10
110.1314344342727
 20
-140.4479301949227
 30
0.0
 10
110.3364176156451
 20
-140.452064309505
 30
0.0
 10
110.5248643386882
 20
-140.452064309505
 30
0.0
 10
110.5248643386882
 20
-140.452064309505
 30
0.0
 10
111.0281927890832
 20
-140.452064309505
 30
0.0
 10
111.0281927890832
 20
-140.452064309505
 30
0.0
 10
111.3668456752833
 20
-140.452064309505
 30
0.0
 10
111.411287407043
 20
-140.4372503989185
 30
0.0
 10
111.4936251891405
 20
-140.396942781741
 30
0.0
 10
111.4936251891405
 20
-140.396942781741
 30
0.0
 10
111.6607123201751
 20
-140.5557616836111
 30
0.0
 10
111.6607123201751
 20
-140.5557616836111
 30
0.0
 10
111.5084390997271
 20
-140.6277641792528
 30
0.0
 10
111.3647786179921
 20
-140.7907171957051
 30
0.0
 10
111.3055229756458
 20
-140.8603081245072
 30
0.0
  0
HATCH
  5
147
330
10C
100
AcDbEntity
  8
_U+30EC_U+30A4_U+30E4_U+30FC 1
 62
   179
420
  2234388
100
AcDbHatch
 10
0.0
 20
0.0
 30
0.0
210
0.0
220
0.0
230
1.0
  2
SOLID
 70
     1
 71
     0
 91
        1
 92
        1
 93
        1
 72
     4
 94
        3
 73
     0
 74
     1
 95
       50
 96
       46
 40
0.0
 40
0.0
 40
0.0
 40
0.0
 40
1.0
 40
1.0
 40
1.0
 40
2.0
 40
2.0
 40
2.0
 40
3.0
 40
3.0
 40
3.0
 40
4.0
 40
4.0
 40
4.0
 40
5.0
 40
5.0
 40
5.0
 40
6.0
 40
6.0
 40
6.0
 40
7.0
 40
7.0
 40
7.0
 40
8.0
 40
8.0
 40
8.0
 40
9.0
 40
9.0
 40
9.0
 40
10.0
 40
10.0
 40
10.0
 40
11.0
 40
11.0
 40
11.0
 40
12.0
 40
12.0
 40
12.0
 40
13.0
 40
13.0
 40
13.0
 40
14.0
 40
14.0
 40
14.0
 40
15.0
 40
15.0
 40
15.0
 40
15.0
 10
111.3055229756458
 20
-140.8603081245072
 10
111.2442002760084
 20
-140.9323106201489
 10
110.9837510573235
 20
-141.2496039143404
 10
110.9269069818169
 20
-141.312993671269
 10
111.0113118212055
 20
-141.4104898735015
 10
111.0622992343872
 20
-141.4738796304302
 10
111.127756048607
 20
-141.5648301512408
 10
111.127756048607
 20
-141.5648301512408
 10
110.9437879496946
 20
-141.7022894611022
 10
110.9437879496946
 20
-141.7022894611022
 10
110.8083956971243
 20
-141.4907605983079
 10
110.6368299419589
 20
-141.2664848822181
 10
110.342963297067
 20
-141.0677028727192
 10
110.342963297067
 20
-141.0677028727192
 10
110.4911024029328
 20
-140.91336259498
 10
110.4911024029328
 20
-140.91336259498
 10
110.6010009489123
 20
-140.9936333197863
 10
110.7046983230183
 20
-141.0825167833058
 10
110.8018500157023
 20
-141.1776014186987
 10
110.8697183967617
 20
-141.1014648084746
 10
111.072634520843
 20
-140.858241067216
 10
111.2059597161221
 20
-140.6298312365439
 10
111.2059597161221
 20
-140.6298312365439
 10
110.5331325678528
 20
-140.6298312365439
 10
110.5331325678528
 20
-140.6298312365439
 10
110.4084201112868
 20
-140.6298312365439
 10
110.156583631315
 20
-140.6384439752571
 10
109.9471218258118
 20
-140.6487792617128
 10
109.9471218258118
 20
-140.6487792617128
 10
109.9471218258118
 20
-140.4289821697539
 10
109.9471218258118
 20
-140.4289821697539
 10
110.1314344342727
 20
-140.4479301949227
 10
110.3364176156451
 20
-140.452064309505
 10
110.5248643386882
 20
-140.452064309505
 10
110.5248643386882
 20
-140.452064309505
 10
111.0281927890832
 20
-140.452064309505
 10
111.0281927890832
 20
-140.452064309505
 10
111.3668456752833
 20
-140.452064309505
 10
111.411287407043
 20
-140.4372503989185
 10
111.4936251891405
 20
-140.396942781741
 10
111.4936251891405
 20
-140.396942781741
 10
111.6607123201751
 20
-140.5557616836111
 10
111.6607123201751
 20
-140.5557616836111
 10
111.5084390997271
 20
-140.6277641792528
 10
111.3647786179921
 20
-140.7907171957051
 10
111.3055229756458
 20
-140.8603081245072
 97
        0
 97
        0
 75
     2
 76
     1
 98
        0
  0
SPLINE
  5
148
330
10C
100
AcDbEntity
  8
_U+30EC_U+30A4_U+30E4_U+30FC 1
370
     0
100
AcDbSpline
210
0.0
220
0.0
230
1.0
 70
    11
 71
     3
 72
    29
 73
    25
 74
     0
 42
0.0000000001
 43
0.0000000001
 12
1.0
 22
0.0
 32
0.0
 13
1.0
 23
0.0
 33
0.0
 40
0.0
 40
0.0
 40
0.0
 40
0.0
 40
1.0
 40
1.0
 40
1.0
 40
2.0
 40
2.0
 40
2.0
 40
3.0
 40
3.0
 40
3.0
 40
4.0
 40
4.0
 40
4.0
 40
5.0
 40
5.0
 40
5.0
 40
6.0
 40
6.0
 40
6.0
 40
7.0
 40
7.0
 40
7.0
 40
8.0
 40
8.0
 40
8.0
 40
8.0
 10
112.9288519682956
 20
-141.1035318657658
 30
0.0
 10
112.9288519682956
 20
-141.1035318657658
 30
0.0
 10
112.4444715430694
 20
-141.1035318657658
 30
0.0
 10
112.4444715430694
 20
-141.1035318657658
 30
0.0
 10
112.4169107791874
 20
-141.1035318657658
 30
0.0
 10
112.0996174849959
 20
-141.1035318657658
 30
0.0
 10
111.8880886222016
 20
-141.1290255723567
 30
0.0
 10
111.8880886222016
 20
-141.1290255723567
 30
0.0
 10
111.8880886222016
 20
-140.8985486843934
 30
0.0
 10
111.8880886222016
 20
-140.8985486843934
 30
0.0
 10
112.0465630145231
 20
-140.9216308241446
 30
0.0
 10
112.2370767948574
 20
-140.9240423909843
 30
0.0
 10
112.4444715430694
 20
-140.9240423909843
 30
0.0
 10
112.4444715430694
 20
-140.9240423909843
 30
0.0
 10
112.9288519682956
 20
-140.9240423909843
 30
0.0
 10
112.9288519682956
 20
-140.9240423909843
 30
0.0
 10
113.1148871244991
 20
-140.9240423909843
 30
0.0
 10
113.3012667902511
 20
-140.9216308241446
 30
0.0
 10
113.4852348891634
 20
-140.8985486843934
 30
0.0
 10
113.4852348891634
 20
-140.8985486843934
 30
0.0
 10
113.4852348891634
 20
-141.1290255723567
 30
0.0
 10
113.4852348891634
 20
-141.1290255723567
 30
0.0
 10
113.3012667902511
 20
-141.1059434326055
 30
0.0
 10
113.0535644248616
 20
-141.1035318657658
 30
0.0
 10
112.9288519682956
 20
-141.1035318657658
 30
0.0
  0
HATCH
  5
149
330
10C
100
AcDbEntity
  8
_U+30EC_U+30A4_U+30E4_U+30FC 1
 62
   179
420
  2234388
100
AcDbHatch
 10
0.0
 20
0.0
 30
0.0
210
0.0
220
0.0
230
1.0
  2
SOLID
 70
     1
 71
     0
 91
        1
 92
        1
 93
        1
 72
     4
 94
        3
 73
     0
 74
     1
 95
       29
 96
       25
 40
0.0
 40
0.0
 40
0.0
 40
0.0
 40
1.0
 40
1.0
 40
1.0
 40
2.0
 40
2.0
 40
2.0
 40
3.0
 40
3.0
 40
3.0
 40
4.0
 40
4.0
 40
4.0
 40
5.0
 40
5.0
 40
5.0
 40
6.0
 40
6.0
 40
6.0
 40
7.0
 40
7.0
 40
7.0
 40
8.0
 40
8.0
 40
8.0
 40
8.0
 10
112.9288519682956
 20
-141.1035318657658
 10
112.9288519682956
 20
-141.1035318657658
 10
112.4444715430694
 20
-141.1035318657658
 10
112.4444715430694
 20
-141.1035318657658
 10
112.4169107791874
 20
-141.1035318657658
 10
112.0996174849959
 20
-141.1035318657658
 10
111.8880886222016
 20
-141.1290255723567
 10
111.8880886222016
 20
-141.1290255723567
 10
111.8880886222016
 20
-140.8985486843934
 10
111.8880886222016
 20
-140.8985486843934
 10
112.0465630145231
 20
-140.9216308241446
 10
112.2370767948574
 20
-140.9240423909843
 10
112.4444715430694
 20
-140.9240423909843
 10
112.4444715430694
 20
-140.9240423909843
 10
112.9288519682956
 20
-140.9240423909843
 10
112.9288519682956
 20
-140.9240423909843
 10
113.1148871244991
 20
-140.9240423909843
 10
113.3012667902511
 20
-140.9216308241446
 10
113.4852348891634
 20
-140.8985486843934
 10
113.4852348891634
 20
-140.8985486843934
 10
113.4852348891634
 20
-141.1290255723567
 10
113.4852348891634
 20
-141.1290255723567
 10
113.3012667902511
 20
-141.1059434326055
 10
113.0535644248616
 20
-141.1035318657658
 10
112.9288519682956
 20
-141.1035318657658
 97
        0
 97
        0
 75
     2
 76
     1
 98
        0
  0
ENDBLK
  5
10F
330
10C
100
AcDbEntity
  8
0
100
AcDbBlockEnd
  0
ENDSEC
  0
SECTION
  2
ENTITIES
  0
POLYLINE
  5
41
330
1F
100
AcDbEntity
  8
_U+30EC_U+30A4_U+30E4_U+30FC 1
  6
AI-Linetype-1
 62
   154
420
    23468
370
    25
100
AcDb2dPolyline
 66
     1
 10
0.0
 20
0.0
 30
0.0
  0
VERTEX
  5
42
330
41
100
AcDbEntity
  8
_U+30EC_U+30A4_U+30E4_U+30FC 1
  6
AI-Linetype-1
 62
   154
420
    23468
370
    25
100
AcDbVertex
100
AcDb2dVertex
 10
76.72228554265143
 20
-119.2623133035177
 30
0.0
  0
VERTEX
  5
43
330
41
100
AcDbEntity
  8
_U+30EC_U+30A4_U+30E4_U+30FC 1
  6
AI-Linetype-1
 62
   154
420
    23468
370
    25
100
AcDbVertex
100
AcDb2dVertex
 10
75.13478558315192
 20
-119.2623133035177
 30
0.0
  0
VERTEX
  5
44
330
41
100
AcDbEntity
  8
_U+30EC_U+30A4_U+30E4_U+30FC 1
  6
AI-Linetype-1
 62
   154
420
    23468
370
    25
100
AcDbVertex
100
AcDb2dVertex
 10
75.13478558315192
 20
-139.4622982984676
 30
0.0
  0
VERTEX
  5
45
330
41
100
AcDbEntity
  8
_U+30EC_U+30A4_U+30E4_U+30FC 1
  6
AI-Linetype-1
 62
   154
420
    23468
370
    25
100
AcDbVertex
100
AcDb2dVertex
 10
95.88595005374562
 20
-139.4622982984676
 30
0.0
  0
VERTEX
  5
46
330
41
100
AcDbEntity
  8
_U+30EC_U+30A4_U+30E4_U+30FC 1
  6
AI-Linetype-1
 62
   154
420
    23468
370
    25
100
AcDbVertex
100
AcDb2dVertex
 10
95.88595005374562
 20
-137.6446460767001
 30
0.0
  0
SEQEND
  5
48
330
41
100
AcDbEntity
  8
_U+30EC_U+30A4_U+30E4_U+30FC 1
  6
AI-Linetype-1
 62
   154
420
    23468
370
    25
  0
POLYLINE
  5
49
330
1F
100
AcDbEntity
  8
_U+30EC_U+30A4_U+30E4_U+30FC 1
 62
     7
420
 16777215
370
    25
100
AcDb2dPolyline
 66
     1
 10
0.0
 20
0.0
 30
0.0
  0
VERTEX
  5
4A
330
49
100
AcDbEntity
  8
_U+30EC_U+30A4_U+30E4_U+30FC 1
 62
     7
420
 16777215
370
    25
100
AcDbVertex
100
AcDb2dVertex
 10
77.29554941691514
 20
-137.8623805210897
 30
0.0
  0
VERTEX
  5
4B
330
49
100
AcDbEntity
  8
_U+30EC_U+30A4_U+30E4_U+30FC 1
 62
     7
420
 16777215
370
    25
100
AcDbVertex
100
AcDb2dVertex
 10
95.29547062436555
 20
-137.8623805210897
 30
0.0
  0
SEQEND
  5
4C
330
49
100
AcDbEntity
  8
_U+30EC_U+30A4_U+30E4_U+30FC 1
 62
     7
420
 16777215
370
    25
  0
POLYLINE
  5
4D
330
1F
100
AcDbEntity
  8
_U+30EC_U+30A4_U+30E4_U+30FC 1
 62
     7
420
 16777215
370
    25
100
AcDb2dPolyline
 66
     1
 10
0.0
 20
0.0
 30
0.0
  0
VERTEX
  5
4E
330
4D
100
AcDbEntity
  8
_U+30EC_U+30A4_U+30E4_U+30FC 1
 62
     7
420
 16777215
370
    25
100
AcDbVertex
100
AcDb2dVertex
 10
77.29554941691514
 20
-124.8623077465624
 30
0.0
  0
VERTEX
  5
4F
330
4D
100
AcDbEntity
  8
_U+30EC_U+30A4_U+30E4_U+30FC 1
 62
     7
420
 16777215
370
    25
100
AcDbVertex
100
AcDb2dVertex
 10
95.29547062436555
 20
-124.8623077465624
 30
0.0
  0
SEQEND
  5
50
330
4D
100
AcDbEntity
  8
_U+30EC_U+30A4_U+30E4_U+30FC 1
 62
     7
420
 16777215
370
    25
  0
POLYLINE
  5
51
330
1F
100
AcDbEntity
  8
_U+30EC_U+30A4_U+30E4_U+30FC 1
 62
     7
420
 16777215
370
    25
100
AcDb2dPolyline
 66
     1
 10
0.0
 20
0.0
 30
0.0
  0
VERTEX
  5
52
330
51
100
AcDbEntity
  8
_U+30EC_U+30A4_U+30E4_U+30FC 1
 62
     7
420
 16777215
370
    25
100
AcDbVertex
100
AcDb2dVertex
 10
77.29554941691514
 20
-138.8628582986178
 30
0.0
  0
VERTEX
  5
53
330
51
100
AcDbEntity
  8
_U+30EC_U+30A4_U+30E4_U+30FC 1
 62
     7
420
 16777215
370
    25
100
AcDbVertex
100
AcDb2dVertex
 10
94.29569842764964
 20
-138.8628582986178
 30
0.0
  0
SEQEND
  5
54
330
51
100
AcDbEntity
  8
_U+30EC_U+30A4_U+30E4_U+30FC 1
 62
     7
420
 16777215
370
    25
  0
POLYLINE
  5
55
330
1F
100
AcDbEntity
  8
_U+30EC_U+30A4_U+30E4_U+30FC 1
 62
     7
420
 16777215
370
    25
100
AcDb2dPolyline
 66
     1
 10
0.0
 20
0.0
 30
0.0
  0
VERTEX
  5
56
330
55
100
AcDbEntity
  8
_U+30EC_U+30A4_U+30E4_U+30FC 1
 62
     7
420
 16777215
370
    25
100
AcDbVertex
100
AcDb2dVertex
 10
76.29507166466168
 20
-120.8622310808955
 30
0.0
  0
VERTEX
  5
57
330
55
100
AcDbEntity
  8
_U+30EC_U+30A4_U+30E4_U+30FC 1
 62
     7
420
 16777215
370
    25
100
AcDbVertex
100
AcDb2dVertex
 10
76.29507166466168
 20
-137.8623805210897
 30
0.0
  0
SEQEND
  5
58
330
55
100
AcDbEntity
  8
_U+30EC_U+30A4_U+30E4_U+30FC 1
 62
     7
420
 16777215
370
    25
  0
POLYLINE
  5
59
330
1F
100
AcDbEntity
  8
_U+30EC_U+30A4_U+30E4_U+30FC 1
 62
     7
420
 16777215
370
    25
100
AcDb2dPolyline
 66
     1
 10
0.0
 20
0.0
 30
0.0
  0
VERTEX
  5
5A
330
59
100
AcDbEntity
  8
_U+30EC_U+30A4_U+30E4_U+30FC 1
 62
     7
420
 16777215
370
    25
100
AcDbVertex
100
AcDb2dVertex
 10
77.29554941691514
 20
-119.8624588589233
 30
0.0
  0
VERTEX
  5
5B
330
59
100
AcDbEntity
  8
_U+30EC_U+30A4_U+30E4_U+30FC 1
 62
     7
420
 16777215
370
    25
100
AcDbVertex
100
AcDb2dVertex
 10
77.29554941691514
 20
-123.8625355245898
 30
0.0
  0
SEQEND
  5
5C
330
59
100
AcDbEntity
  8
_U+30EC_U+30A4_U+30E4_U+30FC 1
 62
     7
420
 16777215
370
    25
  0
POLYLINE
  5
5D
330
1F
100
AcDbEntity
  8
_U+30EC_U+30A4_U+30E4_U+30FC 1
 62
     7
420
 16777215
370
    25
100
AcDb2dPolyline
 66
     1
 10
0.0
 20
0.0
 30
0.0
  0
VERTEX
  5
5E
330
5D
100
AcDbEntity
  8
_U+30EC_U+30A4_U+30E4_U+30FC 1
 62
     7
420
 16777215
370
    25
100
AcDbVertex
100
AcDb2dVertex
 10
77.29554941691514
 20
-123.8625355245898
 30
0.0
  0
VERTEX
  5
5F
330
5D
100
AcDbEntity
  8
_U+30EC_U+30A4_U+30E4_U+30FC 1
 62
     7
420
 16777215
370
    25
100
AcDbVertex
100
AcDb2dVertex
 10
101.2961499157199
 20
-123.8625355245898
 30
0.0
  0
SEQEND
  5
60
330
5D
100
AcDbEntity
  8
_U+30EC_U+30A4_U+30E4_U+30FC 1
 62
     7
420
 16777215
370
    25
  0
POLYLINE
  5
61
330
1F
100
AcDbEntity
  8
_U+30EC_U+30A4_U+30E4_U+30FC 1
 62
     7
420
 16777215
370
    25
100
AcDb2dPolyline
 66
     1
 10
0.0
 20
0.0
 30
0.0
  0
VERTEX
  5
62
330
61
100
AcDbEntity
  8
_U+30EC_U+30A4_U+30E4_U+30FC 1
 62
     7
420
 16777215
370
    25
100
AcDbVertex
100
AcDb2dVertex
 10
77.29554941691514
 20
-124.8623077465624
 30
0.0
  0
VERTEX
  5
63
330
61
100
AcDbEntity
  8
_U+30EC_U+30A4_U+30E4_U+30FC 1
 62
     7
420
 16777215
370
    25
100
AcDbVertex
100
AcDb2dVertex
 10
77.29554941691514
 20
-137.8623805210897
 30
0.0
  0
SEQEND
  5
64
330
61
100
AcDbEntity
  8
_U+30EC_U+30A4_U+30E4_U+30FC 1
 62
     7
420
 16777215
370
    25
  0
POLYLINE
  5
65
330
1F
100
AcDbEntity
  8
_U+30EC_U+30A4_U+30E4_U+30FC 1
 62
     7
420
 16777215
370
    25
100
AcDb2dPolyline
 66
     1
 10
0.0
 20
0.0
 30
0.0
  0
VERTEX
  5
66
330
65
100
AcDbEntity
  8
_U+30EC_U+30A4_U+30E4_U+30FC 1
 62
     7
420
 16777215
370
    25
100
AcDbVertex
100
AcDb2dVertex
 10
95.8156767222051
 20
-124.5625877466371
 30
0.0
  0
VERTEX
  5
67
330
65
100
AcDbEntity
  8
_U+30EC_U+30A4_U+30E4_U+30FC 1
 62
     7
420
 16777215
370
    25
100
AcDbVertex
100
AcDb2dVertex
 10
100.5960977113575
 20
-124.5625877466371
 30
0.0
  0
SEQEND
  5
68
330
65
100
AcDbEntity
  8
_U+30EC_U+30A4_U+30E4_U+30FC 1
 62
     7
420
 16777215
370
    25
  0
POLYLINE
  5
69
330
1F
100
AcDbEntity
  8
_U+30EC_U+30A4_U+30E4_U+30FC 1
 62
     7
420
 16777215
370
    25
100
AcDb2dPolyline
 66
     1
 10
0.0
 20
0.0
 30
0.0
  0
VERTEX
  5
6A
330
69
100
AcDbEntity
  8
_U+30EC_U+30A4_U+30E4_U+30FC 1
 62
     7
420
 16777215
370
    25
100
AcDbVertex
100
AcDb2dVertex
 10
95.29547062436555
 20
-124.8623077465624
 30
0.0
  0
VERTEX
  5
6B
330
69
100
AcDbEntity
  8
_U+30EC_U+30A4_U+30E4_U+30FC 1
 62
     7
420
 16777215
370
    25
100
AcDbVertex
100
AcDb2dVertex
 10
95.8156767222051
 20
-124.5625877466371
 30
0.0
  0
SEQEND
  5
6C
330
69
100
AcDbEntity
  8
_U+30EC_U+30A4_U+30E4_U+30FC 1
 62
     7
420
 16777215
370
    25
  0
POLYLINE
  5
6D
330
1F
100
AcDbEntity
  8
_U+30EC_U+30A4_U+30E4_U+30FC 1
 62
     7
420
 16777215
370
     9
100
AcDb2dPolyline
 66
     1
 10
0.0
 20
0.0
 30
0.0
  0
VERTEX
  5
6E
330
6D
100
AcDbEntity
  8
_U+30EC_U+30A4_U+30E4_U+30FC 1
 62
     7
420
 16777215
370
     9
100
AcDbVertex
100
AcDb2dVertex
 10
76.58791249052402
 20
-138.5693119098024
 30
0.0
  0
VERTEX
  5
6F
330
6D
100
AcDbEntity
  8
_U+30EC_U+30A4_U+30E4_U+30FC 1
 62
     7
420
 16777215
370
     9
100
AcDbVertex
100
AcDb2dVertex
 10
72.29531260003736
 20
-142.8625821865065
 30
0.0
  0
SEQEND
  5
70
330
6D
100
AcDbEntity
  8
_U+30EC_U+30A4_U+30E4_U+30FC 1
 62
     7
420
 16777215
370
     9
  0
POLYLINE
  5
71
330
1F
100
AcDbEntity
  8
_U+30EC_U+30A4_U+30E4_U+30FC 1
 62
     7
420
 16777215
370
     9
100
AcDb2dPolyline
 66
     1
 10
0.0
 20
0.0
 30
0.0
  0
VERTEX
  5
72
330
71
100
AcDbEntity
  8
_U+30EC_U+30A4_U+30E4_U+30FC 1
 62
     7
420
 16777215
370
     9
100
AcDbVertex
100
AcDb2dVertex
 10
68.08335770749328
 20
-142.8625821865065
 30
0.0
  0
VERTEX
  5
73
330
71
100
AcDbEntity
  8
_U+30EC_U+30A4_U+30E4_U+30FC 1
 62
     7
420
 16777215
370
     9
100
AcDbVertex
100
AcDb2dVertex
 10
72.29531260003736
 20
-142.8625821865065
 30
0.0
  0
SEQEND
  5
74
330
71
100
AcDbEntity
  8
_U+30EC_U+30A4_U+30E4_U+30FC 1
 62
     7
420
 16777215
370
     9
  0
POLYLINE
  5
75
330
1F
100
AcDbEntity
  8
_U+30EC_U+30A4_U+30E4_U+30FC 1
 62
     7
420
 16777215
370
     9
100
AcDb2dPolyline
 66
     1
 10
0.0
 20
0.0
 30
0.0
  0
VERTEX
  5
76
330
75
100
AcDbEntity
  8
_U+30EC_U+30A4_U+30E4_U+30FC 1
 62
     7
420
 16777215
370
     9
100
AcDbVertex
100
AcDb2dVertex
 10
76.58791249052402
 20
-138.5693119098024
 30
0.0
  0
VERTEX
  5
77
330
75
100
AcDbEntity
  8
_U+30EC_U+30A4_U+30E4_U+30FC 1
 62
     7
420
 16777215
370
     9
100
AcDbVertex
100
AcDb2dVertex
 10
75.28912775895539
 20
-139.3196702429476
 30
0.0
  0
SEQEND
  5
78
330
75
100
AcDbEntity
  8
_U+30EC_U+30A4_U+30E4_U+30FC 1
 62
     7
420
 16777215
370
     9
  0
POLYLINE
  5
79
330
1F
100
AcDbEntity
  8
_U+30EC_U+30A4_U+30E4_U+30FC 1
 62
     7
420
 16777215
370
     9
100
AcDb2dPolyline
 66
     1
 10
0.0
 20
0.0
 30
0.0
  0
VERTEX
  5
7A
330
79
100
AcDbEntity
  8
_U+30EC_U+30A4_U+30E4_U+30FC 1
 62
     7
420
 16777215
370
     9
100
AcDbVertex
100
AcDb2dVertex
 10
76.58791249052402
 20
-138.5693119098024
 30
0.0
  0
VERTEX
  5
7B
330
79
100
AcDbEntity
  8
_U+30EC_U+30A4_U+30E4_U+30FC 1
 62
     7
420
 16777215
370
     9
100
AcDbVertex
100
AcDb2dVertex
 10
75.83825973187147
 20
-139.8688041316992
 30
0.0
  0
SEQEND
  5
7C
330
79
100
AcDbEntity
  8
_U+30EC_U+30A4_U+30E4_U+30FC 1
 62
     7
420
 16777215
370
     9
  0
SPLINE
  5
7D
330
1F
100
AcDbEntity
  8
_U+30EC_U+30A4_U+30E4_U+30FC 1
 62
     7
420
 16777215
370
    25
100
AcDbSpline
210
0.0
220
0.0
230
1.0
 70
     8
 71
     3
 72
     8
 73
     4
 74
     0
 42
0.0000000001
 43
0.0000000001
 12
1.0
 22
0.0
 32
0.0
 13
1.0
 23
0.0
 33
0.0
 40
0.0
 40
0.0
 40
0.0
 40
0.0
 40
1.0
 40
1.0
 40
1.0
 40
1.0
 10
76.29507166466168
 20
-137.8623805210897
 30
0.0
 10
76.29507166466168
 20
-138.4149716320632
 30
0.0
 10
76.7429583199018
 20
-138.8628582986178
 30
0.0
 10
77.29554941691514
 20
-138.8628582986178
 30
0.0
  0
SPLINE
  5
7E
330
1F
100
AcDbEntity
  8
_U+30EC_U+30A4_U+30E4_U+30FC 1
 62
     7
420
 16777215
370
    25
100
AcDbSpline
210
0.0
220
0.0
230
1.0
 70
     8
 71
     3
 72
     8
 73
     4
 74
     0
 42
0.0000000001
 43
0.0000000001
 12
1.0
 22
0.0
 32
0.0
 13
1.0
 23
0.0
 33
0.0
 40
0.0
 40
0.0
 40
0.0
 40
0.0
 40
1.0
 40
1.0
 40
1.0
 40
1.0
 10
77.29554941691514
 20
-119.8624588589233
 30
0.0
 10
76.7429583199018
 20
-119.8624588589233
 30
0.0
 10
76.29507166466168
 20
-120.3103102477
 30
0.0
 10
76.29507166466168
 20
-120.8622310808955
 30
0.0
  0
SPLINE
  5
7F
330
1F
100
AcDbEntity
  8
_U+30EC_U+30A4_U+30E4_U+30FC 1
 62
     7
420
 16777215
370
    25
100
AcDbSpline
210
0.0
220
0.0
230
1.0
 70
     8
 71
     3
 72
     8
 73
     4
 74
     0
 42
0.0000000001
 43
0.0000000001
 12
1.0
 22
0.0
 32
0.0
 13
1.0
 23
0.0
 33
0.0
 40
0.0
 40
0.0
 40
0.0
 40
0.0
 40
1.0
 40
1.0
 40
1.0
 40
1.0
 10
94.29569842764964
 20
-138.8628582986178
 30
0.0
 10
94.84828952466299
 20
-138.8628582986178
 30
0.0
 10
95.29547062436555
 20
-138.4149716320632
 30
0.0
 10
95.29547062436555
 20
-137.8623805210897
 30
0.0
  0
SPLINE
  5
80
330
1F
100
AcDbEntity
  8
_U+30EC_U+30A4_U+30E4_U+30FC 1
 62
     7
420
 16777215
370
    25
100
AcDbSpline
210
0.0
220
0.0
230
1.0
 70
     8
 71
     3
 72
     8
 73
     4
 74
     0
 42
0.0000000001
 43
0.0000000001
 12
1.0
 22
0.0
 32
0.0
 13
1.0
 23
0.0
 33
0.0
 40
0.0
 40
0.0
 40
0.0
 40
0.0
 40
1.0
 40
1.0
 40
1.0
 40
1.0
 10
100.5960977113575
 20
-124.5625877466371
 30
0.0
 10
100.9826388636432
 20
-124.5625877466371
 30
0.0
 10
101.2961499157199
 20
-124.2490741356046
 30
0.0
 10
101.2961499157199
 20
-123.8625355245898
 30
0.0
  0
SPLINE
  5
81
330
1F
100
AcDbEntity
  8
_U+30EC_U+30A4_U+30E4_U+30FC 1
 62
     7
420
 16777215
370
     9
100
AcDbSpline
210
0.0
220
0.0
230
1.0
 70
    11
 71
     3
 72
    17
 73
    13
 74
     0
 42
0.0000000001
 43
0.0000000001
 12
1.0
 22
0.0
 32
0.0
 13
1.0
 23
0.0
 33
0.0
 40
0.0
 40
0.0
 40
0.0
 40
0.0
 40
1.0
 40
1.0
 40
1.0
 40
2.0
 40
2.0
 40
2.0
 40
3.0
 40
3.0
 40
3.0
 40
4.0
 40
4.0
 40
4.0
 40
4.0
 10
101.3953510243002
 20
-115.8626996932564
 30
0.0
 10
101.3953510243002
 20
-115.8075605266037
 30
0.0
 10
101.351253803203
 20
-115.7627930266148
 30
0.0
 10
101.2961499157199
 20
-115.7627930266148
 30
0.0
 10
101.24101075046
 20
-115.7627930266148
 30
0.0
 10
101.1955376960645
 20
-115.8075605266037
 30
0.0
 10
101.1955376960645
 20
-115.8626996932564
 30
0.0
 10
101.1955376960645
 20
-115.9178035821317
 30
0.0
 10
101.24101075046
 20
-115.9626063598984
 30
0.0
 10
101.2961499157199
 20
-115.9626063598984
 30
0.0
 10
101.351253803203
 20
-115.9626063598984
 30
0.0
 10
101.3953510243002
 20
-115.9178035821317
 30
0.0
 10
101.3953510243002
 20
-115.8626996932564
 30
0.0
  0
SPLINE
  5
82
330
1F
100
AcDbEntity
  8
_U+30EC_U+30A4_U+30E4_U+30FC 1
 62
     7
420
 16777215
370
     9
100
AcDbSpline
210
0.0
220
0.0
230
1.0
 70
    11
 71
     3
 72
    17
 73
    13
 74
     0
 42
0.0000000001
 43
0.0000000001
 12
1.0
 22
0.0
 32
0.0
 13
1.0
 23
0.0
 33
0.0
 40
0.0
 40
0.0
 40
0.0
 40
0.0
 40
1.0
 40
1.0
 40
1.0
 40
2.0
 40
2.0
 40
2.0
 40
3.0
 40
3.0
 40
3.0
 40
4.0
 40
4.0
 40
4.0
 40
4.0
 10
77.49536274515081
 20
-115.8626996932564
 30
0.0
 10
77.49536274515081
 20
-115.8075605266037
 30
0.0
 10
77.45055996851605
 20
-115.7627930266148
 30
0.0
 10
77.39545608103298
 20
-115.7627930266148
 30
0.0
 10
77.34031691577302
 20
-115.7627930266148
 30
0.0
 10
77.29554941691514
 20
-115.8075605266037
 30
0.0
 10
77.29554941691514
 20
-115.8626996932564
 30
0.0
 10
77.29554941691514
 20
-115.9178035821317
 30
0.0
 10
77.34031691577302
 20
-115.9626063598984
 30
0.0
 10
77.39545608103298
 20
-115.9626063598984
 30
0.0
 10
77.45055996851605
 20
-115.9626063598984
 30
0.0
 10
77.49536274515081
 20
-115.9178035821317
 30
0.0
 10
77.49536274515081
 20
-115.8626996932564
 30
0.0
  0
SPLINE
  5
83
330
1F
100
AcDbEntity
  8
_U+30EC_U+30A4_U+30E4_U+30FC 1
 62
     7
420
 16777215
370
     9
100
AcDbSpline
210
0.0
220
0.0
230
1.0
 70
    11
 71
     3
 72
    17
 73
    13
 74
     0
 42
0.0000000001
 43
0.0000000001
 12
1.0
 22
0.0
 32
0.0
 13
1.0
 23
0.0
 33
0.0
 40
0.0
 40
0.0
 40
0.0
 40
0.0
 40
1.0
 40
1.0
 40
1.0
 40
2.0
 40
2.0
 40
2.0
 40
3.0
 40
3.0
 40
3.0
 40
4.0
 40
4.0
 40
4.0
 40
4.0
 10
76.3949783287795
 20
-122.362206913854
 30
0.0
 10
76.3949783287795
 20
-122.3071030249787
 30
0.0
 10
76.35021082992162
 20
-122.2623002472123
 30
0.0
 10
76.29507166466168
 20
-122.2623002472123
 30
0.0
 10
76.2399677771786
 20
-122.2623002472123
 30
0.0
 10
76.19516500054384
 20
-122.3071030249787
 30
0.0
 10
76.19516500054384
 20
-122.362206913854
 30
0.0
 10
76.19516500054384
 20
-122.4180163582844
 30
0.0
 10
76.2399677771786
 20
-122.4628191360511
 30
0.0
 10
76.29507166466168
 20
-122.4628191360511
 30
0.0
 10
76.35021082992162
 20
-122.4628191360511
 30
0.0
 10
76.3949783287795
 20
-122.4180163582844
 30
0.0
 10
76.3949783287795
 20
-122.362206913854
 30
0.0
  0
SPLINE
  5
84
330
1F
100
AcDbEntity
  8
_U+30EC_U+30A4_U+30E4_U+30FC 1
 62
     7
420
 16777215
370
     9
100
AcDbSpline
210
0.0
220
0.0
230
1.0
 70
    11
 71
     3
 72
    17
 73
    13
 74
     0
 42
0.0000000001
 43
0.0000000001
 12
1.0
 22
0.0
 32
0.0
 13
1.0
 23
0.0
 33
0.0
 40
0.0
 40
0.0
 40
0.0
 40
0.0
 40
1.0
 40
1.0
 40
1.0
 40
2.0
 40
2.0
 40
2.0
 40
3.0
 40
3.0
 40
3.0
 40
4.0
 40
4.0
 40
4.0
 40
4.0
 10
77.39545608103298
 20
-122.362206913854
 30
0.0
 10
77.39545608103298
 20
-122.3071030249787
 30
0.0
 10
77.35065330439821
 20
-122.2623002472123
 30
0.0
 10
77.29554941691514
 20
-122.2623002472123
 30
0.0
 10
77.23973997389452
 20
-122.2623002472123
 30
0.0
 10
77.19493719725975
 20
-122.3071030249787
 30
0.0
 10
77.19493719725975
 20
-122.362206913854
 30
0.0
 10
77.19493719725975
 20
-122.4180163582844
 30
0.0
 10
77.23973997389452
 20
-122.4628191360511
 30
0.0
 10
77.29554941691514
 20
-122.4628191360511
 30
0.0
 10
77.35065330439821
 20
-122.4628191360511
 30
0.0
 10
77.39545608103298
 20
-122.4180163582844
 30
0.0
 10
77.39545608103298
 20
-122.362206913854
 30
0.0
  0
SPLINE
  5
85
330
1F
100
AcDbEntity
  8
_U+30EC_U+30A4_U+30E4_U+30FC 1
 62
     7
420
 16777215
370
     9
100
AcDbSpline
210
0.0
220
0.0
230
1.0
 70
    11
 71
     3
 72
    17
 73
    13
 74
     0
 42
0.0000000001
 43
0.0000000001
 12
1.0
 22
0.0
 32
0.0
 13
1.0
 23
0.0
 33
0.0
 40
0.0
 40
0.0
 40
0.0
 40
0.0
 40
1.0
 40
1.0
 40
1.0
 40
2.0
 40
2.0
 40
2.0
 40
3.0
 40
3.0
 40
3.0
 40
4.0
 40
4.0
 40
4.0
 40
4.0
 10
71.495389009334
 20
-138.8628582986178
 30
0.0
 10
71.495389009334
 20
-138.8070488541873
 30
0.0
 10
71.45058623269924
 20
-138.7622460764206
 30
0.0
 10
71.39548234521617
 20
-138.7622460764206
 30
0.0
 10
71.34034317995622
 20
-138.7622460764206
 30
0.0
 10
71.29557568109833
 20
-138.8070488541873
 30
0.0
 10
71.29557568109833
 20
-138.8628582986178
 30
0.0
 10
71.29557568109833
 20
-138.9179621874927
 30
0.0
 10
71.34034317995622
 20
-138.9627649652594
 30
0.0
 10
71.39548234521617
 20
-138.9627649652594
 30
0.0
 10
71.45058623269924
 20
-138.9627649652594
 30
0.0
 10
71.495389009334
 20
-138.9179621874927
 30
0.0
 10
71.495389009334
 20
-138.8628582986178
 30
0.0
  0
SPLINE
  5
86
330
1F
100
AcDbEntity
  8
_U+30EC_U+30A4_U+30E4_U+30FC 1
 62
     7
420
 16777215
370
     9
100
AcDbSpline
210
0.0
220
0.0
230
1.0
 70
    11
 71
     3
 72
    17
 73
    13
 74
     0
 42
0.0000000001
 43
0.0000000001
 12
1.0
 22
0.0
 32
0.0
 13
1.0
 23
0.0
 33
0.0
 40
0.0
 40
0.0
 40
0.0
 40
0.0
 40
1.0
 40
1.0
 40
1.0
 40
2.0
 40
2.0
 40
2.0
 40
3.0
 40
3.0
 40
3.0
 40
4.0
 40
4.0
 40
4.0
 40
4.0
 10
71.495389009334
 20
-119.8624588589233
 30
0.0
 10
71.495389009334
 20
-119.8073196922706
 30
0.0
 10
71.45058623269924
 20
-119.7625521922817
 30
0.0
 10
71.39548234521617
 20
-119.7625521922817
 30
0.0
 10
71.34034317995622
 20
-119.7625521922817
 30
0.0
 10
71.29557568109833
 20
-119.8073196922706
 30
0.0
 10
71.29557568109833
 20
-119.8624588589233
 30
0.0
 10
71.29557568109833
 20
-119.9175627477986
 30
0.0
 10
71.34034317995622
 20
-119.962365525565
 30
0.0
 10
71.39548234521617
 20
-119.962365525565
 30
0.0
 10
71.45058623269924
 20
-119.962365525565
 30
0.0
 10
71.495389009334
 20
-119.9175627477986
 30
0.0
 10
71.495389009334
 20
-119.8624588589233
 30
0.0
  0
SPLINE
  5
87
330
1F
100
AcDbEntity
  8
_U+30EC_U+30A4_U+30E4_U+30FC 1
 62
     7
420
 16777215
370
     9
100
AcDbSpline
210
0.0
220
0.0
230
1.0
 70
    11
 71
     3
 72
    17
 73
    13
 74
     0
 42
0.0000000001
 43
0.0000000001
 12
1.0
 22
0.0
 32
0.0
 13
1.0
 23
0.0
 33
0.0
 40
0.0
 40
0.0
 40
0.0
 40
0.0
 40
1.0
 40
1.0
 40
1.0
 40
2.0
 40
2.0
 40
2.0
 40
3.0
 40
3.0
 40
3.0
 40
4.0
 40
4.0
 40
4.0
 40
4.0
 10
95.39537728848339
 20
-142.8625821865065
 30
0.0
 10
95.39537728848339
 20
-142.8074782976316
 30
0.0
 10
95.35128006738618
 20
-142.7626755198648
 30
0.0
 10
95.29547062436555
 20
-142.7626755198648
 30
0.0
 10
95.24103701464315
 20
-142.7626755198648
 30
0.0
 10
95.19626951578527
 20
-142.8074782976316
 30
0.0
 10
95.19626951578527
 20
-142.8625821865065
 30
0.0
 10
95.19626951578527
 20
-142.9177213531596
 30
0.0
 10
95.24103701464315
 20
-142.9624888531481
 30
0.0
 10
95.29547062436555
 20
-142.9624888531481
 30
0.0
 10
95.35128006738618
 20
-142.9624888531481
 30
0.0
 10
95.39537728848339
 20
-142.9177213531596
 30
0.0
 10
95.39537728848339
 20
-142.8625821865065
 30
0.0
  0
SPLINE
  5
88
330
1F
100
AcDbEntity
  8
_U+30EC_U+30A4_U+30E4_U+30FC 1
 62
     7
420
 16777215
370
     9
100
AcDbSpline
210
0.0
220
0.0
230
1.0
 70
    11
 71
     3
 72
    17
 73
    13
 74
     0
 42
0.0000000001
 43
0.0000000001
 12
1.0
 22
0.0
 32
0.0
 13
1.0
 23
0.0
 33
0.0
 40
0.0
 40
0.0
 40
0.0
 40
0.0
 40
1.0
 40
1.0
 40
1.0
 40
2.0
 40
2.0
 40
2.0
 40
3.0
 40
3.0
 40
3.0
 40
4.0
 40
4.0
 40
4.0
 40
4.0
 10
76.3949783287795
 20
-142.8625821865065
 30
0.0
 10
76.3949783287795
 20
-142.8074782976316
 30
0.0
 10
76.35021082992162
 20
-142.7626755198648
 30
0.0
 10
76.29507166466168
 20
-142.7626755198648
 30
0.0
 10
76.2399677771786
 20
-142.7626755198648
 30
0.0
 10
76.19516500054384
 20
-142.8074782976316
 30
0.0
 10
76.19516500054384
 20
-142.8625821865065
 30
0.0
 10
76.19516500054384
 20
-142.9177213531596
 30
0.0
 10
76.2399677771786
 20
-142.9624888531481
 30
0.0
 10
76.29507166466168
 20
-142.9624888531481
 30
0.0
 10
76.35021082992162
 20
-142.9624888531481
 30
0.0
 10
76.3949783287795
 20
-142.9177213531596
 30
0.0
 10
76.3949783287795
 20
-142.8625821865065
 30
0.0
  0
SPLINE
  5
89
330
1F
100
AcDbEntity
  8
_U+30EC_U+30A4_U+30E4_U+30FC 1
 62
     7
420
 16777215
370
     9
100
AcDbSpline
210
0.0
220
0.0
230
1.0
 70
    11
 71
     3
 72
    17
 73
    13
 74
     0
 42
0.0000000001
 43
0.0000000001
 12
1.0
 22
0.0
 32
0.0
 13
1.0
 23
0.0
 33
0.0
 40
0.0
 40
0.0
 40
0.0
 40
0.0
 40
1.0
 40
1.0
 40
1.0
 40
2.0
 40
2.0
 40
2.0
 40
3.0
 40
3.0
 40
3.0
 40
4.0
 40
4.0
 40
4.0
 40
4.0
 10
99.3951388640401
 20
-124.8623077465624
 30
0.0
 10
99.3951388640401
 20
-124.8072038576871
 30
0.0
 10
99.35104164182891
 20
-124.7624010799204
 30
0.0
 10
99.29593524452743
 20
-124.7624010799204
 30
0.0
 10
99.24079607926747
 20
-124.7624010799204
 30
0.0
 10
99.19599330263271
 20
-124.8072038576871
 30
0.0
 10
99.19599330263271
 20
-124.8623077465624
 30
0.0
 10
99.19599330263271
 20
-124.9181171909928
 30
0.0
 10
99.24079607926747
 20
-124.9629199687592
 30
0.0
 10
99.29593524452743
 20
-124.9629199687592
 30
0.0
 10
99.35104164182891
 20
-124.9629199687592
 30
0.0
 10
99.3951388640401
 20
-124.9181171909928
 30
0.0
 10
99.3951388640401
 20
-124.8623077465624
 30
0.0
  0
SPLINE
  5
8A
330
1F
100
AcDbEntity
  8
_U+30EC_U+30A4_U+30E4_U+30FC 1
 62
     7
420
 16777215
370
     9
100
AcDbSpline
210
0.0
220
0.0
230
1.0
 70
    11
 71
     3
 72
    17
 73
    13
 74
     0
 42
0.0000000001
 43
0.0000000001
 12
1.0
 22
0.0
 32
0.0
 13
1.0
 23
0.0
 33
0.0
 40
0.0
 40
0.0
 40
0.0
 40
0.0
 40
1.0
 40
1.0
 40
1.0
 40
2.0
 40
2.0
 40
2.0
 40
3.0
 40
3.0
 40
3.0
 40
4.0
 40
4.0
 40
4.0
 40
4.0
 10
99.3951388640401
 20
-137.8623805210897
 30
0.0
 10
99.3951388640401
 20
-137.8072766322148
 30
0.0
 10
99.35104164182891
 20
-137.7624738544481
 30
0.0
 10
99.29593524452743
 20
-137.7624738544481
 30
0.0
 10
99.24079607926747
 20
-137.7624738544481
 30
0.0
 10
99.19599330263271
 20
-137.8072766322148
 30
0.0
 10
99.19599330263271
 20
-137.8623805210897
 30
0.0
 10
99.19599330263271
 20
-137.9175196877428
 30
0.0
 10
99.24079607926747
 20
-137.9622871877313
 30
0.0
 10
99.29593524452743
 20
-137.9622871877313
 30
0.0
 10
99.35104164182891
 20
-137.9622871877313
 30
0.0
 10
99.3951388640401
 20
-137.9175196877428
 30
0.0
 10
99.3951388640401
 20
-137.8623805210897
 30
0.0
  0
INSERT
  5
8C
330
1F
100
AcDbEntity
  8
_U+30EC_U+30A4_U+30E4_U+30FC 1
100
AcDbBlockReference
  2
block 2
 10
0.0
 20
0.0
 30
0.0
  0
POLYLINE
  5
94
330
1F
100
AcDbEntity
  8
_U+30EC_U+30A4_U+30E4_U+30FC 1
 62
     7
420
 16777215
370
     9
100
AcDb2dPolyline
 66
     1
 10
0.0
 20
0.0
 30
0.0
  0
VERTEX
  5
95
330
94
100
AcDbEntity
  8
_U+30EC_U+30A4_U+30E4_U+30FC 1
 62
     7
420
 16777215
370
     9
100
AcDbVertex
100
AcDb2dVertex
 10
77.29554941691514
 20
-115.8626996932564
 30
0.0
  0
VERTEX
  5
96
330
94
100
AcDbEntity
  8
_U+30EC_U+30A4_U+30E4_U+30FC 1
 62
     7
420
 16777215
370
     9
100
AcDbVertex
100
AcDb2dVertex
 10
101.2961499157199
 20
-115.8626996932564
 30
0.0
  0
SEQEND
  5
97
330
94
100
AcDbEntity
  8
_U+30EC_U+30A4_U+30E4_U+30FC 1
 62
     7
420
 16777215
370
     9
  0
POLYLINE
  5
98
330
1F
100
AcDbEntity
  8
_U+30EC_U+30A4_U+30E4_U+30FC 1
 62
     7
420
 16777215
370
     9
100
AcDb2dPolyline
 66
     1
 10
0.0
 20
0.0
 30
0.0
  0
VERTEX
  5
99
330
98
100
AcDbEntity
  8
_U+30EC_U+30A4_U+30E4_U+30FC 1
 62
     7
420
 16777215
370
     9
100
AcDbVertex
100
AcDb2dVertex
 10
77.39545608103298
 20
-118.3224780259748
 30
0.0
  0
VERTEX
  5
9A
330
98
100
AcDbEntity
  8
_U+30EC_U+30A4_U+30E4_U+30FC 1
 62
     7
420
 16777215
370
     9
100
AcDbVertex
100
AcDb2dVertex
 10
77.39545608103298
 20
-114.8622571935065
 30
0.0
  0
SEQEND
  5
9B
330
98
100
AcDbEntity
  8
_U+30EC_U+30A4_U+30E4_U+30FC 1
 62
     7
420
 16777215
370
     9
  0
POLYLINE
  5
9C
330
1F
100
AcDbEntity
  8
_U+30EC_U+30A4_U+30E4_U+30FC 1
 62
     7
420
 16777215
370
     9
100
AcDb2dPolyline
 66
     1
 10
0.0
 20
0.0
 30
0.0
  0
VERTEX
  5
9D
330
9C
100
AcDbEntity
  8
_U+30EC_U+30A4_U+30E4_U+30FC 1
 62
     7
420
 16777215
370
     9
100
AcDbVertex
100
AcDb2dVertex
 10
101.2961499157199
 20
-121.8227038584332
 30
0.0
  0
VERTEX
  5
9E
330
9C
100
AcDbEntity
  8
_U+30EC_U+30A4_U+30E4_U+30FC 1
 62
     7
420
 16777215
370
     9
100
AcDbVertex
100
AcDb2dVertex
 10
101.2961499157199
 20
-114.8622571935065
 30
0.0
  0
SEQEND
  5
9F
330
9C
100
AcDbEntity
  8
_U+30EC_U+30A4_U+30E4_U+30FC 1
 62
     7
420
 16777215
370
     9
  0
INSERT
  5
A1
330
1F
100
AcDbEntity
  8
_U+30EC_U+30A4_U+30E4_U+30FC 1
100
AcDbBlockReference
  2
block 3
 10
0.0
 20
0.0
 30
0.0
  0
POLYLINE
  5
BB
330
1F
100
AcDbEntity
  8
_U+30EC_U+30A4_U+30E4_U+30FC 1
 62
     7
420
 16777215
370
     9
100
AcDb2dPolyline
 66
     1
 10
0.0
 20
0.0
 30
0.0
  0
VERTEX
  5
BC
330
BB
100
AcDbEntity
  8
_U+30EC_U+30A4_U+30E4_U+30FC 1
 62
     7
420
 16777215
370
     9
100
AcDbVertex
100
AcDb2dVertex
 10
77.29554941691514
 20
-122.362206913854
 30
0.0
  0
VERTEX
  5
BD
330
BB
100
AcDbEntity
  8
_U+30EC_U+30A4_U+30E4_U+30FC 1
 62
     7
420
 16777215
370
     9
100
AcDbVertex
100
AcDb2dVertex
 10
81.06586386862232
 20
-122.362206913854
 30
0.0
  0
SEQEND
  5
BE
330
BB
100
AcDbEntity
  8
_U+30EC_U+30A4_U+30E4_U+30FC 1
 62
     7
420
 16777215
370
     9
  0
POLYLINE
  5
BF
330
1F
100
AcDbEntity
  8
_U+30EC_U+30A4_U+30E4_U+30FC 1
 62
     7
420
 16777215
370
     9
100
AcDb2dPolyline
 66
     1
 10
0.0
 20
0.0
 30
0.0
  0
VERTEX
  5
C0
330
BF
100
AcDbEntity
  8
_U+30EC_U+30A4_U+30E4_U+30FC 1
 62
     7
420
 16777215
370
     9
100
AcDbVertex
100
AcDb2dVertex
 10
75.29529946794577
 20
-122.362206913854
 30
0.0
  0
VERTEX
  5
C1
330
BF
100
AcDbEntity
  8
_U+30EC_U+30A4_U+30E4_U+30FC 1
 62
     7
420
 16777215
370
     9
100
AcDbVertex
100
AcDb2dVertex
 10
77.29554941691514
 20
-122.362206913854
 30
0.0
  0
SEQEND
  5
C2
330
BF
100
AcDbEntity
  8
_U+30EC_U+30A4_U+30E4_U+30FC 1
 62
     7
420
 16777215
370
     9
  0
INSERT
  5
C4
330
1F
100
AcDbEntity
  8
_U+30EC_U+30A4_U+30E4_U+30FC 1
100
AcDbBlockReference
  2
block 4
 10
0.0
 20
0.0
 30
0.0
  0
POLYLINE
  5
C9
330
1F
100
AcDbEntity
  8
_U+30EC_U+30A4_U+30E4_U+30FC 1
 62
     7
420
 16777215
370
     9
100
AcDb2dPolyline
 66
     1
 10
0.0
 20
0.0
 30
0.0
  0
VERTEX
  5
CA
330
C9
100
AcDbEntity
  8
_U+30EC_U+30A4_U+30E4_U+30FC 1
 62
     7
420
 16777215
370
     9
100
AcDbVertex
100
AcDb2dVertex
 10
71.39548234521617
 20
-138.8628582986178
 30
0.0
  0
VERTEX
  5
CB
330
C9
100
AcDbEntity
  8
_U+30EC_U+30A4_U+30E4_U+30FC 1
 62
     7
420
 16777215
370
     9
100
AcDbVertex
100
AcDb2dVertex
 10
71.39548234521617
 20
-119.8624588589233
 30
0.0
  0
SEQEND
  5
CC
330
C9
100
AcDbEntity
  8
_U+30EC_U+30A4_U+30E4_U+30FC 1
 62
     7
420
 16777215
370
     9
  0
POLYLINE
  5
CD
330
1F
100
AcDbEntity
  8
_U+30EC_U+30A4_U+30E4_U+30FC 1
 62
     7
420
 16777215
370
     9
100
AcDb2dPolyline
 66
     1
 10
0.0
 20
0.0
 30
0.0
  0
VERTEX
  5
CE
330
CD
100
AcDbEntity
  8
_U+30EC_U+30A4_U+30E4_U+30FC 1
 62
     7
420
 16777215
370
     9
100
AcDbVertex
100
AcDb2dVertex
 10
73.85526061579533
 20
-138.8628582986178
 30
0.0
  0
VERTEX
  5
CF
330
CD
100
AcDbEntity
  8
_U+30EC_U+30A4_U+30E4_U+30FC 1
 62
     7
420
 16777215
370
     9
100
AcDbVertex
100
AcDb2dVertex
 10
70.39571014850026
 20
-138.8628582986178
 30
0.0
  0
SEQEND
  5
D0
330
CD
100
AcDbEntity
  8
_U+30EC_U+30A4_U+30E4_U+30FC 1
 62
     7
420
 16777215
370
     9
  0
POLYLINE
  5
D1
330
1F
100
AcDbEntity
  8
_U+30EC_U+30A4_U+30E4_U+30FC 1
 62
     7
420
 16777215
370
     9
100
AcDb2dPolyline
 66
     1
 10
0.0
 20
0.0
 30
0.0
  0
VERTEX
  5
D2
330
D1
100
AcDbEntity
  8
_U+30EC_U+30A4_U+30E4_U+30FC 1
 62
     7
420
 16777215
370
     9
100
AcDbVertex
100
AcDb2dVertex
 10
73.85526061579533
 20
-119.8624588589233
 30
0.0
  0
VERTEX
  5
D3
330
D1
100
AcDbEntity
  8
_U+30EC_U+30A4_U+30E4_U+30FC 1
 62
     7
420
 16777215
370
     9
100
AcDbVertex
100
AcDb2dVertex
 10
70.39571014850026
 20
-119.8624588589233
 30
0.0
  0
SEQEND
  5
D4
330
D1
100
AcDbEntity
  8
_U+30EC_U+30A4_U+30E4_U+30FC 1
 62
     7
420
 16777215
370
     9
  0
INSERT
  5
D6
330
1F
100
AcDbEntity
  8
_U+30EC_U+30A4_U+30E4_U+30FC 1
100
AcDbBlockReference
  2
block 5
 10
0.0
 20
0.0
 30
0.0
  0
POLYLINE
  5
DE
330
1F
100
AcDbEntity
  8
_U+30EC_U+30A4_U+30E4_U+30FC 1
 62
     7
420
 16777215
370
     9
100
AcDb2dPolyline
 66
     1
 10
0.0
 20
0.0
 30
0.0
  0
VERTEX
  5
DF
330
DE
100
AcDbEntity
  8
_U+30EC_U+30A4_U+30E4_U+30FC 1
 62
     7
420
 16777215
370
     9
100
AcDbVertex
100
AcDb2dVertex
 10
76.29507166466168
 20
-142.8625821865065
 30
0.0
  0
VERTEX
  5
E0
330
DE
100
AcDbEntity
  8
_U+30EC_U+30A4_U+30E4_U+30FC 1
 62
     7
420
 16777215
370
     9
100
AcDbVertex
100
AcDb2dVertex
 10
95.29547062436555
 20
-142.8625821865065
 30
0.0
  0
SEQEND
  5
E1
330
DE
100
AcDbEntity
  8
_U+30EC_U+30A4_U+30E4_U+30FC 1
 62
     7
420
 16777215
370
     9
  0
POLYLINE
  5
E2
330
1F
100
AcDbEntity
  8
_U+30EC_U+30A4_U+30E4_U+30FC 1
 62
     7
420
 16777215
370
     9
100
AcDb2dPolyline
 66
     1
 10
0.0
 20
0.0
 30
0.0
  0
VERTEX
  5
E3
330
E2
100
AcDbEntity
  8
_U+30EC_U+30A4_U+30E4_U+30FC 1
 62
     7
420
 16777215
370
     9
100
AcDbVertex
100
AcDb2dVertex
 10
76.29507166466168
 20
-140.4028038537884
 30
0.0
  0
VERTEX
  5
E4
330
E2
100
AcDbEntity
  8
_U+30EC_U+30A4_U+30E4_U+30FC 1
 62
     7
420
 16777215
370
     9
100
AcDbVertex
100
AcDb2dVertex
 10
76.29507166466168
 20
-143.862354408479
 30
0.0
  0
SEQEND
  5
E5
330
E2
100
AcDbEntity
  8
_U+30EC_U+30A4_U+30E4_U+30FC 1
 62
     7
420
 16777215
370
     9
  0
POLYLINE
  5
E6
330
1F
100
AcDbEntity
  8
_U+30EC_U+30A4_U+30E4_U+30FC 1
 62
     7
420
 16777215
370
     9
100
AcDb2dPolyline
 66
     1
 10
0.0
 20
0.0
 30
0.0
  0
VERTEX
  5
E7
330
E6
100
AcDbEntity
  8
_U+30EC_U+30A4_U+30E4_U+30FC 1
 62
     7
420
 16777215
370
     9
100
AcDbVertex
100
AcDb2dVertex
 10
95.29547062436555
 20
-140.4028038537884
 30
0.0
  0
VERTEX
  5
E8
330
E6
100
AcDbEntity
  8
_U+30EC_U+30A4_U+30E4_U+30FC 1
 62
     7
420
 16777215
370
     9
100
AcDbVertex
100
AcDb2dVertex
 10
95.29547062436555
 20
-143.862354408479
 30
0.0
  0
SEQEND
  5
E9
330
E6
100
AcDbEntity
  8
_U+30EC_U+30A4_U+30E4_U+30FC 1
 62
     7
420
 16777215
370
     9
  0
INSERT
  5
EB
330
1F
100
AcDbEntity
  8
_U+30EC_U+30A4_U+30E4_U+30FC 1
100
AcDbBlockReference
  2
block 6
 10
0.0
 20
0.0
 30
0.0
  0
POLYLINE
  5
F3
330
1F
100
AcDbEntity
  8
_U+30EC_U+30A4_U+30E4_U+30FC 1
 62
     7
420
 16777215
370
     9
100
AcDb2dPolyline
 66
     1
 10
0.0
 20
0.0
 30
0.0
  0
VERTEX
  5
F4
330
F3
100
AcDbEntity
  8
_U+30EC_U+30A4_U+30E4_U+30FC 1
 62
     7
420
 16777215
370
     9
100
AcDbVertex
100
AcDb2dVertex
 10
99.29593524452743
 20
-137.8623805210897
 30
0.0
  0
VERTEX
  5
F5
330
F3
100
AcDbEntity
  8
_U+30EC_U+30A4_U+30E4_U+30FC 1
 62
     7
420
 16777215
370
     9
100
AcDbVertex
100
AcDb2dVertex
 10
99.29593524452743
 20
-124.8623077465624
 30
0.0
  0
SEQEND
  5
F6
330
F3
100
AcDbEntity
  8
_U+30EC_U+30A4_U+30E4_U+30FC 1
 62
     7
420
 16777215
370
     9
  0
POLYLINE
  5
F7
330
1F
100
AcDbEntity
  8
_U+30EC_U+30A4_U+30E4_U+30FC 1
 62
     7
420
 16777215
370
     9
100
AcDb2dPolyline
 66
     1
 10
0.0
 20
0.0
 30
0.0
  0
VERTEX
  5
F8
330
F7
100
AcDbEntity
  8
_U+30EC_U+30A4_U+30E4_U+30FC 1
 62
     7
420
 16777215
370
     9
100
AcDbVertex
100
AcDb2dVertex
 10
97.83518833734973
 20
-137.8623805210897
 30
0.0
  0
VERTEX
  5
F9
330
F7
100
AcDbEntity
  8
_U+30EC_U+30A4_U+30E4_U+30FC 1
 62
     7
420
 16777215
370
     9
100
AcDbVertex
100
AcDb2dVertex
 10
100.2956721634664
 20
-137.8623805210897
 30
0.0
  0
SEQEND
  5
FA
330
F7
100
AcDbEntity
  8
_U+30EC_U+30A4_U+30E4_U+30FC 1
 62
     7
420
 16777215
370
     9
  0
POLYLINE
  5
FB
330
1F
100
AcDbEntity
  8
_U+30EC_U+30A4_U+30E4_U+30FC 1
 62
     7
420
 16777215
370
     9
100
AcDb2dPolyline
 66
     1
 10
0.0
 20
0.0
 30
0.0
  0
VERTEX
  5
FC
330
FB
100
AcDbEntity
  8
_U+30EC_U+30A4_U+30E4_U+30FC 1
 62
     7
420
 16777215
370
     9
100
AcDbVertex
100
AcDb2dVertex
 10
97.83518833734973
 20
-124.8623077465624
 30
0.0
  0
VERTEX
  5
FD
330
FB
100
AcDbEntity
  8
_U+30EC_U+30A4_U+30E4_U+30FC 1
 62
     7
420
 16777215
370
     9
100
AcDbVertex
100
AcDb2dVertex
 10
100.2956721634664
 20
-124.8623077465624
 30
0.0
  0
SEQEND
  5
FE
330
FB
100
AcDbEntity
  8
_U+30EC_U+30A4_U+30E4_U+30FC 1
 62
     7
420
 16777215
370
     9
  0
INSERT
  5
100
330
1F
100
AcDbEntity
  8
_U+30EC_U+30A4_U+30E4_U+30FC 1
100
AcDbBlockReference
  2
block 7
 10
0.0
 20
0.0
 30
0.0
  0
POLYLINE
  5
107
330
1F
100
AcDbEntity
  8
_U+30EC_U+30A4_U+30E4_U+30FC 1
 62
   179
420
  2234388
370
     9
100
AcDb2dPolyline
 66
     1
 10
0.0
 20
0.0
 30
0.0
  0
VERTEX
  5
108
330
107
100
AcDbEntity
  8
_U+30EC_U+30A4_U+30E4_U+30FC 1
 62
   179
420
  2234388
370
     9
100
AcDbVertex
100
AcDb2dVertex
 10
95.82809449966608
 20
-139.6142044095406
 30
0.0
  0
VERTEX
  5
109
330
107
100
AcDbEntity
  8
_U+30EC_U+30A4_U+30E4_U+30FC 1
 62
   179
420
  2234388
370
     9
100
AcDbVertex
100
AcDb2dVertex
 10
97.60919889867077
 20
-142.4064757977315
 30
0.0
  0
VERTEX
  5
10A
330
107
100
AcDbEntity
  8
_U+30EC_U+30A4_U+30E4_U+30FC 1
 62
   179
420
  2234388
370
     9
100
AcDbVertex
100
AcDb2dVertex
 10
113.9692679257351
 20
-142.4064757977315
 30
0.0
  0
SEQEND
  5
10B
330
107
100
AcDbEntity
  8
_U+30EC_U+30A4_U+30E4_U+30FC 1
 62
   179
420
  2234388
370
     9
  0
INSERT
  5
10D
330
1F
100
AcDbEntity
  8
_U+30EC_U+30A4_U+30E4_U+30FC 1
100
AcDbBlockReference
  2
block 8
 10
0.0
 20
0.0
 30
0.0
  0
ENDSEC
  0
SECTION
  2
OBJECTS
  0
DICTIONARY
  5
C
330
0
100
AcDbDictionary
281
     1
  3
ACAD_GROUP
350
D
  3
ACAD_LAYOUT
350
1A
  3
ACAD_MATERIAL
350
3B
  3
ACAD_MLEADERSTYLE
350
14B
  3
ACAD_MLINESTYLE
350
17
  3
ACAD_PLOTSETTINGS
350
19
  3
ACAD_PLOTSTYLENAME
350
E
  3
ACAD_TABLESTYLE
350
14A
  3
ACAD_VISUALSTYLE
350
2A
  0
SUN
  5
3F
330
29
100
AcDbSun
 90
        1
290
     0
 63
     7
421
 16777215
 40
1.0
291
     1
 91
  2455826
 92
 54000000
292
     0
 70
     2
 71
   256
280
     1
  0
DICTIONARY
  5
D
102
{ACAD_REACTORS
330
C
102
}
330
C
100
AcDbDictionary
281
     1
  0
DICTIONARY
  5
1A
102
{ACAD_REACTORS
330
C
102
}
330
C
100
AcDbDictionary
281
     1
  3
Layout1
350
1E
  3
Layout2
350
26
  3
Model
350
22
  0
DICTIONARY
  5
3B
102
{ACAD_REACTORS
330
C
102
}
330
C
100
AcDbDictionary
281
     1
  3
ByBlock
350
3D
  3
ByLayer
350
3C
  3
Global
350
3E
  0
DICTIONARY
  5
14B
102
{ACAD_REACTORS
330
C
102
}
330
C
100
AcDbDictionary
281
     1
  0
DICTIONARY
  5
17
102
{ACAD_REACTORS
330
C
102
}
330
C
100
AcDbDictionary
281
     1
  3
Standard
350
18
  0
DICTIONARY
  5
19
102
{ACAD_REACTORS
330
C
102
}
330
C
100
AcDbDictionary
281
     1
  0
ACDBDICTIONARYWDFLT
  5
E
102
{ACAD_REACTORS
330
C
102
}
330
C
100
AcDbDictionary
281
     1
  3
Normal
350
F
100
AcDbDictionaryWithDefault
340
F
  0
DICTIONARY
  5
14A
102
{ACAD_REACTORS
330
C
102
}
330
C
100
AcDbDictionary
281
     1
  0
DICTIONARY
  5
2A
102
{ACAD_REACTORS
330
C
102
}
330
C
100
AcDbDictionary
281
     1
  3
2dWireframe
350
2F
  3
3D Hidden
350
31
  3
3dWireframe
350
30
  3
Basic
350
32
  3
Brighten
350
36
  3
ColorChange
350
3A
  3
Conceptual
350
34
  3
Dim
350
35
  3
Facepattern
350
39
  3
Flat
350
2B
  3
FlatWithEdges
350
2C
  3
Gouraud
350
2D
  3
GouraudWithEdges
350
2E
  3
Linepattern
350
38
  3
Realistic
350
33
  3
Thicken
350
37
  0
LAYOUT
  5
1E
102
{ACAD_REACTORS
330
1A
102
}
330
1A
100
AcDbPlotSettings
  1

  2
none_device
  4

  6

 40
0.0
 41
0.0
 42
0.0
 43
0.0
 44
0.0
 45
0.0
 46
0.0
 47
0.0
 48
0.0
 49
0.0
140
0.0
141
0.0
142
1.0
143
1.0
 70
   688
 72
     0
 73
     0
 74
     5
  7

 75
    16
 76
     0
 77
     2
 78
   300
147
1.0
148
0.0
149
0.0
100
AcDbLayout
  1
Layout1
 70
     1
 71
     1
 10
0.0
 20
0.0
 11
12.0
 21
9.0
 12
0.0
 22
0.0
 32
0.0
 14
1.000000000000000E+20
 24
1.000000000000000E+20
 34
1.000000000000000E+20
 15
-1.000000000000000E+20
 25
-1.000000000000000E+20
 35
-1.000000000000000E+20
146
0.0
 13
0.0
 23
0.0
 33
0.0
 16
1.0
 26
0.0
 36
0.0
 17
0.0
 27
1.0
 37
0.0
 76
     0
330
1B
  0
LAYOUT
  5
26
102
{ACAD_REACTORS
330
1A
102
}
330
1A
100
AcDbPlotSettings
  1

  2
none_device
  4

  6

 40
0.0
 41
0.0
 42
0.0
 43
0.0
 44
0.0
 45
0.0
 46
0.0
 47
0.0
 48
0.0
 49
0.0
140
0.0
141
0.0
142
1.0
143
1.0
 70
   688
 72
     0
 73
     0
 74
     5
  7

 75
    16
 76
     0
 77
     2
 78
   300
147
1.0
148
0.0
149
0.0
100
AcDbLayout
  1
Layout2
 70
     1
 71
     2
 10
0.0
 20
0.0
 11
0.0
 21
0.0
 12
0.0
 22
0.0
 32
0.0
 14
0.0
 24
0.0
 34
0.0
 15
0.0
 25
0.0
 35
0.0
146
0.0
 13
0.0
 23
0.0
 33
0.0
 16
1.0
 26
0.0
 36
0.0
 17
0.0
 27
1.0
 37
0.0
 76
     0
330
23
  0
LAYOUT
  5
22
102
{ACAD_REACTORS
330
1A
102
}
330
1A
100
AcDbPlotSettings
  1

  2
none_device
  4

  6

 40
0.0
 41
0.0
 42
0.0
 43
0.0
 44
0.0
 45
0.0
 46
0.0
 47
0.0
 48
0.0
 49
0.0
140
0.0
141
0.0
142
1.0
143
1.0
 70
  1712
 72
     0
 73
     0
 74
     0
  7

 75
     0
 76
     0
 77
     2
 78
   300
147
1.0
148
0.0
149
0.0
100
AcDbLayout
  1
Model
 70
     1
 71
     0
 10
0.0
 20
0.0
 11
12.0
 21
9.0
 12
0.0
 22
0.0
 32
0.0
 14
1.000000000000000E+20
 24
1.000000000000000E+20
 34
1.000000000000000E+20
 15
-1.000000000000000E+20
 25
-1.000000000000000E+20
 35
-1.000000000000000E+20
146
0.0
 13
0.0
 23
0.0
 33
0.0
 16
1.0
 26
0.0
 36
0.0
 17
0.0
 27
1.0
 37
0.0
 76
     0
330
1F
331
29
  0
MATERIAL
  5
3D
102
{ACAD_REACTORS
330
3B
102
}
330
3B
100
AcDbMaterial
  1
ByBlock
 72
     1
 94
      127
  0
MATERIAL
  5
3C
102
{ACAD_REACTORS
330
3B
102
}
330
3B
100
AcDbMaterial
  1
ByLayer
 72
     1
 94
      127
  0
MATERIAL
  5
3E
102
{ACAD_REACTORS
330
3B
102
}
330
3B
100
AcDbMaterial
  1
Global
 72
     1
 94
      127
  0
MLINESTYLE
  5
18
102
{ACAD_REACTORS
330
17
102
}
330
17
100
AcDbMlineStyle
  2
Standard
 70
     0
  3

 62
   256
 51
90.0
 52
90.0
 71
     2
 49
0.5
 62
   256
  6
BYLAYER
 49
-0.5
 62
   256
  6
BYLAYER
  0
ACDBPLACEHOLDER
  5
F
102
{ACAD_REACTORS
330
E
102
}
330
E
  0
VISUALSTYLE
  5
2F
102
{ACAD_REACTORS
330
2A
102
}
330
2A
100
AcDbVisualStyle
  2
2dWireframe
 70
     4
177
     2
291
     0
 71
     0
176
     1
 72
     2
176
     1
 73
     0
176
     1
 90
        0
176
     1
 40
-0.6
176
     1
 41
-30.0
176
     1
 62
     5
 63
     7
421
 16777215
176
     1
 74
     1
176
     1
 91
        4
176
     1
 64
     7
176
     1
 65
   257
176
     1
 75
     1
176
     1
175
     1
176
     1
 42
1.0
176
     1
 92
        0
176
     1
 66
   257
176
     1
 43
1.0
176
     1
 76
     1
176
     1
 77
     6
176
     1
 78
     2
176
     1
 67
     7
176
     1
 79
     5
176
     1
170
     0
176
     1
171
     0
176
     1
290
     0
176
     1
 93
        1
176
     1
 44
0.0
176
     1
173
     0
176
     1
  0
VISUALSTYLE
  5
31
102
{ACAD_REACTORS
330
2A
102
}
330
2A
100
AcDbVisualStyle
  2
3D Hidden
 70
     6
177
     2
291
     0
 71
     1
176
     1
 72
     2
176
     1
 73
     2
176
     1
 90
        0
176
     1
 40
-0.6
176
     1
 41
-30.0
176
     1
 62
     5
 63
     7
421
 16777215
176
     1
 74
     2
176
     1
 91
        2
176
     1
 64
     7
176
     1
 65
   257
176
     1
 75
     2
176
     1
175
     1
176
     1
 42
40.0
176
     1
 92
        0
176
     1
 66
   257
176
     1
 43
1.0
176
     1
 76
     1
176
     1
 77
     6
176
     1
 78
     2
176
     1
 67
     7
176
     1
 79
     3
176
     1
170
     0
176
     1
171
     0
176
     1
290
     0
176
     1
 93
        1
176
     1
 44
0.0
176
     1
173
     0
176
     1
  0
VISUALSTYLE
  5
30
102
{ACAD_REACTORS
330
2A
102
}
330
2A
100
AcDbVisualStyle
  2
3dWireframe
 70
     5
177
     2
291
     0
 71
     0
176
     1
 72
     2
176
     1
 73
     0
176
     1
 90
        0
176
     1
 40
-0.6
176
     1
 41
-30.0
176
     1
 62
     5
 63
     7
421
 16777215
176
     1
 74
     1
176
     1
 91
        4
176
     1
 64
     7
176
     1
 65
   257
176
     1
 75
     1
176
     1
175
     1
176
     1
 42
1.0
176
     1
 92
        0
176
     1
 66
   257
176
     1
 43
1.0
176
     1
 76
     1
176
     1
 77
     6
176
     1
 78
     2
176
     1
 67
     7
176
     1
 79
     5
176
     1
170
     0
176
     1
171
     0
176
     1
290
     0
176
     1
 93
        1
176
     1
 44
0.0
176
     1
173
     0
176
     1
  0
VISUALSTYLE
  5
32
102
{ACAD_REACTORS
330
2A
102
}
330
2A
100
AcDbVisualStyle
  2
Basic
 70
     7
177
     2
291
     1
 71
     1
176
     1
 72
     0
176
     1
 73
     1
176
     1
 90
        0
176
     1
 40
-0.6
176
     1
 41
-30.0
176
     1
 62
     5
 63
     7
421
 16777215
176
     1
 74
     0
176
     1
 91
        4
176
     1
 64
     7
176
     1
 65
   257
176
     1
 75
     1
176
     1
175
     1
176
     1
 42
1.0
176
     1
 92
        8
176
     1
 66
     7
176
     1
 43
1.0
176
     1
 76
     1
176
     1
 77
     6
176
     1
 78
     2
176
     1
 67
     7
176
     1
 79
     5
176
     1
170
     0
176
     1
171
     0
176
     1
290
     0
176
     1
 93
        1
176
     1
 44
0.0
176
     1
173
     0
176
     1
  0
VISUALSTYLE
  5
36
102
{ACAD_REACTORS
330
2A
102
}
330
2A
100
AcDbVisualStyle
  2
Brighten
 70
    12
177
     2
291
     1
 71
     2
176
     1
 72
     2
176
     1
 73
     0
176
     1
 90
        0
176
     1
 40
-0.6
176
     1
 41
-30.0
176
     1
 62
     5
 63
     7
421
 16777215
176
     1
 74
     1
176
     1
 91
        4
176
     1
 64
     7
176
     1
 65
   257
176
     1
 75
     1
176
     1
175
     1
176
     1
 42
1.0
176
     1
 92
        8
176
     1
 66
     7
176
     1
 43
1.0
176
     1
 76
     1
176
     1
 77
     6
176
     1
 78
     2
176
     1
 67
     7
176
     1
 79
     5
176
     1
170
     0
176
     1
171
     0
176
     1
290
     0
176
     1
 93
        1
176
     1
 44
50.0
176
     1
173
     0
176
     1
  0
VISUALSTYLE
  5
3A
102
{ACAD_REACTORS
330
2A
102
}
330
2A
100
AcDbVisualStyle
  2
ColorChange
 70
    16
177
     2
291
     1
 71
     2
176
     1
 72
     2
176
     1
 73
     3
176
     1
 90
        0
176
     1
 40
-0.6
176
     1
 41
-30.0
176
     1
 62
     5
 63
     8
421
  8421504
176
     1
 74
     1
176
     1
 91
        4
176
     1
 64
     7
176
     1
 65
   257
176
     1
 75
     1
176
     1
175
     1
176
     1
 42
1.0
176
     1
 92
        8
176
     1
 66
     8
424
  8421504
176
     1
 43
1.0
176
     1
 76
     1
176
     1
 77
     6
176
     1
 78
     2
176
     1
 67
     7
176
     1
 79
     5
176
     1
170
     0
176
     1
171
     0
176
     1
290
     0
176
     1
 93
        1
176
     1
 44
0.0
176
     1
173
     0
176
     1
  0
VISUALSTYLE
  5
34
102
{ACAD_REACTORS
330
2A
102
}
330
2A
100
AcDbVisualStyle
  2
Conceptual
 70
     9
177
     2
291
     0
 71
     3
176
     1
 72
     2
176
     1
 73
     0
176
     1
 90
        0
176
     1
 40
-0.6
176
     1
 41
-30.0
176
     1
 62
     5
 63
     7
421
 16777215
176
     1
 74
     2
176
     1
 91
        2
176
     1
 64
     7
176
     1
 65
   257
176
     1
 75
     1
176
     1
175
     1
176
     1
 42
40.0
176
     1
 92
        8
176
     1
 66
     7
176
     1
 43
1.0
176
     1
 76
     1
176
     1
 77
     6
176
     1
 78
     2
176
     1
 67
     7
176
     1
 79
     3
176
     1
170
     0
176
     1
171
     0
176
     1
290
     0
176
     1
 93
        1
176
     1
 44
0.0
176
     1
173
     0
176
     1
  0
VISUALSTYLE
  5
35
102
{ACAD_REACTORS
330
2A
102
}
330
2A
100
AcDbVisualStyle
  2
Dim
 70
    11
177
     2
291
     1
 71
     2
176
     1
 72
     2
176
     1
 73
     0
176
     1
 90
        0
176
     1
 40
-0.6
176
     1
 41
-30.0
176
     1
 62
     5
 63
     7
421
 16777215
176
     1
 74
     1
176
     1
 91
        4
176
     1
 64
     7
176
     1
 65
   257
176
     1
 75
     1
176
     1
175
     1
176
     1
 42
1.0
176
     1
 92
        8
176
     1
 66
     7
176
     1
 43
1.0
176
     1
 76
     1
176
     1
 77
     6
176
     1
 78
     2
176
     1
 67
     7
176
     1
 79
     5
176
     1
170
     0
176
     1
171
     0
176
     1
290
     0
176
     1
 93
        1
176
     1
 44
-50.0
176
     1
173
     0
176
     1
  0
VISUALSTYLE
  5
39
102
{ACAD_REACTORS
330
2A
102
}
330
2A
100
AcDbVisualStyle
  2
Facepattern
 70
    15
177
     2
291
     1
 71
     2
176
     1
 72
     2
176
     1
 73
     0
176
     1
 90
        0
176
     1
 40
-0.6
176
     1
 41
-30.0
176
     1
 62
     5
 63
     7
421
 16777215
176
     1
 74
     1
176
     1
 91
        4
176
     1
 64
     7
176
     1
 65
   257
176
     1
 75
     1
176
     1
175
     1
176
     1
 42
1.0
176
     1
 92
        8
176
     1
 66
     7
176
     1
 43
1.0
176
     1
 76
     1
176
     1
 77
     6
176
     1
 78
     2
176
     1
 67
     7
176
     1
 79
     5
176
     1
170
     0
176
     1
171
     0
176
     1
290
     0
176
     1
 93
        1
176
     1
 44
0.0
176
     1
173
     0
176
     1
  0
VISUALSTYLE
  5
2B
102
{ACAD_REACTORS
330
2A
102
}
330
2A
100
AcDbVisualStyle
  2
Flat
 70
     0
177
     2
291
     1
 71
     2
176
     1
 72
     1
176
     1
 73
     1
176
     1
 90
        2
176
     1
 40
-0.6
176
     1
 41
30.0
176
     1
 62
     5
 63
     7
421
 16777215
176
     1
 74
     0
176
     1
 91
        4
176
     1
 64
     7
176
     1
 65
   257
176
     1
 75
     1
176
     1
175
     1
176
     1
 42
1.0
176
     1
 92
        8
176
     1
 66
     7
176
     1
 43
1.0
176
     1
 76
     1
176
     1
 77
     6
176
     1
 78
     2
176
     1
 67
     7
176
     1
 79
     5
176
     1
170
     0
176
     1
171
     0
176
     1
290
     0
176
     1
 93
       13
176
     1
 44
0.0
176
     1
173
     0
176
     1
  0
VISUALSTYLE
  5
2C
102
{ACAD_REACTORS
330
2A
102
}
330
2A
100
AcDbVisualStyle
  2
FlatWithEdges
 70
     1
177
     2
291
     1
 71
     2
176
     1
 72
     1
176
     1
 73
     1
176
     1
 90
        2
176
     1
 40
-0.6
176
     1
 41
30.0
176
     1
 62
     5
 63
     7
421
 16777215
176
     1
 74
     1
176
     1
 91
        4
176
     1
 64
     7
176
     1
 65
   257
176
     1
 75
     1
176
     1
175
     1
176
     1
 42
1.0
176
     1
 92
        0
176
     1
 66
   257
176
     1
 43
1.0
176
     1
 76
     1
176
     1
 77
     6
176
     1
 78
     2
176
     1
 67
     7
176
     1
 79
     5
176
     1
170
     0
176
     1
171
     0
176
     1
290
     0
176
     1
 93
       13
176
     1
 44
0.0
176
     1
173
     0
176
     1
  0
VISUALSTYLE
  5
2D
102
{ACAD_REACTORS
330
2A
102
}
330
2A
100
AcDbVisualStyle
  2
Gouraud
 70
     2
177
     2
291
     1
 71
     2
176
     1
 72
     2
176
     1
 73
     1
176
     1
 90
        2
176
     1
 40
-0.6
176
     1
 41
30.0
176
     1
 62
     5
 63
     7
421
 16777215
176
     1
 74
     0
176
     1
 91
        4
176
     1
 64
     7
176
     1
 65
   257
176
     1
 75
     1
176
     1
175
     1
176
     1
 42
1.0
176
     1
 92
        0
176
     1
 66
     7
176
     1
 43
1.0
176
     1
 76
     1
176
     1
 77
     6
176
     1
 78
     2
176
     1
 67
     7
176
     1
 79
     5
176
     1
170
     0
176
     1
171
     0
176
     1
290
     0
176
     1
 93
       13
176
     1
 44
0.0
176
     1
173
     0
176
     1
  0
VISUALSTYLE
  5
2E
102
{ACAD_REACTORS
330
2A
102
}
330
2A
100
AcDbVisualStyle
  2
GouraudWithEdges
 70
     3
177
     2
291
     1
 71
     2
176
     1
 72
     2
176
     1
 73
     1
176
     1
 90
        2
176
     1
 40
-0.6
176
     1
 41
30.0
176
     1
 62
     5
 63
     7
421
 16777215
176
     1
 74
     1
176
     1
 91
        4
176
     1
 64
     7
176
     1
 65
   257
176
     1
 75
     1
176
     1
175
     1
176
     1
 42
1.0
176
     1
 92
        0
176
     1
 66
   257
176
     1
 43
1.0
176
     1
 76
     1
176
     1
 77
     6
176
     1
 78
     2
176
     1
 67
     7
176
     1
 79
     5
176
     1
170
     0
176
     1
171
     0
176
     1
290
     0
176
     1
 93
       13
176
     1
 44
0.0
176
     1
173
     0
176
     1
  0
VISUALSTYLE
  5
38
102
{ACAD_REACTORS
330
2A
102
}
330
2A
100
AcDbVisualStyle
  2
Linepattern
 70
    14
177
     2
291
     1
 71
     2
176
     1
 72
     2
176
     1
 73
     0
176
     1
 90
        0
176
     1
 40
-0.6
176
     1
 41
-30.0
176
     1
 62
     5
 63
     7
421
 16777215
176
     1
 74
     1
176
     1
 91
        4
176
     1
 64
     7
176
     1
 65
   257
176
     1
 75
     7
176
     1
175
     7
176
     1
 42
1.0
176
     1
 92
        8
176
     1
 66
     7
176
     1
 43
1.0
176
     1
 76
     1
176
     1
 77
     6
176
     1
 78
     2
176
     1
 67
     7
176
     1
 79
     5
176
     1
170
     0
176
     1
171
     0
176
     1
290
     0
176
     1
 93
        1
176
     1
 44
0.0
176
     1
173
     0
176
     1
  0
VISUALSTYLE
  5
33
102
{ACAD_REACTORS
330
2A
102
}
330
2A
100
AcDbVisualStyle
  2
Realistic
 70
     8
177
     2
291
     0
 71
     2
176
     1
 72
     2
176
     1
 73
     0
176
     1
 90
        0
176
     1
 40
-0.6
176
     1
 41
-30.0
176
     1
 62
     5
 63
     7
421
 16777215
176
     1
 74
     1
176
     1
 91
        0
176
     1
 64
     7
176
     1
 65
   257
176
     1
 75
     1
176
     1
175
     1
176
     1
 42
1.0
176
     1
 92
        8
176
     1
 66
     8
424
  7895160
176
     1
 43
1.0
176
     1
 76
     1
176
     1
 77
     6
176
     1
 78
     2
176
     1
 67
     7
176
     1
 79
     5
176
     1
170
     0
176
     1
171
     0
176
     1
290
     0
176
     1
 93
       13
176
     1
 44
0.0
176
     1
173
     0
176
     1
  0
VISUALSTYLE
  5
37
102
{ACAD_REACTORS
330
2A
102
}
330
2A
100
AcDbVisualStyle
  2
Thicken
 70
    13
177
     2
291
     1
 71
     2
176
     1
 72
     2
176
     1
 73
     0
176
     1
 90
        0
176
     1
 40
-0.6
176
     1
 41
-30.0
176
     1
 62
     5
 63
     7
421
 16777215
176
     1
 74
     1
176
     1
 91
        4
176
     1
 64
     7
176
     1
 65
   257
176
     1
 75
     1
176
     1
175
     1
176
     1
 42
1.0
176
     1
 92
       12
176
     1
 66
     7
176
     1
 43
1.0
176
     1
 76
     1
176
     1
 77
     6
176
     1
 78
     2
176
     1
 67
     7
176
     1
 79
     5
176
     1
170
     0
176
     1
171
     0
176
     1
290
     0
176
     1
 93
        1
176
     1
 44
0.0
176
     1
173
     0
176
     1
  0
ENDSEC
  0
EOF
