  0
SECTION
  2
HEADER
  9
$ACADVER
  1
AC1024
  9
$ACADMAINTVER
 70
     6
  9
$DWGCODEPAGE
  3
UNDEFINED
  9
$INSBASE
 10
0.0
 20
0.0
 30
0.0
  9
$EXTMIN
 10
1.000000000000000E+20
 20
1.000000000000000E+20
 30
1.000000000000000E+20
  9
$EXTMAX
 10
-1.000000000000000E+20
 20
-1.000000000000000E+20
 30
-1.000000000000000E+20
  9
$LIMMIN
 10
0.0
 20
0.0
  9
$LIMMAX
 10
12.0
 20
9.0
  9
$ORTHOMODE
 70
     0
  9
$REGENMODE
 70
     1
  9
$FILLMODE
 70
     1
  9
$QTEXTMODE
 70
     0
  9
$MIRRTEXT
 70
     1
  9
$LTSCALE
 40
1.0
  9
$ATTMODE
 70
     1
  9
$TEXTSIZE
 40
0.2
  9
$TRACEWID
 40
0.05
  9
$TEXTSTYLE
  7
Standard
  9
$CLAYER
  8
0
  9
$CELTYPE
  6
ByLayer
  9
$CECOLOR
 62
   256
  9
$CELTSCALE
 40
1.0
  9
$DISPSILH
 70
     0
  9
$DIMSCALE
 40
1.0
  9
$DIMASZ
 40
0.18
  9
$DIMEXO
 40
0.0625
  9
$DIMDLI
 40
0.38
  9
$DIMRND
 40
0.0
  9
$DIMDLE
 40
0.0
  9
$DIMEXE
 40
0.18
  9
$DIMTP
 40
0.0
  9
$DIMTM
 40
0.0
  9
$DIMTXT
 40
0.18
  9
$DIMCEN
 40
0.09
  9
$DIMTSZ
 40
0.0
  9
$DIMTOL
 70
     0
  9
$DIMLIM
 70
     0
  9
$DIMTIH
 70
     1
  9
$DIMTOH
 70
     1
  9
$DIMSE1
 70
     0
  9
$DIMSE2
 70
     0
  9
$DIMTAD
 70
     0
  9
$DIMZIN
 70
     0
  9
$DIMBLK
  1

  9
$DIMASO
 70
     1
  9
$DIMSHO
 70
     1
  9
$DIMPOST
  1

  9
$DIMAPOST
  1

  9
$DIMALT
 70
     0
  9
$DIMALTD
 70
     2
  9
$DIMALTF
 40
25.4
  9
$DIMLFAC
 40
1.0
  9
$DIMTOFL
 70
     0
  9
$DIMTVP
 40
0.0
  9
$DIMTIX
 70
     0
  9
$DIMSOXD
 70
     0
  9
$DIMSAH
 70
     0
  9
$DIMBLK1
  1

  9
$DIMBLK2
  1

  9
$DIMSTYLE
  2
Standard
  9
$DIMCLRD
 70
     0
  9
$DIMCLRE
 70
     0
  9
$DIMCLRT
 70
     0
  9
$DIMTFAC
 40
1.0
  9
$DIMGAP
 40
0.09
  9
$DIMJUST
 70
     0
  9
$DIMSD1
 70
     0
  9
$DIMSD2
 70
     0
  9
$DIMTOLJ
 70
     1
  9
$DIMTZIN
 70
     0
  9
$DIMALTZ
 70
     0
  9
$DIMALTTZ
 70
     0
  9
$DIMUPT
 70
     0
  9
$DIMDEC
 70
     4
  9
$DIMTDEC
 70
     4
  9
$DIMALTU
 70
     2
  9
$DIMALTTD
 70
     2
  9
$DIMTXSTY
  7
Standard
  9
$DIMAUNIT
 70
     0
  9
$DIMADEC
 70
     0
  9
$DIMALTRND
 40
0.0
  9
$DIMAZIN
 70
     0
  9
$DIMDSEP
 70
    46
  9
$DIMATFIT
 70
     3
  9
$DIMFRAC
 70
     0
  9
$DIMLDRBLK
  1

  9
$DIMLUNIT
 70
     2
  9
$DIMLWD
 70
    -2
  9
$DIMLWE
 70
    -2
  9
$DIMTMOVE
 70
     0
  9
$DIMFXL
 40
1.0
  9
$DIMFXLON
 70
     0
  9
$DIMJOGANG
 40
0.7853981633974483
  9
$DIMTFILL
 70
     0
  9
$DIMTFILLCLR
 70
     0
  9
$DIMARCSYM
 70
     0
  9
$DIMLTYPE
  6

  9
$DIMLTEX1
  6

  9
$DIMLTEX2
  6

  9
$DIMTXTDIRECTION
 70
     0
  9
$LUNITS
 70
     2
  9
$LUPREC
 70
     4
  9
$SKETCHINC
 40
0.1
  9
$FILLETRAD
 40
0.5
  9
$AUNITS
 70
     0
  9
$AUPREC
 70
     0
  9
$MENU
  1
.
  9
$ELEVATION
 40
0.0
  9
$PELEVATION
 40
0.0
  9
$THICKNESS
 40
0.0
  9
$LIMCHECK
 70
     0
  9
$CHAMFERA
 40
0.5
  9
$CHAMFERB
 40
0.5
  9
$CHAMFERC
 40
1.0
  9
$CHAMFERD
 40
0.0
  9
$SKPOLY
 70
     0
  9
$TDCREATE
 40
2457917.599652778
  9
$TDUCREATE
 40
2457917.224652778
  9
$TDUPDATE
 40
2457917.599652778
  9
$TDUUPDATE
 40
2457917.224652778
  9
$TDINDWG
 40
0.0000000116
  9
$TDUSRTIMER
 40
0.0000000116
  9
$USRTIMER
 70
     1
  9
$ANGBASE
 50
0.0
  9
$ANGDIR
 70
     0
  9
$PDMODE
 70
     0
  9
$PDSIZE
 40
0.0
  9
$PLINEWID
 40
0.0
  9
$SPLFRAME
 70
     0
  9
$SPLINETYPE
 70
     6
  9
$SPLINESEGS
 70
     8
  9
$HANDSEED
  5
13A
  9
$SURFTAB1
 70
     6
  9
$SURFTAB2
 70
     6
  9
$SURFTYPE
 70
     6
  9
$SURFU
 70
     6
  9
$SURFV
 70
     6
  9
$UCSBASE
  2

  9
$UCSNAME
  2

  9
$UCSORG
 10
0.0
 20
0.0
 30
0.0
  9
$UCSXDIR
 10
1.0
 20
0.0
 30
0.0
  9
$UCSYDIR
 10
0.0
 20
1.0
 30
0.0
  9
$UCSORTHOREF
  2

  9
$UCSORTHOVIEW
 70
     0
  9
$UCSORGTOP
 10
0.0
 20
0.0
 30
0.0
  9
$UCSORGBOTTOM
 10
0.0
 20
0.0
 30
0.0
  9
$UCSORGLEFT
 10
0.0
 20
0.0
 30
0.0
  9
$UCSORGRIGHT
 10
0.0
 20
0.0
 30
0.0
  9
$UCSORGFRONT
 10
0.0
 20
0.0
 30
0.0
  9
$UCSORGBACK
 10
0.0
 20
0.0
 30
0.0
  9
$PUCSBASE
  2

  9
$PUCSNAME
  2

  9
$PUCSORG
 10
0.0
 20
0.0
 30
0.0
  9
$PUCSXDIR
 10
1.0
 20
0.0
 30
0.0
  9
$PUCSYDIR
 10
0.0
 20
1.0
 30
0.0
  9
$PUCSORTHOREF
  2

  9
$PUCSORTHOVIEW
 70
     0
  9
$PUCSORGTOP
 10
0.0
 20
0.0
 30
0.0
  9
$PUCSORGBOTTOM
 10
0.0
 20
0.0
 30
0.0
  9
$PUCSORGLEFT
 10
0.0
 20
0.0
 30
0.0
  9
$PUCSORGRIGHT
 10
0.0
 20
0.0
 30
0.0
  9
$PUCSORGFRONT
 10
0.0
 20
0.0
 30
0.0
  9
$PUCSORGBACK
 10
0.0
 20
0.0
 30
0.0
  9
$USERI1
 70
     0
  9
$USERI2
 70
     0
  9
$USERI3
 70
     0
  9
$USERI4
 70
     0
  9
$USERI5
 70
     0
  9
$USERR1
 40
0.0
  9
$USERR2
 40
0.0
  9
$USERR3
 40
0.0
  9
$USERR4
 40
0.0
  9
$USERR5
 40
0.0
  9
$WORLDVIEW
 70
     1
  9
$SHADEDGE
 70
     3
  9
$SHADEDIF
 70
    70
  9
$TILEMODE
 70
     1
  9
$MAXACTVP
 70
    64
  9
$PINSBASE
 10
0.0
 20
0.0
 30
0.0
  9
$PLIMCHECK
 70
     0
  9
$PEXTMIN
 10
1.000000000000000E+20
 20
1.000000000000000E+20
 30
1.000000000000000E+20
  9
$PEXTMAX
 10
-1.000000000000000E+20
 20
-1.000000000000000E+20
 30
-1.000000000000000E+20
  9
$PLIMMIN
 10
0.0
 20
0.0
  9
$PLIMMAX
 10
12.0
 20
9.0
  9
$UNITMODE
 70
     0
  9
$VISRETAIN
 70
     1
  9
$PLINEGEN
 70
     0
  9
$PSLTSCALE
 70
     1
  9
$TREEDEPTH
 70
  3020
  9
$CMLSTYLE
  2
Standard
  9
$CMLJUST
 70
     0
  9
$CMLSCALE
 40
1.0
  9
$PROXYGRAPHICS
 70
     1
  9
$MEASUREMENT
 70
     0
  9
$CELWEIGHT
370
    -1
  9
$ENDCAPS
280
     0
  9
$JOINSTYLE
280
     0
  9
$LWDISPLAY
290
     1
  9
$INSUNITS
 70
     1
  9
$HYPERLINKBASE
  1

  9
$STYLESHEET
  1

  9
$XEDIT
290
     1
  9
$CEPSNTYPE
380
     0
  9
$PSTYLEMODE
290
     1
  9
$FINGERPRINTGUID
  2
{530C6306-8F1F-8176-459D-46B523B80AF4}
  9
$VERSIONGUID
  2
{FAEB1C32-E019-11D5-929B-00C0DF256EC4}
  9
$EXTNAMES
290
     1
  9
$PSVPSCALE
 40
0.0
  9
$OLESTARTUP
290
     0
  9
$SORTENTS
280
   127
  9
$INDEXCTL
280
     0
  9
$HIDETEXT
280
     1
  9
$XCLIPFRAME
280
     2
  9
$HALOGAP
280
     0
  9
$OBSCOLOR
 70
   257
  9
$OBSLTYPE
280
     0
  9
$INTERSECTIONDISPLAY
280
     0
  9
$INTERSECTIONCOLOR
 70
   257
  9
$DIMASSOC
280
     2
  9
$PROJECTNAME
  1

  9
$CAMERADISPLAY
290
     0
  9
$LENSLENGTH
 40
50.0
  9
$CAMERAHEIGHT
 40
0.0
  9
$STEPSPERSEC
 40
2.0
  9
$STEPSIZE
 40
6.0
  9
$3DDWFPREC
 40
2.0
  9
$PSOLWIDTH
 40
0.25
  9
$PSOLHEIGHT
 40
4.0
  9
$LOFTANG1
 40
1.570796326794897
  9
$LOFTANG2
 40
1.570796326794897
  9
$LOFTMAG1
 40
0.0
  9
$LOFTMAG2
 40
0.0
  9
$LOFTPARAM
 70
     7
  9
$LOFTNORMALS
280
     1
  9
$LATITUDE
 40
37.795
  9
$LONGITUDE
 40
-122.394
  9
$NORTHDIRECTION
 40
0.0
  9
$TIMEZONE
 70
 -8000
  9
$LIGHTGLYPHDISPLAY
280
     1
  9
$TILEMODELIGHTSYNCH
280
     1
  9
$CMATERIAL
347
3C
  9
$SOLIDHIST
280
     1
  9
$SHOWHIST
280
     1
  9
$DWFFRAME
280
     2
  9
$DGNFRAME
280
     2
  9
$REALWORLDSCALE
290
     1
  9
$INTERFERECOLOR
 62
   256
  9
$CSHADOW
280
     0
  9
$SHADOWPLANELOCATION
 40
0.0
  0
ENDSEC
  0
SECTION
  2
CLASSES
  0
CLASS
  1
ACDBDICTIONARYWDFLT
  2
AcDbDictionaryWithDefault
  3
ObjectDBX Classes
 90
        0
 91
        4
280
     0
281
     0
  0
CLASS
  1
VISUALSTYLE
  2
AcDbVisualStyle
  3
ObjectDBX Classes
 90
     4095
 91
        4
280
     0
281
     0
  0
CLASS
  1
MATERIAL
  2
AcDbMaterial
  3
ObjectDBX Classes
 90
     1153
 91
        4
280
     0
281
     0
  0
CLASS
  1
SUN
  2
AcDbSun
  3
SCENEOE
 90
     1024
 91
        4
280
     0
281
     0
  0
ENDSEC
  0
SECTION
  2
TABLES
  0
TABLE
  2
VPORT
  5
8
330
0
100
AcDbSymbolTable
 70
     1
  0
VPORT
  5
29
330
8
100
AcDbSymbolTableRecord
100
AcDbViewportTableRecord
  2
*Active
 70
     0
 10
0.0
 20
0.0
 11
1.0
 21
1.0
 12
0.0
 22
0.0
 13
0.0
 23
0.0
 14
0.5
 24
0.5
 15
0.5
 25
0.5
 16
0.0
 26
0.0
 36
1.0
 17
91.00082462281999
 27
-128.4993055234307
 37
0.0
 40
256.9986110468615
 41
0.7081814508812795
 42
50.0
 43
0.0
 44
0.0
 50
0.0
 51
0.0
 71
     0
 72
   100
 73
     1
 74
     3
 75
     0
 76
     0
 77
     0
 78
     0
281
     0
 65
     1
110
0.0
120
0.0
130
0.0
111
1.0
121
0.0
131
0.0
112
0.0
122
1.0
132
0.0
 79
     0
146
0.0
 60
     3
 61
     5
292
     1
282
     1
141
0.0
142
0.0
 63
   250
361
3F
  0
ENDTAB
  0
TABLE
  2
LTYPE
  5
5
330
0
100
AcDbSymbolTable
 70
     2
  0
LTYPE
  5
14
330
5
100
AcDbSymbolTableRecord
100
AcDbLinetypeTableRecord
  2
ByBlock
 70
     0
  3

 72
    65
 73
     0
 40
0.0
  0
LTYPE
  5
15
330
5
100
AcDbSymbolTableRecord
100
AcDbLinetypeTableRecord
  2
ByLayer
 70
     0
  3

 72
    65
 73
     0
 40
0.0
  0
LTYPE
  5
16
330
5
100
AcDbSymbolTableRecord
100
AcDbLinetypeTableRecord
  2
Continuous
 70
     0
  3
Solid line
 72
    65
 73
     0
 40
0.0
  0
LTYPE
  5
47
330
5
100
AcDbSymbolTableRecord
100
AcDbLinetypeTableRecord
  2
AI-Linetype-1
 70
     0
  3
Adobe Illustrator Linetype No. 1
 72
    65
 73
     2
 40
1.411111110758333
 49
0.7055555553791667
 74
     0
 49
-0.7055555553791667
 74
     0
  0
ENDTAB
  0
TABLE
  2
LAYER
  5
2
330
0
100
AcDbSymbolTable
 70
     2
  0
LAYER
  5
10
330
2
100
AcDbSymbolTableRecord
100
AcDbLayerTableRecord
  2
0
 70
     0
 62
     7
  6
Continuous
370
    -3
390
F
347
3E
  0
LAYER
  5
40
330
2
100
AcDbSymbolTableRecord
100
AcDbLayerTableRecord
  2
_U+30EC_U+30A4_U+30E4_U+30FC 1
 70
     0
 62
     7
  6
Continuous
370
    -3
390
F
347
3E
  0
ENDTAB
  0
TABLE
  2
STYLE
  5
3
330
0
100
AcDbSymbolTable
 70
     1
  0
STYLE
  5
11
330
3
100
AcDbSymbolTableRecord
100
AcDbTextStyleTableRecord
  2
Standard
 70
     0
 40
0.0
 41
1.0
 50
0.0
 71
     0
 42
0.2
  3
txt
  4

  0
ENDTAB
  0
TABLE
  2
VIEW
  5
6
330
0
100
AcDbSymbolTable
 70
     0
  0
ENDTAB
  0
TABLE
  2
UCS
  5
7
330
0
100
AcDbSymbolTable
 70
     0
  0
ENDTAB
  0
TABLE
  2
APPID
  5
9
330
0
100
AcDbSymbolTable
 70
     1
  0
APPID
  5
12
330
9
100
AcDbSymbolTableRecord
100
AcDbRegAppTableRecord
  2
ACAD
 70
     0
  0
ENDTAB
  0
TABLE
  2
DIMSTYLE
  5
A
330
0
100
AcDbSymbolTable
 70
     1
100
AcDbDimStyleTable
  0
DIMSTYLE
105
27
330
A
100
AcDbSymbolTableRecord
100
AcDbDimStyleTableRecord
  2
Standard
 70
     0
178
     0
340
11
  0
ENDTAB
  0
TABLE
  2
BLOCK_RECORD
  5
1
330
0
100
AcDbSymbolTable
 70
     8
  0
BLOCK_RECORD
  5
1F
330
1
100
AcDbSymbolTableRecord
100
AcDbBlockTableRecord
  2
*Model_Space
340
22
 70
     0
280
     1
281
     0
  0
BLOCK_RECORD
  5
1B
330
1
100
AcDbSymbolTableRecord
100
AcDbBlockTableRecord
  2
*Paper_Space
340
1E
 70
     0
280
     1
281
     0
  0
BLOCK_RECORD
  5
23
330
1
100
AcDbSymbolTableRecord
100
AcDbBlockTableRecord
  2
*Paper_Space0
340
26
 70
     0
280
     1
281
     0
  0
BLOCK_RECORD
  5
8B
330
1
100
AcDbSymbolTableRecord
100
AcDbBlockTableRecord
  2
block 2
340
0
102
{BLKREFS
331
8C
102
}
 70
     0
280
     1
281
     0
  0
BLOCK_RECORD
  5
A0
330
1
100
AcDbSymbolTableRecord
100
AcDbBlockTableRecord
  2
block 3
340
0
102
{BLKREFS
331
A1
102
}
 70
     0
280
     1
281
     0
  0
BLOCK_RECORD
  5
B0
330
1
100
AcDbSymbolTableRecord
100
AcDbBlockTableRecord
  2
block 4
340
0
102
{BLKREFS
331
B1
102
}
 70
     0
280
     1
281
     0
  0
BLOCK_RECORD
  5
C2
330
1
100
AcDbSymbolTableRecord
100
AcDbBlockTableRecord
  2
block 5
340
0
102
{BLKREFS
331
C3
102
}
 70
     0
280
     1
281
     0
  0
BLOCK_RECORD
  5
D7
330
1
100
AcDbSymbolTableRecord
100
AcDbBlockTableRecord
  2
block 6
340
0
102
{BLKREFS
331
D8
102
}
 70
     0
280
     1
281
     0
  0
BLOCK_RECORD
  5
EC
330
1
100
AcDbSymbolTableRecord
100
AcDbBlockTableRecord
  2
block 7
340
0
102
{BLKREFS
331
ED
102
}
 70
     0
280
     1
281
     0
  0
BLOCK_RECORD
  5
FA
330
1
100
AcDbSymbolTableRecord
100
AcDbBlockTableRecord
  2
block 8
340
0
102
{BLKREFS
331
FB
102
}
 70
     0
280
     1
281
     0
  0
ENDTAB
  0
ENDSEC
  0
SECTION
  2
BLOCKS
  0
BLOCK
  5
20
330
1F
100
AcDbEntity
  8
0
100
AcDbBlockBegin
  2
*Model_Space
 70
     0
 10
0.0
 20
0.0
 30
0.0
  3
*Model_Space
  1

  0
ENDBLK
  5
21
330
1F
100
AcDbEntity
  8
0
100
AcDbBlockEnd
  0
BLOCK
  5
1C
330
1B
100
AcDbEntity
 67
     1
  8
0
100
AcDbBlockBegin
  2
*Paper_Space
 70
     0
 10
0.0
 20
0.0
 30
0.0
  3
*Paper_Space
  1

  0
ENDBLK
  5
1D
330
1B
100
AcDbEntity
 67
     1
  8
0
100
AcDbBlockEnd
  0
BLOCK
  5
24
330
23
100
AcDbEntity
  8
0
100
AcDbBlockBegin
  2
*Paper_Space0
 70
     0
 10
0.0
 20
0.0
 30
0.0
  3
*Paper_Space0
  1

  0
ENDBLK
  5
25
330
23
100
AcDbEntity
  8
0
100
AcDbBlockEnd
  0
BLOCK
  5
8D
330
8B
100
AcDbEntity
  8
0
100
AcDbBlockBegin
  2
block 2
 70
     0
 10
0.0
 20
0.0
 30
0.0
  3
block 2
  1

  0
SPLINE
  5
8F
330
8B
100
AcDbEntity
  8
_U+30EC_U+30A4_U+30E4_U+30FC 1
370
     0
100
AcDbSpline
210
0.0
220
0.0
230
1.0
 70
    11
 71
     3
 72
    26
 73
    22
 74
     0
 42
0.0000000001
 43
0.0000000001
 12
1.0
 22
0.0
 32
0.0
 13
1.0
 23
0.0
 33
0.0
 40
0.0
 40
0.0
 40
0.0
 40
0.0
 40
1.0
 40
1.0
 40
1.0
 40
2.0
 40
2.0
 40
2.0
 40
3.0
 40
3.0
 40
3.0
 40
4.0
 40
4.0
 40
4.0
 40
5.0
 40
5.0
 40
5.0
 40
6.0
 40
6.0
 40
6.0
 40
7.0
 40
7.0
 40
7.0
 40
7.0
 10
70.03724092216083
 20
-140.3049587322849
 30
0.0
 10
70.03724092216083
 20
-140.3049587322849
 30
0.0
 10
70.03724092216083
 20
-139.2008056292623
 30
0.0
 10
70.03724092216083
 20
-139.2008056292623
 30
0.0
 10
70.03724092216083
 20
-139.2008056292623
 30
0.0
 10
69.68446314447125
 20
-139.2008056292623
 30
0.0
 10
69.68446314447125
 20
-139.2008056292623
 30
0.0
 10
69.68446314447125
 20
-139.2008056292623
 30
0.0
 10
69.68446314447125
 20
-139.0526665233966
 30
0.0
 10
69.68446314447125
 20
-139.0526665233966
 30
0.0
 10
70.03948023422625
 20
-139.03785261281
 30
0.0
 10
70.0892618639881
 20
-138.8748995963577
 30
0.0
 10
70.12078448767814
 20
-138.7605224262474
 30
0.0
 10
70.12078448767814
 20
-138.7605224262474
 30
0.0
 10
70.27684731315996
 20
-138.7605224262474
 30
0.0
 10
70.27684731315996
 20
-138.7605224262474
 30
0.0
 10
70.27684731315996
 20
-138.7605224262474
 30
0.0
 10
70.27684731315996
 20
-140.3049587322849
 30
0.0
 10
70.27684731315996
 20
-140.3049587322849
 30
0.0
 10
70.27684731315996
 20
-140.3049587322849
 30
0.0
 10
70.03724092216083
 20
-140.3049587322849
 30
0.0
 10
70.03724092216083
 20
-140.3049587322849
 30
0.0
  0
HATCH
  5
90
330
8B
100
AcDbEntity
  8
_U+30EC_U+30A4_U+30E4_U+30FC 1
 62
     7
420
 16777215
100
AcDbHatch
 10
0.0
 20
0.0
 30
0.0
210
0.0
220
0.0
230
1.0
  2
SOLID
 70
     1
 71
     0
 91
        1
 92
        1
 93
        1
 72
     4
 94
        3
 73
     0
 74
     1
 95
       26
 96
       22
 40
0.0
 40
0.0
 40
0.0
 40
0.0
 40
1.0
 40
1.0
 40
1.0
 40
2.0
 40
2.0
 40
2.0
 40
3.0
 40
3.0
 40
3.0
 40
4.0
 40
4.0
 40
4.0
 40
5.0
 40
5.0
 40
5.0
 40
6.0
 40
6.0
 40
6.0
 40
7.0
 40
7.0
 40
7.0
 40
7.0
 10
70.03724092216083
 20
-140.3049587322849
 10
70.03724092216083
 20
-140.3049587322849
 10
70.03724092216083
 20
-139.2008056292623
 10
70.03724092216083
 20
-139.2008056292623
 10
70.03724092216083
 20
-139.2008056292623
 10
69.68446314447125
 20
-139.2008056292623
 10
69.68446314447125
 20
-139.2008056292623
 10
69.68446314447125
 20
-139.2008056292623
 10
69.68446314447125
 20
-139.0526665233966
 10
69.68446314447125
 20
-139.0526665233966
 10
70.03948023422625
 20
-139.03785261281
 10
70.0892618639881
 20
-138.8748995963577
 10
70.12078448767814
 20
-138.7605224262474
 10
70.12078448767814
 20
-138.7605224262474
 10
70.27684731315996
 20
-138.7605224262474
 10
70.27684731315996
 20
-138.7605224262474
 10
70.27684731315996
 20
-138.7605224262474
 10
70.27684731315996
 20
-140.3049587322849
 10
70.27684731315996
 20
-140.3049587322849
 10
70.27684731315996
 20
-140.3049587322849
 10
70.03724092216083
 20
-140.3049587322849
 10
70.03724092216083
 20
-140.3049587322849
 97
        0
 97
        0
 75
     2
 76
     1
 98
        0
  0
SPLINE
  5
91
330
8B
100
AcDbEntity
  8
_U+30EC_U+30A4_U+30E4_U+30FC 1
370
     0
100
AcDbSpline
210
0.0
220
0.0
230
1.0
 70
    11
 71
     3
 72
    44
 73
    40
 74
     0
 42
0.0000000001
 43
0.0000000001
 12
1.0
 22
0.0
 32
0.0
 13
1.0
 23
0.0
 33
0.0
 40
0.0
 40
0.0
 40
0.0
 40
0.0
 40
1.0
 40
1.0
 40
1.0
 40
2.0
 40
2.0
 40
2.0
 40
3.0
 40
3.0
 40
3.0
 40
4.0
 40
4.0
 40
4.0
 40
5.0
 40
5.0
 40
5.0
 40
6.0
 40
6.0
 40
6.0
 40
7.0
 40
7.0
 40
7.0
 40
8.0
 40
8.0
 40
8.0
 40
9.0
 40
9.0
 40
9.0
 40
10.0
 40
10.0
 40
10.0
 40
11.0
 40
11.0
 40
11.0
 40
12.0
 40
12.0
 40
12.0
 40
13.0
 40
13.0
 40
13.0
 40
13.0
 10
71.8963867007759
 20
-140.3049587322849
 30
0.0
 10
71.87158201328211
 20
-140.2605170005251
 30
0.0
 10
71.84884438307945
 20
-140.2078070396008
 30
0.0
 10
71.84660507101404
 20
-139.9769856420891
 30
0.0
 10
71.84212644688323
 20
-139.7337619008304
 30
0.0
 10
71.77890894472888
 20
-139.6638264624799
 30
0.0
 10
71.58891192871737
 20
-139.6638264624799
 30
0.0
 10
71.58891192871737
 20
-139.6638264624799
 30
0.0
 10
71.15259058551047
 20
-139.6638264624799
 30
0.0
 10
71.15259058551047
 20
-139.6638264624799
 30
0.0
 10
71.15259058551047
 20
-139.6638264624799
 30
0.0
 10
71.15259058551047
 20
-140.3049587322849
 30
0.0
 10
71.15259058551047
 20
-140.3049587322849
 30
0.0
 10
71.15259058551047
 20
-140.3049587322849
 30
0.0
 10
70.90161537941002
 20
-140.3049587322849
 30
0.0
 10
70.90161537941002
 20
-140.3049587322849
 30
0.0
 10
70.90161537941002
 20
-140.3049587322849
 30
0.0
 10
70.90161537941002
 20
-138.7605224262474
 30
0.0
 10
70.90161537941002
 20
-138.7605224262474
 30
0.0
 10
70.90161537941002
 20
-138.7605224262474
 30
0.0
 10
71.62284611924707
 20
-138.7605224262474
 30
0.0
 10
71.62284611924707
 20
-138.7605224262474
 30
0.0
 10
71.95064695466858
 20
-138.7605224262474
 30
0.0
 10
72.1292751555788
 20
-138.9320881814128
 30
0.0
 10
72.1292751555788
 20
-139.1880587759669
 30
0.0
 10
72.1292751555788
 20
-139.2387016796
 30
0.0
 10
72.12031790731714
 20
-139.321383971246
 30
0.0
 10
72.0727755896207
 20
-139.4016546960524
 30
0.0
 10
72.0093858326921
 20
-139.5053520701584
 30
0.0
 10
71.93945039434153
 20
-139.5243000953273
 30
0.0
 10
71.87382132534752
 20
-139.541181063205
 30
0.0
 10
72.02075464779342
 20
-139.5835557376735
 30
0.0
 10
72.09310165298368
 20
-139.6321315840156
 30
0.0
 10
72.0975802771145
 20
-139.947357820916
 30
0.0
 10
72.10205890124533
 20
-140.2181423260566
 30
0.0
 10
72.14064397068012
 20
-140.2498372045209
 30
0.0
 10
72.21299097587037
 20
-140.3049587322849
 30
0.0
 10
72.21299097587037
 20
-140.3049587322849
 30
0.0
 10
71.8963867007759
 20
-140.3049587322849
 30
0.0
 10
71.8963867007759
 20
-140.3049587322849
 30
0.0
  0
SPLINE
  5
92
330
8B
100
AcDbEntity
  8
_U+30EC_U+30A4_U+30E4_U+30FC 1
370
     0
100
AcDbSpline
210
0.0
220
0.0
230
1.0
 70
    11
 71
     3
 72
    20
 73
    16
 74
     0
 42
0.0000000001
 43
0.0000000001
 12
1.0
 22
0.0
 32
0.0
 13
1.0
 23
0.0
 33
0.0
 40
0.0
 40
0.0
 40
0.0
 40
0.0
 40
1.0
 40
1.0
 40
1.0
 40
2.0
 40
2.0
 40
2.0
 40
3.0
 40
3.0
 40
3.0
 40
4.0
 40
4.0
 40
4.0
 40
5.0
 40
5.0
 40
5.0
 40
5.0
 10
71.6273247433779
 20
-138.9720512890417
 30
0.0
 10
71.6273247433779
 20
-138.9720512890417
 30
0.0
 10
71.15259058551047
 20
-138.9720512890417
 30
0.0
 10
71.15259058551047
 20
-138.9720512890417
 30
0.0
 10
71.15259058551047
 20
-138.9720512890417
 30
0.0
 10
71.15259058551047
 20
-139.4522975996856
 30
0.0
 10
71.15259058551047
 20
-139.4522975996856
 30
0.0
 10
71.15259058551047
 20
-139.4522975996856
 30
0.0
 10
71.62508543131248
 20
-139.4522975996856
 30
0.0
 10
71.62508543131248
 20
-139.4522975996856
 30
0.0
 10
71.73136662703244
 20
-139.4522975996856
 30
0.0
 10
71.87606063741293
 20
-139.3761609894615
 30
0.0
 10
71.87606063741293
 20
-139.2049397438446
 30
0.0
 10
71.87606063741293
 20
-139.1267360763294
 30
0.0
 10
71.83988713481781
 20
-138.9720512890417
 30
0.0
 10
71.6273247433779
 20
-138.9720512890417
 30
0.0
  0
HATCH
  5
93
330
8B
100
AcDbEntity
  8
_U+30EC_U+30A4_U+30E4_U+30FC 1
 62
     7
420
 16777215
100
AcDbHatch
 10
0.0
 20
0.0
 30
0.0
210
0.0
220
0.0
230
1.0
  2
SOLID
 70
     1
 71
     0
 91
        2
 92
        1
 93
        1
 72
     4
 94
        3
 73
     0
 74
     1
 95
       44
 96
       40
 40
0.0
 40
0.0
 40
0.0
 40
0.0
 40
1.0
 40
1.0
 40
1.0
 40
2.0
 40
2.0
 40
2.0
 40
3.0
 40
3.0
 40
3.0
 40
4.0
 40
4.0
 40
4.0
 40
5.0
 40
5.0
 40
5.0
 40
6.0
 40
6.0
 40
6.0
 40
7.0
 40
7.0
 40
7.0
 40
8.0
 40
8.0
 40
8.0
 40
9.0
 40
9.0
 40
9.0
 40
10.0
 40
10.0
 40
10.0
 40
11.0
 40
11.0
 40
11.0
 40
12.0
 40
12.0
 40
12.0
 40
13.0
 40
13.0
 40
13.0
 40
13.0
 10
71.8963867007759
 20
-140.3049587322849
 10
71.87158201328211
 20
-140.2605170005251
 10
71.84884438307945
 20
-140.2078070396008
 10
71.84660507101404
 20
-139.9769856420891
 10
71.84212644688323
 20
-139.7337619008304
 10
71.77890894472888
 20
-139.6638264624799
 10
71.58891192871737
 20
-139.6638264624799
 10
71.58891192871737
 20
-139.6638264624799
 10
71.15259058551047
 20
-139.6638264624799
 10
71.15259058551047
 20
-139.6638264624799
 10
71.15259058551047
 20
-139.6638264624799
 10
71.15259058551047
 20
-140.3049587322849
 10
71.15259058551047
 20
-140.3049587322849
 10
71.15259058551047
 20
-140.3049587322849
 10
70.90161537941002
 20
-140.3049587322849
 10
70.90161537941002
 20
-140.3049587322849
 10
70.90161537941002
 20
-140.3049587322849
 10
70.90161537941002
 20
-138.7605224262474
 10
70.90161537941002
 20
-138.7605224262474
 10
70.90161537941002
 20
-138.7605224262474
 10
71.62284611924707
 20
-138.7605224262474
 10
71.62284611924707
 20
-138.7605224262474
 10
71.95064695466858
 20
-138.7605224262474
 10
72.1292751555788
 20
-138.9320881814128
 10
72.1292751555788
 20
-139.1880587759669
 10
72.1292751555788
 20
-139.2387016796
 10
72.12031790731714
 20
-139.321383971246
 10
72.0727755896207
 20
-139.4016546960524
 10
72.0093858326921
 20
-139.5053520701584
 10
71.93945039434153
 20
-139.5243000953273
 10
71.87382132534752
 20
-139.541181063205
 10
72.02075464779342
 20
-139.5835557376735
 10
72.09310165298368
 20
-139.6321315840156
 10
72.0975802771145
 20
-139.947357820916
 10
72.10205890124533
 20
-140.2181423260566
 10
72.14064397068012
 20
-140.2498372045209
 10
72.21299097587037
 20
-140.3049587322849
 10
72.21299097587037
 20
-140.3049587322849
 10
71.8963867007759
 20
-140.3049587322849
 10
71.8963867007759
 20
-140.3049587322849
 97
        0
 97
        0
 92
        1
 93
        1
 72
     4
 94
        3
 73
     0
 74
     1
 95
       20
 96
       16
 40
0.0
 40
0.0
 40
0.0
 40
0.0
 40
1.0
 40
1.0
 40
1.0
 40
2.0
 40
2.0
 40
2.0
 40
3.0
 40
3.0
 40
3.0
 40
4.0
 40
4.0
 40
4.0
 40
5.0
 40
5.0
 40
5.0
 40
5.0
 10
71.6273247433779
 20
-138.9720512890417
 10
71.6273247433779
 20
-138.9720512890417
 10
71.15259058551047
 20
-138.9720512890417
 10
71.15259058551047
 20
-138.9720512890417
 10
71.15259058551047
 20
-138.9720512890417
 10
71.15259058551047
 20
-139.4522975996856
 10
71.15259058551047
 20
-139.4522975996856
 10
71.15259058551047
 20
-139.4522975996856
 10
71.62508543131248
 20
-139.4522975996856
 10
71.62508543131248
 20
-139.4522975996856
 10
71.73136662703244
 20
-139.4522975996856
 10
71.87606063741293
 20
-139.3761609894615
 10
71.87606063741293
 20
-139.2049397438446
 10
71.87606063741293
 20
-139.1267360763294
 10
71.83988713481781
 20
-138.9720512890417
 10
71.6273247433779
 20
-138.9720512890417
 97
        0
 97
        0
 75
     2
 76
     1
 98
        0
  0
ENDBLK
  5
8E
330
8B
100
AcDbEntity
  8
0
100
AcDbBlockEnd
  0
BLOCK
  5
A2
330
A0
100
AcDbEntity
  8
0
100
AcDbBlockBegin
  2
block 3
 70
     0
 10
0.0
 20
0.0
 30
0.0
  3
block 3
  1

  0
SPLINE
  5
A4
330
A0
100
AcDbEntity
  8
_U+30EC_U+30A4_U+30E4_U+30FC 1
370
     0
100
AcDbSpline
210
0.0
220
0.0
230
1.0
 70
    11
 71
     3
 72
    44
 73
    40
 74
     0
 42
0.0000000001
 43
0.0000000001
 12
1.0
 22
0.0
 32
0.0
 13
1.0
 23
0.0
 33
0.0
 40
0.0
 40
0.0
 40
0.0
 40
0.0
 40
1.0
 40
1.0
 40
1.0
 40
2.0
 40
2.0
 40
2.0
 40
3.0
 40
3.0
 40
3.0
 40
4.0
 40
4.0
 40
4.0
 40
5.0
 40
5.0
 40
5.0
 40
6.0
 40
6.0
 40
6.0
 40
7.0
 40
7.0
 40
7.0
 40
8.0
 40
8.0
 40
8.0
 40
9.0
 40
9.0
 40
9.0
 40
10.0
 40
10.0
 40
10.0
 40
11.0
 40
11.0
 40
11.0
 40
12.0
 40
12.0
 40
12.0
 40
13.0
 40
13.0
 40
13.0
 40
13.0
 10
88.50123017535734
 20
-116.2735229201504
 30
0.0
 10
88.26834172055445
 20
-116.4321695672461
 30
0.0
 10
88.16877846103073
 20
-116.506239120179
 30
0.0
 10
88.11710202875197
 20
-116.6498996019139
 30
0.0
 10
88.11710202875197
 20
-116.6498996019139
 30
0.0
 10
88.94874807889128
 20
-116.6498996019139
 30
0.0
 10
88.94874807889128
 20
-116.6498996019139
 30
0.0
 10
88.94874807889128
 20
-116.6498996019139
 30
0.0
 10
88.94874807889128
 20
-116.8552272928348
 30
0.0
 10
88.94874807889128
 20
-116.8552272928348
 30
0.0
 10
88.94874807889128
 20
-116.8552272928348
 30
0.0
 10
87.85010712864512
 20
-116.8552272928348
 30
0.0
 10
87.85010712864512
 20
-116.8552272928348
 30
0.0
 10
87.88421357394908
 20
-116.4976263814659
 30
0.0
 10
87.95414901229967
 20
-116.4194227139507
 30
0.0
 10
88.3654934132385
 20
-116.1210774449281
 30
0.0
 10
88.63903399476733
 20
-115.9222954354291
 30
0.0
 10
88.70931394266643
 20
-115.854599309144
 30
0.0
 10
88.70931394266643
 20
-115.7171399992825
 30
0.0
 10
88.70931394266643
 20
-115.5986287145899
 30
0.0
 10
88.63248831334535
 20
-115.4675428313762
 30
0.0
 10
88.42199297919659
 20
-115.4675428313762
 30
0.0
 10
88.14397377353693
 20
-115.4675428313762
 30
0.0
 10
88.13501652527528
 20
-115.6980197193394
 30
0.0
 10
88.13053790114445
 20
-115.8144639467408
 30
0.0
 10
88.13053790114445
 20
-115.8144639467408
 30
0.0
 10
87.89075925537107
 20
-115.8144639467408
 30
0.0
 10
87.89075925537107
 20
-115.8144639467408
 30
0.0
 10
87.90006101318124
 20
-115.6875121781094
 30
0.0
 10
87.91108531873404
 20
-115.5753743200645
 30
0.0
 10
87.99721270586528
 20
-115.4568630353719
 30
0.0
 10
88.1146904619123
 20
-115.296149330985
 30
0.0
 10
88.31347247141122
 20
-115.2622151404553
 30
0.0
 10
88.43784041842873
 20
-115.2622151404553
 30
0.0
 10
88.73411863016022
 20
-115.2622151404553
 30
0.0
 10
88.9556382698618
 20
-115.4463554941419
 30
0.0
 10
88.9556382698618
 20
-115.7192070565737
 30
0.0
 10
88.9556382698618
 20
-115.9476168872457
 30
0.0
 10
88.83127032284428
 20
-116.0471801467695
 30
0.0
 10
88.50123017535734
 20
-116.2735229201504
 30
0.0
  0
HATCH
  5
A5
330
A0
100
AcDbEntity
  8
_U+30EC_U+30A4_U+30E4_U+30FC 1
 62
     7
420
 16777215
100
AcDbHatch
 10
0.0
 20
0.0
 30
0.0
210
0.0
220
0.0
230
1.0
  2
SOLID
 70
     1
 71
     0
 91
        1
 92
        1
 93
        1
 72
     4
 94
        3
 73
     0
 74
     1
 95
       44
 96
       40
 40
0.0
 40
0.0
 40
0.0
 40
0.0
 40
1.0
 40
1.0
 40
1.0
 40
2.0
 40
2.0
 40
2.0
 40
3.0
 40
3.0
 40
3.0
 40
4.0
 40
4.0
 40
4.0
 40
5.0
 40
5.0
 40
5.0
 40
6.0
 40
6.0
 40
6.0
 40
7.0
 40
7.0
 40
7.0
 40
8.0
 40
8.0
 40
8.0
 40
9.0
 40
9.0
 40
9.0
 40
10.0
 40
10.0
 40
10.0
 40
11.0
 40
11.0
 40
11.0
 40
12.0
 40
12.0
 40
12.0
 40
13.0
 40
13.0
 40
13.0
 40
13.0
 10
88.50123017535734
 20
-116.2735229201504
 10
88.26834172055445
 20
-116.4321695672461
 10
88.16877846103073
 20
-116.506239120179
 10
88.11710202875197
 20
-116.6498996019139
 10
88.11710202875197
 20
-116.6498996019139
 10
88.94874807889128
 20
-116.6498996019139
 10
88.94874807889128
 20
-116.6498996019139
 10
88.94874807889128
 20
-116.6498996019139
 10
88.94874807889128
 20
-116.8552272928348
 10
88.94874807889128
 20
-116.8552272928348
 10
88.94874807889128
 20
-116.8552272928348
 10
87.85010712864512
 20
-116.8552272928348
 10
87.85010712864512
 20
-116.8552272928348
 10
87.88421357394908
 20
-116.4976263814659
 10
87.95414901229967
 20
-116.4194227139507
 10
88.3654934132385
 20
-116.1210774449281
 10
88.63903399476733
 20
-115.9222954354291
 10
88.70931394266643
 20
-115.854599309144
 10
88.70931394266643
 20
-115.7171399992825
 10
88.70931394266643
 20
-115.5986287145899
 10
88.63248831334535
 20
-115.4675428313762
 10
88.42199297919659
 20
-115.4675428313762
 10
88.14397377353693
 20
-115.4675428313762
 10
88.13501652527528
 20
-115.6980197193394
 10
88.13053790114445
 20
-115.8144639467408
 10
88.13053790114445
 20
-115.8144639467408
 10
87.89075925537107
 20
-115.8144639467408
 10
87.89075925537107
 20
-115.8144639467408
 10
87.90006101318124
 20
-115.6875121781094
 10
87.91108531873404
 20
-115.5753743200645
 10
87.99721270586528
 20
-115.4568630353719
 10
88.1146904619123
 20
-115.296149330985
 10
88.31347247141122
 20
-115.2622151404553
 10
88.43784041842873
 20
-115.2622151404553
 10
88.73411863016022
 20
-115.2622151404553
 10
88.9556382698618
 20
-115.4463554941419
 10
88.9556382698618
 20
-115.7192070565737
 10
88.9556382698618
 20
-115.9476168872457
 10
88.83127032284428
 20
-116.0471801467695
 10
88.50123017535734
 20
-116.2735229201504
 97
        0
 97
        0
 75
     2
 76
     1
 98
        0
  0
SPLINE
  5
A6
330
A0
100
AcDbEntity
  8
_U+30EC_U+30A4_U+30E4_U+30FC 1
370
     0
100
AcDbSpline
210
0.0
220
0.0
230
1.0
 70
    11
 71
     3
 72
    26
 73
    22
 74
     0
 42
0.0000000001
 43
0.0000000001
 12
1.0
 22
0.0
 32
0.0
 13
1.0
 23
0.0
 33
0.0
 40
0.0
 40
0.0
 40
0.0
 40
0.0
 40
1.0
 40
1.0
 40
1.0
 40
2.0
 40
2.0
 40
2.0
 40
3.0
 40
3.0
 40
3.0
 40
4.0
 40
4.0
 40
4.0
 40
5.0
 40
5.0
 40
5.0
 40
6.0
 40
6.0
 40
6.0
 40
7.0
 40
7.0
 40
7.0
 40
7.0
 10
89.60745033567106
 20
-116.8552272928348
 30
0.0
 10
89.60745033567106
 20
-116.8552272928348
 30
0.0
 10
89.60745033567106
 20
-115.750901935038
 30
0.0
 10
89.60745033567106
 20
-115.750901935038
 30
0.0
 10
89.60745033567106
 20
-115.750901935038
 30
0.0
 10
89.25501706753
 20
-115.750901935038
 30
0.0
 10
89.25501706753
 20
-115.750901935038
 30
0.0
 10
89.25501706753
 20
-115.750901935038
 30
0.0
 10
89.25501706753
 20
-115.6029350839465
 30
0.0
 10
89.25501706753
 20
-115.6029350839465
 30
0.0
 10
89.60986190251073
 20
-115.5881211733599
 30
0.0
 10
89.65947127749833
 20
-115.4251681569076
 30
0.0
 10
89.69116615596263
 20
-115.3109632415716
 30
0.0
 10
89.69116615596263
 20
-115.3109632415716
 30
0.0
 10
89.84722898144445
 20
-115.3109632415716
 30
0.0
 10
89.84722898144445
 20
-115.3109632415716
 30
0.0
 10
89.84722898144445
 20
-115.3109632415716
 30
0.0
 10
89.84722898144445
 20
-116.8552272928348
 30
0.0
 10
89.84722898144445
 20
-116.8552272928348
 30
0.0
 10
89.84722898144445
 20
-116.8552272928348
 30
0.0
 10
89.60745033567106
 20
-116.8552272928348
 30
0.0
 10
89.60745033567106
 20
-116.8552272928348
 30
0.0
  0
HATCH
  5
A7
330
A0
100
AcDbEntity
  8
_U+30EC_U+30A4_U+30E4_U+30FC 1
 62
     7
420
 16777215
100
AcDbHatch
 10
0.0
 20
0.0
 30
0.0
210
0.0
220
0.0
230
1.0
  2
SOLID
 70
     1
 71
     0
 91
        1
 92
        1
 93
        1
 72
     4
 94
        3
 73
     0
 74
     1
 95
       26
 96
       22
 40
0.0
 40
0.0
 40
0.0
 40
0.0
 40
1.0
 40
1.0
 40
1.0
 40
2.0
 40
2.0
 40
2.0
 40
3.0
 40
3.0
 40
3.0
 40
4.0
 40
4.0
 40
4.0
 40
5.0
 40
5.0
 40
5.0
 40
6.0
 40
6.0
 40
6.0
 40
7.0
 40
7.0
 40
7.0
 40
7.0
 10
89.60745033567106
 20
-116.8552272928348
 10
89.60745033567106
 20
-116.8552272928348
 10
89.60745033567106
 20
-115.750901935038
 10
89.60745033567106
 20
-115.750901935038
 10
89.60745033567106
 20
-115.750901935038
 10
89.25501706753
 20
-115.750901935038
 10
89.25501706753
 20
-115.750901935038
 10
89.25501706753
 20
-115.750901935038
 10
89.25501706753
 20
-115.6029350839465
 10
89.25501706753
 20
-115.6029350839465
 10
89.60986190251073
 20
-115.5881211733599
 10
89.65947127749833
 20
-115.4251681569076
 10
89.69116615596263
 20
-115.3109632415716
 10
89.69116615596263
 20
-115.3109632415716
 10
89.84722898144445
 20
-115.3109632415716
 10
89.84722898144445
 20
-115.3109632415716
 10
89.84722898144445
 20
-115.3109632415716
 10
89.84722898144445
 20
-116.8552272928348
 10
89.84722898144445
 20
-116.8552272928348
 10
89.84722898144445
 20
-116.8552272928348
 10
89.60745033567106
 20
-116.8552272928348
 10
89.60745033567106
 20
-116.8552272928348
 97
        0
 97
        0
 75
     2
 76
     1
 98
        0
  0
ENDBLK
  5
A3
330
A0
100
AcDbEntity
  8
0
100
AcDbBlockEnd
  0
BLOCK
  5
B2
330
B0
100
AcDbEntity
  8
0
100
AcDbBlockBegin
  2
block 4
 70
     0
 10
0.0
 20
0.0
 30
0.0
  3
block 4
  1

  0
SPLINE
  5
B4
330
B0
100
AcDbEntity
  8
_U+30EC_U+30A4_U+30E4_U+30FC 1
370
     0
100
AcDbSpline
210
0.0
220
0.0
230
1.0
 70
    11
 71
     3
 72
    26
 73
    22
 74
     0
 42
0.0000000001
 43
0.0000000001
 12
1.0
 22
0.0
 32
0.0
 13
1.0
 23
0.0
 33
0.0
 40
0.0
 40
0.0
 40
0.0
 40
0.0
 40
1.0
 40
1.0
 40
1.0
 40
2.0
 40
2.0
 40
2.0
 40
3.0
 40
3.0
 40
3.0
 40
4.0
 40
4.0
 40
4.0
 40
5.0
 40
5.0
 40
5.0
 40
6.0
 40
6.0
 40
6.0
 40
7.0
 40
7.0
 40
7.0
 40
7.0
 10
79.7568888146962
 20
-123.3550889448557
 30
0.0
 10
79.7568888146962
 20
-123.3550889448557
 30
0.0
 10
79.7568888146962
 20
-122.2507635870588
 30
0.0
 10
79.7568888146962
 20
-122.2507635870588
 30
0.0
 10
79.7568888146962
 20
-122.2507635870588
 30
0.0
 10
79.40411103700661
 20
-122.2507635870588
 30
0.0
 10
79.40411103700661
 20
-122.2507635870588
 30
0.0
 10
79.40411103700661
 20
-122.2507635870588
 30
0.0
 10
79.40411103700661
 20
-122.1027967359674
 30
0.0
 10
79.40411103700661
 20
-122.1027967359674
 30
0.0
 10
79.75912812676161
 20
-122.0879828253808
 30
0.0
 10
79.80890975652348
 20
-121.9250298089285
 30
0.0
 10
79.8404323802135
 20
-121.8108248935924
 30
0.0
 10
79.8404323802135
 20
-121.8108248935924
 30
0.0
 10
79.99649520569533
 20
-121.8108248935924
 30
0.0
 10
79.99649520569533
 20
-121.8108248935924
 30
0.0
 10
79.99649520569533
 20
-121.8108248935924
 30
0.0
 10
79.99649520569533
 20
-123.3550889448557
 30
0.0
 10
79.99649520569533
 20
-123.3550889448557
 30
0.0
 10
79.99649520569533
 20
-123.3550889448557
 30
0.0
 10
79.7568888146962
 20
-123.3550889448557
 30
0.0
 10
79.7568888146962
 20
-123.3550889448557
 30
0.0
  0
HATCH
  5
B5
330
B0
100
AcDbEntity
  8
_U+30EC_U+30A4_U+30E4_U+30FC 1
 62
     7
420
 16777215
100
AcDbHatch
 10
0.0
 20
0.0
 30
0.0
210
0.0
220
0.0
230
1.0
  2
SOLID
 70
     1
 71
     0
 91
        1
 92
        1
 93
        1
 72
     4
 94
        3
 73
     0
 74
     1
 95
       26
 96
       22
 40
0.0
 40
0.0
 40
0.0
 40
0.0
 40
1.0
 40
1.0
 40
1.0
 40
2.0
 40
2.0
 40
2.0
 40
3.0
 40
3.0
 40
3.0
 40
4.0
 40
4.0
 40
4.0
 40
5.0
 40
5.0
 40
5.0
 40
6.0
 40
6.0
 40
6.0
 40
7.0
 40
7.0
 40
7.0
 40
7.0
 10
79.7568888146962
 20
-123.3550889448557
 10
79.7568888146962
 20
-123.3550889448557
 10
79.7568888146962
 20
-122.2507635870588
 10
79.7568888146962
 20
-122.2507635870588
 10
79.7568888146962
 20
-122.2507635870588
 10
79.40411103700661
 20
-122.2507635870588
 10
79.40411103700661
 20
-122.2507635870588
 10
79.40411103700661
 20
-122.2507635870588
 10
79.40411103700661
 20
-122.1027967359674
 10
79.40411103700661
 20
-122.1027967359674
 10
79.75912812676161
 20
-122.0879828253808
 10
79.80890975652348
 20
-121.9250298089285
 10
79.8404323802135
 20
-121.8108248935924
 10
79.8404323802135
 20
-121.8108248935924
 10
79.99649520569533
 20
-121.8108248935924
 10
79.99649520569533
 20
-121.8108248935924
 10
79.99649520569533
 20
-121.8108248935924
 10
79.99649520569533
 20
-123.3550889448557
 10
79.99649520569533
 20
-123.3550889448557
 10
79.99649520569533
 20
-123.3550889448557
 10
79.7568888146962
 20
-123.3550889448557
 10
79.7568888146962
 20
-123.3550889448557
 97
        0
 97
        0
 75
     2
 76
     1
 98
        0
  0
ENDBLK
  5
B3
330
B0
100
AcDbEntity
  8
0
100
AcDbBlockEnd
  0
BLOCK
  5
C4
330
C2
100
AcDbEntity
  8
0
100
AcDbBlockBegin
  2
block 5
 70
     0
 10
0.0
 20
0.0
 30
0.0
  3
block 5
  1

  0
SPLINE
  5
C6
330
C2
100
AcDbEntity
  8
_U+30EC_U+30A4_U+30E4_U+30FC 1
370
     0
100
AcDbSpline
210
0.0
220
0.0
230
1.0
 70
    11
 71
     3
 72
    26
 73
    22
 74
     0
 42
0.0000000001
 43
0.0000000001
 12
1.0
 22
0.0
 32
0.0
 13
1.0
 23
0.0
 33
0.0
 40
0.0
 40
0.0
 40
0.0
 40
0.0
 40
1.0
 40
1.0
 40
1.0
 40
2.0
 40
2.0
 40
2.0
 40
3.0
 40
3.0
 40
3.0
 40
4.0
 40
4.0
 40
4.0
 40
5.0
 40
5.0
 40
5.0
 40
6.0
 40
6.0
 40
6.0
 40
7.0
 40
7.0
 40
7.0
 40
7.0
 10
72.03384601063738
 20
-130.1278021593083
 30
0.0
 10
72.03384601063738
 20
-130.1278021593083
 30
0.0
 10
70.92952065284054
 20
-130.1278021593083
 30
0.0
 10
70.92952065284054
 20
-130.1278021593083
 30
0.0
 10
70.92952065284054
 20
-130.1278021593083
 30
0.0
 10
70.92952065284054
 20
-130.4802354274494
 30
0.0
 10
70.92952065284054
 20
-130.4802354274494
 30
0.0
 10
70.92952065284054
 20
-130.4802354274494
 30
0.0
 10
70.7813815469748
 20
-130.4802354274494
 30
0.0
 10
70.7813815469748
 20
-130.4802354274494
 30
0.0
 10
70.76673989116249
 20
-130.1253905924686
 30
0.0
 10
70.60378687471017
 20
-130.0757812174811
 30
0.0
 10
70.48958195937414
 20
-130.0440863390168
 30
0.0
 10
70.48958195937414
 20
-130.0440863390168
 30
0.0
 10
70.48958195937414
 20
-129.8880235135349
 30
0.0
 10
70.48958195937414
 20
-129.8880235135349
 30
0.0
 10
70.48958195937414
 20
-129.8880235135349
 30
0.0
 10
72.03384601063738
 20
-129.8880235135349
 30
0.0
 10
72.03384601063738
 20
-129.8880235135349
 30
0.0
 10
72.03384601063738
 20
-129.8880235135349
 30
0.0
 10
72.03384601063738
 20
-130.1278021593083
 30
0.0
 10
72.03384601063738
 20
-130.1278021593083
 30
0.0
  0
HATCH
  5
C7
330
C2
100
AcDbEntity
  8
_U+30EC_U+30A4_U+30E4_U+30FC 1
 62
     7
420
 16777215
100
AcDbHatch
 10
0.0
 20
0.0
 30
0.0
210
0.0
220
0.0
230
1.0
  2
SOLID
 70
     1
 71
     0
 91
        1
 92
        1
 93
        1
 72
     4
 94
        3
 73
     0
 74
     1
 95
       26
 96
       22
 40
0.0
 40
0.0
 40
0.0
 40
0.0
 40
1.0
 40
1.0
 40
1.0
 40
2.0
 40
2.0
 40
2.0
 40
3.0
 40
3.0
 40
3.0
 40
4.0
 40
4.0
 40
4.0
 40
5.0
 40
5.0
 40
5.0
 40
6.0
 40
6.0
 40
6.0
 40
7.0
 40
7.0
 40
7.0
 40
7.0
 10
72.03384601063738
 20
-130.1278021593083
 10
72.03384601063738
 20
-130.1278021593083
 10
70.92952065284054
 20
-130.1278021593083
 10
70.92952065284054
 20
-130.1278021593083
 10
70.92952065284054
 20
-130.1278021593083
 10
70.92952065284054
 20
-130.4802354274494
 10
70.92952065284054
 20
-130.4802354274494
 10
70.92952065284054
 20
-130.4802354274494
 10
70.7813815469748
 20
-130.4802354274494
 10
70.7813815469748
 20
-130.4802354274494
 10
70.76673989116249
 20
-130.1253905924686
 10
70.60378687471017
 20
-130.0757812174811
 10
70.48958195937414
 20
-130.0440863390168
 10
70.48958195937414
 20
-130.0440863390168
 10
70.48958195937414
 20
-129.8880235135349
 10
70.48958195937414
 20
-129.8880235135349
 10
70.48958195937414
 20
-129.8880235135349
 10
72.03384601063738
 20
-129.8880235135349
 10
72.03384601063738
 20
-129.8880235135349
 10
72.03384601063738
 20
-129.8880235135349
 10
72.03384601063738
 20
-130.1278021593083
 10
72.03384601063738
 20
-130.1278021593083
 97
        0
 97
        0
 75
     2
 76
     1
 98
        0
  0
SPLINE
  5
C8
330
C2
100
AcDbEntity
  8
_U+30EC_U+30A4_U+30E4_U+30FC 1
370
     0
100
AcDbSpline
210
0.0
220
0.0
230
1.0
 70
    11
 71
     3
 72
    32
 73
    28
 74
     0
 42
0.0000000001
 43
0.0000000001
 12
1.0
 22
0.0
 32
0.0
 13
1.0
 23
0.0
 33
0.0
 40
0.0
 40
0.0
 40
0.0
 40
0.0
 40
1.0
 40
1.0
 40
1.0
 40
2.0
 40
2.0
 40
2.0
 40
3.0
 40
3.0
 40
3.0
 40
4.0
 40
4.0
 40
4.0
 40
5.0
 40
5.0
 40
5.0
 40
6.0
 40
6.0
 40
6.0
 40
7.0
 40
7.0
 40
7.0
 40
8.0
 40
8.0
 40
8.0
 40
9.0
 40
9.0
 40
9.0
 40
9.0
 10
72.08466116904481
 20
-128.8134982316855
 30
0.0
 10
72.08466116904481
 20
-129.365058018874
 30
0.0
 10
71.53034530546812
 20
-129.3740152671357
 30
0.0
 10
71.31674938538262
 20
-129.3740152671357
 30
0.0
 10
71.08610024264514
 20
-129.3740152671357
 30
0.0
 10
70.4387668009667
 20
-129.3536892037727
 30
0.0
 10
70.4387668009667
 20
-128.7725015954111
 30
0.0
 10
70.4387668009667
 20
-128.5871554583046
 30
0.0
 10
70.508529984543
 20
-128.3249836918771
 30
0.0
 10
70.8406371893211
 20
-128.2843315651511
 30
0.0
 10
70.8406371893211
 20
-128.2843315651511
 30
0.0
 10
70.8406371893211
 20
-128.5127413958232
 30
0.0
 10
70.8406371893211
 20
-128.5127413958232
 30
0.0
 10
70.78362085904021
 20
-128.5241102109245
 30
0.0
 10
70.63548175317446
 20
-128.55787214668
 30
0.0
 10
70.63548175317446
 20
-128.7749131622507
 30
0.0
 10
70.63548175317446
 20
-129.0870388132143
 30
0.0
 10
70.96345484337026
 20
-129.1297579972315
 30
0.0
 10
71.16861027951688
 20
-129.1435383791724
 30
0.0
 10
71.0904066120017
 20
-129.0439751196487
 30
0.0
 10
71.03115096965541
 20
-128.9716281144585
 30
0.0
 10
71.03115096965541
 20
-128.7769802195419
 30
0.0
 10
71.03115096965541
 20
-128.5850884010135
 30
0.0
 10
71.13898245834373
 20
-128.2615939349485
 30
0.0
 10
71.54515921605469
 20
-128.2615939349485
 30
0.0
 10
71.86451956753734
 20
-128.2615939349485
 30
0.0
 10
72.08466116904481
 20
-128.4741563263884
 30
0.0
 10
72.08466116904481
 20
-128.8134982316855
 30
0.0
  0
SPLINE
  5
C9
330
C2
100
AcDbEntity
  8
_U+30EC_U+30A4_U+30E4_U+30FC 1
370
     0
100
AcDbSpline
210
0.0
220
0.0
230
1.0
 70
    11
 71
     3
 72
    17
 73
    13
 74
     0
 42
0.0000000001
 43
0.0000000001
 12
1.0
 22
0.0
 32
0.0
 13
1.0
 23
0.0
 33
0.0
 40
0.0
 40
0.0
 40
0.0
 40
0.0
 40
1.0
 40
1.0
 40
1.0
 40
2.0
 40
2.0
 40
2.0
 40
3.0
 40
3.0
 40
3.0
 40
4.0
 40
4.0
 40
4.0
 40
4.0
 10
71.22579886457203
 20
-128.7952392256137
 30
0.0
 10
71.22579886457203
 20
-129.075669998113
 30
0.0
 10
71.43732772736637
 20
-129.116322124839
 30
0.0
 10
71.55359969999355
 20
-129.116322124839
 30
0.0
 10
71.72912731496703
 20
-129.116322124839
 30
0.0
 10
71.89208033141935
 20
-129.0146918080241
 30
0.0
 10
71.89208033141935
 20
-128.8179768558163
 30
0.0
 10
71.89208033141935
 20
-128.689130284668
 30
0.0
 10
71.83282468907305
 20
-128.5013725807219
 30
0.0
 10
71.54722627334584
 20
-128.5013725807219
 30
0.0
 10
71.32295055725608
 20
-128.5013725807219
 30
0.0
 10
71.22579886457203
 20
-128.6505452152332
 30
0.0
 10
71.22579886457203
 20
-128.7952392256137
 30
0.0
  0
HATCH
  5
CA
330
C2
100
AcDbEntity
  8
_U+30EC_U+30A4_U+30E4_U+30FC 1
 62
     7
420
 16777215
100
AcDbHatch
 10
0.0
 20
0.0
 30
0.0
210
0.0
220
0.0
230
1.0
  2
SOLID
 70
     1
 71
     0
 91
        2
 92
        1
 93
        1
 72
     4
 94
        3
 73
     0
 74
     1
 95
       32
 96
       28
 40
0.0
 40
0.0
 40
0.0
 40
0.0
 40
1.0
 40
1.0
 40
1.0
 40
2.0
 40
2.0
 40
2.0
 40
3.0
 40
3.0
 40
3.0
 40
4.0
 40
4.0
 40
4.0
 40
5.0
 40
5.0
 40
5.0
 40
6.0
 40
6.0
 40
6.0
 40
7.0
 40
7.0
 40
7.0
 40
8.0
 40
8.0
 40
8.0
 40
9.0
 40
9.0
 40
9.0
 40
9.0
 10
72.08466116904481
 20
-128.8134982316855
 10
72.08466116904481
 20
-129.365058018874
 10
71.53034530546812
 20
-129.3740152671357
 10
71.31674938538262
 20
-129.3740152671357
 10
71.08610024264514
 20
-129.3740152671357
 10
70.4387668009667
 20
-129.3536892037727
 10
70.4387668009667
 20
-128.7725015954111
 10
70.4387668009667
 20
-128.5871554583046
 10
70.508529984543
 20
-128.3249836918771
 10
70.8406371893211
 20
-128.2843315651511
 10
70.8406371893211
 20
-128.2843315651511
 10
70.8406371893211
 20
-128.5127413958232
 10
70.8406371893211
 20
-128.5127413958232
 10
70.78362085904021
 20
-128.5241102109245
 10
70.63548175317446
 20
-128.55787214668
 10
70.63548175317446
 20
-128.7749131622507
 10
70.63548175317446
 20
-129.0870388132143
 10
70.96345484337026
 20
-129.1297579972315
 10
71.16861027951688
 20
-129.1435383791724
 10
71.0904066120017
 20
-129.0439751196487
 10
71.03115096965541
 20
-128.9716281144585
 10
71.03115096965541
 20
-128.7769802195419
 10
71.03115096965541
 20
-128.5850884010135
 10
71.13898245834373
 20
-128.2615939349485
 10
71.54515921605469
 20
-128.2615939349485
 10
71.86451956753734
 20
-128.2615939349485
 10
72.08466116904481
 20
-128.4741563263884
 10
72.08466116904481
 20
-128.8134982316855
 97
        0
 97
        0
 92
        1
 93
        1
 72
     4
 94
        3
 73
     0
 74
     1
 95
       17
 96
       13
 40
0.0
 40
0.0
 40
0.0
 40
0.0
 40
1.0
 40
1.0
 40
1.0
 40
2.0
 40
2.0
 40
2.0
 40
3.0
 40
3.0
 40
3.0
 40
4.0
 40
4.0
 40
4.0
 40
4.0
 10
71.22579886457203
 20
-128.7952392256137
 10
71.22579886457203
 20
-129.075669998113
 10
71.43732772736637
 20
-129.116322124839
 10
71.55359969999355
 20
-129.116322124839
 10
71.72912731496703
 20
-129.116322124839
 10
71.89208033141935
 20
-129.0146918080241
 10
71.89208033141935
 20
-128.8179768558163
 10
71.89208033141935
 20
-128.689130284668
 10
71.83282468907305
 20
-128.5013725807219
 10
71.54722627334584
 20
-128.5013725807219
 10
71.32295055725608
 20
-128.5013725807219
 10
71.22579886457203
 20
-128.6505452152332
 10
71.22579886457203
 20
-128.7952392256137
 97
        0
 97
        0
 75
     2
 76
     1
 98
        0
  0
ENDBLK
  5
C5
330
C2
100
AcDbEntity
  8
0
100
AcDbBlockEnd
  0
BLOCK
  5
D9
330
D7
100
AcDbEntity
  8
0
100
AcDbBlockBegin
  2
block 6
 70
     0
 10
0.0
 20
0.0
 30
0.0
  3
block 6
  1

  0
SPLINE
  5
DB
330
D7
100
AcDbEntity
  8
_U+30EC_U+30A4_U+30E4_U+30FC 1
370
     0
100
AcDbSpline
210
0.0
220
0.0
230
1.0
 70
    11
 71
     3
 72
    26
 73
    22
 74
     0
 42
0.0000000001
 43
0.0000000001
 12
1.0
 22
0.0
 32
0.0
 13
1.0
 23
0.0
 33
0.0
 40
0.0
 40
0.0
 40
0.0
 40
0.0
 40
1.0
 40
1.0
 40
1.0
 40
2.0
 40
2.0
 40
2.0
 40
3.0
 40
3.0
 40
3.0
 40
4.0
 40
4.0
 40
4.0
 40
5.0
 40
5.0
 40
5.0
 40
6.0
 40
6.0
 40
6.0
 40
7.0
 40
7.0
 40
7.0
 40
7.0
 10
84.61171737251027
 20
-140.8551404812793
 30
0.0
 10
84.61171737251027
 20
-140.8551404812793
 30
0.0
 10
84.61171737251027
 20
-139.7509873782567
 30
0.0
 10
84.61171737251027
 20
-139.7509873782567
 30
0.0
 10
84.61171737251027
 20
-139.7509873782567
 30
0.0
 10
84.25928410436921
 20
-139.7509873782567
 30
0.0
 10
84.25928410436921
 20
-139.7509873782567
 30
0.0
 10
84.25928410436921
 20
-139.7509873782567
 30
0.0
 10
84.25928410436921
 20
-139.602848272391
 30
0.0
 10
84.25928410436921
 20
-139.602848272391
 30
0.0
 10
84.61412893934994
 20
-139.5880343618044
 30
0.0
 10
84.66373831433754
 20
-139.4250813453521
 30
0.0
 10
84.69543319280184
 20
-139.3107041752418
 30
0.0
 10
84.69543319280184
 20
-139.3107041752418
 30
0.0
 10
84.85149601828365
 20
-139.3107041752418
 30
0.0
 10
84.85149601828365
 20
-139.3107041752418
 30
0.0
 10
84.85149601828365
 20
-139.3107041752418
 30
0.0
 10
84.85149601828365
 20
-140.8551404812793
 30
0.0
 10
84.85149601828365
 20
-140.8551404812793
 30
0.0
 10
84.85149601828365
 20
-140.8551404812793
 30
0.0
 10
84.61171737251027
 20
-140.8551404812793
 30
0.0
 10
84.61171737251027
 20
-140.8551404812793
 30
0.0
  0
HATCH
  5
DC
330
D7
100
AcDbEntity
  8
_U+30EC_U+30A4_U+30E4_U+30FC 1
 62
     7
420
 16777215
100
AcDbHatch
 10
0.0
 20
0.0
 30
0.0
210
0.0
220
0.0
230
1.0
  2
SOLID
 70
     1
 71
     0
 91
        1
 92
        1
 93
        1
 72
     4
 94
        3
 73
     0
 74
     1
 95
       26
 96
       22
 40
0.0
 40
0.0
 40
0.0
 40
0.0
 40
1.0
 40
1.0
 40
1.0
 40
2.0
 40
2.0
 40
2.0
 40
3.0
 40
3.0
 40
3.0
 40
4.0
 40
4.0
 40
4.0
 40
5.0
 40
5.0
 40
5.0
 40
6.0
 40
6.0
 40
6.0
 40
7.0
 40
7.0
 40
7.0
 40
7.0
 10
84.61171737251027
 20
-140.8551404812793
 10
84.61171737251027
 20
-140.8551404812793
 10
84.61171737251027
 20
-139.7509873782567
 10
84.61171737251027
 20
-139.7509873782567
 10
84.61171737251027
 20
-139.7509873782567
 10
84.25928410436921
 20
-139.7509873782567
 10
84.25928410436921
 20
-139.7509873782567
 10
84.25928410436921
 20
-139.7509873782567
 10
84.25928410436921
 20
-139.602848272391
 10
84.25928410436921
 20
-139.602848272391
 10
84.61412893934994
 20
-139.5880343618044
 10
84.66373831433754
 20
-139.4250813453521
 10
84.69543319280184
 20
-139.3107041752418
 10
84.69543319280184
 20
-139.3107041752418
 10
84.85149601828365
 20
-139.3107041752418
 10
84.85149601828365
 20
-139.3107041752418
 10
84.85149601828365
 20
-139.3107041752418
 10
84.85149601828365
 20
-140.8551404812793
 10
84.85149601828365
 20
-140.8551404812793
 10
84.85149601828365
 20
-140.8551404812793
 10
84.61171737251027
 20
-140.8551404812793
 10
84.61171737251027
 20
-140.8551404812793
 97
        0
 97
        0
 75
     2
 76
     1
 98
        0
  0
SPLINE
  5
DD
330
D7
100
AcDbEntity
  8
_U+30EC_U+30A4_U+30E4_U+30FC 1
370
     0
100
AcDbSpline
210
0.0
220
0.0
230
1.0
 70
    11
 71
     3
 72
    32
 73
    28
 74
     0
 42
0.0000000001
 43
0.0000000001
 12
1.0
 22
0.0
 32
0.0
 13
1.0
 23
0.0
 33
0.0
 40
0.0
 40
0.0
 40
0.0
 40
0.0
 40
1.0
 40
1.0
 40
1.0
 40
2.0
 40
2.0
 40
2.0
 40
3.0
 40
3.0
 40
3.0
 40
4.0
 40
4.0
 40
4.0
 40
5.0
 40
5.0
 40
5.0
 40
6.0
 40
6.0
 40
6.0
 40
7.0
 40
7.0
 40
7.0
 40
8.0
 40
8.0
 40
8.0
 40
9.0
 40
9.0
 40
9.0
 40
9.0
 10
85.92636580968161
 20
-140.9057833849124
 30
0.0
 10
85.37446151294458
 20
-140.9057833849124
 30
0.0
 10
85.36550426468294
 20
-140.3518120308843
 30
0.0
 10
85.36550426468294
 20
-140.1378716012503
 30
0.0
 10
85.36550426468294
 20
-139.907394713287
 30
0.0
 10
85.38583032804591
 20
-139.2600612716086
 30
0.0
 10
85.96701793640756
 20
-139.2600612716086
 30
0.0
 10
86.152364073514
 20
-139.2600612716086
 30
0.0
 10
86.41453583994151
 20
-139.3299967099592
 30
0.0
 10
86.45518796666745
 20
-139.6621039147373
 30
0.0
 10
86.45518796666745
 20
-139.6621039147373
 30
0.0
 10
86.22677813599539
 20
-139.6621039147373
 30
0.0
 10
86.22677813599539
 20
-139.6621039147373
 30
0.0
 10
86.2157538304426
 20
-139.6049153296821
 30
0.0
 10
86.18164738513862
 20
-139.4567762238164
 30
0.0
 10
85.96460636956787
 20
-139.4567762238164
 30
0.0
 10
85.65248071860424
 20
-139.4567762238164
 30
0.0
 10
85.60976153458715
 20
-139.7847493140121
 30
0.0
 10
85.59598115264615
 20
-139.9897324953845
 30
0.0
 10
85.69554441216987
 20
-139.9115288278693
 30
0.0
 10
85.76789141736012
 20
-139.852273185523
 30
0.0
 10
85.9621948027282
 20
-139.852273185523
 30
0.0
 10
86.15443113080515
 20
-139.852273185523
 30
0.0
 10
86.47792559687011
 20
-139.9604491837599
 30
0.0
 10
86.47792559687011
 20
-140.3666259414709
 30
0.0
 10
86.47792559687011
 20
-140.6859862929535
 30
0.0
 10
86.26536320543019
 20
-140.9057833849124
 30
0.0
 10
85.92636580968161
 20
-140.9057833849124
 30
0.0
  0
SPLINE
  5
DE
330
D7
100
AcDbEntity
  8
_U+30EC_U+30A4_U+30E4_U+30FC 1
370
     0
100
AcDbSpline
210
0.0
220
0.0
230
1.0
 70
    11
 71
     3
 72
    17
 73
    13
 74
     0
 42
0.0000000001
 43
0.0000000001
 12
1.0
 22
0.0
 32
0.0
 13
1.0
 23
0.0
 33
0.0
 40
0.0
 40
0.0
 40
0.0
 40
0.0
 40
1.0
 40
1.0
 40
1.0
 40
2.0
 40
2.0
 40
2.0
 40
3.0
 40
3.0
 40
3.0
 40
4.0
 40
4.0
 40
4.0
 40
4.0
 10
85.9442803062049
 20
-140.0469210804397
 30
0.0
 10
85.66384953370557
 20
-140.0469210804397
 30
0.0
 10
85.62319740697963
 20
-140.258449943234
 30
0.0
 10
85.62319740697963
 20
-140.3748941706355
 30
0.0
 10
85.62319740697963
 20
-140.5505940403832
 30
0.0
 10
85.72482772379449
 20
-140.7135470568355
 30
0.0
 10
85.92154267600226
 20
-140.7135470568355
 30
0.0
 10
86.0503892471506
 20
-140.7135470568355
 30
0.0
 10
86.23814695109672
 20
-140.6542914144892
 30
0.0
 10
86.23814695109672
 20
-140.368692998762
 30
0.0
 10
86.23814695109672
 20
-140.1444172826722
 30
0.0
 10
86.0889743165854
 20
-140.0469210804397
 30
0.0
 10
85.9442803062049
 20
-140.0469210804397
 30
0.0
  0
HATCH
  5
DF
330
D7
100
AcDbEntity
  8
_U+30EC_U+30A4_U+30E4_U+30FC 1
 62
     7
420
 16777215
100
AcDbHatch
 10
0.0
 20
0.0
 30
0.0
210
0.0
220
0.0
230
1.0
  2
SOLID
 70
     1
 71
     0
 91
        2
 92
        1
 93
        1
 72
     4
 94
        3
 73
     0
 74
     1
 95
       32
 96
       28
 40
0.0
 40
0.0
 40
0.0
 40
0.0
 40
1.0
 40
1.0
 40
1.0
 40
2.0
 40
2.0
 40
2.0
 40
3.0
 40
3.0
 40
3.0
 40
4.0
 40
4.0
 40
4.0
 40
5.0
 40
5.0
 40
5.0
 40
6.0
 40
6.0
 40
6.0
 40
7.0
 40
7.0
 40
7.0
 40
8.0
 40
8.0
 40
8.0
 40
9.0
 40
9.0
 40
9.0
 40
9.0
 10
85.92636580968161
 20
-140.9057833849124
 10
85.37446151294458
 20
-140.9057833849124
 10
85.36550426468294
 20
-140.3518120308843
 10
85.36550426468294
 20
-140.1378716012503
 10
85.36550426468294
 20
-139.907394713287
 10
85.38583032804591
 20
-139.2600612716086
 10
85.96701793640756
 20
-139.2600612716086
 10
86.152364073514
 20
-139.2600612716086
 10
86.41453583994151
 20
-139.3299967099592
 10
86.45518796666745
 20
-139.6621039147373
 10
86.45518796666745
 20
-139.6621039147373
 10
86.22677813599539
 20
-139.6621039147373
 10
86.22677813599539
 20
-139.6621039147373
 10
86.2157538304426
 20
-139.6049153296821
 10
86.18164738513862
 20
-139.4567762238164
 10
85.96460636956787
 20
-139.4567762238164
 10
85.65248071860424
 20
-139.4567762238164
 10
85.60976153458715
 20
-139.7847493140121
 10
85.59598115264615
 20
-139.9897324953845
 10
85.69554441216987
 20
-139.9115288278693
 10
85.76789141736012
 20
-139.852273185523
 10
85.9621948027282
 20
-139.852273185523
 10
86.15443113080515
 20
-139.852273185523
 10
86.47792559687011
 20
-139.9604491837599
 10
86.47792559687011
 20
-140.3666259414709
 10
86.47792559687011
 20
-140.6859862929535
 10
86.26536320543019
 20
-140.9057833849124
 10
85.92636580968161
 20
-140.9057833849124
 97
        0
 97
        0
 92
        1
 93
        1
 72
     4
 94
        3
 73
     0
 74
     1
 95
       17
 96
       13
 40
0.0
 40
0.0
 40
0.0
 40
0.0
 40
1.0
 40
1.0
 40
1.0
 40
2.0
 40
2.0
 40
2.0
 40
3.0
 40
3.0
 40
3.0
 40
4.0
 40
4.0
 40
4.0
 40
4.0
 10
85.9442803062049
 20
-140.0469210804397
 10
85.66384953370557
 20
-140.0469210804397
 10
85.62319740697963
 20
-140.258449943234
 10
85.62319740697963
 20
-140.3748941706355
 10
85.62319740697963
 20
-140.5505940403832
 10
85.72482772379449
 20
-140.7135470568355
 10
85.92154267600226
 20
-140.7135470568355
 10
86.0503892471506
 20
-140.7135470568355
 10
86.23814695109672
 20
-140.6542914144892
 10
86.23814695109672
 20
-140.368692998762
 10
86.23814695109672
 20
-140.1444172826722
 10
86.0889743165854
 20
-140.0469210804397
 10
85.9442803062049
 20
-140.0469210804397
 97
        0
 97
        0
 75
     2
 76
     1
 98
        0
  0
ENDBLK
  5
DA
330
D7
100
AcDbEntity
  8
0
100
AcDbBlockEnd
  0
BLOCK
  5
EE
330
EC
100
AcDbEntity
  8
0
100
AcDbBlockBegin
  2
block 7
 70
     0
 10
0.0
 20
0.0
 30
0.0
  3
block 7
  1

  0
SPLINE
  5
F0
330
EC
100
AcDbEntity
  8
_U+30EC_U+30A4_U+30E4_U+30FC 1
370
     0
100
AcDbSpline
210
0.0
220
0.0
230
1.0
 70
    11
 71
     3
 72
    26
 73
    22
 74
     0
 42
0.0000000001
 43
0.0000000001
 12
1.0
 22
0.0
 32
0.0
 13
1.0
 23
0.0
 33
0.0
 40
0.0
 40
0.0
 40
0.0
 40
0.0
 40
1.0
 40
1.0
 40
1.0
 40
2.0
 40
2.0
 40
2.0
 40
3.0
 40
3.0
 40
3.0
 40
4.0
 40
4.0
 40
4.0
 40
5.0
 40
5.0
 40
5.0
 40
6.0
 40
6.0
 40
6.0
 40
7.0
 40
7.0
 40
7.0
 40
7.0
 10
96.93396264937762
 20
-132.1755669157408
 30
0.0
 10
96.93396264937762
 20
-132.1755669157408
 30
0.0
 10
95.82980954635505
 20
-132.1755669157408
 30
0.0
 10
95.82980954635505
 20
-132.1755669157408
 30
0.0
 10
95.82980954635505
 20
-132.1755669157408
 30
0.0
 10
95.82980954635505
 20
-132.5280001838819
 30
0.0
 10
95.82980954635505
 20
-132.5280001838819
 30
0.0
 10
95.82980954635505
 20
-132.5280001838819
 30
0.0
 10
95.68167044048931
 20
-132.5280001838819
 30
0.0
 10
95.68167044048931
 20
-132.5280001838819
 30
0.0
 10
95.66685652990273
 20
-132.1731553489012
 30
0.0
 10
95.50390351345041
 20
-132.1235459739136
 30
0.0
 10
95.38952634334012
 20
-132.0918510954493
 30
0.0
 10
95.38952634334012
 20
-132.0918510954493
 30
0.0
 10
95.38952634334012
 20
-131.9357882699674
 30
0.0
 10
95.38952634334012
 20
-131.9357882699674
 30
0.0
 10
95.38952634334012
 20
-131.9357882699674
 30
0.0
 10
96.93396264937762
 20
-131.9357882699674
 30
0.0
 10
96.93396264937762
 20
-131.9357882699674
 30
0.0
 10
96.93396264937762
 20
-131.9357882699674
 30
0.0
 10
96.93396264937762
 20
-132.1755669157408
 30
0.0
 10
96.93396264937762
 20
-132.1755669157408
 30
0.0
  0
HATCH
  5
F1
330
EC
100
AcDbEntity
  8
_U+30EC_U+30A4_U+30E4_U+30FC 1
 62
     7
420
 16777215
100
AcDbHatch
 10
0.0
 20
0.0
 30
0.0
210
0.0
220
0.0
230
1.0
  2
SOLID
 70
     1
 71
     0
 91
        1
 92
        1
 93
        1
 72
     4
 94
        3
 73
     0
 74
     1
 95
       26
 96
       22
 40
0.0
 40
0.0
 40
0.0
 40
0.0
 40
1.0
 40
1.0
 40
1.0
 40
2.0
 40
2.0
 40
2.0
 40
3.0
 40
3.0
 40
3.0
 40
4.0
 40
4.0
 40
4.0
 40
5.0
 40
5.0
 40
5.0
 40
6.0
 40
6.0
 40
6.0
 40
7.0
 40
7.0
 40
7.0
 40
7.0
 10
96.93396264937762
 20
-132.1755669157408
 10
96.93396264937762
 20
-132.1755669157408
 10
95.82980954635505
 20
-132.1755669157408
 10
95.82980954635505
 20
-132.1755669157408
 10
95.82980954635505
 20
-132.1755669157408
 10
95.82980954635505
 20
-132.5280001838819
 10
95.82980954635505
 20
-132.5280001838819
 10
95.82980954635505
 20
-132.5280001838819
 10
95.68167044048931
 20
-132.5280001838819
 10
95.68167044048931
 20
-132.5280001838819
 10
95.66685652990273
 20
-132.1731553489012
 10
95.50390351345041
 20
-132.1235459739136
 10
95.38952634334012
 20
-132.0918510954493
 10
95.38952634334012
 20
-132.0918510954493
 10
95.38952634334012
 20
-131.9357882699674
 10
95.38952634334012
 20
-131.9357882699674
 10
95.38952634334012
 20
-131.9357882699674
 10
96.93396264937762
 20
-131.9357882699674
 10
96.93396264937762
 20
-131.9357882699674
 10
96.93396264937762
 20
-131.9357882699674
 10
96.93396264937762
 20
-132.1755669157408
 10
96.93396264937762
 20
-132.1755669157408
 97
        0
 97
        0
 75
     2
 76
     1
 98
        0
  0
SPLINE
  5
F2
330
EC
100
AcDbEntity
  8
_U+30EC_U+30A4_U+30E4_U+30FC 1
370
     0
100
AcDbSpline
210
0.0
220
0.0
230
1.0
 70
    11
 71
     3
 72
    29
 73
    25
 74
     0
 42
0.0000000001
 43
0.0000000001
 12
1.0
 22
0.0
 32
0.0
 13
1.0
 23
0.0
 33
0.0
 40
0.0
 40
0.0
 40
0.0
 40
0.0
 40
1.0
 40
1.0
 40
1.0
 40
2.0
 40
2.0
 40
2.0
 40
3.0
 40
3.0
 40
3.0
 40
4.0
 40
4.0
 40
4.0
 40
5.0
 40
5.0
 40
5.0
 40
6.0
 40
6.0
 40
6.0
 40
7.0
 40
7.0
 40
7.0
 40
8.0
 40
8.0
 40
8.0
 40
8.0
 10
96.75619572233873
 20
-130.440616829369
 30
0.0
 10
96.96565752784193
 20
-130.5560275281249
 30
0.0
 10
96.9846055530108
 20
-130.7413736652313
 30
0.0
 10
96.9846055530108
 20
-130.8657416122489
 30
0.0
 10
96.9846055530108
 20
-131.0373073674143
 30
0.0
 10
96.93809676395992
 20
-131.1888915687653
 30
0.0
 10
96.75619572233873
 20
-131.2905218855801
 30
0.0
 10
96.56154782742212
 20
-131.4014539602052
 30
0.0
 10
96.32452525803693
 20
-131.4217800235682
 30
0.0
 10
96.16191675113313
 20
-131.4217800235682
 30
0.0
 10
96.0179117598497
 20
-131.4217800235682
 30
0.0
 10
95.76607527987792
 20
-131.4035210174964
 30
0.0
 10
95.56729327037901
 20
-131.2905218855801
 30
0.0
 10
95.3643771462978
 20
-131.1754556963728
 30
0.0
 10
95.3409504969981
 20
-131.0035454316588
 30
0.0
 10
95.3409504969981
 20
-130.8657416122489
 30
0.0
 10
95.3409504969981
 20
-130.695898404826
 30
0.0
 10
95.38539222875782
 20
-130.5422471461839
 30
0.0
 10
95.56729327037901
 20
-130.440616829369
 30
0.0
 10
95.75987410800448
 20
-130.3341633788748
 30
0.0
 10
95.98828393867655
 20
-130.309358691381
 30
0.0
 10
96.16191675113313
 20
-130.309358691381
 30
0.0
 10
96.33313799675005
 20
-130.309358691381
 30
0.0
 10
96.56361488471326
 20
-130.3320963215836
 30
0.0
 10
96.75619572233873
 20
-130.440616829369
 30
0.0
  0
SPLINE
  5
F3
330
EC
100
AcDbEntity
  8
_U+30EC_U+30A4_U+30E4_U+30FC 1
370
     0
100
AcDbSpline
210
0.0
220
0.0
230
1.0
 70
    11
 71
     3
 72
    17
 73
    13
 74
     0
 42
0.0000000001
 43
0.0000000001
 12
1.0
 22
0.0
 32
0.0
 13
1.0
 23
0.0
 33
0.0
 40
0.0
 40
0.0
 40
0.0
 40
0.0
 40
1.0
 40
1.0
 40
1.0
 40
2.0
 40
2.0
 40
2.0
 40
3.0
 40
3.0
 40
3.0
 40
4.0
 40
4.0
 40
4.0
 40
4.0
 10
95.53353133462356
 20
-130.8657416122489
 30
0.0
 10
95.53353133462356
 20
-131.1323920028072
 30
0.0
 10
95.81706269305963
 20
-131.1820013777948
 30
0.0
 10
96.16191675113313
 20
-131.1820013777948
 30
0.0
 10
96.48127710261579
 20
-131.1820013777948
 30
0.0
 10
96.78995765809418
 20
-131.1437608179085
 30
0.0
 10
96.78995765809418
 20
-130.8657416122489
 30
0.0
 10
96.78995765809418
 20
-130.6011582789817
 30
0.0
 10
96.5088378664978
 20
-130.5491373371544
 30
0.0
 10
96.16191675113313
 20
-130.5491373371544
 30
0.0
 10
95.84221189010195
 20
-130.5491373371544
 30
0.0
 10
95.53353133462356
 20
-130.5897894638803
 30
0.0
 10
95.53353133462356
 20
-130.8657416122489
 30
0.0
  0
HATCH
  5
F4
330
EC
100
AcDbEntity
  8
_U+30EC_U+30A4_U+30E4_U+30FC 1
 62
     7
420
 16777215
100
AcDbHatch
 10
0.0
 20
0.0
 30
0.0
210
0.0
220
0.0
230
1.0
  2
SOLID
 70
     1
 71
     0
 91
        2
 92
        1
 93
        1
 72
     4
 94
        3
 73
     0
 74
     1
 95
       29
 96
       25
 40
0.0
 40
0.0
 40
0.0
 40
0.0
 40
1.0
 40
1.0
 40
1.0
 40
2.0
 40
2.0
 40
2.0
 40
3.0
 40
3.0
 40
3.0
 40
4.0
 40
4.0
 40
4.0
 40
5.0
 40
5.0
 40
5.0
 40
6.0
 40
6.0
 40
6.0
 40
7.0
 40
7.0
 40
7.0
 40
8.0
 40
8.0
 40
8.0
 40
8.0
 10
96.75619572233873
 20
-130.440616829369
 10
96.96565752784193
 20
-130.5560275281249
 10
96.9846055530108
 20
-130.7413736652313
 10
96.9846055530108
 20
-130.8657416122489
 10
96.9846055530108
 20
-131.0373073674143
 10
96.93809676395992
 20
-131.1888915687653
 10
96.75619572233873
 20
-131.2905218855801
 10
96.56154782742212
 20
-131.4014539602052
 10
96.32452525803693
 20
-131.4217800235682
 10
96.16191675113313
 20
-131.4217800235682
 10
96.0179117598497
 20
-131.4217800235682
 10
95.76607527987792
 20
-131.4035210174964
 10
95.56729327037901
 20
-131.2905218855801
 10
95.3643771462978
 20
-131.1754556963728
 10
95.3409504969981
 20
-131.0035454316588
 10
95.3409504969981
 20
-130.8657416122489
 10
95.3409504969981
 20
-130.695898404826
 10
95.38539222875782
 20
-130.5422471461839
 10
95.56729327037901
 20
-130.440616829369
 10
95.75987410800448
 20
-130.3341633788748
 10
95.98828393867655
 20
-130.309358691381
 10
96.16191675113313
 20
-130.309358691381
 10
96.33313799675005
 20
-130.309358691381
 10
96.56361488471326
 20
-130.3320963215836
 10
96.75619572233873
 20
-130.440616829369
 97
        0
 97
        0
 92
        1
 93
        1
 72
     4
 94
        3
 73
     0
 74
     1
 95
       17
 96
       13
 40
0.0
 40
0.0
 40
0.0
 40
0.0
 40
1.0
 40
1.0
 40
1.0
 40
2.0
 40
2.0
 40
2.0
 40
3.0
 40
3.0
 40
3.0
 40
4.0
 40
4.0
 40
4.0
 40
4.0
 10
95.53353133462356
 20
-130.8657416122489
 10
95.53353133462356
 20
-131.1323920028072
 10
95.81706269305963
 20
-131.1820013777948
 10
96.16191675113313
 20
-131.1820013777948
 10
96.48127710261579
 20
-131.1820013777948
 10
96.78995765809418
 20
-131.1437608179085
 10
96.78995765809418
 20
-130.8657416122489
 10
96.78995765809418
 20
-130.6011582789817
 10
96.5088378664978
 20
-130.5491373371544
 10
96.16191675113313
 20
-130.5491373371544
 10
95.84221189010195
 20
-130.5491373371544
 10
95.53353133462356
 20
-130.5897894638803
 10
95.53353133462356
 20
-130.8657416122489
 97
        0
 97
        0
 75
     2
 76
     1
 98
        0
  0
ENDBLK
  5
EF
330
EC
100
AcDbEntity
  8
0
100
AcDbBlockEnd
  0
BLOCK
  5
FC
330
FA
100
AcDbEntity
  8
0
100
AcDbBlockBegin
  2
block 8
 70
     0
 10
0.0
 20
0.0
 30
0.0
  3
block 8
  1

  0
SPLINE
  5
FE
330
FA
100
AcDbEntity
  8
_U+30EC_U+30A4_U+30E4_U+30FC 1
370
     0
100
AcDbSpline
210
0.0
220
0.0
230
1.0
 70
    11
 71
     3
 72
    17
 73
    13
 74
     0
 42
0.0000000001
 43
0.0000000001
 12
1.0
 22
0.0
 32
0.0
 13
1.0
 23
0.0
 33
0.0
 40
0.0
 40
0.0
 40
0.0
 40
0.0
 40
1.0
 40
1.0
 40
1.0
 40
2.0
 40
2.0
 40
2.0
 40
3.0
 40
3.0
 40
3.0
 40
4.0
 40
4.0
 40
4.0
 40
4.0
 10
96.58497447672181
 20
-139.3265516144739
 30
0.0
 10
96.47921004532465
 20
-139.2207871830768
 30
0.0
 10
96.3985948109698
 20
-139.182891132739
 30
0.0
 10
96.30557723286806
 20
-139.1508517447262
 30
0.0
 10
96.30557723286806
 20
-139.1508517447262
 30
0.0
 10
96.41547577884752
 20
-138.9858316709827
 30
0.0
 10
96.41547577884752
 20
-138.9858316709827
 30
0.0
 10
96.5129719810801
 20
-139.0282063454513
 30
0.0
 10
96.63355032306384
 20
-139.106754522515
 30
0.0
 10
96.68626028398816
 20
-139.1615315407305
 30
0.0
 10
96.68626028398816
 20
-139.1615315407305
 30
0.0
 10
96.58497447672181
 20
-139.3265516144739
 30
0.0
 10
96.58497447672181
 20
-139.3265516144739
 30
0.0
  0
SPLINE
  5
FF
330
FA
100
AcDbEntity
  8
_U+30EC_U+30A4_U+30E4_U+30FC 1
370
     0
100
AcDbSpline
210
0.0
220
0.0
230
1.0
 70
    11
 71
     3
 72
   182
 73
   178
 74
     0
 42
0.0000000001
 43
0.0000000001
 12
1.0
 22
0.0
 32
0.0
 13
1.0
 23
0.0
 33
0.0
 40
0.0
 40
0.0
 40
0.0
 40
0.0
 40
1.0
 40
1.0
 40
1.0
 40
2.0
 40
2.0
 40
2.0
 40
3.0
 40
3.0
 40
3.0
 40
4.0
 40
4.0
 40
4.0
 40
5.0
 40
5.0
 40
5.0
 40
6.0
 40
6.0
 40
6.0
 40
7.0
 40
7.0
 40
7.0
 40
8.0
 40
8.0
 40
8.0
 40
9.0
 40
9.0
 40
9.0
 40
10.0
 40
10.0
 40
10.0
 40
11.0
 40
11.0
 40
11.0
 40
12.0
 40
12.0
 40
12.0
 40
13.0
 40
13.0
 40
13.0
 40
14.0
 40
14.0
 40
14.0
 40
15.0
 40
15.0
 40
15.0
 40
16.0
 40
16.0
 40
16.0
 40
17.0
 40
17.0
 40
17.0
 40
18.0
 40
18.0
 40
18.0
 40
19.0
 40
19.0
 40
19.0
 40
20.0
 40
20.0
 40
20.0
 40
21.0
 40
21.0
 40
21.0
 40
22.0
 40
22.0
 40
22.0
 40
23.0
 40
23.0
 40
23.0
 40
24.0
 40
24.0
 40
24.0
 40
25.0
 40
25.0
 40
25.0
 40
26.0
 40
26.0
 40
26.0
 40
27.0
 40
27.0
 40
27.0
 40
28.0
 40
28.0
 40
28.0
 40
29.0
 40
29.0
 40
29.0
 40
30.0
 40
30.0
 40
30.0
 40
31.0
 40
31.0
 40
31.0
 40
32.0
 40
32.0
 40
32.0
 40
33.0
 40
33.0
 40
33.0
 40
34.0
 40
34.0
 40
34.0
 40
35.0
 40
35.0
 40
35.0
 40
36.0
 40
36.0
 40
36.0
 40
37.0
 40
37.0
 40
37.0
 40
38.0
 40
38.0
 40
38.0
 40
39.0
 40
39.0
 40
39.0
 40
40.0
 40
40.0
 40
40.0
 40
41.0
 40
41.0
 40
41.0
 40
42.0
 40
42.0
 40
42.0
 40
43.0
 40
43.0
 40
43.0
 40
44.0
 40
44.0
 40
44.0
 40
45.0
 40
45.0
 40
45.0
 40
46.0
 40
46.0
 40
46.0
 40
47.0
 40
47.0
 40
47.0
 40
48.0
 40
48.0
 40
48.0
 40
49.0
 40
49.0
 40
49.0
 40
50.0
 40
50.0
 40
50.0
 40
51.0
 40
51.0
 40
51.0
 40
52.0
 40
52.0
 40
52.0
 40
53.0
 40
53.0
 40
53.0
 40
54.0
 40
54.0
 40
54.0
 40
55.0
 40
55.0
 40
55.0
 40
56.0
 40
56.0
 40
56.0
 40
57.0
 40
57.0
 40
57.0
 40
58.0
 40
58.0
 40
58.0
 40
59.0
 40
59.0
 40
59.0
 40
59.0
 10
97.6298719373981
 20
-140.5047742704294
 30
0.0
 10
97.6298719373981
 20
-140.5047742704294
 30
0.0
 10
96.99321829172392
 20
-140.5047742704294
 30
0.0
 10
96.99321829172392
 20
-140.5047742704294
 30
0.0
 10
96.77927786208991
 20
-140.5047742704294
 30
0.0
 10
96.56361488471326
 20
-140.5092528945602
 30
0.0
 10
96.35001896462778
 20
-140.5219997478556
 30
0.0
 10
96.35001896462778
 20
-140.5219997478556
 30
0.0
 10
96.35001896462778
 20
-140.3146049996436
 30
0.0
 10
96.35001896462778
 20
-140.3146049996436
 30
0.0
 10
96.57222762342639
 20
-140.327351852939
 30
0.0
 10
96.89572208949136
 20
-140.3314859675213
 30
0.0
 10
96.99321829172392
 20
-140.3314859675213
 30
0.0
 10
96.99321829172392
 20
-140.3314859675213
 30
0.0
 10
97.21301538368286
 20
-140.3314859675213
 30
0.0
 10
97.21301538368286
 20
-140.3314859675213
 30
0.0
 10
97.21301538368286
 20
-140.3314859675213
 30
0.0
 10
97.21301538368286
 20
-140.1898925430775
 30
0.0
 10
97.21301538368286
 20
-140.1898925430775
 30
0.0
 10
97.21301538368286
 20
-140.1898925430775
 30
0.0
 10
97.05247393407022
 20
-140.1898925430775
 30
0.0
 10
97.05247393407022
 20
-140.1898925430775
 30
0.0
 10
96.88745386032676
 20
-140.1898925430775
 30
0.0
 10
96.72243378658328
 20
-140.1940266576598
 30
0.0
 10
96.55741371283982
 20
-140.2088405682464
 30
0.0
 10
96.55741371283982
 20
-140.2088405682464
 30
0.0
 10
96.55741371283982
 20
-139.9993787627432
 30
0.0
 10
96.55741371283982
 20
-139.9993787627432
 30
0.0
 10
96.72863495845674
 20
-140.0141926733298
 30
0.0
 10
96.9763373238462
 20
-140.0183267879121
 30
0.0
 10
97.05247393407022
 20
-140.0183267879121
 30
0.0
 10
97.05247393407022
 20
-140.0183267879121
 30
0.0
 10
97.21301538368286
 20
-140.0183267879121
 30
0.0
 10
97.21301538368286
 20
-140.0183267879121
 30
0.0
 10
97.20888126910056
 20
-139.9463242922704
 30
0.0
 10
97.20888126910056
 20
-139.9401231203969
 30
0.0
 10
97.20268009722712
 20
-139.8870686499241
 30
0.0
 10
97.20268009722712
 20
-139.8870686499241
 30
0.0
 10
97.34220646437973
 20
-139.9018825605106
 30
0.0
 10
97.34220646437973
 20
-139.9018825605106
 30
0.0
 10
97.34220646437973
 20
-139.9018825605106
 30
0.0
 10
97.24264320485601
 20
-139.7306613148937
 30
0.0
 10
97.24264320485601
 20
-139.7306613148937
 30
0.0
 10
97.28915199390688
 20
-139.7368624867672
 30
0.0
 10
97.36322154683975
 20
-139.7454752254803
 30
0.0
 10
97.38010251471748
 20
-139.7454752254803
 30
0.0
 10
97.43108992789918
 20
-139.7454752254803
 30
0.0
 10
97.4479708957769
 20
-139.7244601430203
 30
0.0
 10
97.4479708957769
 20
-139.6672715579651
 30
0.0
 10
97.4479708957769
 20
-139.6672715579651
 30
0.0
 10
97.4479708957769
 20
-139.5298122481037
 30
0.0
 10
97.4479708957769
 20
-139.5298122481037
 30
0.0
 10
97.4479708957769
 20
-139.5298122481037
 30
0.0
 10
97.34220646437973
 20
-139.5298122481037
 30
0.0
 10
97.34220646437973
 20
-139.5298122481037
 30
0.0
 10
97.20888126910056
 20
-139.5298122481037
 30
0.0
 10
97.05247393407022
 20
-139.5298122481037
 30
0.0
 10
96.9294840252468
 20
-139.5422145918506
 30
0.0
 10
96.9294840252468
 20
-139.5422145918506
 30
0.0
 10
96.9294840252468
 20
-139.3520453210648
 30
0.0
 10
96.9294840252468
 20
-139.3520453210648
 30
0.0
 10
97.09691566582994
 20
-139.3689262889425
 30
0.0
 10
97.32739255379316
 20
-139.3709933462337
 30
0.0
 10
97.34220646437973
 20
-139.3709933462337
 30
0.0
 10
97.34220646437973
 20
-139.3709933462337
 30
0.0
 10
97.4479708957769
 20
-139.3709933462337
 30
0.0
 10
97.4479708957769
 20
-139.3709933462337
 30
0.0
 10
97.4479708957769
 20
-139.3709933462337
 30
0.0
 10
97.4479708957769
 20
-139.2397352082456
 30
0.0
 10
97.4479708957769
 20
-139.2397352082456
 30
0.0
 10
97.4479708957769
 20
-139.2397352082456
 30
0.0
 10
97.40973033589063
 20
-139.2397352082456
 30
0.0
 10
97.40973033589063
 20
-139.2397352082456
 30
0.0
 10
97.36528860413091
 20
-139.2397352082456
 30
0.0
 10
97.24057614756487
 20
-139.2442138323765
 30
0.0
 10
97.15169268404541
 20
-139.2524820615411
 30
0.0
 10
97.15169268404541
 20
-139.2524820615411
 30
0.0
 10
97.15169268404541
 20
-139.1722113367347
 30
0.0
 10
97.15169268404541
 20
-139.1722113367347
 30
0.0
 10
97.0989827231211
 20
-139.2101073870725
 30
0.0
 10
97.07348901653025
 20
-139.2249212976591
 30
0.0
 10
97.03111434206167
 20
-139.2483479469587
 30
0.0
 10
97.03111434206167
 20
-139.2483479469587
 30
0.0
 10
96.84301212856703
 20
-139.1191568662619
 30
0.0
 10
96.84301212856703
 20
-139.1191568662619
 30
0.0
 10
96.9212157960822
 20
-139.0853949305064
 30
0.0
 10
97.07762313111255
 20
-139.0220051735778
 30
0.0
 10
97.23437497569141
 20
-138.8780001822944
 30
0.0
 10
97.31671275778888
 20
-138.7997965147792
 30
0.0
 10
97.39491642530405
 20
-138.7150471658421
 30
0.0
 10
97.4479708957769
 20
-138.6137613585757
 30
0.0
 10
97.4479708957769
 20
-138.6137613585757
 30
0.0
 10
97.65949975857124
 20
-138.6750840582132
 30
0.0
 10
97.65949975857124
 20
-138.6750840582132
 30
0.0
 10
97.67844778374011
 20
-138.6812852300866
 30
0.0
 10
97.6891275797444
 20
-138.6898979687998
 30
0.0
 10
97.6891275797444
 20
-138.7026448220952
 30
0.0
 10
97.6891275797444
 20
-138.7195257899729
 30
0.0
 10
97.67638072644897
 20
-138.7257269618464
 30
0.0
 10
97.65088701985812
 20
-138.7384738151418
 30
0.0
 10
97.73150225421296
 20
-138.8359700173743
 30
0.0
 10
97.89445527066528
 20
-138.9331217100584
 30
0.0
 10
97.92821720642073
 20
-138.9520697352273
 30
0.0
 10
98.07842336957762
 20
-139.0409531987467
 30
0.0
 10
98.1924560301394
 20
-139.0685139626287
 30
0.0
 10
98.27100420720309
 20
-139.0874619877976
 30
0.0
 10
98.27100420720309
 20
-139.0874619877976
 30
0.0
 10
98.15249292251049
 20
-139.2566161761233
 30
0.0
 10
98.15249292251049
 20
-139.2566161761233
 30
0.0
 10
98.06774357357335
 20
-139.2273328644987
 30
0.0
 10
98.01710066994018
 20
-139.2080403297813
 30
0.0
 10
97.89858938524758
 20
-139.1425835155616
 30
0.0
 10
97.89858938524758
 20
-139.1425835155616
 30
0.0
 10
97.89858938524758
 20
-139.2524820615411
 30
0.0
 10
97.89858938524758
 20
-139.2524820615411
 30
0.0
 10
97.81590709360158
 20
-139.2442138323765
 30
0.0
 10
97.6891275797444
 20
-139.2397352082456
 30
0.0
 10
97.63607310927154
 20
-139.2397352082456
 30
0.0
 10
97.63607310927154
 20
-139.2397352082456
 30
0.0
 10
97.63607310927154
 20
-139.3709933462337
 30
0.0
 10
97.63607310927154
 20
-139.3709933462337
 30
0.0
 10
97.63607310927154
 20
-139.3709933462337
 30
0.0
 10
97.75665145125528
 20
-139.3709933462337
 30
0.0
 10
97.75665145125528
 20
-139.3709933462337
 30
0.0
 10
97.75906301809496
 20
-139.3709933462337
 30
0.0
 10
97.99160696334933
 20
-139.3689262889425
 30
0.0
 10
98.16937389038821
 20
-139.3520453210648
 30
0.0
 10
98.16937389038821
 20
-139.3520453210648
 30
0.0
 10
98.16937389038821
 20
-139.5422145918506
 30
0.0
 10
98.16937389038821
 20
-139.5422145918506
 30
0.0
 10
98.04018280969134
 20
-139.5298122481037
 30
0.0
 10
97.88377547466101
 20
-139.5298122481037
 30
0.0
 10
97.75665145125528
 20
-139.5298122481037
 30
0.0
 10
97.75665145125528
 20
-139.5298122481037
 30
0.0
 10
97.63607310927154
 20
-139.5298122481037
 30
0.0
 10
97.63607310927154
 20
-139.5298122481037
 30
0.0
 10
97.63607310927154
 20
-139.5298122481037
 30
0.0
 10
97.63607310927154
 20
-139.7561550214846
 30
0.0
 10
97.63607310927154
 20
-139.7561550214846
 30
0.0
 10
97.63607310927154
 20
-139.8746663061772
 30
0.0
 10
97.61092391222921
 20
-139.9104952992238
 30
0.0
 10
97.45003795306805
 20
-139.9253092098103
 30
0.0
 10
97.45417206765035
 20
-139.9442572349792
 30
0.0
 10
97.4479708957769
 20
-139.9549370309835
 30
0.0
 10
97.40973033589063
 20
-139.9780191707347
 30
0.0
 10
97.40766327859947
 20
-139.9973117054521
 30
0.0
 10
97.40766327859947
 20
-140.0035128773255
 30
0.0
 10
97.40559622130833
 20
-140.0183267879121
 30
0.0
 10
97.40559622130833
 20
-140.0183267879121
 30
0.0
 10
97.5430555311698
 20
-140.0183267879121
 30
0.0
 10
97.5430555311698
 20
-140.0183267879121
 30
0.0
 10
97.70807560491326
 20
-140.0183267879121
 30
0.0
 10
97.87516273594788
 20
-140.0141926733298
 30
0.0
 10
98.0422498669825
 20
-139.9993787627432
 30
0.0
 10
98.0422498669825
 20
-139.9993787627432
 30
0.0
 10
98.0422498669825
 20
-140.2067735109553
 30
0.0
 10
98.0422498669825
 20
-140.2067735109553
 30
0.0
 10
97.82658688960586
 20
-140.1898925430775
 30
0.0
 10
97.56234806588719
 20
-140.1898925430775
 30
0.0
 10
97.5430555311698
 20
-140.1898925430775
 30
0.0
 10
97.5430555311698
 20
-140.1898925430775
 30
0.0
 10
97.40352916401717
 20
-140.1898925430775
 30
0.0
 10
97.40352916401717
 20
-140.1898925430775
 30
0.0
 10
97.40352916401717
 20
-140.1898925430775
 30
0.0
 10
97.40352916401717
 20
-140.3314859675213
 30
0.0
 10
97.40352916401717
 20
-140.3314859675213
 30
0.0
 10
97.40352916401717
 20
-140.3314859675213
 30
0.0
 10
97.6298719373981
 20
-140.3314859675213
 30
0.0
 10
97.6298719373981
 20
-140.3314859675213
 30
0.0
 10
97.84553491477473
 20
-140.3314859675213
 30
0.0
 10
98.06360945899105
 20
-140.327351852939
 30
0.0
 10
98.27927243636769
 20
-140.3146049996436
 30
0.0
 10
98.27927243636769
 20
-140.3146049996436
 30
0.0
 10
98.27927243636769
 20
-140.5219997478556
 30
0.0
 10
98.27927243636769
 20
-140.5219997478556
 30
0.0
 10
97.99780813522277
 20
-140.5047742704294
 30
0.0
 10
97.65329858669779
 20
-140.5047742704294
 30
0.0
 10
97.6298719373981
 20
-140.5047742704294
 30
0.0
  0
SPLINE
  5
100
330
FA
100
AcDbEntity
  8
_U+30EC_U+30A4_U+30E4_U+30FC 1
370
     0
100
AcDbSpline
210
0.0
220
0.0
230
1.0
 70
    11
 71
     3
 72
    23
 73
    19
 74
     0
 42
0.0000000001
 43
0.0000000001
 12
1.0
 22
0.0
 32
0.0
 13
1.0
 23
0.0
 33
0.0
 40
0.0
 40
0.0
 40
0.0
 40
0.0
 40
1.0
 40
1.0
 40
1.0
 40
2.0
 40
2.0
 40
2.0
 40
3.0
 40
3.0
 40
3.0
 40
4.0
 40
4.0
 40
4.0
 40
5.0
 40
5.0
 40
5.0
 40
6.0
 40
6.0
 40
6.0
 40
6.0
 10
96.51090492378894
 20
-139.8767333634683
 30
0.0
 10
96.51090492378894
 20
-139.8977484459284
 30
0.0
 10
96.5129719810801
 20
-139.9359890058146
 30
0.0
 10
96.48747827448925
 20
-139.9359890058146
 30
0.0
 10
96.47679847848497
 20
-139.9359890058146
 30
0.0
 10
96.46853024932037
 20
-139.9294433243927
 30
0.0
 10
96.4578504533161
 20
-139.9125623565149
 30
0.0
 10
96.4578504533161
 20
-139.9125623565149
 30
0.0
 10
96.35415307921008
 20
-139.7306613148937
 30
0.0
 10
96.35415307921008
 20
-139.7306613148937
 30
0.0
 10
96.57016056613524
 20
-139.6014702341969
 30
0.0
 10
96.76687551834301
 20
-139.3244845571828
 30
0.0
 10
96.81338430739387
 20
-139.2524820615411
 30
0.0
 10
96.81338430739387
 20
-139.2524820615411
 30
0.0
 10
96.8853868030356
 20
-139.4323160458711
 30
0.0
 10
96.8853868030356
 20
-139.4323160458711
 30
0.0
 10
96.75206160775643
 20
-139.6290309980789
 30
0.0
 10
96.57636173800869
 20
-139.8129990969912
 30
0.0
 10
96.51090492378894
 20
-139.8767333634683
 30
0.0
  0
SPLINE
  5
101
330
FA
100
AcDbEntity
  8
_U+30EC_U+30A4_U+30E4_U+30FC 1
370
     0
100
AcDbSpline
210
0.0
220
0.0
230
1.0
 70
    11
 71
     3
 72
    17
 73
    13
 74
     0
 42
0.0000000001
 43
0.0000000001
 12
1.0
 22
0.0
 32
0.0
 13
1.0
 23
0.0
 33
0.0
 40
0.0
 40
0.0
 40
0.0
 40
0.0
 40
1.0
 40
1.0
 40
1.0
 40
2.0
 40
2.0
 40
2.0
 40
3.0
 40
3.0
 40
3.0
 40
4.0
 40
4.0
 40
4.0
 40
4.0
 10
96.76480846105186
 20
-138.9816975564004
 30
0.0
 10
96.70314125186589
 20
-138.9055609461764
 30
0.0
 10
96.57429468071754
 20
-138.8294243359524
 30
0.0
 10
96.47059730661152
 20
-138.7997965147792
 30
0.0
 10
96.47059730661152
 20
-138.7997965147792
 30
0.0
 10
96.56568194200442
 20
-138.6347764410358
 30
0.0
 10
96.56568194200442
 20
-138.6347764410358
 30
0.0
 10
96.6673122588193
 20
-138.6709499436309
 30
0.0
 10
96.77307669021646
 20
-138.7277940191375
 30
0.0
 10
96.86196015373591
 20
-138.8084092534924
 30
0.0
 10
96.86196015373591
 20
-138.8084092534924
 30
0.0
 10
96.76480846105186
 20
-138.9816975564004
 30
0.0
 10
96.76480846105186
 20
-138.9816975564004
 30
0.0
  0
SPLINE
  5
102
330
FA
100
AcDbEntity
  8
_U+30EC_U+30A4_U+30E4_U+30FC 1
370
     0
100
AcDbSpline
210
0.0
220
0.0
230
1.0
 70
    11
 71
     3
 72
    23
 73
    19
 74
     0
 42
0.0000000001
 43
0.0000000001
 12
1.0
 22
0.0
 32
0.0
 13
1.0
 23
0.0
 33
0.0
 40
0.0
 40
0.0
 40
0.0
 40
0.0
 40
1.0
 40
1.0
 40
1.0
 40
2.0
 40
2.0
 40
2.0
 40
3.0
 40
3.0
 40
3.0
 40
4.0
 40
4.0
 40
4.0
 40
5.0
 40
5.0
 40
5.0
 40
6.0
 40
6.0
 40
6.0
 40
6.0
 10
97.21749400781368
 20
-139.686219583134
 30
0.0
 10
97.19613441580513
 20
-139.7096462324337
 30
0.0
 10
97.0989827231211
 20
-139.8216118357043
 30
0.0
 10
96.95911184641994
 20
-139.9018825605106
 30
0.0
 10
96.95911184641994
 20
-139.9018825605106
 30
0.0
 10
96.79202471538534
 20
-139.7813042185269
 30
0.0
 10
96.79202471538534
 20
-139.7813042185269
 30
0.0
 10
96.94223087854222
 20
-139.7051676083029
 30
0.0
 10
97.04179413806594
 20
-139.61008297291
 30
0.0
 10
97.09036998440797
 20
-139.5570285024371
 30
0.0
 10
97.09036998440797
 20
-139.5570285024371
 30
0.0
 10
97.26400279686456
 20
-139.6397107940831
 30
0.0
 10
97.26400279686456
 20
-139.6397107940831
 30
0.0
 10
97.27227102602916
 20
-139.6438449086654
 30
0.0
 10
97.28088376474228
 20
-139.6503905900874
 30
0.0
 10
97.28088376474228
 20
-139.6607258765432
 30
0.0
 10
97.28088376474228
 20
-139.686219583134
 30
0.0
 10
97.24471026214717
 20
-139.686219583134
 30
0.0
 10
97.21749400781368
 20
-139.686219583134
 30
0.0
  0
SPLINE
  5
103
330
FA
100
AcDbEntity
  8
_U+30EC_U+30A4_U+30E4_U+30FC 1
370
     0
100
AcDbSpline
210
0.0
220
0.0
230
1.0
 70
    11
 71
     3
 72
    20
 73
    16
 74
     0
 42
0.0000000001
 43
0.0000000001
 12
1.0
 22
0.0
 32
0.0
 13
1.0
 23
0.0
 33
0.0
 40
0.0
 40
0.0
 40
0.0
 40
0.0
 40
1.0
 40
1.0
 40
1.0
 40
2.0
 40
2.0
 40
2.0
 40
3.0
 40
3.0
 40
3.0
 40
4.0
 40
4.0
 40
4.0
 40
5.0
 40
5.0
 40
5.0
 40
5.0
 10
97.51549476728779
 20
-138.8442382465389
 30
0.0
 10
97.47759871695006
 20
-138.892814092881
 30
0.0
 10
97.4162760173126
 20
-138.9713622699447
 30
0.0
 10
97.27674965015999
 20
-139.0812608159241
 30
0.0
 10
97.35702037496631
 20
-139.0853949305064
 30
0.0
 10
97.38664819613945
 20
-139.0853949305064
 30
0.0
 10
97.40973033589063
 20
-139.0853949305064
 30
0.0
 10
97.40973033589063
 20
-139.0853949305064
 30
0.0
 10
97.63848467611122
 20
-139.0853949305064
 30
0.0
 10
97.63848467611122
 20
-139.0853949305064
 30
0.0
 10
97.67017955457551
 20
-139.0853949305064
 30
0.0
 10
97.71875540091754
 20
-139.0833278732153
 30
0.0
 10
97.79282495385041
 20
-139.0812608159241
 30
0.0
 10
97.68051484103127
 20
-139.0071912629913
 30
0.0
 10
97.63193899468924
 20
-138.9606824739404
 30
0.0
 10
97.51549476728779
 20
-138.8442382465389
 30
0.0
  0
SPLINE
  5
104
330
FA
100
AcDbEntity
  8
_U+30EC_U+30A4_U+30E4_U+30FC 1
370
     0
100
AcDbSpline
210
0.0
220
0.0
230
1.0
 70
    11
 71
     3
 72
    17
 73
    13
 74
     0
 42
0.0000000001
 43
0.0000000001
 12
1.0
 22
0.0
 32
0.0
 13
1.0
 23
0.0
 33
0.0
 40
0.0
 40
0.0
 40
0.0
 40
0.0
 40
1.0
 40
1.0
 40
1.0
 40
2.0
 40
2.0
 40
2.0
 40
3.0
 40
3.0
 40
3.0
 40
4.0
 40
4.0
 40
4.0
 40
4.0
 10
98.07635631228646
 20
-139.8998155032195
 30
0.0
 10
97.94096405971615
 20
-139.7878498999489
 30
0.0
 10
97.83519962831899
 20
-139.7244601430203
 30
0.0
 10
97.71668834362639
 20
-139.6607258765432
 30
0.0
 10
97.71668834362639
 20
-139.6607258765432
 30
0.0
 10
97.84346785748359
 20
-139.5487602732725
 30
0.0
 10
97.84346785748359
 20
-139.5487602732725
 30
0.0
 10
97.9747259954716
 20
-139.5952690623234
 30
0.0
 10
98.08462454145108
 20
-139.6524576473786
 30
0.0
 10
98.20968150756563
 20
-139.7540879641934
 30
0.0
 10
98.20968150756563
 20
-139.7540879641934
 30
0.0
 10
98.07635631228646
 20
-139.8998155032195
 30
0.0
 10
98.07635631228646
 20
-139.8998155032195
 30
0.0
  0
HATCH
  5
105
330
FA
100
AcDbEntity
  8
_U+30EC_U+30A4_U+30E4_U+30FC 1
 62
   179
420
  2234388
100
AcDbHatch
 10
0.0
 20
0.0
 30
0.0
210
0.0
220
0.0
230
1.0
  2
SOLID
 70
     1
 71
     0
 91
        7
 92
        1
 93
        1
 72
     4
 94
        3
 73
     0
 74
     1
 95
       17
 96
       13
 40
0.0
 40
0.0
 40
0.0
 40
0.0
 40
1.0
 40
1.0
 40
1.0
 40
2.0
 40
2.0
 40
2.0
 40
3.0
 40
3.0
 40
3.0
 40
4.0
 40
4.0
 40
4.0
 40
4.0
 10
96.58497447672181
 20
-139.3265516144739
 10
96.47921004532465
 20
-139.2207871830768
 10
96.3985948109698
 20
-139.182891132739
 10
96.30557723286806
 20
-139.1508517447262
 10
96.30557723286806
 20
-139.1508517447262
 10
96.41547577884752
 20
-138.9858316709827
 10
96.41547577884752
 20
-138.9858316709827
 10
96.5129719810801
 20
-139.0282063454513
 10
96.63355032306384
 20
-139.106754522515
 10
96.68626028398816
 20
-139.1615315407305
 10
96.68626028398816
 20
-139.1615315407305
 10
96.58497447672181
 20
-139.3265516144739
 10
96.58497447672181
 20
-139.3265516144739
 97
        0
 97
        0
 92
        1
 93
        1
 72
     4
 94
        3
 73
     0
 74
     1
 95
      182
 96
      178
 40
0.0
 40
0.0
 40
0.0
 40
0.0
 40
1.0
 40
1.0
 40
1.0
 40
2.0
 40
2.0
 40
2.0
 40
3.0
 40
3.0
 40
3.0
 40
4.0
 40
4.0
 40
4.0
 40
5.0
 40
5.0
 40
5.0
 40
6.0
 40
6.0
 40
6.0
 40
7.0
 40
7.0
 40
7.0
 40
8.0
 40
8.0
 40
8.0
 40
9.0
 40
9.0
 40
9.0
 40
10.0
 40
10.0
 40
10.0
 40
11.0
 40
11.0
 40
11.0
 40
12.0
 40
12.0
 40
12.0
 40
13.0
 40
13.0
 40
13.0
 40
14.0
 40
14.0
 40
14.0
 40
15.0
 40
15.0
 40
15.0
 40
16.0
 40
16.0
 40
16.0
 40
17.0
 40
17.0
 40
17.0
 40
18.0
 40
18.0
 40
18.0
 40
19.0
 40
19.0
 40
19.0
 40
20.0
 40
20.0
 40
20.0
 40
21.0
 40
21.0
 40
21.0
 40
22.0
 40
22.0
 40
22.0
 40
23.0
 40
23.0
 40
23.0
 40
24.0
 40
24.0
 40
24.0
 40
25.0
 40
25.0
 40
25.0
 40
26.0
 40
26.0
 40
26.0
 40
27.0
 40
27.0
 40
27.0
 40
28.0
 40
28.0
 40
28.0
 40
29.0
 40
29.0
 40
29.0
 40
30.0
 40
30.0
 40
30.0
 40
31.0
 40
31.0
 40
31.0
 40
32.0
 40
32.0
 40
32.0
 40
33.0
 40
33.0
 40
33.0
 40
34.0
 40
34.0
 40
34.0
 40
35.0
 40
35.0
 40
35.0
 40
36.0
 40
36.0
 40
36.0
 40
37.0
 40
37.0
 40
37.0
 40
38.0
 40
38.0
 40
38.0
 40
39.0
 40
39.0
 40
39.0
 40
40.0
 40
40.0
 40
40.0
 40
41.0
 40
41.0
 40
41.0
 40
42.0
 40
42.0
 40
42.0
 40
43.0
 40
43.0
 40
43.0
 40
44.0
 40
44.0
 40
44.0
 40
45.0
 40
45.0
 40
45.0
 40
46.0
 40
46.0
 40
46.0
 40
47.0
 40
47.0
 40
47.0
 40
48.0
 40
48.0
 40
48.0
 40
49.0
 40
49.0
 40
49.0
 40
50.0
 40
50.0
 40
50.0
 40
51.0
 40
51.0
 40
51.0
 40
52.0
 40
52.0
 40
52.0
 40
53.0
 40
53.0
 40
53.0
 40
54.0
 40
54.0
 40
54.0
 40
55.0
 40
55.0
 40
55.0
 40
56.0
 40
56.0
 40
56.0
 40
57.0
 40
57.0
 40
57.0
 40
58.0
 40
58.0
 40
58.0
 40
59.0
 40
59.0
 40
59.0
 40
59.0
 10
97.6298719373981
 20
-140.5047742704294
 10
97.6298719373981
 20
-140.5047742704294
 10
96.99321829172392
 20
-140.5047742704294
 10
96.99321829172392
 20
-140.5047742704294
 10
96.77927786208991
 20
-140.5047742704294
 10
96.56361488471326
 20
-140.5092528945602
 10
96.35001896462778
 20
-140.5219997478556
 10
96.35001896462778
 20
-140.5219997478556
 10
96.35001896462778
 20
-140.3146049996436
 10
96.35001896462778
 20
-140.3146049996436
 10
96.57222762342639
 20
-140.327351852939
 10
96.89572208949136
 20
-140.3314859675213
 10
96.99321829172392
 20
-140.3314859675213
 10
96.99321829172392
 20
-140.3314859675213
 10
97.21301538368286
 20
-140.3314859675213
 10
97.21301538368286
 20
-140.3314859675213
 10
97.21301538368286
 20
-140.3314859675213
 10
97.21301538368286
 20
-140.1898925430775
 10
97.21301538368286
 20
-140.1898925430775
 10
97.21301538368286
 20
-140.1898925430775
 10
97.05247393407022
 20
-140.1898925430775
 10
97.05247393407022
 20
-140.1898925430775
 10
96.88745386032676
 20
-140.1898925430775
 10
96.72243378658328
 20
-140.1940266576598
 10
96.55741371283982
 20
-140.2088405682464
 10
96.55741371283982
 20
-140.2088405682464
 10
96.55741371283982
 20
-139.9993787627432
 10
96.55741371283982
 20
-139.9993787627432
 10
96.72863495845674
 20
-140.0141926733298
 10
96.9763373238462
 20
-140.0183267879121
 10
97.05247393407022
 20
-140.0183267879121
 10
97.05247393407022
 20
-140.0183267879121
 10
97.21301538368286
 20
-140.0183267879121
 10
97.21301538368286
 20
-140.0183267879121
 10
97.20888126910056
 20
-139.9463242922704
 10
97.20888126910056
 20
-139.9401231203969
 10
97.20268009722712
 20
-139.8870686499241
 10
97.20268009722712
 20
-139.8870686499241
 10
97.34220646437973
 20
-139.9018825605106
 10
97.34220646437973
 20
-139.9018825605106
 10
97.34220646437973
 20
-139.9018825605106
 10
97.24264320485601
 20
-139.7306613148937
 10
97.24264320485601
 20
-139.7306613148937
 10
97.28915199390688
 20
-139.7368624867672
 10
97.36322154683975
 20
-139.7454752254803
 10
97.38010251471748
 20
-139.7454752254803
 10
97.43108992789918
 20
-139.7454752254803
 10
97.4479708957769
 20
-139.7244601430203
 10
97.4479708957769
 20
-139.6672715579651
 10
97.4479708957769
 20
-139.6672715579651
 10
97.4479708957769
 20
-139.5298122481037
 10
97.4479708957769
 20
-139.5298122481037
 10
97.4479708957769
 20
-139.5298122481037
 10
97.34220646437973
 20
-139.5298122481037
 10
97.34220646437973
 20
-139.5298122481037
 10
97.20888126910056
 20
-139.5298122481037
 10
97.05247393407022
 20
-139.5298122481037
 10
96.9294840252468
 20
-139.5422145918506
 10
96.9294840252468
 20
-139.5422145918506
 10
96.9294840252468
 20
-139.3520453210648
 10
96.9294840252468
 20
-139.3520453210648
 10
97.09691566582994
 20
-139.3689262889425
 10
97.32739255379316
 20
-139.3709933462337
 10
97.34220646437973
 20
-139.3709933462337
 10
97.34220646437973
 20
-139.3709933462337
 10
97.4479708957769
 20
-139.3709933462337
 10
97.4479708957769
 20
-139.3709933462337
 10
97.4479708957769
 20
-139.3709933462337
 10
97.4479708957769
 20
-139.2397352082456
 10
97.4479708957769
 20
-139.2397352082456
 10
97.4479708957769
 20
-139.2397352082456
 10
97.40973033589063
 20
-139.2397352082456
 10
97.40973033589063
 20
-139.2397352082456
 10
97.36528860413091
 20
-139.2397352082456
 10
97.24057614756487
 20
-139.2442138323765
 10
97.15169268404541
 20
-139.2524820615411
 10
97.15169268404541
 20
-139.2524820615411
 10
97.15169268404541
 20
-139.1722113367347
 10
97.15169268404541
 20
-139.1722113367347
 10
97.0989827231211
 20
-139.2101073870725
 10
97.07348901653025
 20
-139.2249212976591
 10
97.03111434206167
 20
-139.2483479469587
 10
97.03111434206167
 20
-139.2483479469587
 10
96.84301212856703
 20
-139.1191568662619
 10
96.84301212856703
 20
-139.1191568662619
 10
96.9212157960822
 20
-139.0853949305064
 10
97.07762313111255
 20
-139.0220051735778
 10
97.23437497569141
 20
-138.8780001822944
 10
97.31671275778888
 20
-138.7997965147792
 10
97.39491642530405
 20
-138.7150471658421
 10
97.4479708957769
 20
-138.6137613585757
 10
97.4479708957769
 20
-138.6137613585757
 10
97.65949975857124
 20
-138.6750840582132
 10
97.65949975857124
 20
-138.6750840582132
 10
97.67844778374011
 20
-138.6812852300866
 10
97.6891275797444
 20
-138.6898979687998
 10
97.6891275797444
 20
-138.7026448220952
 10
97.6891275797444
 20
-138.7195257899729
 10
97.67638072644897
 20
-138.7257269618464
 10
97.65088701985812
 20
-138.7384738151418
 10
97.73150225421296
 20
-138.8359700173743
 10
97.89445527066528
 20
-138.9331217100584
 10
97.92821720642073
 20
-138.9520697352273
 10
98.07842336957762
 20
-139.0409531987467
 10
98.1924560301394
 20
-139.0685139626287
 10
98.27100420720309
 20
-139.0874619877976
 10
98.27100420720309
 20
-139.0874619877976
 10
98.15249292251049
 20
-139.2566161761233
 10
98.15249292251049
 20
-139.2566161761233
 10
98.06774357357335
 20
-139.2273328644987
 10
98.01710066994018
 20
-139.2080403297813
 10
97.89858938524758
 20
-139.1425835155616
 10
97.89858938524758
 20
-139.1425835155616
 10
97.89858938524758
 20
-139.2524820615411
 10
97.89858938524758
 20
-139.2524820615411
 10
97.81590709360158
 20
-139.2442138323765
 10
97.6891275797444
 20
-139.2397352082456
 10
97.63607310927154
 20
-139.2397352082456
 10
97.63607310927154
 20
-139.2397352082456
 10
97.63607310927154
 20
-139.3709933462337
 10
97.63607310927154
 20
-139.3709933462337
 10
97.63607310927154
 20
-139.3709933462337
 10
97.75665145125528
 20
-139.3709933462337
 10
97.75665145125528
 20
-139.3709933462337
 10
97.75906301809496
 20
-139.3709933462337
 10
97.99160696334933
 20
-139.3689262889425
 10
98.16937389038821
 20
-139.3520453210648
 10
98.16937389038821
 20
-139.3520453210648
 10
98.16937389038821
 20
-139.5422145918506
 10
98.16937389038821
 20
-139.5422145918506
 10
98.04018280969134
 20
-139.5298122481037
 10
97.88377547466101
 20
-139.5298122481037
 10
97.75665145125528
 20
-139.5298122481037
 10
97.75665145125528
 20
-139.5298122481037
 10
97.63607310927154
 20
-139.5298122481037
 10
97.63607310927154
 20
-139.5298122481037
 10
97.63607310927154
 20
-139.5298122481037
 10
97.63607310927154
 20
-139.7561550214846
 10
97.63607310927154
 20
-139.7561550214846
 10
97.63607310927154
 20
-139.8746663061772
 10
97.61092391222921
 20
-139.9104952992238
 10
97.45003795306805
 20
-139.9253092098103
 10
97.45417206765035
 20
-139.9442572349792
 10
97.4479708957769
 20
-139.9549370309835
 10
97.40973033589063
 20
-139.9780191707347
 10
97.40766327859947
 20
-139.9973117054521
 10
97.40766327859947
 20
-140.0035128773255
 10
97.40559622130833
 20
-140.0183267879121
 10
97.40559622130833
 20
-140.0183267879121
 10
97.5430555311698
 20
-140.0183267879121
 10
97.5430555311698
 20
-140.0183267879121
 10
97.70807560491326
 20
-140.0183267879121
 10
97.87516273594788
 20
-140.0141926733298
 10
98.0422498669825
 20
-139.9993787627432
 10
98.0422498669825
 20
-139.9993787627432
 10
98.0422498669825
 20
-140.2067735109553
 10
98.0422498669825
 20
-140.2067735109553
 10
97.82658688960586
 20
-140.1898925430775
 10
97.56234806588719
 20
-140.1898925430775
 10
97.5430555311698
 20
-140.1898925430775
 10
97.5430555311698
 20
-140.1898925430775
 10
97.40352916401717
 20
-140.1898925430775
 10
97.40352916401717
 20
-140.1898925430775
 10
97.40352916401717
 20
-140.1898925430775
 10
97.40352916401717
 20
-140.3314859675213
 10
97.40352916401717
 20
-140.3314859675213
 10
97.40352916401717
 20
-140.3314859675213
 10
97.6298719373981
 20
-140.3314859675213
 10
97.6298719373981
 20
-140.3314859675213
 10
97.84553491477473
 20
-140.3314859675213
 10
98.06360945899105
 20
-140.327351852939
 10
98.27927243636769
 20
-140.3146049996436
 10
98.27927243636769
 20
-140.3146049996436
 10
98.27927243636769
 20
-140.5219997478556
 10
98.27927243636769
 20
-140.5219997478556
 10
97.99780813522277
 20
-140.5047742704294
 10
97.65329858669779
 20
-140.5047742704294
 10
97.6298719373981
 20
-140.5047742704294
 97
        0
 97
        0
 92
        1
 93
        1
 72
     4
 94
        3
 73
     0
 74
     1
 95
       23
 96
       19
 40
0.0
 40
0.0
 40
0.0
 40
0.0
 40
1.0
 40
1.0
 40
1.0
 40
2.0
 40
2.0
 40
2.0
 40
3.0
 40
3.0
 40
3.0
 40
4.0
 40
4.0
 40
4.0
 40
5.0
 40
5.0
 40
5.0
 40
6.0
 40
6.0
 40
6.0
 40
6.0
 10
96.51090492378894
 20
-139.8767333634683
 10
96.51090492378894
 20
-139.8977484459284
 10
96.5129719810801
 20
-139.9359890058146
 10
96.48747827448925
 20
-139.9359890058146
 10
96.47679847848497
 20
-139.9359890058146
 10
96.46853024932037
 20
-139.9294433243927
 10
96.4578504533161
 20
-139.9125623565149
 10
96.4578504533161
 20
-139.9125623565149
 10
96.35415307921008
 20
-139.7306613148937
 10
96.35415307921008
 20
-139.7306613148937
 10
96.57016056613524
 20
-139.6014702341969
 10
96.76687551834301
 20
-139.3244845571828
 10
96.81338430739387
 20
-139.2524820615411
 10
96.81338430739387
 20
-139.2524820615411
 10
96.8853868030356
 20
-139.4323160458711
 10
96.8853868030356
 20
-139.4323160458711
 10
96.75206160775643
 20
-139.6290309980789
 10
96.57636173800869
 20
-139.8129990969912
 10
96.51090492378894
 20
-139.8767333634683
 97
        0
 97
        0
 92
        1
 93
        1
 72
     4
 94
        3
 73
     0
 74
     1
 95
       17
 96
       13
 40
0.0
 40
0.0
 40
0.0
 40
0.0
 40
1.0
 40
1.0
 40
1.0
 40
2.0
 40
2.0
 40
2.0
 40
3.0
 40
3.0
 40
3.0
 40
4.0
 40
4.0
 40
4.0
 40
4.0
 10
96.76480846105186
 20
-138.9816975564004
 10
96.70314125186589
 20
-138.9055609461764
 10
96.57429468071754
 20
-138.8294243359524
 10
96.47059730661152
 20
-138.7997965147792
 10
96.47059730661152
 20
-138.7997965147792
 10
96.56568194200442
 20
-138.6347764410358
 10
96.56568194200442
 20
-138.6347764410358
 10
96.6673122588193
 20
-138.6709499436309
 10
96.77307669021646
 20
-138.7277940191375
 10
96.86196015373591
 20
-138.8084092534924
 10
96.86196015373591
 20
-138.8084092534924
 10
96.76480846105186
 20
-138.9816975564004
 10
96.76480846105186
 20
-138.9816975564004
 97
        0
 97
        0
 92
        1
 93
        1
 72
     4
 94
        3
 73
     0
 74
     1
 95
       23
 96
       19
 40
0.0
 40
0.0
 40
0.0
 40
0.0
 40
1.0
 40
1.0
 40
1.0
 40
2.0
 40
2.0
 40
2.0
 40
3.0
 40
3.0
 40
3.0
 40
4.0
 40
4.0
 40
4.0
 40
5.0
 40
5.0
 40
5.0
 40
6.0
 40
6.0
 40
6.0
 40
6.0
 10
97.21749400781368
 20
-139.686219583134
 10
97.19613441580513
 20
-139.7096462324337
 10
97.0989827231211
 20
-139.8216118357043
 10
96.95911184641994
 20
-139.9018825605106
 10
96.95911184641994
 20
-139.9018825605106
 10
96.79202471538534
 20
-139.7813042185269
 10
96.79202471538534
 20
-139.7813042185269
 10
96.94223087854222
 20
-139.7051676083029
 10
97.04179413806594
 20
-139.61008297291
 10
97.09036998440797
 20
-139.5570285024371
 10
97.09036998440797
 20
-139.5570285024371
 10
97.26400279686456
 20
-139.6397107940831
 10
97.26400279686456
 20
-139.6397107940831
 10
97.27227102602916
 20
-139.6438449086654
 10
97.28088376474228
 20
-139.6503905900874
 10
97.28088376474228
 20
-139.6607258765432
 10
97.28088376474228
 20
-139.686219583134
 10
97.24471026214717
 20
-139.686219583134
 10
97.21749400781368
 20
-139.686219583134
 97
        0
 97
        0
 92
        1
 93
        1
 72
     4
 94
        3
 73
     0
 74
     1
 95
       20
 96
       16
 40
0.0
 40
0.0
 40
0.0
 40
0.0
 40
1.0
 40
1.0
 40
1.0
 40
2.0
 40
2.0
 40
2.0
 40
3.0
 40
3.0
 40
3.0
 40
4.0
 40
4.0
 40
4.0
 40
5.0
 40
5.0
 40
5.0
 40
5.0
 10
97.51549476728779
 20
-138.8442382465389
 10
97.47759871695006
 20
-138.892814092881
 10
97.4162760173126
 20
-138.9713622699447
 10
97.27674965015999
 20
-139.0812608159241
 10
97.35702037496631
 20
-139.0853949305064
 10
97.38664819613945
 20
-139.0853949305064
 10
97.40973033589063
 20
-139.0853949305064
 10
97.40973033589063
 20
-139.0853949305064
 10
97.63848467611122
 20
-139.0853949305064
 10
97.63848467611122
 20
-139.0853949305064
 10
97.67017955457551
 20
-139.0853949305064
 10
97.71875540091754
 20
-139.0833278732153
 10
97.79282495385041
 20
-139.0812608159241
 10
97.68051484103127
 20
-139.0071912629913
 10
97.63193899468924
 20
-138.9606824739404
 10
97.51549476728779
 20
-138.8442382465389
 97
        0
 97
        0
 92
        1
 93
        1
 72
     4
 94
        3
 73
     0
 74
     1
 95
       17
 96
       13
 40
0.0
 40
0.0
 40
0.0
 40
0.0
 40
1.0
 40
1.0
 40
1.0
 40
2.0
 40
2.0
 40
2.0
 40
3.0
 40
3.0
 40
3.0
 40
4.0
 40
4.0
 40
4.0
 40
4.0
 10
98.07635631228646
 20
-139.8998155032195
 10
97.94096405971615
 20
-139.7878498999489
 10
97.83519962831899
 20
-139.7244601430203
 10
97.71668834362639
 20
-139.6607258765432
 10
97.71668834362639
 20
-139.6607258765432
 10
97.84346785748359
 20
-139.5487602732725
 10
97.84346785748359
 20
-139.5487602732725
 10
97.9747259954716
 20
-139.5952690623234
 10
98.08462454145108
 20
-139.6524576473786
 10
98.20968150756563
 20
-139.7540879641934
 10
98.20968150756563
 20
-139.7540879641934
 10
98.07635631228646
 20
-139.8998155032195
 10
98.07635631228646
 20
-139.8998155032195
 97
        0
 97
        0
 75
     2
 76
     1
 98
        0
  0
SPLINE
  5
106
330
FA
100
AcDbEntity
  8
_U+30EC_U+30A4_U+30E4_U+30FC 1
370
     0
100
AcDbSpline
210
0.0
220
0.0
230
1.0
 70
    11
 71
     3
 72
   113
 73
   109
 74
     0
 42
0.0000000001
 43
0.0000000001
 12
1.0
 22
0.0
 32
0.0
 13
1.0
 23
0.0
 33
0.0
 40
0.0
 40
0.0
 40
0.0
 40
0.0
 40
1.0
 40
1.0
 40
1.0
 40
2.0
 40
2.0
 40
2.0
 40
3.0
 40
3.0
 40
3.0
 40
4.0
 40
4.0
 40
4.0
 40
5.0
 40
5.0
 40
5.0
 40
6.0
 40
6.0
 40
6.0
 40
7.0
 40
7.0
 40
7.0
 40
8.0
 40
8.0
 40
8.0
 40
9.0
 40
9.0
 40
9.0
 40
10.0
 40
10.0
 40
10.0
 40
11.0
 40
11.0
 40
11.0
 40
12.0
 40
12.0
 40
12.0
 40
13.0
 40
13.0
 40
13.0
 40
14.0
 40
14.0
 40
14.0
 40
15.0
 40
15.0
 40
15.0
 40
16.0
 40
16.0
 40
16.0
 40
17.0
 40
17.0
 40
17.0
 40
18.0
 40
18.0
 40
18.0
 40
19.0
 40
19.0
 40
19.0
 40
20.0
 40
20.0
 40
20.0
 40
21.0
 40
21.0
 40
21.0
 40
22.0
 40
22.0
 40
22.0
 40
23.0
 40
23.0
 40
23.0
 40
24.0
 40
24.0
 40
24.0
 40
25.0
 40
25.0
 40
25.0
 40
26.0
 40
26.0
 40
26.0
 40
27.0
 40
27.0
 40
27.0
 40
28.0
 40
28.0
 40
28.0
 40
29.0
 40
29.0
 40
29.0
 40
30.0
 40
30.0
 40
30.0
 40
31.0
 40
31.0
 40
31.0
 40
32.0
 40
32.0
 40
32.0
 40
33.0
 40
33.0
 40
33.0
 40
34.0
 40
34.0
 40
34.0
 40
35.0
 40
35.0
 40
35.0
 40
36.0
 40
36.0
 40
36.0
 40
36.0
 10
99.95600040903878
 20
-139.8767333634683
 30
0.0
 10
99.95600040903878
 20
-139.8767333634683
 30
0.0
 10
100.0555636685625
 20
-139.9759521134435
 30
0.0
 10
100.0555636685625
 20
-139.9759521134435
 30
0.0
 10
100.0658989550183
 20
-139.9866319094478
 30
0.0
 10
100.0765787510225
 20
-139.9993787627432
 30
0.0
 10
100.0765787510225
 20
-140.0141926733298
 30
0.0
 10
100.0765787510225
 20
-140.0162597306209
 30
0.0
 10
100.0765787510225
 20
-140.0458875517941
 30
0.0
 10
100.0383381911362
 20
-140.0458875517941
 30
0.0
 10
100.0300699619716
 20
-140.0458875517941
 30
0.0
 10
99.98976234479423
 20
-140.0417534372118
 30
0.0
 10
99.98356117292079
 20
-140.0417534372118
 30
0.0
 10
99.94325355574335
 20
-140.0734483156761
 30
0.0
 10
99.89674476669248
 20
-140.1072102514315
 30
0.0
 10
99.79718150716876
 20
-140.1643988364867
 30
0.0
 10
99.94325355574335
 20
-140.272230325175
 30
0.0
 10
100.1020724576134
 20
-140.3294189102301
 30
0.0
 10
100.3749240200452
 20
-140.3673149605679
 30
0.0
 10
100.3749240200452
 20
-140.3673149605679
 30
0.0
 10
100.2247178568883
 20
-140.5430148303157
 30
0.0
 10
100.2247178568883
 20
-140.5430148303157
 30
0.0
 10
99.96220158091224
 20
-140.4710123346739
 30
0.0
 10
99.80579424588188
 20
-140.3821288711545
 30
0.0
 10
99.72965763565787
 20
-140.3294189102301
 30
0.0
 10
99.57945147250098
 20
-140.2277885934153
 30
0.0
 10
99.43544648121753
 20
-140.064835576963
 30
0.0
 10
99.35930987099351
 20
-139.8998155032195
 30
0.0
 10
99.29178599948261
 20
-139.9656168269878
 30
0.0
 10
99.21771644654974
 20
-140.0183267879121
 30
0.0
 10
99.13951277903458
 20
-140.0669026342541
 30
0.0
 10
99.13951277903458
 20
-140.0669026342541
 30
0.0
 10
99.13951277903458
 20
-140.3187391142259
 30
0.0
 10
99.13951277903458
 20
-140.3187391142259
 30
0.0
 10
99.30212128593837
 20
-140.293245407635
 30
0.0
 10
99.48850095169038
 20
-140.2488036758753
 30
0.0
 10
99.55189070861897
 20
-140.2339897652887
 30
0.0
 10
99.55189070861897
 20
-140.2339897652887
 30
0.0
 10
99.52226288744583
 20
-140.403488463163
 30
0.0
 10
99.52226288744583
 20
-140.403488463163
 30
0.0
 10
99.52019583015468
 20
-140.403488463163
 30
0.0
 10
99.50124780498581
 20
-140.4096896350365
 30
0.0
 10
99.49918074769465
 20
-140.4096896350365
 30
0.0
 10
99.30005422864721
 20
-140.4479301949227
 30
0.0
 10
98.9827609344557
 20
-140.5133870091425
 30
0.0
 10
98.78604598224794
 20
-140.5492160021891
 30
0.0
 10
98.77536618624366
 20
-140.5664414796153
 30
0.0
 10
98.75228404649249
 20
-140.5981363580796
 30
0.0
 10
98.72885739719278
 20
-140.5981363580796
 30
0.0
 10
98.70164114285932
 20
-140.5981363580796
 30
0.0
 10
98.69716251872849
 20
-140.5788438233622
 30
0.0
 10
98.69509546143735
 20
-140.5598957981934
 30
0.0
 10
98.69509546143735
 20
-140.5598957981934
 30
0.0
 10
98.6696017548465
 20
-140.3866074952853
 30
0.0
 10
98.6696017548465
 20
-140.3866074952853
 30
0.0
 10
98.74367130777937
 20
-140.3779947565722
 30
0.0
 10
98.85184730601621
 20
-140.3652479032768
 30
0.0
 10
98.95967879470453
 20
-140.3442328208167
 30
0.0
 10
98.95967879470453
 20
-140.3442328208167
 30
0.0
 10
98.95967879470453
 20
-140.1664658937778
 30
0.0
 10
98.95967879470453
 20
-140.1664658937778
 30
0.0
 10
98.81567380342109
 20
-140.2384683894196
 30
0.0
 10
98.72058916802818
 20
-140.2680962105927
 30
0.0
 10
98.55556909428472
 20
-140.2977240317659
 30
0.0
 10
98.55556909428472
 20
-140.2977240317659
 30
0.0
 10
98.43499075230098
 20
-140.1282253338915
 30
0.0
 10
98.43499075230098
 20
-140.1282253338915
 30
0.0
 10
98.75228404649249
 20
-140.1010090795581
 30
0.0
 10
98.94486488411796
 20
-140.0076469919078
 30
0.0
 10
99.12263181115685
 20
-139.8746663061772
 30
0.0
 10
98.97655976258226
 20
-139.8746663061772
 30
0.0
 10
98.67614743626847
 20
-139.8788004207595
 30
0.0
 10
98.47943248406071
 20
-139.8850015926329
 30
0.0
 10
98.47943248406071
 20
-139.8850015926329
 30
0.0
 10
98.47943248406071
 20
-139.707234665594
 30
0.0
 10
98.47943248406071
 20
-139.707234665594
 30
0.0
 10
98.63377276179989
 20
-139.713780347016
 30
0.0
 10
98.93005097353138
 20
-139.7199815188895
 30
0.0
 10
99.11401907244372
 20
-139.7199815188895
 30
0.0
 10
99.11401907244372
 20
-139.7199815188895
 30
0.0
 10
99.32554793523806
 20
-139.7199815188895
 30
0.0
 10
99.32554793523806
 20
-139.7199815188895
 30
0.0
 10
99.32554793523806
 20
-139.6248968834965
 30
0.0
 10
99.3234808779469
 20
-139.5742539798634
 30
0.0
 10
99.31693519652494
 20
-139.527400681264
 30
0.0
 10
99.31693519652494
 20
-139.527400681264
 30
0.0
 10
99.5329426834501
 20
-139.5446261586902
 30
0.0
 10
99.5329426834501
 20
-139.5446261586902
 30
0.0
 10
99.58151852979212
 20
-139.5487602732725
 30
0.0
 10
99.59013126850525
 20
-139.5635741838591
 30
0.0
 10
99.59013126850525
 20
-139.5783880944457
 30
0.0
 10
99.59013126850525
 20
-139.6038818010365
 30
0.0
 10
99.572905791079
 20
-139.6121500302011
 30
0.0
 10
99.52226288744583
 20
-139.637643736792
 30
0.0
 10
99.52019583015468
 20
-139.6631374433828
 30
0.0
 10
99.52019583015468
 20
-139.6693386152563
 30
0.0
 10
99.51812877286353
 20
-139.7199815188895
 30
0.0
 10
99.51812877286353
 20
-139.7199815188895
 30
0.0
 10
99.74860566082674
 20
-139.7199815188895
 30
0.0
 10
99.74860566082674
 20
-139.7199815188895
 30
0.0
 10
99.9136257345702
 20
-139.7199815188895
 30
0.0
 10
100.2057698317194
 20
-139.713780347016
 30
0.0
 10
100.3852593065009
 20
-139.707234665594
 30
0.0
 10
100.3852593065009
 20
-139.707234665594
 30
0.0
 10
100.3852593065009
 20
-139.8850015926329
 30
0.0
 10
100.3852593065009
 20
-139.8850015926329
 30
0.0
 10
100.2564127353526
 20
-139.8808674780506
 30
0.0
 10
100.2329860860529
 20
-139.8808674780506
 30
0.0
 10
99.95600040903878
 20
-139.8767333634683
 30
0.0
  0
SPLINE
  5
107
330
FA
100
AcDbEntity
  8
_U+30EC_U+30A4_U+30E4_U+30FC 1
370
     0
100
AcDbSpline
210
0.0
220
0.0
230
1.0
 70
    11
 71
     3
 72
    23
 73
    19
 74
     0
 42
0.0000000001
 43
0.0000000001
 12
1.0
 22
0.0
 32
0.0
 13
1.0
 23
0.0
 33
0.0
 40
0.0
 40
0.0
 40
0.0
 40
0.0
 40
1.0
 40
1.0
 40
1.0
 40
2.0
 40
2.0
 40
2.0
 40
3.0
 40
3.0
 40
3.0
 40
4.0
 40
4.0
 40
4.0
 40
5.0
 40
5.0
 40
5.0
 40
6.0
 40
6.0
 40
6.0
 40
6.0
 10
98.67201332168617
 20
-139.5253336239728
 30
0.0
 10
98.65478784425991
 20
-139.5656412411503
 30
0.0
 10
98.64858667238647
 20
-139.582522209028
 30
0.0
 10
98.62757158992645
 20
-139.582522209028
 30
0.0
 10
98.61275767933986
 20
-139.582522209028
 30
0.0
 10
98.6020778833356
 20
-139.5656412411503
 30
0.0
 10
98.59587671146214
 20
-139.5528943878548
 30
0.0
 10
98.59587671146214
 20
-139.5528943878548
 30
0.0
 10
98.49631345193842
 20
-139.3878743141114
 30
0.0
 10
98.49631345193842
 20
-139.3878743141114
 30
0.0
 10
98.5979437687533
 20
-139.3561794356471
 30
0.0
 10
98.74814993191019
 20
-139.3010579078831
 30
0.0
 10
98.9469319414091
 20
-139.1384494009793
 30
0.0
 10
98.9469319414091
 20
-139.1384494009793
 30
0.0
 10
99.00412052646425
 20
-139.3117377038874
 30
0.0
 10
99.00412052646425
 20
-139.3117377038874
 30
0.0
 10
98.91075843881399
 20
-139.3944199955334
 30
0.0
 10
98.82221948484306
 20
-139.45126407104
 30
0.0
 10
98.67201332168617
 20
-139.5253336239728
 30
0.0
  0
SPLINE
  5
108
330
FA
100
AcDbEntity
  8
_U+30EC_U+30A4_U+30E4_U+30FC 1
370
     0
100
AcDbSpline
210
0.0
220
0.0
230
1.0
 70
    11
 71
     3
 72
    17
 73
    13
 74
     0
 42
0.0000000001
 43
0.0000000001
 12
1.0
 22
0.0
 32
0.0
 13
1.0
 23
0.0
 33
0.0
 40
0.0
 40
0.0
 40
0.0
 40
0.0
 40
1.0
 40
1.0
 40
1.0
 40
2.0
 40
2.0
 40
2.0
 40
3.0
 40
3.0
 40
3.0
 40
4.0
 40
4.0
 40
4.0
 40
4.0
 10
98.82428654213422
 20
-139.0599012239156
 30
0.0
 10
98.79465872096107
 20
-139.0199381162867
 30
0.0
 10
98.72679033990164
 20
-138.9224419140541
 30
0.0
 10
98.54488929828045
 20
-138.8125433680746
 30
0.0
 10
98.54488929828045
 20
-138.8125433680746
 30
0.0
 10
98.67201332168617
 20
-138.6792181727955
 30
0.0
 10
98.67201332168617
 20
-138.6792181727955
 30
0.0
 10
98.85804847788965
 20
-138.7808484896103
 30
0.0
 10
98.91523706294481
 20
-138.8697319531298
 30
0.0
 10
98.9427978268268
 20
-138.9121066275984
 30
0.0
 10
98.9427978268268
 20
-138.9121066275984
 30
0.0
 10
98.82428654213422
 20
-139.0599012239156
 30
0.0
 10
98.82428654213422
 20
-139.0599012239156
 30
0.0
  0
SPLINE
  5
109
330
FA
100
AcDbEntity
  8
_U+30EC_U+30A4_U+30E4_U+30FC 1
370
     0
100
AcDbSpline
210
0.0
220
0.0
230
1.0
 70
    11
 71
     3
 72
    38
 73
    34
 74
     0
 42
0.0000000001
 43
0.0000000001
 12
1.0
 22
0.0
 32
0.0
 13
1.0
 23
0.0
 33
0.0
 40
0.0
 40
0.0
 40
0.0
 40
0.0
 40
1.0
 40
1.0
 40
1.0
 40
2.0
 40
2.0
 40
2.0
 40
3.0
 40
3.0
 40
3.0
 40
4.0
 40
4.0
 40
4.0
 40
5.0
 40
5.0
 40
5.0
 40
6.0
 40
6.0
 40
6.0
 40
7.0
 40
7.0
 40
7.0
 40
8.0
 40
8.0
 40
8.0
 40
9.0
 40
9.0
 40
9.0
 40
10.0
 40
10.0
 40
10.0
 40
11.0
 40
11.0
 40
11.0
 40
11.0
 10
99.1922227399589
 20
-138.7553547830195
 30
0.0
 10
99.19015568266774
 20
-138.8018635720704
 30
0.0
 10
99.1880886253766
 20
-138.9183077994718
 30
0.0
 10
99.1880886253766
 20
-138.9627495312315
 30
0.0
 10
99.1880886253766
 20
-138.9627495312315
 30
0.0
 10
99.1880886253766
 20
-139.3096706465962
 30
0.0
 10
99.1880886253766
 20
-139.3096706465962
 30
0.0
 10
99.1880886253766
 20
-139.3964870528245
 30
0.0
 10
99.19015568266774
 20
-139.5380804772683
 30
0.0
 10
99.20083547867202
 20
-139.658658819252
 30
0.0
 10
99.20083547867202
 20
-139.658658819252
 30
0.0
 10
99.0103216983377
 20
-139.658658819252
 30
0.0
 10
99.0103216983377
 20
-139.658658819252
 30
0.0
 10
99.01445581292
 20
-139.5952690623234
 30
0.0
 10
99.01893443705083
 20
-139.5422145918506
 30
0.0
 10
99.02100149434197
 20
-139.4874375736351
 30
0.0
 10
99.02306855163313
 20
-139.3647921743602
 30
0.0
 10
99.02513560892427
 20
-139.3499782637736
 30
0.0
 10
99.02513560892427
 20
-139.3055365320139
 30
0.0
 10
99.02513560892427
 20
-139.3055365320139
 30
0.0
 10
99.02513560892427
 20
-138.9837646136916
 30
0.0
 10
99.02513560892427
 20
-138.9837646136916
 30
0.0
 10
99.02513560892427
 20
-138.9289875954761
 30
0.0
 10
99.01238875562885
 20
-138.6898979687998
 30
0.0
 10
99.0103216983377
 20
-138.6389105556181
 30
0.0
 10
99.0103216983377
 20
-138.6389105556181
 30
0.0
 10
99.21117076512776
 20
-138.6664713195001
 30
0.0
 10
99.21117076512776
 20
-138.6664713195001
 30
0.0
 10
99.23253035713631
 20
-138.6685383767912
 30
0.0
 10
99.26422523560062
 20
-138.673017000922
 30
0.0
 10
99.26422523560062
 20
-138.6981661979644
 30
0.0
 10
99.26422523560062
 20
-138.7257269618464
 30
0.0
 10
99.21358233196744
 20
-138.7470865538549
 30
0.0
 10
99.1922227399589
 20
-138.7553547830195
 30
0.0
  0
SPLINE
  5
10A
330
FA
100
AcDbEntity
  8
_U+30EC_U+30A4_U+30E4_U+30FC 1
370
     0
100
AcDbSpline
210
0.0
220
0.0
230
1.0
 70
    11
 71
     3
 72
    83
 73
    79
 74
     0
 42
0.0000000001
 43
0.0000000001
 12
1.0
 22
0.0
 32
0.0
 13
1.0
 23
0.0
 33
0.0
 40
0.0
 40
0.0
 40
0.0
 40
0.0
 40
1.0
 40
1.0
 40
1.0
 40
2.0
 40
2.0
 40
2.0
 40
3.0
 40
3.0
 40
3.0
 40
4.0
 40
4.0
 40
4.0
 40
5.0
 40
5.0
 40
5.0
 40
6.0
 40
6.0
 40
6.0
 40
7.0
 40
7.0
 40
7.0
 40
8.0
 40
8.0
 40
8.0
 40
9.0
 40
9.0
 40
9.0
 40
10.0
 40
10.0
 40
10.0
 40
11.0
 40
11.0
 40
11.0
 40
12.0
 40
12.0
 40
12.0
 40
13.0
 40
13.0
 40
13.0
 40
14.0
 40
14.0
 40
14.0
 40
15.0
 40
15.0
 40
15.0
 40
16.0
 40
16.0
 40
16.0
 40
17.0
 40
17.0
 40
17.0
 40
18.0
 40
18.0
 40
18.0
 40
19.0
 40
19.0
 40
19.0
 40
20.0
 40
20.0
 40
20.0
 40
21.0
 40
21.0
 40
21.0
 40
22.0
 40
22.0
 40
22.0
 40
23.0
 40
23.0
 40
23.0
 40
24.0
 40
24.0
 40
24.0
 40
25.0
 40
25.0
 40
25.0
 40
26.0
 40
26.0
 40
26.0
 40
26.0
 10
99.99389645937653
 20
-139.0771267013418
 30
0.0
 10
99.99389645937653
 20
-139.0771267013418
 30
0.0
 10
99.89674476669248
 20
-139.0771267013418
 30
0.0
 10
99.89674476669248
 20
-139.0771267013418
 30
0.0
 10
99.89674476669248
 20
-139.0771267013418
 30
0.0
 10
99.89674476669248
 20
-139.3244845571828
 30
0.0
 10
99.89674476669248
 20
-139.3244845571828
 30
0.0
 10
99.89674476669248
 20
-139.3244845571828
 30
0.0
 10
99.97908254878996
 20
-139.3244845571828
 30
0.0
 10
99.97908254878996
 20
-139.3244845571828
 30
0.0
 10
100.0448838725582
 20
-139.3244845571828
 30
0.0
 10
100.1844102397108
 20
-139.3203504426005
 30
0.0
 10
100.2839734992346
 20
-139.3117377038874
 30
0.0
 10
100.2839734992346
 20
-139.3117377038874
 30
0.0
 10
100.2839734992346
 20
-139.4915716882174
 30
0.0
 10
100.2839734992346
 20
-139.4915716882174
 30
0.0
 10
100.1909559211328
 20
-139.4833034590528
 30
0.0
 10
100.0407497579759
 20
-139.478824834922
 30
0.0
 10
99.97908254878996
 20
-139.478824834922
 30
0.0
 10
99.97908254878996
 20
-139.478824834922
 30
0.0
 10
99.67453610789387
 20
-139.478824834922
 30
0.0
 10
99.67453610789387
 20
-139.478824834922
 30
0.0
 10
99.62182614696955
 20
-139.478824834922
 30
0.0
 10
99.47575409839496
 20
-139.4833034590528
 30
0.0
 10
99.36998966699778
 20
-139.4915716882174
 30
0.0
 10
99.36998966699778
 20
-139.4915716882174
 30
0.0
 10
99.36998966699778
 20
-139.3117377038874
 30
0.0
 10
99.36998966699778
 20
-139.3117377038874
 30
0.0
 10
99.4695529265215
 20
-139.3203504426005
 30
0.0
 10
99.60907929367413
 20
-139.3244845571828
 30
0.0
 10
99.67453610789387
 20
-139.3244845571828
 30
0.0
 10
99.67453610789387
 20
-139.3244845571828
 30
0.0
 10
99.71897783965359
 20
-139.3244845571828
 30
0.0
 10
99.71897783965359
 20
-139.3244845571828
 30
0.0
 10
99.71897783965359
 20
-139.3244845571828
 30
0.0
 10
99.71897783965359
 20
-139.0771267013418
 30
0.0
 10
99.71897783965359
 20
-139.0771267013418
 30
0.0
 10
99.71897783965359
 20
-139.0771267013418
 30
0.0
 10
99.64490828672072
 20
-139.0771267013418
 30
0.0
 10
99.64490828672072
 20
-139.0771267013418
 30
0.0
 10
99.58358558708328
 20
-139.0771267013418
 30
0.0
 10
99.41649845604866
 20
-139.0812608159241
 30
0.0
 10
99.29592011406491
 20
-139.0895290450887
 30
0.0
 10
99.29592011406491
 20
-139.0895290450887
 30
0.0
 10
99.29592011406491
 20
-138.9121066275984
 30
0.0
 10
99.29592011406491
 20
-138.9121066275984
 30
0.0
 10
99.41029728417521
 20
-138.9183077994718
 30
0.0
 10
99.5687716764967
 20
-138.9224419140541
 30
0.0
 10
99.64490828672072
 20
-138.9224419140541
 30
0.0
 10
99.64490828672072
 20
-138.9224419140541
 30
0.0
 10
99.71691078236245
 20
-138.9224419140541
 30
0.0
 10
99.71691078236245
 20
-138.9224419140541
 30
0.0
 10
99.71277666778015
 20
-138.7701686936061
 30
0.0
 10
99.71070961048899
 20
-138.7364067578506
 30
0.0
 10
99.70416392906702
 20
-138.6433891797489
 30
0.0
 10
99.70416392906702
 20
-138.6433891797489
 30
0.0
 10
99.91569279186136
 20
-138.6664713195001
 30
0.0
 10
99.91569279186136
 20
-138.6664713195001
 30
0.0
 10
99.94118649845221
 20
-138.6685383767912
 30
0.0
 10
99.9646131477519
 20
-138.673017000922
 30
0.0
 10
99.9646131477519
 20
-138.6960991406732
 30
0.0
 10
99.9646131477519
 20
-138.7277940191375
 30
0.0
 10
99.92017141599219
 20
-138.7446749870152
 30
0.0
 10
99.89674476669248
 20
-138.7532877257283
 30
0.0
 10
99.89674476669248
 20
-138.7532877257283
 30
0.0
 10
99.89674476669248
 20
-138.9224419140541
 30
0.0
 10
99.89674476669248
 20
-138.9224419140541
 30
0.0
 10
99.89674476669248
 20
-138.9224419140541
 30
0.0
 10
99.99389645937653
 20
-138.9224419140541
 30
0.0
 10
99.99389645937653
 20
-138.9224419140541
 30
0.0
 10
100.0703775791491
 20
-138.9224419140541
 30
0.0
 10
100.2288519714706
 20
-138.9183077994718
 30
0.0
 10
100.345296198872
 20
-138.9121066275984
 30
0.0
 10
100.345296198872
 20
-138.9121066275984
 30
0.0
 10
100.345296198872
 20
-139.0895290450887
 30
0.0
 10
100.345296198872
 20
-139.0895290450887
 30
0.0
 10
100.2374647101837
 20
-139.0833278732153
 30
0.0
 10
100.0638318977271
 20
-139.0771267013418
 30
0.0
 10
99.99389645937653
 20
-139.0771267013418
 30
0.0
  0
SPLINE
  5
10B
330
FA
100
AcDbEntity
  8
_U+30EC_U+30A4_U+30E4_U+30FC 1
370
     0
100
AcDbSpline
210
0.0
220
0.0
230
1.0
 70
    11
 71
     3
 72
    17
 73
    13
 74
     0
 42
0.0000000001
 43
0.0000000001
 12
1.0
 22
0.0
 32
0.0
 13
1.0
 23
0.0
 33
0.0
 40
0.0
 40
0.0
 40
0.0
 40
0.0
 40
1.0
 40
1.0
 40
1.0
 40
2.0
 40
2.0
 40
2.0
 40
3.0
 40
3.0
 40
3.0
 40
4.0
 40
4.0
 40
4.0
 40
4.0
 10
99.74860566082674
 20
-139.8746663061772
 30
0.0
 10
99.74860566082674
 20
-139.8746663061772
 30
0.0
 10
99.54568953674553
 20
-139.8746663061772
 30
0.0
 10
99.54568953674553
 20
-139.8746663061772
 30
0.0
 10
99.572905791079
 20
-139.9339219485235
 30
0.0
 10
99.628027318843
 20
-140.0055799346167
 30
0.0
 10
99.65558808272499
 20
-140.0352077557898
 30
0.0
 10
99.683148846607
 20
-140.0203938452032
 30
0.0
 10
99.79718150716876
 20
-139.9570040882747
 30
0.0
 10
99.88813202797937
 20
-139.8746663061772
 30
0.0
 10
99.88813202797937
 20
-139.8746663061772
 30
0.0
 10
99.74860566082674
 20
-139.8746663061772
 30
0.0
 10
99.74860566082674
 20
-139.8746663061772
 30
0.0
  0
HATCH
  5
10C
330
FA
100
AcDbEntity
  8
_U+30EC_U+30A4_U+30E4_U+30FC 1
 62
   179
420
  2234388
100
AcDbHatch
 10
0.0
 20
0.0
 30
0.0
210
0.0
220
0.0
230
1.0
  2
SOLID
 70
     1
 71
     0
 91
        6
 92
        1
 93
        1
 72
     4
 94
        3
 73
     0
 74
     1
 95
      113
 96
      109
 40
0.0
 40
0.0
 40
0.0
 40
0.0
 40
1.0
 40
1.0
 40
1.0
 40
2.0
 40
2.0
 40
2.0
 40
3.0
 40
3.0
 40
3.0
 40
4.0
 40
4.0
 40
4.0
 40
5.0
 40
5.0
 40
5.0
 40
6.0
 40
6.0
 40
6.0
 40
7.0
 40
7.0
 40
7.0
 40
8.0
 40
8.0
 40
8.0
 40
9.0
 40
9.0
 40
9.0
 40
10.0
 40
10.0
 40
10.0
 40
11.0
 40
11.0
 40
11.0
 40
12.0
 40
12.0
 40
12.0
 40
13.0
 40
13.0
 40
13.0
 40
14.0
 40
14.0
 40
14.0
 40
15.0
 40
15.0
 40
15.0
 40
16.0
 40
16.0
 40
16.0
 40
17.0
 40
17.0
 40
17.0
 40
18.0
 40
18.0
 40
18.0
 40
19.0
 40
19.0
 40
19.0
 40
20.0
 40
20.0
 40
20.0
 40
21.0
 40
21.0
 40
21.0
 40
22.0
 40
22.0
 40
22.0
 40
23.0
 40
23.0
 40
23.0
 40
24.0
 40
24.0
 40
24.0
 40
25.0
 40
25.0
 40
25.0
 40
26.0
 40
26.0
 40
26.0
 40
27.0
 40
27.0
 40
27.0
 40
28.0
 40
28.0
 40
28.0
 40
29.0
 40
29.0
 40
29.0
 40
30.0
 40
30.0
 40
30.0
 40
31.0
 40
31.0
 40
31.0
 40
32.0
 40
32.0
 40
32.0
 40
33.0
 40
33.0
 40
33.0
 40
34.0
 40
34.0
 40
34.0
 40
35.0
 40
35.0
 40
35.0
 40
36.0
 40
36.0
 40
36.0
 40
36.0
 10
99.95600040903878
 20
-139.8767333634683
 10
99.95600040903878
 20
-139.8767333634683
 10
100.0555636685625
 20
-139.9759521134435
 10
100.0555636685625
 20
-139.9759521134435
 10
100.0658989550183
 20
-139.9866319094478
 10
100.0765787510225
 20
-139.9993787627432
 10
100.0765787510225
 20
-140.0141926733298
 10
100.0765787510225
 20
-140.0162597306209
 10
100.0765787510225
 20
-140.0458875517941
 10
100.0383381911362
 20
-140.0458875517941
 10
100.0300699619716
 20
-140.0458875517941
 10
99.98976234479423
 20
-140.0417534372118
 10
99.98356117292079
 20
-140.0417534372118
 10
99.94325355574335
 20
-140.0734483156761
 10
99.89674476669248
 20
-140.1072102514315
 10
99.79718150716876
 20
-140.1643988364867
 10
99.94325355574335
 20
-140.272230325175
 10
100.1020724576134
 20
-140.3294189102301
 10
100.3749240200452
 20
-140.3673149605679
 10
100.3749240200452
 20
-140.3673149605679
 10
100.2247178568883
 20
-140.5430148303157
 10
100.2247178568883
 20
-140.5430148303157
 10
99.96220158091224
 20
-140.4710123346739
 10
99.80579424588188
 20
-140.3821288711545
 10
99.72965763565787
 20
-140.3294189102301
 10
99.57945147250098
 20
-140.2277885934153
 10
99.43544648121753
 20
-140.064835576963
 10
99.35930987099351
 20
-139.8998155032195
 10
99.29178599948261
 20
-139.9656168269878
 10
99.21771644654974
 20
-140.0183267879121
 10
99.13951277903458
 20
-140.0669026342541
 10
99.13951277903458
 20
-140.0669026342541
 10
99.13951277903458
 20
-140.3187391142259
 10
99.13951277903458
 20
-140.3187391142259
 10
99.30212128593837
 20
-140.293245407635
 10
99.48850095169038
 20
-140.2488036758753
 10
99.55189070861897
 20
-140.2339897652887
 10
99.55189070861897
 20
-140.2339897652887
 10
99.52226288744583
 20
-140.403488463163
 10
99.52226288744583
 20
-140.403488463163
 10
99.52019583015468
 20
-140.403488463163
 10
99.50124780498581
 20
-140.4096896350365
 10
99.49918074769465
 20
-140.4096896350365
 10
99.30005422864721
 20
-140.4479301949227
 10
98.9827609344557
 20
-140.5133870091425
 10
98.78604598224794
 20
-140.5492160021891
 10
98.77536618624366
 20
-140.5664414796153
 10
98.75228404649249
 20
-140.5981363580796
 10
98.72885739719278
 20
-140.5981363580796
 10
98.70164114285932
 20
-140.5981363580796
 10
98.69716251872849
 20
-140.5788438233622
 10
98.69509546143735
 20
-140.5598957981934
 10
98.69509546143735
 20
-140.5598957981934
 10
98.6696017548465
 20
-140.3866074952853
 10
98.6696017548465
 20
-140.3866074952853
 10
98.74367130777937
 20
-140.3779947565722
 10
98.85184730601621
 20
-140.3652479032768
 10
98.95967879470453
 20
-140.3442328208167
 10
98.95967879470453
 20
-140.3442328208167
 10
98.95967879470453
 20
-140.1664658937778
 10
98.95967879470453
 20
-140.1664658937778
 10
98.81567380342109
 20
-140.2384683894196
 10
98.72058916802818
 20
-140.2680962105927
 10
98.55556909428472
 20
-140.2977240317659
 10
98.55556909428472
 20
-140.2977240317659
 10
98.43499075230098
 20
-140.1282253338915
 10
98.43499075230098
 20
-140.1282253338915
 10
98.75228404649249
 20
-140.1010090795581
 10
98.94486488411796
 20
-140.0076469919078
 10
99.12263181115685
 20
-139.8746663061772
 10
98.97655976258226
 20
-139.8746663061772
 10
98.67614743626847
 20
-139.8788004207595
 10
98.47943248406071
 20
-139.8850015926329
 10
98.47943248406071
 20
-139.8850015926329
 10
98.47943248406071
 20
-139.707234665594
 10
98.47943248406071
 20
-139.707234665594
 10
98.63377276179989
 20
-139.713780347016
 10
98.93005097353138
 20
-139.7199815188895
 10
99.11401907244372
 20
-139.7199815188895
 10
99.11401907244372
 20
-139.7199815188895
 10
99.32554793523806
 20
-139.7199815188895
 10
99.32554793523806
 20
-139.7199815188895
 10
99.32554793523806
 20
-139.6248968834965
 10
99.3234808779469
 20
-139.5742539798634
 10
99.31693519652494
 20
-139.527400681264
 10
99.31693519652494
 20
-139.527400681264
 10
99.5329426834501
 20
-139.5446261586902
 10
99.5329426834501
 20
-139.5446261586902
 10
99.58151852979212
 20
-139.5487602732725
 10
99.59013126850525
 20
-139.5635741838591
 10
99.59013126850525
 20
-139.5783880944457
 10
99.59013126850525
 20
-139.6038818010365
 10
99.572905791079
 20
-139.6121500302011
 10
99.52226288744583
 20
-139.637643736792
 10
99.52019583015468
 20
-139.6631374433828
 10
99.52019583015468
 20
-139.6693386152563
 10
99.51812877286353
 20
-139.7199815188895
 10
99.51812877286353
 20
-139.7199815188895
 10
99.74860566082674
 20
-139.7199815188895
 10
99.74860566082674
 20
-139.7199815188895
 10
99.9136257345702
 20
-139.7199815188895
 10
100.2057698317194
 20
-139.713780347016
 10
100.3852593065009
 20
-139.707234665594
 10
100.3852593065009
 20
-139.707234665594
 10
100.3852593065009
 20
-139.8850015926329
 10
100.3852593065009
 20
-139.8850015926329
 10
100.2564127353526
 20
-139.8808674780506
 10
100.2329860860529
 20
-139.8808674780506
 10
99.95600040903878
 20
-139.8767333634683
 97
        0
 97
        0
 92
        1
 93
        1
 72
     4
 94
        3
 73
     0
 74
     1
 95
       23
 96
       19
 40
0.0
 40
0.0
 40
0.0
 40
0.0
 40
1.0
 40
1.0
 40
1.0
 40
2.0
 40
2.0
 40
2.0
 40
3.0
 40
3.0
 40
3.0
 40
4.0
 40
4.0
 40
4.0
 40
5.0
 40
5.0
 40
5.0
 40
6.0
 40
6.0
 40
6.0
 40
6.0
 10
98.67201332168617
 20
-139.5253336239728
 10
98.65478784425991
 20
-139.5656412411503
 10
98.64858667238647
 20
-139.582522209028
 10
98.62757158992645
 20
-139.582522209028
 10
98.61275767933986
 20
-139.582522209028
 10
98.6020778833356
 20
-139.5656412411503
 10
98.59587671146214
 20
-139.5528943878548
 10
98.59587671146214
 20
-139.5528943878548
 10
98.49631345193842
 20
-139.3878743141114
 10
98.49631345193842
 20
-139.3878743141114
 10
98.5979437687533
 20
-139.3561794356471
 10
98.74814993191019
 20
-139.3010579078831
 10
98.9469319414091
 20
-139.1384494009793
 10
98.9469319414091
 20
-139.1384494009793
 10
99.00412052646425
 20
-139.3117377038874
 10
99.00412052646425
 20
-139.3117377038874
 10
98.91075843881399
 20
-139.3944199955334
 10
98.82221948484306
 20
-139.45126407104
 10
98.67201332168617
 20
-139.5253336239728
 97
        0
 97
        0
 92
        1
 93
        1
 72
     4
 94
        3
 73
     0
 74
     1
 95
       17
 96
       13
 40
0.0
 40
0.0
 40
0.0
 40
0.0
 40
1.0
 40
1.0
 40
1.0
 40
2.0
 40
2.0
 40
2.0
 40
3.0
 40
3.0
 40
3.0
 40
4.0
 40
4.0
 40
4.0
 40
4.0
 10
98.82428654213422
 20
-139.0599012239156
 10
98.79465872096107
 20
-139.0199381162867
 10
98.72679033990164
 20
-138.9224419140541
 10
98.54488929828045
 20
-138.8125433680746
 10
98.54488929828045
 20
-138.8125433680746
 10
98.67201332168617
 20
-138.6792181727955
 10
98.67201332168617
 20
-138.6792181727955
 10
98.85804847788965
 20
-138.7808484896103
 10
98.91523706294481
 20
-138.8697319531298
 10
98.9427978268268
 20
-138.9121066275984
 10
98.9427978268268
 20
-138.9121066275984
 10
98.82428654213422
 20
-139.0599012239156
 10
98.82428654213422
 20
-139.0599012239156
 97
        0
 97
        0
 92
        1
 93
        1
 72
     4
 94
        3
 73
     0
 74
     1
 95
       38
 96
       34
 40
0.0
 40
0.0
 40
0.0
 40
0.0
 40
1.0
 40
1.0
 40
1.0
 40
2.0
 40
2.0
 40
2.0
 40
3.0
 40
3.0
 40
3.0
 40
4.0
 40
4.0
 40
4.0
 40
5.0
 40
5.0
 40
5.0
 40
6.0
 40
6.0
 40
6.0
 40
7.0
 40
7.0
 40
7.0
 40
8.0
 40
8.0
 40
8.0
 40
9.0
 40
9.0
 40
9.0
 40
10.0
 40
10.0
 40
10.0
 40
11.0
 40
11.0
 40
11.0
 40
11.0
 10
99.1922227399589
 20
-138.7553547830195
 10
99.19015568266774
 20
-138.8018635720704
 10
99.1880886253766
 20
-138.9183077994718
 10
99.1880886253766
 20
-138.9627495312315
 10
99.1880886253766
 20
-138.9627495312315
 10
99.1880886253766
 20
-139.3096706465962
 10
99.1880886253766
 20
-139.3096706465962
 10
99.1880886253766
 20
-139.3964870528245
 10
99.19015568266774
 20
-139.5380804772683
 10
99.20083547867202
 20
-139.658658819252
 10
99.20083547867202
 20
-139.658658819252
 10
99.0103216983377
 20
-139.658658819252
 10
99.0103216983377
 20
-139.658658819252
 10
99.01445581292
 20
-139.5952690623234
 10
99.01893443705083
 20
-139.5422145918506
 10
99.02100149434197
 20
-139.4874375736351
 10
99.02306855163313
 20
-139.3647921743602
 10
99.02513560892427
 20
-139.3499782637736
 10
99.02513560892427
 20
-139.3055365320139
 10
99.02513560892427
 20
-139.3055365320139
 10
99.02513560892427
 20
-138.9837646136916
 10
99.02513560892427
 20
-138.9837646136916
 10
99.02513560892427
 20
-138.9289875954761
 10
99.01238875562885
 20
-138.6898979687998
 10
99.0103216983377
 20
-138.6389105556181
 10
99.0103216983377
 20
-138.6389105556181
 10
99.21117076512776
 20
-138.6664713195001
 10
99.21117076512776
 20
-138.6664713195001
 10
99.23253035713631
 20
-138.6685383767912
 10
99.26422523560062
 20
-138.673017000922
 10
99.26422523560062
 20
-138.6981661979644
 10
99.26422523560062
 20
-138.7257269618464
 10
99.21358233196744
 20
-138.7470865538549
 10
99.1922227399589
 20
-138.7553547830195
 97
        0
 97
        0
 92
        1
 93
        1
 72
     4
 94
        3
 73
     0
 74
     1
 95
       83
 96
       79
 40
0.0
 40
0.0
 40
0.0
 40
0.0
 40
1.0
 40
1.0
 40
1.0
 40
2.0
 40
2.0
 40
2.0
 40
3.0
 40
3.0
 40
3.0
 40
4.0
 40
4.0
 40
4.0
 40
5.0
 40
5.0
 40
5.0
 40
6.0
 40
6.0
 40
6.0
 40
7.0
 40
7.0
 40
7.0
 40
8.0
 40
8.0
 40
8.0
 40
9.0
 40
9.0
 40
9.0
 40
10.0
 40
10.0
 40
10.0
 40
11.0
 40
11.0
 40
11.0
 40
12.0
 40
12.0
 40
12.0
 40
13.0
 40
13.0
 40
13.0
 40
14.0
 40
14.0
 40
14.0
 40
15.0
 40
15.0
 40
15.0
 40
16.0
 40
16.0
 40
16.0
 40
17.0
 40
17.0
 40
17.0
 40
18.0
 40
18.0
 40
18.0
 40
19.0
 40
19.0
 40
19.0
 40
20.0
 40
20.0
 40
20.0
 40
21.0
 40
21.0
 40
21.0
 40
22.0
 40
22.0
 40
22.0
 40
23.0
 40
23.0
 40
23.0
 40
24.0
 40
24.0
 40
24.0
 40
25.0
 40
25.0
 40
25.0
 40
26.0
 40
26.0
 40
26.0
 40
26.0
 10
99.99389645937653
 20
-139.0771267013418
 10
99.99389645937653
 20
-139.0771267013418
 10
99.89674476669248
 20
-139.0771267013418
 10
99.89674476669248
 20
-139.0771267013418
 10
99.89674476669248
 20
-139.0771267013418
 10
99.89674476669248
 20
-139.3244845571828
 10
99.89674476669248
 20
-139.3244845571828
 10
99.89674476669248
 20
-139.3244845571828
 10
99.97908254878996
 20
-139.3244845571828
 10
99.97908254878996
 20
-139.3244845571828
 10
100.0448838725582
 20
-139.3244845571828
 10
100.1844102397108
 20
-139.3203504426005
 10
100.2839734992346
 20
-139.3117377038874
 10
100.2839734992346
 20
-139.3117377038874
 10
100.2839734992346
 20
-139.4915716882174
 10
100.2839734992346
 20
-139.4915716882174
 10
100.1909559211328
 20
-139.4833034590528
 10
100.0407497579759
 20
-139.478824834922
 10
99.97908254878996
 20
-139.478824834922
 10
99.97908254878996
 20
-139.478824834922
 10
99.67453610789387
 20
-139.478824834922
 10
99.67453610789387
 20
-139.478824834922
 10
99.62182614696955
 20
-139.478824834922
 10
99.47575409839496
 20
-139.4833034590528
 10
99.36998966699778
 20
-139.4915716882174
 10
99.36998966699778
 20
-139.4915716882174
 10
99.36998966699778
 20
-139.3117377038874
 10
99.36998966699778
 20
-139.3117377038874
 10
99.4695529265215
 20
-139.3203504426005
 10
99.60907929367413
 20
-139.3244845571828
 10
99.67453610789387
 20
-139.3244845571828
 10
99.67453610789387
 20
-139.3244845571828
 10
99.71897783965359
 20
-139.3244845571828
 10
99.71897783965359
 20
-139.3244845571828
 10
99.71897783965359
 20
-139.3244845571828
 10
99.71897783965359
 20
-139.0771267013418
 10
99.71897783965359
 20
-139.0771267013418
 10
99.71897783965359
 20
-139.0771267013418
 10
99.64490828672072
 20
-139.0771267013418
 10
99.64490828672072
 20
-139.0771267013418
 10
99.58358558708328
 20
-139.0771267013418
 10
99.41649845604866
 20
-139.0812608159241
 10
99.29592011406491
 20
-139.0895290450887
 10
99.29592011406491
 20
-139.0895290450887
 10
99.29592011406491
 20
-138.9121066275984
 10
99.29592011406491
 20
-138.9121066275984
 10
99.41029728417521
 20
-138.9183077994718
 10
99.5687716764967
 20
-138.9224419140541
 10
99.64490828672072
 20
-138.9224419140541
 10
99.64490828672072
 20
-138.9224419140541
 10
99.71691078236245
 20
-138.9224419140541
 10
99.71691078236245
 20
-138.9224419140541
 10
99.71277666778015
 20
-138.7701686936061
 10
99.71070961048899
 20
-138.7364067578506
 10
99.70416392906702
 20
-138.6433891797489
 10
99.70416392906702
 20
-138.6433891797489
 10
99.91569279186136
 20
-138.6664713195001
 10
99.91569279186136
 20
-138.6664713195001
 10
99.94118649845221
 20
-138.6685383767912
 10
99.9646131477519
 20
-138.673017000922
 10
99.9646131477519
 20
-138.6960991406732
 10
99.9646131477519
 20
-138.7277940191375
 10
99.92017141599219
 20
-138.7446749870152
 10
99.89674476669248
 20
-138.7532877257283
 10
99.89674476669248
 20
-138.7532877257283
 10
99.89674476669248
 20
-138.9224419140541
 10
99.89674476669248
 20
-138.9224419140541
 10
99.89674476669248
 20
-138.9224419140541
 10
99.99389645937653
 20
-138.9224419140541
 10
99.99389645937653
 20
-138.9224419140541
 10
100.0703775791491
 20
-138.9224419140541
 10
100.2288519714706
 20
-138.9183077994718
 10
100.345296198872
 20
-138.9121066275984
 10
100.345296198872
 20
-138.9121066275984
 10
100.345296198872
 20
-139.0895290450887
 10
100.345296198872
 20
-139.0895290450887
 10
100.2374647101837
 20
-139.0833278732153
 10
100.0638318977271
 20
-139.0771267013418
 10
99.99389645937653
 20
-139.0771267013418
 97
        0
 97
        0
 92
        1
 93
        1
 72
     4
 94
        3
 73
     0
 74
     1
 95
       17
 96
       13
 40
0.0
 40
0.0
 40
0.0
 40
0.0
 40
1.0
 40
1.0
 40
1.0
 40
2.0
 40
2.0
 40
2.0
 40
3.0
 40
3.0
 40
3.0
 40
4.0
 40
4.0
 40
4.0
 40
4.0
 10
99.74860566082674
 20
-139.8746663061772
 10
99.74860566082674
 20
-139.8746663061772
 10
99.54568953674553
 20
-139.8746663061772
 10
99.54568953674553
 20
-139.8746663061772
 10
99.572905791079
 20
-139.9339219485235
 10
99.628027318843
 20
-140.0055799346167
 10
99.65558808272499
 20
-140.0352077557898
 10
99.683148846607
 20
-140.0203938452032
 10
99.79718150716876
 20
-139.9570040882747
 10
99.88813202797937
 20
-139.8746663061772
 10
99.88813202797937
 20
-139.8746663061772
 10
99.74860566082674
 20
-139.8746663061772
 10
99.74860566082674
 20
-139.8746663061772
 97
        0
 97
        0
 75
     2
 76
     1
 98
        0
  0
SPLINE
  5
10D
330
FA
100
AcDbEntity
  8
_U+30EC_U+30A4_U+30E4_U+30FC 1
370
     0
100
AcDbSpline
210
0.0
220
0.0
230
1.0
 70
    11
 71
     3
 72
    77
 73
    73
 74
     0
 42
0.0000000001
 43
0.0000000001
 12
1.0
 22
0.0
 32
0.0
 13
1.0
 23
0.0
 33
0.0
 40
0.0
 40
0.0
 40
0.0
 40
0.0
 40
1.0
 40
1.0
 40
1.0
 40
2.0
 40
2.0
 40
2.0
 40
3.0
 40
3.0
 40
3.0
 40
4.0
 40
4.0
 40
4.0
 40
5.0
 40
5.0
 40
5.0
 40
6.0
 40
6.0
 40
6.0
 40
7.0
 40
7.0
 40
7.0
 40
8.0
 40
8.0
 40
8.0
 40
9.0
 40
9.0
 40
9.0
 40
10.0
 40
10.0
 40
10.0
 40
11.0
 40
11.0
 40
11.0
 40
12.0
 40
12.0
 40
12.0
 40
13.0
 40
13.0
 40
13.0
 40
14.0
 40
14.0
 40
14.0
 40
15.0
 40
15.0
 40
15.0
 40
16.0
 40
16.0
 40
16.0
 40
17.0
 40
17.0
 40
17.0
 40
18.0
 40
18.0
 40
18.0
 40
19.0
 40
19.0
 40
19.0
 40
20.0
 40
20.0
 40
20.0
 40
21.0
 40
21.0
 40
21.0
 40
22.0
 40
22.0
 40
22.0
 40
23.0
 40
23.0
 40
23.0
 40
24.0
 40
24.0
 40
24.0
 40
24.0
 10
102.2397542062109
 20
-140.5047742704294
 30
0.0
 10
102.19324541716
 20
-140.5302679770202
 30
0.0
 10
102.068532960594
 20
-140.5430148303157
 30
0.0
 10
101.9903292930788
 20
-140.5430148303157
 30
0.0
 10
101.9775824397834
 20
-140.5430148303157
 30
0.0
 10
101.9520887331925
 20
-140.5430148303157
 30
0.0
 10
101.9183267974371
 20
-140.5388807157333
 30
0.0
 10
101.9183267974371
 20
-140.5388807157333
 30
0.0
 10
101.8208305952045
 20
-140.3125379423524
 30
0.0
 10
101.8208305952045
 20
-140.3125379423524
 30
0.0
 10
101.8504584163777
 20
-140.3187391142259
 30
0.0
 10
101.9076470014328
 20
-140.327351852939
 30
0.0
 10
102.0240912288343
 20
-140.327351852939
 30
0.0
 10
102.1022948963494
 20
-140.327351852939
 30
0.0
 10
102.1043619536406
 20
-140.2849771784704
 30
0.0
 10
102.1043619536406
 20
-140.2277885934153
 30
0.0
 10
102.1043619536406
 20
-140.2277885934153
 30
0.0
 10
102.1043619536406
 20
-139.8788004207595
 30
0.0
 10
102.1043619536406
 20
-139.8788004207595
 30
0.0
 10
102.1043619536406
 20
-139.8788004207595
 30
0.0
 10
101.6454752350053
 20
-139.8788004207595
 30
0.0
 10
101.6454752350053
 20
-139.8788004207595
 30
0.0
 10
101.6475422922964
 20
-140.0162597306209
 30
0.0
 10
101.6496093495876
 20
-140.2150417401199
 30
0.0
 10
101.655810521461
 20
-140.348366935399
 30
0.0
 10
101.6582220883007
 20
-140.375927699281
 30
0.0
 10
101.6582220883007
 20
-140.4203694310407
 30
0.0
 10
101.6706244320476
 20
-140.4816921306782
 30
0.0
 10
101.6706244320476
 20
-140.4816921306782
 30
0.0
 10
101.4294677480801
 20
-140.4816921306782
 30
0.0
 10
101.4294677480801
 20
-140.4816921306782
 30
0.0
 10
101.454961454671
 20
-140.3569796741122
 30
0.0
 10
101.454961454671
 20
-140.0162597306209
 30
0.0
 10
101.454961454671
 20
-139.8788004207595
 30
0.0
 10
101.454961454671
 20
-139.8788004207595
 30
0.0
 10
101.0129557039134
 20
-139.8788004207595
 30
0.0
 10
101.0129557039134
 20
-139.8788004207595
 30
0.0
 10
100.9895290546137
 20
-140.0861951689715
 30
0.0
 10
100.924072240394
 20
-140.3545681072725
 30
0.0
 10
100.7273572881862
 20
-140.5388807157333
 30
0.0
 10
100.7273572881862
 20
-140.5388807157333
 30
0.0
 10
100.5389105651431
 20
-140.4162353164585
 30
0.0
 10
100.5389105651431
 20
-140.4162353164585
 30
0.0
 10
100.792814102406
 20
-140.196093714951
 30
0.0
 10
100.8245089808703
 20
-139.8639865101729
 30
0.0
 10
100.8245089808703
 20
-139.5318793053948
 30
0.0
 10
100.8245089808703
 20
-139.5318793053948
 30
0.0
 10
100.8245089808703
 20
-139.0960747265107
 30
0.0
 10
100.8245089808703
 20
-139.0960747265107
 30
0.0
 10
100.8245089808703
 20
-139.0599012239156
 30
0.0
 10
100.8224419235791
 20
-138.8273572786612
 30
0.0
 10
100.813829184866
 20
-138.7257269618464
 30
0.0
 10
100.9537000615671
 20
-138.7364067578506
 30
0.0
 10
101.1948567455346
 20
-138.7364067578506
 30
0.0
 10
101.3385172272695
 20
-138.7364067578506
 30
0.0
 10
101.3385172272695
 20
-138.7364067578506
 30
0.0
 10
101.7977484554533
 20
-138.7364067578506
 30
0.0
 10
101.7977484554533
 20
-138.7364067578506
 30
0.0
 10
101.8125623660399
 20
-138.7364067578506
 30
0.0
 10
102.1615505386957
 20
-138.7364067578506
 30
0.0
 10
102.3203694405657
 20
-138.7257269618464
 30
0.0
 10
102.3179578737261
 20
-138.7787814323192
 30
0.0
 10
102.3117567018526
 20
-138.9393228819318
 30
0.0
 10
102.3117567018526
 20
-138.9903102951135
 30
0.0
 10
102.3117567018526
 20
-138.9903102951135
 30
0.0
 10
102.3117567018526
 20
-139.5973361196146
 30
0.0
 10
102.3117567018526
 20
-139.5973361196146
 30
0.0
 10
102.3117567018526
 20
-139.6162841447834
 30
0.0
 10
102.3224364978569
 20
-140.1874809762379
 30
0.0
 10
102.3224364978569
 20
-140.299791089057
 30
0.0
 10
102.3224364978569
 20
-140.3569796741122
 30
0.0
 10
102.3224364978569
 20
-140.4582654813785
 30
0.0
 10
102.2397542062109
 20
-140.5047742704294
 30
0.0
  0
POLYLINE
  5
10E
330
FA
100
AcDbEntity
  8
_U+30EC_U+30A4_U+30E4_U+30FC 1
370
     0
100
AcDb2dPolyline
 66
     1
 10
0.0
 20
0.0
 30
0.0
  0
VERTEX
  5
10F
330
10E
100
AcDbEntity
  8
_U+30EC_U+30A4_U+30E4_U+30FC 1
370
     0
100
AcDbVertex
100
AcDb2dVertex
 10
101.454961454671
 20
-138.9183077994718
 30
0.0
  0
VERTEX
  5
110
330
10E
100
AcDbEntity
  8
_U+30EC_U+30A4_U+30E4_U+30FC 1
370
     0
100
AcDbVertex
100
AcDb2dVertex
 10
101.0170898184957
 20
-138.9183077994718
 30
0.0
  0
VERTEX
  5
111
330
10E
100
AcDbEntity
  8
_U+30EC_U+30A4_U+30E4_U+30FC 1
370
     0
100
AcDbVertex
100
AcDb2dVertex
 10
101.0170898184957
 20
-139.2228542403679
 30
0.0
  0
VERTEX
  5
112
330
10E
100
AcDbEntity
  8
_U+30EC_U+30A4_U+30E4_U+30FC 1
370
     0
100
AcDbVertex
100
AcDb2dVertex
 10
101.454961454671
 20
-139.2228542403679
 30
0.0
  0
VERTEX
  5
113
330
10E
100
AcDbEntity
  8
_U+30EC_U+30A4_U+30E4_U+30FC 1
370
     0
100
AcDbVertex
100
AcDb2dVertex
 10
101.454961454671
 20
-138.9183077994718
 30
0.0
  0
SEQEND
  5
114
330
10E
100
AcDbEntity
  8
_U+30EC_U+30A4_U+30E4_U+30FC 1
370
     0
  0
POLYLINE
  5
115
330
FA
100
AcDbEntity
  8
_U+30EC_U+30A4_U+30E4_U+30FC 1
370
     0
100
AcDb2dPolyline
 66
     1
 10
0.0
 20
0.0
 30
0.0
  0
VERTEX
  5
116
330
115
100
AcDbEntity
  8
_U+30EC_U+30A4_U+30E4_U+30FC 1
370
     0
100
AcDbVertex
100
AcDb2dVertex
 10
101.454961454671
 20
-139.3899413714025
 30
0.0
  0
VERTEX
  5
117
330
115
100
AcDbEntity
  8
_U+30EC_U+30A4_U+30E4_U+30FC 1
370
     0
100
AcDbVertex
100
AcDb2dVertex
 10
101.0170898184957
 20
-139.3899413714025
 30
0.0
  0
VERTEX
  5
118
330
115
100
AcDbEntity
  8
_U+30EC_U+30A4_U+30E4_U+30FC 1
370
     0
100
AcDbVertex
100
AcDb2dVertex
 10
101.0170898184957
 20
-139.6989664364294
 30
0.0
  0
VERTEX
  5
119
330
115
100
AcDbEntity
  8
_U+30EC_U+30A4_U+30E4_U+30FC 1
370
     0
100
AcDbVertex
100
AcDb2dVertex
 10
101.454961454671
 20
-139.6989664364294
 30
0.0
  0
VERTEX
  5
11A
330
115
100
AcDbEntity
  8
_U+30EC_U+30A4_U+30E4_U+30FC 1
370
     0
100
AcDbVertex
100
AcDb2dVertex
 10
101.454961454671
 20
-139.3899413714025
 30
0.0
  0
SEQEND
  5
11B
330
115
100
AcDbEntity
  8
_U+30EC_U+30A4_U+30E4_U+30FC 1
370
     0
  0
POLYLINE
  5
11C
330
FA
100
AcDbEntity
  8
_U+30EC_U+30A4_U+30E4_U+30FC 1
370
     0
100
AcDb2dPolyline
 66
     1
 10
0.0
 20
0.0
 30
0.0
  0
VERTEX
  5
11D
330
11C
100
AcDbEntity
  8
_U+30EC_U+30A4_U+30E4_U+30FC 1
370
     0
100
AcDbVertex
100
AcDb2dVertex
 10
102.1043619536406
 20
-138.9183077994718
 30
0.0
  0
VERTEX
  5
11E
330
11C
100
AcDbEntity
  8
_U+30EC_U+30A4_U+30E4_U+30FC 1
370
     0
100
AcDbVertex
100
AcDb2dVertex
 10
101.6454752350053
 20
-138.9183077994718
 30
0.0
  0
VERTEX
  5
11F
330
11C
100
AcDbEntity
  8
_U+30EC_U+30A4_U+30E4_U+30FC 1
370
     0
100
AcDbVertex
100
AcDb2dVertex
 10
101.6454752350053
 20
-139.2228542403679
 30
0.0
  0
VERTEX
  5
120
330
11C
100
AcDbEntity
  8
_U+30EC_U+30A4_U+30E4_U+30FC 1
370
     0
100
AcDbVertex
100
AcDb2dVertex
 10
102.1043619536406
 20
-139.2228542403679
 30
0.0
  0
VERTEX
  5
121
330
11C
100
AcDbEntity
  8
_U+30EC_U+30A4_U+30E4_U+30FC 1
370
     0
100
AcDbVertex
100
AcDb2dVertex
 10
102.1043619536406
 20
-138.9183077994718
 30
0.0
  0
SEQEND
  5
122
330
11C
100
AcDbEntity
  8
_U+30EC_U+30A4_U+30E4_U+30FC 1
370
     0
  0
POLYLINE
  5
123
330
FA
100
AcDbEntity
  8
_U+30EC_U+30A4_U+30E4_U+30FC 1
370
     0
100
AcDb2dPolyline
 66
     1
 10
0.0
 20
0.0
 30
0.0
  0
VERTEX
  5
124
330
123
100
AcDbEntity
  8
_U+30EC_U+30A4_U+30E4_U+30FC 1
370
     0
100
AcDbVertex
100
AcDb2dVertex
 10
102.1043619536406
 20
-139.3899413714025
 30
0.0
  0
VERTEX
  5
125
330
123
100
AcDbEntity
  8
_U+30EC_U+30A4_U+30E4_U+30FC 1
370
     0
100
AcDbVertex
100
AcDb2dVertex
 10
101.6454752350053
 20
-139.3899413714025
 30
0.0
  0
VERTEX
  5
126
330
123
100
AcDbEntity
  8
_U+30EC_U+30A4_U+30E4_U+30FC 1
370
     0
100
AcDbVertex
100
AcDb2dVertex
 10
101.6454752350053
 20
-139.6989664364294
 30
0.0
  0
VERTEX
  5
127
330
123
100
AcDbEntity
  8
_U+30EC_U+30A4_U+30E4_U+30FC 1
370
     0
100
AcDbVertex
100
AcDb2dVertex
 10
102.1043619536406
 20
-139.6989664364294
 30
0.0
  0
VERTEX
  5
128
330
123
100
AcDbEntity
  8
_U+30EC_U+30A4_U+30E4_U+30FC 1
370
     0
100
AcDbVertex
100
AcDb2dVertex
 10
102.1043619536406
 20
-139.3899413714025
 30
0.0
  0
SEQEND
  5
129
330
123
100
AcDbEntity
  8
_U+30EC_U+30A4_U+30E4_U+30FC 1
370
     0
  0
HATCH
  5
12A
330
FA
100
AcDbEntity
  8
_U+30EC_U+30A4_U+30E4_U+30FC 1
 62
   179
420
  2234388
100
AcDbHatch
 10
0.0
 20
0.0
 30
0.0
210
0.0
220
0.0
230
1.0
  2
SOLID
 70
     1
 71
     0
 91
        5
 92
        1
 93
        1
 72
     4
 94
        3
 73
     0
 74
     1
 95
       77
 96
       73
 40
0.0
 40
0.0
 40
0.0
 40
0.0
 40
1.0
 40
1.0
 40
1.0
 40
2.0
 40
2.0
 40
2.0
 40
3.0
 40
3.0
 40
3.0
 40
4.0
 40
4.0
 40
4.0
 40
5.0
 40
5.0
 40
5.0
 40
6.0
 40
6.0
 40
6.0
 40
7.0
 40
7.0
 40
7.0
 40
8.0
 40
8.0
 40
8.0
 40
9.0
 40
9.0
 40
9.0
 40
10.0
 40
10.0
 40
10.0
 40
11.0
 40
11.0
 40
11.0
 40
12.0
 40
12.0
 40
12.0
 40
13.0
 40
13.0
 40
13.0
 40
14.0
 40
14.0
 40
14.0
 40
15.0
 40
15.0
 40
15.0
 40
16.0
 40
16.0
 40
16.0
 40
17.0
 40
17.0
 40
17.0
 40
18.0
 40
18.0
 40
18.0
 40
19.0
 40
19.0
 40
19.0
 40
20.0
 40
20.0
 40
20.0
 40
21.0
 40
21.0
 40
21.0
 40
22.0
 40
22.0
 40
22.0
 40
23.0
 40
23.0
 40
23.0
 40
24.0
 40
24.0
 40
24.0
 40
24.0
 10
102.2397542062109
 20
-140.5047742704294
 10
102.19324541716
 20
-140.5302679770202
 10
102.068532960594
 20
-140.5430148303157
 10
101.9903292930788
 20
-140.5430148303157
 10
101.9775824397834
 20
-140.5430148303157
 10
101.9520887331925
 20
-140.5430148303157
 10
101.9183267974371
 20
-140.5388807157333
 10
101.9183267974371
 20
-140.5388807157333
 10
101.8208305952045
 20
-140.3125379423524
 10
101.8208305952045
 20
-140.3125379423524
 10
101.8504584163777
 20
-140.3187391142259
 10
101.9076470014328
 20
-140.327351852939
 10
102.0240912288343
 20
-140.327351852939
 10
102.1022948963494
 20
-140.327351852939
 10
102.1043619536406
 20
-140.2849771784704
 10
102.1043619536406
 20
-140.2277885934153
 10
102.1043619536406
 20
-140.2277885934153
 10
102.1043619536406
 20
-139.8788004207595
 10
102.1043619536406
 20
-139.8788004207595
 10
102.1043619536406
 20
-139.8788004207595
 10
101.6454752350053
 20
-139.8788004207595
 10
101.6454752350053
 20
-139.8788004207595
 10
101.6475422922964
 20
-140.0162597306209
 10
101.6496093495876
 20
-140.2150417401199
 10
101.655810521461
 20
-140.348366935399
 10
101.6582220883007
 20
-140.375927699281
 10
101.6582220883007
 20
-140.4203694310407
 10
101.6706244320476
 20
-140.4816921306782
 10
101.6706244320476
 20
-140.4816921306782
 10
101.4294677480801
 20
-140.4816921306782
 10
101.4294677480801
 20
-140.4816921306782
 10
101.454961454671
 20
-140.3569796741122
 10
101.454961454671
 20
-140.0162597306209
 10
101.454961454671
 20
-139.8788004207595
 10
101.454961454671
 20
-139.8788004207595
 10
101.0129557039134
 20
-139.8788004207595
 10
101.0129557039134
 20
-139.8788004207595
 10
100.9895290546137
 20
-140.0861951689715
 10
100.924072240394
 20
-140.3545681072725
 10
100.7273572881862
 20
-140.5388807157333
 10
100.7273572881862
 20
-140.5388807157333
 10
100.5389105651431
 20
-140.4162353164585
 10
100.5389105651431
 20
-140.4162353164585
 10
100.792814102406
 20
-140.196093714951
 10
100.8245089808703
 20
-139.8639865101729
 10
100.8245089808703
 20
-139.5318793053948
 10
100.8245089808703
 20
-139.5318793053948
 10
100.8245089808703
 20
-139.0960747265107
 10
100.8245089808703
 20
-139.0960747265107
 10
100.8245089808703
 20
-139.0599012239156
 10
100.8224419235791
 20
-138.8273572786612
 10
100.813829184866
 20
-138.7257269618464
 10
100.9537000615671
 20
-138.7364067578506
 10
101.1948567455346
 20
-138.7364067578506
 10
101.3385172272695
 20
-138.7364067578506
 10
101.3385172272695
 20
-138.7364067578506
 10
101.7977484554533
 20
-138.7364067578506
 10
101.7977484554533
 20
-138.7364067578506
 10
101.8125623660399
 20
-138.7364067578506
 10
102.1615505386957
 20
-138.7364067578506
 10
102.3203694405657
 20
-138.7257269618464
 10
102.3179578737261
 20
-138.7787814323192
 10
102.3117567018526
 20
-138.9393228819318
 10
102.3117567018526
 20
-138.9903102951135
 10
102.3117567018526
 20
-138.9903102951135
 10
102.3117567018526
 20
-139.5973361196146
 10
102.3117567018526
 20
-139.5973361196146
 10
102.3117567018526
 20
-139.6162841447834
 10
102.3224364978569
 20
-140.1874809762379
 10
102.3224364978569
 20
-140.299791089057
 10
102.3224364978569
 20
-140.3569796741122
 10
102.3224364978569
 20
-140.4582654813785
 10
102.2397542062109
 20
-140.5047742704294
 97
        0
 97
        0
 92
        1
 93
        4
 72
     1
 10
101.454961454671
 20
-138.9183077994718
 11
101.0170898184957
 21
-138.9183077994718
 72
     1
 10
101.0170898184957
 20
-138.9183077994718
 11
101.0170898184957
 21
-139.2228542403679
 72
     1
 10
101.0170898184957
 20
-139.2228542403679
 11
101.454961454671
 21
-139.2228542403679
 72
     1
 10
101.454961454671
 20
-139.2228542403679
 11
101.454961454671
 21
-138.9183077994718
 97
        0
 92
        1
 93
        4
 72
     1
 10
101.454961454671
 20
-139.3899413714025
 11
101.0170898184957
 21
-139.3899413714025
 72
     1
 10
101.0170898184957
 20
-139.3899413714025
 11
101.0170898184957
 21
-139.6989664364294
 72
     1
 10
101.0170898184957
 20
-139.6989664364294
 11
101.454961454671
 21
-139.6989664364294
 72
     1
 10
101.454961454671
 20
-139.6989664364294
 11
101.454961454671
 21
-139.3899413714025
 97
        0
 92
        1
 93
        4
 72
     1
 10
102.1043619536406
 20
-138.9183077994718
 11
101.6454752350053
 21
-138.9183077994718
 72
     1
 10
101.6454752350053
 20
-138.9183077994718
 11
101.6454752350053
 21
-139.2228542403679
 72
     1
 10
101.6454752350053
 20
-139.2228542403679
 11
102.1043619536406
 21
-139.2228542403679
 72
     1
 10
102.1043619536406
 20
-139.2228542403679
 11
102.1043619536406
 21
-138.9183077994718
 97
        0
 92
        1
 93
        4
 72
     1
 10
102.1043619536406
 20
-139.3899413714025
 11
101.6454752350053
 21
-139.3899413714025
 72
     1
 10
101.6454752350053
 20
-139.3899413714025
 11
101.6454752350053
 21
-139.6989664364294
 72
     1
 10
101.6454752350053
 20
-139.6989664364294
 11
102.1043619536406
 21
-139.6989664364294
 72
     1
 10
102.1043619536406
 20
-139.6989664364294
 11
102.1043619536406
 21
-139.3899413714025
 97
        0
 75
     2
 76
     1
 98
        0
  0
SPLINE
  5
12B
330
FA
100
AcDbEntity
  8
_U+30EC_U+30A4_U+30E4_U+30FC 1
370
     0
100
AcDbSpline
210
0.0
220
0.0
230
1.0
 70
    11
 71
     3
 72
    44
 73
    40
 74
     0
 42
0.0000000001
 43
0.0000000001
 12
1.0
 22
0.0
 32
0.0
 13
1.0
 23
0.0
 33
0.0
 40
0.0
 40
0.0
 40
0.0
 40
0.0
 40
1.0
 40
1.0
 40
1.0
 40
2.0
 40
2.0
 40
2.0
 40
3.0
 40
3.0
 40
3.0
 40
4.0
 40
4.0
 40
4.0
 40
5.0
 40
5.0
 40
5.0
 40
6.0
 40
6.0
 40
6.0
 40
7.0
 40
7.0
 40
7.0
 40
8.0
 40
8.0
 40
8.0
 40
9.0
 40
9.0
 40
9.0
 40
10.0
 40
10.0
 40
10.0
 40
11.0
 40
11.0
 40
11.0
 40
12.0
 40
12.0
 40
12.0
 40
13.0
 40
13.0
 40
13.0
 40
13.0
 10
104.1173312456721
 20
-139.2545491188322
 30
0.0
 10
104.0053656424014
 20
-139.6228298262054
 30
0.0
 10
103.9543782292197
 20
-139.7813042185269
 30
0.0
 10
103.757663277012
 20
-140.0310736412075
 30
0.0
 10
103.5736951780996
 20
-140.2615505291707
 30
0.0
 10
103.3366726087145
 20
-140.4479301949227
 30
0.0
 10
103.0576198744092
 20
-140.5409477730245
 30
0.0
 10
103.0576198744092
 20
-140.5409477730245
 30
0.0
 10
102.8650390367837
 20
-140.3611137886944
 30
0.0
 10
102.8650390367837
 20
-140.3611137886944
 30
0.0
 10
103.5061713065887
 20
-140.2088405682464
 30
0.0
 10
103.8358669445272
 20
-139.6524576473786
 30
0.0
 10
103.8996012110043
 20
-139.2125189539122
 30
0.0
 10
103.8996012110043
 20
-139.2125189539122
 30
0.0
 10
103.1337564846332
 20
-139.2125189539122
 30
0.0
 10
103.1337564846332
 20
-139.2125189539122
 30
0.0
 10
103.0407389065315
 20
-139.2125189539122
 30
0.0
 10
102.8564262980706
 20
-139.2166530684945
 30
0.0
 10
102.7000189630403
 20
-139.2356010936633
 30
0.0
 10
102.7000189630403
 20
-139.2356010936633
 30
0.0
 10
102.7000189630403
 20
-139.0154594921559
 30
0.0
 10
102.7000189630403
 20
-139.0154594921559
 30
0.0
 10
102.7868353692686
 20
-139.0368190841644
 30
0.0
 10
103.0383273396918
 20
-139.0368190841644
 30
0.0
 10
103.1378905992155
 20
-139.0368190841644
 30
0.0
 10
103.1378905992155
 20
-139.0368190841644
 30
0.0
 10
103.5695610635173
 20
-139.0368190841644
 30
0.0
 10
103.5695610635173
 20
-139.0368190841644
 30
0.0
 10
103.6119357379859
 20
-139.0368190841644
 30
0.0
 10
103.8465467405314
 20
-139.0347520268733
 30
0.0
 10
103.8847873004177
 20
-139.0282063454513
 30
0.0
 10
103.9271619748863
 20
-139.0220051735778
 30
0.0
 10
103.9292290321774
 20
-139.0199381162867
 30
0.0
 10
103.9905517318149
 20
-138.9796304991093
 30
0.0
 10
103.9905517318149
 20
-138.9796304991093
 30
0.0
 10
104.1786539453095
 20
-139.1339707768485
 30
0.0
 10
104.1786539453095
 20
-139.1339707768485
 30
0.0
 10
104.1490261241364
 20
-139.1635985980216
 30
0.0
 10
104.1342122135498
 20
-139.1952934764859
 30
0.0
 10
104.1173312456721
 20
-139.2545491188322
 30
0.0
  0
SPLINE
  5
12C
330
FA
100
AcDbEntity
  8
_U+30EC_U+30A4_U+30E4_U+30FC 1
370
     0
100
AcDbSpline
210
0.0
220
0.0
230
1.0
 70
    11
 71
     3
 72
    17
 73
    13
 74
     0
 42
0.0000000001
 43
0.0000000001
 12
1.0
 22
0.0
 32
0.0
 13
1.0
 23
0.0
 33
0.0
 40
0.0
 40
0.0
 40
0.0
 40
0.0
 40
1.0
 40
1.0
 40
1.0
 40
2.0
 40
2.0
 40
2.0
 40
3.0
 40
3.0
 40
3.0
 40
4.0
 40
4.0
 40
4.0
 40
4.0
 10
104.3267930511752
 20
-139.0557671093333
 30
0.0
 10
104.2000135373181
 20
-139.0557671093333
 30
0.0
 10
104.0983832205032
 20
-138.9541367925184
 30
0.0
 10
104.0983832205032
 20
-138.8273572786612
 30
0.0
 10
104.0983832205032
 20
-138.700577764804
 30
0.0
 10
104.2000135373181
 20
-138.596880390698
 30
0.0
 10
104.3267930511752
 20
-138.596880390698
 30
0.0
 10
104.453917074581
 20
-138.596880390698
 30
0.0
 10
104.557614448687
 20
-138.700577764804
 30
0.0
 10
104.557614448687
 20
-138.8273572786612
 30
0.0
 10
104.557614448687
 20
-138.9541367925184
 30
0.0
 10
104.453917074581
 20
-139.0557671093333
 30
0.0
 10
104.3267930511752
 20
-139.0557671093333
 30
0.0
  0
SPLINE
  5
12D
330
FA
100
AcDbEntity
  8
_U+30EC_U+30A4_U+30E4_U+30FC 1
370
     0
100
AcDbSpline
210
0.0
220
0.0
230
1.0
 70
    11
 71
     3
 72
    17
 73
    13
 74
     0
 42
0.0000000001
 43
0.0000000001
 12
1.0
 22
0.0
 32
0.0
 13
1.0
 23
0.0
 33
0.0
 40
0.0
 40
0.0
 40
0.0
 40
0.0
 40
1.0
 40
1.0
 40
1.0
 40
2.0
 40
2.0
 40
2.0
 40
3.0
 40
3.0
 40
3.0
 40
4.0
 40
4.0
 40
4.0
 40
4.0
 10
104.3247259938841
 20
-138.7257269618464
 30
0.0
 10
104.2696044661201
 20
-138.7257269618464
 30
0.0
 10
104.2251627343604
 20
-138.7701686936061
 30
0.0
 10
104.2251627343604
 20
-138.8252902213701
 30
0.0
 10
104.2251627343604
 20
-138.8824788064252
 30
0.0
 10
104.2696044661201
 20
-138.9310546527672
 30
0.0
 10
104.3288601084664
 20
-138.9310546527672
 30
0.0
 10
104.3881157508127
 20
-138.9310546527672
 30
0.0
 10
104.4284233679901
 20
-138.8800672395855
 30
0.0
 10
104.4284233679901
 20
-138.8273572786612
 30
0.0
 10
104.4284233679901
 20
-138.7701686936061
 30
0.0
 10
104.3819145789392
 20
-138.7257269618464
 30
0.0
 10
104.3247259938841
 20
-138.7257269618464
 30
0.0
  0
HATCH
  5
12E
330
FA
100
AcDbEntity
  8
_U+30EC_U+30A4_U+30E4_U+30FC 1
 62
   179
420
  2234388
100
AcDbHatch
 10
0.0
 20
0.0
 30
0.0
210
0.0
220
0.0
230
1.0
  2
SOLID
 70
     1
 71
     0
 91
        3
 92
        1
 93
        1
 72
     4
 94
        3
 73
     0
 74
     1
 95
       44
 96
       40
 40
0.0
 40
0.0
 40
0.0
 40
0.0
 40
1.0
 40
1.0
 40
1.0
 40
2.0
 40
2.0
 40
2.0
 40
3.0
 40
3.0
 40
3.0
 40
4.0
 40
4.0
 40
4.0
 40
5.0
 40
5.0
 40
5.0
 40
6.0
 40
6.0
 40
6.0
 40
7.0
 40
7.0
 40
7.0
 40
8.0
 40
8.0
 40
8.0
 40
9.0
 40
9.0
 40
9.0
 40
10.0
 40
10.0
 40
10.0
 40
11.0
 40
11.0
 40
11.0
 40
12.0
 40
12.0
 40
12.0
 40
13.0
 40
13.0
 40
13.0
 40
13.0
 10
104.1173312456721
 20
-139.2545491188322
 10
104.0053656424014
 20
-139.6228298262054
 10
103.9543782292197
 20
-139.7813042185269
 10
103.757663277012
 20
-140.0310736412075
 10
103.5736951780996
 20
-140.2615505291707
 10
103.3366726087145
 20
-140.4479301949227
 10
103.0576198744092
 20
-140.5409477730245
 10
103.0576198744092
 20
-140.5409477730245
 10
102.8650390367837
 20
-140.3611137886944
 10
102.8650390367837
 20
-140.3611137886944
 10
103.5061713065887
 20
-140.2088405682464
 10
103.8358669445272
 20
-139.6524576473786
 10
103.8996012110043
 20
-139.2125189539122
 10
103.8996012110043
 20
-139.2125189539122
 10
103.1337564846332
 20
-139.2125189539122
 10
103.1337564846332
 20
-139.2125189539122
 10
103.0407389065315
 20
-139.2125189539122
 10
102.8564262980706
 20
-139.2166530684945
 10
102.7000189630403
 20
-139.2356010936633
 10
102.7000189630403
 20
-139.2356010936633
 10
102.7000189630403
 20
-139.0154594921559
 10
102.7000189630403
 20
-139.0154594921559
 10
102.7868353692686
 20
-139.0368190841644
 10
103.0383273396918
 20
-139.0368190841644
 10
103.1378905992155
 20
-139.0368190841644
 10
103.1378905992155
 20
-139.0368190841644
 10
103.5695610635173
 20
-139.0368190841644
 10
103.5695610635173
 20
-139.0368190841644
 10
103.6119357379859
 20
-139.0368190841644
 10
103.8465467405314
 20
-139.0347520268733
 10
103.8847873004177
 20
-139.0282063454513
 10
103.9271619748863
 20
-139.0220051735778
 10
103.9292290321774
 20
-139.0199381162867
 10
103.9905517318149
 20
-138.9796304991093
 10
103.9905517318149
 20
-138.9796304991093
 10
104.1786539453095
 20
-139.1339707768485
 10
104.1786539453095
 20
-139.1339707768485
 10
104.1490261241364
 20
-139.1635985980216
 10
104.1342122135498
 20
-139.1952934764859
 10
104.1173312456721
 20
-139.2545491188322
 97
        0
 97
        0
 92
        1
 93
        1
 72
     4
 94
        3
 73
     0
 74
     1
 95
       17
 96
       13
 40
0.0
 40
0.0
 40
0.0
 40
0.0
 40
1.0
 40
1.0
 40
1.0
 40
2.0
 40
2.0
 40
2.0
 40
3.0
 40
3.0
 40
3.0
 40
4.0
 40
4.0
 40
4.0
 40
4.0
 10
104.3267930511752
 20
-139.0557671093333
 10
104.2000135373181
 20
-139.0557671093333
 10
104.0983832205032
 20
-138.9541367925184
 10
104.0983832205032
 20
-138.8273572786612
 10
104.0983832205032
 20
-138.700577764804
 10
104.2000135373181
 20
-138.596880390698
 10
104.3267930511752
 20
-138.596880390698
 10
104.453917074581
 20
-138.596880390698
 10
104.557614448687
 20
-138.700577764804
 10
104.557614448687
 20
-138.8273572786612
 10
104.557614448687
 20
-138.9541367925184
 10
104.453917074581
 20
-139.0557671093333
 10
104.3267930511752
 20
-139.0557671093333
 97
        0
 97
        0
 92
        1
 93
        1
 72
     4
 94
        3
 73
     0
 74
     1
 95
       17
 96
       13
 40
0.0
 40
0.0
 40
0.0
 40
0.0
 40
1.0
 40
1.0
 40
1.0
 40
2.0
 40
2.0
 40
2.0
 40
3.0
 40
3.0
 40
3.0
 40
4.0
 40
4.0
 40
4.0
 40
4.0
 10
104.3247259938841
 20
-138.7257269618464
 10
104.2696044661201
 20
-138.7257269618464
 10
104.2251627343604
 20
-138.7701686936061
 10
104.2251627343604
 20
-138.8252902213701
 10
104.2251627343604
 20
-138.8824788064252
 10
104.2696044661201
 20
-138.9310546527672
 10
104.3288601084664
 20
-138.9310546527672
 10
104.3881157508127
 20
-138.9310546527672
 10
104.4284233679901
 20
-138.8800672395855
 10
104.4284233679901
 20
-138.8273572786612
 10
104.4284233679901
 20
-138.7701686936061
 10
104.3819145789392
 20
-138.7257269618464
 10
104.3247259938841
 20
-138.7257269618464
 97
        0
 97
        0
 75
     2
 76
     1
 98
        0
  0
SPLINE
  5
12F
330
FA
100
AcDbEntity
  8
_U+30EC_U+30A4_U+30E4_U+30FC 1
370
     0
100
AcDbSpline
210
0.0
220
0.0
230
1.0
 70
    11
 71
     3
 72
    50
 73
    46
 74
     0
 42
0.0000000001
 43
0.0000000001
 12
1.0
 22
0.0
 32
0.0
 13
1.0
 23
0.0
 33
0.0
 40
0.0
 40
0.0
 40
0.0
 40
0.0
 40
1.0
 40
1.0
 40
1.0
 40
2.0
 40
2.0
 40
2.0
 40
3.0
 40
3.0
 40
3.0
 40
4.0
 40
4.0
 40
4.0
 40
5.0
 40
5.0
 40
5.0
 40
6.0
 40
6.0
 40
6.0
 40
7.0
 40
7.0
 40
7.0
 40
8.0
 40
8.0
 40
8.0
 40
9.0
 40
9.0
 40
9.0
 40
10.0
 40
10.0
 40
10.0
 40
11.0
 40
11.0
 40
11.0
 40
12.0
 40
12.0
 40
12.0
 40
13.0
 40
13.0
 40
13.0
 40
14.0
 40
14.0
 40
14.0
 40
15.0
 40
15.0
 40
15.0
 40
15.0
 10
106.1220323085389
 20
-139.5635741838591
 30
0.0
 10
106.0434841314752
 20
-139.741341110898
 30
0.0
 10
105.9080918789049
 20
-139.9483913495615
 30
0.0
 10
105.7706325690435
 20
-140.0882622262627
 30
0.0
 10
105.6014783807177
 20
-140.2594834718796
 30
0.0
 10
105.4385253642654
 20
-140.348366935399
 30
0.0
 10
105.1191650127827
 20
-140.4899603598428
 30
0.0
 10
105.1191650127827
 20
-140.4899603598428
 30
0.0
 10
104.950010824457
 20
-140.3018581463482
 30
0.0
 10
104.950010824457
 20
-140.3018581463482
 30
0.0
 10
105.1360459806604
 20
-140.2784314970484
 30
0.0
 10
105.3072672262774
 20
-140.1919596003687
 30
0.0
 10
105.4598849562739
 20
-140.0861951689715
 30
0.0
 10
105.7220567227014
 20
-139.9042941273503
 30
0.0
 10
105.9125705030358
 20
-139.5911349477411
 30
0.0
 10
105.9611463493778
 20
-139.4092339061199
 30
0.0
 10
105.9611463493778
 20
-139.4092339061199
 30
0.0
 10
105.2903862583996
 20
-139.4092339061199
 30
0.0
 10
105.2903862583996
 20
-139.4092339061199
 30
0.0
 10
105.1319118660781
 20
-139.4092339061199
 30
0.0
 10
104.839767768929
 20
-139.4175021352845
 30
0.0
 10
104.6874945484809
 20
-139.4343831031622
 30
0.0
 10
104.6874945484809
 20
-139.4343831031622
 30
0.0
 10
104.6874945484809
 20
-139.2059732724902
 30
0.0
 10
104.6874945484809
 20
-139.2059732724902
 30
0.0
 10
104.7216009937849
 20
-139.2125189539122
 30
0.0
 10
104.7467501908272
 20
-139.2187201257856
 30
0.0
 10
104.7998046613001
 20
-139.2228542403679
 30
0.0
 10
104.9010904685664
 20
-139.2293999217899
 30
0.0
 10
105.0981499303227
 20
-139.231466979081
 30
0.0
 10
105.1825547697113
 20
-139.231466979081
 30
0.0
 10
105.1825547697113
 20
-139.231466979081
 30
0.0
 10
105.688294786946
 20
-139.231466979081
 30
0.0
 10
105.688294786946
 20
-139.231466979081
 30
0.0
 10
105.7558186584569
 20
-139.231466979081
 30
0.0
 10
105.9018907070315
 20
-139.2273328644987
 30
0.0
 10
105.9632134066689
 20
-139.2207871830768
 30
0.0
 10
106.0352159023106
 20
-139.2125189539122
 30
0.0
 10
106.0627766661926
 20
-139.1977050433256
 30
0.0
 10
106.0965386019481
 20
-139.1742783940259
 30
0.0
 10
106.0965386019481
 20
-139.1742783940259
 30
0.0
 10
106.2615586756916
 20
-139.3413655250605
 30
0.0
 10
106.2615586756916
 20
-139.3413655250605
 30
0.0
 10
106.191623237341
 20
-139.4092339061199
 30
0.0
 10
106.1451144482901
 20
-139.5129312802259
 30
0.0
 10
106.1220323085389
 20
-139.5635741838591
 30
0.0
  0
SPLINE
  5
130
330
FA
100
AcDbEntity
  8
_U+30EC_U+30A4_U+30E4_U+30FC 1
370
     0
100
AcDbSpline
210
0.0
220
0.0
230
1.0
 70
    11
 71
     3
 72
    29
 73
    25
 74
     0
 42
0.0000000001
 43
0.0000000001
 12
1.0
 22
0.0
 32
0.0
 13
1.0
 23
0.0
 33
0.0
 40
0.0
 40
0.0
 40
0.0
 40
0.0
 40
1.0
 40
1.0
 40
1.0
 40
2.0
 40
2.0
 40
2.0
 40
3.0
 40
3.0
 40
3.0
 40
4.0
 40
4.0
 40
4.0
 40
5.0
 40
5.0
 40
5.0
 40
6.0
 40
6.0
 40
6.0
 40
7.0
 40
7.0
 40
7.0
 40
8.0
 40
8.0
 40
8.0
 40
8.0
 10
105.6290391445997
 20
-138.9372558246407
 30
0.0
 10
105.6290391445997
 20
-138.9372558246407
 30
0.0
 10
105.2883192011085
 20
-138.9372558246407
 30
0.0
 10
105.2883192011085
 20
-138.9372558246407
 30
0.0
 10
105.1742865405467
 20
-138.9372558246407
 30
0.0
 10
105.0578423131453
 20
-138.9417344487715
 30
0.0
 10
104.943465143035
 20
-138.9565483593581
 30
0.0
 10
104.943465143035
 20
-138.9565483593581
 30
0.0
 10
104.943465143035
 20
-138.7470865538549
 30
0.0
 10
104.943465143035
 20
-138.7470865538549
 30
0.0
 10
105.0619764277276
 20
-138.7619004644415
 30
0.0
 10
105.2356092401842
 20
-138.7660345790238
 30
0.0
 10
105.2883192011085
 20
-138.7660345790238
 30
0.0
 10
105.2883192011085
 20
-138.7660345790238
 30
0.0
 10
105.6290391445997
 20
-138.7660345790238
 30
0.0
 10
105.6290391445997
 20
-138.7660345790238
 30
0.0
 10
105.7454833720011
 20
-138.7660345790238
 30
0.0
 10
105.8615830898541
 20
-138.7619004644415
 30
0.0
 10
105.9780273172555
 20
-138.7470865538549
 30
0.0
 10
105.9780273172555
 20
-138.7470865538549
 30
0.0
 10
105.9780273172555
 20
-138.9565483593581
 30
0.0
 10
105.9780273172555
 20
-138.9565483593581
 30
0.0
 10
105.8278211540986
 20
-138.9372558246407
 30
0.0
 10
105.6438530551863
 20
-138.9372558246407
 30
0.0
 10
105.6290391445997
 20
-138.9372558246407
 30
0.0
  0
HATCH
  5
131
330
FA
100
AcDbEntity
  8
_U+30EC_U+30A4_U+30E4_U+30FC 1
 62
   179
420
  2234388
100
AcDbHatch
 10
0.0
 20
0.0
 30
0.0
210
0.0
220
0.0
230
1.0
  2
SOLID
 70
     1
 71
     0
 91
        2
 92
        1
 93
        1
 72
     4
 94
        3
 73
     0
 74
     1
 95
       50
 96
       46
 40
0.0
 40
0.0
 40
0.0
 40
0.0
 40
1.0
 40
1.0
 40
1.0
 40
2.0
 40
2.0
 40
2.0
 40
3.0
 40
3.0
 40
3.0
 40
4.0
 40
4.0
 40
4.0
 40
5.0
 40
5.0
 40
5.0
 40
6.0
 40
6.0
 40
6.0
 40
7.0
 40
7.0
 40
7.0
 40
8.0
 40
8.0
 40
8.0
 40
9.0
 40
9.0
 40
9.0
 40
10.0
 40
10.0
 40
10.0
 40
11.0
 40
11.0
 40
11.0
 40
12.0
 40
12.0
 40
12.0
 40
13.0
 40
13.0
 40
13.0
 40
14.0
 40
14.0
 40
14.0
 40
15.0
 40
15.0
 40
15.0
 40
15.0
 10
106.1220323085389
 20
-139.5635741838591
 10
106.0434841314752
 20
-139.741341110898
 10
105.9080918789049
 20
-139.9483913495615
 10
105.7706325690435
 20
-140.0882622262627
 10
105.6014783807177
 20
-140.2594834718796
 10
105.4385253642654
 20
-140.348366935399
 10
105.1191650127827
 20
-140.4899603598428
 10
105.1191650127827
 20
-140.4899603598428
 10
104.950010824457
 20
-140.3018581463482
 10
104.950010824457
 20
-140.3018581463482
 10
105.1360459806604
 20
-140.2784314970484
 10
105.3072672262774
 20
-140.1919596003687
 10
105.4598849562739
 20
-140.0861951689715
 10
105.7220567227014
 20
-139.9042941273503
 10
105.9125705030358
 20
-139.5911349477411
 10
105.9611463493778
 20
-139.4092339061199
 10
105.9611463493778
 20
-139.4092339061199
 10
105.2903862583996
 20
-139.4092339061199
 10
105.2903862583996
 20
-139.4092339061199
 10
105.1319118660781
 20
-139.4092339061199
 10
104.839767768929
 20
-139.4175021352845
 10
104.6874945484809
 20
-139.4343831031622
 10
104.6874945484809
 20
-139.4343831031622
 10
104.6874945484809
 20
-139.2059732724902
 10
104.6874945484809
 20
-139.2059732724902
 10
104.7216009937849
 20
-139.2125189539122
 10
104.7467501908272
 20
-139.2187201257856
 10
104.7998046613001
 20
-139.2228542403679
 10
104.9010904685664
 20
-139.2293999217899
 10
105.0981499303227
 20
-139.231466979081
 10
105.1825547697113
 20
-139.231466979081
 10
105.1825547697113
 20
-139.231466979081
 10
105.688294786946
 20
-139.231466979081
 10
105.688294786946
 20
-139.231466979081
 10
105.7558186584569
 20
-139.231466979081
 10
105.9018907070315
 20
-139.2273328644987
 10
105.9632134066689
 20
-139.2207871830768
 10
106.0352159023106
 20
-139.2125189539122
 10
106.0627766661926
 20
-139.1977050433256
 10
106.0965386019481
 20
-139.1742783940259
 10
106.0965386019481
 20
-139.1742783940259
 10
106.2615586756916
 20
-139.3413655250605
 10
106.2615586756916
 20
-139.3413655250605
 10
106.191623237341
 20
-139.4092339061199
 10
106.1451144482901
 20
-139.5129312802259
 10
106.1220323085389
 20
-139.5635741838591
 97
        0
 97
        0
 92
        1
 93
        1
 72
     4
 94
        3
 73
     0
 74
     1
 95
       29
 96
       25
 40
0.0
 40
0.0
 40
0.0
 40
0.0
 40
1.0
 40
1.0
 40
1.0
 40
2.0
 40
2.0
 40
2.0
 40
3.0
 40
3.0
 40
3.0
 40
4.0
 40
4.0
 40
4.0
 40
5.0
 40
5.0
 40
5.0
 40
6.0
 40
6.0
 40
6.0
 40
7.0
 40
7.0
 40
7.0
 40
8.0
 40
8.0
 40
8.0
 40
8.0
 10
105.6290391445997
 20
-138.9372558246407
 10
105.6290391445997
 20
-138.9372558246407
 10
105.2883192011085
 20
-138.9372558246407
 10
105.2883192011085
 20
-138.9372558246407
 10
105.1742865405467
 20
-138.9372558246407
 10
105.0578423131453
 20
-138.9417344487715
 10
104.943465143035
 20
-138.9565483593581
 10
104.943465143035
 20
-138.9565483593581
 10
104.943465143035
 20
-138.7470865538549
 10
104.943465143035
 20
-138.7470865538549
 10
105.0619764277276
 20
-138.7619004644415
 10
105.2356092401842
 20
-138.7660345790238
 10
105.2883192011085
 20
-138.7660345790238
 10
105.2883192011085
 20
-138.7660345790238
 10
105.6290391445997
 20
-138.7660345790238
 10
105.6290391445997
 20
-138.7660345790238
 10
105.7454833720011
 20
-138.7660345790238
 10
105.8615830898541
 20
-138.7619004644415
 10
105.9780273172555
 20
-138.7470865538549
 10
105.9780273172555
 20
-138.7470865538549
 10
105.9780273172555
 20
-138.9565483593581
 10
105.9780273172555
 20
-138.9565483593581
 10
105.8278211540986
 20
-138.9372558246407
 10
105.6438530551863
 20
-138.9372558246407
 10
105.6290391445997
 20
-138.9372558246407
 97
        0
 97
        0
 75
     2
 76
     1
 98
        0
  0
SPLINE
  5
132
330
FA
100
AcDbEntity
  8
_U+30EC_U+30A4_U+30E4_U+30FC 1
370
     0
100
AcDbSpline
210
0.0
220
0.0
230
1.0
 70
    11
 71
     3
 72
    50
 73
    46
 74
     0
 42
0.0000000001
 43
0.0000000001
 12
1.0
 22
0.0
 32
0.0
 13
1.0
 23
0.0
 33
0.0
 40
0.0
 40
0.0
 40
0.0
 40
0.0
 40
1.0
 40
1.0
 40
1.0
 40
2.0
 40
2.0
 40
2.0
 40
3.0
 40
3.0
 40
3.0
 40
4.0
 40
4.0
 40
4.0
 40
5.0
 40
5.0
 40
5.0
 40
6.0
 40
6.0
 40
6.0
 40
7.0
 40
7.0
 40
7.0
 40
8.0
 40
8.0
 40
8.0
 40
9.0
 40
9.0
 40
9.0
 40
10.0
 40
10.0
 40
10.0
 40
11.0
 40
11.0
 40
11.0
 40
12.0
 40
12.0
 40
12.0
 40
13.0
 40
13.0
 40
13.0
 40
14.0
 40
14.0
 40
14.0
 40
15.0
 40
15.0
 40
15.0
 40
15.0
 10
107.832177707417
 20
-138.9224419140541
 30
0.0
 10
107.6227159019138
 20
-139.1360378341396
 30
0.0
 10
107.5510579158206
 20
-139.2080403297813
 30
0.0
 10
107.4091199818283
 20
-139.3265516144739
 30
0.0
 10
107.4091199818283
 20
-139.3265516144739
 30
0.0
 10
107.4091199818283
 20
-139.893614331346
 30
0.0
 10
107.4091199818283
 20
-139.893614331346
 30
0.0
 10
107.4091199818283
 20
-140.0438204945029
 30
0.0
 10
107.4156656632503
 20
-140.0627685196718
 30
0.0
 10
107.4197997778326
 20
-140.2405354467107
 30
0.0
 10
107.4218668351237
 20
-140.3717935846987
 30
0.0
 10
107.4280680069972
 20
-140.4203694310407
 30
0.0
 10
107.4346136884191
 20
-140.479625073387
 30
0.0
 10
107.4346136884191
 20
-140.479625073387
 30
0.0
 10
107.2082709150382
 20
-140.479625073387
 30
0.0
 10
107.2082709150382
 20
-140.479625073387
 30
0.0
 10
107.2124050296205
 20
-140.4351833416273
 30
0.0
 10
107.2165391442028
 20
-140.3886745525764
 30
0.0
 10
107.2165391442028
 20
-140.3800618138633
 30
0.0
 10
107.2165391442028
 20
-140.299791089057
 30
0.0
 10
107.2210177683336
 20
-139.9483913495615
 30
0.0
 10
107.2210177683336
 20
-139.8767333634683
 30
0.0
 10
107.2210177683336
 20
-139.8767333634683
 30
0.0
 10
107.2210177683336
 20
-139.4705566057574
 30
0.0
 10
107.2210177683336
 20
-139.4705566057574
 30
0.0
 10
107.0391167267125
 20
-139.5952690623234
 30
0.0
 10
106.8444688317958
 20
-139.7051676083029
 30
0.0
 10
106.6412081981661
 20
-139.7919840145312
 30
0.0
 10
106.6412081981661
 20
-139.7919840145312
 30
0.0
 10
106.4382920740849
 20
-139.6290309980789
 30
0.0
 10
106.4382920740849
 20
-139.6290309980789
 30
0.0
 10
106.5609374733598
 20
-139.5932020050323
 30
0.0
 10
106.8169080679138
 20
-139.5191324520994
 30
0.0
 10
107.1617621259873
 20
-139.2631618575453
 30
0.0
 10
107.377425103364
 20
-139.1043429556753
 30
0.0
 10
107.5700059409894
 20
-138.9162407421807
 30
0.0
 10
107.7222791614375
 20
-138.6960991406732
 30
0.0
 10
107.7222791614375
 20
-138.6960991406732
 30
0.0
 10
107.914859999063
 20
-138.8401041319567
 30
0.0
 10
107.914859999063
 20
-138.8401041319567
 30
0.0
 10
107.9276068523584
 20
-138.8507839279609
 30
0.0
 10
107.935875081523
 20
-138.865253328999
 30
0.0
 10
107.935875081523
 20
-138.8780001822944
 30
0.0
 10
107.935875081523
 20
-138.9183077994718
 30
0.0
 10
107.8979790311852
 20
-138.9183077994718
 30
0.0
 10
107.832177707417
 20
-138.9224419140541
 30
0.0
  0
HATCH
  5
133
330
FA
100
AcDbEntity
  8
_U+30EC_U+30A4_U+30E4_U+30FC 1
 62
   179
420
  2234388
100
AcDbHatch
 10
0.0
 20
0.0
 30
0.0
210
0.0
220
0.0
230
1.0
  2
SOLID
 70
     1
 71
     0
 91
        1
 92
        1
 93
        1
 72
     4
 94
        3
 73
     0
 74
     1
 95
       50
 96
       46
 40
0.0
 40
0.0
 40
0.0
 40
0.0
 40
1.0
 40
1.0
 40
1.0
 40
2.0
 40
2.0
 40
2.0
 40
3.0
 40
3.0
 40
3.0
 40
4.0
 40
4.0
 40
4.0
 40
5.0
 40
5.0
 40
5.0
 40
6.0
 40
6.0
 40
6.0
 40
7.0
 40
7.0
 40
7.0
 40
8.0
 40
8.0
 40
8.0
 40
9.0
 40
9.0
 40
9.0
 40
10.0
 40
10.0
 40
10.0
 40
11.0
 40
11.0
 40
11.0
 40
12.0
 40
12.0
 40
12.0
 40
13.0
 40
13.0
 40
13.0
 40
14.0
 40
14.0
 40
14.0
 40
15.0
 40
15.0
 40
15.0
 40
15.0
 10
107.832177707417
 20
-138.9224419140541
 10
107.6227159019138
 20
-139.1360378341396
 10
107.5510579158206
 20
-139.2080403297813
 10
107.4091199818283
 20
-139.3265516144739
 10
107.4091199818283
 20
-139.3265516144739
 10
107.4091199818283
 20
-139.893614331346
 10
107.4091199818283
 20
-139.893614331346
 10
107.4091199818283
 20
-140.0438204945029
 10
107.4156656632503
 20
-140.0627685196718
 10
107.4197997778326
 20
-140.2405354467107
 10
107.4218668351237
 20
-140.3717935846987
 10
107.4280680069972
 20
-140.4203694310407
 10
107.4346136884191
 20
-140.479625073387
 10
107.4346136884191
 20
-140.479625073387
 10
107.2082709150382
 20
-140.479625073387
 10
107.2082709150382
 20
-140.479625073387
 10
107.2124050296205
 20
-140.4351833416273
 10
107.2165391442028
 20
-140.3886745525764
 10
107.2165391442028
 20
-140.3800618138633
 10
107.2165391442028
 20
-140.299791089057
 10
107.2210177683336
 20
-139.9483913495615
 10
107.2210177683336
 20
-139.8767333634683
 10
107.2210177683336
 20
-139.8767333634683
 10
107.2210177683336
 20
-139.4705566057574
 10
107.2210177683336
 20
-139.4705566057574
 10
107.0391167267125
 20
-139.5952690623234
 10
106.8444688317958
 20
-139.7051676083029
 10
106.6412081981661
 20
-139.7919840145312
 10
106.6412081981661
 20
-139.7919840145312
 10
106.4382920740849
 20
-139.6290309980789
 10
106.4382920740849
 20
-139.6290309980789
 10
106.5609374733598
 20
-139.5932020050323
 10
106.8169080679138
 20
-139.5191324520994
 10
107.1617621259873
 20
-139.2631618575453
 10
107.377425103364
 20
-139.1043429556753
 10
107.5700059409894
 20
-138.9162407421807
 10
107.7222791614375
 20
-138.6960991406732
 10
107.7222791614375
 20
-138.6960991406732
 10
107.914859999063
 20
-138.8401041319567
 10
107.914859999063
 20
-138.8401041319567
 10
107.9276068523584
 20
-138.8507839279609
 10
107.935875081523
 20
-138.865253328999
 10
107.935875081523
 20
-138.8780001822944
 10
107.935875081523
 20
-138.9183077994718
 10
107.8979790311852
 20
-138.9183077994718
 10
107.832177707417
 20
-138.9224419140541
 97
        0
 97
        0
 75
     2
 76
     1
 98
        0
  0
SPLINE
  5
134
330
FA
100
AcDbEntity
  8
_U+30EC_U+30A4_U+30E4_U+30FC 1
370
     0
100
AcDbSpline
210
0.0
220
0.0
230
1.0
 70
    11
 71
     3
 72
    50
 73
    46
 74
     0
 42
0.0000000001
 43
0.0000000001
 12
1.0
 22
0.0
 32
0.0
 13
1.0
 23
0.0
 33
0.0
 40
0.0
 40
0.0
 40
0.0
 40
0.0
 40
1.0
 40
1.0
 40
1.0
 40
2.0
 40
2.0
 40
2.0
 40
3.0
 40
3.0
 40
3.0
 40
4.0
 40
4.0
 40
4.0
 40
5.0
 40
5.0
 40
5.0
 40
6.0
 40
6.0
 40
6.0
 40
7.0
 40
7.0
 40
7.0
 40
8.0
 40
8.0
 40
8.0
 40
9.0
 40
9.0
 40
9.0
 40
10.0
 40
10.0
 40
10.0
 40
11.0
 40
11.0
 40
11.0
 40
12.0
 40
12.0
 40
12.0
 40
13.0
 40
13.0
 40
13.0
 40
14.0
 40
14.0
 40
14.0
 40
15.0
 40
15.0
 40
15.0
 40
15.0
 10
109.5406005585524
 20
-139.4491970137488
 30
0.0
 10
109.4792778589149
 20
-139.5211995093905
 30
0.0
 10
109.21882864023
 20
-139.8384928035821
 30
0.0
 10
109.1619845647234
 20
-139.9018825605106
 30
0.0
 10
109.246389404112
 20
-139.9993787627432
 30
0.0
 10
109.2973768172937
 20
-140.0627685196718
 30
0.0
 10
109.3628336315135
 20
-140.1537190404824
 30
0.0
 10
109.3628336315135
 20
-140.1537190404824
 30
0.0
 10
109.1788655326011
 20
-140.2911783503439
 30
0.0
 10
109.1788655326011
 20
-140.2911783503439
 30
0.0
 10
109.0434732800308
 20
-140.0796494875495
 30
0.0
 10
108.8719075248654
 20
-139.8553737714598
 30
0.0
 10
108.5780408799736
 20
-139.6565917619609
 30
0.0
 10
108.5780408799736
 20
-139.6565917619609
 30
0.0
 10
108.7261799858393
 20
-139.5022514842217
 30
0.0
 10
108.7261799858393
 20
-139.5022514842217
 30
0.0
 10
108.8360785318188
 20
-139.582522209028
 30
0.0
 10
108.9397759059248
 20
-139.6714056725474
 30
0.0
 10
109.0369275986088
 20
-139.7664903079403
 30
0.0
 10
109.1047959796683
 20
-139.6903536977163
 30
0.0
 10
109.3077121037495
 20
-139.4471299564577
 30
0.0
 10
109.4410372990286
 20
-139.2187201257856
 30
0.0
 10
109.4410372990286
 20
-139.2187201257856
 30
0.0
 10
108.7682101507593
 20
-139.2187201257856
 30
0.0
 10
108.7682101507593
 20
-139.2187201257856
 30
0.0
 10
108.6434976941933
 20
-139.2187201257856
 30
0.0
 10
108.3916612142215
 20
-139.2273328644987
 30
0.0
 10
108.1821994087183
 20
-139.2376681509545
 30
0.0
 10
108.1821994087183
 20
-139.2376681509545
 30
0.0
 10
108.1821994087183
 20
-139.0178710589955
 30
0.0
 10
108.1821994087183
 20
-139.0178710589955
 30
0.0
 10
108.3665120171792
 20
-139.0368190841644
 30
0.0
 10
108.5714951985516
 20
-139.0409531987467
 30
0.0
 10
108.7599419215947
 20
-139.0409531987467
 30
0.0
 10
108.7599419215947
 20
-139.0409531987467
 30
0.0
 10
109.2632703719897
 20
-139.0409531987467
 30
0.0
 10
109.2632703719897
 20
-139.0409531987467
 30
0.0
 10
109.6019232581898
 20
-139.0409531987467
 30
0.0
 10
109.6463649899495
 20
-139.0261392881602
 30
0.0
 10
109.728702772047
 20
-138.9858316709827
 30
0.0
 10
109.728702772047
 20
-138.9858316709827
 30
0.0
 10
109.8957899030816
 20
-139.1446505728527
 30
0.0
 10
109.8957899030816
 20
-139.1446505728527
 30
0.0
 10
109.7435166826336
 20
-139.2166530684945
 30
0.0
 10
109.5998562008987
 20
-139.3796060849468
 30
0.0
 10
109.5406005585524
 20
-139.4491970137488
 30
0.0
  0
HATCH
  5
135
330
FA
100
AcDbEntity
  8
_U+30EC_U+30A4_U+30E4_U+30FC 1
 62
   179
420
  2234388
100
AcDbHatch
 10
0.0
 20
0.0
 30
0.0
210
0.0
220
0.0
230
1.0
  2
SOLID
 70
     1
 71
     0
 91
        1
 92
        1
 93
        1
 72
     4
 94
        3
 73
     0
 74
     1
 95
       50
 96
       46
 40
0.0
 40
0.0
 40
0.0
 40
0.0
 40
1.0
 40
1.0
 40
1.0
 40
2.0
 40
2.0
 40
2.0
 40
3.0
 40
3.0
 40
3.0
 40
4.0
 40
4.0
 40
4.0
 40
5.0
 40
5.0
 40
5.0
 40
6.0
 40
6.0
 40
6.0
 40
7.0
 40
7.0
 40
7.0
 40
8.0
 40
8.0
 40
8.0
 40
9.0
 40
9.0
 40
9.0
 40
10.0
 40
10.0
 40
10.0
 40
11.0
 40
11.0
 40
11.0
 40
12.0
 40
12.0
 40
12.0
 40
13.0
 40
13.0
 40
13.0
 40
14.0
 40
14.0
 40
14.0
 40
15.0
 40
15.0
 40
15.0
 40
15.0
 10
109.5406005585524
 20
-139.4491970137488
 10
109.4792778589149
 20
-139.5211995093905
 10
109.21882864023
 20
-139.8384928035821
 10
109.1619845647234
 20
-139.9018825605106
 10
109.246389404112
 20
-139.9993787627432
 10
109.2973768172937
 20
-140.0627685196718
 10
109.3628336315135
 20
-140.1537190404824
 10
109.3628336315135
 20
-140.1537190404824
 10
109.1788655326011
 20
-140.2911783503439
 10
109.1788655326011
 20
-140.2911783503439
 10
109.0434732800308
 20
-140.0796494875495
 10
108.8719075248654
 20
-139.8553737714598
 10
108.5780408799736
 20
-139.6565917619609
 10
108.5780408799736
 20
-139.6565917619609
 10
108.7261799858393
 20
-139.5022514842217
 10
108.7261799858393
 20
-139.5022514842217
 10
108.8360785318188
 20
-139.582522209028
 10
108.9397759059248
 20
-139.6714056725474
 10
109.0369275986088
 20
-139.7664903079403
 10
109.1047959796683
 20
-139.6903536977163
 10
109.3077121037495
 20
-139.4471299564577
 10
109.4410372990286
 20
-139.2187201257856
 10
109.4410372990286
 20
-139.2187201257856
 10
108.7682101507593
 20
-139.2187201257856
 10
108.7682101507593
 20
-139.2187201257856
 10
108.6434976941933
 20
-139.2187201257856
 10
108.3916612142215
 20
-139.2273328644987
 10
108.1821994087183
 20
-139.2376681509545
 10
108.1821994087183
 20
-139.2376681509545
 10
108.1821994087183
 20
-139.0178710589955
 10
108.1821994087183
 20
-139.0178710589955
 10
108.3665120171792
 20
-139.0368190841644
 10
108.5714951985516
 20
-139.0409531987467
 10
108.7599419215947
 20
-139.0409531987467
 10
108.7599419215947
 20
-139.0409531987467
 10
109.2632703719897
 20
-139.0409531987467
 10
109.2632703719897
 20
-139.0409531987467
 10
109.6019232581898
 20
-139.0409531987467
 10
109.6463649899495
 20
-139.0261392881602
 10
109.728702772047
 20
-138.9858316709827
 10
109.728702772047
 20
-138.9858316709827
 10
109.8957899030816
 20
-139.1446505728527
 10
109.8957899030816
 20
-139.1446505728527
 10
109.7435166826336
 20
-139.2166530684945
 10
109.5998562008987
 20
-139.3796060849468
 10
109.5406005585524
 20
-139.4491970137488
 97
        0
 97
        0
 75
     2
 76
     1
 98
        0
  0
SPLINE
  5
136
330
FA
100
AcDbEntity
  8
_U+30EC_U+30A4_U+30E4_U+30FC 1
370
     0
100
AcDbSpline
210
0.0
220
0.0
230
1.0
 70
    11
 71
     3
 72
    29
 73
    25
 74
     0
 42
0.0000000001
 43
0.0000000001
 12
1.0
 22
0.0
 32
0.0
 13
1.0
 23
0.0
 33
0.0
 40
0.0
 40
0.0
 40
0.0
 40
0.0
 40
1.0
 40
1.0
 40
1.0
 40
2.0
 40
2.0
 40
2.0
 40
3.0
 40
3.0
 40
3.0
 40
4.0
 40
4.0
 40
4.0
 40
5.0
 40
5.0
 40
5.0
 40
6.0
 40
6.0
 40
6.0
 40
7.0
 40
7.0
 40
7.0
 40
8.0
 40
8.0
 40
8.0
 40
8.0
 10
111.1639295512021
 20
-139.6924207550074
 30
0.0
 10
111.1639295512021
 20
-139.6924207550074
 30
0.0
 10
110.679549125976
 20
-139.6924207550074
 30
0.0
 10
110.679549125976
 20
-139.6924207550074
 30
0.0
 10
110.651988362094
 20
-139.6924207550074
 30
0.0
 10
110.3346950679024
 20
-139.6924207550074
 30
0.0
 10
110.1231662051081
 20
-139.7179144615983
 30
0.0
 10
110.1231662051081
 20
-139.7179144615983
 30
0.0
 10
110.1231662051081
 20
-139.4874375736351
 30
0.0
 10
110.1231662051081
 20
-139.4874375736351
 30
0.0
 10
110.2816405974296
 20
-139.5105197133863
 30
0.0
 10
110.4721543777639
 20
-139.5129312802259
 30
0.0
 10
110.679549125976
 20
-139.5129312802259
 30
0.0
 10
110.679549125976
 20
-139.5129312802259
 30
0.0
 10
111.1639295512021
 20
-139.5129312802259
 30
0.0
 10
111.1639295512021
 20
-139.5129312802259
 30
0.0
 10
111.3499647074056
 20
-139.5129312802259
 30
0.0
 10
111.5363443731576
 20
-139.5105197133863
 30
0.0
 10
111.7203124720699
 20
-139.4874375736351
 30
0.0
 10
111.7203124720699
 20
-139.4874375736351
 30
0.0
 10
111.7203124720699
 20
-139.7179144615983
 30
0.0
 10
111.7203124720699
 20
-139.7179144615983
 30
0.0
 10
111.5363443731576
 20
-139.6948323218471
 30
0.0
 10
111.2886420077681
 20
-139.6924207550074
 30
0.0
 10
111.1639295512021
 20
-139.6924207550074
 30
0.0
  0
HATCH
  5
137
330
FA
100
AcDbEntity
  8
_U+30EC_U+30A4_U+30E4_U+30FC 1
 62
   179
420
  2234388
100
AcDbHatch
 10
0.0
 20
0.0
 30
0.0
210
0.0
220
0.0
230
1.0
  2
SOLID
 70
     1
 71
     0
 91
        1
 92
        1
 93
        1
 72
     4
 94
        3
 73
     0
 74
     1
 95
       29
 96
       25
 40
0.0
 40
0.0
 40
0.0
 40
0.0
 40
1.0
 40
1.0
 40
1.0
 40
2.0
 40
2.0
 40
2.0
 40
3.0
 40
3.0
 40
3.0
 40
4.0
 40
4.0
 40
4.0
 40
5.0
 40
5.0
 40
5.0
 40
6.0
 40
6.0
 40
6.0
 40
7.0
 40
7.0
 40
7.0
 40
8.0
 40
8.0
 40
8.0
 40
8.0
 10
111.1639295512021
 20
-139.6924207550074
 10
111.1639295512021
 20
-139.6924207550074
 10
110.679549125976
 20
-139.6924207550074
 10
110.679549125976
 20
-139.6924207550074
 10
110.651988362094
 20
-139.6924207550074
 10
110.3346950679024
 20
-139.6924207550074
 10
110.1231662051081
 20
-139.7179144615983
 10
110.1231662051081
 20
-139.7179144615983
 10
110.1231662051081
 20
-139.4874375736351
 10
110.1231662051081
 20
-139.4874375736351
 10
110.2816405974296
 20
-139.5105197133863
 10
110.4721543777639
 20
-139.5129312802259
 10
110.679549125976
 20
-139.5129312802259
 10
110.679549125976
 20
-139.5129312802259
 10
111.1639295512021
 20
-139.5129312802259
 10
111.1639295512021
 20
-139.5129312802259
 10
111.3499647074056
 20
-139.5129312802259
 10
111.5363443731576
 20
-139.5105197133863
 10
111.7203124720699
 20
-139.4874375736351
 10
111.7203124720699
 20
-139.4874375736351
 10
111.7203124720699
 20
-139.7179144615983
 10
111.7203124720699
 20
-139.7179144615983
 10
111.5363443731576
 20
-139.6948323218471
 10
111.2886420077681
 20
-139.6924207550074
 10
111.1639295512021
 20
-139.6924207550074
 97
        0
 97
        0
 75
     2
 76
     1
 98
        0
  0
ENDBLK
  5
FD
330
FA
100
AcDbEntity
  8
0
100
AcDbBlockEnd
  0
ENDSEC
  0
SECTION
  2
ENTITIES
  0
POLYLINE
  5
41
330
1F
100
AcDbEntity
  8
_U+30EC_U+30A4_U+30E4_U+30FC 1
  6
AI-Linetype-1
 62
   154
420
    23468
370
    25
100
AcDb2dPolyline
 66
     1
 10
0.0
 20
0.0
 30
0.0
  0
VERTEX
  5
42
330
41
100
AcDbEntity
  8
_U+30EC_U+30A4_U+30E4_U+30FC 1
  6
AI-Linetype-1
 62
   154
420
    23468
370
    25
100
AcDbVertex
100
AcDb2dVertex
 10
77.95718609162174
 20
-120.851189136454
 30
0.0
  0
VERTEX
  5
43
330
41
100
AcDbEntity
  8
_U+30EC_U+30A4_U+30E4_U+30FC 1
  6
AI-Linetype-1
 62
   154
420
    23468
370
    25
100
AcDbVertex
100
AcDb2dVertex
 10
76.36968609201861
 20
-120.851189136454
 30
0.0
  0
VERTEX
  5
44
330
41
100
AcDbEntity
  8
_U+30EC_U+30A4_U+30E4_U+30FC 1
  6
AI-Linetype-1
 62
   154
420
    23468
370
    25
100
AcDbVertex
100
AcDb2dVertex
 10
76.36968609201861
 20
-138.0511871877093
 30
0.0
  0
VERTEX
  5
45
330
41
100
AcDbEntity
  8
_U+30EC_U+30A4_U+30E4_U+30FC 1
  6
AI-Linetype-1
 62
   154
420
    23468
370
    25
100
AcDbVertex
100
AcDb2dVertex
 10
94.1213909320966
 20
-138.0511871877093
 30
0.0
  0
VERTEX
  5
46
330
41
100
AcDbEntity
  8
_U+30EC_U+30A4_U+30E4_U+30FC 1
  6
AI-Linetype-1
 62
   154
420
    23468
370
    25
100
AcDbVertex
100
AcDb2dVertex
 10
94.1213909320966
 20
-136.2335349659418
 30
0.0
  0
SEQEND
  5
48
330
41
100
AcDbEntity
  8
_U+30EC_U+30A4_U+30E4_U+30FC 1
  6
AI-Linetype-1
 62
   154
420
    23468
370
    25
  0
POLYLINE
  5
49
330
1F
100
AcDbEntity
  8
_U+30EC_U+30A4_U+30E4_U+30FC 1
 62
     7
420
 16777215
370
    25
100
AcDb2dPolyline
 66
     1
 10
0.0
 20
0.0
 30
0.0
  0
VERTEX
  5
4A
330
49
100
AcDbEntity
  8
_U+30EC_U+30A4_U+30E4_U+30FC 1
 62
     7
420
 16777215
370
    25
100
AcDbVertex
100
AcDb2dVertex
 10
78.53044998036731
 20
-136.4512694103314
 30
0.0
  0
VERTEX
  5
4B
330
49
100
AcDbEntity
  8
_U+30EC_U+30A4_U+30E4_U+30FC 1
 62
     7
420
 16777215
370
    25
100
AcDbVertex
100
AcDb2dVertex
 10
93.53020830995078
 20
-136.4512694103314
 30
0.0
  0
SEQEND
  5
4C
330
49
100
AcDbEntity
  8
_U+30EC_U+30A4_U+30E4_U+30FC 1
 62
     7
420
 16777215
370
    25
  0
POLYLINE
  5
4D
330
1F
100
AcDbEntity
  8
_U+30EC_U+30A4_U+30E4_U+30FC 1
 62
     7
420
 16777215
370
    25
100
AcDb2dPolyline
 66
     1
 10
0.0
 20
0.0
 30
0.0
  0
VERTEX
  5
4E
330
4D
100
AcDbEntity
  8
_U+30EC_U+30A4_U+30E4_U+30FC 1
 62
     7
420
 16777215
370
    25
100
AcDbVertex
100
AcDb2dVertex
 10
78.53044998036731
 20
-126.4511835794984
 30
0.0
  0
VERTEX
  5
4F
330
4D
100
AcDbEntity
  8
_U+30EC_U+30A4_U+30E4_U+30FC 1
 62
     7
420
 16777215
370
    25
100
AcDbVertex
100
AcDb2dVertex
 10
93.53020830995078
 20
-126.4511835794984
 30
0.0
  0
SEQEND
  5
50
330
4D
100
AcDbEntity
  8
_U+30EC_U+30A4_U+30E4_U+30FC 1
 62
     7
420
 16777215
370
    25
  0
POLYLINE
  5
51
330
1F
100
AcDbEntity
  8
_U+30EC_U+30A4_U+30E4_U+30FC 1
 62
     7
420
 16777215
370
    25
100
AcDb2dPolyline
 66
     1
 10
0.0
 20
0.0
 30
0.0
  0
VERTEX
  5
52
330
51
100
AcDbEntity
  8
_U+30EC_U+30A4_U+30E4_U+30FC 1
 62
     7
420
 16777215
370
    25
100
AcDbVertex
100
AcDb2dVertex
 10
78.53044998036731
 20
-137.4517471878594
 30
0.0
  0
VERTEX
  5
53
330
51
100
AcDbEntity
  8
_U+30EC_U+30A4_U+30E4_U+30FC 1
 62
     7
420
 16777215
370
    25
100
AcDbVertex
100
AcDb2dVertex
 10
92.5297634727024
 20
-137.4517471878594
 30
0.0
  0
SEQEND
  5
54
330
51
100
AcDbEntity
  8
_U+30EC_U+30A4_U+30E4_U+30FC 1
 62
     7
420
 16777215
370
    25
  0
POLYLINE
  5
55
330
1F
100
AcDbEntity
  8
_U+30EC_U+30A4_U+30E4_U+30FC 1
 62
     7
420
 16777215
370
    25
100
AcDb2dPolyline
 66
     1
 10
0.0
 20
0.0
 30
0.0
  0
VERTEX
  5
56
330
55
100
AcDbEntity
  8
_U+30EC_U+30A4_U+30E4_U+30FC 1
 62
     7
420
 16777215
370
    25
100
AcDbVertex
100
AcDb2dVertex
 10
77.52997220283989
 20
-122.4511069138316
 30
0.0
  0
VERTEX
  5
57
330
55
100
AcDbEntity
  8
_U+30EC_U+30A4_U+30E4_U+30FC 1
 62
     7
420
 16777215
370
    25
100
AcDbVertex
100
AcDb2dVertex
 10
77.52997220283989
 20
-136.4512694103314
 30
0.0
  0
SEQEND
  5
58
330
55
100
AcDbEntity
  8
_U+30EC_U+30A4_U+30E4_U+30FC 1
 62
     7
420
 16777215
370
    25
  0
POLYLINE
  5
59
330
1F
100
AcDbEntity
  8
_U+30EC_U+30A4_U+30E4_U+30FC 1
 62
     7
420
 16777215
370
    25
100
AcDb2dPolyline
 66
     1
 10
0.0
 20
0.0
 30
0.0
  0
VERTEX
  5
5A
330
59
100
AcDbEntity
  8
_U+30EC_U+30A4_U+30E4_U+30FC 1
 62
     7
420
 16777215
370
    25
100
AcDbVertex
100
AcDb2dVertex
 10
78.53044998036731
 20
-121.4513346918593
 30
0.0
  0
VERTEX
  5
5B
330
59
100
AcDbEntity
  8
_U+30EC_U+30A4_U+30E4_U+30FC 1
 62
     7
420
 16777215
370
    25
100
AcDbVertex
100
AcDb2dVertex
 10
78.53044998036731
 20
-125.4514466353037
 30
0.0
  0
SEQEND
  5
5C
330
59
100
AcDbEntity
  8
_U+30EC_U+30A4_U+30E4_U+30FC 1
 62
     7
420
 16777215
370
    25
  0
POLYLINE
  5
5D
330
1F
100
AcDbEntity
  8
_U+30EC_U+30A4_U+30E4_U+30FC 1
 62
     7
420
 16777215
370
    25
100
AcDb2dPolyline
 66
     1
 10
0.0
 20
0.0
 30
0.0
  0
VERTEX
  5
5E
330
5D
100
AcDbEntity
  8
_U+30EC_U+30A4_U+30E4_U+30FC 1
 62
     7
420
 16777215
370
    25
100
AcDbVertex
100
AcDb2dVertex
 10
78.53044998036731
 20
-125.4514466353037
 30
0.0
  0
VERTEX
  5
5F
330
5D
100
AcDbEntity
  8
_U+30EC_U+30A4_U+30E4_U+30FC 1
 62
     7
420
 16777215
370
    25
100
AcDbVertex
100
AcDb2dVertex
 10
99.5301796829958
 20
-125.4514466353037
 30
0.0
  0
SEQEND
  5
60
330
5D
100
AcDbEntity
  8
_U+30EC_U+30A4_U+30E4_U+30FC 1
 62
     7
420
 16777215
370
    25
  0
POLYLINE
  5
61
330
1F
100
AcDbEntity
  8
_U+30EC_U+30A4_U+30E4_U+30FC 1
 62
     7
420
 16777215
370
    25
100
AcDb2dPolyline
 66
     1
 10
0.0
 20
0.0
 30
0.0
  0
VERTEX
  5
62
330
61
100
AcDbEntity
  8
_U+30EC_U+30A4_U+30E4_U+30FC 1
 62
     7
420
 16777215
370
    25
100
AcDbVertex
100
AcDb2dVertex
 10
78.53044998036731
 20
-126.4511835794984
 30
0.0
  0
VERTEX
  5
63
330
61
100
AcDbEntity
  8
_U+30EC_U+30A4_U+30E4_U+30FC 1
 62
     7
420
 16777215
370
    25
100
AcDbVertex
100
AcDb2dVertex
 10
78.53044998036731
 20
-136.4512694103314
 30
0.0
  0
SEQEND
  5
64
330
61
100
AcDbEntity
  8
_U+30EC_U+30A4_U+30E4_U+30FC 1
 62
     7
420
 16777215
370
    25
  0
POLYLINE
  5
65
330
1F
100
AcDbEntity
  8
_U+30EC_U+30A4_U+30E4_U+30FC 1
 62
     7
420
 16777215
370
    25
100
AcDb2dPolyline
 66
     1
 10
0.0
 20
0.0
 30
0.0
  0
VERTEX
  5
66
330
65
100
AcDbEntity
  8
_U+30EC_U+30A4_U+30E4_U+30FC 1
 62
     7
420
 16777215
370
    25
100
AcDbVertex
100
AcDb2dVertex
 10
94.04974176725786
 20
-126.1514635795731
 30
0.0
  0
VERTEX
  5
67
330
65
100
AcDbEntity
  8
_U+30EC_U+30A4_U+30E4_U+30FC 1
 62
     7
420
 16777215
370
    25
100
AcDbVertex
100
AcDb2dVertex
 10
98.83012747863339
 20
-126.1514635795731
 30
0.0
  0
SEQEND
  5
68
330
65
100
AcDbEntity
  8
_U+30EC_U+30A4_U+30E4_U+30FC 1
 62
     7
420
 16777215
370
    25
  0
POLYLINE
  5
69
330
1F
100
AcDbEntity
  8
_U+30EC_U+30A4_U+30E4_U+30FC 1
 62
     7
420
 16777215
370
    25
100
AcDb2dPolyline
 66
     1
 10
0.0
 20
0.0
 30
0.0
  0
VERTEX
  5
6A
330
69
100
AcDbEntity
  8
_U+30EC_U+30A4_U+30E4_U+30FC 1
 62
     7
420
 16777215
370
    25
100
AcDbVertex
100
AcDb2dVertex
 10
93.53020830995078
 20
-126.4511835794984
 30
0.0
  0
VERTEX
  5
6B
330
69
100
AcDbEntity
  8
_U+30EC_U+30A4_U+30E4_U+30FC 1
 62
     7
420
 16777215
370
    25
100
AcDbVertex
100
AcDb2dVertex
 10
94.04974176725786
 20
-126.1514635795731
 30
0.0
  0
SEQEND
  5
6C
330
69
100
AcDbEntity
  8
_U+30EC_U+30A4_U+30E4_U+30FC 1
 62
     7
420
 16777215
370
    25
  0
POLYLINE
  5
6D
330
1F
100
AcDbEntity
  8
_U+30EC_U+30A4_U+30E4_U+30FC 1
 62
     7
420
 16777215
370
     9
100
AcDb2dPolyline
 66
     1
 10
0.0
 20
0.0
 30
0.0
  0
VERTEX
  5
6E
330
6D
100
AcDbEntity
  8
_U+30EC_U+30A4_U+30E4_U+30FC 1
 62
     7
420
 16777215
370
     9
100
AcDbVertex
100
AcDb2dVertex
 10
77.82281107013024
 20
-137.1582007990441
 30
0.0
  0
VERTEX
  5
6F
330
6D
100
AcDbEntity
  8
_U+30EC_U+30A4_U+30E4_U+30FC 1
 62
     7
420
 16777215
370
     9
100
AcDbVertex
100
AcDb2dVertex
 10
73.53021117964359
 20
-141.4514710757481
 30
0.0
  0
SEQEND
  5
70
330
6D
100
AcDbEntity
  8
_U+30EC_U+30A4_U+30E4_U+30FC 1
 62
     7
420
 16777215
370
     9
  0
POLYLINE
  5
71
330
1F
100
AcDbEntity
  8
_U+30EC_U+30A4_U+30E4_U+30FC 1
 62
     7
420
 16777215
370
     9
100
AcDb2dPolyline
 66
     1
 10
0.0
 20
0.0
 30
0.0
  0
VERTEX
  5
72
330
71
100
AcDbEntity
  8
_U+30EC_U+30A4_U+30E4_U+30FC 1
 62
     7
420
 16777215
370
     9
100
AcDbVertex
100
AcDb2dVertex
 10
69.3182562870995
 20
-141.4514710757481
 30
0.0
  0
VERTEX
  5
73
330
71
100
AcDbEntity
  8
_U+30EC_U+30A4_U+30E4_U+30FC 1
 62
     7
420
 16777215
370
     9
100
AcDbVertex
100
AcDb2dVertex
 10
73.53021117964359
 20
-141.4514710757481
 30
0.0
  0
SEQEND
  5
74
330
71
100
AcDbEntity
  8
_U+30EC_U+30A4_U+30E4_U+30FC 1
 62
     7
420
 16777215
370
     9
  0
POLYLINE
  5
75
330
1F
100
AcDbEntity
  8
_U+30EC_U+30A4_U+30E4_U+30FC 1
 62
     7
420
 16777215
370
     9
100
AcDb2dPolyline
 66
     1
 10
0.0
 20
0.0
 30
0.0
  0
VERTEX
  5
76
330
75
100
AcDbEntity
  8
_U+30EC_U+30A4_U+30E4_U+30FC 1
 62
     7
420
 16777215
370
     9
100
AcDbVertex
100
AcDb2dVertex
 10
77.82281107013024
 20
-137.1582007990441
 30
0.0
  0
VERTEX
  5
77
330
75
100
AcDbEntity
  8
_U+30EC_U+30A4_U+30E4_U+30FC 1
 62
     7
420
 16777215
370
     9
100
AcDbVertex
100
AcDb2dVertex
 10
76.52402443659838
 20
-137.9085591321893
 30
0.0
  0
SEQEND
  5
78
330
75
100
AcDbEntity
  8
_U+30EC_U+30A4_U+30E4_U+30FC 1
 62
     7
420
 16777215
370
     9
  0
POLYLINE
  5
79
330
1F
100
AcDbEntity
  8
_U+30EC_U+30A4_U+30E4_U+30FC 1
 62
     7
420
 16777215
370
     9
100
AcDb2dPolyline
 66
     1
 10
0.0
 20
0.0
 30
0.0
  0
VERTEX
  5
7A
330
79
100
AcDbEntity
  8
_U+30EC_U+30A4_U+30E4_U+30FC 1
 62
     7
420
 16777215
370
     9
100
AcDbVertex
100
AcDb2dVertex
 10
77.82281107013024
 20
-137.1582007990441
 30
0.0
  0
VERTEX
  5
7B
330
79
100
AcDbEntity
  8
_U+30EC_U+30A4_U+30E4_U+30FC 1
 62
     7
420
 16777215
370
     9
100
AcDbVertex
100
AcDb2dVertex
 10
77.0731583114777
 20
-138.4576930209409
 30
0.0
  0
SEQEND
  5
7C
330
79
100
AcDbEntity
  8
_U+30EC_U+30A4_U+30E4_U+30FC 1
 62
     7
420
 16777215
370
     9
  0
SPLINE
  5
7D
330
1F
100
AcDbEntity
  8
_U+30EC_U+30A4_U+30E4_U+30FC 1
 62
     7
420
 16777215
370
    25
100
AcDbSpline
210
0.0
220
0.0
230
1.0
 70
     8
 71
     3
 72
     8
 73
     4
 74
     0
 42
0.0000000001
 43
0.0000000001
 12
1.0
 22
0.0
 32
0.0
 13
1.0
 23
0.0
 33
0.0
 40
0.0
 40
0.0
 40
0.0
 40
0.0
 40
1.0
 40
1.0
 40
1.0
 40
1.0
 10
77.52997220283989
 20
-136.4512694103314
 30
0.0
 10
77.52997220283989
 20
-137.0038605213049
 30
0.0
 10
77.97785689950803
 20
-137.4517471878594
 30
0.0
 10
78.53044998036731
 20
-137.4517471878594
 30
0.0
  0
SPLINE
  5
7E
330
1F
100
AcDbEntity
  8
_U+30EC_U+30A4_U+30E4_U+30FC 1
 62
     7
420
 16777215
370
    25
100
AcDbSpline
210
0.0
220
0.0
230
1.0
 70
     8
 71
     3
 72
     8
 73
     4
 74
     0
 42
0.0000000001
 43
0.0000000001
 12
1.0
 22
0.0
 32
0.0
 13
1.0
 23
0.0
 33
0.0
 40
0.0
 40
0.0
 40
0.0
 40
0.0
 40
1.0
 40
1.0
 40
1.0
 40
1.0
 10
78.53044998036731
 20
-121.4513346918593
 30
0.0
 10
77.97785689950803
 20
-121.4513346918593
 30
0.0
 10
77.52997220283989
 20
-121.8991860806364
 30
0.0
 10
77.52997220283989
 20
-122.4511069138316
 30
0.0
  0
SPLINE
  5
7F
330
1F
100
AcDbEntity
  8
_U+30EC_U+30A4_U+30E4_U+30FC 1
 62
     7
420
 16777215
370
    25
100
AcDbSpline
210
0.0
220
0.0
230
1.0
 70
     8
 71
     3
 72
     8
 73
     4
 74
     0
 42
0.0000000001
 43
0.0000000001
 12
1.0
 22
0.0
 32
0.0
 13
1.0
 23
0.0
 33
0.0
 40
0.0
 40
0.0
 40
0.0
 40
0.0
 40
1.0
 40
1.0
 40
1.0
 40
1.0
 10
92.5297634727024
 20
-137.4517471878594
 30
0.0
 10
93.08235456971573
 20
-137.4517471878594
 30
0.0
 10
93.53020830995078
 20
-137.0038605213049
 30
0.0
 10
93.53020830995078
 20
-136.4512694103314
 30
0.0
  0
SPLINE
  5
80
330
1F
100
AcDbEntity
  8
_U+30EC_U+30A4_U+30E4_U+30FC 1
 62
     7
420
 16777215
370
    25
100
AcDbSpline
210
0.0
220
0.0
230
1.0
 70
     8
 71
     3
 72
     8
 73
     4
 74
     0
 42
0.0000000001
 43
0.0000000001
 12
1.0
 22
0.0
 32
0.0
 13
1.0
 23
0.0
 33
0.0
 40
0.0
 40
0.0
 40
0.0
 40
0.0
 40
1.0
 40
1.0
 40
1.0
 40
1.0
 10
98.83012747863339
 20
-126.1514635795731
 30
0.0
 10
99.21666607988308
 20
-126.1514635795731
 30
0.0
 10
99.5301796829958
 20
-125.8379852463184
 30
0.0
 10
99.5301796829958
 20
-125.4514466353037
 30
0.0
  0
SPLINE
  5
81
330
1F
100
AcDbEntity
  8
_U+30EC_U+30A4_U+30E4_U+30FC 1
 62
     7
420
 16777215
370
     9
100
AcDbSpline
210
0.0
220
0.0
230
1.0
 70
    11
 71
     3
 72
    17
 73
    13
 74
     0
 42
0.0000000001
 43
0.0000000001
 12
1.0
 22
0.0
 32
0.0
 13
1.0
 23
0.0
 33
0.0
 40
0.0
 40
0.0
 40
0.0
 40
0.0
 40
1.0
 40
1.0
 40
1.0
 40
2.0
 40
2.0
 40
2.0
 40
3.0
 40
3.0
 40
3.0
 40
4.0
 40
4.0
 40
4.0
 40
4.0
 10
99.63008886398111
 20
-117.4515755261928
 30
0.0
 10
99.63008886398111
 20
-117.3964363595397
 30
0.0
 10
99.58531884825574
 20
-117.3516688595511
 30
0.0
 10
99.5301796829958
 20
-117.3516688595511
 30
0.0
 10
99.47507579551272
 20
-117.3516688595511
 30
0.0
 10
99.43027301887795
 20
-117.3964363595397
 30
0.0
 10
99.43027301887795
 20
-117.4515755261928
 30
0.0
 10
99.43027301887795
 20
-117.5066794150677
 30
0.0
 10
99.47507579551272
 20
-117.5514821928344
 30
0.0
 10
99.5301796829958
 20
-117.5514821928344
 30
0.0
 10
99.58531884825574
 20
-117.5514821928344
 30
0.0
 10
99.63008886398111
 20
-117.5066794150677
 30
0.0
 10
99.63008886398111
 20
-117.4515755261928
 30
0.0
  0
SPLINE
  5
82
330
1F
100
AcDbEntity
  8
_U+30EC_U+30A4_U+30E4_U+30FC 1
 62
     7
420
 16777215
370
     9
100
AcDbSpline
210
0.0
220
0.0
230
1.0
 70
    11
 71
     3
 72
    17
 73
    13
 74
     0
 42
0.0000000001
 43
0.0000000001
 12
1.0
 22
0.0
 32
0.0
 13
1.0
 23
0.0
 33
0.0
 40
0.0
 40
0.0
 40
0.0
 40
0.0
 40
1.0
 40
1.0
 40
1.0
 40
2.0
 40
2.0
 40
2.0
 40
3.0
 40
3.0
 40
3.0
 40
4.0
 40
4.0
 40
4.0
 40
4.0
 10
78.73026132475704
 20
-117.4515755261928
 30
0.0
 10
78.73026132475704
 20
-117.3964363595397
 30
0.0
 10
78.68545854812227
 20
-117.3516688595511
 30
0.0
 10
78.6303546606392
 20
-117.3516688595511
 30
0.0
 10
78.57521549537924
 20
-117.3516688595511
 30
0.0
 10
78.53044998036731
 20
-117.3964363595397
 30
0.0
 10
78.53044998036731
 20
-117.4515755261928
 30
0.0
 10
78.53044998036731
 20
-117.5066794150677
 30
0.0
 10
78.57521549537924
 20
-117.5514821928344
 30
0.0
 10
78.6303546606392
 20
-117.5514821928344
 30
0.0
 10
78.68545854812227
 20
-117.5514821928344
 30
0.0
 10
78.73026132475704
 20
-117.5066794150677
 30
0.0
 10
78.73026132475704
 20
-117.4515755261928
 30
0.0
  0
SPLINE
  5
83
330
1F
100
AcDbEntity
  8
_U+30EC_U+30A4_U+30E4_U+30FC 1
 62
     7
420
 16777215
370
     9
100
AcDbSpline
210
0.0
220
0.0
230
1.0
 70
    11
 71
     3
 72
    17
 73
    13
 74
     0
 42
0.0000000001
 43
0.0000000001
 12
1.0
 22
0.0
 32
0.0
 13
1.0
 23
0.0
 33
0.0
 40
0.0
 40
0.0
 40
0.0
 40
0.0
 40
1.0
 40
1.0
 40
1.0
 40
2.0
 40
2.0
 40
2.0
 40
3.0
 40
3.0
 40
3.0
 40
4.0
 40
4.0
 40
4.0
 40
4.0
 10
77.62987690838573
 20
-123.95108274679
 30
0.0
 10
77.62987690838573
 20
-123.8959788579151
 30
0.0
 10
77.58510940952785
 20
-123.8511760801483
 30
0.0
 10
77.52997220283989
 20
-123.8511760801483
 30
0.0
 10
77.47486635678483
 20
-123.8511760801483
 30
0.0
 10
77.43006358015006
 20
-123.8959788579151
 30
0.0
 10
77.43006358015006
 20
-123.95108274679
 30
0.0
 10
77.43006358015006
 20
-124.0068921912204
 30
0.0
 10
77.47486635678483
 20
-124.0516949689871
 30
0.0
 10
77.52997220283989
 20
-124.0516949689871
 30
0.0
 10
77.58510940952785
 20
-124.0516949689871
 30
0.0
 10
77.62987690838573
 20
-124.0068921912204
 30
0.0
 10
77.62987690838573
 20
-123.95108274679
 30
0.0
  0
SPLINE
  5
84
330
1F
100
AcDbEntity
  8
_U+30EC_U+30A4_U+30E4_U+30FC 1
 62
     7
420
 16777215
370
     9
100
AcDbSpline
210
0.0
220
0.0
230
1.0
 70
    11
 71
     3
 72
    17
 73
    13
 74
     0
 42
0.0000000001
 43
0.0000000001
 12
1.0
 22
0.0
 32
0.0
 13
1.0
 23
0.0
 33
0.0
 40
0.0
 40
0.0
 40
0.0
 40
0.0
 40
1.0
 40
1.0
 40
1.0
 40
2.0
 40
2.0
 40
2.0
 40
3.0
 40
3.0
 40
3.0
 40
4.0
 40
4.0
 40
4.0
 40
4.0
 10
78.6303546606392
 20
-123.95108274679
 30
0.0
 10
78.6303546606392
 20
-123.8959788579151
 30
0.0
 10
78.58555188400443
 20
-123.8511760801483
 30
0.0
 10
78.53044998036731
 20
-123.8511760801483
 30
0.0
 10
78.47463855350074
 20
-123.8511760801483
 30
0.0
 10
78.42983577686597
 20
-123.8959788579151
 30
0.0
 10
78.42983577686597
 20
-123.95108274679
 30
0.0
 10
78.42983577686597
 20
-124.0068921912204
 30
0.0
 10
78.47463855350074
 20
-124.0516949689871
 30
0.0
 10
78.53044998036731
 20
-124.0516949689871
 30
0.0
 10
78.58555188400443
 20
-124.0516949689871
 30
0.0
 10
78.6303546606392
 20
-124.0068921912204
 30
0.0
 10
78.6303546606392
 20
-123.95108274679
 30
0.0
  0
SPLINE
  5
85
330
1F
100
AcDbEntity
  8
_U+30EC_U+30A4_U+30E4_U+30FC 1
 62
     7
420
 16777215
370
     9
100
AcDbSpline
210
0.0
220
0.0
230
1.0
 70
    11
 71
     3
 72
    17
 73
    13
 74
     0
 42
0.0000000001
 43
0.0000000001
 12
1.0
 22
0.0
 32
0.0
 13
1.0
 23
0.0
 33
0.0
 40
0.0
 40
0.0
 40
0.0
 40
0.0
 40
1.0
 40
1.0
 40
1.0
 40
2.0
 40
2.0
 40
2.0
 40
3.0
 40
3.0
 40
3.0
 40
4.0
 40
4.0
 40
4.0
 40
4.0
 10
72.73028758894023
 20
-137.4517471878594
 30
0.0
 10
72.73028758894023
 20
-137.395937743429
 30
0.0
 10
72.68548481230546
 20
-137.3511349656623
 30
0.0
 10
72.63034564704552
 20
-137.3511349656623
 30
0.0
 10
72.57524175956245
 20
-137.3511349656623
 30
0.0
 10
72.53043898292768
 20
-137.395937743429
 30
0.0
 10
72.53043898292768
 20
-137.4517471878594
 30
0.0
 10
72.53043898292768
 20
-137.5068510767344
 30
0.0
 10
72.57524175956245
 20
-137.5516538545011
 30
0.0
 10
72.63034564704552
 20
-137.5516538545011
 30
0.0
 10
72.68548481230546
 20
-137.5516538545011
 30
0.0
 10
72.73028758894023
 20
-137.5068510767344
 30
0.0
 10
72.73028758894023
 20
-137.4517471878594
 30
0.0
  0
SPLINE
  5
86
330
1F
100
AcDbEntity
  8
_U+30EC_U+30A4_U+30E4_U+30FC 1
 62
     7
420
 16777215
370
     9
100
AcDbSpline
210
0.0
220
0.0
230
1.0
 70
    11
 71
     3
 72
    17
 73
    13
 74
     0
 42
0.0000000001
 43
0.0000000001
 12
1.0
 22
0.0
 32
0.0
 13
1.0
 23
0.0
 33
0.0
 40
0.0
 40
0.0
 40
0.0
 40
0.0
 40
1.0
 40
1.0
 40
1.0
 40
2.0
 40
2.0
 40
2.0
 40
3.0
 40
3.0
 40
3.0
 40
4.0
 40
4.0
 40
4.0
 40
4.0
 10
72.73028758894023
 20
-121.4513346918593
 30
0.0
 10
72.73028758894023
 20
-121.3961955252066
 30
0.0
 10
72.68548481230546
 20
-121.3514280252177
 30
0.0
 10
72.63034564704552
 20
-121.3514280252177
 30
0.0
 10
72.57524175956245
 20
-121.3514280252177
 30
0.0
 10
72.53043898292768
 20
-121.3961955252066
 30
0.0
 10
72.53043898292768
 20
-121.4513346918593
 30
0.0
 10
72.53043898292768
 20
-121.5064385807346
 30
0.0
 10
72.57524175956245
 20
-121.551241358501
 30
0.0
 10
72.63034564704552
 20
-121.551241358501
 30
0.0
 10
72.68548481230546
 20
-121.551241358501
 30
0.0
 10
72.73028758894023
 20
-121.5064385807346
 30
0.0
 10
72.73028758894023
 20
-121.4513346918593
 30
0.0
  0
SPLINE
  5
87
330
1F
100
AcDbEntity
  8
_U+30EC_U+30A4_U+30E4_U+30FC 1
 62
     7
420
 16777215
370
     9
100
AcDbSpline
210
0.0
220
0.0
230
1.0
 70
    11
 71
     3
 72
    17
 73
    13
 74
     0
 42
0.0000000001
 43
0.0000000001
 12
1.0
 22
0.0
 32
0.0
 13
1.0
 23
0.0
 33
0.0
 40
0.0
 40
0.0
 40
0.0
 40
0.0
 40
1.0
 40
1.0
 40
1.0
 40
2.0
 40
2.0
 40
2.0
 40
3.0
 40
3.0
 40
3.0
 40
4.0
 40
4.0
 40
4.0
 40
4.0
 10
93.63011261129682
 20
-141.4514710757481
 30
0.0
 10
93.63011261129682
 20
-141.3963671868732
 30
0.0
 10
93.58534511243893
 20
-141.3515644091065
 30
0.0
 10
93.53020830995078
 20
-141.3515644091065
 30
0.0
 10
93.47510205969591
 20
-141.3515644091065
 30
0.0
 10
93.43029928306115
 20
-141.3963671868732
 30
0.0
 10
93.43029928306115
 20
-141.4514710757481
 30
0.0
 10
93.43029928306115
 20
-141.5066102424012
 30
0.0
 10
93.47510205969591
 20
-141.5513777423898
 30
0.0
 10
93.53020830995078
 20
-141.5513777423898
 30
0.0
 10
93.58534511243893
 20
-141.5513777423898
 30
0.0
 10
93.63011261129682
 20
-141.5066102424012
 30
0.0
 10
93.63011261129682
 20
-141.4514710757481
 30
0.0
  0
SPLINE
  5
88
330
1F
100
AcDbEntity
  8
_U+30EC_U+30A4_U+30E4_U+30FC 1
 62
     7
420
 16777215
370
     9
100
AcDbSpline
210
0.0
220
0.0
230
1.0
 70
    11
 71
     3
 72
    17
 73
    13
 74
     0
 42
0.0000000001
 43
0.0000000001
 12
1.0
 22
0.0
 32
0.0
 13
1.0
 23
0.0
 33
0.0
 40
0.0
 40
0.0
 40
0.0
 40
0.0
 40
1.0
 40
1.0
 40
1.0
 40
2.0
 40
2.0
 40
2.0
 40
3.0
 40
3.0
 40
3.0
 40
4.0
 40
4.0
 40
4.0
 40
4.0
 10
77.62987690838573
 20
-141.4514710757481
 30
0.0
 10
77.62987690838573
 20
-141.3963671868732
 30
0.0
 10
77.58510940952785
 20
-141.3515644091065
 30
0.0
 10
77.52997220283989
 20
-141.3515644091065
 30
0.0
 10
77.47486635678483
 20
-141.3515644091065
 30
0.0
 10
77.43006358015006
 20
-141.3963671868732
 30
0.0
 10
77.43006358015006
 20
-141.4514710757481
 30
0.0
 10
77.43006358015006
 20
-141.5066102424012
 30
0.0
 10
77.47486635678483
 20
-141.5513777423898
 30
0.0
 10
77.52997220283989
 20
-141.5513777423898
 30
0.0
 10
77.58510940952785
 20
-141.5513777423898
 30
0.0
 10
77.62987690838573
 20
-141.5066102424012
 30
0.0
 10
77.62987690838573
 20
-141.4514710757481
 30
0.0
  0
SPLINE
  5
89
330
1F
100
AcDbEntity
  8
_U+30EC_U+30A4_U+30E4_U+30FC 1
 62
     7
420
 16777215
370
     9
100
AcDbSpline
210
0.0
220
0.0
230
1.0
 70
    11
 71
     3
 72
    17
 73
    13
 74
     0
 42
0.0000000001
 43
0.0000000001
 12
1.0
 22
0.0
 32
0.0
 13
1.0
 23
0.0
 33
0.0
 40
0.0
 40
0.0
 40
0.0
 40
0.0
 40
1.0
 40
1.0
 40
1.0
 40
2.0
 40
2.0
 40
2.0
 40
3.0
 40
3.0
 40
3.0
 40
4.0
 40
4.0
 40
4.0
 40
4.0
 10
97.62987167592114
 20
-126.4511835794984
 30
0.0
 10
97.62987167592114
 20
-126.3960796906231
 30
0.0
 10
97.58506889928637
 20
-126.3512769128567
 30
0.0
 10
97.5299650118033
 20
-126.3512769128567
 30
0.0
 10
97.47482584654335
 20
-126.3512769128567
 30
0.0
 10
97.43005834768546
 20
-126.3960796906231
 30
0.0
 10
97.43005834768546
 20
-126.4511835794984
 30
0.0
 10
97.43005834768546
 20
-126.5069930239288
 30
0.0
 10
97.47482584654335
 20
-126.5517958016955
 30
0.0
 10
97.5299650118033
 20
-126.5517958016955
 30
0.0
 10
97.58506889928637
 20
-126.5517958016955
 30
0.0
 10
97.62987167592114
 20
-126.5069930239288
 30
0.0
 10
97.62987167592114
 20
-126.4511835794984
 30
0.0
  0
SPLINE
  5
8A
330
1F
100
AcDbEntity
  8
_U+30EC_U+30A4_U+30E4_U+30FC 1
 62
     7
420
 16777215
370
     9
100
AcDbSpline
210
0.0
220
0.0
230
1.0
 70
    11
 71
     3
 72
    17
 73
    13
 74
     0
 42
0.0000000001
 43
0.0000000001
 12
1.0
 22
0.0
 32
0.0
 13
1.0
 23
0.0
 33
0.0
 40
0.0
 40
0.0
 40
0.0
 40
0.0
 40
1.0
 40
1.0
 40
1.0
 40
2.0
 40
2.0
 40
2.0
 40
3.0
 40
3.0
 40
3.0
 40
4.0
 40
4.0
 40
4.0
 40
4.0
 10
97.62987167592114
 20
-136.4512694103314
 30
0.0
 10
97.62987167592114
 20
-136.3961655214565
 30
0.0
 10
97.58506889928637
 20
-136.3513627436897
 30
0.0
 10
97.5299650118033
 20
-136.3513627436897
 30
0.0
 10
97.47482584654335
 20
-136.3513627436897
 30
0.0
 10
97.43005834768546
 20
-136.3961655214565
 30
0.0
 10
97.43005834768546
 20
-136.4512694103314
 30
0.0
 10
97.43005834768546
 20
-136.5064085769845
 30
0.0
 10
97.47482584654335
 20
-136.551176076973
 30
0.0
 10
97.5299650118033
 20
-136.551176076973
 30
0.0
 10
97.58506889928637
 20
-136.551176076973
 30
0.0
 10
97.62987167592114
 20
-136.5064085769845
 30
0.0
 10
97.62987167592114
 20
-136.4512694103314
 30
0.0
  0
INSERT
  5
8C
330
1F
100
AcDbEntity
  8
_U+30EC_U+30A4_U+30E4_U+30FC 1
100
AcDbBlockReference
  2
block 2
 10
0.0
 20
0.0
 30
0.0
  0
POLYLINE
  5
94
330
1F
100
AcDbEntity
  8
_U+30EC_U+30A4_U+30E4_U+30FC 1
 62
     7
420
 16777215
370
     9
100
AcDb2dPolyline
 66
     1
 10
0.0
 20
0.0
 30
0.0
  0
VERTEX
  5
95
330
94
100
AcDbEntity
  8
_U+30EC_U+30A4_U+30E4_U+30FC 1
 62
     7
420
 16777215
370
     9
100
AcDbVertex
100
AcDb2dVertex
 10
78.53044998036731
 20
-117.4515755261928
 30
0.0
  0
VERTEX
  5
96
330
94
100
AcDbEntity
  8
_U+30EC_U+30A4_U+30E4_U+30FC 1
 62
     7
420
 16777215
370
     9
100
AcDbVertex
100
AcDb2dVertex
 10
99.5301796829958
 20
-117.4515755261928
 30
0.0
  0
SEQEND
  5
97
330
94
100
AcDbEntity
  8
_U+30EC_U+30A4_U+30E4_U+30FC 1
 62
     7
420
 16777215
370
     9
  0
POLYLINE
  5
98
330
1F
100
AcDbEntity
  8
_U+30EC_U+30A4_U+30E4_U+30FC 1
 62
     7
420
 16777215
370
     9
100
AcDb2dPolyline
 66
     1
 10
0.0
 20
0.0
 30
0.0
  0
VERTEX
  5
99
330
98
100
AcDbEntity
  8
_U+30EC_U+30A4_U+30E4_U+30FC 1
 62
     7
420
 16777215
370
     9
100
AcDbVertex
100
AcDb2dVertex
 10
78.6303546606392
 20
-119.9113891366887
 30
0.0
  0
VERTEX
  5
9A
330
98
100
AcDbEntity
  8
_U+30EC_U+30A4_U+30E4_U+30FC 1
 62
     7
420
 16777215
370
     9
100
AcDbVertex
100
AcDb2dVertex
 10
78.6303546606392
 20
-116.4511330264429
 30
0.0
  0
SEQEND
  5
9B
330
98
100
AcDbEntity
  8
_U+30EC_U+30A4_U+30E4_U+30FC 1
 62
     7
420
 16777215
370
     9
  0
POLYLINE
  5
9C
330
1F
100
AcDbEntity
  8
_U+30EC_U+30A4_U+30E4_U+30FC 1
 62
     7
420
 16777215
370
     9
100
AcDb2dPolyline
 66
     1
 10
0.0
 20
0.0
 30
0.0
  0
VERTEX
  5
9D
330
9C
100
AcDbEntity
  8
_U+30EC_U+30A4_U+30E4_U+30FC 1
 62
     7
420
 16777215
370
     9
100
AcDbVertex
100
AcDb2dVertex
 10
99.5301796829958
 20
-123.4115796913692
 30
0.0
  0
VERTEX
  5
9E
330
9C
100
AcDbEntity
  8
_U+30EC_U+30A4_U+30E4_U+30FC 1
 62
     7
420
 16777215
370
     9
100
AcDbVertex
100
AcDb2dVertex
 10
99.5301796829958
 20
-116.4511330264429
 30
0.0
  0
SEQEND
  5
9F
330
9C
100
AcDbEntity
  8
_U+30EC_U+30A4_U+30E4_U+30FC 1
 62
     7
420
 16777215
370
     9
  0
INSERT
  5
A1
330
1F
100
AcDbEntity
  8
_U+30EC_U+30A4_U+30E4_U+30FC 1
100
AcDbBlockReference
  2
block 3
 10
0.0
 20
0.0
 30
0.0
  0
POLYLINE
  5
A8
330
1F
100
AcDbEntity
  8
_U+30EC_U+30A4_U+30E4_U+30FC 1
 62
     7
420
 16777215
370
     9
100
AcDb2dPolyline
 66
     1
 10
0.0
 20
0.0
 30
0.0
  0
VERTEX
  5
A9
330
A8
100
AcDbEntity
  8
_U+30EC_U+30A4_U+30E4_U+30FC 1
 62
     7
420
 16777215
370
     9
100
AcDbVertex
100
AcDb2dVertex
 10
78.53044998036731
 20
-123.95108274679
 30
0.0
  0
VERTEX
  5
AA
330
A8
100
AcDbEntity
  8
_U+30EC_U+30A4_U+30E4_U+30FC 1
 62
     7
420
 16777215
370
     9
100
AcDbVertex
100
AcDb2dVertex
 10
82.30076040033268
 20
-123.95108274679
 30
0.0
  0
SEQEND
  5
AB
330
A8
100
AcDbEntity
  8
_U+30EC_U+30A4_U+30E4_U+30FC 1
 62
     7
420
 16777215
370
     9
  0
POLYLINE
  5
AC
330
1F
100
AcDbEntity
  8
_U+30EC_U+30A4_U+30E4_U+30FC 1
 62
     7
420
 16777215
370
     9
100
AcDb2dPolyline
 66
     1
 10
0.0
 20
0.0
 30
0.0
  0
VERTEX
  5
AD
330
AC
100
AcDbEntity
  8
_U+30EC_U+30A4_U+30E4_U+30FC 1
 62
     7
420
 16777215
370
     9
100
AcDbVertex
100
AcDb2dVertex
 10
76.53019998086735
 20
-123.95108274679
 30
0.0
  0
VERTEX
  5
AE
330
AC
100
AcDbEntity
  8
_U+30EC_U+30A4_U+30E4_U+30FC 1
 62
     7
420
 16777215
370
     9
100
AcDbVertex
100
AcDb2dVertex
 10
78.53044998036731
 20
-123.95108274679
 30
0.0
  0
SEQEND
  5
AF
330
AC
100
AcDbEntity
  8
_U+30EC_U+30A4_U+30E4_U+30FC 1
 62
     7
420
 16777215
370
     9
  0
INSERT
  5
B1
330
1F
100
AcDbEntity
  8
_U+30EC_U+30A4_U+30E4_U+30FC 1
100
AcDbBlockReference
  2
block 4
 10
0.0
 20
0.0
 30
0.0
  0
POLYLINE
  5
B6
330
1F
100
AcDbEntity
  8
_U+30EC_U+30A4_U+30E4_U+30FC 1
 62
     7
420
 16777215
370
     9
100
AcDb2dPolyline
 66
     1
 10
0.0
 20
0.0
 30
0.0
  0
VERTEX
  5
B7
330
B6
100
AcDbEntity
  8
_U+30EC_U+30A4_U+30E4_U+30FC 1
 62
     7
420
 16777215
370
     9
100
AcDbVertex
100
AcDb2dVertex
 10
72.63034564704552
 20
-137.4517471878594
 30
0.0
  0
VERTEX
  5
B8
330
B6
100
AcDbEntity
  8
_U+30EC_U+30A4_U+30E4_U+30FC 1
 62
     7
420
 16777215
370
     9
100
AcDbVertex
100
AcDb2dVertex
 10
72.63034564704552
 20
-121.4513346918593
 30
0.0
  0
SEQEND
  5
B9
330
B6
100
AcDbEntity
  8
_U+30EC_U+30A4_U+30E4_U+30FC 1
 62
     7
420
 16777215
370
     9
  0
POLYLINE
  5
BA
330
1F
100
AcDbEntity
  8
_U+30EC_U+30A4_U+30E4_U+30FC 1
 62
     7
420
 16777215
370
     9
100
AcDb2dPolyline
 66
     1
 10
0.0
 20
0.0
 30
0.0
  0
VERTEX
  5
BB
330
BA
100
AcDbEntity
  8
_U+30EC_U+30A4_U+30E4_U+30FC 1
 62
     7
420
 16777215
370
     9
100
AcDbVertex
100
AcDb2dVertex
 10
75.09016109233868
 20
-137.4517471878594
 30
0.0
  0
VERTEX
  5
BC
330
BA
100
AcDbEntity
  8
_U+30EC_U+30A4_U+30E4_U+30FC 1
 62
     7
420
 16777215
370
     9
100
AcDbVertex
100
AcDb2dVertex
 10
71.63060872810648
 20
-137.4517471878594
 30
0.0
  0
SEQEND
  5
BD
330
BA
100
AcDbEntity
  8
_U+30EC_U+30A4_U+30E4_U+30FC 1
 62
     7
420
 16777215
370
     9
  0
POLYLINE
  5
BE
330
1F
100
AcDbEntity
  8
_U+30EC_U+30A4_U+30E4_U+30FC 1
 62
     7
420
 16777215
370
     9
100
AcDb2dPolyline
 66
     1
 10
0.0
 20
0.0
 30
0.0
  0
VERTEX
  5
BF
330
BE
100
AcDbEntity
  8
_U+30EC_U+30A4_U+30E4_U+30FC 1
 62
     7
420
 16777215
370
     9
100
AcDbVertex
100
AcDb2dVertex
 10
75.09016109233868
 20
-121.4513346918593
 30
0.0
  0
VERTEX
  5
C0
330
BE
100
AcDbEntity
  8
_U+30EC_U+30A4_U+30E4_U+30FC 1
 62
     7
420
 16777215
370
     9
100
AcDbVertex
100
AcDb2dVertex
 10
71.63060872810648
 20
-121.4513346918593
 30
0.0
  0
SEQEND
  5
C1
330
BE
100
AcDbEntity
  8
_U+30EC_U+30A4_U+30E4_U+30FC 1
 62
     7
420
 16777215
370
     9
  0
INSERT
  5
C3
330
1F
100
AcDbEntity
  8
_U+30EC_U+30A4_U+30E4_U+30FC 1
100
AcDbBlockReference
  2
block 5
 10
0.0
 20
0.0
 30
0.0
  0
POLYLINE
  5
CB
330
1F
100
AcDbEntity
  8
_U+30EC_U+30A4_U+30E4_U+30FC 1
 62
     7
420
 16777215
370
     9
100
AcDb2dPolyline
 66
     1
 10
0.0
 20
0.0
 30
0.0
  0
VERTEX
  5
CC
330
CB
100
AcDbEntity
  8
_U+30EC_U+30A4_U+30E4_U+30FC 1
 62
     7
420
 16777215
370
     9
100
AcDbVertex
100
AcDb2dVertex
 10
77.52997220283989
 20
-141.4514710757481
 30
0.0
  0
VERTEX
  5
CD
330
CB
100
AcDbEntity
  8
_U+30EC_U+30A4_U+30E4_U+30FC 1
 62
     7
420
 16777215
370
     9
100
AcDbVertex
100
AcDb2dVertex
 10
93.53020830995078
 20
-141.4514710757481
 30
0.0
  0
SEQEND
  5
CE
330
CB
100
AcDbEntity
  8
_U+30EC_U+30A4_U+30E4_U+30FC 1
 62
     7
420
 16777215
370
     9
  0
POLYLINE
  5
CF
330
1F
100
AcDbEntity
  8
_U+30EC_U+30A4_U+30E4_U+30FC 1
 62
     7
420
 16777215
370
     9
100
AcDb2dPolyline
 66
     1
 10
0.0
 20
0.0
 30
0.0
  0
VERTEX
  5
D0
330
CF
100
AcDbEntity
  8
_U+30EC_U+30A4_U+30E4_U+30FC 1
 62
     7
420
 16777215
370
     9
100
AcDbVertex
100
AcDb2dVertex
 10
77.52997220283989
 20
-138.9916927430301
 30
0.0
  0
VERTEX
  5
D1
330
CF
100
AcDbEntity
  8
_U+30EC_U+30A4_U+30E4_U+30FC 1
 62
     7
420
 16777215
370
     9
100
AcDbVertex
100
AcDb2dVertex
 10
77.52997220283989
 20
-142.4512432977207
 30
0.0
  0
SEQEND
  5
D2
330
CF
100
AcDbEntity
  8
_U+30EC_U+30A4_U+30E4_U+30FC 1
 62
     7
420
 16777215
370
     9
  0
POLYLINE
  5
D3
330
1F
100
AcDbEntity
  8
_U+30EC_U+30A4_U+30E4_U+30FC 1
 62
     7
420
 16777215
370
     9
100
AcDb2dPolyline
 66
     1
 10
0.0
 20
0.0
 30
0.0
  0
VERTEX
  5
D4
330
D3
100
AcDbEntity
  8
_U+30EC_U+30A4_U+30E4_U+30FC 1
 62
     7
420
 16777215
370
     9
100
AcDbVertex
100
AcDb2dVertex
 10
93.53020830995078
 20
-138.9916927430301
 30
0.0
  0
VERTEX
  5
D5
330
D3
100
AcDbEntity
  8
_U+30EC_U+30A4_U+30E4_U+30FC 1
 62
     7
420
 16777215
370
     9
100
AcDbVertex
100
AcDb2dVertex
 10
93.53020830995078
 20
-142.4512432977207
 30
0.0
  0
SEQEND
  5
D6
330
D3
100
AcDbEntity
  8
_U+30EC_U+30A4_U+30E4_U+30FC 1
 62
     7
420
 16777215
370
     9
  0
INSERT
  5
D8
330
1F
100
AcDbEntity
  8
_U+30EC_U+30A4_U+30E4_U+30FC 1
100
AcDbBlockReference
  2
block 6
 10
0.0
 20
0.0
 30
0.0
  0
POLYLINE
  5
E0
330
1F
100
AcDbEntity
  8
_U+30EC_U+30A4_U+30E4_U+30FC 1
 62
     7
420
 16777215
370
     9
100
AcDb2dPolyline
 66
     1
 10
0.0
 20
0.0
 30
0.0
  0
VERTEX
  5
E1
330
E0
100
AcDbEntity
  8
_U+30EC_U+30A4_U+30E4_U+30FC 1
 62
     7
420
 16777215
370
     9
100
AcDbVertex
100
AcDb2dVertex
 10
97.5299650118033
 20
-136.4512694103314
 30
0.0
  0
VERTEX
  5
E2
330
E0
100
AcDbEntity
  8
_U+30EC_U+30A4_U+30E4_U+30FC 1
 62
     7
420
 16777215
370
     9
100
AcDbVertex
100
AcDb2dVertex
 10
97.5299650118033
 20
-126.4511835794984
 30
0.0
  0
SEQEND
  5
E3
330
E0
100
AcDbEntity
  8
_U+30EC_U+30A4_U+30E4_U+30FC 1
 62
     7
420
 16777215
370
     9
  0
POLYLINE
  5
E4
330
1F
100
AcDbEntity
  8
_U+30EC_U+30A4_U+30E4_U+30FC 1
 62
     7
420
 16777215
370
     9
100
AcDb2dPolyline
 66
     1
 10
0.0
 20
0.0
 30
0.0
  0
VERTEX
  5
E5
330
E4
100
AcDbEntity
  8
_U+30EC_U+30A4_U+30E4_U+30FC 1
 62
     7
420
 16777215
370
     9
100
AcDbVertex
100
AcDb2dVertex
 10
96.06992366016317
 20
-136.4512694103314
 30
0.0
  0
VERTEX
  5
E6
330
E4
100
AcDbEntity
  8
_U+30EC_U+30A4_U+30E4_U+30FC 1
 62
     7
420
 16777215
370
     9
100
AcDbVertex
100
AcDb2dVertex
 10
98.52973720851921
 20
-136.4512694103314
 30
0.0
  0
SEQEND
  5
E7
330
E4
100
AcDbEntity
  8
_U+30EC_U+30A4_U+30E4_U+30FC 1
 62
     7
420
 16777215
370
     9
  0
POLYLINE
  5
E8
330
1F
100
AcDbEntity
  8
_U+30EC_U+30A4_U+30E4_U+30FC 1
 62
     7
420
 16777215
370
     9
100
AcDb2dPolyline
 66
     1
 10
0.0
 20
0.0
 30
0.0
  0
VERTEX
  5
E9
330
E8
100
AcDbEntity
  8
_U+30EC_U+30A4_U+30E4_U+30FC 1
 62
     7
420
 16777215
370
     9
100
AcDbVertex
100
AcDb2dVertex
 10
96.06992366016317
 20
-126.4511835794984
 30
0.0
  0
VERTEX
  5
EA
330
E8
100
AcDbEntity
  8
_U+30EC_U+30A4_U+30E4_U+30FC 1
 62
     7
420
 16777215
370
     9
100
AcDbVertex
100
AcDb2dVertex
 10
98.52973720851921
 20
-126.4511835794984
 30
0.0
  0
SEQEND
  5
EB
330
E8
100
AcDbEntity
  8
_U+30EC_U+30A4_U+30E4_U+30FC 1
 62
     7
420
 16777215
370
     9
  0
INSERT
  5
ED
330
1F
100
AcDbEntity
  8
_U+30EC_U+30A4_U+30E4_U+30FC 1
100
AcDbBlockReference
  2
block 7
 10
0.0
 20
0.0
 30
0.0
  0
POLYLINE
  5
F5
330
1F
100
AcDbEntity
  8
_U+30EC_U+30A4_U+30E4_U+30FC 1
 62
   179
420
  2234388
370
     9
100
AcDb2dPolyline
 66
     1
 10
0.0
 20
0.0
 30
0.0
  0
VERTEX
  5
F6
330
F5
100
AcDbEntity
  8
_U+30EC_U+30A4_U+30E4_U+30FC 1
 62
   179
420
  2234388
370
     9
100
AcDbVertex
100
AcDb2dVertex
 10
93.63011261129682
 20
-138.1886294098973
 30
0.0
  0
VERTEX
  5
F7
330
F5
100
AcDbEntity
  8
_U+30EC_U+30A4_U+30E4_U+30FC 1
 62
   179
420
  2234388
370
     9
100
AcDbVertex
100
AcDb2dVertex
 10
95.84393422148419
 20
-140.9953646869732
 30
0.0
  0
VERTEX
  5
F8
330
F5
100
AcDbEntity
  8
_U+30EC_U+30A4_U+30E4_U+30FC 1
 62
   179
420
  2234388
370
     9
100
AcDbVertex
100
AcDb2dVertex
 10
112.2040032485485
 20
-140.9953646869732
 30
0.0
  0
SEQEND
  5
F9
330
F5
100
AcDbEntity
  8
_U+30EC_U+30A4_U+30E4_U+30FC 1
 62
   179
420
  2234388
370
     9
  0
INSERT
  5
FB
330
1F
100
AcDbEntity
  8
_U+30EC_U+30A4_U+30E4_U+30FC 1
100
AcDbBlockReference
  2
block 8
 10
0.0
 20
0.0
 30
0.0
  0
ENDSEC
  0
SECTION
  2
OBJECTS
  0
DICTIONARY
  5
C
330
0
100
AcDbDictionary
281
     1
  3
ACAD_GROUP
350
D
  3
ACAD_LAYOUT
350
1A
  3
ACAD_MATERIAL
350
3B
  3
ACAD_MLEADERSTYLE
350
139
  3
ACAD_MLINESTYLE
350
17
  3
ACAD_PLOTSETTINGS
350
19
  3
ACAD_PLOTSTYLENAME
350
E
  3
ACAD_TABLESTYLE
350
138
  3
ACAD_VISUALSTYLE
350
2A
  0
SUN
  5
3F
330
29
100
AcDbSun
 90
        1
290
     0
 63
     7
421
 16777215
 40
1.0
291
     1
 91
  2455826
 92
 54000000
292
     0
 70
     2
 71
   256
280
     1
  0
DICTIONARY
  5
D
102
{ACAD_REACTORS
330
C
102
}
330
C
100
AcDbDictionary
281
     1
  0
DICTIONARY
  5
1A
102
{ACAD_REACTORS
330
C
102
}
330
C
100
AcDbDictionary
281
     1
  3
Layout1
350
1E
  3
Layout2
350
26
  3
Model
350
22
  0
DICTIONARY
  5
3B
102
{ACAD_REACTORS
330
C
102
}
330
C
100
AcDbDictionary
281
     1
  3
ByBlock
350
3D
  3
ByLayer
350
3C
  3
Global
350
3E
  0
DICTIONARY
  5
139
102
{ACAD_REACTORS
330
C
102
}
330
C
100
AcDbDictionary
281
     1
  0
DICTIONARY
  5
17
102
{ACAD_REACTORS
330
C
102
}
330
C
100
AcDbDictionary
281
     1
  3
Standard
350
18
  0
DICTIONARY
  5
19
102
{ACAD_REACTORS
330
C
102
}
330
C
100
AcDbDictionary
281
     1
  0
ACDBDICTIONARYWDFLT
  5
E
102
{ACAD_REACTORS
330
C
102
}
330
C
100
AcDbDictionary
281
     1
  3
Normal
350
F
100
AcDbDictionaryWithDefault
340
F
  0
DICTIONARY
  5
138
102
{ACAD_REACTORS
330
C
102
}
330
C
100
AcDbDictionary
281
     1
  0
DICTIONARY
  5
2A
102
{ACAD_REACTORS
330
C
102
}
330
C
100
AcDbDictionary
281
     1
  3
2dWireframe
350
2F
  3
3D Hidden
350
31
  3
3dWireframe
350
30
  3
Basic
350
32
  3
Brighten
350
36
  3
ColorChange
350
3A
  3
Conceptual
350
34
  3
Dim
350
35
  3
Facepattern
350
39
  3
Flat
350
2B
  3
FlatWithEdges
350
2C
  3
Gouraud
350
2D
  3
GouraudWithEdges
350
2E
  3
Linepattern
350
38
  3
Realistic
350
33
  3
Thicken
350
37
  0
LAYOUT
  5
1E
102
{ACAD_REACTORS
330
1A
102
}
330
1A
100
AcDbPlotSettings
  1

  2
none_device
  4

  6

 40
0.0
 41
0.0
 42
0.0
 43
0.0
 44
0.0
 45
0.0
 46
0.0
 47
0.0
 48
0.0
 49
0.0
140
0.0
141
0.0
142
1.0
143
1.0
 70
   688
 72
     0
 73
     0
 74
     5
  7

 75
    16
 76
     0
 77
     2
 78
   300
147
1.0
148
0.0
149
0.0
100
AcDbLayout
  1
Layout1
 70
     1
 71
     1
 10
0.0
 20
0.0
 11
12.0
 21
9.0
 12
0.0
 22
0.0
 32
0.0
 14
1.000000000000000E+20
 24
1.000000000000000E+20
 34
1.000000000000000E+20
 15
-1.000000000000000E+20
 25
-1.000000000000000E+20
 35
-1.000000000000000E+20
146
0.0
 13
0.0
 23
0.0
 33
0.0
 16
1.0
 26
0.0
 36
0.0
 17
0.0
 27
1.0
 37
0.0
 76
     0
330
1B
  0
LAYOUT
  5
26
102
{ACAD_REACTORS
330
1A
102
}
330
1A
100
AcDbPlotSettings
  1

  2
none_device
  4

  6

 40
0.0
 41
0.0
 42
0.0
 43
0.0
 44
0.0
 45
0.0
 46
0.0
 47
0.0
 48
0.0
 49
0.0
140
0.0
141
0.0
142
1.0
143
1.0
 70
   688
 72
     0
 73
     0
 74
     5
  7

 75
    16
 76
     0
 77
     2
 78
   300
147
1.0
148
0.0
149
0.0
100
AcDbLayout
  1
Layout2
 70
     1
 71
     2
 10
0.0
 20
0.0
 11
0.0
 21
0.0
 12
0.0
 22
0.0
 32
0.0
 14
0.0
 24
0.0
 34
0.0
 15
0.0
 25
0.0
 35
0.0
146
0.0
 13
0.0
 23
0.0
 33
0.0
 16
1.0
 26
0.0
 36
0.0
 17
0.0
 27
1.0
 37
0.0
 76
     0
330
23
  0
LAYOUT
  5
22
102
{ACAD_REACTORS
330
1A
102
}
330
1A
100
AcDbPlotSettings
  1

  2
none_device
  4

  6

 40
0.0
 41
0.0
 42
0.0
 43
0.0
 44
0.0
 45
0.0
 46
0.0
 47
0.0
 48
0.0
 49
0.0
140
0.0
141
0.0
142
1.0
143
1.0
 70
  1712
 72
     0
 73
     0
 74
     0
  7

 75
     0
 76
     0
 77
     2
 78
   300
147
1.0
148
0.0
149
0.0
100
AcDbLayout
  1
Model
 70
     1
 71
     0
 10
0.0
 20
0.0
 11
12.0
 21
9.0
 12
0.0
 22
0.0
 32
0.0
 14
1.000000000000000E+20
 24
1.000000000000000E+20
 34
1.000000000000000E+20
 15
-1.000000000000000E+20
 25
-1.000000000000000E+20
 35
-1.000000000000000E+20
146
0.0
 13
0.0
 23
0.0
 33
0.0
 16
1.0
 26
0.0
 36
0.0
 17
0.0
 27
1.0
 37
0.0
 76
     0
330
1F
331
29
  0
MATERIAL
  5
3D
102
{ACAD_REACTORS
330
3B
102
}
330
3B
100
AcDbMaterial
  1
ByBlock
 72
     1
 94
      127
  0
MATERIAL
  5
3C
102
{ACAD_REACTORS
330
3B
102
}
330
3B
100
AcDbMaterial
  1
ByLayer
 72
     1
 94
      127
  0
MATERIAL
  5
3E
102
{ACAD_REACTORS
330
3B
102
}
330
3B
100
AcDbMaterial
  1
Global
 72
     1
 94
      127
  0
MLINESTYLE
  5
18
102
{ACAD_REACTORS
330
17
102
}
330
17
100
AcDbMlineStyle
  2
Standard
 70
     0
  3

 62
   256
 51
90.0
 52
90.0
 71
     2
 49
0.5
 62
   256
  6
BYLAYER
 49
-0.5
 62
   256
  6
BYLAYER
  0
ACDBPLACEHOLDER
  5
F
102
{ACAD_REACTORS
330
E
102
}
330
E
  0
VISUALSTYLE
  5
2F
102
{ACAD_REACTORS
330
2A
102
}
330
2A
100
AcDbVisualStyle
  2
2dWireframe
 70
     4
177
     2
291
     0
 71
     0
176
     1
 72
     2
176
     1
 73
     0
176
     1
 90
        0
176
     1
 40
-0.6
176
     1
 41
-30.0
176
     1
 62
     5
 63
     7
421
 16777215
176
     1
 74
     1
176
     1
 91
        4
176
     1
 64
     7
176
     1
 65
   257
176
     1
 75
     1
176
     1
175
     1
176
     1
 42
1.0
176
     1
 92
        0
176
     1
 66
   257
176
     1
 43
1.0
176
     1
 76
     1
176
     1
 77
     6
176
     1
 78
     2
176
     1
 67
     7
176
     1
 79
     5
176
     1
170
     0
176
     1
171
     0
176
     1
290
     0
176
     1
 93
        1
176
     1
 44
0.0
176
     1
173
     0
176
     1
  0
VISUALSTYLE
  5
31
102
{ACAD_REACTORS
330
2A
102
}
330
2A
100
AcDbVisualStyle
  2
3D Hidden
 70
     6
177
     2
291
     0
 71
     1
176
     1
 72
     2
176
     1
 73
     2
176
     1
 90
        0
176
     1
 40
-0.6
176
     1
 41
-30.0
176
     1
 62
     5
 63
     7
421
 16777215
176
     1
 74
     2
176
     1
 91
        2
176
     1
 64
     7
176
     1
 65
   257
176
     1
 75
     2
176
     1
175
     1
176
     1
 42
40.0
176
     1
 92
        0
176
     1
 66
   257
176
     1
 43
1.0
176
     1
 76
     1
176
     1
 77
     6
176
     1
 78
     2
176
     1
 67
     7
176
     1
 79
     3
176
     1
170
     0
176
     1
171
     0
176
     1
290
     0
176
     1
 93
        1
176
     1
 44
0.0
176
     1
173
     0
176
     1
  0
VISUALSTYLE
  5
30
102
{ACAD_REACTORS
330
2A
102
}
330
2A
100
AcDbVisualStyle
  2
3dWireframe
 70
     5
177
     2
291
     0
 71
     0
176
     1
 72
     2
176
     1
 73
     0
176
     1
 90
        0
176
     1
 40
-0.6
176
     1
 41
-30.0
176
     1
 62
     5
 63
     7
421
 16777215
176
     1
 74
     1
176
     1
 91
        4
176
     1
 64
     7
176
     1
 65
   257
176
     1
 75
     1
176
     1
175
     1
176
     1
 42
1.0
176
     1
 92
        0
176
     1
 66
   257
176
     1
 43
1.0
176
     1
 76
     1
176
     1
 77
     6
176
     1
 78
     2
176
     1
 67
     7
176
     1
 79
     5
176
     1
170
     0
176
     1
171
     0
176
     1
290
     0
176
     1
 93
        1
176
     1
 44
0.0
176
     1
173
     0
176
     1
  0
VISUALSTYLE
  5
32
102
{ACAD_REACTORS
330
2A
102
}
330
2A
100
AcDbVisualStyle
  2
Basic
 70
     7
177
     2
291
     1
 71
     1
176
     1
 72
     0
176
     1
 73
     1
176
     1
 90
        0
176
     1
 40
-0.6
176
     1
 41
-30.0
176
     1
 62
     5
 63
     7
421
 16777215
176
     1
 74
     0
176
     1
 91
        4
176
     1
 64
     7
176
     1
 65
   257
176
     1
 75
     1
176
     1
175
     1
176
     1
 42
1.0
176
     1
 92
        8
176
     1
 66
     7
176
     1
 43
1.0
176
     1
 76
     1
176
     1
 77
     6
176
     1
 78
     2
176
     1
 67
     7
176
     1
 79
     5
176
     1
170
     0
176
     1
171
     0
176
     1
290
     0
176
     1
 93
        1
176
     1
 44
0.0
176
     1
173
     0
176
     1
  0
VISUALSTYLE
  5
36
102
{ACAD_REACTORS
330
2A
102
}
330
2A
100
AcDbVisualStyle
  2
Brighten
 70
    12
177
     2
291
     1
 71
     2
176
     1
 72
     2
176
     1
 73
     0
176
     1
 90
        0
176
     1
 40
-0.6
176
     1
 41
-30.0
176
     1
 62
     5
 63
     7
421
 16777215
176
     1
 74
     1
176
     1
 91
        4
176
     1
 64
     7
176
     1
 65
   257
176
     1
 75
     1
176
     1
175
     1
176
     1
 42
1.0
176
     1
 92
        8
176
     1
 66
     7
176
     1
 43
1.0
176
     1
 76
     1
176
     1
 77
     6
176
     1
 78
     2
176
     1
 67
     7
176
     1
 79
     5
176
     1
170
     0
176
     1
171
     0
176
     1
290
     0
176
     1
 93
        1
176
     1
 44
50.0
176
     1
173
     0
176
     1
  0
VISUALSTYLE
  5
3A
102
{ACAD_REACTORS
330
2A
102
}
330
2A
100
AcDbVisualStyle
  2
ColorChange
 70
    16
177
     2
291
     1
 71
     2
176
     1
 72
     2
176
     1
 73
     3
176
     1
 90
        0
176
     1
 40
-0.6
176
     1
 41
-30.0
176
     1
 62
     5
 63
     8
421
  8421504
176
     1
 74
     1
176
     1
 91
        4
176
     1
 64
     7
176
     1
 65
   257
176
     1
 75
     1
176
     1
175
     1
176
     1
 42
1.0
176
     1
 92
        8
176
     1
 66
     8
424
  8421504
176
     1
 43
1.0
176
     1
 76
     1
176
     1
 77
     6
176
     1
 78
     2
176
     1
 67
     7
176
     1
 79
     5
176
     1
170
     0
176
     1
171
     0
176
     1
290
     0
176
     1
 93
        1
176
     1
 44
0.0
176
     1
173
     0
176
     1
  0
VISUALSTYLE
  5
34
102
{ACAD_REACTORS
330
2A
102
}
330
2A
100
AcDbVisualStyle
  2
Conceptual
 70
     9
177
     2
291
     0
 71
     3
176
     1
 72
     2
176
     1
 73
     0
176
     1
 90
        0
176
     1
 40
-0.6
176
     1
 41
-30.0
176
     1
 62
     5
 63
     7
421
 16777215
176
     1
 74
     2
176
     1
 91
        2
176
     1
 64
     7
176
     1
 65
   257
176
     1
 75
     1
176
     1
175
     1
176
     1
 42
40.0
176
     1
 92
        8
176
     1
 66
     7
176
     1
 43
1.0
176
     1
 76
     1
176
     1
 77
     6
176
     1
 78
     2
176
     1
 67
     7
176
     1
 79
     3
176
     1
170
     0
176
     1
171
     0
176
     1
290
     0
176
     1
 93
        1
176
     1
 44
0.0
176
     1
173
     0
176
     1
  0
VISUALSTYLE
  5
35
102
{ACAD_REACTORS
330
2A
102
}
330
2A
100
AcDbVisualStyle
  2
Dim
 70
    11
177
     2
291
     1
 71
     2
176
     1
 72
     2
176
     1
 73
     0
176
     1
 90
        0
176
     1
 40
-0.6
176
     1
 41
-30.0
176
     1
 62
     5
 63
     7
421
 16777215
176
     1
 74
     1
176
     1
 91
        4
176
     1
 64
     7
176
     1
 65
   257
176
     1
 75
     1
176
     1
175
     1
176
     1
 42
1.0
176
     1
 92
        8
176
     1
 66
     7
176
     1
 43
1.0
176
     1
 76
     1
176
     1
 77
     6
176
     1
 78
     2
176
     1
 67
     7
176
     1
 79
     5
176
     1
170
     0
176
     1
171
     0
176
     1
290
     0
176
     1
 93
        1
176
     1
 44
-50.0
176
     1
173
     0
176
     1
  0
VISUALSTYLE
  5
39
102
{ACAD_REACTORS
330
2A
102
}
330
2A
100
AcDbVisualStyle
  2
Facepattern
 70
    15
177
     2
291
     1
 71
     2
176
     1
 72
     2
176
     1
 73
     0
176
     1
 90
        0
176
     1
 40
-0.6
176
     1
 41
-30.0
176
     1
 62
     5
 63
     7
421
 16777215
176
     1
 74
     1
176
     1
 91
        4
176
     1
 64
     7
176
     1
 65
   257
176
     1
 75
     1
176
     1
175
     1
176
     1
 42
1.0
176
     1
 92
        8
176
     1
 66
     7
176
     1
 43
1.0
176
     1
 76
     1
176
     1
 77
     6
176
     1
 78
     2
176
     1
 67
     7
176
     1
 79
     5
176
     1
170
     0
176
     1
171
     0
176
     1
290
     0
176
     1
 93
        1
176
     1
 44
0.0
176
     1
173
     0
176
     1
  0
VISUALSTYLE
  5
2B
102
{ACAD_REACTORS
330
2A
102
}
330
2A
100
AcDbVisualStyle
  2
Flat
 70
     0
177
     2
291
     1
 71
     2
176
     1
 72
     1
176
     1
 73
     1
176
     1
 90
        2
176
     1
 40
-0.6
176
     1
 41
30.0
176
     1
 62
     5
 63
     7
421
 16777215
176
     1
 74
     0
176
     1
 91
        4
176
     1
 64
     7
176
     1
 65
   257
176
     1
 75
     1
176
     1
175
     1
176
     1
 42
1.0
176
     1
 92
        8
176
     1
 66
     7
176
     1
 43
1.0
176
     1
 76
     1
176
     1
 77
     6
176
     1
 78
     2
176
     1
 67
     7
176
     1
 79
     5
176
     1
170
     0
176
     1
171
     0
176
     1
290
     0
176
     1
 93
       13
176
     1
 44
0.0
176
     1
173
     0
176
     1
  0
VISUALSTYLE
  5
2C
102
{ACAD_REACTORS
330
2A
102
}
330
2A
100
AcDbVisualStyle
  2
FlatWithEdges
 70
     1
177
     2
291
     1
 71
     2
176
     1
 72
     1
176
     1
 73
     1
176
     1
 90
        2
176
     1
 40
-0.6
176
     1
 41
30.0
176
     1
 62
     5
 63
     7
421
 16777215
176
     1
 74
     1
176
     1
 91
        4
176
     1
 64
     7
176
     1
 65
   257
176
     1
 75
     1
176
     1
175
     1
176
     1
 42
1.0
176
     1
 92
        0
176
     1
 66
   257
176
     1
 43
1.0
176
     1
 76
     1
176
     1
 77
     6
176
     1
 78
     2
176
     1
 67
     7
176
     1
 79
     5
176
     1
170
     0
176
     1
171
     0
176
     1
290
     0
176
     1
 93
       13
176
     1
 44
0.0
176
     1
173
     0
176
     1
  0
VISUALSTYLE
  5
2D
102
{ACAD_REACTORS
330
2A
102
}
330
2A
100
AcDbVisualStyle
  2
Gouraud
 70
     2
177
     2
291
     1
 71
     2
176
     1
 72
     2
176
     1
 73
     1
176
     1
 90
        2
176
     1
 40
-0.6
176
     1
 41
30.0
176
     1
 62
     5
 63
     7
421
 16777215
176
     1
 74
     0
176
     1
 91
        4
176
     1
 64
     7
176
     1
 65
   257
176
     1
 75
     1
176
     1
175
     1
176
     1
 42
1.0
176
     1
 92
        0
176
     1
 66
     7
176
     1
 43
1.0
176
     1
 76
     1
176
     1
 77
     6
176
     1
 78
     2
176
     1
 67
     7
176
     1
 79
     5
176
     1
170
     0
176
     1
171
     0
176
     1
290
     0
176
     1
 93
       13
176
     1
 44
0.0
176
     1
173
     0
176
     1
  0
VISUALSTYLE
  5
2E
102
{ACAD_REACTORS
330
2A
102
}
330
2A
100
AcDbVisualStyle
  2
GouraudWithEdges
 70
     3
177
     2
291
     1
 71
     2
176
     1
 72
     2
176
     1
 73
     1
176
     1
 90
        2
176
     1
 40
-0.6
176
     1
 41
30.0
176
     1
 62
     5
 63
     7
421
 16777215
176
     1
 74
     1
176
     1
 91
        4
176
     1
 64
     7
176
     1
 65
   257
176
     1
 75
     1
176
     1
175
     1
176
     1
 42
1.0
176
     1
 92
        0
176
     1
 66
   257
176
     1
 43
1.0
176
     1
 76
     1
176
     1
 77
     6
176
     1
 78
     2
176
     1
 67
     7
176
     1
 79
     5
176
     1
170
     0
176
     1
171
     0
176
     1
290
     0
176
     1
 93
       13
176
     1
 44
0.0
176
     1
173
     0
176
     1
  0
VISUALSTYLE
  5
38
102
{ACAD_REACTORS
330
2A
102
}
330
2A
100
AcDbVisualStyle
  2
Linepattern
 70
    14
177
     2
291
     1
 71
     2
176
     1
 72
     2
176
     1
 73
     0
176
     1
 90
        0
176
     1
 40
-0.6
176
     1
 41
-30.0
176
     1
 62
     5
 63
     7
421
 16777215
176
     1
 74
     1
176
     1
 91
        4
176
     1
 64
     7
176
     1
 65
   257
176
     1
 75
     7
176
     1
175
     7
176
     1
 42
1.0
176
     1
 92
        8
176
     1
 66
     7
176
     1
 43
1.0
176
     1
 76
     1
176
     1
 77
     6
176
     1
 78
     2
176
     1
 67
     7
176
     1
 79
     5
176
     1
170
     0
176
     1
171
     0
176
     1
290
     0
176
     1
 93
        1
176
     1
 44
0.0
176
     1
173
     0
176
     1
  0
VISUALSTYLE
  5
33
102
{ACAD_REACTORS
330
2A
102
}
330
2A
100
AcDbVisualStyle
  2
Realistic
 70
     8
177
     2
291
     0
 71
     2
176
     1
 72
     2
176
     1
 73
     0
176
     1
 90
        0
176
     1
 40
-0.6
176
     1
 41
-30.0
176
     1
 62
     5
 63
     7
421
 16777215
176
     1
 74
     1
176
     1
 91
        0
176
     1
 64
     7
176
     1
 65
   257
176
     1
 75
     1
176
     1
175
     1
176
     1
 42
1.0
176
     1
 92
        8
176
     1
 66
     8
424
  7895160
176
     1
 43
1.0
176
     1
 76
     1
176
     1
 77
     6
176
     1
 78
     2
176
     1
 67
     7
176
     1
 79
     5
176
     1
170
     0
176
     1
171
     0
176
     1
290
     0
176
     1
 93
       13
176
     1
 44
0.0
176
     1
173
     0
176
     1
  0
VISUALSTYLE
  5
37
102
{ACAD_REACTORS
330
2A
102
}
330
2A
100
AcDbVisualStyle
  2
Thicken
 70
    13
177
     2
291
     1
 71
     2
176
     1
 72
     2
176
     1
 73
     0
176
     1
 90
        0
176
     1
 40
-0.6
176
     1
 41
-30.0
176
     1
 62
     5
 63
     7
421
 16777215
176
     1
 74
     1
176
     1
 91
        4
176
     1
 64
     7
176
     1
 65
   257
176
     1
 75
     1
176
     1
175
     1
176
     1
 42
1.0
176
     1
 92
       12
176
     1
 66
     7
176
     1
 43
1.0
176
     1
 76
     1
176
     1
 77
     6
176
     1
 78
     2
176
     1
 67
     7
176
     1
 79
     5
176
     1
170
     0
176
     1
171
     0
176
     1
290
     0
176
     1
 93
        1
176
     1
 44
0.0
176
     1
173
     0
176
     1
  0
ENDSEC
  0
EOF
