  0
SECTION
  2
HEADER
  9
$ACADVER
  1
AC1024
  9
$ACADMAINTVER
 70
     6
  9
$DWGCODEPAGE
  3
UNDEFINED
  9
$INSBASE
 10
0.0
 20
0.0
 30
0.0
  9
$EXTMIN
 10
1.000000000000000E+20
 20
1.000000000000000E+20
 30
1.000000000000000E+20
  9
$EXTMAX
 10
-1.000000000000000E+20
 20
-1.000000000000000E+20
 30
-1.000000000000000E+20
  9
$LIMMIN
 10
0.0
 20
0.0
  9
$LIMMAX
 10
12.0
 20
9.0
  9
$ORTHOMODE
 70
     0
  9
$REGENMODE
 70
     1
  9
$FILLMODE
 70
     1
  9
$QTEXTMODE
 70
     0
  9
$MIRRTEXT
 70
     1
  9
$LTSCALE
 40
1.0
  9
$ATTMODE
 70
     1
  9
$TEXTSIZE
 40
0.2
  9
$TRACEWID
 40
0.05
  9
$TEXTSTYLE
  7
Standard
  9
$CLAYER
  8
0
  9
$CELTYPE
  6
ByLayer
  9
$CECOLOR
 62
   256
  9
$CELTSCALE
 40
1.0
  9
$DISPSILH
 70
     0
  9
$DIMSCALE
 40
1.0
  9
$DIMASZ
 40
0.18
  9
$DIMEXO
 40
0.0625
  9
$DIMDLI
 40
0.38
  9
$DIMRND
 40
0.0
  9
$DIMDLE
 40
0.0
  9
$DIMEXE
 40
0.18
  9
$DIMTP
 40
0.0
  9
$DIMTM
 40
0.0
  9
$DIMTXT
 40
0.18
  9
$DIMCEN
 40
0.09
  9
$DIMTSZ
 40
0.0
  9
$DIMTOL
 70
     0
  9
$DIMLIM
 70
     0
  9
$DIMTIH
 70
     1
  9
$DIMTOH
 70
     1
  9
$DIMSE1
 70
     0
  9
$DIMSE2
 70
     0
  9
$DIMTAD
 70
     0
  9
$DIMZIN
 70
     0
  9
$DIMBLK
  1

  9
$DIMASO
 70
     1
  9
$DIMSHO
 70
     1
  9
$DIMPOST
  1

  9
$DIMAPOST
  1

  9
$DIMALT
 70
     0
  9
$DIMALTD
 70
     2
  9
$DIMALTF
 40
25.4
  9
$DIMLFAC
 40
1.0
  9
$DIMTOFL
 70
     0
  9
$DIMTVP
 40
0.0
  9
$DIMTIX
 70
     0
  9
$DIMSOXD
 70
     0
  9
$DIMSAH
 70
     0
  9
$DIMBLK1
  1

  9
$DIMBLK2
  1

  9
$DIMSTYLE
  2
Standard
  9
$DIMCLRD
 70
     0
  9
$DIMCLRE
 70
     0
  9
$DIMCLRT
 70
     0
  9
$DIMTFAC
 40
1.0
  9
$DIMGAP
 40
0.09
  9
$DIMJUST
 70
     0
  9
$DIMSD1
 70
     0
  9
$DIMSD2
 70
     0
  9
$DIMTOLJ
 70
     1
  9
$DIMTZIN
 70
     0
  9
$DIMALTZ
 70
     0
  9
$DIMALTTZ
 70
     0
  9
$DIMUPT
 70
     0
  9
$DIMDEC
 70
     4
  9
$DIMTDEC
 70
     4
  9
$DIMALTU
 70
     2
  9
$DIMALTTD
 70
     2
  9
$DIMTXSTY
  7
Standard
  9
$DIMAUNIT
 70
     0
  9
$DIMADEC
 70
     0
  9
$DIMALTRND
 40
0.0
  9
$DIMAZIN
 70
     0
  9
$DIMDSEP
 70
    46
  9
$DIMATFIT
 70
     3
  9
$DIMFRAC
 70
     0
  9
$DIMLDRBLK
  1

  9
$DIMLUNIT
 70
     2
  9
$DIMLWD
 70
    -2
  9
$DIMLWE
 70
    -2
  9
$DIMTMOVE
 70
     0
  9
$DIMFXL
 40
1.0
  9
$DIMFXLON
 70
     0
  9
$DIMJOGANG
 40
0.7853981633974483
  9
$DIMTFILL
 70
     0
  9
$DIMTFILLCLR
 70
     0
  9
$DIMARCSYM
 70
     0
  9
$DIMLTYPE
  6

  9
$DIMLTEX1
  6

  9
$DIMLTEX2
  6

  9
$DIMTXTDIRECTION
 70
     0
  9
$LUNITS
 70
     2
  9
$LUPREC
 70
     4
  9
$SKETCHINC
 40
0.1
  9
$FILLETRAD
 40
0.5
  9
$AUNITS
 70
     0
  9
$AUPREC
 70
     0
  9
$MENU
  1
.
  9
$ELEVATION
 40
0.0
  9
$PELEVATION
 40
0.0
  9
$THICKNESS
 40
0.0
  9
$LIMCHECK
 70
     0
  9
$CHAMFERA
 40
0.5
  9
$CHAMFERB
 40
0.5
  9
$CHAMFERC
 40
1.0
  9
$CHAMFERD
 40
0.0
  9
$SKPOLY
 70
     0
  9
$TDCREATE
 40
2457917.599629618
  9
$TDUCREATE
 40
2457917.224629629
  9
$TDUPDATE
 40
2457917.599629618
  9
$TDUUPDATE
 40
2457917.224629629
  9
$TDINDWG
 40
0.0000000116
  9
$TDUSRTIMER
 40
0.0000000116
  9
$USRTIMER
 70
     1
  9
$ANGBASE
 50
0.0
  9
$ANGDIR
 70
     0
  9
$PDMODE
 70
     0
  9
$PDSIZE
 40
0.0
  9
$PLINEWID
 40
0.0
  9
$SPLFRAME
 70
     0
  9
$SPLINETYPE
 70
     6
  9
$SPLINESEGS
 70
     8
  9
$HANDSEED
  5
142
  9
$SURFTAB1
 70
     6
  9
$SURFTAB2
 70
     6
  9
$SURFTYPE
 70
     6
  9
$SURFU
 70
     6
  9
$SURFV
 70
     6
  9
$UCSBASE
  2

  9
$UCSNAME
  2

  9
$UCSORG
 10
0.0
 20
0.0
 30
0.0
  9
$UCSXDIR
 10
1.0
 20
0.0
 30
0.0
  9
$UCSYDIR
 10
0.0
 20
1.0
 30
0.0
  9
$UCSORTHOREF
  2

  9
$UCSORTHOVIEW
 70
     0
  9
$UCSORGTOP
 10
0.0
 20
0.0
 30
0.0
  9
$UCSORGBOTTOM
 10
0.0
 20
0.0
 30
0.0
  9
$UCSORGLEFT
 10
0.0
 20
0.0
 30
0.0
  9
$UCSORGRIGHT
 10
0.0
 20
0.0
 30
0.0
  9
$UCSORGFRONT
 10
0.0
 20
0.0
 30
0.0
  9
$UCSORGBACK
 10
0.0
 20
0.0
 30
0.0
  9
$PUCSBASE
  2

  9
$PUCSNAME
  2

  9
$PUCSORG
 10
0.0
 20
0.0
 30
0.0
  9
$PUCSXDIR
 10
1.0
 20
0.0
 30
0.0
  9
$PUCSYDIR
 10
0.0
 20
1.0
 30
0.0
  9
$PUCSORTHOREF
  2

  9
$PUCSORTHOVIEW
 70
     0
  9
$PUCSORGTOP
 10
0.0
 20
0.0
 30
0.0
  9
$PUCSORGBOTTOM
 10
0.0
 20
0.0
 30
0.0
  9
$PUCSORGLEFT
 10
0.0
 20
0.0
 30
0.0
  9
$PUCSORGRIGHT
 10
0.0
 20
0.0
 30
0.0
  9
$PUCSORGFRONT
 10
0.0
 20
0.0
 30
0.0
  9
$PUCSORGBACK
 10
0.0
 20
0.0
 30
0.0
  9
$USERI1
 70
     0
  9
$USERI2
 70
     0
  9
$USERI3
 70
     0
  9
$USERI4
 70
     0
  9
$USERI5
 70
     0
  9
$USERR1
 40
0.0
  9
$USERR2
 40
0.0
  9
$USERR3
 40
0.0
  9
$USERR4
 40
0.0
  9
$USERR5
 40
0.0
  9
$WORLDVIEW
 70
     1
  9
$SHADEDGE
 70
     3
  9
$SHADEDIF
 70
    70
  9
$TILEMODE
 70
     1
  9
$MAXACTVP
 70
    64
  9
$PINSBASE
 10
0.0
 20
0.0
 30
0.0
  9
$PLIMCHECK
 70
     0
  9
$PEXTMIN
 10
1.000000000000000E+20
 20
1.000000000000000E+20
 30
1.000000000000000E+20
  9
$PEXTMAX
 10
-1.000000000000000E+20
 20
-1.000000000000000E+20
 30
-1.000000000000000E+20
  9
$PLIMMIN
 10
0.0
 20
0.0
  9
$PLIMMAX
 10
12.0
 20
9.0
  9
$UNITMODE
 70
     0
  9
$VISRETAIN
 70
     1
  9
$PLINEGEN
 70
     0
  9
$PSLTSCALE
 70
     1
  9
$TREEDEPTH
 70
  3020
  9
$CMLSTYLE
  2
Standard
  9
$CMLJUST
 70
     0
  9
$CMLSCALE
 40
1.0
  9
$PROXYGRAPHICS
 70
     1
  9
$MEASUREMENT
 70
     0
  9
$CELWEIGHT
370
    -1
  9
$ENDCAPS
280
     0
  9
$JOINSTYLE
280
     0
  9
$LWDISPLAY
290
     1
  9
$INSUNITS
 70
     1
  9
$HYPERLINKBASE
  1

  9
$STYLESHEET
  1

  9
$XEDIT
290
     1
  9
$CEPSNTYPE
380
     0
  9
$PSTYLEMODE
290
     1
  9
$FINGERPRINTGUID
  2
{4B64817C-A62E-FB6B-C319-E5DAD15E61E7}
  9
$VERSIONGUID
  2
{FAEB1C32-E019-11D5-929B-00C0DF256EC4}
  9
$EXTNAMES
290
     1
  9
$PSVPSCALE
 40
0.0
  9
$OLESTARTUP
290
     0
  9
$SORTENTS
280
   127
  9
$INDEXCTL
280
     0
  9
$HIDETEXT
280
     1
  9
$XCLIPFRAME
280
     2
  9
$HALOGAP
280
     0
  9
$OBSCOLOR
 70
   257
  9
$OBSLTYPE
280
     0
  9
$INTERSECTIONDISPLAY
280
     0
  9
$INTERSECTIONCOLOR
 70
   257
  9
$DIMASSOC
280
     2
  9
$PROJECTNAME
  1

  9
$CAMERADISPLAY
290
     0
  9
$LENSLENGTH
 40
50.0
  9
$CAMERAHEIGHT
 40
0.0
  9
$STEPSPERSEC
 40
2.0
  9
$STEPSIZE
 40
6.0
  9
$3DDWFPREC
 40
2.0
  9
$PSOLWIDTH
 40
0.25
  9
$PSOLHEIGHT
 40
4.0
  9
$LOFTANG1
 40
1.570796326794897
  9
$LOFTANG2
 40
1.570796326794897
  9
$LOFTMAG1
 40
0.0
  9
$LOFTMAG2
 40
0.0
  9
$LOFTPARAM
 70
     7
  9
$LOFTNORMALS
280
     1
  9
$LATITUDE
 40
37.795
  9
$LONGITUDE
 40
-122.394
  9
$NORTHDIRECTION
 40
0.0
  9
$TIMEZONE
 70
 -8000
  9
$LIGHTGLYPHDISPLAY
280
     1
  9
$TILEMODELIGHTSYNCH
280
     1
  9
$CMATERIAL
347
3C
  9
$SOLIDHIST
280
     1
  9
$SHOWHIST
280
     1
  9
$DWFFRAME
280
     2
  9
$DGNFRAME
280
     2
  9
$REALWORLDSCALE
290
     1
  9
$INTERFERECOLOR
 62
   256
  9
$CSHADOW
280
     0
  9
$SHADOWPLANELOCATION
 40
0.0
  0
ENDSEC
  0
SECTION
  2
CLASSES
  0
CLASS
  1
ACDBDICTIONARYWDFLT
  2
AcDbDictionaryWithDefault
  3
ObjectDBX Classes
 90
        0
 91
        4
280
     0
281
     0
  0
CLASS
  1
VISUALSTYLE
  2
AcDbVisualStyle
  3
ObjectDBX Classes
 90
     4095
 91
        4
280
     0
281
     0
  0
CLASS
  1
MATERIAL
  2
AcDbMaterial
  3
ObjectDBX Classes
 90
     1153
 91
        4
280
     0
281
     0
  0
CLASS
  1
SUN
  2
AcDbSun
  3
SCENEOE
 90
     1024
 91
        4
280
     0
281
     0
  0
ENDSEC
  0
SECTION
  2
TABLES
  0
TABLE
  2
VPORT
  5
8
330
0
100
AcDbSymbolTable
 70
     1
  0
VPORT
  5
29
330
8
100
AcDbSymbolTableRecord
100
AcDbViewportTableRecord
  2
*Active
 70
     0
 10
0.0
 20
0.0
 11
1.0
 21
1.0
 12
0.0
 22
0.0
 13
0.0
 23
0.0
 14
0.5
 24
0.5
 15
0.5
 25
0.5
 16
0.0
 26
0.0
 36
1.0
 17
91.00082462281999
 27
-128.4993055234307
 37
0.0
 40
256.9986110468615
 41
0.7081814508812795
 42
50.0
 43
0.0
 44
0.0
 50
0.0
 51
0.0
 71
     0
 72
   100
 73
     1
 74
     3
 75
     0
 76
     0
 77
     0
 78
     0
281
     0
 65
     1
110
0.0
120
0.0
130
0.0
111
1.0
121
0.0
131
0.0
112
0.0
122
1.0
132
0.0
 79
     0
146
0.0
 60
     3
 61
     5
292
     1
282
     1
141
0.0
142
0.0
 63
   250
361
3F
  0
ENDTAB
  0
TABLE
  2
LTYPE
  5
5
330
0
100
AcDbSymbolTable
 70
     2
  0
LTYPE
  5
14
330
5
100
AcDbSymbolTableRecord
100
AcDbLinetypeTableRecord
  2
ByBlock
 70
     0
  3

 72
    65
 73
     0
 40
0.0
  0
LTYPE
  5
15
330
5
100
AcDbSymbolTableRecord
100
AcDbLinetypeTableRecord
  2
ByLayer
 70
     0
  3

 72
    65
 73
     0
 40
0.0
  0
LTYPE
  5
16
330
5
100
AcDbSymbolTableRecord
100
AcDbLinetypeTableRecord
  2
Continuous
 70
     0
  3
Solid line
 72
    65
 73
     0
 40
0.0
  0
LTYPE
  5
47
330
5
100
AcDbSymbolTableRecord
100
AcDbLinetypeTableRecord
  2
AI-Linetype-1
 70
     0
  3
Adobe Illustrator Linetype No. 1
 72
    65
 73
     2
 40
1.411111110758333
 49
0.7055555553791667
 74
     0
 49
-0.7055555553791667
 74
     0
  0
ENDTAB
  0
TABLE
  2
LAYER
  5
2
330
0
100
AcDbSymbolTable
 70
     2
  0
LAYER
  5
10
330
2
100
AcDbSymbolTableRecord
100
AcDbLayerTableRecord
  2
0
 70
     0
 62
     7
  6
Continuous
370
    -3
390
F
347
3E
  0
LAYER
  5
40
330
2
100
AcDbSymbolTableRecord
100
AcDbLayerTableRecord
  2
_U+30EC_U+30A4_U+30E4_U+30FC 1
 70
     0
 62
     7
  6
Continuous
370
    -3
390
F
347
3E
  0
ENDTAB
  0
TABLE
  2
STYLE
  5
3
330
0
100
AcDbSymbolTable
 70
     1
  0
STYLE
  5
11
330
3
100
AcDbSymbolTableRecord
100
AcDbTextStyleTableRecord
  2
Standard
 70
     0
 40
0.0
 41
1.0
 50
0.0
 71
     0
 42
0.2
  3
txt
  4

  0
ENDTAB
  0
TABLE
  2
VIEW
  5
6
330
0
100
AcDbSymbolTable
 70
     0
  0
ENDTAB
  0
TABLE
  2
UCS
  5
7
330
0
100
AcDbSymbolTable
 70
     0
  0
ENDTAB
  0
TABLE
  2
APPID
  5
9
330
0
100
AcDbSymbolTable
 70
     1
  0
APPID
  5
12
330
9
100
AcDbSymbolTableRecord
100
AcDbRegAppTableRecord
  2
ACAD
 70
     0
  0
ENDTAB
  0
TABLE
  2
DIMSTYLE
  5
A
330
0
100
AcDbSymbolTable
 70
     1
100
AcDbDimStyleTable
  0
DIMSTYLE
105
27
330
A
100
AcDbSymbolTableRecord
100
AcDbDimStyleTableRecord
  2
Standard
 70
     0
178
     0
340
11
  0
ENDTAB
  0
TABLE
  2
BLOCK_RECORD
  5
1
330
0
100
AcDbSymbolTable
 70
     8
  0
BLOCK_RECORD
  5
1F
330
1
100
AcDbSymbolTableRecord
100
AcDbBlockTableRecord
  2
*Model_Space
340
22
 70
     0
280
     1
281
     0
  0
BLOCK_RECORD
  5
1B
330
1
100
AcDbSymbolTableRecord
100
AcDbBlockTableRecord
  2
*Paper_Space
340
1E
 70
     0
280
     1
281
     0
  0
BLOCK_RECORD
  5
23
330
1
100
AcDbSymbolTableRecord
100
AcDbBlockTableRecord
  2
*Paper_Space0
340
26
 70
     0
280
     1
281
     0
  0
BLOCK_RECORD
  5
8B
330
1
100
AcDbSymbolTableRecord
100
AcDbBlockTableRecord
  2
block 2
340
0
102
{BLKREFS
331
8C
102
}
 70
     0
280
     1
281
     0
  0
BLOCK_RECORD
  5
A0
330
1
100
AcDbSymbolTableRecord
100
AcDbBlockTableRecord
  2
block 3
340
0
102
{BLKREFS
331
A1
102
}
 70
     0
280
     1
281
     0
  0
BLOCK_RECORD
  5
B1
330
1
100
AcDbSymbolTableRecord
100
AcDbBlockTableRecord
  2
block 4
340
0
102
{BLKREFS
331
B2
102
}
 70
     0
280
     1
281
     0
  0
BLOCK_RECORD
  5
C3
330
1
100
AcDbSymbolTableRecord
100
AcDbBlockTableRecord
  2
block 5
340
0
102
{BLKREFS
331
C4
102
}
 70
     0
280
     1
281
     0
  0
BLOCK_RECORD
  5
D7
330
1
100
AcDbSymbolTableRecord
100
AcDbBlockTableRecord
  2
block 6
340
0
102
{BLKREFS
331
D8
102
}
 70
     0
280
     1
281
     0
  0
BLOCK_RECORD
  5
EB
330
1
100
AcDbSymbolTableRecord
100
AcDbBlockTableRecord
  2
block 7
340
0
102
{BLKREFS
331
EC
102
}
 70
     0
280
     1
281
     0
  0
BLOCK_RECORD
  5
102
330
1
100
AcDbSymbolTableRecord
100
AcDbBlockTableRecord
  2
block 8
340
0
102
{BLKREFS
331
103
102
}
 70
     0
280
     1
281
     0
  0
ENDTAB
  0
ENDSEC
  0
SECTION
  2
BLOCKS
  0
BLOCK
  5
20
330
1F
100
AcDbEntity
  8
0
100
AcDbBlockBegin
  2
*Model_Space
 70
     0
 10
0.0
 20
0.0
 30
0.0
  3
*Model_Space
  1

  0
ENDBLK
  5
21
330
1F
100
AcDbEntity
  8
0
100
AcDbBlockEnd
  0
BLOCK
  5
1C
330
1B
100
AcDbEntity
 67
     1
  8
0
100
AcDbBlockBegin
  2
*Paper_Space
 70
     0
 10
0.0
 20
0.0
 30
0.0
  3
*Paper_Space
  1

  0
ENDBLK
  5
1D
330
1B
100
AcDbEntity
 67
     1
  8
0
100
AcDbBlockEnd
  0
BLOCK
  5
24
330
23
100
AcDbEntity
  8
0
100
AcDbBlockBegin
  2
*Paper_Space0
 70
     0
 10
0.0
 20
0.0
 30
0.0
  3
*Paper_Space0
  1

  0
ENDBLK
  5
25
330
23
100
AcDbEntity
  8
0
100
AcDbBlockEnd
  0
BLOCK
  5
8D
330
8B
100
AcDbEntity
  8
0
100
AcDbBlockBegin
  2
block 2
 70
     0
 10
0.0
 20
0.0
 30
0.0
  3
block 2
  1

  0
SPLINE
  5
8F
330
8B
100
AcDbEntity
  8
_U+30EC_U+30A4_U+30E4_U+30FC 1
370
     0
100
AcDbSpline
210
0.0
220
0.0
230
1.0
 70
    11
 71
     3
 72
    26
 73
    22
 74
     0
 42
0.0000000001
 43
0.0000000001
 12
1.0
 22
0.0
 32
0.0
 13
1.0
 23
0.0
 33
0.0
 40
0.0
 40
0.0
 40
0.0
 40
0.0
 40
1.0
 40
1.0
 40
1.0
 40
2.0
 40
2.0
 40
2.0
 40
3.0
 40
3.0
 40
3.0
 40
4.0
 40
4.0
 40
4.0
 40
5.0
 40
5.0
 40
5.0
 40
6.0
 40
6.0
 40
6.0
 40
7.0
 40
7.0
 40
7.0
 40
7.0
 10
70.69611543371487
 20
-139.7757920657505
 30
0.0
 10
70.69611543371487
 20
-139.7757920657505
 30
0.0
 10
70.69611543371487
 20
-138.6716389627279
 30
0.0
 10
70.69611543371487
 20
-138.6716389627279
 30
0.0
 10
70.69611543371487
 20
-138.6716389627279
 30
0.0
 10
70.34333765602528
 20
-138.6716389627279
 30
0.0
 10
70.34333765602528
 20
-138.6716389627279
 30
0.0
 10
70.34333765602528
 20
-138.6716389627279
 30
0.0
 10
70.34333765602528
 20
-138.5234998568622
 30
0.0
 10
70.34333765602528
 20
-138.5234998568622
 30
0.0
 10
70.69835474578028
 20
-138.5086859462756
 30
0.0
 10
70.74813637554213
 20
-138.3457329298233
 30
0.0
 10
70.77965899923217
 20
-138.231355759713
 30
0.0
 10
70.77965899923217
 20
-138.231355759713
 30
0.0
 10
70.935721824714
 20
-138.231355759713
 30
0.0
 10
70.935721824714
 20
-138.231355759713
 30
0.0
 10
70.935721824714
 20
-138.231355759713
 30
0.0
 10
70.935721824714
 20
-139.7757920657505
 30
0.0
 10
70.935721824714
 20
-139.7757920657505
 30
0.0
 10
70.935721824714
 20
-139.7757920657505
 30
0.0
 10
70.69611543371487
 20
-139.7757920657505
 30
0.0
 10
70.69611543371487
 20
-139.7757920657505
 30
0.0
  0
HATCH
  5
90
330
8B
100
AcDbEntity
  8
_U+30EC_U+30A4_U+30E4_U+30FC 1
 62
     7
420
 16777215
100
AcDbHatch
 10
0.0
 20
0.0
 30
0.0
210
0.0
220
0.0
230
1.0
  2
SOLID
 70
     1
 71
     0
 91
        1
 92
        1
 93
        1
 72
     4
 94
        3
 73
     0
 74
     1
 95
       26
 96
       22
 40
0.0
 40
0.0
 40
0.0
 40
0.0
 40
1.0
 40
1.0
 40
1.0
 40
2.0
 40
2.0
 40
2.0
 40
3.0
 40
3.0
 40
3.0
 40
4.0
 40
4.0
 40
4.0
 40
5.0
 40
5.0
 40
5.0
 40
6.0
 40
6.0
 40
6.0
 40
7.0
 40
7.0
 40
7.0
 40
7.0
 10
70.69611543371487
 20
-139.7757920657505
 10
70.69611543371487
 20
-139.7757920657505
 10
70.69611543371487
 20
-138.6716389627279
 10
70.69611543371487
 20
-138.6716389627279
 10
70.69611543371487
 20
-138.6716389627279
 10
70.34333765602528
 20
-138.6716389627279
 10
70.34333765602528
 20
-138.6716389627279
 10
70.34333765602528
 20
-138.6716389627279
 10
70.34333765602528
 20
-138.5234998568622
 10
70.34333765602528
 20
-138.5234998568622
 10
70.69835474578028
 20
-138.5086859462756
 10
70.74813637554213
 20
-138.3457329298233
 10
70.77965899923217
 20
-138.231355759713
 10
70.77965899923217
 20
-138.231355759713
 10
70.935721824714
 20
-138.231355759713
 10
70.935721824714
 20
-138.231355759713
 10
70.935721824714
 20
-138.231355759713
 10
70.935721824714
 20
-139.7757920657505
 10
70.935721824714
 20
-139.7757920657505
 10
70.935721824714
 20
-139.7757920657505
 10
70.69611543371487
 20
-139.7757920657505
 10
70.69611543371487
 20
-139.7757920657505
 97
        0
 97
        0
 75
     2
 76
     1
 98
        0
  0
SPLINE
  5
91
330
8B
100
AcDbEntity
  8
_U+30EC_U+30A4_U+30E4_U+30FC 1
370
     0
100
AcDbSpline
210
0.0
220
0.0
230
1.0
 70
    11
 71
     3
 72
    44
 73
    40
 74
     0
 42
0.0000000001
 43
0.0000000001
 12
1.0
 22
0.0
 32
0.0
 13
1.0
 23
0.0
 33
0.0
 40
0.0
 40
0.0
 40
0.0
 40
0.0
 40
1.0
 40
1.0
 40
1.0
 40
2.0
 40
2.0
 40
2.0
 40
3.0
 40
3.0
 40
3.0
 40
4.0
 40
4.0
 40
4.0
 40
5.0
 40
5.0
 40
5.0
 40
6.0
 40
6.0
 40
6.0
 40
7.0
 40
7.0
 40
7.0
 40
8.0
 40
8.0
 40
8.0
 40
9.0
 40
9.0
 40
9.0
 40
10.0
 40
10.0
 40
10.0
 40
11.0
 40
11.0
 40
11.0
 40
12.0
 40
12.0
 40
12.0
 40
13.0
 40
13.0
 40
13.0
 40
13.0
 10
72.55526121232994
 20
-139.7757920657505
 30
0.0
 10
72.53045652483614
 20
-139.7313503339908
 30
0.0
 10
72.50771889463348
 20
-139.6786403730665
 30
0.0
 10
72.50547958256807
 20
-139.4478189755547
 30
0.0
 10
72.50100095843726
 20
-139.2045952342961
 30
0.0
 10
72.43778345628292
 20
-139.1346597959455
 30
0.0
 10
72.24778644027138
 20
-139.1346597959455
 30
0.0
 10
72.24778644027138
 20
-139.1346597959455
 30
0.0
 10
71.8114650970645
 20
-139.1346597959455
 30
0.0
 10
71.8114650970645
 20
-139.1346597959455
 30
0.0
 10
71.8114650970645
 20
-139.1346597959455
 30
0.0
 10
71.8114650970645
 20
-139.7757920657505
 30
0.0
 10
71.8114650970645
 20
-139.7757920657505
 30
0.0
 10
71.8114650970645
 20
-139.7757920657505
 30
0.0
 10
71.56048989096405
 20
-139.7757920657505
 30
0.0
 10
71.56048989096405
 20
-139.7757920657505
 30
0.0
 10
71.56048989096405
 20
-139.7757920657505
 30
0.0
 10
71.56048989096405
 20
-138.231355759713
 30
0.0
 10
71.56048989096405
 20
-138.231355759713
 30
0.0
 10
71.56048989096405
 20
-138.231355759713
 30
0.0
 10
72.2817206308011
 20
-138.231355759713
 30
0.0
 10
72.2817206308011
 20
-138.231355759713
 30
0.0
 10
72.60952146622262
 20
-138.231355759713
 30
0.0
 10
72.78814966713283
 20
-138.4029215148784
 30
0.0
 10
72.78814966713283
 20
-138.6588921094325
 30
0.0
 10
72.78814966713283
 20
-138.7095350130657
 30
0.0
 10
72.77919241887118
 20
-138.7922173047117
 30
0.0
 10
72.73165010117474
 20
-138.872488029518
 30
0.0
 10
72.66826034424614
 20
-138.976185403624
 30
0.0
 10
72.59832490589557
 20
-138.9951334287929
 30
0.0
 10
72.53269583690155
 20
-139.0120143966706
 30
0.0
 10
72.67962915934746
 20
-139.0543890711392
 30
0.0
 10
72.75197616453771
 20
-139.1029649174812
 30
0.0
 10
72.75645478866853
 20
-139.4181911543816
 30
0.0
 10
72.76093341279935
 20
-139.6889756595222
 30
0.0
 10
72.79951848223415
 20
-139.7206705379865
 30
0.0
 10
72.8718654874244
 20
-139.7757920657505
 30
0.0
 10
72.8718654874244
 20
-139.7757920657505
 30
0.0
 10
72.55526121232994
 20
-139.7757920657505
 30
0.0
 10
72.55526121232994
 20
-139.7757920657505
 30
0.0
  0
SPLINE
  5
92
330
8B
100
AcDbEntity
  8
_U+30EC_U+30A4_U+30E4_U+30FC 1
370
     0
100
AcDbSpline
210
0.0
220
0.0
230
1.0
 70
    11
 71
     3
 72
    20
 73
    16
 74
     0
 42
0.0000000001
 43
0.0000000001
 12
1.0
 22
0.0
 32
0.0
 13
1.0
 23
0.0
 33
0.0
 40
0.0
 40
0.0
 40
0.0
 40
0.0
 40
1.0
 40
1.0
 40
1.0
 40
2.0
 40
2.0
 40
2.0
 40
3.0
 40
3.0
 40
3.0
 40
4.0
 40
4.0
 40
4.0
 40
5.0
 40
5.0
 40
5.0
 40
5.0
 10
72.28619925493193
 20
-138.4428846225073
 30
0.0
 10
72.28619925493193
 20
-138.4428846225073
 30
0.0
 10
71.8114650970645
 20
-138.4428846225073
 30
0.0
 10
71.8114650970645
 20
-138.4428846225073
 30
0.0
 10
71.8114650970645
 20
-138.4428846225073
 30
0.0
 10
71.8114650970645
 20
-138.9231309331512
 30
0.0
 10
71.8114650970645
 20
-138.9231309331512
 30
0.0
 10
71.8114650970645
 20
-138.9231309331512
 30
0.0
 10
72.28395994286652
 20
-138.9231309331512
 30
0.0
 10
72.28395994286652
 20
-138.9231309331512
 30
0.0
 10
72.39024113858648
 20
-138.9231309331512
 30
0.0
 10
72.53493514896697
 20
-138.8469943229271
 30
0.0
 10
72.53493514896697
 20
-138.6757730773102
 30
0.0
 10
72.53493514896697
 20
-138.5975694097951
 30
0.0
 10
72.49876164637185
 20
-138.4428846225073
 30
0.0
 10
72.28619925493193
 20
-138.4428846225073
 30
0.0
  0
HATCH
  5
93
330
8B
100
AcDbEntity
  8
_U+30EC_U+30A4_U+30E4_U+30FC 1
 62
     7
420
 16777215
100
AcDbHatch
 10
0.0
 20
0.0
 30
0.0
210
0.0
220
0.0
230
1.0
  2
SOLID
 70
     1
 71
     0
 91
        2
 92
        1
 93
        1
 72
     4
 94
        3
 73
     0
 74
     1
 95
       44
 96
       40
 40
0.0
 40
0.0
 40
0.0
 40
0.0
 40
1.0
 40
1.0
 40
1.0
 40
2.0
 40
2.0
 40
2.0
 40
3.0
 40
3.0
 40
3.0
 40
4.0
 40
4.0
 40
4.0
 40
5.0
 40
5.0
 40
5.0
 40
6.0
 40
6.0
 40
6.0
 40
7.0
 40
7.0
 40
7.0
 40
8.0
 40
8.0
 40
8.0
 40
9.0
 40
9.0
 40
9.0
 40
10.0
 40
10.0
 40
10.0
 40
11.0
 40
11.0
 40
11.0
 40
12.0
 40
12.0
 40
12.0
 40
13.0
 40
13.0
 40
13.0
 40
13.0
 10
72.55526121232994
 20
-139.7757920657505
 10
72.53045652483614
 20
-139.7313503339908
 10
72.50771889463348
 20
-139.6786403730665
 10
72.50547958256807
 20
-139.4478189755547
 10
72.50100095843726
 20
-139.2045952342961
 10
72.43778345628292
 20
-139.1346597959455
 10
72.24778644027138
 20
-139.1346597959455
 10
72.24778644027138
 20
-139.1346597959455
 10
71.8114650970645
 20
-139.1346597959455
 10
71.8114650970645
 20
-139.1346597959455
 10
71.8114650970645
 20
-139.1346597959455
 10
71.8114650970645
 20
-139.7757920657505
 10
71.8114650970645
 20
-139.7757920657505
 10
71.8114650970645
 20
-139.7757920657505
 10
71.56048989096405
 20
-139.7757920657505
 10
71.56048989096405
 20
-139.7757920657505
 10
71.56048989096405
 20
-139.7757920657505
 10
71.56048989096405
 20
-138.231355759713
 10
71.56048989096405
 20
-138.231355759713
 10
71.56048989096405
 20
-138.231355759713
 10
72.2817206308011
 20
-138.231355759713
 10
72.2817206308011
 20
-138.231355759713
 10
72.60952146622262
 20
-138.231355759713
 10
72.78814966713283
 20
-138.4029215148784
 10
72.78814966713283
 20
-138.6588921094325
 10
72.78814966713283
 20
-138.7095350130657
 10
72.77919241887118
 20
-138.7922173047117
 10
72.73165010117474
 20
-138.872488029518
 10
72.66826034424614
 20
-138.976185403624
 10
72.59832490589557
 20
-138.9951334287929
 10
72.53269583690155
 20
-139.0120143966706
 10
72.67962915934746
 20
-139.0543890711392
 10
72.75197616453771
 20
-139.1029649174812
 10
72.75645478866853
 20
-139.4181911543816
 10
72.76093341279935
 20
-139.6889756595222
 10
72.79951848223415
 20
-139.7206705379865
 10
72.8718654874244
 20
-139.7757920657505
 10
72.8718654874244
 20
-139.7757920657505
 10
72.55526121232994
 20
-139.7757920657505
 10
72.55526121232994
 20
-139.7757920657505
 97
        0
 97
        0
 92
        1
 93
        1
 72
     4
 94
        3
 73
     0
 74
     1
 95
       20
 96
       16
 40
0.0
 40
0.0
 40
0.0
 40
0.0
 40
1.0
 40
1.0
 40
1.0
 40
2.0
 40
2.0
 40
2.0
 40
3.0
 40
3.0
 40
3.0
 40
4.0
 40
4.0
 40
4.0
 40
5.0
 40
5.0
 40
5.0
 40
5.0
 10
72.28619925493193
 20
-138.4428846225073
 10
72.28619925493193
 20
-138.4428846225073
 10
71.8114650970645
 20
-138.4428846225073
 10
71.8114650970645
 20
-138.4428846225073
 10
71.8114650970645
 20
-138.4428846225073
 10
71.8114650970645
 20
-138.9231309331512
 10
71.8114650970645
 20
-138.9231309331512
 10
71.8114650970645
 20
-138.9231309331512
 10
72.28395994286652
 20
-138.9231309331512
 10
72.28395994286652
 20
-138.9231309331512
 10
72.39024113858648
 20
-138.9231309331512
 10
72.53493514896697
 20
-138.8469943229271
 10
72.53493514896697
 20
-138.6757730773102
 10
72.53493514896697
 20
-138.5975694097951
 10
72.49876164637185
 20
-138.4428846225073
 10
72.28619925493193
 20
-138.4428846225073
 97
        0
 97
        0
 75
     2
 76
     1
 98
        0
  0
ENDBLK
  5
8E
330
8B
100
AcDbEntity
  8
0
100
AcDbBlockEnd
  0
BLOCK
  5
A2
330
A0
100
AcDbEntity
  8
0
100
AcDbBlockBegin
  2
block 3
 70
     0
 10
0.0
 20
0.0
 30
0.0
  3
block 3
  1

  0
SPLINE
  5
A4
330
A0
100
AcDbEntity
  8
_U+30EC_U+30A4_U+30E4_U+30FC 1
370
     0
100
AcDbSpline
210
0.0
220
0.0
230
1.0
 70
    11
 71
     3
 72
    44
 73
    40
 74
     0
 42
0.0000000001
 43
0.0000000001
 12
1.0
 22
0.0
 32
0.0
 13
1.0
 23
0.0
 33
0.0
 40
0.0
 40
0.0
 40
0.0
 40
0.0
 40
1.0
 40
1.0
 40
1.0
 40
2.0
 40
2.0
 40
2.0
 40
3.0
 40
3.0
 40
3.0
 40
4.0
 40
4.0
 40
4.0
 40
5.0
 40
5.0
 40
5.0
 40
6.0
 40
6.0
 40
6.0
 40
7.0
 40
7.0
 40
7.0
 40
8.0
 40
8.0
 40
8.0
 40
9.0
 40
9.0
 40
9.0
 40
10.0
 40
10.0
 40
10.0
 40
11.0
 40
11.0
 40
11.0
 40
12.0
 40
12.0
 40
12.0
 40
13.0
 40
13.0
 40
13.0
 40
13.0
 10
88.6593600581303
 20
-116.744467472984
 30
0.0
 10
88.42647160332741
 20
-116.9031141200798
 30
0.0
 10
88.3269083438037
 20
-116.9771836730127
 30
0.0
 10
88.27523191152494
 20
-117.1208441547476
 30
0.0
 10
88.27523191152494
 20
-117.1208441547476
 30
0.0
 10
89.10687796166425
 20
-117.1208441547476
 30
0.0
 10
89.10687796166425
 20
-117.1208441547476
 30
0.0
 10
89.10687796166425
 20
-117.1208441547476
 30
0.0
 10
89.10687796166425
 20
-117.3261718456685
 30
0.0
 10
89.10687796166425
 20
-117.3261718456685
 30
0.0
 10
89.10687796166425
 20
-117.3261718456685
 30
0.0
 10
88.00823701141809
 20
-117.3261718456685
 30
0.0
 10
88.00823701141809
 20
-117.3261718456685
 30
0.0
 10
88.04234345672205
 20
-116.9685709342995
 30
0.0
 10
88.11227889507263
 20
-116.8903672667844
 30
0.0
 10
88.52362329601146
 20
-116.5920219977617
 30
0.0
 10
88.7971638775403
 20
-116.3932399882628
 30
0.0
 10
88.8674438254394
 20
-116.3255438619776
 30
0.0
 10
88.8674438254394
 20
-116.1880845521162
 30
0.0
 10
88.8674438254394
 20
-116.0695732674236
 30
0.0
 10
88.79061819611832
 20
-115.9384873842098
 30
0.0
 10
88.58012286196956
 20
-115.9384873842098
 30
0.0
 10
88.3021036563099
 20
-115.9384873842098
 30
0.0
 10
88.29314640804824
 20
-116.168964272173
 30
0.0
 10
88.28866778391742
 20
-116.2854084995745
 30
0.0
 10
88.28866778391742
 20
-116.2854084995745
 30
0.0
 10
88.04888913814403
 20
-116.2854084995745
 30
0.0
 10
88.04888913814403
 20
-116.2854084995745
 30
0.0
 10
88.05819089595421
 20
-116.158456730943
 30
0.0
 10
88.069215201507
 20
-116.0463188728981
 30
0.0
 10
88.15534258863825
 20
-115.9278075882056
 30
0.0
 10
88.27282034468527
 20
-115.7670938838186
 30
0.0
 10
88.47160235418418
 20
-115.7331596932889
 30
0.0
 10
88.5959703012017
 20
-115.7331596932889
 30
0.0
 10
88.8922485129332
 20
-115.7331596932889
 30
0.0
 10
89.11376815263476
 20
-115.9173000469755
 30
0.0
 10
89.11376815263476
 20
-116.1901516094073
 30
0.0
 10
89.11376815263476
 20
-116.4185614400794
 30
0.0
 10
88.98940020561724
 20
-116.5181246996031
 30
0.0
 10
88.6593600581303
 20
-116.744467472984
 30
0.0
  0
HATCH
  5
A5
330
A0
100
AcDbEntity
  8
_U+30EC_U+30A4_U+30E4_U+30FC 1
 62
     7
420
 16777215
100
AcDbHatch
 10
0.0
 20
0.0
 30
0.0
210
0.0
220
0.0
230
1.0
  2
SOLID
 70
     1
 71
     0
 91
        1
 92
        1
 93
        1
 72
     4
 94
        3
 73
     0
 74
     1
 95
       44
 96
       40
 40
0.0
 40
0.0
 40
0.0
 40
0.0
 40
1.0
 40
1.0
 40
1.0
 40
2.0
 40
2.0
 40
2.0
 40
3.0
 40
3.0
 40
3.0
 40
4.0
 40
4.0
 40
4.0
 40
5.0
 40
5.0
 40
5.0
 40
6.0
 40
6.0
 40
6.0
 40
7.0
 40
7.0
 40
7.0
 40
8.0
 40
8.0
 40
8.0
 40
9.0
 40
9.0
 40
9.0
 40
10.0
 40
10.0
 40
10.0
 40
11.0
 40
11.0
 40
11.0
 40
12.0
 40
12.0
 40
12.0
 40
13.0
 40
13.0
 40
13.0
 40
13.0
 10
88.6593600581303
 20
-116.744467472984
 10
88.42647160332741
 20
-116.9031141200798
 10
88.3269083438037
 20
-116.9771836730127
 10
88.27523191152494
 20
-117.1208441547476
 10
88.27523191152494
 20
-117.1208441547476
 10
89.10687796166425
 20
-117.1208441547476
 10
89.10687796166425
 20
-117.1208441547476
 10
89.10687796166425
 20
-117.1208441547476
 10
89.10687796166425
 20
-117.3261718456685
 10
89.10687796166425
 20
-117.3261718456685
 10
89.10687796166425
 20
-117.3261718456685
 10
88.00823701141809
 20
-117.3261718456685
 10
88.00823701141809
 20
-117.3261718456685
 10
88.04234345672205
 20
-116.9685709342995
 10
88.11227889507263
 20
-116.8903672667844
 10
88.52362329601146
 20
-116.5920219977617
 10
88.7971638775403
 20
-116.3932399882628
 10
88.8674438254394
 20
-116.3255438619776
 10
88.8674438254394
 20
-116.1880845521162
 10
88.8674438254394
 20
-116.0695732674236
 10
88.79061819611832
 20
-115.9384873842098
 10
88.58012286196956
 20
-115.9384873842098
 10
88.3021036563099
 20
-115.9384873842098
 10
88.29314640804824
 20
-116.168964272173
 10
88.28866778391742
 20
-116.2854084995745
 10
88.28866778391742
 20
-116.2854084995745
 10
88.04888913814403
 20
-116.2854084995745
 10
88.04888913814403
 20
-116.2854084995745
 10
88.05819089595421
 20
-116.158456730943
 10
88.069215201507
 20
-116.0463188728981
 10
88.15534258863825
 20
-115.9278075882056
 10
88.27282034468527
 20
-115.7670938838186
 10
88.47160235418418
 20
-115.7331596932889
 10
88.5959703012017
 20
-115.7331596932889
 10
88.8922485129332
 20
-115.7331596932889
 10
89.11376815263476
 20
-115.9173000469755
 10
89.11376815263476
 20
-116.1901516094073
 10
89.11376815263476
 20
-116.4185614400794
 10
88.98940020561724
 20
-116.5181246996031
 10
88.6593600581303
 20
-116.744467472984
 97
        0
 97
        0
 75
     2
 76
     1
 98
        0
  0
SPLINE
  5
A6
330
A0
100
AcDbEntity
  8
_U+30EC_U+30A4_U+30E4_U+30FC 1
370
     0
100
AcDbSpline
210
0.0
220
0.0
230
1.0
 70
    11
 71
     3
 72
    29
 73
    25
 74
     0
 42
0.0000000001
 43
0.0000000001
 12
1.0
 22
0.0
 32
0.0
 13
1.0
 23
0.0
 33
0.0
 40
0.0
 40
0.0
 40
0.0
 40
0.0
 40
1.0
 40
1.0
 40
1.0
 40
2.0
 40
2.0
 40
2.0
 40
3.0
 40
3.0
 40
3.0
 40
4.0
 40
4.0
 40
4.0
 40
5.0
 40
5.0
 40
5.0
 40
6.0
 40
6.0
 40
6.0
 40
7.0
 40
7.0
 40
7.0
 40
8.0
 40
8.0
 40
8.0
 40
8.0
 10
90.24272594315113
 20
-117.1484049186296
 30
0.0
 10
90.12731524439526
 20
-117.3578667241328
 30
0.0
 10
89.94196910728881
 20
-117.3768147493016
 30
0.0
 10
89.8176011602713
 20
-117.3768147493016
 30
0.0
 10
89.64603540510586
 20
-117.3768147493016
 30
0.0
 10
89.49445120375486
 20
-117.3303059602508
 30
0.0
 10
89.39282088693999
 20
-117.1484049186296
 30
0.0
 10
89.28188881231495
 20
-116.953757023713
 30
0.0
 10
89.26156274895197
 20
-116.716906709102
 30
0.0
 10
89.26156274895197
 20
-116.5539536926497
 30
0.0
 10
89.26156274895197
 20
-116.4101209561405
 30
0.0
 10
89.2798217550238
 20
-116.158456730943
 30
0.0
 10
89.39282088693999
 20
-115.9595024666698
 30
0.0
 10
89.50788707614734
 20
-115.7564140878144
 30
0.0
 10
89.6797973408613
 20
-115.7331596932889
 30
0.0
 10
89.8176011602713
 20
-115.7331596932889
 30
0.0
 10
89.98744436769411
 20
-115.7331596932889
 30
0.0
 10
90.14109562633625
 20
-115.7776014250487
 30
0.0
 10
90.24272594315113
 20
-115.9595024666698
 30
0.0
 10
90.34917939364534
 20
-116.1520833042953
 30
0.0
 10
90.37398408113914
 20
-116.3804931349674
 30
0.0
 10
90.37398408113914
 20
-116.5539536926497
 30
0.0
 10
90.37398408113914
 20
-116.7253471930409
 30
0.0
 10
90.3512464509365
 20
-116.9559963357784
 30
0.0
 10
90.24272594315113
 20
-117.1484049186296
 30
0.0
  0
SPLINE
  5
A7
330
A0
100
AcDbEntity
  8
_U+30EC_U+30A4_U+30E4_U+30FC 1
370
     0
100
AcDbSpline
210
0.0
220
0.0
230
1.0
 70
    11
 71
     3
 72
    17
 73
    13
 74
     0
 42
0.0000000001
 43
0.0000000001
 12
1.0
 22
0.0
 32
0.0
 13
1.0
 23
0.0
 33
0.0
 40
0.0
 40
0.0
 40
0.0
 40
0.0
 40
1.0
 40
1.0
 40
1.0
 40
2.0
 40
2.0
 40
2.0
 40
3.0
 40
3.0
 40
3.0
 40
4.0
 40
4.0
 40
4.0
 40
4.0
 10
89.8176011602713
 20
-115.9257405309144
 30
0.0
 10
89.55095076971295
 20
-115.9257405309144
 30
0.0
 10
89.50134139472536
 20
-116.2092718893505
 30
0.0
 10
89.50134139472536
 20
-116.5539536926497
 30
0.0
 10
89.50134139472536
 20
-116.8734862989066
 30
0.0
 10
89.53958195461163
 20
-117.182166854385
 30
0.0
 10
89.8176011602713
 20
-117.182166854385
 30
0.0
 10
90.08218449353849
 20
-117.182166854385
 30
0.0
 10
90.13420543536576
 20
-116.9008748080144
 30
0.0
 10
90.13420543536576
 20
-116.5539536926497
 30
0.0
 10
90.13420543536576
 20
-116.2345933411671
 30
0.0
 10
90.09355330863981
 20
-115.9257405309144
 30
0.0
 10
89.8176011602713
 20
-115.9257405309144
 30
0.0
  0
HATCH
  5
A8
330
A0
100
AcDbEntity
  8
_U+30EC_U+30A4_U+30E4_U+30FC 1
 62
     7
420
 16777215
100
AcDbHatch
 10
0.0
 20
0.0
 30
0.0
210
0.0
220
0.0
230
1.0
  2
SOLID
 70
     1
 71
     0
 91
        2
 92
        1
 93
        1
 72
     4
 94
        3
 73
     0
 74
     1
 95
       29
 96
       25
 40
0.0
 40
0.0
 40
0.0
 40
0.0
 40
1.0
 40
1.0
 40
1.0
 40
2.0
 40
2.0
 40
2.0
 40
3.0
 40
3.0
 40
3.0
 40
4.0
 40
4.0
 40
4.0
 40
5.0
 40
5.0
 40
5.0
 40
6.0
 40
6.0
 40
6.0
 40
7.0
 40
7.0
 40
7.0
 40
8.0
 40
8.0
 40
8.0
 40
8.0
 10
90.24272594315113
 20
-117.1484049186296
 10
90.12731524439526
 20
-117.3578667241328
 10
89.94196910728881
 20
-117.3768147493016
 10
89.8176011602713
 20
-117.3768147493016
 10
89.64603540510586
 20
-117.3768147493016
 10
89.49445120375486
 20
-117.3303059602508
 10
89.39282088693999
 20
-117.1484049186296
 10
89.28188881231495
 20
-116.953757023713
 10
89.26156274895197
 20
-116.716906709102
 10
89.26156274895197
 20
-116.5539536926497
 10
89.26156274895197
 20
-116.4101209561405
 10
89.2798217550238
 20
-116.158456730943
 10
89.39282088693999
 20
-115.9595024666698
 10
89.50788707614734
 20
-115.7564140878144
 10
89.6797973408613
 20
-115.7331596932889
 10
89.8176011602713
 20
-115.7331596932889
 10
89.98744436769411
 20
-115.7331596932889
 10
90.14109562633625
 20
-115.7776014250487
 10
90.24272594315113
 20
-115.9595024666698
 10
90.34917939364534
 20
-116.1520833042953
 10
90.37398408113914
 20
-116.3804931349674
 10
90.37398408113914
 20
-116.5539536926497
 10
90.37398408113914
 20
-116.7253471930409
 10
90.3512464509365
 20
-116.9559963357784
 10
90.24272594315113
 20
-117.1484049186296
 97
        0
 97
        0
 92
        1
 93
        1
 72
     4
 94
        3
 73
     0
 74
     1
 95
       17
 96
       13
 40
0.0
 40
0.0
 40
0.0
 40
0.0
 40
1.0
 40
1.0
 40
1.0
 40
2.0
 40
2.0
 40
2.0
 40
3.0
 40
3.0
 40
3.0
 40
4.0
 40
4.0
 40
4.0
 40
4.0
 10
89.8176011602713
 20
-115.9257405309144
 10
89.55095076971295
 20
-115.9257405309144
 10
89.50134139472536
 20
-116.2092718893505
 10
89.50134139472536
 20
-116.5539536926497
 10
89.50134139472536
 20
-116.8734862989066
 10
89.53958195461163
 20
-117.182166854385
 10
89.8176011602713
 20
-117.182166854385
 10
90.08218449353849
 20
-117.182166854385
 10
90.13420543536576
 20
-116.9008748080144
 10
90.13420543536576
 20
-116.5539536926497
 10
90.13420543536576
 20
-116.2345933411671
 10
90.09355330863981
 20
-115.9257405309144
 10
89.8176011602713
 20
-115.9257405309144
 97
        0
 97
        0
 75
     2
 76
     1
 98
        0
  0
ENDBLK
  5
A3
330
A0
100
AcDbEntity
  8
0
100
AcDbBlockEnd
  0
BLOCK
  5
B3
330
B1
100
AcDbEntity
  8
0
100
AcDbBlockBegin
  2
block 4
 70
     0
 10
0.0
 20
0.0
 30
0.0
  3
block 4
  1

  0
SPLINE
  5
B5
330
B1
100
AcDbEntity
  8
_U+30EC_U+30A4_U+30E4_U+30FC 1
370
     0
100
AcDbSpline
210
0.0
220
0.0
230
1.0
 70
    11
 71
     3
 72
    26
 73
    22
 74
     0
 42
0.0000000001
 43
0.0000000001
 12
1.0
 22
0.0
 32
0.0
 13
1.0
 23
0.0
 33
0.0
 40
0.0
 40
0.0
 40
0.0
 40
0.0
 40
1.0
 40
1.0
 40
1.0
 40
2.0
 40
2.0
 40
2.0
 40
3.0
 40
3.0
 40
3.0
 40
4.0
 40
4.0
 40
4.0
 40
5.0
 40
5.0
 40
5.0
 40
6.0
 40
6.0
 40
6.0
 40
7.0
 40
7.0
 40
7.0
 40
7.0
 10
80.41576332625023
 20
-123.8260334976893
 30
0.0
 10
80.41576332625023
 20
-123.8260334976893
 30
0.0
 10
80.41576332625023
 20
-122.7217081398925
 30
0.0
 10
80.41576332625023
 20
-122.7217081398925
 30
0.0
 10
80.41576332625023
 20
-122.7217081398925
 30
0.0
 10
80.06298554856065
 20
-122.7217081398925
 30
0.0
 10
80.06298554856065
 20
-122.7217081398925
 30
0.0
 10
80.06298554856065
 20
-122.7217081398925
 30
0.0
 10
80.06298554856065
 20
-122.573741288801
 30
0.0
 10
80.06298554856065
 20
-122.573741288801
 30
0.0
 10
80.41800263831564
 20
-122.5589273782144
 30
0.0
 10
80.46778426807751
 20
-122.3959743617621
 30
0.0
 10
80.4994791465418
 20
-122.2817694464261
 30
0.0
 10
80.4994791465418
 20
-122.2817694464261
 30
0.0
 10
80.65536971724936
 20
-122.2817694464261
 30
0.0
 10
80.65536971724936
 20
-122.2817694464261
 30
0.0
 10
80.65536971724936
 20
-122.2817694464261
 30
0.0
 10
80.65536971724936
 20
-123.8260334976893
 30
0.0
 10
80.65536971724936
 20
-123.8260334976893
 30
0.0
 10
80.65536971724936
 20
-123.8260334976893
 30
0.0
 10
80.41576332625023
 20
-123.8260334976893
 30
0.0
 10
80.41576332625023
 20
-123.8260334976893
 30
0.0
  0
HATCH
  5
B6
330
B1
100
AcDbEntity
  8
_U+30EC_U+30A4_U+30E4_U+30FC 1
 62
     7
420
 16777215
100
AcDbHatch
 10
0.0
 20
0.0
 30
0.0
210
0.0
220
0.0
230
1.0
  2
SOLID
 70
     1
 71
     0
 91
        1
 92
        1
 93
        1
 72
     4
 94
        3
 73
     0
 74
     1
 95
       26
 96
       22
 40
0.0
 40
0.0
 40
0.0
 40
0.0
 40
1.0
 40
1.0
 40
1.0
 40
2.0
 40
2.0
 40
2.0
 40
3.0
 40
3.0
 40
3.0
 40
4.0
 40
4.0
 40
4.0
 40
5.0
 40
5.0
 40
5.0
 40
6.0
 40
6.0
 40
6.0
 40
7.0
 40
7.0
 40
7.0
 40
7.0
 10
80.41576332625023
 20
-123.8260334976893
 10
80.41576332625023
 20
-123.8260334976893
 10
80.41576332625023
 20
-122.7217081398925
 10
80.41576332625023
 20
-122.7217081398925
 10
80.41576332625023
 20
-122.7217081398925
 10
80.06298554856065
 20
-122.7217081398925
 10
80.06298554856065
 20
-122.7217081398925
 10
80.06298554856065
 20
-122.7217081398925
 10
80.06298554856065
 20
-122.573741288801
 10
80.06298554856065
 20
-122.573741288801
 10
80.41800263831564
 20
-122.5589273782144
 10
80.46778426807751
 20
-122.3959743617621
 10
80.4994791465418
 20
-122.2817694464261
 10
80.4994791465418
 20
-122.2817694464261
 10
80.65536971724936
 20
-122.2817694464261
 10
80.65536971724936
 20
-122.2817694464261
 10
80.65536971724936
 20
-122.2817694464261
 10
80.65536971724936
 20
-123.8260334976893
 10
80.65536971724936
 20
-123.8260334976893
 10
80.65536971724936
 20
-123.8260334976893
 10
80.41576332625023
 20
-123.8260334976893
 10
80.41576332625023
 20
-123.8260334976893
 97
        0
 97
        0
 75
     2
 76
     1
 98
        0
  0
ENDBLK
  5
B4
330
B1
100
AcDbEntity
  8
0
100
AcDbBlockEnd
  0
BLOCK
  5
C5
330
C3
100
AcDbEntity
  8
0
100
AcDbBlockBegin
  2
block 5
 70
     0
 10
0.0
 20
0.0
 30
0.0
  3
block 5
  1

  0
SPLINE
  5
C7
330
C3
100
AcDbEntity
  8
_U+30EC_U+30A4_U+30E4_U+30FC 1
370
     0
100
AcDbSpline
210
0.0
220
0.0
230
1.0
 70
    11
 71
     3
 72
    26
 73
    22
 74
     0
 42
0.0000000001
 43
0.0000000001
 12
1.0
 22
0.0
 32
0.0
 13
1.0
 23
0.0
 33
0.0
 40
0.0
 40
0.0
 40
0.0
 40
0.0
 40
1.0
 40
1.0
 40
1.0
 40
2.0
 40
2.0
 40
2.0
 40
3.0
 40
3.0
 40
3.0
 40
4.0
 40
4.0
 40
4.0
 40
5.0
 40
5.0
 40
5.0
 40
6.0
 40
6.0
 40
6.0
 40
7.0
 40
7.0
 40
7.0
 40
7.0
 10
72.69272052219141
 20
-130.0985188476837
 30
0.0
 10
72.69272052219141
 20
-130.0985188476837
 30
0.0
 10
71.58839516439457
 20
-130.0985188476837
 30
0.0
 10
71.58839516439457
 20
-130.0985188476837
 30
0.0
 10
71.58839516439457
 20
-130.0985188476837
 30
0.0
 10
71.58839516439457
 20
-130.4509521158248
 30
0.0
 10
71.58839516439457
 20
-130.4509521158248
 30
0.0
 10
71.58839516439457
 20
-130.4509521158248
 30
0.0
 10
71.44025605852883
 20
-130.4509521158248
 30
0.0
 10
71.44025605852883
 20
-130.4509521158248
 30
0.0
 10
71.42561440271652
 20
-130.096107280844
 30
0.0
 10
71.2626613862642
 20
-130.0464979058564
 30
0.0
 10
71.14845647092817
 20
-130.0148030273921
 30
0.0
 10
71.14845647092817
 20
-130.0148030273921
 30
0.0
 10
71.14845647092817
 20
-129.8587402019103
 30
0.0
 10
71.14845647092817
 20
-129.8587402019103
 30
0.0
 10
71.14845647092817
 20
-129.8587402019103
 30
0.0
 10
72.69272052219141
 20
-129.8587402019103
 30
0.0
 10
72.69272052219141
 20
-129.8587402019103
 30
0.0
 10
72.69272052219141
 20
-129.8587402019103
 30
0.0
 10
72.69272052219141
 20
-130.0985188476837
 30
0.0
 10
72.69272052219141
 20
-130.0985188476837
 30
0.0
  0
HATCH
  5
C8
330
C3
100
AcDbEntity
  8
_U+30EC_U+30A4_U+30E4_U+30FC 1
 62
     7
420
 16777215
100
AcDbHatch
 10
0.0
 20
0.0
 30
0.0
210
0.0
220
0.0
230
1.0
  2
SOLID
 70
     1
 71
     0
 91
        1
 92
        1
 93
        1
 72
     4
 94
        3
 73
     0
 74
     1
 95
       26
 96
       22
 40
0.0
 40
0.0
 40
0.0
 40
0.0
 40
1.0
 40
1.0
 40
1.0
 40
2.0
 40
2.0
 40
2.0
 40
3.0
 40
3.0
 40
3.0
 40
4.0
 40
4.0
 40
4.0
 40
5.0
 40
5.0
 40
5.0
 40
6.0
 40
6.0
 40
6.0
 40
7.0
 40
7.0
 40
7.0
 40
7.0
 10
72.69272052219141
 20
-130.0985188476837
 10
72.69272052219141
 20
-130.0985188476837
 10
71.58839516439457
 20
-130.0985188476837
 10
71.58839516439457
 20
-130.0985188476837
 10
71.58839516439457
 20
-130.0985188476837
 10
71.58839516439457
 20
-130.4509521158248
 10
71.58839516439457
 20
-130.4509521158248
 10
71.58839516439457
 20
-130.4509521158248
 10
71.44025605852883
 20
-130.4509521158248
 10
71.44025605852883
 20
-130.4509521158248
 10
71.42561440271652
 20
-130.096107280844
 10
71.2626613862642
 20
-130.0464979058564
 10
71.14845647092817
 20
-130.0148030273921
 10
71.14845647092817
 20
-130.0148030273921
 10
71.14845647092817
 20
-129.8587402019103
 10
71.14845647092817
 20
-129.8587402019103
 10
71.14845647092817
 20
-129.8587402019103
 10
72.69272052219141
 20
-129.8587402019103
 10
72.69272052219141
 20
-129.8587402019103
 10
72.69272052219141
 20
-129.8587402019103
 10
72.69272052219141
 20
-130.0985188476837
 10
72.69272052219141
 20
-130.0985188476837
 97
        0
 97
        0
 75
     2
 76
     1
 98
        0
  0
SPLINE
  5
C9
330
C3
100
AcDbEntity
  8
_U+30EC_U+30A4_U+30E4_U+30FC 1
370
     0
100
AcDbSpline
210
0.0
220
0.0
230
1.0
 70
    11
 71
     3
 72
    53
 73
    49
 74
     0
 42
0.0000000001
 43
0.0000000001
 12
1.0
 22
0.0
 32
0.0
 13
1.0
 23
0.0
 33
0.0
 40
0.0
 40
0.0
 40
0.0
 40
0.0
 40
1.0
 40
1.0
 40
1.0
 40
2.0
 40
2.0
 40
2.0
 40
3.0
 40
3.0
 40
3.0
 40
4.0
 40
4.0
 40
4.0
 40
5.0
 40
5.0
 40
5.0
 40
6.0
 40
6.0
 40
6.0
 40
7.0
 40
7.0
 40
7.0
 40
8.0
 40
8.0
 40
8.0
 40
9.0
 40
9.0
 40
9.0
 40
10.0
 40
10.0
 40
10.0
 40
11.0
 40
11.0
 40
11.0
 40
12.0
 40
12.0
 40
12.0
 40
13.0
 40
13.0
 40
13.0
 40
14.0
 40
14.0
 40
14.0
 40
15.0
 40
15.0
 40
15.0
 40
16.0
 40
16.0
 40
16.0
 40
16.0
 10
72.74353568059884
 20
-128.8090196075547
 30
0.0
 10
72.74353568059884
 20
-128.8923909182977
 30
0.0
 10
72.72665471272111
 20
-129.0012559356316
 30
0.0
 10
72.66309270101826
 20
-129.1094319338685
 30
0.0
 10
72.55302190026453
 20
-129.2951225805234
 30
0.0
 10
72.42193601705077
 20
-129.3175157011776
 30
0.0
 10
72.31410452836245
 20
-129.3378417645405
 30
0.0
 10
72.31410452836245
 20
-129.3378417645405
 30
0.0
 10
72.31410452836245
 20
-129.1004746856068
 30
0.0
 10
72.31410452836245
 20
-129.1004746856068
 30
0.0
 10
72.51288653786136
 20
-129.0419080623576
 30
0.0
 10
72.54251435903451
 20
-128.9061713002388
 30
0.0
 10
72.54251435903451
 20
-128.806608040715
 30
0.0
 10
72.54251435903451
 20
-128.6574354062037
 30
0.0
 10
72.44312335428505
 20
-128.4948268992999
 30
0.0
 10
72.21040715425643
 20
-128.4948268992999
 30
0.0
 10
71.95443655970237
 20
-128.4948268992999
 30
0.0
 10
71.88467337612606
 20
-128.6867187178283
 30
0.0
 10
71.88467337612606
 20
-128.8155652889767
 30
0.0
 10
71.88467337612606
 20
-128.8496717342806
 30
0.0
 10
71.88467337612606
 20
-129.0012559356316
 30
0.0
 10
72.01369220204866
 20
-129.095996061476
 30
0.0
 10
72.01369220204866
 20
-129.095996061476
 30
0.0
 10
71.99457192210552
 20
-129.2837537654221
 30
0.0
 10
71.99457192210552
 20
-129.2837537654221
 30
0.0
 10
71.99457192210552
 20
-129.2837537654221
 30
0.0
 10
71.14845647092817
 20
-129.1549071942738
 30
0.0
 10
71.14845647092817
 20
-129.1549071942738
 30
0.0
 10
71.14845647092817
 20
-129.1549071942738
 30
0.0
 10
71.14845647092817
 20
-128.3229166345859
 30
0.0
 10
71.14845647092817
 20
-128.3229166345859
 30
0.0
 10
71.14845647092817
 20
-128.3229166345859
 30
0.0
 10
71.34310436584478
 20
-128.3229166345859
 30
0.0
 10
71.34310436584478
 20
-128.3229166345859
 30
0.0
 10
71.34310436584478
 20
-128.3229166345859
 30
0.0
 10
71.34310436584478
 20
-128.9805853627201
 30
0.0
 10
71.34310436584478
 20
-128.9805853627201
 30
0.0
 10
71.34310436584478
 20
-128.9805853627201
 30
0.0
 10
71.76616209143346
 20
-129.0508653106192
 30
0.0
 10
71.76616209143346
 20
-129.0508653106192
 30
0.0
 10
71.73222790090375
 20
-128.9854084963995
 30
0.0
 10
71.69209253850059
 20
-128.8972140519771
 30
0.0
 10
71.69209253850059
 20
-128.7704345381199
 30
0.0
 10
71.69209253850059
 20
-128.4993055234307
 30
0.0
 10
71.87829994947835
 20
-128.2460910052649
 30
0.0
 10
72.19128687431329
 20
-128.2460910052649
 30
0.0
 10
72.50875242327906
 20
-128.2460910052649
 30
0.0
 10
72.74353568059884
 20
-128.4855251414897
 30
0.0
 10
72.74353568059884
 20
-128.8090196075547
 30
0.0
  0
HATCH
  5
CA
330
C3
100
AcDbEntity
  8
_U+30EC_U+30A4_U+30E4_U+30FC 1
 62
     7
420
 16777215
100
AcDbHatch
 10
0.0
 20
0.0
 30
0.0
210
0.0
220
0.0
230
1.0
  2
SOLID
 70
     1
 71
     0
 91
        1
 92
        1
 93
        1
 72
     4
 94
        3
 73
     0
 74
     1
 95
       53
 96
       49
 40
0.0
 40
0.0
 40
0.0
 40
0.0
 40
1.0
 40
1.0
 40
1.0
 40
2.0
 40
2.0
 40
2.0
 40
3.0
 40
3.0
 40
3.0
 40
4.0
 40
4.0
 40
4.0
 40
5.0
 40
5.0
 40
5.0
 40
6.0
 40
6.0
 40
6.0
 40
7.0
 40
7.0
 40
7.0
 40
8.0
 40
8.0
 40
8.0
 40
9.0
 40
9.0
 40
9.0
 40
10.0
 40
10.0
 40
10.0
 40
11.0
 40
11.0
 40
11.0
 40
12.0
 40
12.0
 40
12.0
 40
13.0
 40
13.0
 40
13.0
 40
14.0
 40
14.0
 40
14.0
 40
15.0
 40
15.0
 40
15.0
 40
16.0
 40
16.0
 40
16.0
 40
16.0
 10
72.74353568059884
 20
-128.8090196075547
 10
72.74353568059884
 20
-128.8923909182977
 10
72.72665471272111
 20
-129.0012559356316
 10
72.66309270101826
 20
-129.1094319338685
 10
72.55302190026453
 20
-129.2951225805234
 10
72.42193601705077
 20
-129.3175157011776
 10
72.31410452836245
 20
-129.3378417645405
 10
72.31410452836245
 20
-129.3378417645405
 10
72.31410452836245
 20
-129.1004746856068
 10
72.31410452836245
 20
-129.1004746856068
 10
72.51288653786136
 20
-129.0419080623576
 10
72.54251435903451
 20
-128.9061713002388
 10
72.54251435903451
 20
-128.806608040715
 10
72.54251435903451
 20
-128.6574354062037
 10
72.44312335428505
 20
-128.4948268992999
 10
72.21040715425643
 20
-128.4948268992999
 10
71.95443655970237
 20
-128.4948268992999
 10
71.88467337612606
 20
-128.6867187178283
 10
71.88467337612606
 20
-128.8155652889767
 10
71.88467337612606
 20
-128.8496717342806
 10
71.88467337612606
 20
-129.0012559356316
 10
72.01369220204866
 20
-129.095996061476
 10
72.01369220204866
 20
-129.095996061476
 10
71.99457192210552
 20
-129.2837537654221
 10
71.99457192210552
 20
-129.2837537654221
 10
71.99457192210552
 20
-129.2837537654221
 10
71.14845647092817
 20
-129.1549071942738
 10
71.14845647092817
 20
-129.1549071942738
 10
71.14845647092817
 20
-129.1549071942738
 10
71.14845647092817
 20
-128.3229166345859
 10
71.14845647092817
 20
-128.3229166345859
 10
71.14845647092817
 20
-128.3229166345859
 10
71.34310436584478
 20
-128.3229166345859
 10
71.34310436584478
 20
-128.3229166345859
 10
71.34310436584478
 20
-128.3229166345859
 10
71.34310436584478
 20
-128.9805853627201
 10
71.34310436584478
 20
-128.9805853627201
 10
71.34310436584478
 20
-128.9805853627201
 10
71.76616209143346
 20
-129.0508653106192
 10
71.76616209143346
 20
-129.0508653106192
 10
71.73222790090375
 20
-128.9854084963995
 10
71.69209253850059
 20
-128.8972140519771
 10
71.69209253850059
 20
-128.7704345381199
 10
71.69209253850059
 20
-128.4993055234307
 10
71.87829994947835
 20
-128.2460910052649
 10
72.19128687431329
 20
-128.2460910052649
 10
72.50875242327906
 20
-128.2460910052649
 10
72.74353568059884
 20
-128.4855251414897
 10
72.74353568059884
 20
-128.8090196075547
 97
        0
 97
        0
 75
     2
 76
     1
 98
        0
  0
ENDBLK
  5
C6
330
C3
100
AcDbEntity
  8
0
100
AcDbBlockEnd
  0
BLOCK
  5
D9
330
D7
100
AcDbEntity
  8
0
100
AcDbBlockBegin
  2
block 6
 70
     0
 10
0.0
 20
0.0
 30
0.0
  3
block 6
  1

  0
SPLINE
  5
DB
330
D7
100
AcDbEntity
  8
_U+30EC_U+30A4_U+30E4_U+30FC 1
370
     0
100
AcDbSpline
210
0.0
220
0.0
230
1.0
 70
    11
 71
     3
 72
    26
 73
    22
 74
     0
 42
0.0000000001
 43
0.0000000001
 12
1.0
 22
0.0
 32
0.0
 13
1.0
 23
0.0
 33
0.0
 40
0.0
 40
0.0
 40
0.0
 40
0.0
 40
1.0
 40
1.0
 40
1.0
 40
2.0
 40
2.0
 40
2.0
 40
3.0
 40
3.0
 40
3.0
 40
4.0
 40
4.0
 40
4.0
 40
5.0
 40
5.0
 40
5.0
 40
6.0
 40
6.0
 40
6.0
 40
7.0
 40
7.0
 40
7.0
 40
7.0
 10
85.01272648699334
 20
-140.3259738147449
 30
0.0
 10
85.01272648699334
 20
-140.3259738147449
 30
0.0
 10
85.01272648699334
 20
-139.2218207117223
 30
0.0
 10
85.01272648699334
 20
-139.2218207117223
 30
0.0
 10
85.01272648699334
 20
-139.2218207117223
 30
0.0
 10
84.66029321885229
 20
-139.2218207117223
 30
0.0
 10
84.66029321885229
 20
-139.2218207117223
 30
0.0
 10
84.66029321885229
 20
-139.2218207117223
 30
0.0
 10
84.66029321885229
 20
-139.0736816058566
 30
0.0
 10
84.66029321885229
 20
-139.0736816058566
 30
0.0
 10
85.01513805383303
 20
-139.05886769527
 30
0.0
 10
85.06474742882062
 20
-138.8959146788177
 30
0.0
 10
85.09644230728492
 20
-138.7815375087074
 30
0.0
 10
85.09644230728492
 20
-138.7815375087074
 30
0.0
 10
85.25250513276674
 20
-138.7815375087074
 30
0.0
 10
85.25250513276674
 20
-138.7815375087074
 30
0.0
 10
85.25250513276674
 20
-138.7815375087074
 30
0.0
 10
85.25250513276674
 20
-140.3259738147449
 30
0.0
 10
85.25250513276674
 20
-140.3259738147449
 30
0.0
 10
85.25250513276674
 20
-140.3259738147449
 30
0.0
 10
85.01272648699334
 20
-140.3259738147449
 30
0.0
 10
85.01272648699334
 20
-140.3259738147449
 30
0.0
  0
HATCH
  5
DC
330
D7
100
AcDbEntity
  8
_U+30EC_U+30A4_U+30E4_U+30FC 1
 62
     7
420
 16777215
100
AcDbHatch
 10
0.0
 20
0.0
 30
0.0
210
0.0
220
0.0
230
1.0
  2
SOLID
 70
     1
 71
     0
 91
        1
 92
        1
 93
        1
 72
     4
 94
        3
 73
     0
 74
     1
 95
       26
 96
       22
 40
0.0
 40
0.0
 40
0.0
 40
0.0
 40
1.0
 40
1.0
 40
1.0
 40
2.0
 40
2.0
 40
2.0
 40
3.0
 40
3.0
 40
3.0
 40
4.0
 40
4.0
 40
4.0
 40
5.0
 40
5.0
 40
5.0
 40
6.0
 40
6.0
 40
6.0
 40
7.0
 40
7.0
 40
7.0
 40
7.0
 10
85.01272648699334
 20
-140.3259738147449
 10
85.01272648699334
 20
-140.3259738147449
 10
85.01272648699334
 20
-139.2218207117223
 10
85.01272648699334
 20
-139.2218207117223
 10
85.01272648699334
 20
-139.2218207117223
 10
84.66029321885229
 20
-139.2218207117223
 10
84.66029321885229
 20
-139.2218207117223
 10
84.66029321885229
 20
-139.2218207117223
 10
84.66029321885229
 20
-139.0736816058566
 10
84.66029321885229
 20
-139.0736816058566
 10
85.01513805383303
 20
-139.05886769527
 10
85.06474742882062
 20
-138.8959146788177
 10
85.09644230728492
 20
-138.7815375087074
 10
85.09644230728492
 20
-138.7815375087074
 10
85.25250513276674
 20
-138.7815375087074
 10
85.25250513276674
 20
-138.7815375087074
 10
85.25250513276674
 20
-138.7815375087074
 10
85.25250513276674
 20
-140.3259738147449
 10
85.25250513276674
 20
-140.3259738147449
 10
85.25250513276674
 20
-140.3259738147449
 10
85.01272648699334
 20
-140.3259738147449
 10
85.01272648699334
 20
-140.3259738147449
 97
        0
 97
        0
 75
     2
 76
     1
 98
        0
  0
SPLINE
  5
DD
330
D7
100
AcDbEntity
  8
_U+30EC_U+30A4_U+30E4_U+30FC 1
370
     0
100
AcDbSpline
210
0.0
220
0.0
230
1.0
 70
    11
 71
     3
 72
    53
 73
    49
 74
     0
 42
0.0000000001
 43
0.0000000001
 12
1.0
 22
0.0
 32
0.0
 13
1.0
 23
0.0
 33
0.0
 40
0.0
 40
0.0
 40
0.0
 40
0.0
 40
1.0
 40
1.0
 40
1.0
 40
2.0
 40
2.0
 40
2.0
 40
3.0
 40
3.0
 40
3.0
 40
4.0
 40
4.0
 40
4.0
 40
5.0
 40
5.0
 40
5.0
 40
6.0
 40
6.0
 40
6.0
 40
7.0
 40
7.0
 40
7.0
 40
8.0
 40
8.0
 40
8.0
 40
9.0
 40
9.0
 40
9.0
 40
10.0
 40
10.0
 40
10.0
 40
11.0
 40
11.0
 40
11.0
 40
12.0
 40
12.0
 40
12.0
 40
13.0
 40
13.0
 40
13.0
 40
14.0
 40
14.0
 40
14.0
 40
15.0
 40
15.0
 40
15.0
 40
16.0
 40
16.0
 40
16.0
 40
16.0
 10
86.30222572712236
 20
-140.3766167183781
 30
0.0
 10
86.21850990683079
 20
-140.3766167183781
 30
0.0
 10
86.11033390859394
 20
-140.3597357505004
 30
0.0
 10
86.00146889126006
 20
-140.2963459935717
 30
0.0
 10
85.81612275415361
 20
-140.1864474475923
 30
0.0
 10
85.79372963349948
 20
-140.0551893096043
 30
0.0
 10
85.77340357013651
 20
-139.947357820916
 30
0.0
 10
85.77340357013651
 20
-139.947357820916
 30
0.0
 10
86.01077064907022
 20
-139.947357820916
 30
0.0
 10
86.01077064907022
 20
-139.947357820916
 30
0.0
 10
86.06933727231947
 20
-140.1461398304149
 30
0.0
 10
86.20507403443833
 20
-140.175767651588
 30
0.0
 10
86.30463729396205
 20
-140.175767651588
 30
0.0
 10
86.45380992847336
 20
-140.175767651588
 30
0.0
 10
86.61676294492567
 20
-140.0762043920643
 30
0.0
 10
86.61676294492567
 20
-139.8436604468099
 30
0.0
 10
86.61676294492567
 20
-139.5876898522559
 30
0.0
 10
86.42452661684874
 20
-139.5177544139053
 30
0.0
 10
86.2956800457004
 20
-139.5177544139053
 30
0.0
 10
86.26157360039642
 20
-139.5177544139053
 30
0.0
 10
86.11033390859394
 20
-139.5177544139053
 30
0.0
 10
86.01524927320105
 20
-139.6469454946022
 30
0.0
 10
86.01524927320105
 20
-139.6469454946022
 30
0.0
 10
85.82749156925493
 20
-139.6279974694333
 30
0.0
 10
85.82749156925493
 20
-139.6279974694333
 30
0.0
 10
85.82749156925493
 20
-139.6279974694333
 30
0.0
 10
85.95633814040328
 20
-138.7815375087074
 30
0.0
 10
85.95633814040328
 20
-138.7815375087074
 30
0.0
 10
85.95633814040328
 20
-138.7815375087074
 30
0.0
 10
86.78832870009111
 20
-138.7815375087074
 30
0.0
 10
86.78832870009111
 20
-138.7815375087074
 30
0.0
 10
86.78832870009111
 20
-138.7815375087074
 30
0.0
 10
86.78832870009111
 20
-138.976185403624
 30
0.0
 10
86.78832870009111
 20
-138.976185403624
 30
0.0
 10
86.78832870009111
 20
-138.976185403624
 30
0.0
 10
86.13065997195692
 20
-138.976185403624
 30
0.0
 10
86.13065997195692
 20
-138.976185403624
 30
0.0
 10
86.13065997195692
 20
-138.976185403624
 30
0.0
 10
86.06038002405782
 20
-139.3992431292127
 30
0.0
 10
86.06038002405782
 20
-139.3992431292127
 30
0.0
 10
86.12583683827758
 20
-139.3654811934572
 30
0.0
 10
86.21403128269996
 20
-139.3251735762798
 30
0.0
 10
86.34081079655716
 20
-139.3251735762798
 30
0.0
 10
86.61193981124633
 20
-139.3251735762798
 30
0.0
 10
86.86515432941219
 20
-139.5115532420319
 30
0.0
 10
86.86515432941219
 20
-139.824712421641
 30
0.0
 10
86.86515432941219
 20
-140.1420057158326
 30
0.0
 10
86.62572019318732
 20
-140.3766167183781
 30
0.0
 10
86.30222572712236
 20
-140.3766167183781
 30
0.0
  0
HATCH
  5
DE
330
D7
100
AcDbEntity
  8
_U+30EC_U+30A4_U+30E4_U+30FC 1
 62
     7
420
 16777215
100
AcDbHatch
 10
0.0
 20
0.0
 30
0.0
210
0.0
220
0.0
230
1.0
  2
SOLID
 70
     1
 71
     0
 91
        1
 92
        1
 93
        1
 72
     4
 94
        3
 73
     0
 74
     1
 95
       53
 96
       49
 40
0.0
 40
0.0
 40
0.0
 40
0.0
 40
1.0
 40
1.0
 40
1.0
 40
2.0
 40
2.0
 40
2.0
 40
3.0
 40
3.0
 40
3.0
 40
4.0
 40
4.0
 40
4.0
 40
5.0
 40
5.0
 40
5.0
 40
6.0
 40
6.0
 40
6.0
 40
7.0
 40
7.0
 40
7.0
 40
8.0
 40
8.0
 40
8.0
 40
9.0
 40
9.0
 40
9.0
 40
10.0
 40
10.0
 40
10.0
 40
11.0
 40
11.0
 40
11.0
 40
12.0
 40
12.0
 40
12.0
 40
13.0
 40
13.0
 40
13.0
 40
14.0
 40
14.0
 40
14.0
 40
15.0
 40
15.0
 40
15.0
 40
16.0
 40
16.0
 40
16.0
 40
16.0
 10
86.30222572712236
 20
-140.3766167183781
 10
86.21850990683079
 20
-140.3766167183781
 10
86.11033390859394
 20
-140.3597357505004
 10
86.00146889126006
 20
-140.2963459935717
 10
85.81612275415361
 20
-140.1864474475923
 10
85.79372963349948
 20
-140.0551893096043
 10
85.77340357013651
 20
-139.947357820916
 10
85.77340357013651
 20
-139.947357820916
 10
86.01077064907022
 20
-139.947357820916
 10
86.01077064907022
 20
-139.947357820916
 10
86.06933727231947
 20
-140.1461398304149
 10
86.20507403443833
 20
-140.175767651588
 10
86.30463729396205
 20
-140.175767651588
 10
86.45380992847336
 20
-140.175767651588
 10
86.61676294492567
 20
-140.0762043920643
 10
86.61676294492567
 20
-139.8436604468099
 10
86.61676294492567
 20
-139.5876898522559
 10
86.42452661684874
 20
-139.5177544139053
 10
86.2956800457004
 20
-139.5177544139053
 10
86.26157360039642
 20
-139.5177544139053
 10
86.11033390859394
 20
-139.5177544139053
 10
86.01524927320105
 20
-139.6469454946022
 10
86.01524927320105
 20
-139.6469454946022
 10
85.82749156925493
 20
-139.6279974694333
 10
85.82749156925493
 20
-139.6279974694333
 10
85.82749156925493
 20
-139.6279974694333
 10
85.95633814040328
 20
-138.7815375087074
 10
85.95633814040328
 20
-138.7815375087074
 10
85.95633814040328
 20
-138.7815375087074
 10
86.78832870009111
 20
-138.7815375087074
 10
86.78832870009111
 20
-138.7815375087074
 10
86.78832870009111
 20
-138.7815375087074
 10
86.78832870009111
 20
-138.976185403624
 10
86.78832870009111
 20
-138.976185403624
 10
86.78832870009111
 20
-138.976185403624
 10
86.13065997195692
 20
-138.976185403624
 10
86.13065997195692
 20
-138.976185403624
 10
86.13065997195692
 20
-138.976185403624
 10
86.06038002405782
 20
-139.3992431292127
 10
86.06038002405782
 20
-139.3992431292127
 10
86.12583683827758
 20
-139.3654811934572
 10
86.21403128269996
 20
-139.3251735762798
 10
86.34081079655716
 20
-139.3251735762798
 10
86.61193981124633
 20
-139.3251735762798
 10
86.86515432941219
 20
-139.5115532420319
 10
86.86515432941219
 20
-139.824712421641
 10
86.86515432941219
 20
-140.1420057158326
 10
86.62572019318732
 20
-140.3766167183781
 10
86.30222572712236
 20
-140.3766167183781
 97
        0
 97
        0
 75
     2
 76
     1
 98
        0
  0
ENDBLK
  5
DA
330
D7
100
AcDbEntity
  8
0
100
AcDbBlockEnd
  0
BLOCK
  5
ED
330
EB
100
AcDbEntity
  8
0
100
AcDbBlockBegin
  2
block 7
 70
     0
 10
0.0
 20
0.0
 30
0.0
  3
block 7
  1

  0
SPLINE
  5
EF
330
EB
100
AcDbEntity
  8
_U+30EC_U+30A4_U+30E4_U+30FC 1
370
     0
100
AcDbSpline
210
0.0
220
0.0
230
1.0
 70
    11
 71
     3
 72
    29
 73
    25
 74
     0
 42
0.0000000001
 43
0.0000000001
 12
1.0
 22
0.0
 32
0.0
 13
1.0
 23
0.0
 33
0.0
 40
0.0
 40
0.0
 40
0.0
 40
0.0
 40
1.0
 40
1.0
 40
1.0
 40
2.0
 40
2.0
 40
2.0
 40
3.0
 40
3.0
 40
3.0
 40
4.0
 40
4.0
 40
4.0
 40
5.0
 40
5.0
 40
5.0
 40
6.0
 40
6.0
 40
6.0
 40
7.0
 40
7.0
 40
7.0
 40
8.0
 40
8.0
 40
8.0
 40
8.0
 10
96.74379337859183
 20
-132.6523681308994
 30
0.0
 10
96.74379337859183
 20
-132.9369330179811
 30
0.0
 10
96.60598955918184
 20
-133.2084065422187
 30
0.0
 10
96.25734589607455
 20
-133.2084065422187
 30
0.0
 10
96.00103079197197
 20
-133.2084065422187
 30
0.0
 10
95.90594615657908
 20
-133.0568223408677
 30
0.0
 10
95.84462345694163
 20
-132.9438232089516
 30
0.0
 10
95.78536781459533
 20
-133.0771484042307
 30
0.0
 10
95.67099064448503
 20
-133.1587971672311
 30
0.0
 10
95.5104491948724
 20
-133.1587971672311
 30
0.0
 10
95.23553057514945
 20
-133.1587971672311
 30
0.0
 10
95.09979381303062
 20
-132.9462347757912
 30
0.0
 10
95.09979381303062
 20
-132.6523681308994
 30
0.0
 10
95.09979381303062
 20
-132.3491997281974
 30
0.0
 10
95.24379880431405
 20
-132.1459390945677
 30
0.0
 10
95.5104491948724
 20
-132.1459390945677
 30
0.0
 10
95.67099064448503
 20
-132.1459390945677
 30
0.0
 10
95.78536781459533
 20
-132.2293104053107
 30
0.0
 10
95.84462345694163
 20
-132.3629801101384
 30
0.0
 10
95.89561087012332
 20
-132.2678954747455
 30
0.0
 10
95.99069550551621
 20
-132.0983967768712
 30
0.0
 10
96.25321178149225
 20
-132.0983967768712
 30
0.0
 10
96.62734915119039
 20
-132.0983967768712
 30
0.0
 10
96.74379337859183
 20
-132.3967420458939
 30
0.0
 10
96.74379337859183
 20
-132.6523681308994
 30
0.0
  0
SPLINE
  5
F0
330
EB
100
AcDbEntity
  8
_U+30EC_U+30A4_U+30E4_U+30FC 1
370
     0
100
AcDbSpline
210
0.0
220
0.0
230
1.0
 70
    11
 71
     3
 72
    17
 73
    13
 74
     0
 42
0.0000000001
 43
0.0000000001
 12
1.0
 22
0.0
 32
0.0
 13
1.0
 23
0.0
 33
0.0
 40
0.0
 40
0.0
 40
0.0
 40
0.0
 40
1.0
 40
1.0
 40
1.0
 40
2.0
 40
2.0
 40
2.0
 40
3.0
 40
3.0
 40
3.0
 40
4.0
 40
4.0
 40
4.0
 40
4.0
 10
95.2927191602046
 20
-132.6523681308994
 30
0.0
 10
95.2927191602046
 20
-132.8287570197442
 30
0.0
 10
95.38780379559749
 20
-132.9190185214578
 30
0.0
 10
95.52285153861929
 20
-132.9190185214578
 30
0.0
 10
95.64549693789418
 20
-132.9190185214578
 30
0.0
 10
95.76400822258678
 20
-132.8421928921367
 30
0.0
 10
95.76400822258678
 20
-132.6523681308994
 30
0.0
 10
95.76400822258678
 20
-132.4621988601136
 30
0.0
 10
95.64549693789418
 20
-132.3853732307925
 30
0.0
 10
95.52285153861929
 20
-132.3853732307925
 30
0.0
 10
95.38780379559749
 20
-132.3853732307925
 30
0.0
 10
95.2927191602046
 20
-132.4780462993458
 30
0.0
 10
95.2927191602046
 20
-132.6523681308994
 30
0.0
  0
SPLINE
  5
F1
330
EB
100
AcDbEntity
  8
_U+30EC_U+30A4_U+30E4_U+30FC 1
370
     0
100
AcDbSpline
210
0.0
220
0.0
230
1.0
 70
    11
 71
     3
 72
    17
 73
    13
 74
     0
 42
0.0000000001
 43
0.0000000001
 12
1.0
 22
0.0
 32
0.0
 13
1.0
 23
0.0
 33
0.0
 40
0.0
 40
0.0
 40
0.0
 40
0.0
 40
1.0
 40
1.0
 40
1.0
 40
2.0
 40
2.0
 40
2.0
 40
3.0
 40
3.0
 40
3.0
 40
4.0
 40
4.0
 40
4.0
 40
4.0
 10
95.95279945517846
 20
-132.6523681308994
 30
0.0
 10
95.95279945517846
 20
-132.8060193895415
 30
0.0
 10
96.03961586140677
 20
-132.9686278964454
 30
0.0
 10
96.24218747593946
 20
-132.9686278964454
 30
0.0
 10
96.44751516686034
 20
-132.9686278964454
 30
0.0
 10
96.54880097412669
 20
-132.833235643875
 30
0.0
 10
96.54880097412669
 20
-132.6523681308994
 30
0.0
 10
96.54880097412669
 20
-132.453241611852
 30
0.0
 10
96.4261555748518
 20
-132.3357638558049
 30
0.0
 10
96.2483886478129
 20
-132.3357638558049
 30
0.0
 10
96.02652449856282
 20
-132.3357638558049
 30
0.0
 10
95.95279945517846
 20
-132.5097411778101
 30
0.0
 10
95.95279945517846
 20
-132.6523681308994
 30
0.0
  0
HATCH
  5
F2
330
EB
100
AcDbEntity
  8
_U+30EC_U+30A4_U+30E4_U+30FC 1
 62
     7
420
 16777215
100
AcDbHatch
 10
0.0
 20
0.0
 30
0.0
210
0.0
220
0.0
230
1.0
  2
SOLID
 70
     1
 71
     0
 91
        3
 92
        1
 93
        1
 72
     4
 94
        3
 73
     0
 74
     1
 95
       29
 96
       25
 40
0.0
 40
0.0
 40
0.0
 40
0.0
 40
1.0
 40
1.0
 40
1.0
 40
2.0
 40
2.0
 40
2.0
 40
3.0
 40
3.0
 40
3.0
 40
4.0
 40
4.0
 40
4.0
 40
5.0
 40
5.0
 40
5.0
 40
6.0
 40
6.0
 40
6.0
 40
7.0
 40
7.0
 40
7.0
 40
8.0
 40
8.0
 40
8.0
 40
8.0
 10
96.74379337859183
 20
-132.6523681308994
 10
96.74379337859183
 20
-132.9369330179811
 10
96.60598955918184
 20
-133.2084065422187
 10
96.25734589607455
 20
-133.2084065422187
 10
96.00103079197197
 20
-133.2084065422187
 10
95.90594615657908
 20
-133.0568223408677
 10
95.84462345694163
 20
-132.9438232089516
 10
95.78536781459533
 20
-133.0771484042307
 10
95.67099064448503
 20
-133.1587971672311
 10
95.5104491948724
 20
-133.1587971672311
 10
95.23553057514945
 20
-133.1587971672311
 10
95.09979381303062
 20
-132.9462347757912
 10
95.09979381303062
 20
-132.6523681308994
 10
95.09979381303062
 20
-132.3491997281974
 10
95.24379880431405
 20
-132.1459390945677
 10
95.5104491948724
 20
-132.1459390945677
 10
95.67099064448503
 20
-132.1459390945677
 10
95.78536781459533
 20
-132.2293104053107
 10
95.84462345694163
 20
-132.3629801101384
 10
95.89561087012332
 20
-132.2678954747455
 10
95.99069550551621
 20
-132.0983967768712
 10
96.25321178149225
 20
-132.0983967768712
 10
96.62734915119039
 20
-132.0983967768712
 10
96.74379337859183
 20
-132.3967420458939
 10
96.74379337859183
 20
-132.6523681308994
 97
        0
 97
        0
 92
        1
 93
        1
 72
     4
 94
        3
 73
     0
 74
     1
 95
       17
 96
       13
 40
0.0
 40
0.0
 40
0.0
 40
0.0
 40
1.0
 40
1.0
 40
1.0
 40
2.0
 40
2.0
 40
2.0
 40
3.0
 40
3.0
 40
3.0
 40
4.0
 40
4.0
 40
4.0
 40
4.0
 10
95.2927191602046
 20
-132.6523681308994
 10
95.2927191602046
 20
-132.8287570197442
 10
95.38780379559749
 20
-132.9190185214578
 10
95.52285153861929
 20
-132.9190185214578
 10
95.64549693789418
 20
-132.9190185214578
 10
95.76400822258678
 20
-132.8421928921367
 10
95.76400822258678
 20
-132.6523681308994
 10
95.76400822258678
 20
-132.4621988601136
 10
95.64549693789418
 20
-132.3853732307925
 10
95.52285153861929
 20
-132.3853732307925
 10
95.38780379559749
 20
-132.3853732307925
 10
95.2927191602046
 20
-132.4780462993458
 10
95.2927191602046
 20
-132.6523681308994
 97
        0
 97
        0
 92
        1
 93
        1
 72
     4
 94
        3
 73
     0
 74
     1
 95
       17
 96
       13
 40
0.0
 40
0.0
 40
0.0
 40
0.0
 40
1.0
 40
1.0
 40
1.0
 40
2.0
 40
2.0
 40
2.0
 40
3.0
 40
3.0
 40
3.0
 40
4.0
 40
4.0
 40
4.0
 40
4.0
 10
95.95279945517846
 20
-132.6523681308994
 10
95.95279945517846
 20
-132.8060193895415
 10
96.03961586140677
 20
-132.9686278964454
 10
96.24218747593946
 20
-132.9686278964454
 10
96.44751516686034
 20
-132.9686278964454
 10
96.54880097412669
 20
-132.833235643875
 10
96.54880097412669
 20
-132.6523681308994
 10
96.54880097412669
 20
-132.453241611852
 10
96.4261555748518
 20
-132.3357638558049
 10
96.2483886478129
 20
-132.3357638558049
 10
96.02652449856282
 20
-132.3357638558049
 10
95.95279945517846
 20
-132.5097411778101
 10
95.95279945517846
 20
-132.6523681308994
 97
        0
 97
        0
 75
     2
 76
     1
 98
        0
  0
POLYLINE
  5
F3
330
EB
100
AcDbEntity
  8
_U+30EC_U+30A4_U+30E4_U+30FC 1
370
     0
100
AcDb2dPolyline
 66
     1
 10
0.0
 20
0.0
 30
0.0
  0
VERTEX
  5
F4
330
F3
100
AcDbEntity
  8
_U+30EC_U+30A4_U+30E4_U+30FC 1
370
     0
100
AcDbVertex
100
AcDb2dVertex
 10
96.69280596541013
 20
-131.8648193029713
 30
0.0
  0
VERTEX
  5
F5
330
F3
100
AcDbEntity
  8
_U+30EC_U+30A4_U+30E4_U+30FC 1
370
     0
100
AcDbVertex
100
AcDb2dVertex
 10
96.4413139949869
 20
-131.8648193029713
 30
0.0
  0
VERTEX
  5
F6
330
F3
100
AcDbEntity
  8
_U+30EC_U+30A4_U+30E4_U+30FC 1
370
     0
100
AcDbVertex
100
AcDb2dVertex
 10
96.4413139949869
 20
-131.5957573455733
 30
0.0
  0
VERTEX
  5
F7
330
F3
100
AcDbEntity
  8
_U+30EC_U+30A4_U+30E4_U+30FC 1
370
     0
100
AcDbVertex
100
AcDb2dVertex
 10
96.69280596541013
 20
-131.5957573455733
 30
0.0
  0
VERTEX
  5
F8
330
F3
100
AcDbEntity
  8
_U+30EC_U+30A4_U+30E4_U+30FC 1
370
     0
100
AcDbVertex
100
AcDb2dVertex
 10
96.69280596541013
 20
-131.8648193029713
 30
0.0
  0
SEQEND
  5
F9
330
F3
100
AcDbEntity
  8
_U+30EC_U+30A4_U+30E4_U+30FC 1
370
     0
  0
HATCH
  5
FA
330
EB
100
AcDbEntity
  8
_U+30EC_U+30A4_U+30E4_U+30FC 1
 62
     7
420
 16777215
100
AcDbHatch
 10
0.0
 20
0.0
 30
0.0
210
0.0
220
0.0
230
1.0
  2
SOLID
 70
     1
 71
     0
 91
        1
 92
        1
 93
        4
 72
     1
 10
96.69280596541013
 20
-131.8648193029713
 11
96.4413139949869
 21
-131.8648193029713
 72
     1
 10
96.4413139949869
 20
-131.8648193029713
 11
96.4413139949869
 21
-131.5957573455733
 72
     1
 10
96.4413139949869
 20
-131.5957573455733
 11
96.69280596541013
 21
-131.5957573455733
 72
     1
 10
96.69280596541013
 20
-131.5957573455733
 11
96.69280596541013
 21
-131.8648193029713
 97
        0
 75
     2
 76
     1
 98
        0
  0
SPLINE
  5
FB
330
EB
100
AcDbEntity
  8
_U+30EC_U+30A4_U+30E4_U+30FC 1
370
     0
100
AcDbSpline
210
0.0
220
0.0
230
1.0
 70
    11
 71
     3
 72
    53
 73
    49
 74
     0
 42
0.0000000001
 43
0.0000000001
 12
1.0
 22
0.0
 32
0.0
 13
1.0
 23
0.0
 33
0.0
 40
0.0
 40
0.0
 40
0.0
 40
0.0
 40
1.0
 40
1.0
 40
1.0
 40
2.0
 40
2.0
 40
2.0
 40
3.0
 40
3.0
 40
3.0
 40
4.0
 40
4.0
 40
4.0
 40
5.0
 40
5.0
 40
5.0
 40
6.0
 40
6.0
 40
6.0
 40
7.0
 40
7.0
 40
7.0
 40
8.0
 40
8.0
 40
8.0
 40
9.0
 40
9.0
 40
9.0
 40
10.0
 40
10.0
 40
10.0
 40
11.0
 40
11.0
 40
11.0
 40
12.0
 40
12.0
 40
12.0
 40
13.0
 40
13.0
 40
13.0
 40
14.0
 40
14.0
 40
14.0
 40
15.0
 40
15.0
 40
15.0
 40
16.0
 40
16.0
 40
16.0
 40
16.0
 10
96.74379337859183
 20
-130.8288790905567
 30
0.0
 10
96.74379337859183
 20
-130.9125949108482
 30
0.0
 10
96.72656790116558
 20
-131.0207709090851
 30
0.0
 10
96.663178144237
 20
-131.129635926419
 30
0.0
 10
96.55362410780604
 20
-131.3149820635254
 30
0.0
 10
96.4220214602695
 20
-131.3373751841796
 30
0.0
 10
96.3145344811297
 20
-131.3577012475425
 30
0.0
 10
96.3145344811297
 20
-131.3577012475425
 30
0.0
 10
96.3145344811297
 20
-131.1203341686088
 30
0.0
 10
96.3145344811297
 20
-131.1203341686088
 30
0.0
 10
96.5129719810801
 20
-131.0617675453596
 30
0.0
 10
96.54259980225325
 20
-130.9260307832407
 30
0.0
 10
96.54259980225325
 20
-130.826467523717
 30
0.0
 10
96.54259980225325
 20
-130.6772948892057
 30
0.0
 10
96.44338105227804
 20
-130.5143418727534
 30
0.0
 10
96.21049259747515
 20
-130.5143418727534
 30
0.0
 10
95.95486651246962
 20
-130.5143418727534
 30
0.0
 10
95.88458656457053
 20
-130.7065782008303
 30
0.0
 10
95.88458656457053
 20
-130.8354247719786
 30
0.0
 10
95.88458656457053
 20
-130.8695312172826
 30
0.0
 10
95.88458656457053
 20
-131.0207709090851
 30
0.0
 10
96.01412215481592
 20
-131.115855544478
 30
0.0
 10
96.01412215481592
 20
-131.115855544478
 30
0.0
 10
95.99482962009851
 20
-131.3036132484241
 30
0.0
 10
95.99482962009851
 20
-131.3036132484241
 30
0.0
 10
95.99482962009851
 20
-131.3036132484241
 30
0.0
 10
95.14871416892116
 20
-131.1747666772758
 30
0.0
 10
95.14871416892116
 20
-131.1747666772758
 30
0.0
 10
95.14871416892116
 20
-131.1747666772758
 30
0.0
 10
95.14871416892116
 20
-130.3427761175879
 30
0.0
 10
95.14871416892116
 20
-130.3427761175879
 30
0.0
 10
95.14871416892116
 20
-130.3427761175879
 30
0.0
 10
95.34301755428925
 20
-130.3427761175879
 30
0.0
 10
95.34301755428925
 20
-130.3427761175879
 30
0.0
 10
95.34301755428925
 20
-130.3427761175879
 30
0.0
 10
95.34301755428925
 20
-131.0004448457221
 30
0.0
 10
95.34301755428925
 20
-131.0004448457221
 30
0.0
 10
95.34301755428925
 20
-131.0004448457221
 30
0.0
 10
95.76607527987792
 20
-131.0707247936212
 30
0.0
 10
95.76607527987792
 20
-131.0707247936212
 30
0.0
 10
95.73231334412249
 20
-131.0052679794015
 30
0.0
 10
95.69235023649358
 20
-130.9170735349791
 30
0.0
 10
95.69235023649358
 20
-130.7902940211219
 30
0.0
 10
95.69235023649358
 20
-130.5191650064327
 30
0.0
 10
95.87838539269707
 20
-130.2659504882668
 30
0.0
 10
96.19188908185481
 20
-130.2659504882668
 30
0.0
 10
96.5088378664978
 20
-130.2659504882668
 30
0.0
 10
96.74379337859183
 20
-130.5053846244917
 30
0.0
 10
96.74379337859183
 20
-130.8288790905567
 30
0.0
  0
HATCH
  5
FC
330
EB
100
AcDbEntity
  8
_U+30EC_U+30A4_U+30E4_U+30FC 1
 62
     7
420
 16777215
100
AcDbHatch
 10
0.0
 20
0.0
 30
0.0
210
0.0
220
0.0
230
1.0
  2
SOLID
 70
     1
 71
     0
 91
        1
 92
        1
 93
        1
 72
     4
 94
        3
 73
     0
 74
     1
 95
       53
 96
       49
 40
0.0
 40
0.0
 40
0.0
 40
0.0
 40
1.0
 40
1.0
 40
1.0
 40
2.0
 40
2.0
 40
2.0
 40
3.0
 40
3.0
 40
3.0
 40
4.0
 40
4.0
 40
4.0
 40
5.0
 40
5.0
 40
5.0
 40
6.0
 40
6.0
 40
6.0
 40
7.0
 40
7.0
 40
7.0
 40
8.0
 40
8.0
 40
8.0
 40
9.0
 40
9.0
 40
9.0
 40
10.0
 40
10.0
 40
10.0
 40
11.0
 40
11.0
 40
11.0
 40
12.0
 40
12.0
 40
12.0
 40
13.0
 40
13.0
 40
13.0
 40
14.0
 40
14.0
 40
14.0
 40
15.0
 40
15.0
 40
15.0
 40
16.0
 40
16.0
 40
16.0
 40
16.0
 10
96.74379337859183
 20
-130.8288790905567
 10
96.74379337859183
 20
-130.9125949108482
 10
96.72656790116558
 20
-131.0207709090851
 10
96.663178144237
 20
-131.129635926419
 10
96.55362410780604
 20
-131.3149820635254
 10
96.4220214602695
 20
-131.3373751841796
 10
96.3145344811297
 20
-131.3577012475425
 10
96.3145344811297
 20
-131.3577012475425
 10
96.3145344811297
 20
-131.1203341686088
 10
96.3145344811297
 20
-131.1203341686088
 10
96.5129719810801
 20
-131.0617675453596
 10
96.54259980225325
 20
-130.9260307832407
 10
96.54259980225325
 20
-130.826467523717
 10
96.54259980225325
 20
-130.6772948892057
 10
96.44338105227804
 20
-130.5143418727534
 10
96.21049259747515
 20
-130.5143418727534
 10
95.95486651246962
 20
-130.5143418727534
 10
95.88458656457053
 20
-130.7065782008303
 10
95.88458656457053
 20
-130.8354247719786
 10
95.88458656457053
 20
-130.8695312172826
 10
95.88458656457053
 20
-131.0207709090851
 10
96.01412215481592
 20
-131.115855544478
 10
96.01412215481592
 20
-131.115855544478
 10
95.99482962009851
 20
-131.3036132484241
 10
95.99482962009851
 20
-131.3036132484241
 10
95.99482962009851
 20
-131.3036132484241
 10
95.14871416892116
 20
-131.1747666772758
 10
95.14871416892116
 20
-131.1747666772758
 10
95.14871416892116
 20
-131.1747666772758
 10
95.14871416892116
 20
-130.3427761175879
 10
95.14871416892116
 20
-130.3427761175879
 10
95.14871416892116
 20
-130.3427761175879
 10
95.34301755428925
 20
-130.3427761175879
 10
95.34301755428925
 20
-130.3427761175879
 10
95.34301755428925
 20
-130.3427761175879
 10
95.34301755428925
 20
-131.0004448457221
 10
95.34301755428925
 20
-131.0004448457221
 10
95.34301755428925
 20
-131.0004448457221
 10
95.76607527987792
 20
-131.0707247936212
 10
95.76607527987792
 20
-131.0707247936212
 10
95.73231334412249
 20
-131.0052679794015
 10
95.69235023649358
 20
-130.9170735349791
 10
95.69235023649358
 20
-130.7902940211219
 10
95.69235023649358
 20
-130.5191650064327
 10
95.87838539269707
 20
-130.2659504882668
 10
96.19188908185481
 20
-130.2659504882668
 10
96.5088378664978
 20
-130.2659504882668
 10
96.74379337859183
 20
-130.5053846244917
 10
96.74379337859183
 20
-130.8288790905567
 97
        0
 97
        0
 75
     2
 76
     1
 98
        0
  0
ENDBLK
  5
EE
330
EB
100
AcDbEntity
  8
0
100
AcDbBlockEnd
  0
BLOCK
  5
104
330
102
100
AcDbEntity
  8
0
100
AcDbBlockBegin
  2
block 8
 70
     0
 10
0.0
 20
0.0
 30
0.0
  3
block 8
  1

  0
SPLINE
  5
106
330
102
100
AcDbEntity
  8
_U+30EC_U+30A4_U+30E4_U+30FC 1
370
     0
100
AcDbSpline
210
0.0
220
0.0
230
1.0
 70
    11
 71
     3
 72
    17
 73
    13
 74
     0
 42
0.0000000001
 43
0.0000000001
 12
1.0
 22
0.0
 32
0.0
 13
1.0
 23
0.0
 33
0.0
 40
0.0
 40
0.0
 40
0.0
 40
0.0
 40
1.0
 40
1.0
 40
1.0
 40
2.0
 40
2.0
 40
2.0
 40
3.0
 40
3.0
 40
3.0
 40
4.0
 40
4.0
 40
4.0
 40
4.0
 10
96.24356551413356
 20
-138.7973849479395
 30
0.0
 10
96.13814559228491
 20
-138.6916205165424
 30
0.0
 10
96.05753035793006
 20
-138.6537244662046
 30
0.0
 10
95.96451277982833
 20
-138.6216850781918
 30
0.0
 10
95.96451277982833
 20
-138.6216850781918
 30
0.0
 10
96.07441132580779
 20
-138.4566650044484
 30
0.0
 10
96.07441132580779
 20
-138.4566650044484
 30
0.0
 10
96.17190752804036
 20
-138.4990396789169
 30
0.0
 10
96.29248587002411
 20
-138.5775878559806
 30
0.0
 10
96.34519583094843
 20
-138.6323648741961
 30
0.0
 10
96.34519583094843
 20
-138.6323648741961
 30
0.0
 10
96.24356551413356
 20
-138.7973849479395
 30
0.0
 10
96.24356551413356
 20
-138.7973849479395
 30
0.0
  0
SPLINE
  5
107
330
102
100
AcDbEntity
  8
_U+30EC_U+30A4_U+30E4_U+30FC 1
370
     0
100
AcDbSpline
210
0.0
220
0.0
230
1.0
 70
    11
 71
     3
 72
   182
 73
   178
 74
     0
 42
0.0000000001
 43
0.0000000001
 12
1.0
 22
0.0
 32
0.0
 13
1.0
 23
0.0
 33
0.0
 40
0.0
 40
0.0
 40
0.0
 40
0.0
 40
1.0
 40
1.0
 40
1.0
 40
2.0
 40
2.0
 40
2.0
 40
3.0
 40
3.0
 40
3.0
 40
4.0
 40
4.0
 40
4.0
 40
5.0
 40
5.0
 40
5.0
 40
6.0
 40
6.0
 40
6.0
 40
7.0
 40
7.0
 40
7.0
 40
8.0
 40
8.0
 40
8.0
 40
9.0
 40
9.0
 40
9.0
 40
10.0
 40
10.0
 40
10.0
 40
11.0
 40
11.0
 40
11.0
 40
12.0
 40
12.0
 40
12.0
 40
13.0
 40
13.0
 40
13.0
 40
14.0
 40
14.0
 40
14.0
 40
15.0
 40
15.0
 40
15.0
 40
16.0
 40
16.0
 40
16.0
 40
17.0
 40
17.0
 40
17.0
 40
18.0
 40
18.0
 40
18.0
 40
19.0
 40
19.0
 40
19.0
 40
20.0
 40
20.0
 40
20.0
 40
21.0
 40
21.0
 40
21.0
 40
22.0
 40
22.0
 40
22.0
 40
23.0
 40
23.0
 40
23.0
 40
24.0
 40
24.0
 40
24.0
 40
25.0
 40
25.0
 40
25.0
 40
26.0
 40
26.0
 40
26.0
 40
27.0
 40
27.0
 40
27.0
 40
28.0
 40
28.0
 40
28.0
 40
29.0
 40
29.0
 40
29.0
 40
30.0
 40
30.0
 40
30.0
 40
31.0
 40
31.0
 40
31.0
 40
32.0
 40
32.0
 40
32.0
 40
33.0
 40
33.0
 40
33.0
 40
34.0
 40
34.0
 40
34.0
 40
35.0
 40
35.0
 40
35.0
 40
36.0
 40
36.0
 40
36.0
 40
37.0
 40
37.0
 40
37.0
 40
38.0
 40
38.0
 40
38.0
 40
39.0
 40
39.0
 40
39.0
 40
40.0
 40
40.0
 40
40.0
 40
41.0
 40
41.0
 40
41.0
 40
42.0
 40
42.0
 40
42.0
 40
43.0
 40
43.0
 40
43.0
 40
44.0
 40
44.0
 40
44.0
 40
45.0
 40
45.0
 40
45.0
 40
46.0
 40
46.0
 40
46.0
 40
47.0
 40
47.0
 40
47.0
 40
48.0
 40
48.0
 40
48.0
 40
49.0
 40
49.0
 40
49.0
 40
50.0
 40
50.0
 40
50.0
 40
51.0
 40
51.0
 40
51.0
 40
52.0
 40
52.0
 40
52.0
 40
53.0
 40
53.0
 40
53.0
 40
54.0
 40
54.0
 40
54.0
 40
55.0
 40
55.0
 40
55.0
 40
56.0
 40
56.0
 40
56.0
 40
57.0
 40
57.0
 40
57.0
 40
58.0
 40
58.0
 40
58.0
 40
59.0
 40
59.0
 40
59.0
 40
59.0
 10
97.28880748435836
 20
-139.975607603895
 30
0.0
 10
97.28880748435836
 20
-139.975607603895
 30
0.0
 10
96.65215383868419
 20
-139.975607603895
 30
0.0
 10
96.65215383868419
 20
-139.975607603895
 30
0.0
 10
96.43821340905018
 20
-139.975607603895
 30
0.0
 10
96.22255043167354
 20
-139.9800862280258
 30
0.0
 10
96.00861000203952
 20
-139.9928330813212
 30
0.0
 10
96.00861000203952
 20
-139.9928330813212
 30
0.0
 10
96.00861000203952
 20
-139.7854383331092
 30
0.0
 10
96.00861000203952
 20
-139.7854383331092
 30
0.0
 10
96.23116317038665
 20
-139.7981851864046
 30
0.0
 10
96.55465763645162
 20
-139.8023193009869
 30
0.0
 10
96.65215383868419
 20
-139.8023193009869
 30
0.0
 10
96.65215383868419
 20
-139.8023193009869
 30
0.0
 10
96.87195093064312
 20
-139.8023193009869
 30
0.0
 10
96.87195093064312
 20
-139.8023193009869
 30
0.0
 10
96.87195093064312
 20
-139.8023193009869
 30
0.0
 10
96.87195093064312
 20
-139.6607258765432
 30
0.0
 10
96.87195093064312
 20
-139.6607258765432
 30
0.0
 10
96.87195093064312
 20
-139.6607258765432
 30
0.0
 10
96.71140948103049
 20
-139.6607258765432
 30
0.0
 10
96.71140948103049
 20
-139.6607258765432
 30
0.0
 10
96.5460448977385
 20
-139.6607258765432
 30
0.0
 10
96.38136933354355
 20
-139.6648599911255
 30
0.0
 10
96.21600475025156
 20
-139.679673901712
 30
0.0
 10
96.21600475025156
 20
-139.679673901712
 30
0.0
 10
96.21600475025156
 20
-139.4702120962089
 30
0.0
 10
96.21600475025156
 20
-139.4702120962089
 30
0.0
 10
96.387570505417
 20
-139.4850260067954
 30
0.0
 10
96.63492836125793
 20
-139.4891601213777
 30
0.0
 10
96.71140948103049
 20
-139.4891601213777
 30
0.0
 10
96.71140948103049
 20
-139.4891601213777
 30
0.0
 10
96.87195093064312
 20
-139.4891601213777
 30
0.0
 10
96.87195093064312
 20
-139.4891601213777
 30
0.0
 10
96.86781681606082
 20
-139.417157625736
 30
0.0
 10
96.86781681606082
 20
-139.4109564538626
 30
0.0
 10
96.86161564418738
 20
-139.3579019833897
 30
0.0
 10
96.86161564418738
 20
-139.3579019833897
 30
0.0
 10
97.00079750179147
 20
-139.3727158939763
 30
0.0
 10
97.00079750179147
 20
-139.3727158939763
 30
0.0
 10
97.00079750179147
 20
-139.3727158939763
 30
0.0
 10
96.90157875181627
 20
-139.2014946483594
 30
0.0
 10
96.90157875181627
 20
-139.2014946483594
 30
0.0
 10
96.94808754086715
 20
-139.2076958202328
 30
0.0
 10
97.02215709380002
 20
-139.2163085589459
 30
0.0
 10
97.03903806167774
 20
-139.2163085589459
 30
0.0
 10
97.08968096531092
 20
-139.2163085589459
 30
0.0
 10
97.10690644273717
 20
-139.1952934764859
 30
0.0
 10
97.10690644273717
 20
-139.1381048914308
 30
0.0
 10
97.10690644273717
 20
-139.1381048914308
 30
0.0
 10
97.10690644273717
 20
-139.0006455815693
 30
0.0
 10
97.10690644273717
 20
-139.0006455815693
 30
0.0
 10
97.10690644273717
 20
-139.0006455815693
 30
0.0
 10
97.00079750179147
 20
-139.0006455815693
 30
0.0
 10
97.00079750179147
 20
-139.0006455815693
 30
0.0
 10
96.86781681606082
 20
-139.0006455815693
 30
0.0
 10
96.71140948103049
 20
-139.0006455815693
 30
0.0
 10
96.58841957220707
 20
-139.0130479253162
 30
0.0
 10
96.58841957220707
 20
-139.0130479253162
 30
0.0
 10
96.58841957220707
 20
-138.8228786545304
 30
0.0
 10
96.58841957220707
 20
-138.8228786545304
 30
0.0
 10
96.75550670324168
 20
-138.8397596224081
 30
0.0
 10
96.98632810075343
 20
-138.8418266796993
 30
0.0
 10
97.00079750179147
 20
-138.8418266796993
 30
0.0
 10
97.00079750179147
 20
-138.8418266796993
 30
0.0
 10
97.10690644273717
 20
-138.8418266796993
 30
0.0
 10
97.10690644273717
 20
-138.8418266796993
 30
0.0
 10
97.10690644273717
 20
-138.8418266796993
 30
0.0
 10
97.10690644273717
 20
-138.7105685417112
 30
0.0
 10
97.10690644273717
 20
-138.7105685417112
 30
0.0
 10
97.10690644273717
 20
-138.7105685417112
 30
0.0
 10
97.0686658828509
 20
-138.7105685417112
 30
0.0
 10
97.0686658828509
 20
-138.7105685417112
 30
0.0
 10
97.02422415109118
 20
-138.7105685417112
 30
0.0
 10
96.89951169452513
 20
-138.7150471658421
 30
0.0
 10
96.81062823100568
 20
-138.7233153950067
 30
0.0
 10
96.81062823100568
 20
-138.7233153950067
 30
0.0
 10
96.81062823100568
 20
-138.6430446702004
 30
0.0
 10
96.81062823100568
 20
-138.6430446702004
 30
0.0
 10
96.75757376053284
 20
-138.6809407205381
 30
0.0
 10
96.73242456349051
 20
-138.6957546311247
 30
0.0
 10
96.69004988902194
 20
-138.7191812804244
 30
0.0
 10
96.69004988902194
 20
-138.7191812804244
 30
0.0
 10
96.50194767552729
 20
-138.5899901997275
 30
0.0
 10
96.50194767552729
 20
-138.5899901997275
 30
0.0
 10
96.57980683349395
 20
-138.5562282639721
 30
0.0
 10
96.73655867807281
 20
-138.4928385070435
 30
0.0
 10
96.89331052265167
 20
-138.34883351576
 30
0.0
 10
96.97564830474914
 20
-138.2706298482449
 30
0.0
 10
97.05385197226433
 20
-138.1858804993077
 30
0.0
 10
97.10690644273717
 20
-138.0845946920413
 30
0.0
 10
97.10690644273717
 20
-138.0845946920413
 30
0.0
 10
97.31843530553151
 20
-138.1459173916788
 30
0.0
 10
97.31843530553151
 20
-138.1459173916788
 30
0.0
 10
97.33738333070038
 20
-138.1521185635522
 30
0.0
 10
97.34806312670466
 20
-138.1607313022654
 30
0.0
 10
97.34806312670466
 20
-138.1734781555608
 30
0.0
 10
97.34806312670466
 20
-138.1903591234385
 30
0.0
 10
97.33531627340923
 20
-138.196560295312
 30
0.0
 10
97.30982256681838
 20
-138.2093071486074
 30
0.0
 10
97.39009329162471
 20
-138.30680335084
 30
0.0
 10
97.55339081762554
 20
-138.403955043524
 30
0.0
 10
97.58715275338099
 20
-138.4229030686929
 30
0.0
 10
97.73735891653789
 20
-138.5117865322123
 30
0.0
 10
97.85139157709966
 20
-138.5393472960943
 30
0.0
 10
97.92959524461483
 20
-138.5582953212632
 30
0.0
 10
97.92959524461483
 20
-138.5582953212632
 30
0.0
 10
97.81108395992223
 20
-138.727449509589
 30
0.0
 10
97.81108395992223
 20
-138.727449509589
 30
0.0
 10
97.72667912053362
 20
-138.6981661979644
 30
0.0
 10
97.67603621690044
 20
-138.6788736632469
 30
0.0
 10
97.55752493220784
 20
-138.6134168490272
 30
0.0
 10
97.55752493220784
 20
-138.6134168490272
 30
0.0
 10
97.55752493220784
 20
-138.7233153950067
 30
0.0
 10
97.55752493220784
 20
-138.7233153950067
 30
0.0
 10
97.47484264056185
 20
-138.7150471658421
 30
0.0
 10
97.34806312670466
 20
-138.7105685417112
 30
0.0
 10
97.29500865623181
 20
-138.7105685417112
 30
0.0
 10
97.29500865623181
 20
-138.7105685417112
 30
0.0
 10
97.29500865623181
 20
-138.8418266796993
 30
0.0
 10
97.29500865623181
 20
-138.8418266796993
 30
0.0
 10
97.29500865623181
 20
-138.8418266796993
 30
0.0
 10
97.41558699821555
 20
-138.8418266796993
 30
0.0
 10
97.41558699821555
 20
-138.8418266796993
 30
0.0
 10
97.4176540555067
 20
-138.8418266796993
 30
0.0
 10
97.65054251030959
 20
-138.8397596224081
 30
0.0
 10
97.82830943734848
 20
-138.8228786545304
 30
0.0
 10
97.82830943734848
 20
-138.8228786545304
 30
0.0
 10
97.82830943734848
 20
-139.0130479253162
 30
0.0
 10
97.82830943734848
 20
-139.0130479253162
 30
0.0
 10
97.69911835665161
 20
-139.0006455815693
 30
0.0
 10
97.54236651207275
 20
-139.0006455815693
 30
0.0
 10
97.41558699821555
 20
-139.0006455815693
 30
0.0
 10
97.41558699821555
 20
-139.0006455815693
 30
0.0
 10
97.29500865623181
 20
-139.0006455815693
 30
0.0
 10
97.29500865623181
 20
-139.0006455815693
 30
0.0
 10
97.29500865623181
 20
-139.0006455815693
 30
0.0
 10
97.29500865623181
 20
-139.2269883549502
 30
0.0
 10
97.29500865623181
 20
-139.2269883549502
 30
0.0
 10
97.29500865623181
 20
-139.3454996396428
 30
0.0
 10
97.26951494964096
 20
-139.3813286326894
 30
0.0
 10
97.10897350002831
 20
-139.396142543276
 30
0.0
 10
97.11310761461061
 20
-139.4150905684448
 30
0.0
 10
97.10690644273717
 20
-139.4257703644491
 30
0.0
 10
97.0686658828509
 20
-139.4488525042003
 30
0.0
 10
97.06659882555974
 20
-139.4681450389177
 30
0.0
 10
97.06659882555974
 20
-139.4743462107911
 30
0.0
 10
97.0645317682686
 20
-139.4891601213777
 30
0.0
 10
97.0645317682686
 20
-139.4891601213777
 30
0.0
 10
97.20199107813006
 20
-139.4891601213777
 30
0.0
 10
97.20199107813006
 20
-139.4891601213777
 30
0.0
 10
97.36701115187353
 20
-139.4891601213777
 30
0.0
 10
97.53409828290815
 20
-139.4850260067954
 30
0.0
 10
97.70118541394277
 20
-139.4702120962089
 30
0.0
 10
97.70118541394277
 20
-139.4702120962089
 30
0.0
 10
97.70118541394277
 20
-139.6776068444209
 30
0.0
 10
97.70118541394277
 20
-139.6776068444209
 30
0.0
 10
97.48552243656613
 20
-139.6607258765432
 30
0.0
 10
97.22128361284746
 20
-139.6607258765432
 30
0.0
 10
97.20199107813006
 20
-139.6607258765432
 30
0.0
 10
97.20199107813006
 20
-139.6607258765432
 30
0.0
 10
97.06212020142893
 20
-139.6607258765432
 30
0.0
 10
97.06212020142893
 20
-139.6607258765432
 30
0.0
 10
97.06212020142893
 20
-139.6607258765432
 30
0.0
 10
97.06212020142893
 20
-139.8023193009869
 30
0.0
 10
97.06212020142893
 20
-139.8023193009869
 30
0.0
 10
97.06212020142893
 20
-139.8023193009869
 30
0.0
 10
97.28880748435836
 20
-139.8023193009869
 30
0.0
 10
97.28880748435836
 20
-139.8023193009869
 30
0.0
 10
97.504470461735
 20
-139.8023193009869
 30
0.0
 10
97.72220049640279
 20
-139.7981851864046
 30
0.0
 10
97.93820798332796
 20
-139.7854383331092
 30
0.0
 10
97.93820798332796
 20
-139.7854383331092
 30
0.0
 10
97.93820798332796
 20
-139.9928330813212
 30
0.0
 10
97.93820798332796
 20
-139.9928330813212
 30
0.0
 10
97.65674368218303
 20
-139.975607603895
 30
0.0
 10
97.31223413365805
 20
-139.975607603895
 30
0.0
 10
97.28880748435836
 20
-139.975607603895
 30
0.0
  0
SPLINE
  5
108
330
102
100
AcDbEntity
  8
_U+30EC_U+30A4_U+30E4_U+30FC 1
370
     0
100
AcDbSpline
210
0.0
220
0.0
230
1.0
 70
    11
 71
     3
 72
    23
 73
    19
 74
     0
 42
0.0000000001
 43
0.0000000001
 12
1.0
 22
0.0
 32
0.0
 13
1.0
 23
0.0
 33
0.0
 40
0.0
 40
0.0
 40
0.0
 40
0.0
 40
1.0
 40
1.0
 40
1.0
 40
2.0
 40
2.0
 40
2.0
 40
3.0
 40
3.0
 40
3.0
 40
4.0
 40
4.0
 40
4.0
 40
5.0
 40
5.0
 40
5.0
 40
6.0
 40
6.0
 40
6.0
 40
6.0
 10
96.16984047074921
 20
-139.3475666969339
 30
0.0
 10
96.16984047074921
 20
-139.368581779394
 30
0.0
 10
96.17190752804036
 20
-139.4068223392802
 30
0.0
 10
96.14641382144951
 20
-139.4068223392802
 30
0.0
 10
96.13573402544523
 20
-139.4068223392802
 30
0.0
 10
96.12712128673212
 20
-139.4002766578583
 30
0.0
 10
96.11678600027636
 20
-139.3833956899805
 30
0.0
 10
96.11678600027636
 20
-139.3833956899805
 30
0.0
 10
96.01308862617034
 20
-139.2014946483594
 30
0.0
 10
96.01308862617034
 20
-139.2014946483594
 30
0.0
 10
96.22909611309551
 20
-139.0723035676625
 30
0.0
 10
96.42546655575475
 20
-138.7953178906484
 30
0.0
 10
96.47231985435414
 20
-138.7233153950067
 30
0.0
 10
96.47231985435414
 20
-138.7233153950067
 30
0.0
 10
96.54397784044734
 20
-138.9031493793367
 30
0.0
 10
96.54397784044734
 20
-138.9031493793367
 30
0.0
 10
96.4109971547167
 20
-139.0998643315445
 30
0.0
 10
96.23529728496895
 20
-139.2838324304568
 30
0.0
 10
96.16984047074921
 20
-139.3475666969339
 30
0.0
  0
SPLINE
  5
109
330
102
100
AcDbEntity
  8
_U+30EC_U+30A4_U+30E4_U+30FC 1
370
     0
100
AcDbSpline
210
0.0
220
0.0
230
1.0
 70
    11
 71
     3
 72
    17
 73
    13
 74
     0
 42
0.0000000001
 43
0.0000000001
 12
1.0
 22
0.0
 32
0.0
 13
1.0
 23
0.0
 33
0.0
 40
0.0
 40
0.0
 40
0.0
 40
0.0
 40
1.0
 40
1.0
 40
1.0
 40
2.0
 40
2.0
 40
2.0
 40
3.0
 40
3.0
 40
3.0
 40
4.0
 40
4.0
 40
4.0
 40
4.0
 10
96.4233994984636
 20
-138.452530889866
 30
0.0
 10
96.36207679882615
 20
-138.376394279642
 30
0.0
 10
96.23323022767781
 20
-138.300257669418
 30
0.0
 10
96.12918834402326
 20
-138.2706298482449
 30
0.0
 10
96.12918834402326
 20
-138.2706298482449
 30
0.0
 10
96.22461748896468
 20
-138.1056097745014
 30
0.0
 10
96.22461748896468
 20
-138.1056097745014
 30
0.0
 10
96.32624780577956
 20
-138.1417832770965
 30
0.0
 10
96.43201223717672
 20
-138.1986273526031
 30
0.0
 10
96.52055119114765
 20
-138.279242586958
 30
0.0
 10
96.52055119114765
 20
-138.279242586958
 30
0.0
 10
96.4233994984636
 20
-138.452530889866
 30
0.0
 10
96.4233994984636
 20
-138.452530889866
 30
0.0
  0
SPLINE
  5
10A
330
102
100
AcDbEntity
  8
_U+30EC_U+30A4_U+30E4_U+30FC 1
370
     0
100
AcDbSpline
210
0.0
220
0.0
230
1.0
 70
    11
 71
     3
 72
    23
 73
    19
 74
     0
 42
0.0000000001
 43
0.0000000001
 12
1.0
 22
0.0
 32
0.0
 13
1.0
 23
0.0
 33
0.0
 40
0.0
 40
0.0
 40
0.0
 40
0.0
 40
1.0
 40
1.0
 40
1.0
 40
2.0
 40
2.0
 40
2.0
 40
3.0
 40
3.0
 40
3.0
 40
4.0
 40
4.0
 40
4.0
 40
5.0
 40
5.0
 40
5.0
 40
6.0
 40
6.0
 40
6.0
 40
6.0
 10
96.87608504522542
 20
-139.1570529165996
 30
0.0
 10
96.8550699627654
 20
-139.1804795658993
 30
0.0
 10
96.75757376053284
 20
-139.29244516917
 30
0.0
 10
96.61804739338021
 20
-139.3727158939763
 30
0.0
 10
96.61804739338021
 20
-139.3727158939763
 30
0.0
 10
96.4509602623456
 20
-139.2521375519925
 30
0.0
 10
96.4509602623456
 20
-139.2521375519925
 30
0.0
 10
96.60116642550248
 20
-139.1760009417685
 30
0.0
 10
96.70038517547769
 20
-139.0809163063756
 30
0.0
 10
96.74930553136824
 20
-139.0278618359028
 30
0.0
 10
96.74930553136824
 20
-139.0278618359028
 30
0.0
 10
96.92293834382482
 20
-139.1105441275488
 30
0.0
 10
96.92293834382482
 20
-139.1105441275488
 30
0.0
 10
96.93120657298942
 20
-139.114678242131
 30
0.0
 10
96.93947480215402
 20
-139.121223923553
 30
0.0
 10
96.93947480215402
 20
-139.1315592100088
 30
0.0
 10
96.93947480215402
 20
-139.1570529165996
 30
0.0
 10
96.90364580910743
 20
-139.1570529165996
 30
0.0
 10
96.87608504522542
 20
-139.1570529165996
 30
0.0
  0
SPLINE
  5
10B
330
102
100
AcDbEntity
  8
_U+30EC_U+30A4_U+30E4_U+30FC 1
370
     0
100
AcDbSpline
210
0.0
220
0.0
230
1.0
 70
    11
 71
     3
 72
    20
 73
    16
 74
     0
 42
0.0000000001
 43
0.0000000001
 12
1.0
 22
0.0
 32
0.0
 13
1.0
 23
0.0
 33
0.0
 40
0.0
 40
0.0
 40
0.0
 40
0.0
 40
1.0
 40
1.0
 40
1.0
 40
2.0
 40
2.0
 40
2.0
 40
3.0
 40
3.0
 40
3.0
 40
4.0
 40
4.0
 40
4.0
 40
5.0
 40
5.0
 40
5.0
 40
5.0
 10
97.17443031424807
 20
-138.3150715800046
 30
0.0
 10
97.13653426391032
 20
-138.3636474263466
 30
0.0
 10
97.07521156427286
 20
-138.4421956034103
 30
0.0
 10
96.93534068757172
 20
-138.5520941493898
 30
0.0
 10
97.01595592192658
 20
-138.5562282639721
 30
0.0
 10
97.04558374309973
 20
-138.5562282639721
 30
0.0
 10
97.0686658828509
 20
-138.5562282639721
 30
0.0
 10
97.0686658828509
 20
-138.5562282639721
 30
0.0
 10
97.29707571352296
 20
-138.5562282639721
 30
0.0
 10
97.29707571352296
 20
-138.5562282639721
 30
0.0
 10
97.32877059198725
 20
-138.5562282639721
 30
0.0
 10
97.37769094787781
 20
-138.5541612066809
 30
0.0
 10
97.45141599126215
 20
-138.5520941493898
 30
0.0
 10
97.33945038799153
 20
-138.4780245964569
 30
0.0
 10
97.29087454164952
 20
-138.431515807406
 30
0.0
 10
97.17443031424807
 20
-138.3150715800046
 30
0.0
  0
SPLINE
  5
10C
330
102
100
AcDbEntity
  8
_U+30EC_U+30A4_U+30E4_U+30FC 1
370
     0
100
AcDbSpline
210
0.0
220
0.0
230
1.0
 70
    11
 71
     3
 72
    17
 73
    13
 74
     0
 42
0.0000000001
 43
0.0000000001
 12
1.0
 22
0.0
 32
0.0
 13
1.0
 23
0.0
 33
0.0
 40
0.0
 40
0.0
 40
0.0
 40
0.0
 40
1.0
 40
1.0
 40
1.0
 40
2.0
 40
2.0
 40
2.0
 40
3.0
 40
3.0
 40
3.0
 40
4.0
 40
4.0
 40
4.0
 40
4.0
 10
97.73529185924674
 20
-139.3706488366851
 30
0.0
 10
97.59955509712789
 20
-139.2586832334145
 30
0.0
 10
97.49413517527925
 20
-139.1952934764859
 30
0.0
 10
97.37562389058665
 20
-139.1315592100088
 30
0.0
 10
97.37562389058665
 20
-139.1315592100088
 30
0.0
 10
97.50240340444385
 20
-139.0195936067382
 30
0.0
 10
97.50240340444385
 20
-139.0195936067382
 30
0.0
 10
97.63331703288334
 20
-139.066102395789
 30
0.0
 10
97.74356008841134
 20
-139.1232909808442
 30
0.0
 10
97.86827254497739
 20
-139.2249212976591
 30
0.0
 10
97.86827254497739
 20
-139.2249212976591
 30
0.0
 10
97.73529185924674
 20
-139.3706488366851
 30
0.0
 10
97.73529185924674
 20
-139.3706488366851
 30
0.0
  0
HATCH
  5
10D
330
102
100
AcDbEntity
  8
_U+30EC_U+30A4_U+30E4_U+30FC 1
 62
   179
420
  2234388
100
AcDbHatch
 10
0.0
 20
0.0
 30
0.0
210
0.0
220
0.0
230
1.0
  2
SOLID
 70
     1
 71
     0
 91
        7
 92
        1
 93
        1
 72
     4
 94
        3
 73
     0
 74
     1
 95
       17
 96
       13
 40
0.0
 40
0.0
 40
0.0
 40
0.0
 40
1.0
 40
1.0
 40
1.0
 40
2.0
 40
2.0
 40
2.0
 40
3.0
 40
3.0
 40
3.0
 40
4.0
 40
4.0
 40
4.0
 40
4.0
 10
96.24356551413356
 20
-138.7973849479395
 10
96.13814559228491
 20
-138.6916205165424
 10
96.05753035793006
 20
-138.6537244662046
 10
95.96451277982833
 20
-138.6216850781918
 10
95.96451277982833
 20
-138.6216850781918
 10
96.07441132580779
 20
-138.4566650044484
 10
96.07441132580779
 20
-138.4566650044484
 10
96.17190752804036
 20
-138.4990396789169
 10
96.29248587002411
 20
-138.5775878559806
 10
96.34519583094843
 20
-138.6323648741961
 10
96.34519583094843
 20
-138.6323648741961
 10
96.24356551413356
 20
-138.7973849479395
 10
96.24356551413356
 20
-138.7973849479395
 97
        0
 97
        0
 92
        1
 93
        1
 72
     4
 94
        3
 73
     0
 74
     1
 95
      182
 96
      178
 40
0.0
 40
0.0
 40
0.0
 40
0.0
 40
1.0
 40
1.0
 40
1.0
 40
2.0
 40
2.0
 40
2.0
 40
3.0
 40
3.0
 40
3.0
 40
4.0
 40
4.0
 40
4.0
 40
5.0
 40
5.0
 40
5.0
 40
6.0
 40
6.0
 40
6.0
 40
7.0
 40
7.0
 40
7.0
 40
8.0
 40
8.0
 40
8.0
 40
9.0
 40
9.0
 40
9.0
 40
10.0
 40
10.0
 40
10.0
 40
11.0
 40
11.0
 40
11.0
 40
12.0
 40
12.0
 40
12.0
 40
13.0
 40
13.0
 40
13.0
 40
14.0
 40
14.0
 40
14.0
 40
15.0
 40
15.0
 40
15.0
 40
16.0
 40
16.0
 40
16.0
 40
17.0
 40
17.0
 40
17.0
 40
18.0
 40
18.0
 40
18.0
 40
19.0
 40
19.0
 40
19.0
 40
20.0
 40
20.0
 40
20.0
 40
21.0
 40
21.0
 40
21.0
 40
22.0
 40
22.0
 40
22.0
 40
23.0
 40
23.0
 40
23.0
 40
24.0
 40
24.0
 40
24.0
 40
25.0
 40
25.0
 40
25.0
 40
26.0
 40
26.0
 40
26.0
 40
27.0
 40
27.0
 40
27.0
 40
28.0
 40
28.0
 40
28.0
 40
29.0
 40
29.0
 40
29.0
 40
30.0
 40
30.0
 40
30.0
 40
31.0
 40
31.0
 40
31.0
 40
32.0
 40
32.0
 40
32.0
 40
33.0
 40
33.0
 40
33.0
 40
34.0
 40
34.0
 40
34.0
 40
35.0
 40
35.0
 40
35.0
 40
36.0
 40
36.0
 40
36.0
 40
37.0
 40
37.0
 40
37.0
 40
38.0
 40
38.0
 40
38.0
 40
39.0
 40
39.0
 40
39.0
 40
40.0
 40
40.0
 40
40.0
 40
41.0
 40
41.0
 40
41.0
 40
42.0
 40
42.0
 40
42.0
 40
43.0
 40
43.0
 40
43.0
 40
44.0
 40
44.0
 40
44.0
 40
45.0
 40
45.0
 40
45.0
 40
46.0
 40
46.0
 40
46.0
 40
47.0
 40
47.0
 40
47.0
 40
48.0
 40
48.0
 40
48.0
 40
49.0
 40
49.0
 40
49.0
 40
50.0
 40
50.0
 40
50.0
 40
51.0
 40
51.0
 40
51.0
 40
52.0
 40
52.0
 40
52.0
 40
53.0
 40
53.0
 40
53.0
 40
54.0
 40
54.0
 40
54.0
 40
55.0
 40
55.0
 40
55.0
 40
56.0
 40
56.0
 40
56.0
 40
57.0
 40
57.0
 40
57.0
 40
58.0
 40
58.0
 40
58.0
 40
59.0
 40
59.0
 40
59.0
 40
59.0
 10
97.28880748435836
 20
-139.975607603895
 10
97.28880748435836
 20
-139.975607603895
 10
96.65215383868419
 20
-139.975607603895
 10
96.65215383868419
 20
-139.975607603895
 10
96.43821340905018
 20
-139.975607603895
 10
96.22255043167354
 20
-139.9800862280258
 10
96.00861000203952
 20
-139.9928330813212
 10
96.00861000203952
 20
-139.9928330813212
 10
96.00861000203952
 20
-139.7854383331092
 10
96.00861000203952
 20
-139.7854383331092
 10
96.23116317038665
 20
-139.7981851864046
 10
96.55465763645162
 20
-139.8023193009869
 10
96.65215383868419
 20
-139.8023193009869
 10
96.65215383868419
 20
-139.8023193009869
 10
96.87195093064312
 20
-139.8023193009869
 10
96.87195093064312
 20
-139.8023193009869
 10
96.87195093064312
 20
-139.8023193009869
 10
96.87195093064312
 20
-139.6607258765432
 10
96.87195093064312
 20
-139.6607258765432
 10
96.87195093064312
 20
-139.6607258765432
 10
96.71140948103049
 20
-139.6607258765432
 10
96.71140948103049
 20
-139.6607258765432
 10
96.5460448977385
 20
-139.6607258765432
 10
96.38136933354355
 20
-139.6648599911255
 10
96.21600475025156
 20
-139.679673901712
 10
96.21600475025156
 20
-139.679673901712
 10
96.21600475025156
 20
-139.4702120962089
 10
96.21600475025156
 20
-139.4702120962089
 10
96.387570505417
 20
-139.4850260067954
 10
96.63492836125793
 20
-139.4891601213777
 10
96.71140948103049
 20
-139.4891601213777
 10
96.71140948103049
 20
-139.4891601213777
 10
96.87195093064312
 20
-139.4891601213777
 10
96.87195093064312
 20
-139.4891601213777
 10
96.86781681606082
 20
-139.417157625736
 10
96.86781681606082
 20
-139.4109564538626
 10
96.86161564418738
 20
-139.3579019833897
 10
96.86161564418738
 20
-139.3579019833897
 10
97.00079750179147
 20
-139.3727158939763
 10
97.00079750179147
 20
-139.3727158939763
 10
97.00079750179147
 20
-139.3727158939763
 10
96.90157875181627
 20
-139.2014946483594
 10
96.90157875181627
 20
-139.2014946483594
 10
96.94808754086715
 20
-139.2076958202328
 10
97.02215709380002
 20
-139.2163085589459
 10
97.03903806167774
 20
-139.2163085589459
 10
97.08968096531092
 20
-139.2163085589459
 10
97.10690644273717
 20
-139.1952934764859
 10
97.10690644273717
 20
-139.1381048914308
 10
97.10690644273717
 20
-139.1381048914308
 10
97.10690644273717
 20
-139.0006455815693
 10
97.10690644273717
 20
-139.0006455815693
 10
97.10690644273717
 20
-139.0006455815693
 10
97.00079750179147
 20
-139.0006455815693
 10
97.00079750179147
 20
-139.0006455815693
 10
96.86781681606082
 20
-139.0006455815693
 10
96.71140948103049
 20
-139.0006455815693
 10
96.58841957220707
 20
-139.0130479253162
 10
96.58841957220707
 20
-139.0130479253162
 10
96.58841957220707
 20
-138.8228786545304
 10
96.58841957220707
 20
-138.8228786545304
 10
96.75550670324168
 20
-138.8397596224081
 10
96.98632810075343
 20
-138.8418266796993
 10
97.00079750179147
 20
-138.8418266796993
 10
97.00079750179147
 20
-138.8418266796993
 10
97.10690644273717
 20
-138.8418266796993
 10
97.10690644273717
 20
-138.8418266796993
 10
97.10690644273717
 20
-138.8418266796993
 10
97.10690644273717
 20
-138.7105685417112
 10
97.10690644273717
 20
-138.7105685417112
 10
97.10690644273717
 20
-138.7105685417112
 10
97.0686658828509
 20
-138.7105685417112
 10
97.0686658828509
 20
-138.7105685417112
 10
97.02422415109118
 20
-138.7105685417112
 10
96.89951169452513
 20
-138.7150471658421
 10
96.81062823100568
 20
-138.7233153950067
 10
96.81062823100568
 20
-138.7233153950067
 10
96.81062823100568
 20
-138.6430446702004
 10
96.81062823100568
 20
-138.6430446702004
 10
96.75757376053284
 20
-138.6809407205381
 10
96.73242456349051
 20
-138.6957546311247
 10
96.69004988902194
 20
-138.7191812804244
 10
96.69004988902194
 20
-138.7191812804244
 10
96.50194767552729
 20
-138.5899901997275
 10
96.50194767552729
 20
-138.5899901997275
 10
96.57980683349395
 20
-138.5562282639721
 10
96.73655867807281
 20
-138.4928385070435
 10
96.89331052265167
 20
-138.34883351576
 10
96.97564830474914
 20
-138.2706298482449
 10
97.05385197226433
 20
-138.1858804993077
 10
97.10690644273717
 20
-138.0845946920413
 10
97.10690644273717
 20
-138.0845946920413
 10
97.31843530553151
 20
-138.1459173916788
 10
97.31843530553151
 20
-138.1459173916788
 10
97.33738333070038
 20
-138.1521185635522
 10
97.34806312670466
 20
-138.1607313022654
 10
97.34806312670466
 20
-138.1734781555608
 10
97.34806312670466
 20
-138.1903591234385
 10
97.33531627340923
 20
-138.196560295312
 10
97.30982256681838
 20
-138.2093071486074
 10
97.39009329162471
 20
-138.30680335084
 10
97.55339081762554
 20
-138.403955043524
 10
97.58715275338099
 20
-138.4229030686929
 10
97.73735891653789
 20
-138.5117865322123
 10
97.85139157709966
 20
-138.5393472960943
 10
97.92959524461483
 20
-138.5582953212632
 10
97.92959524461483
 20
-138.5582953212632
 10
97.81108395992223
 20
-138.727449509589
 10
97.81108395992223
 20
-138.727449509589
 10
97.72667912053362
 20
-138.6981661979644
 10
97.67603621690044
 20
-138.6788736632469
 10
97.55752493220784
 20
-138.6134168490272
 10
97.55752493220784
 20
-138.6134168490272
 10
97.55752493220784
 20
-138.7233153950067
 10
97.55752493220784
 20
-138.7233153950067
 10
97.47484264056185
 20
-138.7150471658421
 10
97.34806312670466
 20
-138.7105685417112
 10
97.29500865623181
 20
-138.7105685417112
 10
97.29500865623181
 20
-138.7105685417112
 10
97.29500865623181
 20
-138.8418266796993
 10
97.29500865623181
 20
-138.8418266796993
 10
97.29500865623181
 20
-138.8418266796993
 10
97.41558699821555
 20
-138.8418266796993
 10
97.41558699821555
 20
-138.8418266796993
 10
97.4176540555067
 20
-138.8418266796993
 10
97.65054251030959
 20
-138.8397596224081
 10
97.82830943734848
 20
-138.8228786545304
 10
97.82830943734848
 20
-138.8228786545304
 10
97.82830943734848
 20
-139.0130479253162
 10
97.82830943734848
 20
-139.0130479253162
 10
97.69911835665161
 20
-139.0006455815693
 10
97.54236651207275
 20
-139.0006455815693
 10
97.41558699821555
 20
-139.0006455815693
 10
97.41558699821555
 20
-139.0006455815693
 10
97.29500865623181
 20
-139.0006455815693
 10
97.29500865623181
 20
-139.0006455815693
 10
97.29500865623181
 20
-139.0006455815693
 10
97.29500865623181
 20
-139.2269883549502
 10
97.29500865623181
 20
-139.2269883549502
 10
97.29500865623181
 20
-139.3454996396428
 10
97.26951494964096
 20
-139.3813286326894
 10
97.10897350002831
 20
-139.396142543276
 10
97.11310761461061
 20
-139.4150905684448
 10
97.10690644273717
 20
-139.4257703644491
 10
97.0686658828509
 20
-139.4488525042003
 10
97.06659882555974
 20
-139.4681450389177
 10
97.06659882555974
 20
-139.4743462107911
 10
97.0645317682686
 20
-139.4891601213777
 10
97.0645317682686
 20
-139.4891601213777
 10
97.20199107813006
 20
-139.4891601213777
 10
97.20199107813006
 20
-139.4891601213777
 10
97.36701115187353
 20
-139.4891601213777
 10
97.53409828290815
 20
-139.4850260067954
 10
97.70118541394277
 20
-139.4702120962089
 10
97.70118541394277
 20
-139.4702120962089
 10
97.70118541394277
 20
-139.6776068444209
 10
97.70118541394277
 20
-139.6776068444209
 10
97.48552243656613
 20
-139.6607258765432
 10
97.22128361284746
 20
-139.6607258765432
 10
97.20199107813006
 20
-139.6607258765432
 10
97.20199107813006
 20
-139.6607258765432
 10
97.06212020142893
 20
-139.6607258765432
 10
97.06212020142893
 20
-139.6607258765432
 10
97.06212020142893
 20
-139.6607258765432
 10
97.06212020142893
 20
-139.8023193009869
 10
97.06212020142893
 20
-139.8023193009869
 10
97.06212020142893
 20
-139.8023193009869
 10
97.28880748435836
 20
-139.8023193009869
 10
97.28880748435836
 20
-139.8023193009869
 10
97.504470461735
 20
-139.8023193009869
 10
97.72220049640279
 20
-139.7981851864046
 10
97.93820798332796
 20
-139.7854383331092
 10
97.93820798332796
 20
-139.7854383331092
 10
97.93820798332796
 20
-139.9928330813212
 10
97.93820798332796
 20
-139.9928330813212
 10
97.65674368218303
 20
-139.975607603895
 10
97.31223413365805
 20
-139.975607603895
 10
97.28880748435836
 20
-139.975607603895
 97
        0
 97
        0
 92
        1
 93
        1
 72
     4
 94
        3
 73
     0
 74
     1
 95
       23
 96
       19
 40
0.0
 40
0.0
 40
0.0
 40
0.0
 40
1.0
 40
1.0
 40
1.0
 40
2.0
 40
2.0
 40
2.0
 40
3.0
 40
3.0
 40
3.0
 40
4.0
 40
4.0
 40
4.0
 40
5.0
 40
5.0
 40
5.0
 40
6.0
 40
6.0
 40
6.0
 40
6.0
 10
96.16984047074921
 20
-139.3475666969339
 10
96.16984047074921
 20
-139.368581779394
 10
96.17190752804036
 20
-139.4068223392802
 10
96.14641382144951
 20
-139.4068223392802
 10
96.13573402544523
 20
-139.4068223392802
 10
96.12712128673212
 20
-139.4002766578583
 10
96.11678600027636
 20
-139.3833956899805
 10
96.11678600027636
 20
-139.3833956899805
 10
96.01308862617034
 20
-139.2014946483594
 10
96.01308862617034
 20
-139.2014946483594
 10
96.22909611309551
 20
-139.0723035676625
 10
96.42546655575475
 20
-138.7953178906484
 10
96.47231985435414
 20
-138.7233153950067
 10
96.47231985435414
 20
-138.7233153950067
 10
96.54397784044734
 20
-138.9031493793367
 10
96.54397784044734
 20
-138.9031493793367
 10
96.4109971547167
 20
-139.0998643315445
 10
96.23529728496895
 20
-139.2838324304568
 10
96.16984047074921
 20
-139.3475666969339
 97
        0
 97
        0
 92
        1
 93
        1
 72
     4
 94
        3
 73
     0
 74
     1
 95
       17
 96
       13
 40
0.0
 40
0.0
 40
0.0
 40
0.0
 40
1.0
 40
1.0
 40
1.0
 40
2.0
 40
2.0
 40
2.0
 40
3.0
 40
3.0
 40
3.0
 40
4.0
 40
4.0
 40
4.0
 40
4.0
 10
96.4233994984636
 20
-138.452530889866
 10
96.36207679882615
 20
-138.376394279642
 10
96.23323022767781
 20
-138.300257669418
 10
96.12918834402326
 20
-138.2706298482449
 10
96.12918834402326
 20
-138.2706298482449
 10
96.22461748896468
 20
-138.1056097745014
 10
96.22461748896468
 20
-138.1056097745014
 10
96.32624780577956
 20
-138.1417832770965
 10
96.43201223717672
 20
-138.1986273526031
 10
96.52055119114765
 20
-138.279242586958
 10
96.52055119114765
 20
-138.279242586958
 10
96.4233994984636
 20
-138.452530889866
 10
96.4233994984636
 20
-138.452530889866
 97
        0
 97
        0
 92
        1
 93
        1
 72
     4
 94
        3
 73
     0
 74
     1
 95
       23
 96
       19
 40
0.0
 40
0.0
 40
0.0
 40
0.0
 40
1.0
 40
1.0
 40
1.0
 40
2.0
 40
2.0
 40
2.0
 40
3.0
 40
3.0
 40
3.0
 40
4.0
 40
4.0
 40
4.0
 40
5.0
 40
5.0
 40
5.0
 40
6.0
 40
6.0
 40
6.0
 40
6.0
 10
96.87608504522542
 20
-139.1570529165996
 10
96.8550699627654
 20
-139.1804795658993
 10
96.75757376053284
 20
-139.29244516917
 10
96.61804739338021
 20
-139.3727158939763
 10
96.61804739338021
 20
-139.3727158939763
 10
96.4509602623456
 20
-139.2521375519925
 10
96.4509602623456
 20
-139.2521375519925
 10
96.60116642550248
 20
-139.1760009417685
 10
96.70038517547769
 20
-139.0809163063756
 10
96.74930553136824
 20
-139.0278618359028
 10
96.74930553136824
 20
-139.0278618359028
 10
96.92293834382482
 20
-139.1105441275488
 10
96.92293834382482
 20
-139.1105441275488
 10
96.93120657298942
 20
-139.114678242131
 10
96.93947480215402
 20
-139.121223923553
 10
96.93947480215402
 20
-139.1315592100088
 10
96.93947480215402
 20
-139.1570529165996
 10
96.90364580910743
 20
-139.1570529165996
 10
96.87608504522542
 20
-139.1570529165996
 97
        0
 97
        0
 92
        1
 93
        1
 72
     4
 94
        3
 73
     0
 74
     1
 95
       20
 96
       16
 40
0.0
 40
0.0
 40
0.0
 40
0.0
 40
1.0
 40
1.0
 40
1.0
 40
2.0
 40
2.0
 40
2.0
 40
3.0
 40
3.0
 40
3.0
 40
4.0
 40
4.0
 40
4.0
 40
5.0
 40
5.0
 40
5.0
 40
5.0
 10
97.17443031424807
 20
-138.3150715800046
 10
97.13653426391032
 20
-138.3636474263466
 10
97.07521156427286
 20
-138.4421956034103
 10
96.93534068757172
 20
-138.5520941493898
 10
97.01595592192658
 20
-138.5562282639721
 10
97.04558374309973
 20
-138.5562282639721
 10
97.0686658828509
 20
-138.5562282639721
 10
97.0686658828509
 20
-138.5562282639721
 10
97.29707571352296
 20
-138.5562282639721
 10
97.29707571352296
 20
-138.5562282639721
 10
97.32877059198725
 20
-138.5562282639721
 10
97.37769094787781
 20
-138.5541612066809
 10
97.45141599126215
 20
-138.5520941493898
 10
97.33945038799153
 20
-138.4780245964569
 10
97.29087454164952
 20
-138.431515807406
 10
97.17443031424807
 20
-138.3150715800046
 97
        0
 97
        0
 92
        1
 93
        1
 72
     4
 94
        3
 73
     0
 74
     1
 95
       17
 96
       13
 40
0.0
 40
0.0
 40
0.0
 40
0.0
 40
1.0
 40
1.0
 40
1.0
 40
2.0
 40
2.0
 40
2.0
 40
3.0
 40
3.0
 40
3.0
 40
4.0
 40
4.0
 40
4.0
 40
4.0
 10
97.73529185924674
 20
-139.3706488366851
 10
97.59955509712789
 20
-139.2586832334145
 10
97.49413517527925
 20
-139.1952934764859
 10
97.37562389058665
 20
-139.1315592100088
 10
97.37562389058665
 20
-139.1315592100088
 10
97.50240340444385
 20
-139.0195936067382
 10
97.50240340444385
 20
-139.0195936067382
 10
97.63331703288334
 20
-139.066102395789
 10
97.74356008841134
 20
-139.1232909808442
 10
97.86827254497739
 20
-139.2249212976591
 10
97.86827254497739
 20
-139.2249212976591
 10
97.73529185924674
 20
-139.3706488366851
 10
97.73529185924674
 20
-139.3706488366851
 97
        0
 97
        0
 75
     2
 76
     1
 98
        0
  0
SPLINE
  5
10E
330
102
100
AcDbEntity
  8
_U+30EC_U+30A4_U+30E4_U+30FC 1
370
     0
100
AcDbSpline
210
0.0
220
0.0
230
1.0
 70
    11
 71
     3
 72
   113
 73
   109
 74
     0
 42
0.0000000001
 43
0.0000000001
 12
1.0
 22
0.0
 32
0.0
 13
1.0
 23
0.0
 33
0.0
 40
0.0
 40
0.0
 40
0.0
 40
0.0
 40
1.0
 40
1.0
 40
1.0
 40
2.0
 40
2.0
 40
2.0
 40
3.0
 40
3.0
 40
3.0
 40
4.0
 40
4.0
 40
4.0
 40
5.0
 40
5.0
 40
5.0
 40
6.0
 40
6.0
 40
6.0
 40
7.0
 40
7.0
 40
7.0
 40
8.0
 40
8.0
 40
8.0
 40
9.0
 40
9.0
 40
9.0
 40
10.0
 40
10.0
 40
10.0
 40
11.0
 40
11.0
 40
11.0
 40
12.0
 40
12.0
 40
12.0
 40
13.0
 40
13.0
 40
13.0
 40
14.0
 40
14.0
 40
14.0
 40
15.0
 40
15.0
 40
15.0
 40
16.0
 40
16.0
 40
16.0
 40
17.0
 40
17.0
 40
17.0
 40
18.0
 40
18.0
 40
18.0
 40
19.0
 40
19.0
 40
19.0
 40
20.0
 40
20.0
 40
20.0
 40
21.0
 40
21.0
 40
21.0
 40
22.0
 40
22.0
 40
22.0
 40
23.0
 40
23.0
 40
23.0
 40
24.0
 40
24.0
 40
24.0
 40
25.0
 40
25.0
 40
25.0
 40
26.0
 40
26.0
 40
26.0
 40
27.0
 40
27.0
 40
27.0
 40
28.0
 40
28.0
 40
28.0
 40
29.0
 40
29.0
 40
29.0
 40
30.0
 40
30.0
 40
30.0
 40
31.0
 40
31.0
 40
31.0
 40
32.0
 40
32.0
 40
32.0
 40
33.0
 40
33.0
 40
33.0
 40
34.0
 40
34.0
 40
34.0
 40
35.0
 40
35.0
 40
35.0
 40
36.0
 40
36.0
 40
36.0
 40
36.0
 10
99.61493595599904
 20
-139.3475666969339
 30
0.0
 10
99.61493595599904
 20
-139.3475666969339
 30
0.0
 10
99.71415470597424
 20
-139.4467854469091
 30
0.0
 10
99.71415470597424
 20
-139.4467854469091
 30
0.0
 10
99.72483450197852
 20
-139.4574652429134
 30
0.0
 10
99.73551429798279
 20
-139.4702120962089
 30
0.0
 10
99.73551429798279
 20
-139.4850260067954
 30
0.0
 10
99.73551429798279
 20
-139.4870930640866
 30
0.0
 10
99.73551429798279
 20
-139.5167208852597
 30
0.0
 10
99.69727373809651
 20
-139.5167208852597
 30
0.0
 10
99.6886609993834
 20
-139.5167208852597
 30
0.0
 10
99.6486978917545
 20
-139.5125867706774
 30
0.0
 10
99.64249671988105
 20
-139.5125867706774
 30
0.0
 10
99.60218910270362
 20
-139.5442816491417
 30
0.0
 10
99.55568031365276
 20
-139.5780435848972
 30
0.0
 10
99.45611705412902
 20
-139.6352321699523
 30
0.0
 10
99.60218910270362
 20
-139.7430636586406
 30
0.0
 10
99.76100800457364
 20
-139.8002522436958
 30
0.0
 10
100.0338595670054
 20
-139.8381482940335
 30
0.0
 10
100.0338595670054
 20
-139.8381482940335
 30
0.0
 10
99.88365340384854
 20
-140.0138481637813
 30
0.0
 10
99.88365340384854
 20
-140.0138481637813
 30
0.0
 10
99.6211371278725
 20
-139.9418456681395
 30
0.0
 10
99.46472979284215
 20
-139.8529622046201
 30
0.0
 10
99.38824867306961
 20
-139.8002522436958
 30
0.0
 10
99.23804250991272
 20
-139.6986219268809
 30
0.0
 10
99.0943820281778
 20
-139.5356689104286
 30
0.0
 10
99.01824541795378
 20
-139.3706488366851
 30
0.0
 10
98.95072154644288
 20
-139.4364501604534
 30
0.0
 10
98.87630748396148
 20
-139.4891601213777
 30
0.0
 10
98.79844832599484
 20
-139.5377359677197
 30
0.0
 10
98.79844832599484
 20
-139.5377359677197
 30
0.0
 10
98.79844832599484
 20
-139.7895724476915
 30
0.0
 10
98.79844832599484
 20
-139.7895724476915
 30
0.0
 10
98.96105683289863
 20
-139.7640787411007
 30
0.0
 10
99.14709198910212
 20
-139.7196370093409
 30
0.0
 10
99.21082625557925
 20
-139.7048230987544
 30
0.0
 10
99.21082625557925
 20
-139.7048230987544
 30
0.0
 10
99.1811984344061
 20
-139.8743217966286
 30
0.0
 10
99.1811984344061
 20
-139.8743217966286
 30
0.0
 10
99.17878686756642
 20
-139.8743217966286
 30
0.0
 10
99.16018335194607
 20
-139.8805229685021
 30
0.0
 10
99.15811629465492
 20
-139.8805229685021
 30
0.0
 10
98.95898977560748
 20
-139.9187635283884
 30
0.0
 10
98.64169648141596
 20
-139.9842203426081
 30
0.0
 10
98.4449815292082
 20
-140.0200493356547
 30
0.0
 10
98.43430173320392
 20
-140.037274813081
 30
0.0
 10
98.41121959345276
 20
-140.0689696915453
 30
0.0
 10
98.38779294415306
 20
-140.0689696915453
 30
0.0
 10
98.36023218027105
 20
-140.0689696915453
 30
0.0
 10
98.35609806568876
 20
-140.0496771568279
 30
0.0
 10
98.35403100839761
 20
-140.030729131659
 30
0.0
 10
98.35403100839761
 20
-140.030729131659
 30
0.0
 10
98.32853730180676
 20
-139.8574408287509
 30
0.0
 10
98.32853730180676
 20
-139.8574408287509
 30
0.0
 10
98.40260685473963
 20
-139.8488280900378
 30
0.0
 10
98.51043834342795
 20
-139.8360812367424
 30
0.0
 10
98.6186143416648
 20
-139.8150661542824
 30
0.0
 10
98.6186143416648
 20
-139.8150661542824
 30
0.0
 10
98.6186143416648
 20
-139.6372992272435
 30
0.0
 10
98.6186143416648
 20
-139.6372992272435
 30
0.0
 10
98.47460935038136
 20
-139.7093017228852
 30
0.0
 10
98.37952471498846
 20
-139.7389295440583
 30
0.0
 10
98.21416013169646
 20
-139.7685573652315
 30
0.0
 10
98.21416013169646
 20
-139.7685573652315
 30
0.0
 10
98.09358178971272
 20
-139.5990586673572
 30
0.0
 10
98.09358178971272
 20
-139.5990586673572
 30
0.0
 10
98.41121959345276
 20
-139.5718424130237
 30
0.0
 10
98.6034559215297
 20
-139.4784803253735
 30
0.0
 10
98.78122284856859
 20
-139.3454996396428
 30
0.0
 10
98.635150799994
 20
-139.3454996396428
 30
0.0
 10
98.3347384736802
 20
-139.3496337542251
 30
0.0
 10
98.13836803102097
 20
-139.3558349260985
 30
0.0
 10
98.13836803102097
 20
-139.3558349260985
 30
0.0
 10
98.13836803102097
 20
-139.1780679990597
 30
0.0
 10
98.13836803102097
 20
-139.1780679990597
 30
0.0
 10
98.29270830876015
 20
-139.1846136804816
 30
0.0
 10
98.58898652049164
 20
-139.1908148523551
 30
0.0
 10
98.77295461940399
 20
-139.1908148523551
 30
0.0
 10
98.77295461940399
 20
-139.1908148523551
 30
0.0
 10
98.98448348219833
 20
-139.1908148523551
 30
0.0
 10
98.98448348219833
 20
-139.1908148523551
 30
0.0
 10
98.98448348219833
 20
-139.0957302169622
 30
0.0
 10
98.98241642490717
 20
-139.045087313329
 30
0.0
 10
98.9758707434852
 20
-138.9982340147296
 30
0.0
 10
98.9758707434852
 20
-138.9982340147296
 30
0.0
 10
99.19187823041037
 20
-139.0154594921559
 30
0.0
 10
99.19187823041037
 20
-139.0154594921559
 30
0.0
 10
99.24045407675239
 20
-139.0195936067382
 30
0.0
 10
99.24906681546551
 20
-139.0344075173248
 30
0.0
 10
99.24906681546551
 20
-139.0492214279113
 30
0.0
 10
99.24906681546551
 20
-139.0747151345022
 30
0.0
 10
99.23184133803926
 20
-139.0829833636668
 30
0.0
 10
99.1811984344061
 20
-139.1084770702576
 30
0.0
 10
99.17878686756642
 20
-139.1339707768485
 30
0.0
 10
99.17878686756642
 20
-139.1401719487219
 30
0.0
 10
99.17671981027527
 20
-139.1908148523551
 30
0.0
 10
99.17671981027527
 20
-139.1908148523551
 30
0.0
 10
99.407541207787
 20
-139.1908148523551
 30
0.0
 10
99.407541207787
 20
-139.1908148523551
 30
0.0
 10
99.57256128153047
 20
-139.1908148523551
 30
0.0
 10
99.86436086913113
 20
-139.1846136804816
 30
0.0
 10
100.0441948534612
 20
-139.1780679990597
 30
0.0
 10
100.0441948534612
 20
-139.1780679990597
 30
0.0
 10
100.0441948534612
 20
-139.3558349260985
 30
0.0
 10
100.0441948534612
 20
-139.3558349260985
 30
0.0
 10
99.91534828231283
 20
-139.3517008115163
 30
0.0
 10
99.89192163301314
 20
-139.3517008115163
 30
0.0
 10
99.61493595599904
 20
-139.3475666969339
 30
0.0
  0
SPLINE
  5
10F
330
102
100
AcDbEntity
  8
_U+30EC_U+30A4_U+30E4_U+30FC 1
370
     0
100
AcDbSpline
210
0.0
220
0.0
230
1.0
 70
    11
 71
     3
 72
    23
 73
    19
 74
     0
 42
0.0000000001
 43
0.0000000001
 12
1.0
 22
0.0
 32
0.0
 13
1.0
 23
0.0
 33
0.0
 40
0.0
 40
0.0
 40
0.0
 40
0.0
 40
1.0
 40
1.0
 40
1.0
 40
2.0
 40
2.0
 40
2.0
 40
3.0
 40
3.0
 40
3.0
 40
4.0
 40
4.0
 40
4.0
 40
5.0
 40
5.0
 40
5.0
 40
6.0
 40
6.0
 40
6.0
 40
6.0
 10
98.3306043590979
 20
-138.9961669574385
 30
0.0
 10
98.31372339122018
 20
-139.0364745746159
 30
0.0
 10
98.30752221934674
 20
-139.0533555424936
 30
0.0
 10
98.28650713688671
 20
-139.0533555424936
 30
0.0
 10
98.27134871675162
 20
-139.0533555424936
 30
0.0
 10
98.26101343029586
 20
-139.0364745746159
 30
0.0
 10
98.25481225842242
 20
-139.0237277213205
 30
0.0
 10
98.25481225842242
 20
-139.0237277213205
 30
0.0
 10
98.15490448935017
 20
-138.858707647577
 30
0.0
 10
98.15490448935017
 20
-138.858707647577
 30
0.0
 10
98.25687931571356
 20
-138.8270127691127
 30
0.0
 10
98.40708547887046
 20
-138.7718912413487
 30
0.0
 10
98.60552297882084
 20
-138.6092827344449
 30
0.0
 10
98.60552297882084
 20
-138.6092827344449
 30
0.0
 10
98.66271156387599
 20
-138.782571037353
 30
0.0
 10
98.66271156387599
 20
-138.782571037353
 30
0.0
 10
98.56969398577425
 20
-138.865253328999
 30
0.0
 10
98.4808105222548
 20
-138.9220974045056
 30
0.0
 10
98.3306043590979
 20
-138.9961669574385
 30
0.0
  0
SPLINE
  5
110
330
102
100
AcDbEntity
  8
_U+30EC_U+30A4_U+30E4_U+30FC 1
370
     0
100
AcDbSpline
210
0.0
220
0.0
230
1.0
 70
    11
 71
     3
 72
    17
 73
    13
 74
     0
 42
0.0000000001
 43
0.0000000001
 12
1.0
 22
0.0
 32
0.0
 13
1.0
 23
0.0
 33
0.0
 40
0.0
 40
0.0
 40
0.0
 40
0.0
 40
1.0
 40
1.0
 40
1.0
 40
2.0
 40
2.0
 40
2.0
 40
3.0
 40
3.0
 40
3.0
 40
4.0
 40
4.0
 40
4.0
 40
4.0
 10
98.48287757954596
 20
-138.5307345573812
 30
0.0
 10
98.4532497583728
 20
-138.4907714497523
 30
0.0
 10
98.3857258868619
 20
-138.3932752475197
 30
0.0
 10
98.20382484524072
 20
-138.2833767015403
 30
0.0
 10
98.20382484524072
 20
-138.2833767015403
 30
0.0
 10
98.3306043590979
 20
-138.1500515062611
 30
0.0
 10
98.3306043590979
 20
-138.1500515062611
 30
0.0
 10
98.5166395153014
 20
-138.251681823076
 30
0.0
 10
98.57382810035655
 20
-138.3405652865954
 30
0.0
 10
98.60138886423854
 20
-138.382939961064
 30
0.0
 10
98.60138886423854
 20
-138.382939961064
 30
0.0
 10
98.48287757954596
 20
-138.5307345573812
 30
0.0
 10
98.48287757954596
 20
-138.5307345573812
 30
0.0
  0
SPLINE
  5
111
330
102
100
AcDbEntity
  8
_U+30EC_U+30A4_U+30E4_U+30FC 1
370
     0
100
AcDbSpline
210
0.0
220
0.0
230
1.0
 70
    11
 71
     3
 72
    38
 73
    34
 74
     0
 42
0.0000000001
 43
0.0000000001
 12
1.0
 22
0.0
 32
0.0
 13
1.0
 23
0.0
 33
0.0
 40
0.0
 40
0.0
 40
0.0
 40
0.0
 40
1.0
 40
1.0
 40
1.0
 40
2.0
 40
2.0
 40
2.0
 40
3.0
 40
3.0
 40
3.0
 40
4.0
 40
4.0
 40
4.0
 40
5.0
 40
5.0
 40
5.0
 40
6.0
 40
6.0
 40
6.0
 40
7.0
 40
7.0
 40
7.0
 40
8.0
 40
8.0
 40
8.0
 40
9.0
 40
9.0
 40
9.0
 40
10.0
 40
10.0
 40
10.0
 40
11.0
 40
11.0
 40
11.0
 40
11.0
 10
98.85115828691916
 20
-138.2261881164851
 30
0.0
 10
98.84909122962802
 20
-138.272696905536
 30
0.0
 10
98.84667966278833
 20
-138.3891411329375
 30
0.0
 10
98.84667966278833
 20
-138.4335828646972
 30
0.0
 10
98.84667966278833
 20
-138.4335828646972
 30
0.0
 10
98.84667966278833
 20
-138.7805039800618
 30
0.0
 10
98.84667966278833
 20
-138.7805039800618
 30
0.0
 10
98.84667966278833
 20
-138.8673203862901
 30
0.0
 10
98.84909122962802
 20
-139.0089138107339
 30
0.0
 10
98.85977102563228
 20
-139.1294921527176
 30
0.0
 10
98.85977102563228
 20
-139.1294921527176
 30
0.0
 10
98.66925724529797
 20
-139.1294921527176
 30
0.0
 10
98.66925724529797
 20
-139.1294921527176
 30
0.0
 10
98.67339135988027
 20
-139.066102395789
 30
0.0
 10
98.6778699840111
 20
-139.0130479253162
 30
0.0
 10
98.67993704130224
 20
-138.9582709071007
 30
0.0
 10
98.6820040985934
 20
-138.8356255078258
 30
0.0
 10
98.68407115588454
 20
-138.8208115972392
 30
0.0
 10
98.68407115588454
 20
-138.7763698654795
 30
0.0
 10
98.68407115588454
 20
-138.7763698654795
 30
0.0
 10
98.68407115588454
 20
-138.4545979471572
 30
0.0
 10
98.68407115588454
 20
-138.4545979471572
 30
0.0
 10
98.68407115588454
 20
-138.3998209289417
 30
0.0
 10
98.67132430258911
 20
-138.1607313022654
 30
0.0
 10
98.66925724529797
 20
-138.1097438890837
 30
0.0
 10
98.66925724529797
 20
-138.1097438890837
 30
0.0
 10
98.87010631208804
 20
-138.1373046529657
 30
0.0
 10
98.87010631208804
 20
-138.1373046529657
 30
0.0
 10
98.89146590409658
 20
-138.1393717102568
 30
0.0
 10
98.92316078256088
 20
-138.1438503343877
 30
0.0
 10
98.92316078256088
 20
-138.16899953143
 30
0.0
 10
98.92316078256088
 20
-138.196560295312
 30
0.0
 10
98.87217336937918
 20
-138.2179198873205
 30
0.0
 10
98.85115828691916
 20
-138.2261881164851
 30
0.0
  0
SPLINE
  5
112
330
102
100
AcDbEntity
  8
_U+30EC_U+30A4_U+30E4_U+30FC 1
370
     0
100
AcDbSpline
210
0.0
220
0.0
230
1.0
 70
    11
 71
     3
 72
    83
 73
    79
 74
     0
 42
0.0000000001
 43
0.0000000001
 12
1.0
 22
0.0
 32
0.0
 13
1.0
 23
0.0
 33
0.0
 40
0.0
 40
0.0
 40
0.0
 40
0.0
 40
1.0
 40
1.0
 40
1.0
 40
2.0
 40
2.0
 40
2.0
 40
3.0
 40
3.0
 40
3.0
 40
4.0
 40
4.0
 40
4.0
 40
5.0
 40
5.0
 40
5.0
 40
6.0
 40
6.0
 40
6.0
 40
7.0
 40
7.0
 40
7.0
 40
8.0
 40
8.0
 40
8.0
 40
9.0
 40
9.0
 40
9.0
 40
10.0
 40
10.0
 40
10.0
 40
11.0
 40
11.0
 40
11.0
 40
12.0
 40
12.0
 40
12.0
 40
13.0
 40
13.0
 40
13.0
 40
14.0
 40
14.0
 40
14.0
 40
15.0
 40
15.0
 40
15.0
 40
16.0
 40
16.0
 40
16.0
 40
17.0
 40
17.0
 40
17.0
 40
18.0
 40
18.0
 40
18.0
 40
19.0
 40
19.0
 40
19.0
 40
20.0
 40
20.0
 40
20.0
 40
21.0
 40
21.0
 40
21.0
 40
22.0
 40
22.0
 40
22.0
 40
23.0
 40
23.0
 40
23.0
 40
24.0
 40
24.0
 40
24.0
 40
25.0
 40
25.0
 40
25.0
 40
26.0
 40
26.0
 40
26.0
 40
26.0
 10
99.6528320063368
 20
-138.5479600348075
 30
0.0
 10
99.6528320063368
 20
-138.5479600348075
 30
0.0
 10
99.55568031365276
 20
-138.5479600348075
 30
0.0
 10
99.55568031365276
 20
-138.5479600348075
 30
0.0
 10
99.55568031365276
 20
-138.5479600348075
 30
0.0
 10
99.55568031365276
 20
-138.7953178906484
 30
0.0
 10
99.55568031365276
 20
-138.7953178906484
 30
0.0
 10
99.55568031365276
 20
-138.7953178906484
 30
0.0
 10
99.63801809575023
 20
-138.7953178906484
 30
0.0
 10
99.63801809575023
 20
-138.7953178906484
 30
0.0
 10
99.7038194195185
 20
-138.7953178906484
 30
0.0
 10
99.84334578667111
 20
-138.7911837760661
 30
0.0
 10
99.94290904619483
 20
-138.782571037353
 30
0.0
 10
99.94290904619483
 20
-138.782571037353
 30
0.0
 10
99.94290904619483
 20
-138.962405021683
 30
0.0
 10
99.94290904619483
 20
-138.962405021683
 30
0.0
 10
99.84989146809309
 20
-138.9541367925184
 30
0.0
 10
99.6996853049362
 20
-138.9496581683876
 30
0.0
 10
99.63801809575023
 20
-138.9496581683876
 30
0.0
 10
99.63801809575023
 20
-138.9496581683876
 30
0.0
 10
99.33347165485414
 20
-138.9496581683876
 30
0.0
 10
99.33347165485414
 20
-138.9496581683876
 30
0.0
 10
99.28076169392982
 20
-138.9496581683876
 30
0.0
 10
99.13468964535522
 20
-138.9541367925184
 30
0.0
 10
99.02858070440952
 20
-138.962405021683
 30
0.0
 10
99.02858070440952
 20
-138.962405021683
 30
0.0
 10
99.02858070440952
 20
-138.782571037353
 30
0.0
 10
99.02858070440952
 20
-138.782571037353
 30
0.0
 10
99.12848847348177
 20
-138.7911837760661
 30
0.0
 10
99.26767033108587
 20
-138.7953178906484
 30
0.0
 10
99.33347165485414
 20
-138.7953178906484
 30
0.0
 10
99.33347165485414
 20
-138.7953178906484
 30
0.0
 10
99.37791338661386
 20
-138.7953178906484
 30
0.0
 10
99.37791338661386
 20
-138.7953178906484
 30
0.0
 10
99.37791338661386
 20
-138.7953178906484
 30
0.0
 10
99.37791338661386
 20
-138.5479600348075
 30
0.0
 10
99.37791338661386
 20
-138.5479600348075
 30
0.0
 10
99.37791338661386
 20
-138.5479600348075
 30
0.0
 10
99.30384383368099
 20
-138.5479600348075
 30
0.0
 10
99.30384383368099
 20
-138.5479600348075
 30
0.0
 10
99.24252113404354
 20
-138.5479600348075
 30
0.0
 10
99.07543400300892
 20
-138.5520941493898
 30
0.0
 10
98.95485566102518
 20
-138.5603623785544
 30
0.0
 10
98.95485566102518
 20
-138.5603623785544
 30
0.0
 10
98.95485566102518
 20
-138.382939961064
 30
0.0
 10
98.95485566102518
 20
-138.382939961064
 30
0.0
 10
99.06923283113548
 20
-138.3891411329375
 30
0.0
 10
99.22770722345696
 20
-138.3932752475197
 30
0.0
 10
99.30384383368099
 20
-138.3932752475197
 30
0.0
 10
99.30384383368099
 20
-138.3932752475197
 30
0.0
 10
99.37584632932271
 20
-138.3932752475197
 30
0.0
 10
99.37584632932271
 20
-138.3932752475197
 30
0.0
 10
99.37171221474041
 20
-138.2410020270717
 30
0.0
 10
99.36964515744926
 20
-138.2072400913163
 30
0.0
 10
99.36309947602729
 20
-138.1142225132145
 30
0.0
 10
99.36309947602729
 20
-138.1142225132145
 30
0.0
 10
99.57462833882163
 20
-138.1373046529657
 30
0.0
 10
99.57462833882163
 20
-138.1373046529657
 30
0.0
 10
99.59977753586395
 20
-138.1393717102568
 30
0.0
 10
99.62320418516364
 20
-138.1438503343877
 30
0.0
 10
99.62320418516364
 20
-138.1669324741388
 30
0.0
 10
99.62320418516364
 20
-138.1986273526031
 30
0.0
 10
99.57910696295245
 20
-138.2155083204809
 30
0.0
 10
99.55568031365276
 20
-138.224121059194
 30
0.0
 10
99.55568031365276
 20
-138.224121059194
 30
0.0
 10
99.55568031365276
 20
-138.3932752475197
 30
0.0
 10
99.55568031365276
 20
-138.3932752475197
 30
0.0
 10
99.55568031365276
 20
-138.3932752475197
 30
0.0
 10
99.6528320063368
 20
-138.3932752475197
 30
0.0
 10
99.6528320063368
 20
-138.3932752475197
 30
0.0
 10
99.72931312610935
 20
-138.3932752475197
 30
0.0
 10
99.88778751843084
 20
-138.3891411329375
 30
0.0
 10
100.0042317458323
 20
-138.382939961064
 30
0.0
 10
100.0042317458323
 20
-138.382939961064
 30
0.0
 10
100.0042317458323
 20
-138.5603623785544
 30
0.0
 10
100.0042317458323
 20
-138.5603623785544
 30
0.0
 10
99.89605574759544
 20
-138.5541612066809
 30
0.0
 10
99.72276744468736
 20
-138.5479600348075
 30
0.0
 10
99.6528320063368
 20
-138.5479600348075
 30
0.0
  0
SPLINE
  5
113
330
102
100
AcDbEntity
  8
_U+30EC_U+30A4_U+30E4_U+30FC 1
370
     0
100
AcDbSpline
210
0.0
220
0.0
230
1.0
 70
    11
 71
     3
 72
    17
 73
    13
 74
     0
 42
0.0000000001
 43
0.0000000001
 12
1.0
 22
0.0
 32
0.0
 13
1.0
 23
0.0
 33
0.0
 40
0.0
 40
0.0
 40
0.0
 40
0.0
 40
1.0
 40
1.0
 40
1.0
 40
2.0
 40
2.0
 40
2.0
 40
3.0
 40
3.0
 40
3.0
 40
4.0
 40
4.0
 40
4.0
 40
4.0
 10
99.407541207787
 20
-139.3454996396428
 30
0.0
 10
99.407541207787
 20
-139.3454996396428
 30
0.0
 10
99.20428057415727
 20
-139.3454996396428
 30
0.0
 10
99.20428057415727
 20
-139.3454996396428
 30
0.0
 10
99.23184133803926
 20
-139.4047552819891
 30
0.0
 10
99.28696286580326
 20
-139.4764132680823
 30
0.0
 10
99.31452362968527
 20
-139.5060410892554
 30
0.0
 10
99.34208439356726
 20
-139.4912271786689
 30
0.0
 10
99.45611705412902
 20
-139.4278374217403
 30
0.0
 10
99.54706757493963
 20
-139.3454996396428
 30
0.0
 10
99.54706757493963
 20
-139.3454996396428
 30
0.0
 10
99.407541207787
 20
-139.3454996396428
 30
0.0
 10
99.407541207787
 20
-139.3454996396428
 30
0.0
  0
HATCH
  5
114
330
102
100
AcDbEntity
  8
_U+30EC_U+30A4_U+30E4_U+30FC 1
 62
   179
420
  2234388
100
AcDbHatch
 10
0.0
 20
0.0
 30
0.0
210
0.0
220
0.0
230
1.0
  2
SOLID
 70
     1
 71
     0
 91
        6
 92
        1
 93
        1
 72
     4
 94
        3
 73
     0
 74
     1
 95
      113
 96
      109
 40
0.0
 40
0.0
 40
0.0
 40
0.0
 40
1.0
 40
1.0
 40
1.0
 40
2.0
 40
2.0
 40
2.0
 40
3.0
 40
3.0
 40
3.0
 40
4.0
 40
4.0
 40
4.0
 40
5.0
 40
5.0
 40
5.0
 40
6.0
 40
6.0
 40
6.0
 40
7.0
 40
7.0
 40
7.0
 40
8.0
 40
8.0
 40
8.0
 40
9.0
 40
9.0
 40
9.0
 40
10.0
 40
10.0
 40
10.0
 40
11.0
 40
11.0
 40
11.0
 40
12.0
 40
12.0
 40
12.0
 40
13.0
 40
13.0
 40
13.0
 40
14.0
 40
14.0
 40
14.0
 40
15.0
 40
15.0
 40
15.0
 40
16.0
 40
16.0
 40
16.0
 40
17.0
 40
17.0
 40
17.0
 40
18.0
 40
18.0
 40
18.0
 40
19.0
 40
19.0
 40
19.0
 40
20.0
 40
20.0
 40
20.0
 40
21.0
 40
21.0
 40
21.0
 40
22.0
 40
22.0
 40
22.0
 40
23.0
 40
23.0
 40
23.0
 40
24.0
 40
24.0
 40
24.0
 40
25.0
 40
25.0
 40
25.0
 40
26.0
 40
26.0
 40
26.0
 40
27.0
 40
27.0
 40
27.0
 40
28.0
 40
28.0
 40
28.0
 40
29.0
 40
29.0
 40
29.0
 40
30.0
 40
30.0
 40
30.0
 40
31.0
 40
31.0
 40
31.0
 40
32.0
 40
32.0
 40
32.0
 40
33.0
 40
33.0
 40
33.0
 40
34.0
 40
34.0
 40
34.0
 40
35.0
 40
35.0
 40
35.0
 40
36.0
 40
36.0
 40
36.0
 40
36.0
 10
99.61493595599904
 20
-139.3475666969339
 10
99.61493595599904
 20
-139.3475666969339
 10
99.71415470597424
 20
-139.4467854469091
 10
99.71415470597424
 20
-139.4467854469091
 10
99.72483450197852
 20
-139.4574652429134
 10
99.73551429798279
 20
-139.4702120962089
 10
99.73551429798279
 20
-139.4850260067954
 10
99.73551429798279
 20
-139.4870930640866
 10
99.73551429798279
 20
-139.5167208852597
 10
99.69727373809651
 20
-139.5167208852597
 10
99.6886609993834
 20
-139.5167208852597
 10
99.6486978917545
 20
-139.5125867706774
 10
99.64249671988105
 20
-139.5125867706774
 10
99.60218910270362
 20
-139.5442816491417
 10
99.55568031365276
 20
-139.5780435848972
 10
99.45611705412902
 20
-139.6352321699523
 10
99.60218910270362
 20
-139.7430636586406
 10
99.76100800457364
 20
-139.8002522436958
 10
100.0338595670054
 20
-139.8381482940335
 10
100.0338595670054
 20
-139.8381482940335
 10
99.88365340384854
 20
-140.0138481637813
 10
99.88365340384854
 20
-140.0138481637813
 10
99.6211371278725
 20
-139.9418456681395
 10
99.46472979284215
 20
-139.8529622046201
 10
99.38824867306961
 20
-139.8002522436958
 10
99.23804250991272
 20
-139.6986219268809
 10
99.0943820281778
 20
-139.5356689104286
 10
99.01824541795378
 20
-139.3706488366851
 10
98.95072154644288
 20
-139.4364501604534
 10
98.87630748396148
 20
-139.4891601213777
 10
98.79844832599484
 20
-139.5377359677197
 10
98.79844832599484
 20
-139.5377359677197
 10
98.79844832599484
 20
-139.7895724476915
 10
98.79844832599484
 20
-139.7895724476915
 10
98.96105683289863
 20
-139.7640787411007
 10
99.14709198910212
 20
-139.7196370093409
 10
99.21082625557925
 20
-139.7048230987544
 10
99.21082625557925
 20
-139.7048230987544
 10
99.1811984344061
 20
-139.8743217966286
 10
99.1811984344061
 20
-139.8743217966286
 10
99.17878686756642
 20
-139.8743217966286
 10
99.16018335194607
 20
-139.8805229685021
 10
99.15811629465492
 20
-139.8805229685021
 10
98.95898977560748
 20
-139.9187635283884
 10
98.64169648141596
 20
-139.9842203426081
 10
98.4449815292082
 20
-140.0200493356547
 10
98.43430173320392
 20
-140.037274813081
 10
98.41121959345276
 20
-140.0689696915453
 10
98.38779294415306
 20
-140.0689696915453
 10
98.36023218027105
 20
-140.0689696915453
 10
98.35609806568876
 20
-140.0496771568279
 10
98.35403100839761
 20
-140.030729131659
 10
98.35403100839761
 20
-140.030729131659
 10
98.32853730180676
 20
-139.8574408287509
 10
98.32853730180676
 20
-139.8574408287509
 10
98.40260685473963
 20
-139.8488280900378
 10
98.51043834342795
 20
-139.8360812367424
 10
98.6186143416648
 20
-139.8150661542824
 10
98.6186143416648
 20
-139.8150661542824
 10
98.6186143416648
 20
-139.6372992272435
 10
98.6186143416648
 20
-139.6372992272435
 10
98.47460935038136
 20
-139.7093017228852
 10
98.37952471498846
 20
-139.7389295440583
 10
98.21416013169646
 20
-139.7685573652315
 10
98.21416013169646
 20
-139.7685573652315
 10
98.09358178971272
 20
-139.5990586673572
 10
98.09358178971272
 20
-139.5990586673572
 10
98.41121959345276
 20
-139.5718424130237
 10
98.6034559215297
 20
-139.4784803253735
 10
98.78122284856859
 20
-139.3454996396428
 10
98.635150799994
 20
-139.3454996396428
 10
98.3347384736802
 20
-139.3496337542251
 10
98.13836803102097
 20
-139.3558349260985
 10
98.13836803102097
 20
-139.3558349260985
 10
98.13836803102097
 20
-139.1780679990597
 10
98.13836803102097
 20
-139.1780679990597
 10
98.29270830876015
 20
-139.1846136804816
 10
98.58898652049164
 20
-139.1908148523551
 10
98.77295461940399
 20
-139.1908148523551
 10
98.77295461940399
 20
-139.1908148523551
 10
98.98448348219833
 20
-139.1908148523551
 10
98.98448348219833
 20
-139.1908148523551
 10
98.98448348219833
 20
-139.0957302169622
 10
98.98241642490717
 20
-139.045087313329
 10
98.9758707434852
 20
-138.9982340147296
 10
98.9758707434852
 20
-138.9982340147296
 10
99.19187823041037
 20
-139.0154594921559
 10
99.19187823041037
 20
-139.0154594921559
 10
99.24045407675239
 20
-139.0195936067382
 10
99.24906681546551
 20
-139.0344075173248
 10
99.24906681546551
 20
-139.0492214279113
 10
99.24906681546551
 20
-139.0747151345022
 10
99.23184133803926
 20
-139.0829833636668
 10
99.1811984344061
 20
-139.1084770702576
 10
99.17878686756642
 20
-139.1339707768485
 10
99.17878686756642
 20
-139.1401719487219
 10
99.17671981027527
 20
-139.1908148523551
 10
99.17671981027527
 20
-139.1908148523551
 10
99.407541207787
 20
-139.1908148523551
 10
99.407541207787
 20
-139.1908148523551
 10
99.57256128153047
 20
-139.1908148523551
 10
99.86436086913113
 20
-139.1846136804816
 10
100.0441948534612
 20
-139.1780679990597
 10
100.0441948534612
 20
-139.1780679990597
 10
100.0441948534612
 20
-139.3558349260985
 10
100.0441948534612
 20
-139.3558349260985
 10
99.91534828231283
 20
-139.3517008115163
 10
99.89192163301314
 20
-139.3517008115163
 10
99.61493595599904
 20
-139.3475666969339
 97
        0
 97
        0
 92
        1
 93
        1
 72
     4
 94
        3
 73
     0
 74
     1
 95
       23
 96
       19
 40
0.0
 40
0.0
 40
0.0
 40
0.0
 40
1.0
 40
1.0
 40
1.0
 40
2.0
 40
2.0
 40
2.0
 40
3.0
 40
3.0
 40
3.0
 40
4.0
 40
4.0
 40
4.0
 40
5.0
 40
5.0
 40
5.0
 40
6.0
 40
6.0
 40
6.0
 40
6.0
 10
98.3306043590979
 20
-138.9961669574385
 10
98.31372339122018
 20
-139.0364745746159
 10
98.30752221934674
 20
-139.0533555424936
 10
98.28650713688671
 20
-139.0533555424936
 10
98.27134871675162
 20
-139.0533555424936
 10
98.26101343029586
 20
-139.0364745746159
 10
98.25481225842242
 20
-139.0237277213205
 10
98.25481225842242
 20
-139.0237277213205
 10
98.15490448935017
 20
-138.858707647577
 10
98.15490448935017
 20
-138.858707647577
 10
98.25687931571356
 20
-138.8270127691127
 10
98.40708547887046
 20
-138.7718912413487
 10
98.60552297882084
 20
-138.6092827344449
 10
98.60552297882084
 20
-138.6092827344449
 10
98.66271156387599
 20
-138.782571037353
 10
98.66271156387599
 20
-138.782571037353
 10
98.56969398577425
 20
-138.865253328999
 10
98.4808105222548
 20
-138.9220974045056
 10
98.3306043590979
 20
-138.9961669574385
 97
        0
 97
        0
 92
        1
 93
        1
 72
     4
 94
        3
 73
     0
 74
     1
 95
       17
 96
       13
 40
0.0
 40
0.0
 40
0.0
 40
0.0
 40
1.0
 40
1.0
 40
1.0
 40
2.0
 40
2.0
 40
2.0
 40
3.0
 40
3.0
 40
3.0
 40
4.0
 40
4.0
 40
4.0
 40
4.0
 10
98.48287757954596
 20
-138.5307345573812
 10
98.4532497583728
 20
-138.4907714497523
 10
98.3857258868619
 20
-138.3932752475197
 10
98.20382484524072
 20
-138.2833767015403
 10
98.20382484524072
 20
-138.2833767015403
 10
98.3306043590979
 20
-138.1500515062611
 10
98.3306043590979
 20
-138.1500515062611
 10
98.5166395153014
 20
-138.251681823076
 10
98.57382810035655
 20
-138.3405652865954
 10
98.60138886423854
 20
-138.382939961064
 10
98.60138886423854
 20
-138.382939961064
 10
98.48287757954596
 20
-138.5307345573812
 10
98.48287757954596
 20
-138.5307345573812
 97
        0
 97
        0
 92
        1
 93
        1
 72
     4
 94
        3
 73
     0
 74
     1
 95
       38
 96
       34
 40
0.0
 40
0.0
 40
0.0
 40
0.0
 40
1.0
 40
1.0
 40
1.0
 40
2.0
 40
2.0
 40
2.0
 40
3.0
 40
3.0
 40
3.0
 40
4.0
 40
4.0
 40
4.0
 40
5.0
 40
5.0
 40
5.0
 40
6.0
 40
6.0
 40
6.0
 40
7.0
 40
7.0
 40
7.0
 40
8.0
 40
8.0
 40
8.0
 40
9.0
 40
9.0
 40
9.0
 40
10.0
 40
10.0
 40
10.0
 40
11.0
 40
11.0
 40
11.0
 40
11.0
 10
98.85115828691916
 20
-138.2261881164851
 10
98.84909122962802
 20
-138.272696905536
 10
98.84667966278833
 20
-138.3891411329375
 10
98.84667966278833
 20
-138.4335828646972
 10
98.84667966278833
 20
-138.4335828646972
 10
98.84667966278833
 20
-138.7805039800618
 10
98.84667966278833
 20
-138.7805039800618
 10
98.84667966278833
 20
-138.8673203862901
 10
98.84909122962802
 20
-139.0089138107339
 10
98.85977102563228
 20
-139.1294921527176
 10
98.85977102563228
 20
-139.1294921527176
 10
98.66925724529797
 20
-139.1294921527176
 10
98.66925724529797
 20
-139.1294921527176
 10
98.67339135988027
 20
-139.066102395789
 10
98.6778699840111
 20
-139.0130479253162
 10
98.67993704130224
 20
-138.9582709071007
 10
98.6820040985934
 20
-138.8356255078258
 10
98.68407115588454
 20
-138.8208115972392
 10
98.68407115588454
 20
-138.7763698654795
 10
98.68407115588454
 20
-138.7763698654795
 10
98.68407115588454
 20
-138.4545979471572
 10
98.68407115588454
 20
-138.4545979471572
 10
98.68407115588454
 20
-138.3998209289417
 10
98.67132430258911
 20
-138.1607313022654
 10
98.66925724529797
 20
-138.1097438890837
 10
98.66925724529797
 20
-138.1097438890837
 10
98.87010631208804
 20
-138.1373046529657
 10
98.87010631208804
 20
-138.1373046529657
 10
98.89146590409658
 20
-138.1393717102568
 10
98.92316078256088
 20
-138.1438503343877
 10
98.92316078256088
 20
-138.16899953143
 10
98.92316078256088
 20
-138.196560295312
 10
98.87217336937918
 20
-138.2179198873205
 10
98.85115828691916
 20
-138.2261881164851
 97
        0
 97
        0
 92
        1
 93
        1
 72
     4
 94
        3
 73
     0
 74
     1
 95
       83
 96
       79
 40
0.0
 40
0.0
 40
0.0
 40
0.0
 40
1.0
 40
1.0
 40
1.0
 40
2.0
 40
2.0
 40
2.0
 40
3.0
 40
3.0
 40
3.0
 40
4.0
 40
4.0
 40
4.0
 40
5.0
 40
5.0
 40
5.0
 40
6.0
 40
6.0
 40
6.0
 40
7.0
 40
7.0
 40
7.0
 40
8.0
 40
8.0
 40
8.0
 40
9.0
 40
9.0
 40
9.0
 40
10.0
 40
10.0
 40
10.0
 40
11.0
 40
11.0
 40
11.0
 40
12.0
 40
12.0
 40
12.0
 40
13.0
 40
13.0
 40
13.0
 40
14.0
 40
14.0
 40
14.0
 40
15.0
 40
15.0
 40
15.0
 40
16.0
 40
16.0
 40
16.0
 40
17.0
 40
17.0
 40
17.0
 40
18.0
 40
18.0
 40
18.0
 40
19.0
 40
19.0
 40
19.0
 40
20.0
 40
20.0
 40
20.0
 40
21.0
 40
21.0
 40
21.0
 40
22.0
 40
22.0
 40
22.0
 40
23.0
 40
23.0
 40
23.0
 40
24.0
 40
24.0
 40
24.0
 40
25.0
 40
25.0
 40
25.0
 40
26.0
 40
26.0
 40
26.0
 40
26.0
 10
99.6528320063368
 20
-138.5479600348075
 10
99.6528320063368
 20
-138.5479600348075
 10
99.55568031365276
 20
-138.5479600348075
 10
99.55568031365276
 20
-138.5479600348075
 10
99.55568031365276
 20
-138.5479600348075
 10
99.55568031365276
 20
-138.7953178906484
 10
99.55568031365276
 20
-138.7953178906484
 10
99.55568031365276
 20
-138.7953178906484
 10
99.63801809575023
 20
-138.7953178906484
 10
99.63801809575023
 20
-138.7953178906484
 10
99.7038194195185
 20
-138.7953178906484
 10
99.84334578667111
 20
-138.7911837760661
 10
99.94290904619483
 20
-138.782571037353
 10
99.94290904619483
 20
-138.782571037353
 10
99.94290904619483
 20
-138.962405021683
 10
99.94290904619483
 20
-138.962405021683
 10
99.84989146809309
 20
-138.9541367925184
 10
99.6996853049362
 20
-138.9496581683876
 10
99.63801809575023
 20
-138.9496581683876
 10
99.63801809575023
 20
-138.9496581683876
 10
99.33347165485414
 20
-138.9496581683876
 10
99.33347165485414
 20
-138.9496581683876
 10
99.28076169392982
 20
-138.9496581683876
 10
99.13468964535522
 20
-138.9541367925184
 10
99.02858070440952
 20
-138.962405021683
 10
99.02858070440952
 20
-138.962405021683
 10
99.02858070440952
 20
-138.782571037353
 10
99.02858070440952
 20
-138.782571037353
 10
99.12848847348177
 20
-138.7911837760661
 10
99.26767033108587
 20
-138.7953178906484
 10
99.33347165485414
 20
-138.7953178906484
 10
99.33347165485414
 20
-138.7953178906484
 10
99.37791338661386
 20
-138.7953178906484
 10
99.37791338661386
 20
-138.7953178906484
 10
99.37791338661386
 20
-138.7953178906484
 10
99.37791338661386
 20
-138.5479600348075
 10
99.37791338661386
 20
-138.5479600348075
 10
99.37791338661386
 20
-138.5479600348075
 10
99.30384383368099
 20
-138.5479600348075
 10
99.30384383368099
 20
-138.5479600348075
 10
99.24252113404354
 20
-138.5479600348075
 10
99.07543400300892
 20
-138.5520941493898
 10
98.95485566102518
 20
-138.5603623785544
 10
98.95485566102518
 20
-138.5603623785544
 10
98.95485566102518
 20
-138.382939961064
 10
98.95485566102518
 20
-138.382939961064
 10
99.06923283113548
 20
-138.3891411329375
 10
99.22770722345696
 20
-138.3932752475197
 10
99.30384383368099
 20
-138.3932752475197
 10
99.30384383368099
 20
-138.3932752475197
 10
99.37584632932271
 20
-138.3932752475197
 10
99.37584632932271
 20
-138.3932752475197
 10
99.37171221474041
 20
-138.2410020270717
 10
99.36964515744926
 20
-138.2072400913163
 10
99.36309947602729
 20
-138.1142225132145
 10
99.36309947602729
 20
-138.1142225132145
 10
99.57462833882163
 20
-138.1373046529657
 10
99.57462833882163
 20
-138.1373046529657
 10
99.59977753586395
 20
-138.1393717102568
 10
99.62320418516364
 20
-138.1438503343877
 10
99.62320418516364
 20
-138.1669324741388
 10
99.62320418516364
 20
-138.1986273526031
 10
99.57910696295245
 20
-138.2155083204809
 10
99.55568031365276
 20
-138.224121059194
 10
99.55568031365276
 20
-138.224121059194
 10
99.55568031365276
 20
-138.3932752475197
 10
99.55568031365276
 20
-138.3932752475197
 10
99.55568031365276
 20
-138.3932752475197
 10
99.6528320063368
 20
-138.3932752475197
 10
99.6528320063368
 20
-138.3932752475197
 10
99.72931312610935
 20
-138.3932752475197
 10
99.88778751843084
 20
-138.3891411329375
 10
100.0042317458323
 20
-138.382939961064
 10
100.0042317458323
 20
-138.382939961064
 10
100.0042317458323
 20
-138.5603623785544
 10
100.0042317458323
 20
-138.5603623785544
 10
99.89605574759544
 20
-138.5541612066809
 10
99.72276744468736
 20
-138.5479600348075
 10
99.6528320063368
 20
-138.5479600348075
 97
        0
 97
        0
 92
        1
 93
        1
 72
     4
 94
        3
 73
     0
 74
     1
 95
       17
 96
       13
 40
0.0
 40
0.0
 40
0.0
 40
0.0
 40
1.0
 40
1.0
 40
1.0
 40
2.0
 40
2.0
 40
2.0
 40
3.0
 40
3.0
 40
3.0
 40
4.0
 40
4.0
 40
4.0
 40
4.0
 10
99.407541207787
 20
-139.3454996396428
 10
99.407541207787
 20
-139.3454996396428
 10
99.20428057415727
 20
-139.3454996396428
 10
99.20428057415727
 20
-139.3454996396428
 10
99.23184133803926
 20
-139.4047552819891
 10
99.28696286580326
 20
-139.4764132680823
 10
99.31452362968527
 20
-139.5060410892554
 10
99.34208439356726
 20
-139.4912271786689
 10
99.45611705412902
 20
-139.4278374217403
 10
99.54706757493963
 20
-139.3454996396428
 10
99.54706757493963
 20
-139.3454996396428
 10
99.407541207787
 20
-139.3454996396428
 10
99.407541207787
 20
-139.3454996396428
 97
        0
 97
        0
 75
     2
 76
     1
 98
        0
  0
SPLINE
  5
115
330
102
100
AcDbEntity
  8
_U+30EC_U+30A4_U+30E4_U+30FC 1
370
     0
100
AcDbSpline
210
0.0
220
0.0
230
1.0
 70
    11
 71
     3
 72
    77
 73
    73
 74
     0
 42
0.0000000001
 43
0.0000000001
 12
1.0
 22
0.0
 32
0.0
 13
1.0
 23
0.0
 33
0.0
 40
0.0
 40
0.0
 40
0.0
 40
0.0
 40
1.0
 40
1.0
 40
1.0
 40
2.0
 40
2.0
 40
2.0
 40
3.0
 40
3.0
 40
3.0
 40
4.0
 40
4.0
 40
4.0
 40
5.0
 40
5.0
 40
5.0
 40
6.0
 40
6.0
 40
6.0
 40
7.0
 40
7.0
 40
7.0
 40
8.0
 40
8.0
 40
8.0
 40
9.0
 40
9.0
 40
9.0
 40
10.0
 40
10.0
 40
10.0
 40
11.0
 40
11.0
 40
11.0
 40
12.0
 40
12.0
 40
12.0
 40
13.0
 40
13.0
 40
13.0
 40
14.0
 40
14.0
 40
14.0
 40
15.0
 40
15.0
 40
15.0
 40
16.0
 40
16.0
 40
16.0
 40
17.0
 40
17.0
 40
17.0
 40
18.0
 40
18.0
 40
18.0
 40
19.0
 40
19.0
 40
19.0
 40
20.0
 40
20.0
 40
20.0
 40
21.0
 40
21.0
 40
21.0
 40
22.0
 40
22.0
 40
22.0
 40
23.0
 40
23.0
 40
23.0
 40
24.0
 40
24.0
 40
24.0
 40
24.0
 10
101.8986897531712
 20
-139.975607603895
 30
0.0
 10
101.8521809641203
 20
-140.0011013104858
 30
0.0
 10
101.7274685075542
 20
-140.0138481637813
 30
0.0
 10
101.6489203304906
 20
-140.0138481637813
 30
0.0
 10
101.6365179867437
 20
-140.0138481637813
 30
0.0
 10
101.6110242801528
 20
-140.0138481637813
 30
0.0
 10
101.5772623443974
 20
-140.009714049199
 30
0.0
 10
101.5772623443974
 20
-140.009714049199
 30
0.0
 10
101.4797661421648
 20
-139.783371275818
 30
0.0
 10
101.4797661421648
 20
-139.783371275818
 30
0.0
 10
101.5093939633379
 20
-139.7895724476915
 30
0.0
 10
101.5665825483931
 20
-139.7981851864046
 30
0.0
 10
101.682682266246
 20
-139.7981851864046
 30
0.0
 10
101.7612304433097
 20
-139.7981851864046
 30
0.0
 10
101.7632975006008
 20
-139.7558105119361
 30
0.0
 10
101.7632975006008
 20
-139.6986219268809
 30
0.0
 10
101.7632975006008
 20
-139.6986219268809
 30
0.0
 10
101.7632975006008
 20
-139.3496337542251
 30
0.0
 10
101.7632975006008
 20
-139.3496337542251
 30
0.0
 10
101.7632975006008
 20
-139.3496337542251
 30
0.0
 10
101.3044107819656
 20
-139.3496337542251
 30
0.0
 10
101.3044107819656
 20
-139.3496337542251
 30
0.0
 10
101.3064778392567
 20
-139.4870930640866
 30
0.0
 10
101.3085448965479
 20
-139.6858750735855
 30
0.0
 10
101.3147460684213
 20
-139.8192002688646
 30
0.0
 10
101.3168131257125
 20
-139.8467610327467
 30
0.0
 10
101.3168131257125
 20
-139.8912027645064
 30
0.0
 10
101.3295599790079
 20
-139.9525254641438
 30
0.0
 10
101.3295599790079
 20
-139.9525254641438
 30
0.0
 10
101.0884032950404
 20
-139.9525254641438
 30
0.0
 10
101.0884032950404
 20
-139.9525254641438
 30
0.0
 10
101.1138970016313
 20
-139.8278130075778
 30
0.0
 10
101.1138970016313
 20
-139.4870930640866
 30
0.0
 10
101.1138970016313
 20
-139.3496337542251
 30
0.0
 10
101.1138970016313
 20
-139.3496337542251
 30
0.0
 10
100.6718912508737
 20
-139.3496337542251
 30
0.0
 10
100.6718912508737
 20
-139.3496337542251
 30
0.0
 10
100.648464601574
 20
-139.5570285024371
 30
0.0
 10
100.5830077873542
 20
-139.8254014407381
 30
0.0
 10
100.385948325598
 20
-140.009714049199
 30
0.0
 10
100.385948325598
 20
-140.009714049199
 30
0.0
 10
100.1978461121033
 20
-139.8870686499241
 30
0.0
 10
100.1978461121033
 20
-139.8870686499241
 30
0.0
 10
100.4517496493662
 20
-139.6669270484166
 30
0.0
 10
100.4834445278305
 20
-139.3348198436385
 30
0.0
 10
100.4834445278305
 20
-139.0027126388604
 30
0.0
 10
100.4834445278305
 20
-139.0027126388604
 30
0.0
 10
100.4834445278305
 20
-138.5669080599763
 30
0.0
 10
100.4834445278305
 20
-138.5669080599763
 30
0.0
 10
100.4834445278305
 20
-138.5307345573812
 30
0.0
 10
100.4813774705394
 20
-138.2981906121269
 30
0.0
 10
100.4727647318263
 20
-138.196560295312
 30
0.0
 10
100.6126356085274
 20
-138.2072400913163
 30
0.0
 10
100.8537922924949
 20
-138.2072400913163
 30
0.0
 10
100.9974527742298
 20
-138.2072400913163
 30
0.0
 10
100.9974527742298
 20
-138.2072400913163
 30
0.0
 10
101.4566840024136
 20
-138.2072400913163
 30
0.0
 10
101.4566840024136
 20
-138.2072400913163
 30
0.0
 10
101.4711534034517
 20
-138.2072400913163
 30
0.0
 10
101.820486085656
 20
-138.2072400913163
 30
0.0
 10
101.9789604779775
 20
-138.196560295312
 30
0.0
 10
101.9768934206863
 20
-138.2496147657848
 30
0.0
 10
101.9706922488129
 20
-138.4101562153975
 30
0.0
 10
101.9706922488129
 20
-138.4611436285792
 30
0.0
 10
101.9706922488129
 20
-138.4611436285792
 30
0.0
 10
101.9706922488129
 20
-139.0681694530802
 30
0.0
 10
101.9706922488129
 20
-139.0681694530802
 30
0.0
 10
101.9706922488129
 20
-139.0871174782491
 30
0.0
 10
101.9810275352686
 20
-139.6583143097035
 30
0.0
 10
101.9810275352686
 20
-139.7706244225226
 30
0.0
 10
101.9810275352686
 20
-139.8278130075778
 30
0.0
 10
101.9810275352686
 20
-139.9290988148441
 30
0.0
 10
101.8986897531712
 20
-139.975607603895
 30
0.0
  0
POLYLINE
  5
116
330
102
100
AcDbEntity
  8
_U+30EC_U+30A4_U+30E4_U+30FC 1
370
     0
100
AcDb2dPolyline
 66
     1
 10
0.0
 20
0.0
 30
0.0
  0
VERTEX
  5
117
330
116
100
AcDbEntity
  8
_U+30EC_U+30A4_U+30E4_U+30FC 1
370
     0
100
AcDbVertex
100
AcDb2dVertex
 10
101.1138970016313
 20
-138.3891411329375
 30
0.0
  0
VERTEX
  5
118
330
116
100
AcDbEntity
  8
_U+30EC_U+30A4_U+30E4_U+30FC 1
370
     0
100
AcDbVertex
100
AcDb2dVertex
 10
100.676025365456
 20
-138.3891411329375
 30
0.0
  0
VERTEX
  5
119
330
116
100
AcDbEntity
  8
_U+30EC_U+30A4_U+30E4_U+30FC 1
370
     0
100
AcDbVertex
100
AcDb2dVertex
 10
100.676025365456
 20
-138.6936875738335
 30
0.0
  0
VERTEX
  5
11A
330
116
100
AcDbEntity
  8
_U+30EC_U+30A4_U+30E4_U+30FC 1
370
     0
100
AcDbVertex
100
AcDb2dVertex
 10
101.1138970016313
 20
-138.6936875738335
 30
0.0
  0
VERTEX
  5
11B
330
116
100
AcDbEntity
  8
_U+30EC_U+30A4_U+30E4_U+30FC 1
370
     0
100
AcDbVertex
100
AcDb2dVertex
 10
101.1138970016313
 20
-138.3891411329375
 30
0.0
  0
SEQEND
  5
11C
330
116
100
AcDbEntity
  8
_U+30EC_U+30A4_U+30E4_U+30FC 1
370
     0
  0
POLYLINE
  5
11D
330
102
100
AcDbEntity
  8
_U+30EC_U+30A4_U+30E4_U+30FC 1
370
     0
100
AcDb2dPolyline
 66
     1
 10
0.0
 20
0.0
 30
0.0
  0
VERTEX
  5
11E
330
11D
100
AcDbEntity
  8
_U+30EC_U+30A4_U+30E4_U+30FC 1
370
     0
100
AcDbVertex
100
AcDb2dVertex
 10
101.1138970016313
 20
-138.8607747048681
 30
0.0
  0
VERTEX
  5
11F
330
11D
100
AcDbEntity
  8
_U+30EC_U+30A4_U+30E4_U+30FC 1
370
     0
100
AcDbVertex
100
AcDb2dVertex
 10
100.676025365456
 20
-138.8607747048681
 30
0.0
  0
VERTEX
  5
120
330
11D
100
AcDbEntity
  8
_U+30EC_U+30A4_U+30E4_U+30FC 1
370
     0
100
AcDbVertex
100
AcDb2dVertex
 10
100.676025365456
 20
-139.1697997698951
 30
0.0
  0
VERTEX
  5
121
330
11D
100
AcDbEntity
  8
_U+30EC_U+30A4_U+30E4_U+30FC 1
370
     0
100
AcDbVertex
100
AcDb2dVertex
 10
101.1138970016313
 20
-139.1697997698951
 30
0.0
  0
VERTEX
  5
122
330
11D
100
AcDbEntity
  8
_U+30EC_U+30A4_U+30E4_U+30FC 1
370
     0
100
AcDbVertex
100
AcDb2dVertex
 10
101.1138970016313
 20
-138.8607747048681
 30
0.0
  0
SEQEND
  5
123
330
11D
100
AcDbEntity
  8
_U+30EC_U+30A4_U+30E4_U+30FC 1
370
     0
  0
POLYLINE
  5
124
330
102
100
AcDbEntity
  8
_U+30EC_U+30A4_U+30E4_U+30FC 1
370
     0
100
AcDb2dPolyline
 66
     1
 10
0.0
 20
0.0
 30
0.0
  0
VERTEX
  5
125
330
124
100
AcDbEntity
  8
_U+30EC_U+30A4_U+30E4_U+30FC 1
370
     0
100
AcDbVertex
100
AcDb2dVertex
 10
101.7632975006008
 20
-138.3891411329375
 30
0.0
  0
VERTEX
  5
126
330
124
100
AcDbEntity
  8
_U+30EC_U+30A4_U+30E4_U+30FC 1
370
     0
100
AcDbVertex
100
AcDb2dVertex
 10
101.3044107819656
 20
-138.3891411329375
 30
0.0
  0
VERTEX
  5
127
330
124
100
AcDbEntity
  8
_U+30EC_U+30A4_U+30E4_U+30FC 1
370
     0
100
AcDbVertex
100
AcDb2dVertex
 10
101.3044107819656
 20
-138.6936875738335
 30
0.0
  0
VERTEX
  5
128
330
124
100
AcDbEntity
  8
_U+30EC_U+30A4_U+30E4_U+30FC 1
370
     0
100
AcDbVertex
100
AcDb2dVertex
 10
101.7632975006008
 20
-138.6936875738335
 30
0.0
  0
VERTEX
  5
129
330
124
100
AcDbEntity
  8
_U+30EC_U+30A4_U+30E4_U+30FC 1
370
     0
100
AcDbVertex
100
AcDb2dVertex
 10
101.7632975006008
 20
-138.3891411329375
 30
0.0
  0
SEQEND
  5
12A
330
124
100
AcDbEntity
  8
_U+30EC_U+30A4_U+30E4_U+30FC 1
370
     0
  0
POLYLINE
  5
12B
330
102
100
AcDbEntity
  8
_U+30EC_U+30A4_U+30E4_U+30FC 1
370
     0
100
AcDb2dPolyline
 66
     1
 10
0.0
 20
0.0
 30
0.0
  0
VERTEX
  5
12C
330
12B
100
AcDbEntity
  8
_U+30EC_U+30A4_U+30E4_U+30FC 1
370
     0
100
AcDbVertex
100
AcDb2dVertex
 10
101.7632975006008
 20
-138.8607747048681
 30
0.0
  0
VERTEX
  5
12D
330
12B
100
AcDbEntity
  8
_U+30EC_U+30A4_U+30E4_U+30FC 1
370
     0
100
AcDbVertex
100
AcDb2dVertex
 10
101.3044107819656
 20
-138.8607747048681
 30
0.0
  0
VERTEX
  5
12E
330
12B
100
AcDbEntity
  8
_U+30EC_U+30A4_U+30E4_U+30FC 1
370
     0
100
AcDbVertex
100
AcDb2dVertex
 10
101.3044107819656
 20
-139.1697997698951
 30
0.0
  0
VERTEX
  5
12F
330
12B
100
AcDbEntity
  8
_U+30EC_U+30A4_U+30E4_U+30FC 1
370
     0
100
AcDbVertex
100
AcDb2dVertex
 10
101.7632975006008
 20
-139.1697997698951
 30
0.0
  0
VERTEX
  5
130
330
12B
100
AcDbEntity
  8
_U+30EC_U+30A4_U+30E4_U+30FC 1
370
     0
100
AcDbVertex
100
AcDb2dVertex
 10
101.7632975006008
 20
-138.8607747048681
 30
0.0
  0
SEQEND
  5
131
330
12B
100
AcDbEntity
  8
_U+30EC_U+30A4_U+30E4_U+30FC 1
370
     0
  0
HATCH
  5
132
330
102
100
AcDbEntity
  8
_U+30EC_U+30A4_U+30E4_U+30FC 1
 62
   179
420
  2234388
100
AcDbHatch
 10
0.0
 20
0.0
 30
0.0
210
0.0
220
0.0
230
1.0
  2
SOLID
 70
     1
 71
     0
 91
        5
 92
        1
 93
        1
 72
     4
 94
        3
 73
     0
 74
     1
 95
       77
 96
       73
 40
0.0
 40
0.0
 40
0.0
 40
0.0
 40
1.0
 40
1.0
 40
1.0
 40
2.0
 40
2.0
 40
2.0
 40
3.0
 40
3.0
 40
3.0
 40
4.0
 40
4.0
 40
4.0
 40
5.0
 40
5.0
 40
5.0
 40
6.0
 40
6.0
 40
6.0
 40
7.0
 40
7.0
 40
7.0
 40
8.0
 40
8.0
 40
8.0
 40
9.0
 40
9.0
 40
9.0
 40
10.0
 40
10.0
 40
10.0
 40
11.0
 40
11.0
 40
11.0
 40
12.0
 40
12.0
 40
12.0
 40
13.0
 40
13.0
 40
13.0
 40
14.0
 40
14.0
 40
14.0
 40
15.0
 40
15.0
 40
15.0
 40
16.0
 40
16.0
 40
16.0
 40
17.0
 40
17.0
 40
17.0
 40
18.0
 40
18.0
 40
18.0
 40
19.0
 40
19.0
 40
19.0
 40
20.0
 40
20.0
 40
20.0
 40
21.0
 40
21.0
 40
21.0
 40
22.0
 40
22.0
 40
22.0
 40
23.0
 40
23.0
 40
23.0
 40
24.0
 40
24.0
 40
24.0
 40
24.0
 10
101.8986897531712
 20
-139.975607603895
 10
101.8521809641203
 20
-140.0011013104858
 10
101.7274685075542
 20
-140.0138481637813
 10
101.6489203304906
 20
-140.0138481637813
 10
101.6365179867437
 20
-140.0138481637813
 10
101.6110242801528
 20
-140.0138481637813
 10
101.5772623443974
 20
-140.009714049199
 10
101.5772623443974
 20
-140.009714049199
 10
101.4797661421648
 20
-139.783371275818
 10
101.4797661421648
 20
-139.783371275818
 10
101.5093939633379
 20
-139.7895724476915
 10
101.5665825483931
 20
-139.7981851864046
 10
101.682682266246
 20
-139.7981851864046
 10
101.7612304433097
 20
-139.7981851864046
 10
101.7632975006008
 20
-139.7558105119361
 10
101.7632975006008
 20
-139.6986219268809
 10
101.7632975006008
 20
-139.6986219268809
 10
101.7632975006008
 20
-139.3496337542251
 10
101.7632975006008
 20
-139.3496337542251
 10
101.7632975006008
 20
-139.3496337542251
 10
101.3044107819656
 20
-139.3496337542251
 10
101.3044107819656
 20
-139.3496337542251
 10
101.3064778392567
 20
-139.4870930640866
 10
101.3085448965479
 20
-139.6858750735855
 10
101.3147460684213
 20
-139.8192002688646
 10
101.3168131257125
 20
-139.8467610327467
 10
101.3168131257125
 20
-139.8912027645064
 10
101.3295599790079
 20
-139.9525254641438
 10
101.3295599790079
 20
-139.9525254641438
 10
101.0884032950404
 20
-139.9525254641438
 10
101.0884032950404
 20
-139.9525254641438
 10
101.1138970016313
 20
-139.8278130075778
 10
101.1138970016313
 20
-139.4870930640866
 10
101.1138970016313
 20
-139.3496337542251
 10
101.1138970016313
 20
-139.3496337542251
 10
100.6718912508737
 20
-139.3496337542251
 10
100.6718912508737
 20
-139.3496337542251
 10
100.648464601574
 20
-139.5570285024371
 10
100.5830077873542
 20
-139.8254014407381
 10
100.385948325598
 20
-140.009714049199
 10
100.385948325598
 20
-140.009714049199
 10
100.1978461121033
 20
-139.8870686499241
 10
100.1978461121033
 20
-139.8870686499241
 10
100.4517496493662
 20
-139.6669270484166
 10
100.4834445278305
 20
-139.3348198436385
 10
100.4834445278305
 20
-139.0027126388604
 10
100.4834445278305
 20
-139.0027126388604
 10
100.4834445278305
 20
-138.5669080599763
 10
100.4834445278305
 20
-138.5669080599763
 10
100.4834445278305
 20
-138.5307345573812
 10
100.4813774705394
 20
-138.2981906121269
 10
100.4727647318263
 20
-138.196560295312
 10
100.6126356085274
 20
-138.2072400913163
 10
100.8537922924949
 20
-138.2072400913163
 10
100.9974527742298
 20
-138.2072400913163
 10
100.9974527742298
 20
-138.2072400913163
 10
101.4566840024136
 20
-138.2072400913163
 10
101.4566840024136
 20
-138.2072400913163
 10
101.4711534034517
 20
-138.2072400913163
 10
101.820486085656
 20
-138.2072400913163
 10
101.9789604779775
 20
-138.196560295312
 10
101.9768934206863
 20
-138.2496147657848
 10
101.9706922488129
 20
-138.4101562153975
 10
101.9706922488129
 20
-138.4611436285792
 10
101.9706922488129
 20
-138.4611436285792
 10
101.9706922488129
 20
-139.0681694530802
 10
101.9706922488129
 20
-139.0681694530802
 10
101.9706922488129
 20
-139.0871174782491
 10
101.9810275352686
 20
-139.6583143097035
 10
101.9810275352686
 20
-139.7706244225226
 10
101.9810275352686
 20
-139.8278130075778
 10
101.9810275352686
 20
-139.9290988148441
 10
101.8986897531712
 20
-139.975607603895
 97
        0
 97
        0
 92
        1
 93
        4
 72
     1
 10
101.1138970016313
 20
-138.3891411329375
 11
100.676025365456
 21
-138.3891411329375
 72
     1
 10
100.676025365456
 20
-138.3891411329375
 11
100.676025365456
 21
-138.6936875738335
 72
     1
 10
100.676025365456
 20
-138.6936875738335
 11
101.1138970016313
 21
-138.6936875738335
 72
     1
 10
101.1138970016313
 20
-138.6936875738335
 11
101.1138970016313
 21
-138.3891411329375
 97
        0
 92
        1
 93
        4
 72
     1
 10
101.1138970016313
 20
-138.8607747048681
 11
100.676025365456
 21
-138.8607747048681
 72
     1
 10
100.676025365456
 20
-138.8607747048681
 11
100.676025365456
 21
-139.1697997698951
 72
     1
 10
100.676025365456
 20
-139.1697997698951
 11
101.1138970016313
 21
-139.1697997698951
 72
     1
 10
101.1138970016313
 20
-139.1697997698951
 11
101.1138970016313
 21
-138.8607747048681
 97
        0
 92
        1
 93
        4
 72
     1
 10
101.7632975006008
 20
-138.3891411329375
 11
101.3044107819656
 21
-138.3891411329375
 72
     1
 10
101.3044107819656
 20
-138.3891411329375
 11
101.3044107819656
 21
-138.6936875738335
 72
     1
 10
101.3044107819656
 20
-138.6936875738335
 11
101.7632975006008
 21
-138.6936875738335
 72
     1
 10
101.7632975006008
 20
-138.6936875738335
 11
101.7632975006008
 21
-138.3891411329375
 97
        0
 92
        1
 93
        4
 72
     1
 10
101.7632975006008
 20
-138.8607747048681
 11
101.3044107819656
 21
-138.8607747048681
 72
     1
 10
101.3044107819656
 20
-138.8607747048681
 11
101.3044107819656
 21
-139.1697997698951
 72
     1
 10
101.3044107819656
 20
-139.1697997698951
 11
101.7632975006008
 21
-139.1697997698951
 72
     1
 10
101.7632975006008
 20
-139.1697997698951
 11
101.7632975006008
 21
-138.8607747048681
 97
        0
 75
     2
 76
     1
 98
        0
  0
SPLINE
  5
133
330
102
100
AcDbEntity
  8
_U+30EC_U+30A4_U+30E4_U+30FC 1
370
     0
100
AcDbSpline
210
0.0
220
0.0
230
1.0
 70
    11
 71
     3
 72
    44
 73
    40
 74
     0
 42
0.0000000001
 43
0.0000000001
 12
1.0
 22
0.0
 32
0.0
 13
1.0
 23
0.0
 33
0.0
 40
0.0
 40
0.0
 40
0.0
 40
0.0
 40
1.0
 40
1.0
 40
1.0
 40
2.0
 40
2.0
 40
2.0
 40
3.0
 40
3.0
 40
3.0
 40
4.0
 40
4.0
 40
4.0
 40
5.0
 40
5.0
 40
5.0
 40
6.0
 40
6.0
 40
6.0
 40
7.0
 40
7.0
 40
7.0
 40
8.0
 40
8.0
 40
8.0
 40
9.0
 40
9.0
 40
9.0
 40
10.0
 40
10.0
 40
10.0
 40
11.0
 40
11.0
 40
11.0
 40
12.0
 40
12.0
 40
12.0
 40
13.0
 40
13.0
 40
13.0
 40
13.0
 10
103.7762667926323
 20
-138.7253824522978
 30
0.0
 10
103.6643011893617
 20
-139.093663159671
 30
0.0
 10
103.61331377618
 20
-139.2521375519925
 30
0.0
 10
103.4165988239723
 20
-139.5019069746731
 30
0.0
 10
103.2326307250599
 20
-139.7323838626364
 30
0.0
 10
102.9956081556747
 20
-139.9187635283884
 30
0.0
 10
102.716210911821
 20
-140.0117811064901
 30
0.0
 10
102.716210911821
 20
-140.0117811064901
 30
0.0
 10
102.523974583744
 20
-139.8319471221601
 30
0.0
 10
102.523974583744
 20
-139.8319471221601
 30
0.0
 10
103.1647623440005
 20
-139.679673901712
 30
0.0
 10
103.4948024914874
 20
-139.1232909808442
 30
0.0
 10
103.558192248416
 20
-138.6833522873778
 30
0.0
 10
103.558192248416
 20
-138.6833522873778
 30
0.0
 10
102.7926920315935
 20
-138.6833522873778
 30
0.0
 10
102.7926920315935
 20
-138.6833522873778
 30
0.0
 10
102.6996744534918
 20
-138.6833522873778
 30
0.0
 10
102.5153618450309
 20
-138.6874864019601
 30
0.0
 10
102.358610000452
 20
-138.706434427129
 30
0.0
 10
102.358610000452
 20
-138.706434427129
 30
0.0
 10
102.358610000452
 20
-138.4862928256215
 30
0.0
 10
102.358610000452
 20
-138.4862928256215
 30
0.0
 10
102.4454264066803
 20
-138.50765241763
 30
0.0
 10
102.6972628866521
 20
-138.50765241763
 30
0.0
 10
102.7968261461758
 20
-138.50765241763
 30
0.0
 10
102.7968261461758
 20
-138.50765241763
 30
0.0
 10
103.2281521009291
 20
-138.50765241763
 30
0.0
 10
103.2281521009291
 20
-138.50765241763
 30
0.0
 10
103.2708712849462
 20
-138.50765241763
 30
0.0
 10
103.5054822874917
 20
-138.5055853603389
 30
0.0
 10
103.543722847378
 20
-138.4990396789169
 30
0.0
 10
103.585753012298
 20
-138.4928385070435
 30
0.0
 10
103.5878200695892
 20
-138.4907714497523
 30
0.0
 10
103.6491427692266
 20
-138.4504638325749
 30
0.0
 10
103.6491427692266
 20
-138.4504638325749
 30
0.0
 10
103.8375894922698
 20
-138.6048041103141
 30
0.0
 10
103.8375894922698
 20
-138.6048041103141
 30
0.0
 10
103.8079616710966
 20
-138.6344319314872
 30
0.0
 10
103.7931477605101
 20
-138.6661268099515
 30
0.0
 10
103.7762667926323
 20
-138.7253824522978
 30
0.0
  0
SPLINE
  5
134
330
102
100
AcDbEntity
  8
_U+30EC_U+30A4_U+30E4_U+30FC 1
370
     0
100
AcDbSpline
210
0.0
220
0.0
230
1.0
 70
    11
 71
     3
 72
    17
 73
    13
 74
     0
 42
0.0000000001
 43
0.0000000001
 12
1.0
 22
0.0
 32
0.0
 13
1.0
 23
0.0
 33
0.0
 40
0.0
 40
0.0
 40
0.0
 40
0.0
 40
1.0
 40
1.0
 40
1.0
 40
2.0
 40
2.0
 40
2.0
 40
3.0
 40
3.0
 40
3.0
 40
4.0
 40
4.0
 40
4.0
 40
4.0
 10
103.9857285981355
 20
-138.5266004427989
 30
0.0
 10
103.8586045747298
 20
-138.5266004427989
 30
0.0
 10
103.7573187674635
 20
-138.424970125984
 30
0.0
 10
103.7573187674635
 20
-138.2981906121269
 30
0.0
 10
103.7573187674635
 20
-138.1714110982697
 30
0.0
 10
103.8586045747298
 20
-138.0677137241636
 30
0.0
 10
103.9857285981355
 20
-138.0677137241636
 30
0.0
 10
104.1128526215412
 20
-138.0677137241636
 30
0.0
 10
104.2162054860987
 20
-138.1714110982697
 30
0.0
 10
104.2162054860987
 20
-138.2981906121269
 30
0.0
 10
104.2162054860987
 20
-138.424970125984
 30
0.0
 10
104.1128526215412
 20
-138.5266004427989
 30
0.0
 10
103.9857285981355
 20
-138.5266004427989
 30
0.0
  0
SPLINE
  5
135
330
102
100
AcDbEntity
  8
_U+30EC_U+30A4_U+30E4_U+30FC 1
370
     0
100
AcDbSpline
210
0.0
220
0.0
230
1.0
 70
    11
 71
     3
 72
    17
 73
    13
 74
     0
 42
0.0000000001
 43
0.0000000001
 12
1.0
 22
0.0
 32
0.0
 13
1.0
 23
0.0
 33
0.0
 40
0.0
 40
0.0
 40
0.0
 40
0.0
 40
1.0
 40
1.0
 40
1.0
 40
2.0
 40
2.0
 40
2.0
 40
3.0
 40
3.0
 40
3.0
 40
4.0
 40
4.0
 40
4.0
 40
4.0
 10
103.9833170312958
 20
-138.196560295312
 30
0.0
 10
103.9285400130804
 20
-138.196560295312
 30
0.0
 10
103.8840982813206
 20
-138.2410020270717
 30
0.0
 10
103.8840982813206
 20
-138.2961235548357
 30
0.0
 10
103.8840982813206
 20
-138.3533121398908
 30
0.0
 10
103.9285400130804
 20
-138.4018879862329
 30
0.0
 10
103.9877956554267
 20
-138.4018879862329
 30
0.0
 10
104.047051297773
 20
-138.4018879862329
 30
0.0
 10
104.0873589149504
 20
-138.3509005730512
 30
0.0
 10
104.0873589149504
 20
-138.2981906121269
 30
0.0
 10
104.0873589149504
 20
-138.2410020270717
 30
0.0
 10
104.040505616351
 20
-138.196560295312
 30
0.0
 10
103.9833170312958
 20
-138.196560295312
 30
0.0
  0
HATCH
  5
136
330
102
100
AcDbEntity
  8
_U+30EC_U+30A4_U+30E4_U+30FC 1
 62
   179
420
  2234388
100
AcDbHatch
 10
0.0
 20
0.0
 30
0.0
210
0.0
220
0.0
230
1.0
  2
SOLID
 70
     1
 71
     0
 91
        3
 92
        1
 93
        1
 72
     4
 94
        3
 73
     0
 74
     1
 95
       44
 96
       40
 40
0.0
 40
0.0
 40
0.0
 40
0.0
 40
1.0
 40
1.0
 40
1.0
 40
2.0
 40
2.0
 40
2.0
 40
3.0
 40
3.0
 40
3.0
 40
4.0
 40
4.0
 40
4.0
 40
5.0
 40
5.0
 40
5.0
 40
6.0
 40
6.0
 40
6.0
 40
7.0
 40
7.0
 40
7.0
 40
8.0
 40
8.0
 40
8.0
 40
9.0
 40
9.0
 40
9.0
 40
10.0
 40
10.0
 40
10.0
 40
11.0
 40
11.0
 40
11.0
 40
12.0
 40
12.0
 40
12.0
 40
13.0
 40
13.0
 40
13.0
 40
13.0
 10
103.7762667926323
 20
-138.7253824522978
 10
103.6643011893617
 20
-139.093663159671
 10
103.61331377618
 20
-139.2521375519925
 10
103.4165988239723
 20
-139.5019069746731
 10
103.2326307250599
 20
-139.7323838626364
 10
102.9956081556747
 20
-139.9187635283884
 10
102.716210911821
 20
-140.0117811064901
 10
102.716210911821
 20
-140.0117811064901
 10
102.523974583744
 20
-139.8319471221601
 10
102.523974583744
 20
-139.8319471221601
 10
103.1647623440005
 20
-139.679673901712
 10
103.4948024914874
 20
-139.1232909808442
 10
103.558192248416
 20
-138.6833522873778
 10
103.558192248416
 20
-138.6833522873778
 10
102.7926920315935
 20
-138.6833522873778
 10
102.7926920315935
 20
-138.6833522873778
 10
102.6996744534918
 20
-138.6833522873778
 10
102.5153618450309
 20
-138.6874864019601
 10
102.358610000452
 20
-138.706434427129
 10
102.358610000452
 20
-138.706434427129
 10
102.358610000452
 20
-138.4862928256215
 10
102.358610000452
 20
-138.4862928256215
 10
102.4454264066803
 20
-138.50765241763
 10
102.6972628866521
 20
-138.50765241763
 10
102.7968261461758
 20
-138.50765241763
 10
102.7968261461758
 20
-138.50765241763
 10
103.2281521009291
 20
-138.50765241763
 10
103.2281521009291
 20
-138.50765241763
 10
103.2708712849462
 20
-138.50765241763
 10
103.5054822874917
 20
-138.5055853603389
 10
103.543722847378
 20
-138.4990396789169
 10
103.585753012298
 20
-138.4928385070435
 10
103.5878200695892
 20
-138.4907714497523
 10
103.6491427692266
 20
-138.4504638325749
 10
103.6491427692266
 20
-138.4504638325749
 10
103.8375894922698
 20
-138.6048041103141
 10
103.8375894922698
 20
-138.6048041103141
 10
103.8079616710966
 20
-138.6344319314872
 10
103.7931477605101
 20
-138.6661268099515
 10
103.7762667926323
 20
-138.7253824522978
 97
        0
 97
        0
 92
        1
 93
        1
 72
     4
 94
        3
 73
     0
 74
     1
 95
       17
 96
       13
 40
0.0
 40
0.0
 40
0.0
 40
0.0
 40
1.0
 40
1.0
 40
1.0
 40
2.0
 40
2.0
 40
2.0
 40
3.0
 40
3.0
 40
3.0
 40
4.0
 40
4.0
 40
4.0
 40
4.0
 10
103.9857285981355
 20
-138.5266004427989
 10
103.8586045747298
 20
-138.5266004427989
 10
103.7573187674635
 20
-138.424970125984
 10
103.7573187674635
 20
-138.2981906121269
 10
103.7573187674635
 20
-138.1714110982697
 10
103.8586045747298
 20
-138.0677137241636
 10
103.9857285981355
 20
-138.0677137241636
 10
104.1128526215412
 20
-138.0677137241636
 10
104.2162054860987
 20
-138.1714110982697
 10
104.2162054860987
 20
-138.2981906121269
 10
104.2162054860987
 20
-138.424970125984
 10
104.1128526215412
 20
-138.5266004427989
 10
103.9857285981355
 20
-138.5266004427989
 97
        0
 97
        0
 92
        1
 93
        1
 72
     4
 94
        3
 73
     0
 74
     1
 95
       17
 96
       13
 40
0.0
 40
0.0
 40
0.0
 40
0.0
 40
1.0
 40
1.0
 40
1.0
 40
2.0
 40
2.0
 40
2.0
 40
3.0
 40
3.0
 40
3.0
 40
4.0
 40
4.0
 40
4.0
 40
4.0
 10
103.9833170312958
 20
-138.196560295312
 10
103.9285400130804
 20
-138.196560295312
 10
103.8840982813206
 20
-138.2410020270717
 10
103.8840982813206
 20
-138.2961235548357
 10
103.8840982813206
 20
-138.3533121398908
 10
103.9285400130804
 20
-138.4018879862329
 10
103.9877956554267
 20
-138.4018879862329
 10
104.047051297773
 20
-138.4018879862329
 10
104.0873589149504
 20
-138.3509005730512
 10
104.0873589149504
 20
-138.2981906121269
 10
104.0873589149504
 20
-138.2410020270717
 10
104.040505616351
 20
-138.196560295312
 10
103.9833170312958
 20
-138.196560295312
 97
        0
 97
        0
 75
     2
 76
     1
 98
        0
  0
SPLINE
  5
137
330
102
100
AcDbEntity
  8
_U+30EC_U+30A4_U+30E4_U+30FC 1
370
     0
100
AcDbSpline
210
0.0
220
0.0
230
1.0
 70
    11
 71
     3
 72
    50
 73
    46
 74
     0
 42
0.0000000001
 43
0.0000000001
 12
1.0
 22
0.0
 32
0.0
 13
1.0
 23
0.0
 33
0.0
 40
0.0
 40
0.0
 40
0.0
 40
0.0
 40
1.0
 40
1.0
 40
1.0
 40
2.0
 40
2.0
 40
2.0
 40
3.0
 40
3.0
 40
3.0
 40
4.0
 40
4.0
 40
4.0
 40
5.0
 40
5.0
 40
5.0
 40
6.0
 40
6.0
 40
6.0
 40
7.0
 40
7.0
 40
7.0
 40
8.0
 40
8.0
 40
8.0
 40
9.0
 40
9.0
 40
9.0
 40
10.0
 40
10.0
 40
10.0
 40
11.0
 40
11.0
 40
11.0
 40
12.0
 40
12.0
 40
12.0
 40
13.0
 40
13.0
 40
13.0
 40
14.0
 40
14.0
 40
14.0
 40
15.0
 40
15.0
 40
15.0
 40
15.0
 10
105.7809678554992
 20
-139.0344075173248
 30
0.0
 10
105.7024196784355
 20
-139.2121744443636
 30
0.0
 10
105.5666829163167
 20
-139.4192246830272
 30
0.0
 10
105.4295681160037
 20
-139.5590955597283
 30
0.0
 10
105.2600694181294
 20
-139.7303168053452
 30
0.0
 10
105.0974609112256
 20
-139.8192002688646
 30
0.0
 10
104.7777560501945
 20
-139.9607936933084
 30
0.0
 10
104.7777560501945
 20
-139.9607936933084
 30
0.0
 10
104.6089463714172
 20
-139.7726914798138
 30
0.0
 10
104.6089463714172
 20
-139.7726914798138
 30
0.0
 10
104.7949815276207
 20
-139.7492648305141
 30
0.0
 10
104.9658582636891
 20
-139.6627929338343
 30
0.0
 10
105.1188205032342
 20
-139.5570285024371
 30
0.0
 10
105.3806477601132
 20
-139.3751274608159
 30
0.0
 10
105.571506049996
 20
-139.0619682812067
 30
0.0
 10
105.6197373867895
 20
-138.8800672395855
 30
0.0
 10
105.6197373867895
 20
-138.8800672395855
 30
0.0
 10
104.9493218053599
 20
-138.8800672395855
 30
0.0
 10
104.9493218053599
 20
-138.8800672395855
 30
0.0
 10
104.7908474130384
 20
-138.8800672395855
 30
0.0
 10
104.4987033158892
 20
-138.8883354687501
 30
0.0
 10
104.3464300954412
 20
-138.9052164366279
 30
0.0
 10
104.3464300954412
 20
-138.9052164366279
 30
0.0
 10
104.3464300954412
 20
-138.6768066059558
 30
0.0
 10
104.3464300954412
 20
-138.6768066059558
 30
0.0
 10
104.3801920311966
 20
-138.6833522873778
 30
0.0
 10
104.4056857377875
 20
-138.6895534592512
 30
0.0
 10
104.4587402082603
 20
-138.6936875738335
 30
0.0
 10
104.5600260155267
 20
-138.7002332552555
 30
0.0
 10
104.757085477283
 20
-138.7023003125466
 30
0.0
 10
104.8411458071231
 20
-138.7023003125466
 30
0.0
 10
104.8411458071231
 20
-138.7023003125466
 30
0.0
 10
105.3468858243577
 20
-138.7023003125466
 30
0.0
 10
105.3468858243577
 20
-138.7023003125466
 30
0.0
 10
105.4144096958686
 20
-138.7023003125466
 30
0.0
 10
105.5604817444432
 20
-138.6981661979644
 30
0.0
 10
105.6218044440807
 20
-138.6916205165424
 30
0.0
 10
105.6941514492709
 20
-138.6833522873778
 30
0.0
 10
105.7217122131529
 20
-138.6685383767912
 30
0.0
 10
105.7554741489084
 20
-138.6451117274915
 30
0.0
 10
105.7554741489084
 20
-138.6451117274915
 30
0.0
 10
105.9201497131033
 20
-138.8121988585261
 30
0.0
 10
105.9201497131033
 20
-138.8121988585261
 30
0.0
 10
105.8505587843013
 20
-138.8800672395855
 30
0.0
 10
105.8037054857019
 20
-138.9837646136916
 30
0.0
 10
105.7809678554992
 20
-139.0344075173248
 30
0.0
  0
SPLINE
  5
138
330
102
100
AcDbEntity
  8
_U+30EC_U+30A4_U+30E4_U+30FC 1
370
     0
100
AcDbSpline
210
0.0
220
0.0
230
1.0
 70
    11
 71
     3
 72
    29
 73
    25
 74
     0
 42
0.0000000001
 43
0.0000000001
 12
1.0
 22
0.0
 32
0.0
 13
1.0
 23
0.0
 33
0.0
 40
0.0
 40
0.0
 40
0.0
 40
0.0
 40
1.0
 40
1.0
 40
1.0
 40
2.0
 40
2.0
 40
2.0
 40
3.0
 40
3.0
 40
3.0
 40
4.0
 40
4.0
 40
4.0
 40
5.0
 40
5.0
 40
5.0
 40
6.0
 40
6.0
 40
6.0
 40
7.0
 40
7.0
 40
7.0
 40
8.0
 40
8.0
 40
8.0
 40
8.0
 10
105.2876301820114
 20
-138.4080891581063
 30
0.0
 10
105.2876301820114
 20
-138.4080891581063
 30
0.0
 10
104.9472547480687
 20
-138.4080891581063
 30
0.0
 10
104.9472547480687
 20
-138.4080891581063
 30
0.0
 10
104.8328775779585
 20
-138.4080891581063
 30
0.0
 10
104.716433350557
 20
-138.4125677822371
 30
0.0
 10
104.6020561804467
 20
-138.4273816928237
 30
0.0
 10
104.6020561804467
 20
-138.4273816928237
 30
0.0
 10
104.6020561804467
 20
-138.2179198873205
 30
0.0
 10
104.6020561804467
 20
-138.2179198873205
 30
0.0
 10
104.7205674651393
 20
-138.2327337979071
 30
0.0
 10
104.8942002775959
 20
-138.2368679124894
 30
0.0
 10
104.9472547480687
 20
-138.2368679124894
 30
0.0
 10
104.9472547480687
 20
-138.2368679124894
 30
0.0
 10
105.2876301820114
 20
-138.2368679124894
 30
0.0
 10
105.2876301820114
 20
-138.2368679124894
 30
0.0
 10
105.4040744094129
 20
-138.2368679124894
 30
0.0
 10
105.5205186368143
 20
-138.2327337979071
 30
0.0
 10
105.6369628642158
 20
-138.2179198873205
 30
0.0
 10
105.6369628642158
 20
-138.2179198873205
 30
0.0
 10
105.6369628642158
 20
-138.4273816928237
 30
0.0
 10
105.6369628642158
 20
-138.4273816928237
 30
0.0
 10
105.4867567010589
 20
-138.4080891581063
 30
0.0
 10
105.3027886021465
 20
-138.4080891581063
 30
0.0
 10
105.2876301820114
 20
-138.4080891581063
 30
0.0
  0
HATCH
  5
139
330
102
100
AcDbEntity
  8
_U+30EC_U+30A4_U+30E4_U+30FC 1
 62
   179
420
  2234388
100
AcDbHatch
 10
0.0
 20
0.0
 30
0.0
210
0.0
220
0.0
230
1.0
  2
SOLID
 70
     1
 71
     0
 91
        2
 92
        1
 93
        1
 72
     4
 94
        3
 73
     0
 74
     1
 95
       50
 96
       46
 40
0.0
 40
0.0
 40
0.0
 40
0.0
 40
1.0
 40
1.0
 40
1.0
 40
2.0
 40
2.0
 40
2.0
 40
3.0
 40
3.0
 40
3.0
 40
4.0
 40
4.0
 40
4.0
 40
5.0
 40
5.0
 40
5.0
 40
6.0
 40
6.0
 40
6.0
 40
7.0
 40
7.0
 40
7.0
 40
8.0
 40
8.0
 40
8.0
 40
9.0
 40
9.0
 40
9.0
 40
10.0
 40
10.0
 40
10.0
 40
11.0
 40
11.0
 40
11.0
 40
12.0
 40
12.0
 40
12.0
 40
13.0
 40
13.0
 40
13.0
 40
14.0
 40
14.0
 40
14.0
 40
15.0
 40
15.0
 40
15.0
 40
15.0
 10
105.7809678554992
 20
-139.0344075173248
 10
105.7024196784355
 20
-139.2121744443636
 10
105.5666829163167
 20
-139.4192246830272
 10
105.4295681160037
 20
-139.5590955597283
 10
105.2600694181294
 20
-139.7303168053452
 10
105.0974609112256
 20
-139.8192002688646
 10
104.7777560501945
 20
-139.9607936933084
 10
104.7777560501945
 20
-139.9607936933084
 10
104.6089463714172
 20
-139.7726914798138
 10
104.6089463714172
 20
-139.7726914798138
 10
104.7949815276207
 20
-139.7492648305141
 10
104.9658582636891
 20
-139.6627929338343
 10
105.1188205032342
 20
-139.5570285024371
 10
105.3806477601132
 20
-139.3751274608159
 10
105.571506049996
 20
-139.0619682812067
 10
105.6197373867895
 20
-138.8800672395855
 10
105.6197373867895
 20
-138.8800672395855
 10
104.9493218053599
 20
-138.8800672395855
 10
104.9493218053599
 20
-138.8800672395855
 10
104.7908474130384
 20
-138.8800672395855
 10
104.4987033158892
 20
-138.8883354687501
 10
104.3464300954412
 20
-138.9052164366279
 10
104.3464300954412
 20
-138.9052164366279
 10
104.3464300954412
 20
-138.6768066059558
 10
104.3464300954412
 20
-138.6768066059558
 10
104.3801920311966
 20
-138.6833522873778
 10
104.4056857377875
 20
-138.6895534592512
 10
104.4587402082603
 20
-138.6936875738335
 10
104.5600260155267
 20
-138.7002332552555
 10
104.757085477283
 20
-138.7023003125466
 10
104.8411458071231
 20
-138.7023003125466
 10
104.8411458071231
 20
-138.7023003125466
 10
105.3468858243577
 20
-138.7023003125466
 10
105.3468858243577
 20
-138.7023003125466
 10
105.4144096958686
 20
-138.7023003125466
 10
105.5604817444432
 20
-138.6981661979644
 10
105.6218044440807
 20
-138.6916205165424
 10
105.6941514492709
 20
-138.6833522873778
 10
105.7217122131529
 20
-138.6685383767912
 10
105.7554741489084
 20
-138.6451117274915
 10
105.7554741489084
 20
-138.6451117274915
 10
105.9201497131033
 20
-138.8121988585261
 10
105.9201497131033
 20
-138.8121988585261
 10
105.8505587843013
 20
-138.8800672395855
 10
105.8037054857019
 20
-138.9837646136916
 10
105.7809678554992
 20
-139.0344075173248
 97
        0
 97
        0
 92
        1
 93
        1
 72
     4
 94
        3
 73
     0
 74
     1
 95
       29
 96
       25
 40
0.0
 40
0.0
 40
0.0
 40
0.0
 40
1.0
 40
1.0
 40
1.0
 40
2.0
 40
2.0
 40
2.0
 40
3.0
 40
3.0
 40
3.0
 40
4.0
 40
4.0
 40
4.0
 40
5.0
 40
5.0
 40
5.0
 40
6.0
 40
6.0
 40
6.0
 40
7.0
 40
7.0
 40
7.0
 40
8.0
 40
8.0
 40
8.0
 40
8.0
 10
105.2876301820114
 20
-138.4080891581063
 10
105.2876301820114
 20
-138.4080891581063
 10
104.9472547480687
 20
-138.4080891581063
 10
104.9472547480687
 20
-138.4080891581063
 10
104.8328775779585
 20
-138.4080891581063
 10
104.716433350557
 20
-138.4125677822371
 10
104.6020561804467
 20
-138.4273816928237
 10
104.6020561804467
 20
-138.4273816928237
 10
104.6020561804467
 20
-138.2179198873205
 10
104.6020561804467
 20
-138.2179198873205
 10
104.7205674651393
 20
-138.2327337979071
 10
104.8942002775959
 20
-138.2368679124894
 10
104.9472547480687
 20
-138.2368679124894
 10
104.9472547480687
 20
-138.2368679124894
 10
105.2876301820114
 20
-138.2368679124894
 10
105.2876301820114
 20
-138.2368679124894
 10
105.4040744094129
 20
-138.2368679124894
 10
105.5205186368143
 20
-138.2327337979071
 10
105.6369628642158
 20
-138.2179198873205
 10
105.6369628642158
 20
-138.2179198873205
 10
105.6369628642158
 20
-138.4273816928237
 10
105.6369628642158
 20
-138.4273816928237
 10
105.4867567010589
 20
-138.4080891581063
 10
105.3027886021465
 20
-138.4080891581063
 10
105.2876301820114
 20
-138.4080891581063
 97
        0
 97
        0
 75
     2
 76
     1
 98
        0
  0
SPLINE
  5
13A
330
102
100
AcDbEntity
  8
_U+30EC_U+30A4_U+30E4_U+30FC 1
370
     0
100
AcDbSpline
210
0.0
220
0.0
230
1.0
 70
    11
 71
     3
 72
    50
 73
    46
 74
     0
 42
0.0000000001
 43
0.0000000001
 12
1.0
 22
0.0
 32
0.0
 13
1.0
 23
0.0
 33
0.0
 40
0.0
 40
0.0
 40
0.0
 40
0.0
 40
1.0
 40
1.0
 40
1.0
 40
2.0
 40
2.0
 40
2.0
 40
3.0
 40
3.0
 40
3.0
 40
4.0
 40
4.0
 40
4.0
 40
5.0
 40
5.0
 40
5.0
 40
6.0
 40
6.0
 40
6.0
 40
7.0
 40
7.0
 40
7.0
 40
8.0
 40
8.0
 40
8.0
 40
9.0
 40
9.0
 40
9.0
 40
10.0
 40
10.0
 40
10.0
 40
11.0
 40
11.0
 40
11.0
 40
12.0
 40
12.0
 40
12.0
 40
13.0
 40
13.0
 40
13.0
 40
14.0
 40
14.0
 40
14.0
 40
15.0
 40
15.0
 40
15.0
 40
15.0
 10
107.4911132543772
 20
-138.3932752475197
 30
0.0
 10
107.281651448874
 20
-138.6068711676052
 30
0.0
 10
107.2099934627808
 20
-138.6788736632469
 30
0.0
 10
107.0680555287885
 20
-138.7973849479395
 30
0.0
 10
107.0680555287885
 20
-138.7973849479395
 30
0.0
 10
107.0680555287885
 20
-139.3644476648117
 30
0.0
 10
107.0680555287885
 20
-139.3644476648117
 30
0.0
 10
107.0680555287885
 20
-139.5146538279686
 30
0.0
 10
107.074256700662
 20
-139.5336018531374
 30
0.0
 10
107.0783908152443
 20
-139.7113687801763
 30
0.0
 10
107.0804578725354
 20
-139.8426269181643
 30
0.0
 10
107.0866590444089
 20
-139.8912027645064
 30
0.0
 10
107.0935492353794
 20
-139.9504584068527
 30
0.0
 10
107.0935492353794
 20
-139.9504584068527
 30
0.0
 10
106.86686195245
 20
-139.9504584068527
 30
0.0
 10
106.86686195245
 20
-139.9504584068527
 30
0.0
 10
106.8709960670323
 20
-139.906016675093
 30
0.0
 10
106.8751301816146
 20
-139.8595078860421
 30
0.0
 10
106.8751301816146
 20
-139.8508951473289
 30
0.0
 10
106.8751301816146
 20
-139.7706244225226
 30
0.0
 10
106.8799533152939
 20
-139.4192246830272
 30
0.0
 10
106.8799533152939
 20
-139.3475666969339
 30
0.0
 10
106.8799533152939
 20
-139.3475666969339
 30
0.0
 10
106.8799533152939
 20
-138.941389939223
 30
0.0
 10
106.8799533152939
 20
-138.941389939223
 30
0.0
 10
106.6980522736727
 20
-139.066102395789
 30
0.0
 10
106.5030598692076
 20
-139.1760009417685
 30
0.0
 10
106.2997992355778
 20
-139.2628173479968
 30
0.0
 10
106.2997992355778
 20
-139.2628173479968
 30
0.0
 10
106.0972276210451
 20
-139.0998643315445
 30
0.0
 10
106.0972276210451
 20
-139.0998643315445
 30
0.0
 10
106.21987302032
 20
-139.0640353384979
 30
0.0
 10
106.4754991053256
 20
-138.989965785565
 30
0.0
 10
106.8206976729476
 20
-138.733995191011
 30
0.0
 10
107.0363606503243
 20
-138.5751762891409
 30
0.0
 10
107.2285969784012
 20
-138.3870740756463
 30
0.0
 10
107.3808701988492
 20
-138.1669324741388
 30
0.0
 10
107.3808701988492
 20
-138.1669324741388
 30
0.0
 10
107.5737955460232
 20
-138.3109374654223
 30
0.0
 10
107.5737955460232
 20
-138.3109374654223
 30
0.0
 10
107.5861978897701
 20
-138.3216172614266
 30
0.0
 10
107.5944661189347
 20
-138.3360866624646
 30
0.0
 10
107.5944661189347
 20
-138.34883351576
 30
0.0
 10
107.5944661189347
 20
-138.3891411329375
 30
0.0
 10
107.556570068597
 20
-138.3891411329375
 30
0.0
 10
107.4911132543772
 20
-138.3932752475197
 30
0.0
  0
HATCH
  5
13B
330
102
100
AcDbEntity
  8
_U+30EC_U+30A4_U+30E4_U+30FC 1
 62
   179
420
  2234388
100
AcDbHatch
 10
0.0
 20
0.0
 30
0.0
210
0.0
220
0.0
230
1.0
  2
SOLID
 70
     1
 71
     0
 91
        1
 92
        1
 93
        1
 72
     4
 94
        3
 73
     0
 74
     1
 95
       50
 96
       46
 40
0.0
 40
0.0
 40
0.0
 40
0.0
 40
1.0
 40
1.0
 40
1.0
 40
2.0
 40
2.0
 40
2.0
 40
3.0
 40
3.0
 40
3.0
 40
4.0
 40
4.0
 40
4.0
 40
5.0
 40
5.0
 40
5.0
 40
6.0
 40
6.0
 40
6.0
 40
7.0
 40
7.0
 40
7.0
 40
8.0
 40
8.0
 40
8.0
 40
9.0
 40
9.0
 40
9.0
 40
10.0
 40
10.0
 40
10.0
 40
11.0
 40
11.0
 40
11.0
 40
12.0
 40
12.0
 40
12.0
 40
13.0
 40
13.0
 40
13.0
 40
14.0
 40
14.0
 40
14.0
 40
15.0
 40
15.0
 40
15.0
 40
15.0
 10
107.4911132543772
 20
-138.3932752475197
 10
107.281651448874
 20
-138.6068711676052
 10
107.2099934627808
 20
-138.6788736632469
 10
107.0680555287885
 20
-138.7973849479395
 10
107.0680555287885
 20
-138.7973849479395
 10
107.0680555287885
 20
-139.3644476648117
 10
107.0680555287885
 20
-139.3644476648117
 10
107.0680555287885
 20
-139.5146538279686
 10
107.074256700662
 20
-139.5336018531374
 10
107.0783908152443
 20
-139.7113687801763
 10
107.0804578725354
 20
-139.8426269181643
 10
107.0866590444089
 20
-139.8912027645064
 10
107.0935492353794
 20
-139.9504584068527
 10
107.0935492353794
 20
-139.9504584068527
 10
106.86686195245
 20
-139.9504584068527
 10
106.86686195245
 20
-139.9504584068527
 10
106.8709960670323
 20
-139.906016675093
 10
106.8751301816146
 20
-139.8595078860421
 10
106.8751301816146
 20
-139.8508951473289
 10
106.8751301816146
 20
-139.7706244225226
 10
106.8799533152939
 20
-139.4192246830272
 10
106.8799533152939
 20
-139.3475666969339
 10
106.8799533152939
 20
-139.3475666969339
 10
106.8799533152939
 20
-138.941389939223
 10
106.8799533152939
 20
-138.941389939223
 10
106.6980522736727
 20
-139.066102395789
 10
106.5030598692076
 20
-139.1760009417685
 10
106.2997992355778
 20
-139.2628173479968
 10
106.2997992355778
 20
-139.2628173479968
 10
106.0972276210451
 20
-139.0998643315445
 10
106.0972276210451
 20
-139.0998643315445
 10
106.21987302032
 20
-139.0640353384979
 10
106.4754991053256
 20
-138.989965785565
 10
106.8206976729476
 20
-138.733995191011
 10
107.0363606503243
 20
-138.5751762891409
 10
107.2285969784012
 20
-138.3870740756463
 10
107.3808701988492
 20
-138.1669324741388
 10
107.3808701988492
 20
-138.1669324741388
 10
107.5737955460232
 20
-138.3109374654223
 10
107.5737955460232
 20
-138.3109374654223
 10
107.5861978897701
 20
-138.3216172614266
 10
107.5944661189347
 20
-138.3360866624646
 10
107.5944661189347
 20
-138.34883351576
 10
107.5944661189347
 20
-138.3891411329375
 10
107.556570068597
 20
-138.3891411329375
 10
107.4911132543772
 20
-138.3932752475197
 97
        0
 97
        0
 75
     2
 76
     1
 98
        0
  0
SPLINE
  5
13C
330
102
100
AcDbEntity
  8
_U+30EC_U+30A4_U+30E4_U+30FC 1
370
     0
100
AcDbSpline
210
0.0
220
0.0
230
1.0
 70
    11
 71
     3
 72
    50
 73
    46
 74
     0
 42
0.0000000001
 43
0.0000000001
 12
1.0
 22
0.0
 32
0.0
 13
1.0
 23
0.0
 33
0.0
 40
0.0
 40
0.0
 40
0.0
 40
0.0
 40
1.0
 40
1.0
 40
1.0
 40
2.0
 40
2.0
 40
2.0
 40
3.0
 40
3.0
 40
3.0
 40
4.0
 40
4.0
 40
4.0
 40
5.0
 40
5.0
 40
5.0
 40
6.0
 40
6.0
 40
6.0
 40
7.0
 40
7.0
 40
7.0
 40
8.0
 40
8.0
 40
8.0
 40
9.0
 40
9.0
 40
9.0
 40
10.0
 40
10.0
 40
10.0
 40
11.0
 40
11.0
 40
11.0
 40
12.0
 40
12.0
 40
12.0
 40
13.0
 40
13.0
 40
13.0
 40
14.0
 40
14.0
 40
14.0
 40
15.0
 40
15.0
 40
15.0
 40
15.0
 10
109.1991915959641
 20
-138.9200303472144
 30
0.0
 10
109.1378688963267
 20
-138.9920328428562
 30
0.0
 10
108.8774196776418
 20
-139.3093261370477
 30
0.0
 10
108.8209201116837
 20
-139.3727158939763
 30
0.0
 10
108.9049804415238
 20
-139.4702120962089
 30
0.0
 10
108.9559678547055
 20
-139.5336018531374
 30
0.0
 10
109.0214246689252
 20
-139.624552373948
 30
0.0
 10
109.0214246689252
 20
-139.624552373948
 30
0.0
 10
108.8374565700129
 20
-139.7620116838095
 30
0.0
 10
108.8374565700129
 20
-139.7620116838095
 30
0.0
 10
108.7024088269911
 20
-139.5504828210152
 30
0.0
 10
108.5308430718256
 20
-139.3262071049254
 30
0.0
 10
108.2366319173853
 20
-139.1274250954265
 30
0.0
 10
108.2366319173853
 20
-139.1274250954265
 30
0.0
 10
108.384771023251
 20
-138.9730848176873
 30
0.0
 10
108.384771023251
 20
-138.9730848176873
 30
0.0
 10
108.495014078779
 20
-139.0533555424936
 30
0.0
 10
108.5983669433365
 20
-139.1422390060131
 30
0.0
 10
108.6955186360206
 20
-139.237323641406
 30
0.0
 10
108.7637315266285
 20
-139.1611870311819
 30
0.0
 10
108.9663031411612
 20
-138.9179632899233
 30
0.0
 10
109.0999728459889
 20
-138.6895534592512
 30
0.0
 10
109.0999728459889
 20
-138.6895534592512
 30
0.0
 10
108.4268011881711
 20
-138.6895534592512
 30
0.0
 10
108.4268011881711
 20
-138.6895534592512
 30
0.0
 10
108.302088731605
 20
-138.6895534592512
 30
0.0
 10
108.0505967611818
 20
-138.6981661979644
 30
0.0
 10
107.8411349556786
 20
-138.7085014844201
 30
0.0
 10
107.8411349556786
 20
-138.7085014844201
 30
0.0
 10
107.8411349556786
 20
-138.4887043924612
 30
0.0
 10
107.8411349556786
 20
-138.4887043924612
 30
0.0
 10
108.025103054591
 20
-138.50765241763
 30
0.0
 10
108.2304307455118
 20
-138.5117865322123
 30
0.0
 10
108.4185329590065
 20
-138.5117865322123
 30
0.0
 10
108.4185329590065
 20
-138.5117865322123
 30
0.0
 10
108.92220591895
 20
-138.5117865322123
 30
0.0
 10
108.92220591895
 20
-138.5117865322123
 30
0.0
 10
109.2605142956015
 20
-138.5117865322123
 30
0.0
 10
109.3053005369098
 20
-138.4969726216258
 30
0.0
 10
109.3872938094587
 20
-138.4566650044484
 30
0.0
 10
109.3872938094587
 20
-138.4566650044484
 30
0.0
 10
109.5547254500419
 20
-138.6154839063184
 30
0.0
 10
109.5547254500419
 20
-138.6154839063184
 30
0.0
 10
109.4024522295938
 20
-138.6874864019601
 30
0.0
 10
109.2584472383104
 20
-138.8504394184124
 30
0.0
 10
109.1991915959641
 20
-138.9200303472144
 30
0.0
  0
HATCH
  5
13D
330
102
100
AcDbEntity
  8
_U+30EC_U+30A4_U+30E4_U+30FC 1
 62
   179
420
  2234388
100
AcDbHatch
 10
0.0
 20
0.0
 30
0.0
210
0.0
220
0.0
230
1.0
  2
SOLID
 70
     1
 71
     0
 91
        1
 92
        1
 93
        1
 72
     4
 94
        3
 73
     0
 74
     1
 95
       50
 96
       46
 40
0.0
 40
0.0
 40
0.0
 40
0.0
 40
1.0
 40
1.0
 40
1.0
 40
2.0
 40
2.0
 40
2.0
 40
3.0
 40
3.0
 40
3.0
 40
4.0
 40
4.0
 40
4.0
 40
5.0
 40
5.0
 40
5.0
 40
6.0
 40
6.0
 40
6.0
 40
7.0
 40
7.0
 40
7.0
 40
8.0
 40
8.0
 40
8.0
 40
9.0
 40
9.0
 40
9.0
 40
10.0
 40
10.0
 40
10.0
 40
11.0
 40
11.0
 40
11.0
 40
12.0
 40
12.0
 40
12.0
 40
13.0
 40
13.0
 40
13.0
 40
14.0
 40
14.0
 40
14.0
 40
15.0
 40
15.0
 40
15.0
 40
15.0
 10
109.1991915959641
 20
-138.9200303472144
 10
109.1378688963267
 20
-138.9920328428562
 10
108.8774196776418
 20
-139.3093261370477
 10
108.8209201116837
 20
-139.3727158939763
 10
108.9049804415238
 20
-139.4702120962089
 10
108.9559678547055
 20
-139.5336018531374
 10
109.0214246689252
 20
-139.624552373948
 10
109.0214246689252
 20
-139.624552373948
 10
108.8374565700129
 20
-139.7620116838095
 10
108.8374565700129
 20
-139.7620116838095
 10
108.7024088269911
 20
-139.5504828210152
 10
108.5308430718256
 20
-139.3262071049254
 10
108.2366319173853
 20
-139.1274250954265
 10
108.2366319173853
 20
-139.1274250954265
 10
108.384771023251
 20
-138.9730848176873
 10
108.384771023251
 20
-138.9730848176873
 10
108.495014078779
 20
-139.0533555424936
 10
108.5983669433365
 20
-139.1422390060131
 10
108.6955186360206
 20
-139.237323641406
 10
108.7637315266285
 20
-139.1611870311819
 10
108.9663031411612
 20
-138.9179632899233
 10
109.0999728459889
 20
-138.6895534592512
 10
109.0999728459889
 20
-138.6895534592512
 10
108.4268011881711
 20
-138.6895534592512
 10
108.4268011881711
 20
-138.6895534592512
 10
108.302088731605
 20
-138.6895534592512
 10
108.0505967611818
 20
-138.6981661979644
 10
107.8411349556786
 20
-138.7085014844201
 10
107.8411349556786
 20
-138.7085014844201
 10
107.8411349556786
 20
-138.4887043924612
 10
107.8411349556786
 20
-138.4887043924612
 10
108.025103054591
 20
-138.50765241763
 10
108.2304307455118
 20
-138.5117865322123
 10
108.4185329590065
 20
-138.5117865322123
 10
108.4185329590065
 20
-138.5117865322123
 10
108.92220591895
 20
-138.5117865322123
 10
108.92220591895
 20
-138.5117865322123
 10
109.2605142956015
 20
-138.5117865322123
 10
109.3053005369098
 20
-138.4969726216258
 10
109.3872938094587
 20
-138.4566650044484
 10
109.3872938094587
 20
-138.4566650044484
 10
109.5547254500419
 20
-138.6154839063184
 10
109.5547254500419
 20
-138.6154839063184
 10
109.4024522295938
 20
-138.6874864019601
 10
109.2584472383104
 20
-138.8504394184124
 10
109.1991915959641
 20
-138.9200303472144
 97
        0
 97
        0
 75
     2
 76
     1
 98
        0
  0
SPLINE
  5
13E
330
102
100
AcDbEntity
  8
_U+30EC_U+30A4_U+30E4_U+30FC 1
370
     0
100
AcDbSpline
210
0.0
220
0.0
230
1.0
 70
    11
 71
     3
 72
    29
 73
    25
 74
     0
 42
0.0000000001
 43
0.0000000001
 12
1.0
 22
0.0
 32
0.0
 13
1.0
 23
0.0
 33
0.0
 40
0.0
 40
0.0
 40
0.0
 40
0.0
 40
1.0
 40
1.0
 40
1.0
 40
2.0
 40
2.0
 40
2.0
 40
3.0
 40
3.0
 40
3.0
 40
4.0
 40
4.0
 40
4.0
 40
5.0
 40
5.0
 40
5.0
 40
6.0
 40
6.0
 40
6.0
 40
7.0
 40
7.0
 40
7.0
 40
8.0
 40
8.0
 40
8.0
 40
8.0
 10
110.8225205886138
 20
-139.1632540884731
 30
0.0
 10
110.8225205886138
 20
-139.1632540884731
 30
0.0
 10
110.3381401633877
 20
-139.1632540884731
 30
0.0
 10
110.3381401633877
 20
-139.1632540884731
 30
0.0
 10
110.3105793995057
 20
-139.1632540884731
 30
0.0
 10
109.9936306148627
 20
-139.1632540884731
 30
0.0
 10
109.7821017520684
 20
-139.1887477950639
 30
0.0
 10
109.7821017520684
 20
-139.1887477950639
 30
0.0
 10
109.7821017520684
 20
-138.9582709071007
 30
0.0
 10
109.7821017520684
 20
-138.9582709071007
 30
0.0
 10
109.9405761443899
 20
-138.9813530468519
 30
0.0
 10
110.1307454151757
 20
-138.9837646136916
 30
0.0
 10
110.3381401633877
 20
-138.9837646136916
 30
0.0
 10
110.3381401633877
 20
-138.9837646136916
 30
0.0
 10
110.8225205886138
 20
-138.9837646136916
 30
0.0
 10
110.8225205886138
 20
-138.9837646136916
 30
0.0
 10
111.0085557448173
 20
-138.9837646136916
 30
0.0
 10
111.1952799201179
 20
-138.9813530468519
 30
0.0
 10
111.3792480190302
 20
-138.9582709071007
 30
0.0
 10
111.3792480190302
 20
-138.9582709071007
 30
0.0
 10
111.3792480190302
 20
-139.1887477950639
 30
0.0
 10
111.3792480190302
 20
-139.1887477950639
 30
0.0
 10
111.1952799201179
 20
-139.1656656553128
 30
0.0
 10
110.9472330451799
 20
-139.1632540884731
 30
0.0
 10
110.8225205886138
 20
-139.1632540884731
 30
0.0
  0
HATCH
  5
13F
330
102
100
AcDbEntity
  8
_U+30EC_U+30A4_U+30E4_U+30FC 1
 62
   179
420
  2234388
100
AcDbHatch
 10
0.0
 20
0.0
 30
0.0
210
0.0
220
0.0
230
1.0
  2
SOLID
 70
     1
 71
     0
 91
        1
 92
        1
 93
        1
 72
     4
 94
        3
 73
     0
 74
     1
 95
       29
 96
       25
 40
0.0
 40
0.0
 40
0.0
 40
0.0
 40
1.0
 40
1.0
 40
1.0
 40
2.0
 40
2.0
 40
2.0
 40
3.0
 40
3.0
 40
3.0
 40
4.0
 40
4.0
 40
4.0
 40
5.0
 40
5.0
 40
5.0
 40
6.0
 40
6.0
 40
6.0
 40
7.0
 40
7.0
 40
7.0
 40
8.0
 40
8.0
 40
8.0
 40
8.0
 10
110.8225205886138
 20
-139.1632540884731
 10
110.8225205886138
 20
-139.1632540884731
 10
110.3381401633877
 20
-139.1632540884731
 10
110.3381401633877
 20
-139.1632540884731
 10
110.3105793995057
 20
-139.1632540884731
 10
109.9936306148627
 20
-139.1632540884731
 10
109.7821017520684
 20
-139.1887477950639
 10
109.7821017520684
 20
-139.1887477950639
 10
109.7821017520684
 20
-138.9582709071007
 10
109.7821017520684
 20
-138.9582709071007
 10
109.9405761443899
 20
-138.9813530468519
 10
110.1307454151757
 20
-138.9837646136916
 10
110.3381401633877
 20
-138.9837646136916
 10
110.3381401633877
 20
-138.9837646136916
 10
110.8225205886138
 20
-138.9837646136916
 10
110.8225205886138
 20
-138.9837646136916
 10
111.0085557448173
 20
-138.9837646136916
 10
111.1952799201179
 20
-138.9813530468519
 10
111.3792480190302
 20
-138.9582709071007
 10
111.3792480190302
 20
-138.9582709071007
 10
111.3792480190302
 20
-139.1887477950639
 10
111.3792480190302
 20
-139.1887477950639
 10
111.1952799201179
 20
-139.1656656553128
 10
110.9472330451799
 20
-139.1632540884731
 10
110.8225205886138
 20
-139.1632540884731
 97
        0
 97
        0
 75
     2
 76
     1
 98
        0
  0
ENDBLK
  5
105
330
102
100
AcDbEntity
  8
0
100
AcDbBlockEnd
  0
ENDSEC
  0
SECTION
  2
ENTITIES
  0
POLYLINE
  5
41
330
1F
100
AcDbEntity
  8
_U+30EC_U+30A4_U+30E4_U+30FC 1
  6
AI-Linetype-1
 62
   154
420
    23468
370
    25
100
AcDb2dPolyline
 66
     1
 10
0.0
 20
0.0
 30
0.0
  0
VERTEX
  5
42
330
41
100
AcDbEntity
  8
_U+30EC_U+30A4_U+30E4_U+30FC 1
  6
AI-Linetype-1
 62
   154
420
    23468
370
    25
100
AcDbVertex
100
AcDb2dVertex
 10
78.61620827211121
 20
-121.3221474696696
 30
0.0
  0
VERTEX
  5
43
330
41
100
AcDbEntity
  8
_U+30EC_U+30A4_U+30E4_U+30FC 1
  6
AI-Linetype-1
 62
   154
420
    23468
370
    25
100
AcDbVertex
100
AcDb2dVertex
 10
77.02870831261171
 20
-121.3221474696696
 30
0.0
  0
VERTEX
  5
44
330
41
100
AcDbEntity
  8
_U+30EC_U+30A4_U+30E4_U+30FC 1
  6
AI-Linetype-1
 62
   154
420
    23468
370
    25
100
AcDbVertex
100
AcDb2dVertex
 10
77.02870831261171
 20
-137.5220205211749
 30
0.0
  0
VERTEX
  5
45
330
41
100
AcDbEntity
  8
_U+30EC_U+30A4_U+30E4_U+30FC 1
  6
AI-Linetype-1
 62
   154
420
    23468
370
    25
100
AcDbVertex
100
AcDb2dVertex
 10
93.78032775433296
 20
-137.5220205211749
 30
0.0
  0
VERTEX
  5
46
330
41
100
AcDbEntity
  8
_U+30EC_U+30A4_U+30E4_U+30FC 1
  6
AI-Linetype-1
 62
   154
420
    23468
370
    25
100
AcDbVertex
100
AcDb2dVertex
 10
93.78032775433296
 20
-135.7043682994074
 30
0.0
  0
SEQEND
  5
48
330
41
100
AcDbEntity
  8
_U+30EC_U+30A4_U+30E4_U+30FC 1
  6
AI-Linetype-1
 62
   154
420
    23468
370
    25
  0
POLYLINE
  5
49
330
1F
100
AcDbEntity
  8
_U+30EC_U+30A4_U+30E4_U+30FC 1
 62
     7
420
 16777215
370
    25
100
AcDb2dPolyline
 66
     1
 10
0.0
 20
0.0
 30
0.0
  0
VERTEX
  5
4A
330
49
100
AcDbEntity
  8
_U+30EC_U+30A4_U+30E4_U+30FC 1
 62
     7
420
 16777215
370
    25
100
AcDbVertex
100
AcDb2dVertex
 10
79.18947214637492
 20
-135.922102743797
 30
0.0
  0
VERTEX
  5
4B
330
49
100
AcDbEntity
  8
_U+30EC_U+30A4_U+30E4_U+30FC 1
 62
     7
420
 16777215
370
    25
100
AcDbVertex
100
AcDb2dVertex
 10
93.1898459558623
 20
-135.922102743797
 30
0.0
  0
SEQEND
  5
4C
330
49
100
AcDbEntity
  8
_U+30EC_U+30A4_U+30E4_U+30FC 1
 62
     7
420
 16777215
370
    25
  0
POLYLINE
  5
4D
330
1F
100
AcDbEntity
  8
_U+30EC_U+30A4_U+30E4_U+30FC 1
 62
     7
420
 16777215
370
    25
100
AcDb2dPolyline
 66
     1
 10
0.0
 20
0.0
 30
0.0
  0
VERTEX
  5
4E
330
4D
100
AcDbEntity
  8
_U+30EC_U+30A4_U+30E4_U+30FC 1
 62
     7
420
 16777215
370
    25
100
AcDbVertex
100
AcDb2dVertex
 10
79.18947214637492
 20
-127.4220280236999
 30
0.0
  0
VERTEX
  5
4F
330
4D
100
AcDbEntity
  8
_U+30EC_U+30A4_U+30E4_U+30FC 1
 62
     7
420
 16777215
370
    25
100
AcDbVertex
100
AcDb2dVertex
 10
93.28904706444257
 20
-127.4220280236999
 30
0.0
  0
SEQEND
  5
50
330
4D
100
AcDbEntity
  8
_U+30EC_U+30A4_U+30E4_U+30FC 1
 62
     7
420
 16777215
370
    25
  0
POLYLINE
  5
51
330
1F
100
AcDbEntity
  8
_U+30EC_U+30A4_U+30E4_U+30FC 1
 62
     7
420
 16777215
370
    25
100
AcDb2dPolyline
 66
     1
 10
0.0
 20
0.0
 30
0.0
  0
VERTEX
  5
52
330
51
100
AcDbEntity
  8
_U+30EC_U+30A4_U+30E4_U+30FC 1
 62
     7
420
 16777215
370
    25
100
AcDbVertex
100
AcDb2dVertex
 10
79.18947214637492
 20
-136.9225805213251
 30
0.0
  0
VERTEX
  5
53
330
51
100
AcDbEntity
  8
_U+30EC_U+30A4_U+30E4_U+30FC 1
 62
     7
420
 16777215
370
    25
100
AcDbVertex
100
AcDb2dVertex
 10
92.18936820360884
 20
-136.9225805213251
 30
0.0
  0
SEQEND
  5
54
330
51
100
AcDbEntity
  8
_U+30EC_U+30A4_U+30E4_U+30FC 1
 62
     7
420
 16777215
370
    25
  0
POLYLINE
  5
55
330
1F
100
AcDbEntity
  8
_U+30EC_U+30A4_U+30E4_U+30FC 1
 62
     7
420
 16777215
370
    25
100
AcDb2dPolyline
 66
     1
 10
0.0
 20
0.0
 30
0.0
  0
VERTEX
  5
56
330
55
100
AcDbEntity
  8
_U+30EC_U+30A4_U+30E4_U+30FC 1
 62
     7
420
 16777215
370
    25
100
AcDbVertex
100
AcDb2dVertex
 10
78.18867689412956
 20
-122.9220299692696
 30
0.0
  0
VERTEX
  5
57
330
55
100
AcDbEntity
  8
_U+30EC_U+30A4_U+30E4_U+30FC 1
 62
     7
420
 16777215
370
    25
100
AcDbVertex
100
AcDb2dVertex
 10
78.18867689412956
 20
-135.922102743797
 30
0.0
  0
SEQEND
  5
58
330
55
100
AcDbEntity
  8
_U+30EC_U+30A4_U+30E4_U+30FC 1
 62
     7
420
 16777215
370
    25
  0
POLYLINE
  5
59
330
1F
100
AcDbEntity
  8
_U+30EC_U+30A4_U+30E4_U+30FC 1
 62
     7
420
 16777215
370
    25
100
AcDb2dPolyline
 66
     1
 10
0.0
 20
0.0
 30
0.0
  0
VERTEX
  5
5A
330
59
100
AcDbEntity
  8
_U+30EC_U+30A4_U+30E4_U+30FC 1
 62
     7
420
 16777215
370
    25
100
AcDbVertex
100
AcDb2dVertex
 10
79.18947214637492
 20
-121.9222577472971
 30
0.0
  0
VERTEX
  5
5B
330
59
100
AcDbEntity
  8
_U+30EC_U+30A4_U+30E4_U+30FC 1
 62
     7
420
 16777215
370
    25
100
AcDbVertex
100
AcDb2dVertex
 10
79.18947214637492
 20
-126.4222558017277
 30
0.0
  0
SEQEND
  5
5C
330
59
100
AcDbEntity
  8
_U+30EC_U+30A4_U+30E4_U+30FC 1
 62
     7
420
 16777215
370
    25
  0
POLYLINE
  5
5D
330
1F
100
AcDbEntity
  8
_U+30EC_U+30A4_U+30E4_U+30FC 1
 62
     7
420
 16777215
370
    25
100
AcDb2dPolyline
 66
     1
 10
0.0
 20
0.0
 30
0.0
  0
VERTEX
  5
5E
330
5D
100
AcDbEntity
  8
_U+30EC_U+30A4_U+30E4_U+30FC 1
 62
     7
420
 16777215
370
    25
100
AcDbVertex
100
AcDb2dVertex
 10
79.18947214637492
 20
-126.4222558017277
 30
0.0
  0
VERTEX
  5
5F
330
5D
100
AcDbEntity
  8
_U+30EC_U+30A4_U+30E4_U+30FC 1
 62
     7
420
 16777215
370
    25
100
AcDbVertex
100
AcDb2dVertex
 10
99.28902080025938
 20
-126.4222558017277
 30
0.0
  0
SEQEND
  5
60
330
5D
100
AcDbEntity
  8
_U+30EC_U+30A4_U+30E4_U+30FC 1
 62
     7
420
 16777215
370
    25
  0
POLYLINE
  5
61
330
1F
100
AcDbEntity
  8
_U+30EC_U+30A4_U+30E4_U+30FC 1
 62
     7
420
 16777215
370
    25
100
AcDb2dPolyline
 66
     1
 10
0.0
 20
0.0
 30
0.0
  0
VERTEX
  5
62
330
61
100
AcDbEntity
  8
_U+30EC_U+30A4_U+30E4_U+30FC 1
 62
     7
420
 16777215
370
    25
100
AcDbVertex
100
AcDb2dVertex
 10
79.18947214637492
 20
-127.4220280236999
 30
0.0
  0
VERTEX
  5
63
330
61
100
AcDbEntity
  8
_U+30EC_U+30A4_U+30E4_U+30FC 1
 62
     7
420
 16777215
370
    25
100
AcDbVertex
100
AcDb2dVertex
 10
79.18947214637492
 20
-135.922102743797
 30
0.0
  0
SEQEND
  5
64
330
61
100
AcDbEntity
  8
_U+30EC_U+30A4_U+30E4_U+30FC 1
 62
     7
420
 16777215
370
    25
  0
POLYLINE
  5
65
330
1F
100
AcDbEntity
  8
_U+30EC_U+30A4_U+30E4_U+30FC 1
 62
     7
420
 16777215
370
    25
100
AcDb2dPolyline
 66
     1
 10
0.0
 20
0.0
 30
0.0
  0
VERTEX
  5
66
330
65
100
AcDbEntity
  8
_U+30EC_U+30A4_U+30E4_U+30FC 1
 62
     7
420
 16777215
370
    25
100
AcDbVertex
100
AcDb2dVertex
 10
93.80925553210298
 20
-127.122308023775
 30
0.0
  0
VERTEX
  5
67
330
65
100
AcDbEntity
  8
_U+30EC_U+30A4_U+30E4_U+30FC 1
 62
     7
420
 16777215
370
    25
100
AcDbVertex
100
AcDb2dVertex
 10
98.58896859589697
 20
-127.122308023775
 30
0.0
  0
SEQEND
  5
68
330
65
100
AcDbEntity
  8
_U+30EC_U+30A4_U+30E4_U+30FC 1
 62
     7
420
 16777215
370
    25
  0
POLYLINE
  5
69
330
1F
100
AcDbEntity
  8
_U+30EC_U+30A4_U+30E4_U+30FC 1
 62
     7
420
 16777215
370
    25
100
AcDb2dPolyline
 66
     1
 10
0.0
 20
0.0
 30
0.0
  0
VERTEX
  5
6A
330
69
100
AcDbEntity
  8
_U+30EC_U+30A4_U+30E4_U+30FC 1
 62
     7
420
 16777215
370
    25
100
AcDbVertex
100
AcDb2dVertex
 10
93.28904706444257
 20
-127.4220280236999
 30
0.0
  0
VERTEX
  5
6B
330
69
100
AcDbEntity
  8
_U+30EC_U+30A4_U+30E4_U+30FC 1
 62
     7
420
 16777215
370
    25
100
AcDbVertex
100
AcDb2dVertex
 10
93.80925553210298
 20
-127.122308023775
 30
0.0
  0
SEQEND
  5
6C
330
69
100
AcDbEntity
  8
_U+30EC_U+30A4_U+30E4_U+30FC 1
 62
     7
420
 16777215
370
    25
  0
POLYLINE
  5
6D
330
1F
100
AcDbEntity
  8
_U+30EC_U+30A4_U+30E4_U+30FC 1
 62
     7
420
 16777215
370
     9
100
AcDb2dPolyline
 66
     1
 10
0.0
 20
0.0
 30
0.0
  0
VERTEX
  5
6E
330
6D
100
AcDbEntity
  8
_U+30EC_U+30A4_U+30E4_U+30FC 1
 62
     7
420
 16777215
370
     9
100
AcDbVertex
100
AcDb2dVertex
 10
78.4815177199919
 20
-136.6290341325097
 30
0.0
  0
VERTEX
  5
6F
330
6D
100
AcDbEntity
  8
_U+30EC_U+30A4_U+30E4_U+30FC 1
 62
     7
420
 16777215
370
     9
100
AcDbVertex
100
AcDb2dVertex
 10
74.18891782950524
 20
-140.9223044092138
 30
0.0
  0
SEQEND
  5
70
330
6D
100
AcDbEntity
  8
_U+30EC_U+30A4_U+30E4_U+30FC 1
 62
     7
420
 16777215
370
     9
  0
POLYLINE
  5
71
330
1F
100
AcDbEntity
  8
_U+30EC_U+30A4_U+30E4_U+30FC 1
 62
     7
420
 16777215
370
     9
100
AcDb2dPolyline
 66
     1
 10
0.0
 20
0.0
 30
0.0
  0
VERTEX
  5
72
330
71
100
AcDbEntity
  8
_U+30EC_U+30A4_U+30E4_U+30FC 1
 62
     7
420
 16777215
370
     9
100
AcDbVertex
100
AcDb2dVertex
 10
69.97696293696117
 20
-140.9223044092138
 30
0.0
  0
VERTEX
  5
73
330
71
100
AcDbEntity
  8
_U+30EC_U+30A4_U+30E4_U+30FC 1
 62
     7
420
 16777215
370
     9
100
AcDbVertex
100
AcDb2dVertex
 10
74.18891782950524
 20
-140.9223044092138
 30
0.0
  0
SEQEND
  5
74
330
71
100
AcDbEntity
  8
_U+30EC_U+30A4_U+30E4_U+30FC 1
 62
     7
420
 16777215
370
     9
  0
POLYLINE
  5
75
330
1F
100
AcDbEntity
  8
_U+30EC_U+30A4_U+30E4_U+30FC 1
 62
     7
420
 16777215
370
     9
100
AcDb2dPolyline
 66
     1
 10
0.0
 20
0.0
 30
0.0
  0
VERTEX
  5
76
330
75
100
AcDbEntity
  8
_U+30EC_U+30A4_U+30E4_U+30FC 1
 62
     7
420
 16777215
370
     9
100
AcDbVertex
100
AcDb2dVertex
 10
78.4815177199919
 20
-136.6290341325097
 30
0.0
  0
VERTEX
  5
77
330
75
100
AcDbEntity
  8
_U+30EC_U+30A4_U+30E4_U+30FC 1
 62
     7
420
 16777215
370
     9
100
AcDbVertex
100
AcDb2dVertex
 10
77.18304858645193
 20
-137.3793924656549
 30
0.0
  0
SEQEND
  5
78
330
75
100
AcDbEntity
  8
_U+30EC_U+30A4_U+30E4_U+30FC 1
 62
     7
420
 16777215
370
     9
  0
POLYLINE
  5
79
330
1F
100
AcDbEntity
  8
_U+30EC_U+30A4_U+30E4_U+30FC 1
 62
     7
420
 16777215
370
     9
100
AcDb2dPolyline
 66
     1
 10
0.0
 20
0.0
 30
0.0
  0
VERTEX
  5
7A
330
79
100
AcDbEntity
  8
_U+30EC_U+30A4_U+30E4_U+30FC 1
 62
     7
420
 16777215
370
     9
100
AcDbVertex
100
AcDb2dVertex
 10
78.4815177199919
 20
-136.6290341325097
 30
0.0
  0
VERTEX
  5
7B
330
79
100
AcDbEntity
  8
_U+30EC_U+30A4_U+30E4_U+30FC 1
 62
     7
420
 16777215
370
     9
100
AcDbVertex
100
AcDb2dVertex
 10
77.73186496133935
 20
-137.9285263544065
 30
0.0
  0
SEQEND
  5
7C
330
79
100
AcDbEntity
  8
_U+30EC_U+30A4_U+30E4_U+30FC 1
 62
     7
420
 16777215
370
     9
  0
SPLINE
  5
7D
330
1F
100
AcDbEntity
  8
_U+30EC_U+30A4_U+30E4_U+30FC 1
 62
     7
420
 16777215
370
    25
100
AcDbSpline
210
0.0
220
0.0
230
1.0
 70
     8
 71
     3
 72
     8
 73
     4
 74
     0
 42
0.0000000001
 43
0.0000000001
 12
1.0
 22
0.0
 32
0.0
 13
1.0
 23
0.0
 33
0.0
 40
0.0
 40
0.0
 40
0.0
 40
0.0
 40
1.0
 40
1.0
 40
1.0
 40
1.0
 10
78.18867689412956
 20
-135.922102743797
 30
0.0
 10
78.18867689412956
 20
-136.4746938547705
 30
0.0
 10
78.63688104936158
 20
-136.9225805213251
 30
0.0
 10
79.18947214637492
 20
-136.9225805213251
 30
0.0
  0
SPLINE
  5
7E
330
1F
100
AcDbEntity
  8
_U+30EC_U+30A4_U+30E4_U+30FC 1
 62
     7
420
 16777215
370
    25
100
AcDbSpline
210
0.0
220
0.0
230
1.0
 70
     8
 71
     3
 72
     8
 73
     4
 74
     0
 42
0.0000000001
 43
0.0000000001
 12
1.0
 22
0.0
 32
0.0
 13
1.0
 23
0.0
 33
0.0
 40
0.0
 40
0.0
 40
0.0
 40
0.0
 40
1.0
 40
1.0
 40
1.0
 40
1.0
 10
79.18947214637492
 20
-121.9222577472971
 30
0.0
 10
78.63688104936158
 20
-121.9222577472971
 30
0.0
 10
78.18867689412956
 20
-122.370144413852
 30
0.0
 10
78.18867689412956
 20
-122.9220299692696
 30
0.0
  0
SPLINE
  5
7F
330
1F
100
AcDbEntity
  8
_U+30EC_U+30A4_U+30E4_U+30FC 1
 62
     7
420
 16777215
370
    25
100
AcDbSpline
210
0.0
220
0.0
230
1.0
 70
     8
 71
     3
 72
     8
 73
     4
 74
     0
 42
0.0000000001
 43
0.0000000001
 12
1.0
 22
0.0
 32
0.0
 13
1.0
 23
0.0
 33
0.0
 40
0.0
 40
0.0
 40
0.0
 40
0.0
 40
1.0
 40
1.0
 40
1.0
 40
1.0
 10
92.18936820360884
 20
-136.9225805213251
 30
0.0
 10
92.7412890228615
 20
-136.9225805213251
 30
0.0
 10
93.1898459558623
 20
-136.4746938547705
 30
0.0
 10
93.1898459558623
 20
-135.922102743797
 30
0.0
  0
SPLINE
  5
80
330
1F
100
AcDbEntity
  8
_U+30EC_U+30A4_U+30E4_U+30FC 1
 62
     7
420
 16777215
370
    25
100
AcDbSpline
210
0.0
220
0.0
230
1.0
 70
     8
 71
     3
 72
     8
 73
     4
 74
     0
 42
0.0000000001
 43
0.0000000001
 12
1.0
 22
0.0
 32
0.0
 13
1.0
 23
0.0
 33
0.0
 40
0.0
 40
0.0
 40
0.0
 40
0.0
 40
1.0
 40
1.0
 40
1.0
 40
1.0
 10
98.58896859589697
 20
-127.122308023775
 30
0.0
 10
98.97550719714667
 20
-127.122308023775
 30
0.0
 10
99.28902080025938
 20
-126.8087944127421
 30
0.0
 10
99.28902080025938
 20
-126.4222558017277
 30
0.0
  0
SPLINE
  5
81
330
1F
100
AcDbEntity
  8
_U+30EC_U+30A4_U+30E4_U+30FC 1
 62
     7
420
 16777215
370
     9
100
AcDbSpline
210
0.0
220
0.0
230
1.0
 70
    11
 71
     3
 72
    17
 73
    13
 74
     0
 42
0.0000000001
 43
0.0000000001
 12
1.0
 22
0.0
 32
0.0
 13
1.0
 23
0.0
 33
0.0
 40
0.0
 40
0.0
 40
0.0
 40
0.0
 40
1.0
 40
1.0
 40
1.0
 40
2.0
 40
2.0
 40
2.0
 40
3.0
 40
3.0
 40
3.0
 40
4.0
 40
4.0
 40
4.0
 40
4.0
 10
99.38892746437722
 20
-117.9225338594084
 30
0.0
 10
99.38892746437722
 20
-117.8673946927553
 30
0.0
 10
99.34483024328
 20
-117.8226271927664
 30
0.0
 10
99.28902080025938
 20
-117.8226271927664
 30
0.0
 10
99.23458719053698
 20
-117.8226271927664
 30
0.0
 10
99.18911664186913
 20
-117.8673946927553
 30
0.0
 10
99.18911664186913
 20
-117.9225338594084
 30
0.0
 10
99.18911664186913
 20
-117.9776377482833
 30
0.0
 10
99.23458719053698
 20
-118.02244052605
 30
0.0
 10
99.28902080025938
 20
-118.02244052605
 30
0.0
 10
99.34483024328
 20
-118.02244052605
 30
0.0
 10
99.38892746437722
 20
-117.9776377482833
 30
0.0
 10
99.38892746437722
 20
-117.9225338594084
 30
0.0
  0
SPLINE
  5
82
330
1F
100
AcDbEntity
  8
_U+30EC_U+30A4_U+30E4_U+30FC 1
 62
     7
420
 16777215
370
     9
100
AcDbSpline
210
0.0
220
0.0
230
1.0
 70
    11
 71
     3
 72
    17
 73
    13
 74
     0
 42
0.0000000001
 43
0.0000000001
 12
1.0
 22
0.0
 32
0.0
 13
1.0
 23
0.0
 33
0.0
 40
0.0
 40
0.0
 40
0.0
 40
0.0
 40
1.0
 40
1.0
 40
1.0
 40
2.0
 40
2.0
 40
2.0
 40
3.0
 40
3.0
 40
3.0
 40
4.0
 40
4.0
 40
4.0
 40
4.0
 10
79.38928547461059
 20
-117.9225338594084
 30
0.0
 10
79.38928547461059
 20
-117.8673946927553
 30
0.0
 10
79.34416519798393
 20
-117.8226271927664
 30
0.0
 10
79.28937881049275
 20
-117.8226271927664
 30
0.0
 10
79.23392214524091
 20
-117.8226271927664
 30
0.0
 10
79.18947214637492
 20
-117.8673946927553
 30
0.0
 10
79.18947214637492
 20
-117.9225338594084
 30
0.0
 10
79.18947214637492
 20
-117.9776377482833
 30
0.0
 10
79.23392214524091
 20
-118.02244052605
 30
0.0
 10
79.28937881049275
 20
-118.02244052605
 30
0.0
 10
79.34416519798393
 20
-118.02244052605
 30
0.0
 10
79.38928547461059
 20
-117.9776377482833
 30
0.0
 10
79.38928547461059
 20
-117.9225338594084
 30
0.0
  0
SPLINE
  5
83
330
1F
100
AcDbEntity
  8
_U+30EC_U+30A4_U+30E4_U+30FC 1
 62
     7
420
 16777215
370
     9
100
AcDbSpline
210
0.0
220
0.0
230
1.0
 70
    11
 71
     3
 72
    17
 73
    13
 74
     0
 42
0.0000000001
 43
0.0000000001
 12
1.0
 22
0.0
 32
0.0
 13
1.0
 23
0.0
 33
0.0
 40
0.0
 40
0.0
 40
0.0
 40
0.0
 40
1.0
 40
1.0
 40
1.0
 40
2.0
 40
2.0
 40
2.0
 40
3.0
 40
3.0
 40
3.0
 40
4.0
 40
4.0
 40
4.0
 40
4.0
 10
78.2885835582474
 20
-124.4220410800056
 30
0.0
 10
78.2885835582474
 20
-124.3669019133528
 30
0.0
 10
78.24413355938141
 20
-124.3221344133639
 30
0.0
 10
78.18867689412956
 20
-124.3221344133639
 30
0.0
 10
78.13389050663838
 20
-124.3221344133639
 30
0.0
 10
78.08877220270013
 20
-124.3669019133528
 30
0.0
 10
78.08877220270013
 20
-124.4220410800056
 30
0.0
 10
78.08877220270013
 20
-124.477850524436
 30
0.0
 10
78.13389050663838
 20
-124.5226180244249
 30
0.0
 10
78.18867689412956
 20
-124.5226180244249
 30
0.0
 10
78.24413355938141
 20
-124.5226180244249
 30
0.0
 10
78.2885835582474
 20
-124.477850524436
 30
0.0
 10
78.2885835582474
 20
-124.4220410800056
 30
0.0
  0
SPLINE
  5
84
330
1F
100
AcDbEntity
  8
_U+30EC_U+30A4_U+30E4_U+30FC 1
 62
     7
420
 16777215
370
     9
100
AcDbSpline
210
0.0
220
0.0
230
1.0
 70
    11
 71
     3
 72
    17
 73
    13
 74
     0
 42
0.0000000001
 43
0.0000000001
 12
1.0
 22
0.0
 32
0.0
 13
1.0
 23
0.0
 33
0.0
 40
0.0
 40
0.0
 40
0.0
 40
0.0
 40
1.0
 40
1.0
 40
1.0
 40
2.0
 40
2.0
 40
2.0
 40
3.0
 40
3.0
 40
3.0
 40
4.0
 40
4.0
 40
4.0
 40
4.0
 10
79.28937881049275
 20
-124.4220410800056
 30
0.0
 10
79.28937881049275
 20
-124.3669019133528
 30
0.0
 10
79.24425853386609
 20
-124.3221344133639
 30
0.0
 10
79.18947214637492
 20
-124.3221344133639
 30
0.0
 10
79.13366270335429
 20
-124.3221344133639
 30
0.0
 10
79.08854442467235
 20
-124.3669019133528
 30
0.0
 10
79.08854442467235
 20
-124.4220410800056
 30
0.0
 10
79.08854442467235
 20
-124.477850524436
 30
0.0
 10
79.13366270335429
 20
-124.5226180244249
 30
0.0
 10
79.18947214637492
 20
-124.5226180244249
 30
0.0
 10
79.24425853386609
 20
-124.5226180244249
 30
0.0
 10
79.28937881049275
 20
-124.477850524436
 30
0.0
 10
79.28937881049275
 20
-124.4220410800056
 30
0.0
  0
SPLINE
  5
85
330
1F
100
AcDbEntity
  8
_U+30EC_U+30A4_U+30E4_U+30FC 1
 62
     7
420
 16777215
370
     9
100
AcDbSpline
210
0.0
220
0.0
230
1.0
 70
    11
 71
     3
 72
    17
 73
    13
 74
     0
 42
0.0000000001
 43
0.0000000001
 12
1.0
 22
0.0
 32
0.0
 13
1.0
 23
0.0
 33
0.0
 40
0.0
 40
0.0
 40
0.0
 40
0.0
 40
1.0
 40
1.0
 40
1.0
 40
2.0
 40
2.0
 40
2.0
 40
3.0
 40
3.0
 40
3.0
 40
4.0
 40
4.0
 40
4.0
 40
4.0
 10
73.38931173879378
 20
-136.9225805213251
 30
0.0
 10
73.38931173879378
 20
-136.8667710768946
 30
0.0
 10
73.34419146216712
 20
-136.8219682991279
 30
0.0
 10
73.28905229690717
 20
-136.8219682991279
 30
0.0
 10
73.2339484094241
 20
-136.8219682991279
 30
0.0
 10
73.18914563278933
 20
-136.8667710768946
 30
0.0
 10
73.18914563278933
 20
-136.9225805213251
 30
0.0
 10
73.18914563278933
 20
-136.9776844102
 30
0.0
 10
73.2339484094241
 20
-137.0224871879667
 30
0.0
 10
73.28905229690717
 20
-137.0224871879667
 30
0.0
 10
73.34419146216712
 20
-137.0224871879667
 30
0.0
 10
73.38931173879378
 20
-136.9776844102
 30
0.0
 10
73.38931173879378
 20
-136.9225805213251
 30
0.0
  0
SPLINE
  5
86
330
1F
100
AcDbEntity
  8
_U+30EC_U+30A4_U+30E4_U+30FC 1
 62
     7
420
 16777215
370
     9
100
AcDbSpline
210
0.0
220
0.0
230
1.0
 70
    11
 71
     3
 72
    17
 73
    13
 74
     0
 42
0.0000000001
 43
0.0000000001
 12
1.0
 22
0.0
 32
0.0
 13
1.0
 23
0.0
 33
0.0
 40
0.0
 40
0.0
 40
0.0
 40
0.0
 40
1.0
 40
1.0
 40
1.0
 40
2.0
 40
2.0
 40
2.0
 40
3.0
 40
3.0
 40
3.0
 40
4.0
 40
4.0
 40
4.0
 40
4.0
 10
73.38931173879378
 20
-121.9222577472971
 30
0.0
 10
73.38931173879378
 20
-121.8671538584222
 30
0.0
 10
73.34419146216712
 20
-121.8223510806555
 30
0.0
 10
73.28905229690717
 20
-121.8223510806555
 30
0.0
 10
73.2339484094241
 20
-121.8223510806555
 30
0.0
 10
73.18914563278933
 20
-121.8671538584222
 30
0.0
 10
73.18914563278933
 20
-121.9222577472971
 30
0.0
 10
73.18914563278933
 20
-121.9773969139502
 30
0.0
 10
73.2339484094241
 20
-122.0221644139391
 30
0.0
 10
73.28905229690717
 20
-122.0221644139391
 30
0.0
 10
73.34419146216712
 20
-122.0221644139391
 30
0.0
 10
73.38931173879378
 20
-121.9773969139502
 30
0.0
 10
73.38931173879378
 20
-121.9222577472971
 30
0.0
  0
SPLINE
  5
87
330
1F
100
AcDbEntity
  8
_U+30EC_U+30A4_U+30E4_U+30FC 1
 62
     7
420
 16777215
370
     9
100
AcDbSpline
210
0.0
220
0.0
230
1.0
 70
    11
 71
     3
 72
    17
 73
    13
 74
     0
 42
0.0000000001
 43
0.0000000001
 12
1.0
 22
0.0
 32
0.0
 13
1.0
 23
0.0
 33
0.0
 40
0.0
 40
0.0
 40
0.0
 40
0.0
 40
1.0
 40
1.0
 40
1.0
 40
2.0
 40
2.0
 40
2.0
 40
3.0
 40
3.0
 40
3.0
 40
4.0
 40
4.0
 40
4.0
 40
4.0
 10
93.28904706444257
 20
-140.9223044092138
 30
0.0
 10
93.28904706444257
 20
-140.8672005203389
 30
0.0
 10
93.24494984334537
 20
-140.8223977425722
 30
0.0
 10
93.1898459558623
 20
-140.8223977425722
 30
0.0
 10
93.13470679060235
 20
-140.8223977425722
 30
0.0
 10
93.08923608783881
 20
-140.8672005203389
 30
0.0
 10
93.08923608783881
 20
-140.9223044092138
 30
0.0
 10
93.08923608783881
 20
-140.9774435758669
 30
0.0
 10
93.13470679060235
 20
-141.0222110758554
 30
0.0
 10
93.1898459558623
 20
-141.0222110758554
 30
0.0
 10
93.24494984334537
 20
-141.0222110758554
 30
0.0
 10
93.28904706444257
 20
-140.9774435758669
 30
0.0
 10
93.28904706444257
 20
-140.9223044092138
 30
0.0
  0
SPLINE
  5
88
330
1F
100
AcDbEntity
  8
_U+30EC_U+30A4_U+30E4_U+30FC 1
 62
     7
420
 16777215
370
     9
100
AcDbSpline
210
0.0
220
0.0
230
1.0
 70
    11
 71
     3
 72
    17
 73
    13
 74
     0
 42
0.0000000001
 43
0.0000000001
 12
1.0
 22
0.0
 32
0.0
 13
1.0
 23
0.0
 33
0.0
 40
0.0
 40
0.0
 40
0.0
 40
0.0
 40
1.0
 40
1.0
 40
1.0
 40
2.0
 40
2.0
 40
2.0
 40
3.0
 40
3.0
 40
3.0
 40
4.0
 40
4.0
 40
4.0
 40
4.0
 10
78.2885835582474
 20
-140.9223044092138
 30
0.0
 10
78.2885835582474
 20
-140.8672005203389
 30
0.0
 10
78.24413355938141
 20
-140.8223977425722
 30
0.0
 10
78.18867689412956
 20
-140.8223977425722
 30
0.0
 10
78.13389050663838
 20
-140.8223977425722
 30
0.0
 10
78.08877220270013
 20
-140.8672005203389
 30
0.0
 10
78.08877220270013
 20
-140.9223044092138
 30
0.0
 10
78.08877220270013
 20
-140.9774435758669
 30
0.0
 10
78.13389050663838
 20
-141.0222110758554
 30
0.0
 10
78.18867689412956
 20
-141.0222110758554
 30
0.0
 10
78.24413355938141
 20
-141.0222110758554
 30
0.0
 10
78.2885835582474
 20
-140.9774435758669
 30
0.0
 10
78.2885835582474
 20
-140.9223044092138
 30
0.0
  0
SPLINE
  5
89
330
1F
100
AcDbEntity
  8
_U+30EC_U+30A4_U+30E4_U+30FC 1
 62
     7
420
 16777215
370
     9
100
AcDbSpline
210
0.0
220
0.0
230
1.0
 70
    11
 71
     3
 72
    17
 73
    13
 74
     0
 42
0.0000000001
 43
0.0000000001
 12
1.0
 22
0.0
 32
0.0
 13
1.0
 23
0.0
 33
0.0
 40
0.0
 40
0.0
 40
0.0
 40
0.0
 40
1.0
 40
1.0
 40
1.0
 40
2.0
 40
2.0
 40
2.0
 40
3.0
 40
3.0
 40
3.0
 40
4.0
 40
4.0
 40
4.0
 40
4.0
 10
97.38871279318472
 20
-127.4220280236999
 30
0.0
 10
97.38871279318472
 20
-127.3668888570472
 30
0.0
 10
97.34391001654996
 20
-127.3221213570583
 30
0.0
 10
97.28880612906688
 20
-127.3221213570583
 30
0.0
 10
97.23366942013588
 20
-127.3221213570583
 30
0.0
 10
97.18889946494905
 20
-127.3668888570472
 30
0.0
 10
97.18889946494905
 20
-127.4220280236999
 30
0.0
 10
97.18889946494905
 20
-127.4778374681307
 30
0.0
 10
97.23366942013588
 20
-127.5226049681192
 30
0.0
 10
97.28880612906688
 20
-127.5226049681192
 30
0.0
 10
97.34391001654996
 20
-127.5226049681192
 30
0.0
 10
97.38871279318472
 20
-127.4778374681307
 30
0.0
 10
97.38871279318472
 20
-127.4220280236999
 30
0.0
  0
SPLINE
  5
8A
330
1F
100
AcDbEntity
  8
_U+30EC_U+30A4_U+30E4_U+30FC 1
 62
     7
420
 16777215
370
     9
100
AcDbSpline
210
0.0
220
0.0
230
1.0
 70
    11
 71
     3
 72
    17
 73
    13
 74
     0
 42
0.0000000001
 43
0.0000000001
 12
1.0
 22
0.0
 32
0.0
 13
1.0
 23
0.0
 33
0.0
 40
0.0
 40
0.0
 40
0.0
 40
0.0
 40
1.0
 40
1.0
 40
1.0
 40
2.0
 40
2.0
 40
2.0
 40
3.0
 40
3.0
 40
3.0
 40
4.0
 40
4.0
 40
4.0
 40
4.0
 10
97.38871279318472
 20
-135.922102743797
 30
0.0
 10
97.38871279318472
 20
-135.8669988549221
 30
0.0
 10
97.34391001654996
 20
-135.8221960771554
 30
0.0
 10
97.28880612906688
 20
-135.8221960771554
 30
0.0
 10
97.23366942013588
 20
-135.8221960771554
 30
0.0
 10
97.18889946494905
 20
-135.8669988549221
 30
0.0
 10
97.18889946494905
 20
-135.922102743797
 30
0.0
 10
97.18889946494905
 20
-135.9772419104501
 30
0.0
 10
97.23366942013588
 20
-136.0220094104386
 30
0.0
 10
97.28880612906688
 20
-136.0220094104386
 30
0.0
 10
97.34391001654996
 20
-136.0220094104386
 30
0.0
 10
97.38871279318472
 20
-135.9772419104501
 30
0.0
 10
97.38871279318472
 20
-135.922102743797
 30
0.0
  0
INSERT
  5
8C
330
1F
100
AcDbEntity
  8
_U+30EC_U+30A4_U+30E4_U+30FC 1
100
AcDbBlockReference
  2
block 2
 10
0.0
 20
0.0
 30
0.0
  0
POLYLINE
  5
94
330
1F
100
AcDbEntity
  8
_U+30EC_U+30A4_U+30E4_U+30FC 1
 62
     7
420
 16777215
370
     9
100
AcDb2dPolyline
 66
     1
 10
0.0
 20
0.0
 30
0.0
  0
VERTEX
  5
95
330
94
100
AcDbEntity
  8
_U+30EC_U+30A4_U+30E4_U+30FC 1
 62
     7
420
 16777215
370
     9
100
AcDbVertex
100
AcDb2dVertex
 10
79.18947214637492
 20
-117.9225338594084
 30
0.0
  0
VERTEX
  5
96
330
94
100
AcDbEntity
  8
_U+30EC_U+30A4_U+30E4_U+30FC 1
 62
     7
420
 16777215
370
     9
100
AcDbVertex
100
AcDb2dVertex
 10
99.28902080025938
 20
-117.9225338594084
 30
0.0
  0
SEQEND
  5
97
330
94
100
AcDbEntity
  8
_U+30EC_U+30A4_U+30E4_U+30FC 1
 62
     7
420
 16777215
370
     9
  0
POLYLINE
  5
98
330
1F
100
AcDbEntity
  8
_U+30EC_U+30A4_U+30E4_U+30FC 1
 62
     7
420
 16777215
370
     9
100
AcDb2dPolyline
 66
     1
 10
0.0
 20
0.0
 30
0.0
  0
VERTEX
  5
99
330
98
100
AcDbEntity
  8
_U+30EC_U+30A4_U+30E4_U+30FC 1
 62
     7
420
 16777215
370
     9
100
AcDbVertex
100
AcDb2dVertex
 10
79.28937881049275
 20
-120.3823121921268
 30
0.0
  0
VERTEX
  5
9A
330
98
100
AcDbEntity
  8
_U+30EC_U+30A4_U+30E4_U+30FC 1
 62
     7
420
 16777215
370
     9
100
AcDbVertex
100
AcDb2dVertex
 10
79.28937881049275
 20
-116.9220560818806
 30
0.0
  0
SEQEND
  5
9B
330
98
100
AcDbEntity
  8
_U+30EC_U+30A4_U+30E4_U+30FC 1
 62
     7
420
 16777215
370
     9
  0
POLYLINE
  5
9C
330
1F
100
AcDbEntity
  8
_U+30EC_U+30A4_U+30E4_U+30FC 1
 62
     7
420
 16777215
370
     9
100
AcDb2dPolyline
 66
     1
 10
0.0
 20
0.0
 30
0.0
  0
VERTEX
  5
9D
330
9C
100
AcDbEntity
  8
_U+30EC_U+30A4_U+30E4_U+30FC 1
 62
     7
420
 16777215
370
     9
100
AcDbVertex
100
AcDb2dVertex
 10
99.28902080025938
 20
-123.8825380245848
 30
0.0
  0
VERTEX
  5
9E
330
9C
100
AcDbEntity
  8
_U+30EC_U+30A4_U+30E4_U+30FC 1
 62
     7
420
 16777215
370
     9
100
AcDbVertex
100
AcDb2dVertex
 10
99.28902080025938
 20
-116.9220560818806
 30
0.0
  0
SEQEND
  5
9F
330
9C
100
AcDbEntity
  8
_U+30EC_U+30A4_U+30E4_U+30FC 1
 62
     7
420
 16777215
370
     9
  0
INSERT
  5
A1
330
1F
100
AcDbEntity
  8
_U+30EC_U+30A4_U+30E4_U+30FC 1
100
AcDbBlockReference
  2
block 3
 10
0.0
 20
0.0
 30
0.0
  0
POLYLINE
  5
A9
330
1F
100
AcDbEntity
  8
_U+30EC_U+30A4_U+30E4_U+30FC 1
 62
     7
420
 16777215
370
     9
100
AcDb2dPolyline
 66
     1
 10
0.0
 20
0.0
 30
0.0
  0
VERTEX
  5
AA
330
A9
100
AcDbEntity
  8
_U+30EC_U+30A4_U+30E4_U+30FC 1
 62
     7
420
 16777215
370
     9
100
AcDbVertex
100
AcDb2dVertex
 10
79.18947214637492
 20
-124.4220410800056
 30
0.0
  0
VERTEX
  5
AB
330
A9
100
AcDbEntity
  8
_U+30EC_U+30A4_U+30E4_U+30FC 1
 62
     7
420
 16777215
370
     9
100
AcDbVertex
100
AcDb2dVertex
 10
82.95978455018624
 20
-124.4220410800056
 30
0.0
  0
SEQEND
  5
AC
330
A9
100
AcDbEntity
  8
_U+30EC_U+30A4_U+30E4_U+30FC 1
 62
     7
420
 16777215
370
     9
  0
POLYLINE
  5
AD
330
1F
100
AcDbEntity
  8
_U+30EC_U+30A4_U+30E4_U+30FC 1
 62
     7
420
 16777215
370
     9
100
AcDb2dPolyline
 66
     1
 10
0.0
 20
0.0
 30
0.0
  0
VERTEX
  5
AE
330
AD
100
AcDbEntity
  8
_U+30EC_U+30A4_U+30E4_U+30FC 1
 62
     7
420
 16777215
370
     9
100
AcDbVertex
100
AcDb2dVertex
 10
77.18890469741365
 20
-124.4220410800056
 30
0.0
  0
VERTEX
  5
AF
330
AD
100
AcDbEntity
  8
_U+30EC_U+30A4_U+30E4_U+30FC 1
 62
     7
420
 16777215
370
     9
100
AcDbVertex
100
AcDb2dVertex
 10
79.18947214637492
 20
-124.4220410800056
 30
0.0
  0
SEQEND
  5
B0
330
AD
100
AcDbEntity
  8
_U+30EC_U+30A4_U+30E4_U+30FC 1
 62
     7
420
 16777215
370
     9
  0
INSERT
  5
B2
330
1F
100
AcDbEntity
  8
_U+30EC_U+30A4_U+30E4_U+30FC 1
100
AcDbBlockReference
  2
block 4
 10
0.0
 20
0.0
 30
0.0
  0
POLYLINE
  5
B7
330
1F
100
AcDbEntity
  8
_U+30EC_U+30A4_U+30E4_U+30FC 1
 62
     7
420
 16777215
370
     9
100
AcDb2dPolyline
 66
     1
 10
0.0
 20
0.0
 30
0.0
  0
VERTEX
  5
B8
330
B7
100
AcDbEntity
  8
_U+30EC_U+30A4_U+30E4_U+30FC 1
 62
     7
420
 16777215
370
     9
100
AcDbVertex
100
AcDb2dVertex
 10
73.28905229690717
 20
-136.9225805213251
 30
0.0
  0
VERTEX
  5
B9
330
B7
100
AcDbEntity
  8
_U+30EC_U+30A4_U+30E4_U+30FC 1
 62
     7
420
 16777215
370
     9
100
AcDbVertex
100
AcDb2dVertex
 10
73.28905229690717
 20
-121.9222577472971
 30
0.0
  0
SEQEND
  5
BA
330
B7
100
AcDbEntity
  8
_U+30EC_U+30A4_U+30E4_U+30FC 1
 62
     7
420
 16777215
370
     9
  0
POLYLINE
  5
BB
330
1F
100
AcDbEntity
  8
_U+30EC_U+30A4_U+30E4_U+30FC 1
 62
     7
420
 16777215
370
     9
100
AcDb2dPolyline
 66
     1
 10
0.0
 20
0.0
 30
0.0
  0
VERTEX
  5
BC
330
BB
100
AcDbEntity
  8
_U+30EC_U+30A4_U+30E4_U+30FC 1
 62
     7
420
 16777215
370
     9
100
AcDbVertex
100
AcDb2dVertex
 10
75.74886584526321
 20
-136.9225805213251
 30
0.0
  0
VERTEX
  5
BD
330
BB
100
AcDbEntity
  8
_U+30EC_U+30A4_U+30E4_U+30FC 1
 62
     7
420
 16777215
370
     9
100
AcDbVertex
100
AcDb2dVertex
 10
72.28963287796005
 20
-136.9225805213251
 30
0.0
  0
SEQEND
  5
BE
330
BB
100
AcDbEntity
  8
_U+30EC_U+30A4_U+30E4_U+30FC 1
 62
     7
420
 16777215
370
     9
  0
POLYLINE
  5
BF
330
1F
100
AcDbEntity
  8
_U+30EC_U+30A4_U+30E4_U+30FC 1
 62
     7
420
 16777215
370
     9
100
AcDb2dPolyline
 66
     1
 10
0.0
 20
0.0
 30
0.0
  0
VERTEX
  5
C0
330
BF
100
AcDbEntity
  8
_U+30EC_U+30A4_U+30E4_U+30FC 1
 62
     7
420
 16777215
370
     9
100
AcDbVertex
100
AcDb2dVertex
 10
75.74886584526321
 20
-121.9222577472971
 30
0.0
  0
VERTEX
  5
C1
330
BF
100
AcDbEntity
  8
_U+30EC_U+30A4_U+30E4_U+30FC 1
 62
     7
420
 16777215
370
     9
100
AcDbVertex
100
AcDb2dVertex
 10
72.28963287796005
 20
-121.9222577472971
 30
0.0
  0
SEQEND
  5
C2
330
BF
100
AcDbEntity
  8
_U+30EC_U+30A4_U+30E4_U+30FC 1
 62
     7
420
 16777215
370
     9
  0
INSERT
  5
C4
330
1F
100
AcDbEntity
  8
_U+30EC_U+30A4_U+30E4_U+30FC 1
100
AcDbBlockReference
  2
block 5
 10
0.0
 20
0.0
 30
0.0
  0
POLYLINE
  5
CB
330
1F
100
AcDbEntity
  8
_U+30EC_U+30A4_U+30E4_U+30FC 1
 62
     7
420
 16777215
370
     9
100
AcDb2dPolyline
 66
     1
 10
0.0
 20
0.0
 30
0.0
  0
VERTEX
  5
CC
330
CB
100
AcDbEntity
  8
_U+30EC_U+30A4_U+30E4_U+30FC 1
 62
     7
420
 16777215
370
     9
100
AcDbVertex
100
AcDb2dVertex
 10
78.18867689412956
 20
-140.9223044092138
 30
0.0
  0
VERTEX
  5
CD
330
CB
100
AcDbEntity
  8
_U+30EC_U+30A4_U+30E4_U+30FC 1
 62
     7
420
 16777215
370
     9
100
AcDbVertex
100
AcDb2dVertex
 10
93.1898459558623
 20
-140.9223044092138
 30
0.0
  0
SEQEND
  5
CE
330
CB
100
AcDbEntity
  8
_U+30EC_U+30A4_U+30E4_U+30FC 1
 62
     7
420
 16777215
370
     9
  0
POLYLINE
  5
CF
330
1F
100
AcDbEntity
  8
_U+30EC_U+30A4_U+30E4_U+30FC 1
 62
     7
420
 16777215
370
     9
100
AcDb2dPolyline
 66
     1
 10
0.0
 20
0.0
 30
0.0
  0
VERTEX
  5
D0
330
CF
100
AcDbEntity
  8
_U+30EC_U+30A4_U+30E4_U+30FC 1
 62
     7
420
 16777215
370
     9
100
AcDbVertex
100
AcDb2dVertex
 10
78.18867689412956
 20
-138.4625260764957
 30
0.0
  0
VERTEX
  5
D1
330
CF
100
AcDbEntity
  8
_U+30EC_U+30A4_U+30E4_U+30FC 1
 62
     7
420
 16777215
370
     9
100
AcDbVertex
100
AcDb2dVertex
 10
78.18867689412956
 20
-141.9220766311863
 30
0.0
  0
SEQEND
  5
D2
330
CF
100
AcDbEntity
  8
_U+30EC_U+30A4_U+30E4_U+30FC 1
 62
     7
420
 16777215
370
     9
  0
POLYLINE
  5
D3
330
1F
100
AcDbEntity
  8
_U+30EC_U+30A4_U+30E4_U+30FC 1
 62
     7
420
 16777215
370
     9
100
AcDb2dPolyline
 66
     1
 10
0.0
 20
0.0
 30
0.0
  0
VERTEX
  5
D4
330
D3
100
AcDbEntity
  8
_U+30EC_U+30A4_U+30E4_U+30FC 1
 62
     7
420
 16777215
370
     9
100
AcDbVertex
100
AcDb2dVertex
 10
93.1898459558623
 20
-138.4625260764957
 30
0.0
  0
VERTEX
  5
D5
330
D3
100
AcDbEntity
  8
_U+30EC_U+30A4_U+30E4_U+30FC 1
 62
     7
420
 16777215
370
     9
100
AcDbVertex
100
AcDb2dVertex
 10
93.1898459558623
 20
-141.9220766311863
 30
0.0
  0
SEQEND
  5
D6
330
D3
100
AcDbEntity
  8
_U+30EC_U+30A4_U+30E4_U+30FC 1
 62
     7
420
 16777215
370
     9
  0
INSERT
  5
D8
330
1F
100
AcDbEntity
  8
_U+30EC_U+30A4_U+30E4_U+30FC 1
100
AcDbBlockReference
  2
block 6
 10
0.0
 20
0.0
 30
0.0
  0
POLYLINE
  5
DF
330
1F
100
AcDbEntity
  8
_U+30EC_U+30A4_U+30E4_U+30FC 1
 62
     7
420
 16777215
370
     9
100
AcDb2dPolyline
 66
     1
 10
0.0
 20
0.0
 30
0.0
  0
VERTEX
  5
E0
330
DF
100
AcDbEntity
  8
_U+30EC_U+30A4_U+30E4_U+30FC 1
 62
     7
420
 16777215
370
     9
100
AcDbVertex
100
AcDb2dVertex
 10
97.28880612906688
 20
-135.922102743797
 30
0.0
  0
VERTEX
  5
E1
330
DF
100
AcDbEntity
  8
_U+30EC_U+30A4_U+30E4_U+30FC 1
 62
     7
420
 16777215
370
     9
100
AcDbVertex
100
AcDb2dVertex
 10
97.28880612906688
 20
-127.4220280236999
 30
0.0
  0
SEQEND
  5
E2
330
DF
100
AcDbEntity
  8
_U+30EC_U+30A4_U+30E4_U+30FC 1
 62
     7
420
 16777215
370
     9
  0
POLYLINE
  5
E3
330
1F
100
AcDbEntity
  8
_U+30EC_U+30A4_U+30E4_U+30FC 1
 62
     7
420
 16777215
370
     9
100
AcDb2dPolyline
 66
     1
 10
0.0
 20
0.0
 30
0.0
  0
VERTEX
  5
E4
330
E3
100
AcDbEntity
  8
_U+30EC_U+30A4_U+30E4_U+30FC 1
 62
     7
420
 16777215
370
     9
100
AcDbVertex
100
AcDb2dVertex
 10
95.82876477742676
 20
-135.922102743797
 30
0.0
  0
VERTEX
  5
E5
330
E3
100
AcDbEntity
  8
_U+30EC_U+30A4_U+30E4_U+30FC 1
 62
     7
420
 16777215
370
     9
100
AcDbVertex
100
AcDb2dVertex
 10
98.2885783257828
 20
-135.922102743797
 30
0.0
  0
SEQEND
  5
E6
330
E3
100
AcDbEntity
  8
_U+30EC_U+30A4_U+30E4_U+30FC 1
 62
     7
420
 16777215
370
     9
  0
POLYLINE
  5
E7
330
1F
100
AcDbEntity
  8
_U+30EC_U+30A4_U+30E4_U+30FC 1
 62
     7
420
 16777215
370
     9
100
AcDb2dPolyline
 66
     1
 10
0.0
 20
0.0
 30
0.0
  0
VERTEX
  5
E8
330
E7
100
AcDbEntity
  8
_U+30EC_U+30A4_U+30E4_U+30FC 1
 62
     7
420
 16777215
370
     9
100
AcDbVertex
100
AcDb2dVertex
 10
95.82876477742676
 20
-127.4220280236999
 30
0.0
  0
VERTEX
  5
E9
330
E7
100
AcDbEntity
  8
_U+30EC_U+30A4_U+30E4_U+30FC 1
 62
     7
420
 16777215
370
     9
100
AcDbVertex
100
AcDb2dVertex
 10
98.2885783257828
 20
-127.4220280236999
 30
0.0
  0
SEQEND
  5
EA
330
E7
100
AcDbEntity
  8
_U+30EC_U+30A4_U+30E4_U+30FC 1
 62
     7
420
 16777215
370
     9
  0
INSERT
  5
EC
330
1F
100
AcDbEntity
  8
_U+30EC_U+30A4_U+30E4_U+30FC 1
100
AcDbBlockReference
  2
block 7
 10
0.0
 20
0.0
 30
0.0
  0
POLYLINE
  5
FD
330
1F
100
AcDbEntity
  8
_U+30EC_U+30A4_U+30E4_U+30FC 1
 62
   179
420
  2234388
370
     9
100
AcDb2dPolyline
 66
     1
 10
0.0
 20
0.0
 30
0.0
  0
VERTEX
  5
FE
330
FD
100
AcDbEntity
  8
_U+30EC_U+30A4_U+30E4_U+30FC 1
 62
   179
420
  2234388
370
     9
100
AcDbVertex
100
AcDb2dVertex
 10
93.00379096060895
 20
-137.6598155211407
 30
0.0
  0
VERTEX
  5
FF
330
FD
100
AcDbEntity
  8
_U+30EC_U+30A4_U+30E4_U+30FC 1
 62
   179
420
  2234388
370
     9
100
AcDbVertex
100
AcDb2dVertex
 10
95.50286867462995
 20
-140.4661980204388
 30
0.0
  0
VERTEX
  5
100
330
FD
100
AcDbEntity
  8
_U+30EC_U+30A4_U+30E4_U+30FC 1
 62
   179
420
  2234388
370
     9
100
AcDbVertex
100
AcDb2dVertex
 10
111.8629377016943
 20
-140.4661980204388
 30
0.0
  0
SEQEND
  5
101
330
FD
100
AcDbEntity
  8
_U+30EC_U+30A4_U+30E4_U+30FC 1
 62
   179
420
  2234388
370
     9
  0
INSERT
  5
103
330
1F
100
AcDbEntity
  8
_U+30EC_U+30A4_U+30E4_U+30FC 1
100
AcDbBlockReference
  2
block 8
 10
0.0
 20
0.0
 30
0.0
  0
ENDSEC
  0
SECTION
  2
OBJECTS
  0
DICTIONARY
  5
C
330
0
100
AcDbDictionary
281
     1
  3
ACAD_GROUP
350
D
  3
ACAD_LAYOUT
350
1A
  3
ACAD_MATERIAL
350
3B
  3
ACAD_MLEADERSTYLE
350
141
  3
ACAD_MLINESTYLE
350
17
  3
ACAD_PLOTSETTINGS
350
19
  3
ACAD_PLOTSTYLENAME
350
E
  3
ACAD_TABLESTYLE
350
140
  3
ACAD_VISUALSTYLE
350
2A
  0
SUN
  5
3F
330
29
100
AcDbSun
 90
        1
290
     0
 63
     7
421
 16777215
 40
1.0
291
     1
 91
  2455826
 92
 54000000
292
     0
 70
     2
 71
   256
280
     1
  0
DICTIONARY
  5
D
102
{ACAD_REACTORS
330
C
102
}
330
C
100
AcDbDictionary
281
     1
  0
DICTIONARY
  5
1A
102
{ACAD_REACTORS
330
C
102
}
330
C
100
AcDbDictionary
281
     1
  3
Layout1
350
1E
  3
Layout2
350
26
  3
Model
350
22
  0
DICTIONARY
  5
3B
102
{ACAD_REACTORS
330
C
102
}
330
C
100
AcDbDictionary
281
     1
  3
ByBlock
350
3D
  3
ByLayer
350
3C
  3
Global
350
3E
  0
DICTIONARY
  5
141
102
{ACAD_REACTORS
330
C
102
}
330
C
100
AcDbDictionary
281
     1
  0
DICTIONARY
  5
17
102
{ACAD_REACTORS
330
C
102
}
330
C
100
AcDbDictionary
281
     1
  3
Standard
350
18
  0
DICTIONARY
  5
19
102
{ACAD_REACTORS
330
C
102
}
330
C
100
AcDbDictionary
281
     1
  0
ACDBDICTIONARYWDFLT
  5
E
102
{ACAD_REACTORS
330
C
102
}
330
C
100
AcDbDictionary
281
     1
  3
Normal
350
F
100
AcDbDictionaryWithDefault
340
F
  0
DICTIONARY
  5
140
102
{ACAD_REACTORS
330
C
102
}
330
C
100
AcDbDictionary
281
     1
  0
DICTIONARY
  5
2A
102
{ACAD_REACTORS
330
C
102
}
330
C
100
AcDbDictionary
281
     1
  3
2dWireframe
350
2F
  3
3D Hidden
350
31
  3
3dWireframe
350
30
  3
Basic
350
32
  3
Brighten
350
36
  3
ColorChange
350
3A
  3
Conceptual
350
34
  3
Dim
350
35
  3
Facepattern
350
39
  3
Flat
350
2B
  3
FlatWithEdges
350
2C
  3
Gouraud
350
2D
  3
GouraudWithEdges
350
2E
  3
Linepattern
350
38
  3
Realistic
350
33
  3
Thicken
350
37
  0
LAYOUT
  5
1E
102
{ACAD_REACTORS
330
1A
102
}
330
1A
100
AcDbPlotSettings
  1

  2
none_device
  4

  6

 40
0.0
 41
0.0
 42
0.0
 43
0.0
 44
0.0
 45
0.0
 46
0.0
 47
0.0
 48
0.0
 49
0.0
140
0.0
141
0.0
142
1.0
143
1.0
 70
   688
 72
     0
 73
     0
 74
     5
  7

 75
    16
 76
     0
 77
     2
 78
   300
147
1.0
148
0.0
149
0.0
100
AcDbLayout
  1
Layout1
 70
     1
 71
     1
 10
0.0
 20
0.0
 11
12.0
 21
9.0
 12
0.0
 22
0.0
 32
0.0
 14
1.000000000000000E+20
 24
1.000000000000000E+20
 34
1.000000000000000E+20
 15
-1.000000000000000E+20
 25
-1.000000000000000E+20
 35
-1.000000000000000E+20
146
0.0
 13
0.0
 23
0.0
 33
0.0
 16
1.0
 26
0.0
 36
0.0
 17
0.0
 27
1.0
 37
0.0
 76
     0
330
1B
  0
LAYOUT
  5
26
102
{ACAD_REACTORS
330
1A
102
}
330
1A
100
AcDbPlotSettings
  1

  2
none_device
  4

  6

 40
0.0
 41
0.0
 42
0.0
 43
0.0
 44
0.0
 45
0.0
 46
0.0
 47
0.0
 48
0.0
 49
0.0
140
0.0
141
0.0
142
1.0
143
1.0
 70
   688
 72
     0
 73
     0
 74
     5
  7

 75
    16
 76
     0
 77
     2
 78
   300
147
1.0
148
0.0
149
0.0
100
AcDbLayout
  1
Layout2
 70
     1
 71
     2
 10
0.0
 20
0.0
 11
0.0
 21
0.0
 12
0.0
 22
0.0
 32
0.0
 14
0.0
 24
0.0
 34
0.0
 15
0.0
 25
0.0
 35
0.0
146
0.0
 13
0.0
 23
0.0
 33
0.0
 16
1.0
 26
0.0
 36
0.0
 17
0.0
 27
1.0
 37
0.0
 76
     0
330
23
  0
LAYOUT
  5
22
102
{ACAD_REACTORS
330
1A
102
}
330
1A
100
AcDbPlotSettings
  1

  2
none_device
  4

  6

 40
0.0
 41
0.0
 42
0.0
 43
0.0
 44
0.0
 45
0.0
 46
0.0
 47
0.0
 48
0.0
 49
0.0
140
0.0
141
0.0
142
1.0
143
1.0
 70
  1712
 72
     0
 73
     0
 74
     0
  7

 75
     0
 76
     0
 77
     2
 78
   300
147
1.0
148
0.0
149
0.0
100
AcDbLayout
  1
Model
 70
     1
 71
     0
 10
0.0
 20
0.0
 11
12.0
 21
9.0
 12
0.0
 22
0.0
 32
0.0
 14
1.000000000000000E+20
 24
1.000000000000000E+20
 34
1.000000000000000E+20
 15
-1.000000000000000E+20
 25
-1.000000000000000E+20
 35
-1.000000000000000E+20
146
0.0
 13
0.0
 23
0.0
 33
0.0
 16
1.0
 26
0.0
 36
0.0
 17
0.0
 27
1.0
 37
0.0
 76
     0
330
1F
331
29
  0
MATERIAL
  5
3D
102
{ACAD_REACTORS
330
3B
102
}
330
3B
100
AcDbMaterial
  1
ByBlock
 72
     1
 94
      127
  0
MATERIAL
  5
3C
102
{ACAD_REACTORS
330
3B
102
}
330
3B
100
AcDbMaterial
  1
ByLayer
 72
     1
 94
      127
  0
MATERIAL
  5
3E
102
{ACAD_REACTORS
330
3B
102
}
330
3B
100
AcDbMaterial
  1
Global
 72
     1
 94
      127
  0
MLINESTYLE
  5
18
102
{ACAD_REACTORS
330
17
102
}
330
17
100
AcDbMlineStyle
  2
Standard
 70
     0
  3

 62
   256
 51
90.0
 52
90.0
 71
     2
 49
0.5
 62
   256
  6
BYLAYER
 49
-0.5
 62
   256
  6
BYLAYER
  0
ACDBPLACEHOLDER
  5
F
102
{ACAD_REACTORS
330
E
102
}
330
E
  0
VISUALSTYLE
  5
2F
102
{ACAD_REACTORS
330
2A
102
}
330
2A
100
AcDbVisualStyle
  2
2dWireframe
 70
     4
177
     2
291
     0
 71
     0
176
     1
 72
     2
176
     1
 73
     0
176
     1
 90
        0
176
     1
 40
-0.6
176
     1
 41
-30.0
176
     1
 62
     5
 63
     7
421
 16777215
176
     1
 74
     1
176
     1
 91
        4
176
     1
 64
     7
176
     1
 65
   257
176
     1
 75
     1
176
     1
175
     1
176
     1
 42
1.0
176
     1
 92
        0
176
     1
 66
   257
176
     1
 43
1.0
176
     1
 76
     1
176
     1
 77
     6
176
     1
 78
     2
176
     1
 67
     7
176
     1
 79
     5
176
     1
170
     0
176
     1
171
     0
176
     1
290
     0
176
     1
 93
        1
176
     1
 44
0.0
176
     1
173
     0
176
     1
  0
VISUALSTYLE
  5
31
102
{ACAD_REACTORS
330
2A
102
}
330
2A
100
AcDbVisualStyle
  2
3D Hidden
 70
     6
177
     2
291
     0
 71
     1
176
     1
 72
     2
176
     1
 73
     2
176
     1
 90
        0
176
     1
 40
-0.6
176
     1
 41
-30.0
176
     1
 62
     5
 63
     7
421
 16777215
176
     1
 74
     2
176
     1
 91
        2
176
     1
 64
     7
176
     1
 65
   257
176
     1
 75
     2
176
     1
175
     1
176
     1
 42
40.0
176
     1
 92
        0
176
     1
 66
   257
176
     1
 43
1.0
176
     1
 76
     1
176
     1
 77
     6
176
     1
 78
     2
176
     1
 67
     7
176
     1
 79
     3
176
     1
170
     0
176
     1
171
     0
176
     1
290
     0
176
     1
 93
        1
176
     1
 44
0.0
176
     1
173
     0
176
     1
  0
VISUALSTYLE
  5
30
102
{ACAD_REACTORS
330
2A
102
}
330
2A
100
AcDbVisualStyle
  2
3dWireframe
 70
     5
177
     2
291
     0
 71
     0
176
     1
 72
     2
176
     1
 73
     0
176
     1
 90
        0
176
     1
 40
-0.6
176
     1
 41
-30.0
176
     1
 62
     5
 63
     7
421
 16777215
176
     1
 74
     1
176
     1
 91
        4
176
     1
 64
     7
176
     1
 65
   257
176
     1
 75
     1
176
     1
175
     1
176
     1
 42
1.0
176
     1
 92
        0
176
     1
 66
   257
176
     1
 43
1.0
176
     1
 76
     1
176
     1
 77
     6
176
     1
 78
     2
176
     1
 67
     7
176
     1
 79
     5
176
     1
170
     0
176
     1
171
     0
176
     1
290
     0
176
     1
 93
        1
176
     1
 44
0.0
176
     1
173
     0
176
     1
  0
VISUALSTYLE
  5
32
102
{ACAD_REACTORS
330
2A
102
}
330
2A
100
AcDbVisualStyle
  2
Basic
 70
     7
177
     2
291
     1
 71
     1
176
     1
 72
     0
176
     1
 73
     1
176
     1
 90
        0
176
     1
 40
-0.6
176
     1
 41
-30.0
176
     1
 62
     5
 63
     7
421
 16777215
176
     1
 74
     0
176
     1
 91
        4
176
     1
 64
     7
176
     1
 65
   257
176
     1
 75
     1
176
     1
175
     1
176
     1
 42
1.0
176
     1
 92
        8
176
     1
 66
     7
176
     1
 43
1.0
176
     1
 76
     1
176
     1
 77
     6
176
     1
 78
     2
176
     1
 67
     7
176
     1
 79
     5
176
     1
170
     0
176
     1
171
     0
176
     1
290
     0
176
     1
 93
        1
176
     1
 44
0.0
176
     1
173
     0
176
     1
  0
VISUALSTYLE
  5
36
102
{ACAD_REACTORS
330
2A
102
}
330
2A
100
AcDbVisualStyle
  2
Brighten
 70
    12
177
     2
291
     1
 71
     2
176
     1
 72
     2
176
     1
 73
     0
176
     1
 90
        0
176
     1
 40
-0.6
176
     1
 41
-30.0
176
     1
 62
     5
 63
     7
421
 16777215
176
     1
 74
     1
176
     1
 91
        4
176
     1
 64
     7
176
     1
 65
   257
176
     1
 75
     1
176
     1
175
     1
176
     1
 42
1.0
176
     1
 92
        8
176
     1
 66
     7
176
     1
 43
1.0
176
     1
 76
     1
176
     1
 77
     6
176
     1
 78
     2
176
     1
 67
     7
176
     1
 79
     5
176
     1
170
     0
176
     1
171
     0
176
     1
290
     0
176
     1
 93
        1
176
     1
 44
50.0
176
     1
173
     0
176
     1
  0
VISUALSTYLE
  5
3A
102
{ACAD_REACTORS
330
2A
102
}
330
2A
100
AcDbVisualStyle
  2
ColorChange
 70
    16
177
     2
291
     1
 71
     2
176
     1
 72
     2
176
     1
 73
     3
176
     1
 90
        0
176
     1
 40
-0.6
176
     1
 41
-30.0
176
     1
 62
     5
 63
     8
421
  8421504
176
     1
 74
     1
176
     1
 91
        4
176
     1
 64
     7
176
     1
 65
   257
176
     1
 75
     1
176
     1
175
     1
176
     1
 42
1.0
176
     1
 92
        8
176
     1
 66
     8
424
  8421504
176
     1
 43
1.0
176
     1
 76
     1
176
     1
 77
     6
176
     1
 78
     2
176
     1
 67
     7
176
     1
 79
     5
176
     1
170
     0
176
     1
171
     0
176
     1
290
     0
176
     1
 93
        1
176
     1
 44
0.0
176
     1
173
     0
176
     1
  0
VISUALSTYLE
  5
34
102
{ACAD_REACTORS
330
2A
102
}
330
2A
100
AcDbVisualStyle
  2
Conceptual
 70
     9
177
     2
291
     0
 71
     3
176
     1
 72
     2
176
     1
 73
     0
176
     1
 90
        0
176
     1
 40
-0.6
176
     1
 41
-30.0
176
     1
 62
     5
 63
     7
421
 16777215
176
     1
 74
     2
176
     1
 91
        2
176
     1
 64
     7
176
     1
 65
   257
176
     1
 75
     1
176
     1
175
     1
176
     1
 42
40.0
176
     1
 92
        8
176
     1
 66
     7
176
     1
 43
1.0
176
     1
 76
     1
176
     1
 77
     6
176
     1
 78
     2
176
     1
 67
     7
176
     1
 79
     3
176
     1
170
     0
176
     1
171
     0
176
     1
290
     0
176
     1
 93
        1
176
     1
 44
0.0
176
     1
173
     0
176
     1
  0
VISUALSTYLE
  5
35
102
{ACAD_REACTORS
330
2A
102
}
330
2A
100
AcDbVisualStyle
  2
Dim
 70
    11
177
     2
291
     1
 71
     2
176
     1
 72
     2
176
     1
 73
     0
176
     1
 90
        0
176
     1
 40
-0.6
176
     1
 41
-30.0
176
     1
 62
     5
 63
     7
421
 16777215
176
     1
 74
     1
176
     1
 91
        4
176
     1
 64
     7
176
     1
 65
   257
176
     1
 75
     1
176
     1
175
     1
176
     1
 42
1.0
176
     1
 92
        8
176
     1
 66
     7
176
     1
 43
1.0
176
     1
 76
     1
176
     1
 77
     6
176
     1
 78
     2
176
     1
 67
     7
176
     1
 79
     5
176
     1
170
     0
176
     1
171
     0
176
     1
290
     0
176
     1
 93
        1
176
     1
 44
-50.0
176
     1
173
     0
176
     1
  0
VISUALSTYLE
  5
39
102
{ACAD_REACTORS
330
2A
102
}
330
2A
100
AcDbVisualStyle
  2
Facepattern
 70
    15
177
     2
291
     1
 71
     2
176
     1
 72
     2
176
     1
 73
     0
176
     1
 90
        0
176
     1
 40
-0.6
176
     1
 41
-30.0
176
     1
 62
     5
 63
     7
421
 16777215
176
     1
 74
     1
176
     1
 91
        4
176
     1
 64
     7
176
     1
 65
   257
176
     1
 75
     1
176
     1
175
     1
176
     1
 42
1.0
176
     1
 92
        8
176
     1
 66
     7
176
     1
 43
1.0
176
     1
 76
     1
176
     1
 77
     6
176
     1
 78
     2
176
     1
 67
     7
176
     1
 79
     5
176
     1
170
     0
176
     1
171
     0
176
     1
290
     0
176
     1
 93
        1
176
     1
 44
0.0
176
     1
173
     0
176
     1
  0
VISUALSTYLE
  5
2B
102
{ACAD_REACTORS
330
2A
102
}
330
2A
100
AcDbVisualStyle
  2
Flat
 70
     0
177
     2
291
     1
 71
     2
176
     1
 72
     1
176
     1
 73
     1
176
     1
 90
        2
176
     1
 40
-0.6
176
     1
 41
30.0
176
     1
 62
     5
 63
     7
421
 16777215
176
     1
 74
     0
176
     1
 91
        4
176
     1
 64
     7
176
     1
 65
   257
176
     1
 75
     1
176
     1
175
     1
176
     1
 42
1.0
176
     1
 92
        8
176
     1
 66
     7
176
     1
 43
1.0
176
     1
 76
     1
176
     1
 77
     6
176
     1
 78
     2
176
     1
 67
     7
176
     1
 79
     5
176
     1
170
     0
176
     1
171
     0
176
     1
290
     0
176
     1
 93
       13
176
     1
 44
0.0
176
     1
173
     0
176
     1
  0
VISUALSTYLE
  5
2C
102
{ACAD_REACTORS
330
2A
102
}
330
2A
100
AcDbVisualStyle
  2
FlatWithEdges
 70
     1
177
     2
291
     1
 71
     2
176
     1
 72
     1
176
     1
 73
     1
176
     1
 90
        2
176
     1
 40
-0.6
176
     1
 41
30.0
176
     1
 62
     5
 63
     7
421
 16777215
176
     1
 74
     1
176
     1
 91
        4
176
     1
 64
     7
176
     1
 65
   257
176
     1
 75
     1
176
     1
175
     1
176
     1
 42
1.0
176
     1
 92
        0
176
     1
 66
   257
176
     1
 43
1.0
176
     1
 76
     1
176
     1
 77
     6
176
     1
 78
     2
176
     1
 67
     7
176
     1
 79
     5
176
     1
170
     0
176
     1
171
     0
176
     1
290
     0
176
     1
 93
       13
176
     1
 44
0.0
176
     1
173
     0
176
     1
  0
VISUALSTYLE
  5
2D
102
{ACAD_REACTORS
330
2A
102
}
330
2A
100
AcDbVisualStyle
  2
Gouraud
 70
     2
177
     2
291
     1
 71
     2
176
     1
 72
     2
176
     1
 73
     1
176
     1
 90
        2
176
     1
 40
-0.6
176
     1
 41
30.0
176
     1
 62
     5
 63
     7
421
 16777215
176
     1
 74
     0
176
     1
 91
        4
176
     1
 64
     7
176
     1
 65
   257
176
     1
 75
     1
176
     1
175
     1
176
     1
 42
1.0
176
     1
 92
        0
176
     1
 66
     7
176
     1
 43
1.0
176
     1
 76
     1
176
     1
 77
     6
176
     1
 78
     2
176
     1
 67
     7
176
     1
 79
     5
176
     1
170
     0
176
     1
171
     0
176
     1
290
     0
176
     1
 93
       13
176
     1
 44
0.0
176
     1
173
     0
176
     1
  0
VISUALSTYLE
  5
2E
102
{ACAD_REACTORS
330
2A
102
}
330
2A
100
AcDbVisualStyle
  2
GouraudWithEdges
 70
     3
177
     2
291
     1
 71
     2
176
     1
 72
     2
176
     1
 73
     1
176
     1
 90
        2
176
     1
 40
-0.6
176
     1
 41
30.0
176
     1
 62
     5
 63
     7
421
 16777215
176
     1
 74
     1
176
     1
 91
        4
176
     1
 64
     7
176
     1
 65
   257
176
     1
 75
     1
176
     1
175
     1
176
     1
 42
1.0
176
     1
 92
        0
176
     1
 66
   257
176
     1
 43
1.0
176
     1
 76
     1
176
     1
 77
     6
176
     1
 78
     2
176
     1
 67
     7
176
     1
 79
     5
176
     1
170
     0
176
     1
171
     0
176
     1
290
     0
176
     1
 93
       13
176
     1
 44
0.0
176
     1
173
     0
176
     1
  0
VISUALSTYLE
  5
38
102
{ACAD_REACTORS
330
2A
102
}
330
2A
100
AcDbVisualStyle
  2
Linepattern
 70
    14
177
     2
291
     1
 71
     2
176
     1
 72
     2
176
     1
 73
     0
176
     1
 90
        0
176
     1
 40
-0.6
176
     1
 41
-30.0
176
     1
 62
     5
 63
     7
421
 16777215
176
     1
 74
     1
176
     1
 91
        4
176
     1
 64
     7
176
     1
 65
   257
176
     1
 75
     7
176
     1
175
     7
176
     1
 42
1.0
176
     1
 92
        8
176
     1
 66
     7
176
     1
 43
1.0
176
     1
 76
     1
176
     1
 77
     6
176
     1
 78
     2
176
     1
 67
     7
176
     1
 79
     5
176
     1
170
     0
176
     1
171
     0
176
     1
290
     0
176
     1
 93
        1
176
     1
 44
0.0
176
     1
173
     0
176
     1
  0
VISUALSTYLE
  5
33
102
{ACAD_REACTORS
330
2A
102
}
330
2A
100
AcDbVisualStyle
  2
Realistic
 70
     8
177
     2
291
     0
 71
     2
176
     1
 72
     2
176
     1
 73
     0
176
     1
 90
        0
176
     1
 40
-0.6
176
     1
 41
-30.0
176
     1
 62
     5
 63
     7
421
 16777215
176
     1
 74
     1
176
     1
 91
        0
176
     1
 64
     7
176
     1
 65
   257
176
     1
 75
     1
176
     1
175
     1
176
     1
 42
1.0
176
     1
 92
        8
176
     1
 66
     8
424
  7895160
176
     1
 43
1.0
176
     1
 76
     1
176
     1
 77
     6
176
     1
 78
     2
176
     1
 67
     7
176
     1
 79
     5
176
     1
170
     0
176
     1
171
     0
176
     1
290
     0
176
     1
 93
       13
176
     1
 44
0.0
176
     1
173
     0
176
     1
  0
VISUALSTYLE
  5
37
102
{ACAD_REACTORS
330
2A
102
}
330
2A
100
AcDbVisualStyle
  2
Thicken
 70
    13
177
     2
291
     1
 71
     2
176
     1
 72
     2
176
     1
 73
     0
176
     1
 90
        0
176
     1
 40
-0.6
176
     1
 41
-30.0
176
     1
 62
     5
 63
     7
421
 16777215
176
     1
 74
     1
176
     1
 91
        4
176
     1
 64
     7
176
     1
 65
   257
176
     1
 75
     1
176
     1
175
     1
176
     1
 42
1.0
176
     1
 92
       12
176
     1
 66
     7
176
     1
 43
1.0
176
     1
 76
     1
176
     1
 77
     6
176
     1
 78
     2
176
     1
 67
     7
176
     1
 79
     5
176
     1
170
     0
176
     1
171
     0
176
     1
290
     0
176
     1
 93
        1
176
     1
 44
0.0
176
     1
173
     0
176
     1
  0
ENDSEC
  0
EOF
