  0
SECTION
  2
HEADER
  9
$ACADVER
  1
AC1024
  9
$ACADMAINTVER
 70
     6
  9
$DWGCODEPAGE
  3
UNDEFINED
  9
$INSBASE
 10
0.0
 20
0.0
 30
0.0
  9
$EXTMIN
 10
1.000000000000000E+20
 20
1.000000000000000E+20
 30
1.000000000000000E+20
  9
$EXTMAX
 10
-1.000000000000000E+20
 20
-1.000000000000000E+20
 30
-1.000000000000000E+20
  9
$LIMMIN
 10
0.0
 20
0.0
  9
$LIMMAX
 10
12.0
 20
9.0
  9
$ORTHOMODE
 70
     0
  9
$REGENMODE
 70
     1
  9
$FILLMODE
 70
     1
  9
$QTEXTMODE
 70
     0
  9
$MIRRTEXT
 70
     1
  9
$LTSCALE
 40
1.0
  9
$ATTMODE
 70
     1
  9
$TEXTSIZE
 40
0.2
  9
$TRACEWID
 40
0.05
  9
$TEXTSTYLE
  7
Standard
  9
$CLAYER
  8
0
  9
$CELTYPE
  6
ByLayer
  9
$CECOLOR
 62
   256
  9
$CELTSCALE
 40
1.0
  9
$DISPSILH
 70
     0
  9
$DIMSCALE
 40
1.0
  9
$DIMASZ
 40
0.18
  9
$DIMEXO
 40
0.0625
  9
$DIMDLI
 40
0.38
  9
$DIMRND
 40
0.0
  9
$DIMDLE
 40
0.0
  9
$DIMEXE
 40
0.18
  9
$DIMTP
 40
0.0
  9
$DIMTM
 40
0.0
  9
$DIMTXT
 40
0.18
  9
$DIMCEN
 40
0.09
  9
$DIMTSZ
 40
0.0
  9
$DIMTOL
 70
     0
  9
$DIMLIM
 70
     0
  9
$DIMTIH
 70
     1
  9
$DIMTOH
 70
     1
  9
$DIMSE1
 70
     0
  9
$DIMSE2
 70
     0
  9
$DIMTAD
 70
     0
  9
$DIMZIN
 70
     0
  9
$DIMBLK
  1

  9
$DIMASO
 70
     1
  9
$DIMSHO
 70
     1
  9
$DIMPOST
  1

  9
$DIMAPOST
  1

  9
$DIMALT
 70
     0
  9
$DIMALTD
 70
     2
  9
$DIMALTF
 40
25.4
  9
$DIMLFAC
 40
1.0
  9
$DIMTOFL
 70
     0
  9
$DIMTVP
 40
0.0
  9
$DIMTIX
 70
     0
  9
$DIMSOXD
 70
     0
  9
$DIMSAH
 70
     0
  9
$DIMBLK1
  1

  9
$DIMBLK2
  1

  9
$DIMSTYLE
  2
Standard
  9
$DIMCLRD
 70
     0
  9
$DIMCLRE
 70
     0
  9
$DIMCLRT
 70
     0
  9
$DIMTFAC
 40
1.0
  9
$DIMGAP
 40
0.09
  9
$DIMJUST
 70
     0
  9
$DIMSD1
 70
     0
  9
$DIMSD2
 70
     0
  9
$DIMTOLJ
 70
     1
  9
$DIMTZIN
 70
     0
  9
$DIMALTZ
 70
     0
  9
$DIMALTTZ
 70
     0
  9
$DIMUPT
 70
     0
  9
$DIMDEC
 70
     4
  9
$DIMTDEC
 70
     4
  9
$DIMALTU
 70
     2
  9
$DIMALTTD
 70
     2
  9
$DIMTXSTY
  7
Standard
  9
$DIMAUNIT
 70
     0
  9
$DIMADEC
 70
     0
  9
$DIMALTRND
 40
0.0
  9
$DIMAZIN
 70
     0
  9
$DIMDSEP
 70
    46
  9
$DIMATFIT
 70
     3
  9
$DIMFRAC
 70
     0
  9
$DIMLDRBLK
  1

  9
$DIMLUNIT
 70
     2
  9
$DIMLWD
 70
    -2
  9
$DIMLWE
 70
    -2
  9
$DIMTMOVE
 70
     0
  9
$DIMFXL
 40
1.0
  9
$DIMFXLON
 70
     0
  9
$DIMJOGANG
 40
0.7853981633974483
  9
$DIMTFILL
 70
     0
  9
$DIMTFILLCLR
 70
     0
  9
$DIMARCSYM
 70
     0
  9
$DIMLTYPE
  6

  9
$DIMLTEX1
  6

  9
$DIMLTEX2
  6

  9
$DIMTXTDIRECTION
 70
     0
  9
$LUNITS
 70
     2
  9
$LUPREC
 70
     4
  9
$SKETCHINC
 40
0.1
  9
$FILLETRAD
 40
0.5
  9
$AUNITS
 70
     0
  9
$AUPREC
 70
     0
  9
$MENU
  1
.
  9
$ELEVATION
 40
0.0
  9
$PELEVATION
 40
0.0
  9
$THICKNESS
 40
0.0
  9
$LIMCHECK
 70
     0
  9
$CHAMFERA
 40
0.5
  9
$CHAMFERB
 40
0.5
  9
$CHAMFERC
 40
1.0
  9
$CHAMFERD
 40
0.0
  9
$SKPOLY
 70
     0
  9
$TDCREATE
 40
2457917.59960647
  9
$TDUCREATE
 40
2457917.224606481
  9
$TDUPDATE
 40
2457917.59960647
  9
$TDUUPDATE
 40
2457917.224606481
  9
$TDINDWG
 40
0.0000000116
  9
$TDUSRTIMER
 40
0.0000000116
  9
$USRTIMER
 70
     1
  9
$ANGBASE
 50
0.0
  9
$ANGDIR
 70
     0
  9
$PDMODE
 70
     0
  9
$PDSIZE
 40
0.0
  9
$PLINEWID
 40
0.0
  9
$SPLFRAME
 70
     0
  9
$SPLINETYPE
 70
     6
  9
$SPLINESEGS
 70
     8
  9
$HANDSEED
  5
142
  9
$SURFTAB1
 70
     6
  9
$SURFTAB2
 70
     6
  9
$SURFTYPE
 70
     6
  9
$SURFU
 70
     6
  9
$SURFV
 70
     6
  9
$UCSBASE
  2

  9
$UCSNAME
  2

  9
$UCSORG
 10
0.0
 20
0.0
 30
0.0
  9
$UCSXDIR
 10
1.0
 20
0.0
 30
0.0
  9
$UCSYDIR
 10
0.0
 20
1.0
 30
0.0
  9
$UCSORTHOREF
  2

  9
$UCSORTHOVIEW
 70
     0
  9
$UCSORGTOP
 10
0.0
 20
0.0
 30
0.0
  9
$UCSORGBOTTOM
 10
0.0
 20
0.0
 30
0.0
  9
$UCSORGLEFT
 10
0.0
 20
0.0
 30
0.0
  9
$UCSORGRIGHT
 10
0.0
 20
0.0
 30
0.0
  9
$UCSORGFRONT
 10
0.0
 20
0.0
 30
0.0
  9
$UCSORGBACK
 10
0.0
 20
0.0
 30
0.0
  9
$PUCSBASE
  2

  9
$PUCSNAME
  2

  9
$PUCSORG
 10
0.0
 20
0.0
 30
0.0
  9
$PUCSXDIR
 10
1.0
 20
0.0
 30
0.0
  9
$PUCSYDIR
 10
0.0
 20
1.0
 30
0.0
  9
$PUCSORTHOREF
  2

  9
$PUCSORTHOVIEW
 70
     0
  9
$PUCSORGTOP
 10
0.0
 20
0.0
 30
0.0
  9
$PUCSORGBOTTOM
 10
0.0
 20
0.0
 30
0.0
  9
$PUCSORGLEFT
 10
0.0
 20
0.0
 30
0.0
  9
$PUCSORGRIGHT
 10
0.0
 20
0.0
 30
0.0
  9
$PUCSORGFRONT
 10
0.0
 20
0.0
 30
0.0
  9
$PUCSORGBACK
 10
0.0
 20
0.0
 30
0.0
  9
$USERI1
 70
     0
  9
$USERI2
 70
     0
  9
$USERI3
 70
     0
  9
$USERI4
 70
     0
  9
$USERI5
 70
     0
  9
$USERR1
 40
0.0
  9
$USERR2
 40
0.0
  9
$USERR3
 40
0.0
  9
$USERR4
 40
0.0
  9
$USERR5
 40
0.0
  9
$WORLDVIEW
 70
     1
  9
$SHADEDGE
 70
     3
  9
$SHADEDIF
 70
    70
  9
$TILEMODE
 70
     1
  9
$MAXACTVP
 70
    64
  9
$PINSBASE
 10
0.0
 20
0.0
 30
0.0
  9
$PLIMCHECK
 70
     0
  9
$PEXTMIN
 10
1.000000000000000E+20
 20
1.000000000000000E+20
 30
1.000000000000000E+20
  9
$PEXTMAX
 10
-1.000000000000000E+20
 20
-1.000000000000000E+20
 30
-1.000000000000000E+20
  9
$PLIMMIN
 10
0.0
 20
0.0
  9
$PLIMMAX
 10
12.0
 20
9.0
  9
$UNITMODE
 70
     0
  9
$VISRETAIN
 70
     1
  9
$PLINEGEN
 70
     0
  9
$PSLTSCALE
 70
     1
  9
$TREEDEPTH
 70
  3020
  9
$CMLSTYLE
  2
Standard
  9
$CMLJUST
 70
     0
  9
$CMLSCALE
 40
1.0
  9
$PROXYGRAPHICS
 70
     1
  9
$MEASUREMENT
 70
     0
  9
$CELWEIGHT
370
    -1
  9
$ENDCAPS
280
     0
  9
$JOINSTYLE
280
     0
  9
$LWDISPLAY
290
     1
  9
$INSUNITS
 70
     1
  9
$HYPERLINKBASE
  1

  9
$STYLESHEET
  1

  9
$XEDIT
290
     1
  9
$CEPSNTYPE
380
     0
  9
$PSTYLEMODE
290
     1
  9
$FINGERPRINTGUID
  2
{A8B7676A-7182-AF37-E750-32D70750C417}
  9
$VERSIONGUID
  2
{FAEB1C32-E019-11D5-929B-00C0DF256EC4}
  9
$EXTNAMES
290
     1
  9
$PSVPSCALE
 40
0.0
  9
$OLESTARTUP
290
     0
  9
$SORTENTS
280
   127
  9
$INDEXCTL
280
     0
  9
$HIDETEXT
280
     1
  9
$XCLIPFRAME
280
     2
  9
$HALOGAP
280
     0
  9
$OBSCOLOR
 70
   257
  9
$OBSLTYPE
280
     0
  9
$INTERSECTIONDISPLAY
280
     0
  9
$INTERSECTIONCOLOR
 70
   257
  9
$DIMASSOC
280
     2
  9
$PROJECTNAME
  1

  9
$CAMERADISPLAY
290
     0
  9
$LENSLENGTH
 40
50.0
  9
$CAMERAHEIGHT
 40
0.0
  9
$STEPSPERSEC
 40
2.0
  9
$STEPSIZE
 40
6.0
  9
$3DDWFPREC
 40
2.0
  9
$PSOLWIDTH
 40
0.25
  9
$PSOLHEIGHT
 40
4.0
  9
$LOFTANG1
 40
1.570796326794897
  9
$LOFTANG2
 40
1.570796326794897
  9
$LOFTMAG1
 40
0.0
  9
$LOFTMAG2
 40
0.0
  9
$LOFTPARAM
 70
     7
  9
$LOFTNORMALS
280
     1
  9
$LATITUDE
 40
37.795
  9
$LONGITUDE
 40
-122.394
  9
$NORTHDIRECTION
 40
0.0
  9
$TIMEZONE
 70
 -8000
  9
$LIGHTGLYPHDISPLAY
280
     1
  9
$TILEMODELIGHTSYNCH
280
     1
  9
$CMATERIAL
347
3C
  9
$SOLIDHIST
280
     1
  9
$SHOWHIST
280
     1
  9
$DWFFRAME
280
     2
  9
$DGNFRAME
280
     2
  9
$REALWORLDSCALE
290
     1
  9
$INTERFERECOLOR
 62
   256
  9
$CSHADOW
280
     0
  9
$SHADOWPLANELOCATION
 40
0.0
  0
ENDSEC
  0
SECTION
  2
CLASSES
  0
CLASS
  1
ACDBDICTIONARYWDFLT
  2
AcDbDictionaryWithDefault
  3
ObjectDBX Classes
 90
        0
 91
        4
280
     0
281
     0
  0
CLASS
  1
VISUALSTYLE
  2
AcDbVisualStyle
  3
ObjectDBX Classes
 90
     4095
 91
        4
280
     0
281
     0
  0
CLASS
  1
MATERIAL
  2
AcDbMaterial
  3
ObjectDBX Classes
 90
     1153
 91
        4
280
     0
281
     0
  0
CLASS
  1
SUN
  2
AcDbSun
  3
SCENEOE
 90
     1024
 91
        4
280
     0
281
     0
  0
ENDSEC
  0
SECTION
  2
TABLES
  0
TABLE
  2
VPORT
  5
8
330
0
100
AcDbSymbolTable
 70
     1
  0
VPORT
  5
29
330
8
100
AcDbSymbolTableRecord
100
AcDbViewportTableRecord
  2
*Active
 70
     0
 10
0.0
 20
0.0
 11
1.0
 21
1.0
 12
0.0
 22
0.0
 13
0.0
 23
0.0
 14
0.5
 24
0.5
 15
0.5
 25
0.5
 16
0.0
 26
0.0
 36
1.0
 17
91.00082462281999
 27
-128.4993055234307
 37
0.0
 40
256.9986110468615
 41
0.7081814508812795
 42
50.0
 43
0.0
 44
0.0
 50
0.0
 51
0.0
 71
     0
 72
   100
 73
     1
 74
     3
 75
     0
 76
     0
 77
     0
 78
     0
281
     0
 65
     1
110
0.0
120
0.0
130
0.0
111
1.0
121
0.0
131
0.0
112
0.0
122
1.0
132
0.0
 79
     0
146
0.0
 60
     3
 61
     5
292
     1
282
     1
141
0.0
142
0.0
 63
   250
361
3F
  0
ENDTAB
  0
TABLE
  2
LTYPE
  5
5
330
0
100
AcDbSymbolTable
 70
     2
  0
LTYPE
  5
14
330
5
100
AcDbSymbolTableRecord
100
AcDbLinetypeTableRecord
  2
ByBlock
 70
     0
  3

 72
    65
 73
     0
 40
0.0
  0
LTYPE
  5
15
330
5
100
AcDbSymbolTableRecord
100
AcDbLinetypeTableRecord
  2
ByLayer
 70
     0
  3

 72
    65
 73
     0
 40
0.0
  0
LTYPE
  5
16
330
5
100
AcDbSymbolTableRecord
100
AcDbLinetypeTableRecord
  2
Continuous
 70
     0
  3
Solid line
 72
    65
 73
     0
 40
0.0
  0
LTYPE
  5
47
330
5
100
AcDbSymbolTableRecord
100
AcDbLinetypeTableRecord
  2
AI-Linetype-1
 70
     0
  3
Adobe Illustrator Linetype No. 1
 72
    65
 73
     2
 40
1.411111110758333
 49
0.7055555553791667
 74
     0
 49
-0.7055555553791667
 74
     0
  0
ENDTAB
  0
TABLE
  2
LAYER
  5
2
330
0
100
AcDbSymbolTable
 70
     2
  0
LAYER
  5
10
330
2
100
AcDbSymbolTableRecord
100
AcDbLayerTableRecord
  2
0
 70
     0
 62
     7
  6
Continuous
370
    -3
390
F
347
3E
  0
LAYER
  5
40
330
2
100
AcDbSymbolTableRecord
100
AcDbLayerTableRecord
  2
_U+30EC_U+30A4_U+30E4_U+30FC 1
 70
     0
 62
     7
  6
Continuous
370
    -3
390
F
347
3E
  0
ENDTAB
  0
TABLE
  2
STYLE
  5
3
330
0
100
AcDbSymbolTable
 70
     1
  0
STYLE
  5
11
330
3
100
AcDbSymbolTableRecord
100
AcDbTextStyleTableRecord
  2
Standard
 70
     0
 40
0.0
 41
1.0
 50
0.0
 71
     0
 42
0.2
  3
txt
  4

  0
ENDTAB
  0
TABLE
  2
VIEW
  5
6
330
0
100
AcDbSymbolTable
 70
     0
  0
ENDTAB
  0
TABLE
  2
UCS
  5
7
330
0
100
AcDbSymbolTable
 70
     0
  0
ENDTAB
  0
TABLE
  2
APPID
  5
9
330
0
100
AcDbSymbolTable
 70
     1
  0
APPID
  5
12
330
9
100
AcDbSymbolTableRecord
100
AcDbRegAppTableRecord
  2
ACAD
 70
     0
  0
ENDTAB
  0
TABLE
  2
DIMSTYLE
  5
A
330
0
100
AcDbSymbolTable
 70
     1
100
AcDbDimStyleTable
  0
DIMSTYLE
105
27
330
A
100
AcDbSymbolTableRecord
100
AcDbDimStyleTableRecord
  2
Standard
 70
     0
178
     0
340
11
  0
ENDTAB
  0
TABLE
  2
BLOCK_RECORD
  5
1
330
0
100
AcDbSymbolTable
 70
     8
  0
BLOCK_RECORD
  5
1F
330
1
100
AcDbSymbolTableRecord
100
AcDbBlockTableRecord
  2
*Model_Space
340
22
 70
     0
280
     1
281
     0
  0
BLOCK_RECORD
  5
1B
330
1
100
AcDbSymbolTableRecord
100
AcDbBlockTableRecord
  2
*Paper_Space
340
1E
 70
     0
280
     1
281
     0
  0
BLOCK_RECORD
  5
23
330
1
100
AcDbSymbolTableRecord
100
AcDbBlockTableRecord
  2
*Paper_Space0
340
26
 70
     0
280
     1
281
     0
  0
BLOCK_RECORD
  5
8B
330
1
100
AcDbSymbolTableRecord
100
AcDbBlockTableRecord
  2
block 2
340
0
102
{BLKREFS
331
8C
102
}
 70
     0
280
     1
281
     0
  0
BLOCK_RECORD
  5
A0
330
1
100
AcDbSymbolTableRecord
100
AcDbBlockTableRecord
  2
block 3
340
0
102
{BLKREFS
331
A1
102
}
 70
     0
280
     1
281
     0
  0
BLOCK_RECORD
  5
B2
330
1
100
AcDbSymbolTableRecord
100
AcDbBlockTableRecord
  2
block 4
340
0
102
{BLKREFS
331
B3
102
}
 70
     0
280
     1
281
     0
  0
BLOCK_RECORD
  5
C4
330
1
100
AcDbSymbolTableRecord
100
AcDbBlockTableRecord
  2
block 5
340
0
102
{BLKREFS
331
C5
102
}
 70
     0
280
     1
281
     0
  0
BLOCK_RECORD
  5
D8
330
1
100
AcDbSymbolTableRecord
100
AcDbBlockTableRecord
  2
block 6
340
0
102
{BLKREFS
331
D9
102
}
 70
     0
280
     1
281
     0
  0
BLOCK_RECORD
  5
EC
330
1
100
AcDbSymbolTableRecord
100
AcDbBlockTableRecord
  2
block 7
340
0
102
{BLKREFS
331
ED
102
}
 70
     0
280
     1
281
     0
  0
BLOCK_RECORD
  5
102
330
1
100
AcDbSymbolTableRecord
100
AcDbBlockTableRecord
  2
block 8
340
0
102
{BLKREFS
331
103
102
}
 70
     0
280
     1
281
     0
  0
ENDTAB
  0
ENDSEC
  0
SECTION
  2
BLOCKS
  0
BLOCK
  5
20
330
1F
100
AcDbEntity
  8
0
100
AcDbBlockBegin
  2
*Model_Space
 70
     0
 10
0.0
 20
0.0
 30
0.0
  3
*Model_Space
  1

  0
ENDBLK
  5
21
330
1F
100
AcDbEntity
  8
0
100
AcDbBlockEnd
  0
BLOCK
  5
1C
330
1B
100
AcDbEntity
 67
     1
  8
0
100
AcDbBlockBegin
  2
*Paper_Space
 70
     0
 10
0.0
 20
0.0
 30
0.0
  3
*Paper_Space
  1

  0
ENDBLK
  5
1D
330
1B
100
AcDbEntity
 67
     1
  8
0
100
AcDbBlockEnd
  0
BLOCK
  5
24
330
23
100
AcDbEntity
  8
0
100
AcDbBlockBegin
  2
*Paper_Space0
 70
     0
 10
0.0
 20
0.0
 30
0.0
  3
*Paper_Space0
  1

  0
ENDBLK
  5
25
330
23
100
AcDbEntity
  8
0
100
AcDbBlockEnd
  0
BLOCK
  5
8D
330
8B
100
AcDbEntity
  8
0
100
AcDbBlockBegin
  2
block 2
 70
     0
 10
0.0
 20
0.0
 30
0.0
  3
block 2
  1

  0
SPLINE
  5
8F
330
8B
100
AcDbEntity
  8
_U+30EC_U+30A4_U+30E4_U+30FC 1
370
     0
100
AcDbSpline
210
0.0
220
0.0
230
1.0
 70
    11
 71
     3
 72
    26
 73
    22
 74
     0
 42
0.0000000001
 43
0.0000000001
 12
1.0
 22
0.0
 32
0.0
 13
1.0
 23
0.0
 33
0.0
 40
0.0
 40
0.0
 40
0.0
 40
0.0
 40
1.0
 40
1.0
 40
1.0
 40
2.0
 40
2.0
 40
2.0
 40
3.0
 40
3.0
 40
3.0
 40
4.0
 40
4.0
 40
4.0
 40
5.0
 40
5.0
 40
5.0
 40
6.0
 40
6.0
 40
6.0
 40
7.0
 40
7.0
 40
7.0
 40
7.0
 10
71.62456866698969
 20
-138.7174587326818
 30
0.0
 10
71.62456866698969
 20
-138.7174587326818
 30
0.0
 10
71.62456866698969
 20
-137.6133056296592
 30
0.0
 10
71.62456866698969
 20
-137.6133056296592
 30
0.0
 10
71.62456866698969
 20
-137.6133056296592
 30
0.0
 10
71.2717908893001
 20
-137.6133056296592
 30
0.0
 10
71.2717908893001
 20
-137.6133056296592
 30
0.0
 10
71.2717908893001
 20
-137.6133056296592
 30
0.0
 10
71.2717908893001
 20
-137.4651665237934
 30
0.0
 10
71.2717908893001
 20
-137.4651665237934
 30
0.0
 10
71.6268079790551
 20
-137.4503526132069
 30
0.0
 10
71.67658960881697
 20
-137.2873995967545
 30
0.0
 10
71.708112232507
 20
-137.1730224266443
 30
0.0
 10
71.708112232507
 20
-137.1730224266443
 30
0.0
 10
71.86417505798882
 20
-137.1730224266443
 30
0.0
 10
71.86417505798882
 20
-137.1730224266443
 30
0.0
 10
71.86417505798882
 20
-137.1730224266443
 30
0.0
 10
71.86417505798882
 20
-138.7174587326818
 30
0.0
 10
71.86417505798882
 20
-138.7174587326818
 30
0.0
 10
71.86417505798882
 20
-138.7174587326818
 30
0.0
 10
71.62456866698969
 20
-138.7174587326818
 30
0.0
 10
71.62456866698969
 20
-138.7174587326818
 30
0.0
  0
HATCH
  5
90
330
8B
100
AcDbEntity
  8
_U+30EC_U+30A4_U+30E4_U+30FC 1
 62
     7
420
 16777215
100
AcDbHatch
 10
0.0
 20
0.0
 30
0.0
210
0.0
220
0.0
230
1.0
  2
SOLID
 70
     1
 71
     0
 91
        1
 92
        1
 93
        1
 72
     4
 94
        3
 73
     0
 74
     1
 95
       26
 96
       22
 40
0.0
 40
0.0
 40
0.0
 40
0.0
 40
1.0
 40
1.0
 40
1.0
 40
2.0
 40
2.0
 40
2.0
 40
3.0
 40
3.0
 40
3.0
 40
4.0
 40
4.0
 40
4.0
 40
5.0
 40
5.0
 40
5.0
 40
6.0
 40
6.0
 40
6.0
 40
7.0
 40
7.0
 40
7.0
 40
7.0
 10
71.62456866698969
 20
-138.7174587326818
 10
71.62456866698969
 20
-138.7174587326818
 10
71.62456866698969
 20
-137.6133056296592
 10
71.62456866698969
 20
-137.6133056296592
 10
71.62456866698969
 20
-137.6133056296592
 10
71.2717908893001
 20
-137.6133056296592
 10
71.2717908893001
 20
-137.6133056296592
 10
71.2717908893001
 20
-137.6133056296592
 10
71.2717908893001
 20
-137.4651665237934
 10
71.2717908893001
 20
-137.4651665237934
 10
71.6268079790551
 20
-137.4503526132069
 10
71.67658960881697
 20
-137.2873995967545
 10
71.708112232507
 20
-137.1730224266443
 10
71.708112232507
 20
-137.1730224266443
 10
71.86417505798882
 20
-137.1730224266443
 10
71.86417505798882
 20
-137.1730224266443
 10
71.86417505798882
 20
-137.1730224266443
 10
71.86417505798882
 20
-138.7174587326818
 10
71.86417505798882
 20
-138.7174587326818
 10
71.86417505798882
 20
-138.7174587326818
 10
71.62456866698969
 20
-138.7174587326818
 10
71.62456866698969
 20
-138.7174587326818
 97
        0
 97
        0
 75
     2
 76
     1
 98
        0
  0
SPLINE
  5
91
330
8B
100
AcDbEntity
  8
_U+30EC_U+30A4_U+30E4_U+30FC 1
370
     0
100
AcDbSpline
210
0.0
220
0.0
230
1.0
 70
    11
 71
     3
 72
    44
 73
    40
 74
     0
 42
0.0000000001
 43
0.0000000001
 12
1.0
 22
0.0
 32
0.0
 13
1.0
 23
0.0
 33
0.0
 40
0.0
 40
0.0
 40
0.0
 40
0.0
 40
1.0
 40
1.0
 40
1.0
 40
2.0
 40
2.0
 40
2.0
 40
3.0
 40
3.0
 40
3.0
 40
4.0
 40
4.0
 40
4.0
 40
5.0
 40
5.0
 40
5.0
 40
6.0
 40
6.0
 40
6.0
 40
7.0
 40
7.0
 40
7.0
 40
8.0
 40
8.0
 40
8.0
 40
9.0
 40
9.0
 40
9.0
 40
10.0
 40
10.0
 40
10.0
 40
11.0
 40
11.0
 40
11.0
 40
12.0
 40
12.0
 40
12.0
 40
13.0
 40
13.0
 40
13.0
 40
13.0
 10
73.48371444560478
 20
-138.7174587326818
 30
0.0
 10
73.45890975811098
 20
-138.673017000922
 30
0.0
 10
73.43617212790832
 20
-138.6203070399977
 30
0.0
 10
73.43393281584291
 20
-138.389485642486
 30
0.0
 10
73.42945419171208
 20
-138.1462619012273
 30
0.0
 10
73.36623668955775
 20
-138.0763264628768
 30
0.0
 10
73.17623967354622
 20
-138.0763264628768
 30
0.0
 10
73.17623967354622
 20
-138.0763264628768
 30
0.0
 10
72.73991833033934
 20
-138.0763264628768
 30
0.0
 10
72.73991833033934
 20
-138.0763264628768
 30
0.0
 10
72.73991833033934
 20
-138.0763264628768
 30
0.0
 10
72.73991833033934
 20
-138.7174587326818
 30
0.0
 10
72.73991833033934
 20
-138.7174587326818
 30
0.0
 10
72.73991833033934
 20
-138.7174587326818
 30
0.0
 10
72.48894312423887
 20
-138.7174587326818
 30
0.0
 10
72.48894312423887
 20
-138.7174587326818
 30
0.0
 10
72.48894312423887
 20
-138.7174587326818
 30
0.0
 10
72.48894312423887
 20
-137.1730224266443
 30
0.0
 10
72.48894312423887
 20
-137.1730224266443
 30
0.0
 10
72.48894312423887
 20
-137.1730224266443
 30
0.0
 10
73.21017386407593
 20
-137.1730224266443
 30
0.0
 10
73.21017386407593
 20
-137.1730224266443
 30
0.0
 10
73.53797469949745
 20
-137.1730224266443
 30
0.0
 10
73.71660290040766
 20
-137.3445881818097
 30
0.0
 10
73.71660290040766
 20
-137.6005587763638
 30
0.0
 10
73.71660290040766
 20
-137.6512016799969
 30
0.0
 10
73.70764565214601
 20
-137.7338839716429
 30
0.0
 10
73.66010333444956
 20
-137.8141546964492
 30
0.0
 10
73.59671357752096
 20
-137.9178520705553
 30
0.0
 10
73.52677813917039
 20
-137.9368000957242
 30
0.0
 10
73.46114907017639
 20
-137.9536810636019
 30
0.0
 10
73.6080823926223
 20
-137.9960557380704
 30
0.0
 10
73.68042939781253
 20
-138.0446315844125
 30
0.0
 10
73.68490802194336
 20
-138.3598578213128
 30
0.0
 10
73.68938664607418
 20
-138.6306423264535
 30
0.0
 10
73.72797171550899
 20
-138.6623372049177
 30
0.0
 10
73.80031872069922
 20
-138.7174587326818
 30
0.0
 10
73.80031872069922
 20
-138.7174587326818
 30
0.0
 10
73.48371444560478
 20
-138.7174587326818
 30
0.0
 10
73.48371444560478
 20
-138.7174587326818
 30
0.0
  0
SPLINE
  5
92
330
8B
100
AcDbEntity
  8
_U+30EC_U+30A4_U+30E4_U+30FC 1
370
     0
100
AcDbSpline
210
0.0
220
0.0
230
1.0
 70
    11
 71
     3
 72
    20
 73
    16
 74
     0
 42
0.0000000001
 43
0.0000000001
 12
1.0
 22
0.0
 32
0.0
 13
1.0
 23
0.0
 33
0.0
 40
0.0
 40
0.0
 40
0.0
 40
0.0
 40
1.0
 40
1.0
 40
1.0
 40
2.0
 40
2.0
 40
2.0
 40
3.0
 40
3.0
 40
3.0
 40
4.0
 40
4.0
 40
4.0
 40
5.0
 40
5.0
 40
5.0
 40
5.0
 10
73.21465248820675
 20
-137.3845512894386
 30
0.0
 10
73.21465248820675
 20
-137.3845512894386
 30
0.0
 10
72.73991833033934
 20
-137.3845512894386
 30
0.0
 10
72.73991833033934
 20
-137.3845512894386
 30
0.0
 10
72.73991833033934
 20
-137.3845512894386
 30
0.0
 10
72.73991833033934
 20
-137.8647976000824
 30
0.0
 10
72.73991833033934
 20
-137.8647976000824
 30
0.0
 10
72.73991833033934
 20
-137.8647976000824
 30
0.0
 10
73.21241317614134
 20
-137.8647976000824
 30
0.0
 10
73.21241317614134
 20
-137.8647976000824
 30
0.0
 10
73.3186943718613
 20
-137.8647976000824
 30
0.0
 10
73.46338838224179
 20
-137.7886609898584
 30
0.0
 10
73.46338838224179
 20
-137.6174397442415
 30
0.0
 10
73.46338838224179
 20
-137.5392360767263
 30
0.0
 10
73.42721487964667
 20
-137.3845512894386
 30
0.0
 10
73.21465248820675
 20
-137.3845512894386
 30
0.0
  0
HATCH
  5
93
330
8B
100
AcDbEntity
  8
_U+30EC_U+30A4_U+30E4_U+30FC 1
 62
     7
420
 16777215
100
AcDbHatch
 10
0.0
 20
0.0
 30
0.0
210
0.0
220
0.0
230
1.0
  2
SOLID
 70
     1
 71
     0
 91
        2
 92
        1
 93
        1
 72
     4
 94
        3
 73
     0
 74
     1
 95
       44
 96
       40
 40
0.0
 40
0.0
 40
0.0
 40
0.0
 40
1.0
 40
1.0
 40
1.0
 40
2.0
 40
2.0
 40
2.0
 40
3.0
 40
3.0
 40
3.0
 40
4.0
 40
4.0
 40
4.0
 40
5.0
 40
5.0
 40
5.0
 40
6.0
 40
6.0
 40
6.0
 40
7.0
 40
7.0
 40
7.0
 40
8.0
 40
8.0
 40
8.0
 40
9.0
 40
9.0
 40
9.0
 40
10.0
 40
10.0
 40
10.0
 40
11.0
 40
11.0
 40
11.0
 40
12.0
 40
12.0
 40
12.0
 40
13.0
 40
13.0
 40
13.0
 40
13.0
 10
73.48371444560478
 20
-138.7174587326818
 10
73.45890975811098
 20
-138.673017000922
 10
73.43617212790832
 20
-138.6203070399977
 10
73.43393281584291
 20
-138.389485642486
 10
73.42945419171208
 20
-138.1462619012273
 10
73.36623668955775
 20
-138.0763264628768
 10
73.17623967354622
 20
-138.0763264628768
 10
73.17623967354622
 20
-138.0763264628768
 10
72.73991833033934
 20
-138.0763264628768
 10
72.73991833033934
 20
-138.0763264628768
 10
72.73991833033934
 20
-138.0763264628768
 10
72.73991833033934
 20
-138.7174587326818
 10
72.73991833033934
 20
-138.7174587326818
 10
72.73991833033934
 20
-138.7174587326818
 10
72.48894312423887
 20
-138.7174587326818
 10
72.48894312423887
 20
-138.7174587326818
 10
72.48894312423887
 20
-138.7174587326818
 10
72.48894312423887
 20
-137.1730224266443
 10
72.48894312423887
 20
-137.1730224266443
 10
72.48894312423887
 20
-137.1730224266443
 10
73.21017386407593
 20
-137.1730224266443
 10
73.21017386407593
 20
-137.1730224266443
 10
73.53797469949745
 20
-137.1730224266443
 10
73.71660290040766
 20
-137.3445881818097
 10
73.71660290040766
 20
-137.6005587763638
 10
73.71660290040766
 20
-137.6512016799969
 10
73.70764565214601
 20
-137.7338839716429
 10
73.66010333444956
 20
-137.8141546964492
 10
73.59671357752096
 20
-137.9178520705553
 10
73.52677813917039
 20
-137.9368000957242
 10
73.46114907017639
 20
-137.9536810636019
 10
73.6080823926223
 20
-137.9960557380704
 10
73.68042939781253
 20
-138.0446315844125
 10
73.68490802194336
 20
-138.3598578213128
 10
73.68938664607418
 20
-138.6306423264535
 10
73.72797171550899
 20
-138.6623372049177
 10
73.80031872069922
 20
-138.7174587326818
 10
73.80031872069922
 20
-138.7174587326818
 10
73.48371444560478
 20
-138.7174587326818
 10
73.48371444560478
 20
-138.7174587326818
 97
        0
 97
        0
 92
        1
 93
        1
 72
     4
 94
        3
 73
     0
 74
     1
 95
       20
 96
       16
 40
0.0
 40
0.0
 40
0.0
 40
0.0
 40
1.0
 40
1.0
 40
1.0
 40
2.0
 40
2.0
 40
2.0
 40
3.0
 40
3.0
 40
3.0
 40
4.0
 40
4.0
 40
4.0
 40
5.0
 40
5.0
 40
5.0
 40
5.0
 10
73.21465248820675
 20
-137.3845512894386
 10
73.21465248820675
 20
-137.3845512894386
 10
72.73991833033934
 20
-137.3845512894386
 10
72.73991833033934
 20
-137.3845512894386
 10
72.73991833033934
 20
-137.3845512894386
 10
72.73991833033934
 20
-137.8647976000824
 10
72.73991833033934
 20
-137.8647976000824
 10
72.73991833033934
 20
-137.8647976000824
 10
73.21241317614134
 20
-137.8647976000824
 10
73.21241317614134
 20
-137.8647976000824
 10
73.3186943718613
 20
-137.8647976000824
 10
73.46338838224179
 20
-137.7886609898584
 10
73.46338838224179
 20
-137.6174397442415
 10
73.46338838224179
 20
-137.5392360767263
 10
73.42721487964667
 20
-137.3845512894386
 10
73.21465248820675
 20
-137.3845512894386
 97
        0
 97
        0
 75
     2
 76
     1
 98
        0
  0
ENDBLK
  5
8E
330
8B
100
AcDbEntity
  8
0
100
AcDbBlockEnd
  0
BLOCK
  5
A2
330
A0
100
AcDbEntity
  8
0
100
AcDbBlockBegin
  2
block 3
 70
     0
 10
0.0
 20
0.0
 30
0.0
  3
block 3
  1

  0
SPLINE
  5
A4
330
A0
100
AcDbEntity
  8
_U+30EC_U+30A4_U+30E4_U+30FC 1
370
     0
100
AcDbSpline
210
0.0
220
0.0
230
1.0
 70
    11
 71
     3
 72
    26
 73
    22
 74
     0
 42
0.0000000001
 43
0.0000000001
 12
1.0
 22
0.0
 32
0.0
 13
1.0
 23
0.0
 33
0.0
 40
0.0
 40
0.0
 40
0.0
 40
0.0
 40
1.0
 40
1.0
 40
1.0
 40
2.0
 40
2.0
 40
2.0
 40
3.0
 40
3.0
 40
3.0
 40
4.0
 40
4.0
 40
4.0
 40
5.0
 40
5.0
 40
5.0
 40
6.0
 40
6.0
 40
6.0
 40
7.0
 40
7.0
 40
7.0
 40
7.0
 10
88.43629012546037
 20
-118.2677164417872
 30
0.0
 10
88.43629012546037
 20
-118.2677164417872
 30
0.0
 10
88.43629012546037
 20
-117.1633910839904
 30
0.0
 10
88.43629012546037
 20
-117.1633910839904
 30
0.0
 10
88.43629012546037
 20
-117.1633910839904
 30
0.0
 10
88.08385685731932
 20
-117.1633910839904
 30
0.0
 10
88.08385685731932
 20
-117.1633910839904
 30
0.0
 10
88.08385685731932
 20
-117.1633910839904
 30
0.0
 10
88.08385685731932
 20
-117.0154242328989
 30
0.0
 10
88.08385685731932
 20
-117.0154242328989
 30
0.0
 10
88.43870169230006
 20
-117.0006103223124
 30
0.0
 10
88.48831106728765
 20
-116.83765730586
 30
0.0
 10
88.52000594575195
 20
-116.723452390524
 30
0.0
 10
88.52000594575195
 20
-116.723452390524
 30
0.0
 10
88.67606877123376
 20
-116.723452390524
 30
0.0
 10
88.67606877123376
 20
-116.723452390524
 30
0.0
 10
88.67606877123376
 20
-116.723452390524
 30
0.0
 10
88.67606877123376
 20
-118.2677164417872
 30
0.0
 10
88.67606877123376
 20
-118.2677164417872
 30
0.0
 10
88.67606877123376
 20
-118.2677164417872
 30
0.0
 10
88.43629012546037
 20
-118.2677164417872
 30
0.0
 10
88.43629012546037
 20
-118.2677164417872
 30
0.0
  0
HATCH
  5
A5
330
A0
100
AcDbEntity
  8
_U+30EC_U+30A4_U+30E4_U+30FC 1
 62
     7
420
 16777215
100
AcDbHatch
 10
0.0
 20
0.0
 30
0.0
210
0.0
220
0.0
230
1.0
  2
SOLID
 70
     1
 71
     0
 91
        1
 92
        1
 93
        1
 72
     4
 94
        3
 73
     0
 74
     1
 95
       26
 96
       22
 40
0.0
 40
0.0
 40
0.0
 40
0.0
 40
1.0
 40
1.0
 40
1.0
 40
2.0
 40
2.0
 40
2.0
 40
3.0
 40
3.0
 40
3.0
 40
4.0
 40
4.0
 40
4.0
 40
5.0
 40
5.0
 40
5.0
 40
6.0
 40
6.0
 40
6.0
 40
7.0
 40
7.0
 40
7.0
 40
7.0
 10
88.43629012546037
 20
-118.2677164417872
 10
88.43629012546037
 20
-118.2677164417872
 10
88.43629012546037
 20
-117.1633910839904
 10
88.43629012546037
 20
-117.1633910839904
 10
88.43629012546037
 20
-117.1633910839904
 10
88.08385685731932
 20
-117.1633910839904
 10
88.08385685731932
 20
-117.1633910839904
 10
88.08385685731932
 20
-117.1633910839904
 10
88.08385685731932
 20
-117.0154242328989
 10
88.08385685731932
 20
-117.0154242328989
 10
88.43870169230006
 20
-117.0006103223124
 10
88.48831106728765
 20
-116.83765730586
 10
88.52000594575195
 20
-116.723452390524
 10
88.52000594575195
 20
-116.723452390524
 10
88.67606877123376
 20
-116.723452390524
 10
88.67606877123376
 20
-116.723452390524
 10
88.67606877123376
 20
-116.723452390524
 10
88.67606877123376
 20
-118.2677164417872
 10
88.67606877123376
 20
-118.2677164417872
 10
88.67606877123376
 20
-118.2677164417872
 10
88.43629012546037
 20
-118.2677164417872
 10
88.43629012546037
 20
-118.2677164417872
 97
        0
 97
        0
 75
     2
 76
     1
 98
        0
  0
SPLINE
  5
A6
330
A0
100
AcDbEntity
  8
_U+30EC_U+30A4_U+30E4_U+30FC 1
370
     0
100
AcDbSpline
210
0.0
220
0.0
230
1.0
 70
    11
 71
     3
 72
    29
 73
    25
 74
     0
 42
0.0000000001
 43
0.0000000001
 12
1.0
 22
0.0
 32
0.0
 13
1.0
 23
0.0
 33
0.0
 40
0.0
 40
0.0
 40
0.0
 40
0.0
 40
1.0
 40
1.0
 40
1.0
 40
2.0
 40
2.0
 40
2.0
 40
3.0
 40
3.0
 40
3.0
 40
4.0
 40
4.0
 40
4.0
 40
5.0
 40
5.0
 40
5.0
 40
6.0
 40
6.0
 40
6.0
 40
7.0
 40
7.0
 40
7.0
 40
8.0
 40
8.0
 40
8.0
 40
8.0
 10
89.74611542895236
 20
-118.3183593454204
 30
0.0
 10
89.46120603232221
 20
-118.3183593454204
 30
0.0
 10
89.19007701763304
 20
-118.1809000355589
 30
0.0
 10
89.19007701763304
 20
-117.8319118629031
 30
0.0
 10
89.19007701763304
 20
-117.5759412683491
 30
0.0
 10
89.34166121898403
 20
-117.4806843781819
 30
0.0
 10
89.45466035090023
 20
-117.4193616785445
 30
0.0
 10
89.32133515562106
 20
-117.3601060361982
 30
0.0
 10
89.23968639262064
 20
-117.2459011208621
 30
0.0
 10
89.23968639262064
 20
-117.0851874164752
 30
0.0
 10
89.23968639262064
 20
-116.810096541978
 30
0.0
 10
89.45224878406056
 20
-116.6747042894077
 30
0.0
 10
89.74611542895236
 20
-116.6747042894077
 30
0.0
 10
90.04928383165435
 20
-116.6747042894077
 30
0.0
 10
90.25254446528409
 20
-116.8185370259169
 30
0.0
 10
90.25254446528409
 20
-117.0851874164752
 30
0.0
 10
90.25254446528409
 20
-117.2459011208621
 30
0.0
 10
90.16917315454104
 20
-117.3601060361982
 30
0.0
 10
90.03550344971335
 20
-117.4193616785445
 30
0.0
 10
90.13058808510624
 20
-117.4701768369519
 30
0.0
 10
90.30008678298054
 20
-117.5654337271191
 30
0.0
 10
90.30008678298054
 20
-117.8277777483208
 30
0.0
 10
90.30008678298054
 20
-118.2022596275675
 30
0.0
 10
90.0017415139579
 20
-118.3183593454204
 30
0.0
 10
89.74611542895236
 20
-118.3183593454204
 30
0.0
  0
SPLINE
  5
A7
330
A0
100
AcDbEntity
  8
_U+30EC_U+30A4_U+30E4_U+30FC 1
370
     0
100
AcDbSpline
210
0.0
220
0.0
230
1.0
 70
    11
 71
     3
 72
    17
 73
    13
 74
     0
 42
0.0000000001
 43
0.0000000001
 12
1.0
 22
0.0
 32
0.0
 13
1.0
 23
0.0
 33
0.0
 40
0.0
 40
0.0
 40
0.0
 40
0.0
 40
1.0
 40
1.0
 40
1.0
 40
2.0
 40
2.0
 40
2.0
 40
3.0
 40
3.0
 40
3.0
 40
4.0
 40
4.0
 40
4.0
 40
4.0
 10
89.74611542895236
 20
-117.5273654220071
 30
0.0
 10
89.59246417031022
 20
-117.5273654220071
 30
0.0
 10
89.42985566340643
 20
-117.6140095734611
 30
0.0
 10
89.42985566340643
 20
-117.8170979523166
 30
0.0
 10
89.42985566340643
 20
-118.0224256432375
 30
0.0
 10
89.56524791597674
 20
-118.1237114505038
 30
0.0
 10
89.74611542895236
 20
-118.1237114505038
 30
0.0
 10
89.9452419479998
 20
-118.1237114505038
 30
0.0
 10
90.06271970404683
 20
-118.0010660512289
 30
0.0
 10
90.06271970404683
 20
-117.8234713789643
 30
0.0
 10
90.06271970404683
 20
-117.6012627201657
 30
0.0
 10
89.88874238204171
 20
-117.5273654220071
 30
0.0
 10
89.74611542895236
 20
-117.5273654220071
 30
0.0
  0
SPLINE
  5
A8
330
A0
100
AcDbEntity
  8
_U+30EC_U+30A4_U+30E4_U+30FC 1
370
     0
100
AcDbSpline
210
0.0
220
0.0
230
1.0
 70
    11
 71
     3
 72
    17
 73
    13
 74
     0
 42
0.0000000001
 43
0.0000000001
 12
1.0
 22
0.0
 32
0.0
 13
1.0
 23
0.0
 33
0.0
 40
0.0
 40
0.0
 40
0.0
 40
0.0
 40
1.0
 40
1.0
 40
1.0
 40
2.0
 40
2.0
 40
2.0
 40
3.0
 40
3.0
 40
3.0
 40
4.0
 40
4.0
 40
4.0
 40
4.0
 10
89.74611542895236
 20
-116.8672851270332
 30
0.0
 10
89.5700710496561
 20
-116.8672851270332
 30
0.0
 10
89.47946503839403
 20
-116.9623697624261
 30
0.0
 10
89.47946503839403
 20
-117.0977620149964
 30
0.0
 10
89.47946503839403
 20
-117.2205796690455
 30
0.0
 10
89.5562906677151
 20
-117.3390909537382
 30
0.0
 10
89.74611542895236
 20
-117.3390909537382
 30
0.0
 10
89.93628469973815
 20
-117.3390909537382
 30
0.0
 10
90.01311032905923
 20
-117.2205796690455
 30
0.0
 10
90.01311032905923
 20
-117.0977620149964
 30
0.0
 10
90.01311032905923
 20
-116.9623697624261
 30
0.0
 10
89.920437260506
 20
-116.8672851270332
 30
0.0
 10
89.74611542895236
 20
-116.8672851270332
 30
0.0
  0
HATCH
  5
A9
330
A0
100
AcDbEntity
  8
_U+30EC_U+30A4_U+30E4_U+30FC 1
 62
     7
420
 16777215
100
AcDbHatch
 10
0.0
 20
0.0
 30
0.0
210
0.0
220
0.0
230
1.0
  2
SOLID
 70
     1
 71
     0
 91
        3
 92
        1
 93
        1
 72
     4
 94
        3
 73
     0
 74
     1
 95
       29
 96
       25
 40
0.0
 40
0.0
 40
0.0
 40
0.0
 40
1.0
 40
1.0
 40
1.0
 40
2.0
 40
2.0
 40
2.0
 40
3.0
 40
3.0
 40
3.0
 40
4.0
 40
4.0
 40
4.0
 40
5.0
 40
5.0
 40
5.0
 40
6.0
 40
6.0
 40
6.0
 40
7.0
 40
7.0
 40
7.0
 40
8.0
 40
8.0
 40
8.0
 40
8.0
 10
89.74611542895236
 20
-118.3183593454204
 10
89.46120603232221
 20
-118.3183593454204
 10
89.19007701763304
 20
-118.1809000355589
 10
89.19007701763304
 20
-117.8319118629031
 10
89.19007701763304
 20
-117.5759412683491
 10
89.34166121898403
 20
-117.4806843781819
 10
89.45466035090023
 20
-117.4193616785445
 10
89.32133515562106
 20
-117.3601060361982
 10
89.23968639262064
 20
-117.2459011208621
 10
89.23968639262064
 20
-117.0851874164752
 10
89.23968639262064
 20
-116.810096541978
 10
89.45224878406056
 20
-116.6747042894077
 10
89.74611542895236
 20
-116.6747042894077
 10
90.04928383165435
 20
-116.6747042894077
 10
90.25254446528409
 20
-116.8185370259169
 10
90.25254446528409
 20
-117.0851874164752
 10
90.25254446528409
 20
-117.2459011208621
 10
90.16917315454104
 20
-117.3601060361982
 10
90.03550344971335
 20
-117.4193616785445
 10
90.13058808510624
 20
-117.4701768369519
 10
90.30008678298054
 20
-117.5654337271191
 10
90.30008678298054
 20
-117.8277777483208
 10
90.30008678298054
 20
-118.2022596275675
 10
90.0017415139579
 20
-118.3183593454204
 10
89.74611542895236
 20
-118.3183593454204
 97
        0
 97
        0
 92
        1
 93
        1
 72
     4
 94
        3
 73
     0
 74
     1
 95
       17
 96
       13
 40
0.0
 40
0.0
 40
0.0
 40
0.0
 40
1.0
 40
1.0
 40
1.0
 40
2.0
 40
2.0
 40
2.0
 40
3.0
 40
3.0
 40
3.0
 40
4.0
 40
4.0
 40
4.0
 40
4.0
 10
89.74611542895236
 20
-117.5273654220071
 10
89.59246417031022
 20
-117.5273654220071
 10
89.42985566340643
 20
-117.6140095734611
 10
89.42985566340643
 20
-117.8170979523166
 10
89.42985566340643
 20
-118.0224256432375
 10
89.56524791597674
 20
-118.1237114505038
 10
89.74611542895236
 20
-118.1237114505038
 10
89.9452419479998
 20
-118.1237114505038
 10
90.06271970404683
 20
-118.0010660512289
 10
90.06271970404683
 20
-117.8234713789643
 10
90.06271970404683
 20
-117.6012627201657
 10
89.88874238204171
 20
-117.5273654220071
 10
89.74611542895236
 20
-117.5273654220071
 97
        0
 97
        0
 92
        1
 93
        1
 72
     4
 94
        3
 73
     0
 74
     1
 95
       17
 96
       13
 40
0.0
 40
0.0
 40
0.0
 40
0.0
 40
1.0
 40
1.0
 40
1.0
 40
2.0
 40
2.0
 40
2.0
 40
3.0
 40
3.0
 40
3.0
 40
4.0
 40
4.0
 40
4.0
 40
4.0
 10
89.74611542895236
 20
-116.8672851270332
 10
89.5700710496561
 20
-116.8672851270332
 10
89.47946503839403
 20
-116.9623697624261
 10
89.47946503839403
 20
-117.0977620149964
 10
89.47946503839403
 20
-117.2205796690455
 10
89.5562906677151
 20
-117.3390909537382
 10
89.74611542895236
 20
-117.3390909537382
 10
89.93628469973815
 20
-117.3390909537382
 10
90.01311032905923
 20
-117.2205796690455
 10
90.01311032905923
 20
-117.0977620149964
 10
90.01311032905923
 20
-116.9623697624261
 10
89.920437260506
 20
-116.8672851270332
 10
89.74611542895236
 20
-116.8672851270332
 97
        0
 97
        0
 75
     2
 76
     1
 98
        0
  0
ENDBLK
  5
A3
330
A0
100
AcDbEntity
  8
0
100
AcDbBlockEnd
  0
BLOCK
  5
B4
330
B2
100
AcDbEntity
  8
0
100
AcDbBlockBegin
  2
block 4
 70
     0
 10
0.0
 20
0.0
 30
0.0
  3
block 4
  1

  0
SPLINE
  5
B6
330
B2
100
AcDbEntity
  8
_U+30EC_U+30A4_U+30E4_U+30FC 1
370
     0
100
AcDbSpline
210
0.0
220
0.0
230
1.0
 70
    11
 71
     3
 72
    26
 73
    22
 74
     0
 42
0.0000000001
 43
0.0000000001
 12
1.0
 22
0.0
 32
0.0
 13
1.0
 23
0.0
 33
0.0
 40
0.0
 40
0.0
 40
0.0
 40
0.0
 40
1.0
 40
1.0
 40
1.0
 40
2.0
 40
2.0
 40
2.0
 40
3.0
 40
3.0
 40
3.0
 40
4.0
 40
4.0
 40
4.0
 40
5.0
 40
5.0
 40
5.0
 40
6.0
 40
6.0
 40
6.0
 40
7.0
 40
7.0
 40
7.0
 40
7.0
 10
81.34421655952507
 20
-124.7675780938081
 30
0.0
 10
81.34421655952507
 20
-124.7675780938081
 30
0.0
 10
81.34421655952507
 20
-123.6632527360113
 30
0.0
 10
81.34421655952507
 20
-123.6632527360113
 30
0.0
 10
81.34421655952507
 20
-123.6632527360113
 30
0.0
 10
80.99143878183548
 20
-123.6632527360113
 30
0.0
 10
80.99143878183548
 20
-123.6632527360113
 30
0.0
 10
80.99143878183548
 20
-123.6632527360113
 30
0.0
 10
80.99143878183548
 20
-123.5152858849198
 30
0.0
 10
80.99143878183548
 20
-123.5152858849198
 30
0.0
 10
81.34645587159048
 20
-123.5004719743332
 30
0.0
 10
81.39623750135233
 20
-123.3375189578809
 30
0.0
 10
81.42793237981664
 20
-123.2233140425449
 30
0.0
 10
81.42793237981664
 20
-123.2233140425449
 30
0.0
 10
81.58382295052418
 20
-123.2233140425449
 30
0.0
 10
81.58382295052418
 20
-123.2233140425449
 30
0.0
 10
81.58382295052418
 20
-123.2233140425449
 30
0.0
 10
81.58382295052418
 20
-124.7675780938081
 30
0.0
 10
81.58382295052418
 20
-124.7675780938081
 30
0.0
 10
81.58382295052418
 20
-124.7675780938081
 30
0.0
 10
81.34421655952507
 20
-124.7675780938081
 30
0.0
 10
81.34421655952507
 20
-124.7675780938081
 30
0.0
  0
HATCH
  5
B7
330
B2
100
AcDbEntity
  8
_U+30EC_U+30A4_U+30E4_U+30FC 1
 62
     7
420
 16777215
100
AcDbHatch
 10
0.0
 20
0.0
 30
0.0
210
0.0
220
0.0
230
1.0
  2
SOLID
 70
     1
 71
     0
 91
        1
 92
        1
 93
        1
 72
     4
 94
        3
 73
     0
 74
     1
 95
       26
 96
       22
 40
0.0
 40
0.0
 40
0.0
 40
0.0
 40
1.0
 40
1.0
 40
1.0
 40
2.0
 40
2.0
 40
2.0
 40
3.0
 40
3.0
 40
3.0
 40
4.0
 40
4.0
 40
4.0
 40
5.0
 40
5.0
 40
5.0
 40
6.0
 40
6.0
 40
6.0
 40
7.0
 40
7.0
 40
7.0
 40
7.0
 10
81.34421655952507
 20
-124.7675780938081
 10
81.34421655952507
 20
-124.7675780938081
 10
81.34421655952507
 20
-123.6632527360113
 10
81.34421655952507
 20
-123.6632527360113
 10
81.34421655952507
 20
-123.6632527360113
 10
80.99143878183548
 20
-123.6632527360113
 10
80.99143878183548
 20
-123.6632527360113
 10
80.99143878183548
 20
-123.6632527360113
 10
80.99143878183548
 20
-123.5152858849198
 10
80.99143878183548
 20
-123.5152858849198
 10
81.34645587159048
 20
-123.5004719743332
 10
81.39623750135233
 20
-123.3375189578809
 10
81.42793237981664
 20
-123.2233140425449
 10
81.42793237981664
 20
-123.2233140425449
 10
81.58382295052418
 20
-123.2233140425449
 10
81.58382295052418
 20
-123.2233140425449
 10
81.58382295052418
 20
-123.2233140425449
 10
81.58382295052418
 20
-124.7675780938081
 10
81.58382295052418
 20
-124.7675780938081
 10
81.58382295052418
 20
-124.7675780938081
 10
81.34421655952507
 20
-124.7675780938081
 10
81.34421655952507
 20
-124.7675780938081
 97
        0
 97
        0
 75
     2
 76
     1
 98
        0
  0
ENDBLK
  5
B5
330
B2
100
AcDbEntity
  8
0
100
AcDbBlockEnd
  0
BLOCK
  5
C6
330
C4
100
AcDbEntity
  8
0
100
AcDbBlockBegin
  2
block 5
 70
     0
 10
0.0
 20
0.0
 30
0.0
  3
block 5
  1

  0
SPLINE
  5
C8
330
C4
100
AcDbEntity
  8
_U+30EC_U+30A4_U+30E4_U+30FC 1
370
     0
100
AcDbSpline
210
0.0
220
0.0
230
1.0
 70
    11
 71
     3
 72
    26
 73
    22
 74
     0
 42
0.0000000001
 43
0.0000000001
 12
1.0
 22
0.0
 32
0.0
 13
1.0
 23
0.0
 33
0.0
 40
0.0
 40
0.0
 40
0.0
 40
0.0
 40
1.0
 40
1.0
 40
1.0
 40
2.0
 40
2.0
 40
2.0
 40
3.0
 40
3.0
 40
3.0
 40
4.0
 40
4.0
 40
4.0
 40
5.0
 40
5.0
 40
5.0
 40
6.0
 40
6.0
 40
6.0
 40
7.0
 40
7.0
 40
7.0
 40
7.0
 10
73.62117375546623
 20
-130.040296733983
 30
0.0
 10
73.62117375546623
 20
-130.040296733983
 30
0.0
 10
72.5168483976694
 20
-130.040296733983
 30
0.0
 10
72.5168483976694
 20
-130.040296733983
 30
0.0
 10
72.5168483976694
 20
-130.040296733983
 30
0.0
 10
72.5168483976694
 20
-130.392730002124
 30
0.0
 10
72.5168483976694
 20
-130.392730002124
 30
0.0
 10
72.5168483976694
 20
-130.392730002124
 30
0.0
 10
72.36870929180365
 20
-130.392730002124
 30
0.0
 10
72.36870929180365
 20
-130.392730002124
 30
0.0
 10
72.35406763599134
 20
-130.0378851671433
 30
0.0
 10
72.19111461953904
 20
-129.9882757921557
 30
0.0
 10
72.076909704203
 20
-129.9565809136914
 30
0.0
 10
72.076909704203
 20
-129.9565809136914
 30
0.0
 10
72.076909704203
 20
-129.8005180882096
 30
0.0
 10
72.076909704203
 20
-129.8005180882096
 30
0.0
 10
72.076909704203
 20
-129.8005180882096
 30
0.0
 10
73.62117375546623
 20
-129.8005180882096
 30
0.0
 10
73.62117375546623
 20
-129.8005180882096
 30
0.0
 10
73.62117375546623
 20
-129.8005180882096
 30
0.0
 10
73.62117375546623
 20
-130.040296733983
 30
0.0
 10
73.62117375546623
 20
-130.040296733983
 30
0.0
  0
HATCH
  5
C9
330
C4
100
AcDbEntity
  8
_U+30EC_U+30A4_U+30E4_U+30FC 1
 62
     7
420
 16777215
100
AcDbHatch
 10
0.0
 20
0.0
 30
0.0
210
0.0
220
0.0
230
1.0
  2
SOLID
 70
     1
 71
     0
 91
        1
 92
        1
 93
        1
 72
     4
 94
        3
 73
     0
 74
     1
 95
       26
 96
       22
 40
0.0
 40
0.0
 40
0.0
 40
0.0
 40
1.0
 40
1.0
 40
1.0
 40
2.0
 40
2.0
 40
2.0
 40
3.0
 40
3.0
 40
3.0
 40
4.0
 40
4.0
 40
4.0
 40
5.0
 40
5.0
 40
5.0
 40
6.0
 40
6.0
 40
6.0
 40
7.0
 40
7.0
 40
7.0
 40
7.0
 10
73.62117375546623
 20
-130.040296733983
 10
73.62117375546623
 20
-130.040296733983
 10
72.5168483976694
 20
-130.040296733983
 10
72.5168483976694
 20
-130.040296733983
 10
72.5168483976694
 20
-130.040296733983
 10
72.5168483976694
 20
-130.392730002124
 10
72.5168483976694
 20
-130.392730002124
 10
72.5168483976694
 20
-130.392730002124
 10
72.36870929180365
 20
-130.392730002124
 10
72.36870929180365
 20
-130.392730002124
 10
72.35406763599134
 20
-130.0378851671433
 10
72.19111461953904
 20
-129.9882757921557
 10
72.076909704203
 20
-129.9565809136914
 10
72.076909704203
 20
-129.9565809136914
 10
72.076909704203
 20
-129.8005180882096
 10
72.076909704203
 20
-129.8005180882096
 10
72.076909704203
 20
-129.8005180882096
 10
73.62117375546623
 20
-129.8005180882096
 10
73.62117375546623
 20
-129.8005180882096
 10
73.62117375546623
 20
-129.8005180882096
 10
73.62117375546623
 20
-130.040296733983
 10
73.62117375546623
 20
-130.040296733983
 97
        0
 97
        0
 75
     2
 76
     1
 98
        0
  0
SPLINE
  5
CA
330
C4
100
AcDbEntity
  8
_U+30EC_U+30A4_U+30E4_U+30FC 1
370
     0
100
AcDbSpline
210
0.0
220
0.0
230
1.0
 70
    11
 71
     3
 72
    62
 73
    58
 74
     0
 42
0.0000000001
 43
0.0000000001
 12
1.0
 22
0.0
 32
0.0
 13
1.0
 23
0.0
 33
0.0
 40
0.0
 40
0.0
 40
0.0
 40
0.0
 40
1.0
 40
1.0
 40
1.0
 40
2.0
 40
2.0
 40
2.0
 40
3.0
 40
3.0
 40
3.0
 40
4.0
 40
4.0
 40
4.0
 40
5.0
 40
5.0
 40
5.0
 40
6.0
 40
6.0
 40
6.0
 40
7.0
 40
7.0
 40
7.0
 40
8.0
 40
8.0
 40
8.0
 40
9.0
 40
9.0
 40
9.0
 40
10.0
 40
10.0
 40
10.0
 40
11.0
 40
11.0
 40
11.0
 40
12.0
 40
12.0
 40
12.0
 40
13.0
 40
13.0
 40
13.0
 40
14.0
 40
14.0
 40
14.0
 40
15.0
 40
15.0
 40
15.0
 40
16.0
 40
16.0
 40
16.0
 40
17.0
 40
17.0
 40
17.0
 40
18.0
 40
18.0
 40
18.0
 40
19.0
 40
19.0
 40
19.0
 40
19.0
 10
73.67198891387368
 20
-128.7394286787527
 30
0.0
 10
73.67198891387368
 20
-128.8410589955675
 30
0.0
 10
73.65080157663938
 20
-129.0739474503704
 30
0.0
 10
73.46459416566164
 20
-129.2072726456496
 30
0.0
 10
73.35245630761675
 20
-129.2865098418103
 30
0.0
 10
73.2530653028673
 20
-129.2909884659412
 30
0.0
 10
73.1684882087044
 20
-129.295467090072
 30
0.0
 10
73.1684882087044
 20
-129.295467090072
 30
0.0
 10
73.1684882087044
 20
-129.0605115779779
 30
0.0
 10
73.1684882087044
 20
-129.0605115779779
 30
0.0
 10
73.24255776163729
 20
-129.0581000111383
 30
0.0
 10
73.47734101895706
 20
-129.0467311960369
 30
0.0
 10
73.47734101895706
 20
-128.7439073028835
 30
0.0
 10
73.47734101895706
 20
-128.5968017256633
 30
0.0
 10
73.40757783538075
 20
-128.4341932187595
 30
0.0
 10
73.17899574993442
 20
-128.4341932187595
 30
0.0
 10
73.06272377730724
 20
-128.4341932187595
 30
0.0
 10
73.01397567619095
 20
-128.4748453454854
 30
0.0
 10
72.98228079772666
 20
-128.5089517907894
 30
0.0
 10
72.90821124479379
 20
-128.5878444774017
 30
0.0
 10
72.89563664627262
 20
-128.7122124244192
 30
0.0
 10
72.89563664627262
 20
-128.771123557217
 30
0.0
 10
72.89563664627262
 20
-128.7914496205799
 30
0.0
 10
72.89770370356378
 20
-128.8296901804662
 30
0.0
 10
72.90183781814608
 20
-128.8593180016393
 30
0.0
 10
72.90183781814608
 20
-128.8593180016393
 30
0.0
 10
72.70736217800372
 20
-128.8593180016393
 30
0.0
 10
72.70736217800372
 20
-128.8593180016393
 30
0.0
 10
72.71356334987716
 20
-128.8186658749134
 30
0.0
 10
72.71580266194258
 20
-128.7731906145081
 30
0.0
 10
72.71580266194258
 20
-128.7666449330861
 30
0.0
 10
72.71580266194258
 20
-128.696364985187
 30
0.0
 10
72.6946153247083
 20
-128.4838025937471
 30
0.0
 10
72.4575927553231
 20
-128.4838025937471
 30
0.0
 10
72.27999808305847
 20
-128.4838025937471
 30
0.0
 10
72.22487655529447
 20
-128.6240179799968
 30
0.0
 10
72.22487655529447
 20
-128.7414957360438
 30
0.0
 10
72.22487655529447
 20
-129.0243380753828
 30
0.0
 10
72.4575927553231
 20
-129.0332953236445
 30
0.0
 10
72.52959525096483
 20
-129.0377739477753
 30
0.0
 10
72.52959525096483
 20
-129.0377739477753
 30
0.0
 10
72.52959525096483
 20
-129.254814963346
 30
0.0
 10
72.52959525096483
 20
-129.254814963346
 30
0.0
 10
72.40471053962452
 20
-129.2458577150844
 30
0.0
 10
72.02816160308672
 20
-129.2165744034598
 30
0.0
 10
72.02816160308672
 20
-128.7280598636513
 30
0.0
 10
72.02816160308672
 20
-128.4882812178779
 30
0.0
 10
72.15511337171817
 20
-128.2305880755812
 30
0.0
 10
72.45121932867539
 20
-128.2305880755812
 30
0.0
 10
72.63742673965315
 20
-128.2305880755812
 30
0.0
 10
72.71993677652488
 20
-128.3325629019446
 30
0.0
 10
72.78125947616233
 20
-128.4386718428903
 30
0.0
 10
72.80882024004433
 20
-128.3732150286706
 30
0.0
 10
72.88926321962491
 20
-128.178567133754
 30
0.0
 10
73.16642115141326
 20
-128.178567133754
 30
0.0
 10
73.50490178283906
 20
-128.178567133754
 30
0.0
 10
73.67198891387368
 20
-128.4431504670212
 30
0.0
 10
73.67198891387368
 20
-128.7394286787527
 30
0.0
  0
HATCH
  5
CB
330
C4
100
AcDbEntity
  8
_U+30EC_U+30A4_U+30E4_U+30FC 1
 62
     7
420
 16777215
100
AcDbHatch
 10
0.0
 20
0.0
 30
0.0
210
0.0
220
0.0
230
1.0
  2
SOLID
 70
     1
 71
     0
 91
        1
 92
        1
 93
        1
 72
     4
 94
        3
 73
     0
 74
     1
 95
       62
 96
       58
 40
0.0
 40
0.0
 40
0.0
 40
0.0
 40
1.0
 40
1.0
 40
1.0
 40
2.0
 40
2.0
 40
2.0
 40
3.0
 40
3.0
 40
3.0
 40
4.0
 40
4.0
 40
4.0
 40
5.0
 40
5.0
 40
5.0
 40
6.0
 40
6.0
 40
6.0
 40
7.0
 40
7.0
 40
7.0
 40
8.0
 40
8.0
 40
8.0
 40
9.0
 40
9.0
 40
9.0
 40
10.0
 40
10.0
 40
10.0
 40
11.0
 40
11.0
 40
11.0
 40
12.0
 40
12.0
 40
12.0
 40
13.0
 40
13.0
 40
13.0
 40
14.0
 40
14.0
 40
14.0
 40
15.0
 40
15.0
 40
15.0
 40
16.0
 40
16.0
 40
16.0
 40
17.0
 40
17.0
 40
17.0
 40
18.0
 40
18.0
 40
18.0
 40
19.0
 40
19.0
 40
19.0
 40
19.0
 10
73.67198891387368
 20
-128.7394286787527
 10
73.67198891387368
 20
-128.8410589955675
 10
73.65080157663938
 20
-129.0739474503704
 10
73.46459416566164
 20
-129.2072726456496
 10
73.35245630761675
 20
-129.2865098418103
 10
73.2530653028673
 20
-129.2909884659412
 10
73.1684882087044
 20
-129.295467090072
 10
73.1684882087044
 20
-129.295467090072
 10
73.1684882087044
 20
-129.0605115779779
 10
73.1684882087044
 20
-129.0605115779779
 10
73.24255776163729
 20
-129.0581000111383
 10
73.47734101895706
 20
-129.0467311960369
 10
73.47734101895706
 20
-128.7439073028835
 10
73.47734101895706
 20
-128.5968017256633
 10
73.40757783538075
 20
-128.4341932187595
 10
73.17899574993442
 20
-128.4341932187595
 10
73.06272377730724
 20
-128.4341932187595
 10
73.01397567619095
 20
-128.4748453454854
 10
72.98228079772666
 20
-128.5089517907894
 10
72.90821124479379
 20
-128.5878444774017
 10
72.89563664627262
 20
-128.7122124244192
 10
72.89563664627262
 20
-128.771123557217
 10
72.89563664627262
 20
-128.7914496205799
 10
72.89770370356378
 20
-128.8296901804662
 10
72.90183781814608
 20
-128.8593180016393
 10
72.90183781814608
 20
-128.8593180016393
 10
72.70736217800372
 20
-128.8593180016393
 10
72.70736217800372
 20
-128.8593180016393
 10
72.71356334987716
 20
-128.8186658749134
 10
72.71580266194258
 20
-128.7731906145081
 10
72.71580266194258
 20
-128.7666449330861
 10
72.71580266194258
 20
-128.696364985187
 10
72.6946153247083
 20
-128.4838025937471
 10
72.4575927553231
 20
-128.4838025937471
 10
72.27999808305847
 20
-128.4838025937471
 10
72.22487655529447
 20
-128.6240179799968
 10
72.22487655529447
 20
-128.7414957360438
 10
72.22487655529447
 20
-129.0243380753828
 10
72.4575927553231
 20
-129.0332953236445
 10
72.52959525096483
 20
-129.0377739477753
 10
72.52959525096483
 20
-129.0377739477753
 10
72.52959525096483
 20
-129.254814963346
 10
72.52959525096483
 20
-129.254814963346
 10
72.40471053962452
 20
-129.2458577150844
 10
72.02816160308672
 20
-129.2165744034598
 10
72.02816160308672
 20
-128.7280598636513
 10
72.02816160308672
 20
-128.4882812178779
 10
72.15511337171817
 20
-128.2305880755812
 10
72.45121932867539
 20
-128.2305880755812
 10
72.63742673965315
 20
-128.2305880755812
 10
72.71993677652488
 20
-128.3325629019446
 10
72.78125947616233
 20
-128.4386718428903
 10
72.80882024004433
 20
-128.3732150286706
 10
72.88926321962491
 20
-128.178567133754
 10
73.16642115141326
 20
-128.178567133754
 10
73.50490178283906
 20
-128.178567133754
 10
73.67198891387368
 20
-128.4431504670212
 10
73.67198891387368
 20
-128.7394286787527
 97
        0
 97
        0
 75
     2
 76
     1
 98
        0
  0
ENDBLK
  5
C7
330
C4
100
AcDbEntity
  8
0
100
AcDbBlockEnd
  0
BLOCK
  5
DA
330
D8
100
AcDbEntity
  8
0
100
AcDbBlockBegin
  2
block 6
 70
     0
 10
0.0
 20
0.0
 30
0.0
  3
block 6
  1

  0
SPLINE
  5
DC
330
D8
100
AcDbEntity
  8
_U+30EC_U+30A4_U+30E4_U+30FC 1
370
     0
100
AcDbSpline
210
0.0
220
0.0
230
1.0
 70
    11
 71
     3
 72
    26
 73
    22
 74
     0
 42
0.0000000001
 43
0.0000000001
 12
1.0
 22
0.0
 32
0.0
 13
1.0
 23
0.0
 33
0.0
 40
0.0
 40
0.0
 40
0.0
 40
0.0
 40
1.0
 40
1.0
 40
1.0
 40
2.0
 40
2.0
 40
2.0
 40
3.0
 40
3.0
 40
3.0
 40
4.0
 40
4.0
 40
4.0
 40
5.0
 40
5.0
 40
5.0
 40
6.0
 40
6.0
 40
6.0
 40
7.0
 40
7.0
 40
7.0
 40
7.0
 10
84.94124075567441
 20
-139.2676404816762
 30
0.0
 10
84.94124075567441
 20
-139.2676404816762
 30
0.0
 10
84.94124075567441
 20
-138.1634873786536
 30
0.0
 10
84.94124075567441
 20
-138.1634873786536
 30
0.0
 10
84.94124075567441
 20
-138.1634873786536
 30
0.0
 10
84.58880748753336
 20
-138.1634873786536
 30
0.0
 10
84.58880748753336
 20
-138.1634873786536
 30
0.0
 10
84.58880748753336
 20
-138.1634873786536
 30
0.0
 10
84.58880748753336
 20
-138.0153482727878
 30
0.0
 10
84.58880748753336
 20
-138.0153482727878
 30
0.0
 10
84.9436523225141
 20
-138.0005343622013
 30
0.0
 10
84.9932616975017
 20
-137.837581345749
 30
0.0
 10
85.02495657596599
 20
-137.7232041756386
 30
0.0
 10
85.02495657596599
 20
-137.7232041756386
 30
0.0
 10
85.1810194014478
 20
-137.7232041756386
 30
0.0
 10
85.1810194014478
 20
-137.7232041756386
 30
0.0
 10
85.1810194014478
 20
-137.7232041756386
 30
0.0
 10
85.1810194014478
 20
-139.2676404816762
 30
0.0
 10
85.1810194014478
 20
-139.2676404816762
 30
0.0
 10
85.1810194014478
 20
-139.2676404816762
 30
0.0
 10
84.94124075567441
 20
-139.2676404816762
 30
0.0
 10
84.94124075567441
 20
-139.2676404816762
 30
0.0
  0
HATCH
  5
DD
330
D8
100
AcDbEntity
  8
_U+30EC_U+30A4_U+30E4_U+30FC 1
 62
     7
420
 16777215
100
AcDbHatch
 10
0.0
 20
0.0
 30
0.0
210
0.0
220
0.0
230
1.0
  2
SOLID
 70
     1
 71
     0
 91
        1
 92
        1
 93
        1
 72
     4
 94
        3
 73
     0
 74
     1
 95
       26
 96
       22
 40
0.0
 40
0.0
 40
0.0
 40
0.0
 40
1.0
 40
1.0
 40
1.0
 40
2.0
 40
2.0
 40
2.0
 40
3.0
 40
3.0
 40
3.0
 40
4.0
 40
4.0
 40
4.0
 40
5.0
 40
5.0
 40
5.0
 40
6.0
 40
6.0
 40
6.0
 40
7.0
 40
7.0
 40
7.0
 40
7.0
 10
84.94124075567441
 20
-139.2676404816762
 10
84.94124075567441
 20
-139.2676404816762
 10
84.94124075567441
 20
-138.1634873786536
 10
84.94124075567441
 20
-138.1634873786536
 10
84.94124075567441
 20
-138.1634873786536
 10
84.58880748753336
 20
-138.1634873786536
 10
84.58880748753336
 20
-138.1634873786536
 10
84.58880748753336
 20
-138.1634873786536
 10
84.58880748753336
 20
-138.0153482727878
 10
84.58880748753336
 20
-138.0153482727878
 10
84.9436523225141
 20
-138.0005343622013
 10
84.9932616975017
 20
-137.837581345749
 10
85.02495657596599
 20
-137.7232041756386
 10
85.02495657596599
 20
-137.7232041756386
 10
85.1810194014478
 20
-137.7232041756386
 10
85.1810194014478
 20
-137.7232041756386
 10
85.1810194014478
 20
-137.7232041756386
 10
85.1810194014478
 20
-139.2676404816762
 10
85.1810194014478
 20
-139.2676404816762
 10
85.1810194014478
 20
-139.2676404816762
 10
84.94124075567441
 20
-139.2676404816762
 10
84.94124075567441
 20
-139.2676404816762
 97
        0
 97
        0
 75
     2
 76
     1
 98
        0
  0
SPLINE
  5
DE
330
D8
100
AcDbEntity
  8
_U+30EC_U+30A4_U+30E4_U+30FC 1
370
     0
100
AcDbSpline
210
0.0
220
0.0
230
1.0
 70
    11
 71
     3
 72
    62
 73
    58
 74
     0
 42
0.0000000001
 43
0.0000000001
 12
1.0
 22
0.0
 32
0.0
 13
1.0
 23
0.0
 33
0.0
 40
0.0
 40
0.0
 40
0.0
 40
0.0
 40
1.0
 40
1.0
 40
1.0
 40
2.0
 40
2.0
 40
2.0
 40
3.0
 40
3.0
 40
3.0
 40
4.0
 40
4.0
 40
4.0
 40
5.0
 40
5.0
 40
5.0
 40
6.0
 40
6.0
 40
6.0
 40
7.0
 40
7.0
 40
7.0
 40
8.0
 40
8.0
 40
8.0
 40
9.0
 40
9.0
 40
9.0
 40
10.0
 40
10.0
 40
10.0
 40
11.0
 40
11.0
 40
11.0
 40
12.0
 40
12.0
 40
12.0
 40
13.0
 40
13.0
 40
13.0
 40
14.0
 40
14.0
 40
14.0
 40
15.0
 40
15.0
 40
15.0
 40
16.0
 40
16.0
 40
16.0
 40
17.0
 40
17.0
 40
17.0
 40
18.0
 40
18.0
 40
18.0
 40
19.0
 40
19.0
 40
19.0
 40
19.0
 10
86.24210881090475
 20
-139.3182833853093
 30
0.0
 10
86.14047849408989
 20
-139.3182833853093
 30
0.0
 10
85.907590039287
 20
-139.2972683028493
 30
0.0
 10
85.77426484400783
 20
-139.1112331466458
 30
0.0
 10
85.69502764784708
 20
-138.9989230338267
 30
0.0
 10
85.69054902371626
 20
-138.8997042838515
 30
0.0
 10
85.68607039958543
 20
-138.8149549349143
 30
0.0
 10
85.68607039958543
 20
-138.8149549349143
 30
0.0
 10
85.92102591167946
 20
-138.8149549349143
 30
0.0
 10
85.92102591167946
 20
-138.8149549349143
 30
0.0
 10
85.92343747851915
 20
-138.8890244878472
 30
0.0
 10
85.93480629362047
 20
-139.1236354903927
 30
0.0
 10
86.23763018677393
 20
-139.1236354903927
 30
0.0
 10
86.3847357639941
 20
-139.1236354903927
 30
0.0
 10
86.5473442708979
 20
-139.0540445615907
 30
0.0
 10
86.5473442708979
 20
-138.8256347309186
 30
0.0
 10
86.5473442708979
 20
-138.7091905035172
 30
0.0
 10
86.50669214417194
 20
-138.6606146571751
 30
0.0
 10
86.4729302084165
 20
-138.6289197787108
 30
0.0
 10
86.39369301225575
 20
-138.554850225778
 30
0.0
 10
86.26932506523823
 20
-138.5421033724825
 30
0.0
 10
86.21041393244046
 20
-138.5421033724825
 30
0.0
 10
86.19008786907749
 20
-138.5421033724825
 30
0.0
 10
86.15184730919121
 20
-138.5441704297737
 30
0.0
 10
86.12221948801806
 20
-138.548304544356
 30
0.0
 10
86.12221948801806
 20
-138.548304544356
 30
0.0
 10
86.12221948801806
 20
-138.3536566494394
 30
0.0
 10
86.12221948801806
 20
-138.3536566494394
 30
0.0
 10
86.162871614744
 20
-138.3602023308613
 30
0.0
 10
86.2083468751493
 20
-138.3622693881525
 30
0.0
 10
86.21489255657129
 20
-138.3622693881525
 30
0.0
 10
86.28517250447038
 20
-138.3622693881525
 30
0.0
 10
86.4977348959103
 20
-138.3409097961439
 30
0.0
 10
86.4977348959103
 20
-138.1042317363073
 30
0.0
 10
86.4977348959103
 20
-137.9264648092684
 30
0.0
 10
86.35751950966062
 20
-137.8713432815044
 30
0.0
 10
86.24004175361361
 20
-137.8713432815044
 30
0.0
 10
85.9571994142746
 20
-137.8713432815044
 30
0.0
 10
85.94824216601295
 20
-138.1042317363073
 30
0.0
 10
85.94376354188212
 20
-138.1758897224005
 30
0.0
 10
85.94376354188212
 20
-138.1758897224005
 30
0.0
 10
85.72672252631138
 20
-138.1758897224005
 30
0.0
 10
85.72672252631138
 20
-138.1758897224005
 30
0.0
 10
85.73567977457303
 20
-138.0511772658344
 30
0.0
 10
85.76496308619765
 20
-137.6746283292966
 30
0.0
 10
86.25347762600607
 20
-137.6746283292966
 30
0.0
 10
86.49325627177947
 20
-137.6746283292966
 30
0.0
 10
86.75094941407616
 20
-137.8017523527024
 30
0.0
 10
86.75094941407616
 20
-138.0976860548853
 30
0.0
 10
86.75094941407616
 20
-138.2840657206373
 30
0.0
 10
86.64897458771276
 20
-138.3664035027348
 30
0.0
 10
86.54286564676707
 20
-138.4277262023722
 30
0.0
 10
86.60832246098681
 20
-138.4552869662542
 30
0.0
 10
86.80297035590343
 20
-138.5355576910606
 30
0.0
 10
86.80297035590343
 20
-138.8128878776232
 30
0.0
 10
86.80297035590343
 20
-139.1511962542747
 30
0.0
 10
86.53838702263624
 20
-139.3182833853093
 30
0.0
 10
86.24210881090475
 20
-139.3182833853093
 30
0.0
  0
HATCH
  5
DF
330
D8
100
AcDbEntity
  8
_U+30EC_U+30A4_U+30E4_U+30FC 1
 62
     7
420
 16777215
100
AcDbHatch
 10
0.0
 20
0.0
 30
0.0
210
0.0
220
0.0
230
1.0
  2
SOLID
 70
     1
 71
     0
 91
        1
 92
        1
 93
        1
 72
     4
 94
        3
 73
     0
 74
     1
 95
       62
 96
       58
 40
0.0
 40
0.0
 40
0.0
 40
0.0
 40
1.0
 40
1.0
 40
1.0
 40
2.0
 40
2.0
 40
2.0
 40
3.0
 40
3.0
 40
3.0
 40
4.0
 40
4.0
 40
4.0
 40
5.0
 40
5.0
 40
5.0
 40
6.0
 40
6.0
 40
6.0
 40
7.0
 40
7.0
 40
7.0
 40
8.0
 40
8.0
 40
8.0
 40
9.0
 40
9.0
 40
9.0
 40
10.0
 40
10.0
 40
10.0
 40
11.0
 40
11.0
 40
11.0
 40
12.0
 40
12.0
 40
12.0
 40
13.0
 40
13.0
 40
13.0
 40
14.0
 40
14.0
 40
14.0
 40
15.0
 40
15.0
 40
15.0
 40
16.0
 40
16.0
 40
16.0
 40
17.0
 40
17.0
 40
17.0
 40
18.0
 40
18.0
 40
18.0
 40
19.0
 40
19.0
 40
19.0
 40
19.0
 10
86.24210881090475
 20
-139.3182833853093
 10
86.14047849408989
 20
-139.3182833853093
 10
85.907590039287
 20
-139.2972683028493
 10
85.77426484400783
 20
-139.1112331466458
 10
85.69502764784708
 20
-138.9989230338267
 10
85.69054902371626
 20
-138.8997042838515
 10
85.68607039958543
 20
-138.8149549349143
 10
85.68607039958543
 20
-138.8149549349143
 10
85.92102591167946
 20
-138.8149549349143
 10
85.92102591167946
 20
-138.8149549349143
 10
85.92343747851915
 20
-138.8890244878472
 10
85.93480629362047
 20
-139.1236354903927
 10
86.23763018677393
 20
-139.1236354903927
 10
86.3847357639941
 20
-139.1236354903927
 10
86.5473442708979
 20
-139.0540445615907
 10
86.5473442708979
 20
-138.8256347309186
 10
86.5473442708979
 20
-138.7091905035172
 10
86.50669214417194
 20
-138.6606146571751
 10
86.4729302084165
 20
-138.6289197787108
 10
86.39369301225575
 20
-138.554850225778
 10
86.26932506523823
 20
-138.5421033724825
 10
86.21041393244046
 20
-138.5421033724825
 10
86.19008786907749
 20
-138.5421033724825
 10
86.15184730919121
 20
-138.5441704297737
 10
86.12221948801806
 20
-138.548304544356
 10
86.12221948801806
 20
-138.548304544356
 10
86.12221948801806
 20
-138.3536566494394
 10
86.12221948801806
 20
-138.3536566494394
 10
86.162871614744
 20
-138.3602023308613
 10
86.2083468751493
 20
-138.3622693881525
 10
86.21489255657129
 20
-138.3622693881525
 10
86.28517250447038
 20
-138.3622693881525
 10
86.4977348959103
 20
-138.3409097961439
 10
86.4977348959103
 20
-138.1042317363073
 10
86.4977348959103
 20
-137.9264648092684
 10
86.35751950966062
 20
-137.8713432815044
 10
86.24004175361361
 20
-137.8713432815044
 10
85.9571994142746
 20
-137.8713432815044
 10
85.94824216601295
 20
-138.1042317363073
 10
85.94376354188212
 20
-138.1758897224005
 10
85.94376354188212
 20
-138.1758897224005
 10
85.72672252631138
 20
-138.1758897224005
 10
85.72672252631138
 20
-138.1758897224005
 10
85.73567977457303
 20
-138.0511772658344
 10
85.76496308619765
 20
-137.6746283292966
 10
86.25347762600607
 20
-137.6746283292966
 10
86.49325627177947
 20
-137.6746283292966
 10
86.75094941407616
 20
-137.8017523527024
 10
86.75094941407616
 20
-138.0976860548853
 10
86.75094941407616
 20
-138.2840657206373
 10
86.64897458771276
 20
-138.3664035027348
 10
86.54286564676707
 20
-138.4277262023722
 10
86.60832246098681
 20
-138.4552869662542
 10
86.80297035590343
 20
-138.5355576910606
 10
86.80297035590343
 20
-138.8128878776232
 10
86.80297035590343
 20
-139.1511962542747
 10
86.53838702263624
 20
-139.3182833853093
 10
86.24210881090475
 20
-139.3182833853093
 97
        0
 97
        0
 75
     2
 76
     1
 98
        0
  0
ENDBLK
  5
DB
330
D8
100
AcDbEntity
  8
0
100
AcDbBlockEnd
  0
BLOCK
  5
EE
330
EC
100
AcDbEntity
  8
0
100
AcDbBlockBegin
  2
block 7
 70
     0
 10
0.0
 20
0.0
 30
0.0
  3
block 7
  1

  0
SPLINE
  5
F0
330
EC
100
AcDbEntity
  8
_U+30EC_U+30A4_U+30E4_U+30FC 1
370
     0
100
AcDbSpline
210
0.0
220
0.0
230
1.0
 70
    11
 71
     3
 72
    32
 73
    28
 74
     0
 42
0.0000000001
 43
0.0000000001
 12
1.0
 22
0.0
 32
0.0
 13
1.0
 23
0.0
 33
0.0
 40
0.0
 40
0.0
 40
0.0
 40
0.0
 40
1.0
 40
1.0
 40
1.0
 40
2.0
 40
2.0
 40
2.0
 40
3.0
 40
3.0
 40
3.0
 40
4.0
 40
4.0
 40
4.0
 40
5.0
 40
5.0
 40
5.0
 40
6.0
 40
6.0
 40
6.0
 40
7.0
 40
7.0
 40
7.0
 40
8.0
 40
8.0
 40
8.0
 40
9.0
 40
9.0
 40
9.0
 40
9.0
 10
95.57211640405836
 20
-132.3839951925985
 30
0.0
 10
95.57211640405836
 20
-132.9358994893355
 30
0.0
 10
95.01814505003018
 20
-132.9448567375971
 30
0.0
 10
94.80420462039618
 20
-132.9448567375971
 30
0.0
 10
94.57372773243296
 20
-132.9448567375971
 30
0.0
 10
93.92639429075452
 20
-132.9245306742341
 30
0.0
 10
93.92639429075452
 20
-132.3433430658725
 30
0.0
 10
93.92639429075452
 20
-132.1579969287661
 30
0.0
 10
93.99632972910508
 20
-131.8958251623386
 30
0.0
 10
94.32843693388317
 20
-131.8551730356126
 30
0.0
 10
94.32843693388317
 20
-131.8551730356126
 30
0.0
 10
94.32843693388317
 20
-132.0835828662847
 30
0.0
 10
94.32843693388317
 20
-132.0835828662847
 30
0.0
 10
94.27124834882802
 20
-132.0946071718375
 30
0.0
 10
94.12310924296229
 20
-132.1287136171414
 30
0.0
 10
94.12310924296229
 20
-132.3457546327122
 30
0.0
 10
94.12310924296229
 20
-132.6578802836758
 30
0.0
 10
94.45108233315807
 20
-132.7005994676929
 30
0.0
 10
94.65606551453044
 20
-132.7143798496339
 30
0.0
 10
94.57786184701526
 20
-132.6148165901102
 30
0.0
 10
94.51860620466897
 20
-132.54246958492
 30
0.0
 10
94.51860620466897
 20
-132.3481661995519
 30
0.0
 10
94.51860620466897
 20
-132.1559298714749
 30
0.0
 10
94.62678220290582
 20
-131.8324354054099
 30
0.0
 10
95.03295896061677
 20
-131.8324354054099
 30
0.0
 10
95.35231931209943
 20
-131.8324354054099
 30
0.0
 10
95.57211640405836
 20
-132.0449977968499
 30
0.0
 10
95.57211640405836
 20
-132.3839951925985
 30
0.0
  0
SPLINE
  5
F1
330
EC
100
AcDbEntity
  8
_U+30EC_U+30A4_U+30E4_U+30FC 1
370
     0
100
AcDbSpline
210
0.0
220
0.0
230
1.0
 70
    11
 71
     3
 72
    17
 73
    13
 74
     0
 42
0.0000000001
 43
0.0000000001
 12
1.0
 22
0.0
 32
0.0
 13
1.0
 23
0.0
 33
0.0
 40
0.0
 40
0.0
 40
0.0
 40
0.0
 40
1.0
 40
1.0
 40
1.0
 40
2.0
 40
2.0
 40
2.0
 40
3.0
 40
3.0
 40
3.0
 40
4.0
 40
4.0
 40
4.0
 40
4.0
 10
94.71325409958558
 20
-132.3660806960752
 30
0.0
 10
94.71325409958558
 20
-132.6465114685745
 30
0.0
 10
94.92478296237992
 20
-132.6871635953004
 30
0.0
 10
95.04122718978137
 20
-132.6871635953004
 30
0.0
 10
95.21692705952911
 20
-132.6871635953004
 30
0.0
 10
95.37988007598142
 20
-132.5855332784856
 30
0.0
 10
95.37988007598142
 20
-132.3888183262778
 30
0.0
 10
95.37988007598142
 20
-132.2599717551295
 30
0.0
 10
95.32062443363513
 20
-132.0722140511834
 30
0.0
 10
95.03502601790791
 20
-132.0722140511834
 30
0.0
 10
94.81075030181815
 20
-132.0722140511834
 30
0.0
 10
94.71325409958558
 20
-132.2213866856947
 30
0.0
 10
94.71325409958558
 20
-132.3660806960752
 30
0.0
  0
HATCH
  5
F2
330
EC
100
AcDbEntity
  8
_U+30EC_U+30A4_U+30E4_U+30FC 1
 62
     7
420
 16777215
100
AcDbHatch
 10
0.0
 20
0.0
 30
0.0
210
0.0
220
0.0
230
1.0
  2
SOLID
 70
     1
 71
     0
 91
        2
 92
        1
 93
        1
 72
     4
 94
        3
 73
     0
 74
     1
 95
       32
 96
       28
 40
0.0
 40
0.0
 40
0.0
 40
0.0
 40
1.0
 40
1.0
 40
1.0
 40
2.0
 40
2.0
 40
2.0
 40
3.0
 40
3.0
 40
3.0
 40
4.0
 40
4.0
 40
4.0
 40
5.0
 40
5.0
 40
5.0
 40
6.0
 40
6.0
 40
6.0
 40
7.0
 40
7.0
 40
7.0
 40
8.0
 40
8.0
 40
8.0
 40
9.0
 40
9.0
 40
9.0
 40
9.0
 10
95.57211640405836
 20
-132.3839951925985
 10
95.57211640405836
 20
-132.9358994893355
 10
95.01814505003018
 20
-132.9448567375971
 10
94.80420462039618
 20
-132.9448567375971
 10
94.57372773243296
 20
-132.9448567375971
 10
93.92639429075452
 20
-132.9245306742341
 10
93.92639429075452
 20
-132.3433430658725
 10
93.92639429075452
 20
-132.1579969287661
 10
93.99632972910508
 20
-131.8958251623386
 10
94.32843693388317
 20
-131.8551730356126
 10
94.32843693388317
 20
-131.8551730356126
 10
94.32843693388317
 20
-132.0835828662847
 10
94.32843693388317
 20
-132.0835828662847
 10
94.27124834882802
 20
-132.0946071718375
 10
94.12310924296229
 20
-132.1287136171414
 10
94.12310924296229
 20
-132.3457546327122
 10
94.12310924296229
 20
-132.6578802836758
 10
94.45108233315807
 20
-132.7005994676929
 10
94.65606551453044
 20
-132.7143798496339
 10
94.57786184701526
 20
-132.6148165901102
 10
94.51860620466897
 20
-132.54246958492
 10
94.51860620466897
 20
-132.3481661995519
 10
94.51860620466897
 20
-132.1559298714749
 10
94.62678220290582
 20
-131.8324354054099
 10
95.03295896061677
 20
-131.8324354054099
 10
95.35231931209943
 20
-131.8324354054099
 10
95.57211640405836
 20
-132.0449977968499
 10
95.57211640405836
 20
-132.3839951925985
 97
        0
 97
        0
 92
        1
 93
        1
 72
     4
 94
        3
 73
     0
 74
     1
 95
       17
 96
       13
 40
0.0
 40
0.0
 40
0.0
 40
0.0
 40
1.0
 40
1.0
 40
1.0
 40
2.0
 40
2.0
 40
2.0
 40
3.0
 40
3.0
 40
3.0
 40
4.0
 40
4.0
 40
4.0
 40
4.0
 10
94.71325409958558
 20
-132.3660806960752
 10
94.71325409958558
 20
-132.6465114685745
 10
94.92478296237992
 20
-132.6871635953004
 10
95.04122718978137
 20
-132.6871635953004
 10
95.21692705952911
 20
-132.6871635953004
 10
95.37988007598142
 20
-132.5855332784856
 10
95.37988007598142
 20
-132.3888183262778
 10
95.37988007598142
 20
-132.2599717551295
 10
95.32062443363513
 20
-132.0722140511834
 10
95.03502601790791
 20
-132.0722140511834
 10
94.81075030181815
 20
-132.0722140511834
 10
94.71325409958558
 20
-132.2213866856947
 10
94.71325409958558
 20
-132.3660806960752
 97
        0
 97
        0
 75
     2
 76
     1
 98
        0
  0
POLYLINE
  5
F3
330
EC
100
AcDbEntity
  8
_U+30EC_U+30A4_U+30E4_U+30FC 1
370
     0
100
AcDb2dPolyline
 66
     1
 10
0.0
 20
0.0
 30
0.0
  0
VERTEX
  5
F4
330
F3
100
AcDbEntity
  8
_U+30EC_U+30A4_U+30E4_U+30FC 1
370
     0
100
AcDbVertex
100
AcDb2dVertex
 10
95.52147350042519
 20
-131.6012694983497
 30
0.0
  0
VERTEX
  5
F5
330
F3
100
AcDbEntity
  8
_U+30EC_U+30A4_U+30E4_U+30FC 1
370
     0
100
AcDbVertex
100
AcDb2dVertex
 10
95.26963702045343
 20
-131.6012694983497
 30
0.0
  0
VERTEX
  5
F6
330
F3
100
AcDbEntity
  8
_U+30EC_U+30A4_U+30E4_U+30FC 1
370
     0
100
AcDbVertex
100
AcDb2dVertex
 10
95.26963702045343
 20
-131.3322075409517
 30
0.0
  0
VERTEX
  5
F7
330
F3
100
AcDbEntity
  8
_U+30EC_U+30A4_U+30E4_U+30FC 1
370
     0
100
AcDbVertex
100
AcDb2dVertex
 10
95.52147350042519
 20
-131.3322075409517
 30
0.0
  0
VERTEX
  5
F8
330
F3
100
AcDbEntity
  8
_U+30EC_U+30A4_U+30E4_U+30FC 1
370
     0
100
AcDbVertex
100
AcDb2dVertex
 10
95.52147350042519
 20
-131.6012694983497
 30
0.0
  0
SEQEND
  5
F9
330
F3
100
AcDbEntity
  8
_U+30EC_U+30A4_U+30E4_U+30FC 1
370
     0
  0
HATCH
  5
FA
330
EC
100
AcDbEntity
  8
_U+30EC_U+30A4_U+30E4_U+30FC 1
 62
     7
420
 16777215
100
AcDbHatch
 10
0.0
 20
0.0
 30
0.0
210
0.0
220
0.0
230
1.0
  2
SOLID
 70
     1
 71
     0
 91
        1
 92
        1
 93
        4
 72
     1
 10
95.52147350042519
 20
-131.6012694983497
 11
95.26963702045343
 21
-131.6012694983497
 72
     1
 10
95.26963702045343
 20
-131.6012694983497
 11
95.26963702045343
 21
-131.3322075409517
 72
     1
 10
95.26963702045343
 20
-131.3322075409517
 11
95.52147350042519
 21
-131.3322075409517
 72
     1
 10
95.52147350042519
 20
-131.3322075409517
 11
95.52147350042519
 21
-131.6012694983497
 97
        0
 75
     2
 76
     1
 98
        0
  0
SPLINE
  5
FB
330
EC
100
AcDbEntity
  8
_U+30EC_U+30A4_U+30E4_U+30FC 1
370
     0
100
AcDbSpline
210
0.0
220
0.0
230
1.0
 70
    11
 71
     3
 72
    53
 73
    49
 74
     0
 42
0.0000000001
 43
0.0000000001
 12
1.0
 22
0.0
 32
0.0
 13
1.0
 23
0.0
 33
0.0
 40
0.0
 40
0.0
 40
0.0
 40
0.0
 40
1.0
 40
1.0
 40
1.0
 40
2.0
 40
2.0
 40
2.0
 40
3.0
 40
3.0
 40
3.0
 40
4.0
 40
4.0
 40
4.0
 40
5.0
 40
5.0
 40
5.0
 40
6.0
 40
6.0
 40
6.0
 40
7.0
 40
7.0
 40
7.0
 40
8.0
 40
8.0
 40
8.0
 40
9.0
 40
9.0
 40
9.0
 40
10.0
 40
10.0
 40
10.0
 40
11.0
 40
11.0
 40
11.0
 40
12.0
 40
12.0
 40
12.0
 40
13.0
 40
13.0
 40
13.0
 40
14.0
 40
14.0
 40
14.0
 40
15.0
 40
15.0
 40
15.0
 40
16.0
 40
16.0
 40
16.0
 40
16.0
 10
95.57211640405836
 20
-130.5653292859351
 30
0.0
 10
95.57211640405836
 20
-130.6490451062266
 30
0.0
 10
95.55523543618064
 20
-130.7572211044635
 30
0.0
 10
95.49184567925204
 20
-130.8660861217974
 30
0.0
 10
95.38194713327258
 20
-131.0514322589038
 30
0.0
 10
95.25068899528455
 20
-131.0738253795579
 30
0.0
 10
95.14285750659623
 20
-131.0941514429209
 30
0.0
 10
95.14285750659623
 20
-131.0941514429209
 30
0.0
 10
95.14285750659623
 20
-130.8567843639872
 30
0.0
 10
95.14285750659623
 20
-130.8567843639872
 30
0.0
 10
95.34163951609516
 20
-130.798217740738
 30
0.0
 10
95.37126733726829
 20
-130.6624809786191
 30
0.0
 10
95.37126733726829
 20
-130.5629177190954
 30
0.0
 10
95.37126733726829
 20
-130.4137450845841
 30
0.0
 10
95.27170407774457
 20
-130.2507920681317
 30
0.0
 10
95.03916013249021
 20
-130.2507920681317
 30
0.0
 10
94.78318953793615
 20
-130.2507920681317
 30
0.0
 10
94.71325409958558
 20
-130.4430283962087
 30
0.0
 10
94.71325409958558
 20
-130.571874967357
 30
0.0
 10
94.71325409958558
 20
-130.605981412661
 30
0.0
 10
94.71325409958558
 20
-130.7572211044635
 30
0.0
 10
94.84244518028245
 20
-130.8523057398564
 30
0.0
 10
94.84244518028245
 20
-130.8523057398564
 30
0.0
 10
94.82349715511357
 20
-131.0400634438025
 30
0.0
 10
94.82349715511357
 20
-131.0400634438025
 30
0.0
 10
94.82349715511357
 20
-131.0400634438025
 30
0.0
 10
93.97703719438769
 20
-130.9112168726541
 30
0.0
 10
93.97703719438769
 20
-130.9112168726541
 30
0.0
 10
93.97703719438769
 20
-130.9112168726541
 30
0.0
 10
93.97703719438769
 20
-130.0792263129663
 30
0.0
 10
93.97703719438769
 20
-130.0792263129663
 30
0.0
 10
93.97703719438769
 20
-130.0792263129663
 30
0.0
 10
94.1716850893043
 20
-130.0792263129663
 30
0.0
 10
94.1716850893043
 20
-130.0792263129663
 30
0.0
 10
94.1716850893043
 20
-130.0792263129663
 30
0.0
 10
94.1716850893043
 20
-130.7368950411005
 30
0.0
 10
94.1716850893043
 20
-130.7368950411005
 30
0.0
 10
94.1716850893043
 20
-130.7368950411005
 30
0.0
 10
94.59474281489298
 20
-130.8071749889996
 30
0.0
 10
94.59474281489298
 20
-130.8071749889996
 30
0.0
 10
94.56098087913753
 20
-130.7417181747799
 30
0.0
 10
94.52067326196011
 20
-130.6535237303574
 30
0.0
 10
94.52067326196011
 20
-130.5267442165003
 30
0.0
 10
94.52067326196011
 20
-130.2556152018111
 30
0.0
 10
94.70705292771213
 20
-130.0024006836452
 30
0.0
 10
95.02021210732134
 20
-130.0024006836452
 30
0.0
 10
95.33750540151286
 20
-130.0024006836452
 30
0.0
 10
95.57211640405836
 20
-130.2418348198701
 30
0.0
 10
95.57211640405836
 20
-130.5653292859351
 30
0.0
  0
HATCH
  5
FC
330
EC
100
AcDbEntity
  8
_U+30EC_U+30A4_U+30E4_U+30FC 1
 62
     7
420
 16777215
100
AcDbHatch
 10
0.0
 20
0.0
 30
0.0
210
0.0
220
0.0
230
1.0
  2
SOLID
 70
     1
 71
     0
 91
        1
 92
        1
 93
        1
 72
     4
 94
        3
 73
     0
 74
     1
 95
       53
 96
       49
 40
0.0
 40
0.0
 40
0.0
 40
0.0
 40
1.0
 40
1.0
 40
1.0
 40
2.0
 40
2.0
 40
2.0
 40
3.0
 40
3.0
 40
3.0
 40
4.0
 40
4.0
 40
4.0
 40
5.0
 40
5.0
 40
5.0
 40
6.0
 40
6.0
 40
6.0
 40
7.0
 40
7.0
 40
7.0
 40
8.0
 40
8.0
 40
8.0
 40
9.0
 40
9.0
 40
9.0
 40
10.0
 40
10.0
 40
10.0
 40
11.0
 40
11.0
 40
11.0
 40
12.0
 40
12.0
 40
12.0
 40
13.0
 40
13.0
 40
13.0
 40
14.0
 40
14.0
 40
14.0
 40
15.0
 40
15.0
 40
15.0
 40
16.0
 40
16.0
 40
16.0
 40
16.0
 10
95.57211640405836
 20
-130.5653292859351
 10
95.57211640405836
 20
-130.6490451062266
 10
95.55523543618064
 20
-130.7572211044635
 10
95.49184567925204
 20
-130.8660861217974
 10
95.38194713327258
 20
-131.0514322589038
 10
95.25068899528455
 20
-131.0738253795579
 10
95.14285750659623
 20
-131.0941514429209
 10
95.14285750659623
 20
-131.0941514429209
 10
95.14285750659623
 20
-130.8567843639872
 10
95.14285750659623
 20
-130.8567843639872
 10
95.34163951609516
 20
-130.798217740738
 10
95.37126733726829
 20
-130.6624809786191
 10
95.37126733726829
 20
-130.5629177190954
 10
95.37126733726829
 20
-130.4137450845841
 10
95.27170407774457
 20
-130.2507920681317
 10
95.03916013249021
 20
-130.2507920681317
 10
94.78318953793615
 20
-130.2507920681317
 10
94.71325409958558
 20
-130.4430283962087
 10
94.71325409958558
 20
-130.571874967357
 10
94.71325409958558
 20
-130.605981412661
 10
94.71325409958558
 20
-130.7572211044635
 10
94.84244518028245
 20
-130.8523057398564
 10
94.84244518028245
 20
-130.8523057398564
 10
94.82349715511357
 20
-131.0400634438025
 10
94.82349715511357
 20
-131.0400634438025
 10
94.82349715511357
 20
-131.0400634438025
 10
93.97703719438769
 20
-130.9112168726541
 10
93.97703719438769
 20
-130.9112168726541
 10
93.97703719438769
 20
-130.9112168726541
 10
93.97703719438769
 20
-130.0792263129663
 10
93.97703719438769
 20
-130.0792263129663
 10
93.97703719438769
 20
-130.0792263129663
 10
94.1716850893043
 20
-130.0792263129663
 10
94.1716850893043
 20
-130.0792263129663
 10
94.1716850893043
 20
-130.0792263129663
 10
94.1716850893043
 20
-130.7368950411005
 10
94.1716850893043
 20
-130.7368950411005
 10
94.1716850893043
 20
-130.7368950411005
 10
94.59474281489298
 20
-130.8071749889996
 10
94.59474281489298
 20
-130.8071749889996
 10
94.56098087913753
 20
-130.7417181747799
 10
94.52067326196011
 20
-130.6535237303574
 10
94.52067326196011
 20
-130.5267442165003
 10
94.52067326196011
 20
-130.2556152018111
 10
94.70705292771213
 20
-130.0024006836452
 10
95.02021210732134
 20
-130.0024006836452
 10
95.33750540151286
 20
-130.0024006836452
 10
95.57211640405836
 20
-130.2418348198701
 10
95.57211640405836
 20
-130.5653292859351
 97
        0
 97
        0
 75
     2
 76
     1
 98
        0
  0
ENDBLK
  5
EF
330
EC
100
AcDbEntity
  8
0
100
AcDbBlockEnd
  0
BLOCK
  5
104
330
102
100
AcDbEntity
  8
0
100
AcDbBlockBegin
  2
block 8
 70
     0
 10
0.0
 20
0.0
 30
0.0
  3
block 8
  1

  0
SPLINE
  5
106
330
102
100
AcDbEntity
  8
_U+30EC_U+30A4_U+30E4_U+30FC 1
370
     0
100
AcDbSpline
210
0.0
220
0.0
230
1.0
 70
    11
 71
     3
 72
    17
 73
    13
 74
     0
 42
0.0000000001
 43
0.0000000001
 12
1.0
 22
0.0
 32
0.0
 13
1.0
 23
0.0
 33
0.0
 40
0.0
 40
0.0
 40
0.0
 40
0.0
 40
1.0
 40
1.0
 40
1.0
 40
2.0
 40
2.0
 40
2.0
 40
3.0
 40
3.0
 40
3.0
 40
4.0
 40
4.0
 40
4.0
 40
4.0
 10
95.17214081822085
 20
-137.7390516148708
 30
0.0
 10
95.06637638682369
 20
-137.6332871834736
 30
0.0
 10
94.98576115246884
 20
-137.5953911331359
 30
0.0
 10
94.8927435743671
 20
-137.563351745123
 30
0.0
 10
94.8927435743671
 20
-137.563351745123
 30
0.0
 10
95.00264212034656
 20
-137.3983316713796
 30
0.0
 10
95.00264212034656
 20
-137.3983316713796
 30
0.0
 10
95.10013832257914
 20
-137.4407063458482
 30
0.0
 10
95.22071666456289
 20
-137.5192545229119
 30
0.0
 10
95.2734266254872
 20
-137.5740315411273
 30
0.0
 10
95.2734266254872
 20
-137.5740315411273
 30
0.0
 10
95.17214081822085
 20
-137.7390516148708
 30
0.0
 10
95.17214081822085
 20
-137.7390516148708
 30
0.0
  0
SPLINE
  5
107
330
102
100
AcDbEntity
  8
_U+30EC_U+30A4_U+30E4_U+30FC 1
370
     0
100
AcDbSpline
210
0.0
220
0.0
230
1.0
 70
    11
 71
     3
 72
   182
 73
   178
 74
     0
 42
0.0000000001
 43
0.0000000001
 12
1.0
 22
0.0
 32
0.0
 13
1.0
 23
0.0
 33
0.0
 40
0.0
 40
0.0
 40
0.0
 40
0.0
 40
1.0
 40
1.0
 40
1.0
 40
2.0
 40
2.0
 40
2.0
 40
3.0
 40
3.0
 40
3.0
 40
4.0
 40
4.0
 40
4.0
 40
5.0
 40
5.0
 40
5.0
 40
6.0
 40
6.0
 40
6.0
 40
7.0
 40
7.0
 40
7.0
 40
8.0
 40
8.0
 40
8.0
 40
9.0
 40
9.0
 40
9.0
 40
10.0
 40
10.0
 40
10.0
 40
11.0
 40
11.0
 40
11.0
 40
12.0
 40
12.0
 40
12.0
 40
13.0
 40
13.0
 40
13.0
 40
14.0
 40
14.0
 40
14.0
 40
15.0
 40
15.0
 40
15.0
 40
16.0
 40
16.0
 40
16.0
 40
17.0
 40
17.0
 40
17.0
 40
18.0
 40
18.0
 40
18.0
 40
19.0
 40
19.0
 40
19.0
 40
20.0
 40
20.0
 40
20.0
 40
21.0
 40
21.0
 40
21.0
 40
22.0
 40
22.0
 40
22.0
 40
23.0
 40
23.0
 40
23.0
 40
24.0
 40
24.0
 40
24.0
 40
25.0
 40
25.0
 40
25.0
 40
26.0
 40
26.0
 40
26.0
 40
27.0
 40
27.0
 40
27.0
 40
28.0
 40
28.0
 40
28.0
 40
29.0
 40
29.0
 40
29.0
 40
30.0
 40
30.0
 40
30.0
 40
31.0
 40
31.0
 40
31.0
 40
32.0
 40
32.0
 40
32.0
 40
33.0
 40
33.0
 40
33.0
 40
34.0
 40
34.0
 40
34.0
 40
35.0
 40
35.0
 40
35.0
 40
36.0
 40
36.0
 40
36.0
 40
37.0
 40
37.0
 40
37.0
 40
38.0
 40
38.0
 40
38.0
 40
39.0
 40
39.0
 40
39.0
 40
40.0
 40
40.0
 40
40.0
 40
41.0
 40
41.0
 40
41.0
 40
42.0
 40
42.0
 40
42.0
 40
43.0
 40
43.0
 40
43.0
 40
44.0
 40
44.0
 40
44.0
 40
45.0
 40
45.0
 40
45.0
 40
46.0
 40
46.0
 40
46.0
 40
47.0
 40
47.0
 40
47.0
 40
48.0
 40
48.0
 40
48.0
 40
49.0
 40
49.0
 40
49.0
 40
50.0
 40
50.0
 40
50.0
 40
51.0
 40
51.0
 40
51.0
 40
52.0
 40
52.0
 40
52.0
 40
53.0
 40
53.0
 40
53.0
 40
54.0
 40
54.0
 40
54.0
 40
55.0
 40
55.0
 40
55.0
 40
56.0
 40
56.0
 40
56.0
 40
57.0
 40
57.0
 40
57.0
 40
58.0
 40
58.0
 40
58.0
 40
59.0
 40
59.0
 40
59.0
 40
59.0
 10
96.21703827889714
 20
-138.9172742708263
 30
0.0
 10
96.21703827889714
 20
-138.9172742708263
 30
0.0
 10
95.58038463322296
 20
-138.9172742708263
 30
0.0
 10
95.58038463322296
 20
-138.9172742708263
 30
0.0
 10
95.36644420358896
 20
-138.9172742708263
 30
0.0
 10
95.1507812262123
 20
-138.9217528949571
 30
0.0
 10
94.93718530612682
 20
-138.9344997482525
 30
0.0
 10
94.93718530612682
 20
-138.9344997482525
 30
0.0
 10
94.93718530612682
 20
-138.7271050000404
 30
0.0
 10
94.93718530612682
 20
-138.7271050000404
 30
0.0
 10
95.15939396492543
 20
-138.7398518533359
 30
0.0
 10
95.4828884309904
 20
-138.7439859679182
 30
0.0
 10
95.58038463322296
 20
-138.7439859679182
 30
0.0
 10
95.58038463322296
 20
-138.7439859679182
 30
0.0
 10
95.8001817251819
 20
-138.7439859679182
 30
0.0
 10
95.8001817251819
 20
-138.7439859679182
 30
0.0
 10
95.8001817251819
 20
-138.7439859679182
 30
0.0
 10
95.8001817251819
 20
-138.6023925434744
 30
0.0
 10
95.8001817251819
 20
-138.6023925434744
 30
0.0
 10
95.8001817251819
 20
-138.6023925434744
 30
0.0
 10
95.63964027556926
 20
-138.6023925434744
 30
0.0
 10
95.63964027556926
 20
-138.6023925434744
 30
0.0
 10
95.4746202018258
 20
-138.6023925434744
 30
0.0
 10
95.30960012808232
 20
-138.6065266580567
 30
0.0
 10
95.14458005433886
 20
-138.6213405686433
 30
0.0
 10
95.14458005433886
 20
-138.6213405686433
 30
0.0
 10
95.14458005433886
 20
-138.4118787631401
 30
0.0
 10
95.14458005433886
 20
-138.4118787631401
 30
0.0
 10
95.31580129995578
 20
-138.4266926737267
 30
0.0
 10
95.56350366534524
 20
-138.430826788309
 30
0.0
 10
95.63964027556926
 20
-138.430826788309
 30
0.0
 10
95.63964027556926
 20
-138.430826788309
 30
0.0
 10
95.8001817251819
 20
-138.430826788309
 30
0.0
 10
95.8001817251819
 20
-138.430826788309
 30
0.0
 10
95.7960476105996
 20
-138.3588242926672
 30
0.0
 10
95.7960476105996
 20
-138.3526231207938
 30
0.0
 10
95.78984643872616
 20
-138.2995686503209
 30
0.0
 10
95.78984643872616
 20
-138.2995686503209
 30
0.0
 10
95.92937280587877
 20
-138.3143825609075
 30
0.0
 10
95.92937280587877
 20
-138.3143825609075
 30
0.0
 10
95.92937280587877
 20
-138.3143825609075
 30
0.0
 10
95.82980954635505
 20
-138.1431613152906
 30
0.0
 10
95.82980954635505
 20
-138.1431613152906
 30
0.0
 10
95.87631833540593
 20
-138.149362487164
 30
0.0
 10
95.9503878883388
 20
-138.1579752258772
 30
0.0
 10
95.96726885621652
 20
-138.1579752258772
 30
0.0
 10
96.01825626939822
 20
-138.1579752258772
 30
0.0
 10
96.03513723727595
 20
-138.1369601434172
 30
0.0
 10
96.03513723727595
 20
-138.079771558362
 30
0.0
 10
96.03513723727595
 20
-138.079771558362
 30
0.0
 10
96.03513723727595
 20
-137.9423122485005
 30
0.0
 10
96.03513723727595
 20
-137.9423122485005
 30
0.0
 10
96.03513723727595
 20
-137.9423122485005
 30
0.0
 10
95.92937280587877
 20
-137.9423122485005
 30
0.0
 10
95.92937280587877
 20
-137.9423122485005
 30
0.0
 10
95.7960476105996
 20
-137.9423122485005
 30
0.0
 10
95.63964027556926
 20
-137.9423122485005
 30
0.0
 10
95.51665036674584
 20
-137.9547145922474
 30
0.0
 10
95.51665036674584
 20
-137.9547145922474
 30
0.0
 10
95.51665036674584
 20
-137.7645453214616
 30
0.0
 10
95.51665036674584
 20
-137.7645453214616
 30
0.0
 10
95.68408200732898
 20
-137.7814262893394
 30
0.0
 10
95.9145588952922
 20
-137.7834933466305
 30
0.0
 10
95.92937280587877
 20
-137.7834933466305
 30
0.0
 10
95.92937280587877
 20
-137.7834933466305
 30
0.0
 10
96.03513723727595
 20
-137.7834933466305
 30
0.0
 10
96.03513723727595
 20
-137.7834933466305
 30
0.0
 10
96.03513723727595
 20
-137.7834933466305
 30
0.0
 10
96.03513723727595
 20
-137.6522352086425
 30
0.0
 10
96.03513723727595
 20
-137.6522352086425
 30
0.0
 10
96.03513723727595
 20
-137.6522352086425
 30
0.0
 10
95.99689667738967
 20
-137.6522352086425
 30
0.0
 10
95.99689667738967
 20
-137.6522352086425
 30
0.0
 10
95.95245494562995
 20
-137.6522352086425
 30
0.0
 10
95.82774248906391
 20
-137.6567138327733
 30
0.0
 10
95.73885902554446
 20
-137.6649820619379
 30
0.0
 10
95.73885902554446
 20
-137.6649820619379
 30
0.0
 10
95.73885902554446
 20
-137.5847113371316
 30
0.0
 10
95.73885902554446
 20
-137.5847113371316
 30
0.0
 10
95.68614906462014
 20
-137.6226073874693
 30
0.0
 10
95.66065535802929
 20
-137.6374212980559
 30
0.0
 10
95.61828068356071
 20
-137.6608479473556
 30
0.0
 10
95.61828068356071
 20
-137.6608479473556
 30
0.0
 10
95.43017847006607
 20
-137.5316568666588
 30
0.0
 10
95.43017847006607
 20
-137.5316568666588
 30
0.0
 10
95.50838213758124
 20
-137.4978949309033
 30
0.0
 10
95.66478947261159
 20
-137.4345051739747
 30
0.0
 10
95.82154131719045
 20
-137.2905001826913
 30
0.0
 10
95.90387909928792
 20
-137.2122965151761
 30
0.0
 10
95.98208276680309
 20
-137.1275471662389
 30
0.0
 10
96.03513723727595
 20
-137.0262613589726
 30
0.0
 10
96.03513723727595
 20
-137.0262613589726
 30
0.0
 10
96.24666610007029
 20
-137.08758405861
 30
0.0
 10
96.24666610007029
 20
-137.08758405861
 30
0.0
 10
96.26561412523915
 20
-137.0937852304835
 30
0.0
 10
96.27629392124344
 20
-137.1023979691966
 30
0.0
 10
96.27629392124344
 20
-137.1151448224921
 30
0.0
 10
96.27629392124344
 20
-137.1320257903698
 30
0.0
 10
96.26354706794801
 20
-137.1382269622432
 30
0.0
 10
96.23805336135716
 20
-137.1509738155387
 30
0.0
 10
96.318668595712
 20
-137.2484700177712
 30
0.0
 10
96.48162161216432
 20
-137.3456217104553
 30
0.0
 10
96.51538354791977
 20
-137.3645697356241
 30
0.0
 10
96.66558971107666
 20
-137.4534531991436
 30
0.0
 10
96.77962237163844
 20
-137.4810139630256
 30
0.0
 10
96.85817054870213
 20
-137.4999619881945
 30
0.0
 10
96.85817054870213
 20
-137.4999619881945
 30
0.0
 10
96.73965926400953
 20
-137.6691161765202
 30
0.0
 10
96.73965926400953
 20
-137.6691161765202
 30
0.0
 10
96.6549099150724
 20
-137.6398328648956
 30
0.0
 10
96.60426701143922
 20
-137.6205403301782
 30
0.0
 10
96.48575572674662
 20
-137.5550835159584
 30
0.0
 10
96.48575572674662
 20
-137.5550835159584
 30
0.0
 10
96.48575572674662
 20
-137.6649820619379
 30
0.0
 10
96.48575572674662
 20
-137.6649820619379
 30
0.0
 10
96.40307343510062
 20
-137.6567138327733
 30
0.0
 10
96.27629392124344
 20
-137.6522352086425
 30
0.0
 10
96.22323945077058
 20
-137.6522352086425
 30
0.0
 10
96.22323945077058
 20
-137.6522352086425
 30
0.0
 10
96.22323945077058
 20
-137.7834933466305
 30
0.0
 10
96.22323945077058
 20
-137.7834933466305
 30
0.0
 10
96.22323945077058
 20
-137.7834933466305
 30
0.0
 10
96.34381779275432
 20
-137.7834933466305
 30
0.0
 10
96.34381779275432
 20
-137.7834933466305
 30
0.0
 10
96.346229359594
 20
-137.7834933466305
 30
0.0
 10
96.57877330484837
 20
-137.7814262893394
 30
0.0
 10
96.75654023188726
 20
-137.7645453214616
 30
0.0
 10
96.75654023188726
 20
-137.7645453214616
 30
0.0
 10
96.75654023188726
 20
-137.9547145922474
 30
0.0
 10
96.75654023188726
 20
-137.9547145922474
 30
0.0
 10
96.62734915119039
 20
-137.9423122485005
 30
0.0
 10
96.47094181616005
 20
-137.9423122485005
 30
0.0
 10
96.34381779275432
 20
-137.9423122485005
 30
0.0
 10
96.34381779275432
 20
-137.9423122485005
 30
0.0
 10
96.22323945077058
 20
-137.9423122485005
 30
0.0
 10
96.22323945077058
 20
-137.9423122485005
 30
0.0
 10
96.22323945077058
 20
-137.9423122485005
 30
0.0
 10
96.22323945077058
 20
-138.1686550218814
 30
0.0
 10
96.22323945077058
 20
-138.1686550218814
 30
0.0
 10
96.22323945077058
 20
-138.2871663065741
 30
0.0
 10
96.19809025372825
 20
-138.3229952996207
 30
0.0
 10
96.03720429456709
 20
-138.3378092102072
 30
0.0
 10
96.04133840914939
 20
-138.3567572353761
 30
0.0
 10
96.03513723727595
 20
-138.3674370313804
 30
0.0
 10
95.99689667738967
 20
-138.3905191711315
 30
0.0
 10
95.99482962009851
 20
-138.4098117058489
 30
0.0
 10
95.99482962009851
 20
-138.4160128777224
 30
0.0
 10
95.99276256280737
 20
-138.430826788309
 30
0.0
 10
95.99276256280737
 20
-138.430826788309
 30
0.0
 10
96.13022187266884
 20
-138.430826788309
 30
0.0
 10
96.13022187266884
 20
-138.430826788309
 30
0.0
 10
96.2952419464123
 20
-138.430826788309
 30
0.0
 10
96.46232907744692
 20
-138.4266926737267
 30
0.0
 10
96.62941620848154
 20
-138.4118787631401
 30
0.0
 10
96.62941620848154
 20
-138.4118787631401
 30
0.0
 10
96.62941620848154
 20
-138.6192735113521
 30
0.0
 10
96.62941620848154
 20
-138.6192735113521
 30
0.0
 10
96.4137532311049
 20
-138.6023925434744
 30
0.0
 10
96.14951440738623
 20
-138.6023925434744
 30
0.0
 10
96.13022187266884
 20
-138.6023925434744
 30
0.0
 10
96.13022187266884
 20
-138.6023925434744
 30
0.0
 10
95.99069550551621
 20
-138.6023925434744
 30
0.0
 10
95.99069550551621
 20
-138.6023925434744
 30
0.0
 10
95.99069550551621
 20
-138.6023925434744
 30
0.0
 10
95.99069550551621
 20
-138.7439859679182
 30
0.0
 10
95.99069550551621
 20
-138.7439859679182
 30
0.0
 10
95.99069550551621
 20
-138.7439859679182
 30
0.0
 10
96.21703827889714
 20
-138.7439859679182
 30
0.0
 10
96.21703827889714
 20
-138.7439859679182
 30
0.0
 10
96.43270125627377
 20
-138.7439859679182
 30
0.0
 10
96.6507758004901
 20
-138.7398518533359
 30
0.0
 10
96.86643877786673
 20
-138.7271050000404
 30
0.0
 10
96.86643877786673
 20
-138.7271050000404
 30
0.0
 10
96.86643877786673
 20
-138.9344997482525
 30
0.0
 10
96.86643877786673
 20
-138.9344997482525
 30
0.0
 10
96.58497447672181
 20
-138.9172742708263
 30
0.0
 10
96.24046492819683
 20
-138.9172742708263
 30
0.0
 10
96.21703827889714
 20
-138.9172742708263
 30
0.0
  0
SPLINE
  5
108
330
102
100
AcDbEntity
  8
_U+30EC_U+30A4_U+30E4_U+30FC 1
370
     0
100
AcDbSpline
210
0.0
220
0.0
230
1.0
 70
    11
 71
     3
 72
    23
 73
    19
 74
     0
 42
0.0000000001
 43
0.0000000001
 12
1.0
 22
0.0
 32
0.0
 13
1.0
 23
0.0
 33
0.0
 40
0.0
 40
0.0
 40
0.0
 40
0.0
 40
1.0
 40
1.0
 40
1.0
 40
2.0
 40
2.0
 40
2.0
 40
3.0
 40
3.0
 40
3.0
 40
4.0
 40
4.0
 40
4.0
 40
5.0
 40
5.0
 40
5.0
 40
6.0
 40
6.0
 40
6.0
 40
6.0
 10
95.09807126528798
 20
-138.2892333638652
 30
0.0
 10
95.09807126528798
 20
-138.3102484463252
 30
0.0
 10
95.10013832257914
 20
-138.3484890062115
 30
0.0
 10
95.07464461598829
 20
-138.3484890062115
 30
0.0
 10
95.06396481998401
 20
-138.3484890062115
 30
0.0
 10
95.05569659081941
 20
-138.3419433247895
 30
0.0
 10
95.04501679481514
 20
-138.3250623569118
 30
0.0
 10
95.04501679481514
 20
-138.3250623569118
 30
0.0
 10
94.94131942070912
 20
-138.1431613152906
 30
0.0
 10
94.94131942070912
 20
-138.1431613152906
 30
0.0
 10
95.15732690763429
 20
-138.0139702345937
 30
0.0
 10
95.35404185984206
 20
-137.7369845575797
 30
0.0
 10
95.40055064889292
 20
-137.6649820619379
 30
0.0
 10
95.40055064889292
 20
-137.6649820619379
 30
0.0
 10
95.47255314453464
 20
-137.844816046268
 30
0.0
 10
95.47255314453464
 20
-137.844816046268
 30
0.0
 10
95.33922794925547
 20
-138.0415309984757
 30
0.0
 10
95.16352807950773
 20
-138.2254990973881
 30
0.0
 10
95.09807126528798
 20
-138.2892333638652
 30
0.0
  0
SPLINE
  5
109
330
102
100
AcDbEntity
  8
_U+30EC_U+30A4_U+30E4_U+30FC 1
370
     0
100
AcDbSpline
210
0.0
220
0.0
230
1.0
 70
    11
 71
     3
 72
    17
 73
    13
 74
     0
 42
0.0000000001
 43
0.0000000001
 12
1.0
 22
0.0
 32
0.0
 13
1.0
 23
0.0
 33
0.0
 40
0.0
 40
0.0
 40
0.0
 40
0.0
 40
1.0
 40
1.0
 40
1.0
 40
2.0
 40
2.0
 40
2.0
 40
3.0
 40
3.0
 40
3.0
 40
4.0
 40
4.0
 40
4.0
 40
4.0
 10
95.3519748025509
 20
-137.3941975567973
 30
0.0
 10
95.29030759336493
 20
-137.3180609465733
 30
0.0
 10
95.16146102221659
 20
-137.2419243363493
 30
0.0
 10
95.05776364811057
 20
-137.2122965151761
 30
0.0
 10
95.05776364811057
 20
-137.2122965151761
 30
0.0
 10
95.15284828350346
 20
-137.0472764414326
 30
0.0
 10
95.15284828350346
 20
-137.0472764414326
 30
0.0
 10
95.25447860031834
 20
-137.0834499440278
 30
0.0
 10
95.3602430317155
 20
-137.1402940195344
 30
0.0
 10
95.44912649523495
 20
-137.2209092538892
 30
0.0
 10
95.44912649523495
 20
-137.2209092538892
 30
0.0
 10
95.3519748025509
 20
-137.3941975567973
 30
0.0
 10
95.3519748025509
 20
-137.3941975567973
 30
0.0
  0
SPLINE
  5
10A
330
102
100
AcDbEntity
  8
_U+30EC_U+30A4_U+30E4_U+30FC 1
370
     0
100
AcDbSpline
210
0.0
220
0.0
230
1.0
 70
    11
 71
     3
 72
    23
 73
    19
 74
     0
 42
0.0000000001
 43
0.0000000001
 12
1.0
 22
0.0
 32
0.0
 13
1.0
 23
0.0
 33
0.0
 40
0.0
 40
0.0
 40
0.0
 40
0.0
 40
1.0
 40
1.0
 40
1.0
 40
2.0
 40
2.0
 40
2.0
 40
3.0
 40
3.0
 40
3.0
 40
4.0
 40
4.0
 40
4.0
 40
5.0
 40
5.0
 40
5.0
 40
6.0
 40
6.0
 40
6.0
 40
6.0
 10
95.80466034931273
 20
-138.0987195835309
 30
0.0
 10
95.78330075730418
 20
-138.1221462328306
 30
0.0
 10
95.68614906462014
 20
-138.2341118361012
 30
0.0
 10
95.54627818791899
 20
-138.3143825609075
 30
0.0
 10
95.54627818791899
 20
-138.3143825609075
 30
0.0
 10
95.37919105688437
 20
-138.1938042189238
 30
0.0
 10
95.37919105688437
 20
-138.1938042189238
 30
0.0
 10
95.52939722004126
 20
-138.1176676086997
 30
0.0
 10
95.62896047956498
 20
-138.0225829733069
 30
0.0
 10
95.67753632590701
 20
-137.969528502834
 30
0.0
 10
95.67753632590701
 20
-137.969528502834
 30
0.0
 10
95.8511691383636
 20
-138.05221079448
 30
0.0
 10
95.8511691383636
 20
-138.05221079448
 30
0.0
 10
95.8594373675282
 20
-138.0563449090623
 30
0.0
 10
95.86805010624133
 20
-138.0628905904843
 30
0.0
 10
95.86805010624133
 20
-138.07322587694
 30
0.0
 10
95.86805010624133
 20
-138.0987195835309
 30
0.0
 10
95.83187660364621
 20
-138.0987195835309
 30
0.0
 10
95.80466034931273
 20
-138.0987195835309
 30
0.0
  0
SPLINE
  5
10B
330
102
100
AcDbEntity
  8
_U+30EC_U+30A4_U+30E4_U+30FC 1
370
     0
100
AcDbSpline
210
0.0
220
0.0
230
1.0
 70
    11
 71
     3
 72
    20
 73
    16
 74
     0
 42
0.0000000001
 43
0.0000000001
 12
1.0
 22
0.0
 32
0.0
 13
1.0
 23
0.0
 33
0.0
 40
0.0
 40
0.0
 40
0.0
 40
0.0
 40
1.0
 40
1.0
 40
1.0
 40
2.0
 40
2.0
 40
2.0
 40
3.0
 40
3.0
 40
3.0
 40
4.0
 40
4.0
 40
4.0
 40
5.0
 40
5.0
 40
5.0
 40
5.0
 10
96.10266110878683
 20
-137.2567382469358
 30
0.0
 10
96.0647650584491
 20
-137.3053140932778
 30
0.0
 10
96.00344235881164
 20
-137.3838622703416
 30
0.0
 10
95.86391599165903
 20
-137.493760816321
 30
0.0
 10
95.94418671646535
 20
-137.4978949309033
 30
0.0
 10
95.97381453763849
 20
-137.4978949309033
 30
0.0
 10
95.99689667738967
 20
-137.4978949309033
 30
0.0
 10
95.99689667738967
 20
-137.4978949309033
 30
0.0
 10
96.22565101761026
 20
-137.4978949309033
 30
0.0
 10
96.22565101761026
 20
-137.4978949309033
 30
0.0
 10
96.25734589607455
 20
-137.4978949309033
 30
0.0
 10
96.30592174241659
 20
-137.4958278736122
 30
0.0
 10
96.37999129534946
 20
-137.493760816321
 30
0.0
 10
96.26768118253031
 20
-137.4196912633881
 30
0.0
 10
96.21910533618828
 20
-137.3731824743373
 30
0.0
 10
96.10266110878683
 20
-137.2567382469358
 30
0.0
  0
SPLINE
  5
10C
330
102
100
AcDbEntity
  8
_U+30EC_U+30A4_U+30E4_U+30FC 1
370
     0
100
AcDbSpline
210
0.0
220
0.0
230
1.0
 70
    11
 71
     3
 72
    17
 73
    13
 74
     0
 42
0.0000000001
 43
0.0000000001
 12
1.0
 22
0.0
 32
0.0
 13
1.0
 23
0.0
 33
0.0
 40
0.0
 40
0.0
 40
0.0
 40
0.0
 40
1.0
 40
1.0
 40
1.0
 40
2.0
 40
2.0
 40
2.0
 40
3.0
 40
3.0
 40
3.0
 40
4.0
 40
4.0
 40
4.0
 40
4.0
 10
96.6635226537855
 20
-138.3123155036164
 30
0.0
 10
96.5281304012152
 20
-138.2003499003457
 30
0.0
 10
96.42236596981802
 20
-138.1369601434172
 30
0.0
 10
96.30385468512543
 20
-138.07322587694
 30
0.0
 10
96.30385468512543
 20
-138.07322587694
 30
0.0
 10
96.43063419898262
 20
-137.9612602736694
 30
0.0
 10
96.43063419898262
 20
-137.9612602736694
 30
0.0
 10
96.56189233697064
 20
-138.0077690627203
 30
0.0
 10
96.6717908829501
 20
-138.0649576477754
 30
0.0
 10
96.79684784906468
 20
-138.1665879645903
 30
0.0
 10
96.79684784906468
 20
-138.1665879645903
 30
0.0
 10
96.6635226537855
 20
-138.3123155036164
 30
0.0
 10
96.6635226537855
 20
-138.3123155036164
 30
0.0
  0
HATCH
  5
10D
330
102
100
AcDbEntity
  8
_U+30EC_U+30A4_U+30E4_U+30FC 1
 62
   179
420
  2234388
100
AcDbHatch
 10
0.0
 20
0.0
 30
0.0
210
0.0
220
0.0
230
1.0
  2
SOLID
 70
     1
 71
     0
 91
        7
 92
        1
 93
        1
 72
     4
 94
        3
 73
     0
 74
     1
 95
       17
 96
       13
 40
0.0
 40
0.0
 40
0.0
 40
0.0
 40
1.0
 40
1.0
 40
1.0
 40
2.0
 40
2.0
 40
2.0
 40
3.0
 40
3.0
 40
3.0
 40
4.0
 40
4.0
 40
4.0
 40
4.0
 10
95.17214081822085
 20
-137.7390516148708
 10
95.06637638682369
 20
-137.6332871834736
 10
94.98576115246884
 20
-137.5953911331359
 10
94.8927435743671
 20
-137.563351745123
 10
94.8927435743671
 20
-137.563351745123
 10
95.00264212034656
 20
-137.3983316713796
 10
95.00264212034656
 20
-137.3983316713796
 10
95.10013832257914
 20
-137.4407063458482
 10
95.22071666456289
 20
-137.5192545229119
 10
95.2734266254872
 20
-137.5740315411273
 10
95.2734266254872
 20
-137.5740315411273
 10
95.17214081822085
 20
-137.7390516148708
 10
95.17214081822085
 20
-137.7390516148708
 97
        0
 97
        0
 92
        1
 93
        1
 72
     4
 94
        3
 73
     0
 74
     1
 95
      182
 96
      178
 40
0.0
 40
0.0
 40
0.0
 40
0.0
 40
1.0
 40
1.0
 40
1.0
 40
2.0
 40
2.0
 40
2.0
 40
3.0
 40
3.0
 40
3.0
 40
4.0
 40
4.0
 40
4.0
 40
5.0
 40
5.0
 40
5.0
 40
6.0
 40
6.0
 40
6.0
 40
7.0
 40
7.0
 40
7.0
 40
8.0
 40
8.0
 40
8.0
 40
9.0
 40
9.0
 40
9.0
 40
10.0
 40
10.0
 40
10.0
 40
11.0
 40
11.0
 40
11.0
 40
12.0
 40
12.0
 40
12.0
 40
13.0
 40
13.0
 40
13.0
 40
14.0
 40
14.0
 40
14.0
 40
15.0
 40
15.0
 40
15.0
 40
16.0
 40
16.0
 40
16.0
 40
17.0
 40
17.0
 40
17.0
 40
18.0
 40
18.0
 40
18.0
 40
19.0
 40
19.0
 40
19.0
 40
20.0
 40
20.0
 40
20.0
 40
21.0
 40
21.0
 40
21.0
 40
22.0
 40
22.0
 40
22.0
 40
23.0
 40
23.0
 40
23.0
 40
24.0
 40
24.0
 40
24.0
 40
25.0
 40
25.0
 40
25.0
 40
26.0
 40
26.0
 40
26.0
 40
27.0
 40
27.0
 40
27.0
 40
28.0
 40
28.0
 40
28.0
 40
29.0
 40
29.0
 40
29.0
 40
30.0
 40
30.0
 40
30.0
 40
31.0
 40
31.0
 40
31.0
 40
32.0
 40
32.0
 40
32.0
 40
33.0
 40
33.0
 40
33.0
 40
34.0
 40
34.0
 40
34.0
 40
35.0
 40
35.0
 40
35.0
 40
36.0
 40
36.0
 40
36.0
 40
37.0
 40
37.0
 40
37.0
 40
38.0
 40
38.0
 40
38.0
 40
39.0
 40
39.0
 40
39.0
 40
40.0
 40
40.0
 40
40.0
 40
41.0
 40
41.0
 40
41.0
 40
42.0
 40
42.0
 40
42.0
 40
43.0
 40
43.0
 40
43.0
 40
44.0
 40
44.0
 40
44.0
 40
45.0
 40
45.0
 40
45.0
 40
46.0
 40
46.0
 40
46.0
 40
47.0
 40
47.0
 40
47.0
 40
48.0
 40
48.0
 40
48.0
 40
49.0
 40
49.0
 40
49.0
 40
50.0
 40
50.0
 40
50.0
 40
51.0
 40
51.0
 40
51.0
 40
52.0
 40
52.0
 40
52.0
 40
53.0
 40
53.0
 40
53.0
 40
54.0
 40
54.0
 40
54.0
 40
55.0
 40
55.0
 40
55.0
 40
56.0
 40
56.0
 40
56.0
 40
57.0
 40
57.0
 40
57.0
 40
58.0
 40
58.0
 40
58.0
 40
59.0
 40
59.0
 40
59.0
 40
59.0
 10
96.21703827889714
 20
-138.9172742708263
 10
96.21703827889714
 20
-138.9172742708263
 10
95.58038463322296
 20
-138.9172742708263
 10
95.58038463322296
 20
-138.9172742708263
 10
95.36644420358896
 20
-138.9172742708263
 10
95.1507812262123
 20
-138.9217528949571
 10
94.93718530612682
 20
-138.9344997482525
 10
94.93718530612682
 20
-138.9344997482525
 10
94.93718530612682
 20
-138.7271050000404
 10
94.93718530612682
 20
-138.7271050000404
 10
95.15939396492543
 20
-138.7398518533359
 10
95.4828884309904
 20
-138.7439859679182
 10
95.58038463322296
 20
-138.7439859679182
 10
95.58038463322296
 20
-138.7439859679182
 10
95.8001817251819
 20
-138.7439859679182
 10
95.8001817251819
 20
-138.7439859679182
 10
95.8001817251819
 20
-138.7439859679182
 10
95.8001817251819
 20
-138.6023925434744
 10
95.8001817251819
 20
-138.6023925434744
 10
95.8001817251819
 20
-138.6023925434744
 10
95.63964027556926
 20
-138.6023925434744
 10
95.63964027556926
 20
-138.6023925434744
 10
95.4746202018258
 20
-138.6023925434744
 10
95.30960012808232
 20
-138.6065266580567
 10
95.14458005433886
 20
-138.6213405686433
 10
95.14458005433886
 20
-138.6213405686433
 10
95.14458005433886
 20
-138.4118787631401
 10
95.14458005433886
 20
-138.4118787631401
 10
95.31580129995578
 20
-138.4266926737267
 10
95.56350366534524
 20
-138.430826788309
 10
95.63964027556926
 20
-138.430826788309
 10
95.63964027556926
 20
-138.430826788309
 10
95.8001817251819
 20
-138.430826788309
 10
95.8001817251819
 20
-138.430826788309
 10
95.7960476105996
 20
-138.3588242926672
 10
95.7960476105996
 20
-138.3526231207938
 10
95.78984643872616
 20
-138.2995686503209
 10
95.78984643872616
 20
-138.2995686503209
 10
95.92937280587877
 20
-138.3143825609075
 10
95.92937280587877
 20
-138.3143825609075
 10
95.92937280587877
 20
-138.3143825609075
 10
95.82980954635505
 20
-138.1431613152906
 10
95.82980954635505
 20
-138.1431613152906
 10
95.87631833540593
 20
-138.149362487164
 10
95.9503878883388
 20
-138.1579752258772
 10
95.96726885621652
 20
-138.1579752258772
 10
96.01825626939822
 20
-138.1579752258772
 10
96.03513723727595
 20
-138.1369601434172
 10
96.03513723727595
 20
-138.079771558362
 10
96.03513723727595
 20
-138.079771558362
 10
96.03513723727595
 20
-137.9423122485005
 10
96.03513723727595
 20
-137.9423122485005
 10
96.03513723727595
 20
-137.9423122485005
 10
95.92937280587877
 20
-137.9423122485005
 10
95.92937280587877
 20
-137.9423122485005
 10
95.7960476105996
 20
-137.9423122485005
 10
95.63964027556926
 20
-137.9423122485005
 10
95.51665036674584
 20
-137.9547145922474
 10
95.51665036674584
 20
-137.9547145922474
 10
95.51665036674584
 20
-137.7645453214616
 10
95.51665036674584
 20
-137.7645453214616
 10
95.68408200732898
 20
-137.7814262893394
 10
95.9145588952922
 20
-137.7834933466305
 10
95.92937280587877
 20
-137.7834933466305
 10
95.92937280587877
 20
-137.7834933466305
 10
96.03513723727595
 20
-137.7834933466305
 10
96.03513723727595
 20
-137.7834933466305
 10
96.03513723727595
 20
-137.7834933466305
 10
96.03513723727595
 20
-137.6522352086425
 10
96.03513723727595
 20
-137.6522352086425
 10
96.03513723727595
 20
-137.6522352086425
 10
95.99689667738967
 20
-137.6522352086425
 10
95.99689667738967
 20
-137.6522352086425
 10
95.95245494562995
 20
-137.6522352086425
 10
95.82774248906391
 20
-137.6567138327733
 10
95.73885902554446
 20
-137.6649820619379
 10
95.73885902554446
 20
-137.6649820619379
 10
95.73885902554446
 20
-137.5847113371316
 10
95.73885902554446
 20
-137.5847113371316
 10
95.68614906462014
 20
-137.6226073874693
 10
95.66065535802929
 20
-137.6374212980559
 10
95.61828068356071
 20
-137.6608479473556
 10
95.61828068356071
 20
-137.6608479473556
 10
95.43017847006607
 20
-137.5316568666588
 10
95.43017847006607
 20
-137.5316568666588
 10
95.50838213758124
 20
-137.4978949309033
 10
95.66478947261159
 20
-137.4345051739747
 10
95.82154131719045
 20
-137.2905001826913
 10
95.90387909928792
 20
-137.2122965151761
 10
95.98208276680309
 20
-137.1275471662389
 10
96.03513723727595
 20
-137.0262613589726
 10
96.03513723727595
 20
-137.0262613589726
 10
96.24666610007029
 20
-137.08758405861
 10
96.24666610007029
 20
-137.08758405861
 10
96.26561412523915
 20
-137.0937852304835
 10
96.27629392124344
 20
-137.1023979691966
 10
96.27629392124344
 20
-137.1151448224921
 10
96.27629392124344
 20
-137.1320257903698
 10
96.26354706794801
 20
-137.1382269622432
 10
96.23805336135716
 20
-137.1509738155387
 10
96.318668595712
 20
-137.2484700177712
 10
96.48162161216432
 20
-137.3456217104553
 10
96.51538354791977
 20
-137.3645697356241
 10
96.66558971107666
 20
-137.4534531991436
 10
96.77962237163844
 20
-137.4810139630256
 10
96.85817054870213
 20
-137.4999619881945
 10
96.85817054870213
 20
-137.4999619881945
 10
96.73965926400953
 20
-137.6691161765202
 10
96.73965926400953
 20
-137.6691161765202
 10
96.6549099150724
 20
-137.6398328648956
 10
96.60426701143922
 20
-137.6205403301782
 10
96.48575572674662
 20
-137.5550835159584
 10
96.48575572674662
 20
-137.5550835159584
 10
96.48575572674662
 20
-137.6649820619379
 10
96.48575572674662
 20
-137.6649820619379
 10
96.40307343510062
 20
-137.6567138327733
 10
96.27629392124344
 20
-137.6522352086425
 10
96.22323945077058
 20
-137.6522352086425
 10
96.22323945077058
 20
-137.6522352086425
 10
96.22323945077058
 20
-137.7834933466305
 10
96.22323945077058
 20
-137.7834933466305
 10
96.22323945077058
 20
-137.7834933466305
 10
96.34381779275432
 20
-137.7834933466305
 10
96.34381779275432
 20
-137.7834933466305
 10
96.346229359594
 20
-137.7834933466305
 10
96.57877330484837
 20
-137.7814262893394
 10
96.75654023188726
 20
-137.7645453214616
 10
96.75654023188726
 20
-137.7645453214616
 10
96.75654023188726
 20
-137.9547145922474
 10
96.75654023188726
 20
-137.9547145922474
 10
96.62734915119039
 20
-137.9423122485005
 10
96.47094181616005
 20
-137.9423122485005
 10
96.34381779275432
 20
-137.9423122485005
 10
96.34381779275432
 20
-137.9423122485005
 10
96.22323945077058
 20
-137.9423122485005
 10
96.22323945077058
 20
-137.9423122485005
 10
96.22323945077058
 20
-137.9423122485005
 10
96.22323945077058
 20
-138.1686550218814
 10
96.22323945077058
 20
-138.1686550218814
 10
96.22323945077058
 20
-138.2871663065741
 10
96.19809025372825
 20
-138.3229952996207
 10
96.03720429456709
 20
-138.3378092102072
 10
96.04133840914939
 20
-138.3567572353761
 10
96.03513723727595
 20
-138.3674370313804
 10
95.99689667738967
 20
-138.3905191711315
 10
95.99482962009851
 20
-138.4098117058489
 10
95.99482962009851
 20
-138.4160128777224
 10
95.99276256280737
 20
-138.430826788309
 10
95.99276256280737
 20
-138.430826788309
 10
96.13022187266884
 20
-138.430826788309
 10
96.13022187266884
 20
-138.430826788309
 10
96.2952419464123
 20
-138.430826788309
 10
96.46232907744692
 20
-138.4266926737267
 10
96.62941620848154
 20
-138.4118787631401
 10
96.62941620848154
 20
-138.4118787631401
 10
96.62941620848154
 20
-138.6192735113521
 10
96.62941620848154
 20
-138.6192735113521
 10
96.4137532311049
 20
-138.6023925434744
 10
96.14951440738623
 20
-138.6023925434744
 10
96.13022187266884
 20
-138.6023925434744
 10
96.13022187266884
 20
-138.6023925434744
 10
95.99069550551621
 20
-138.6023925434744
 10
95.99069550551621
 20
-138.6023925434744
 10
95.99069550551621
 20
-138.6023925434744
 10
95.99069550551621
 20
-138.7439859679182
 10
95.99069550551621
 20
-138.7439859679182
 10
95.99069550551621
 20
-138.7439859679182
 10
96.21703827889714
 20
-138.7439859679182
 10
96.21703827889714
 20
-138.7439859679182
 10
96.43270125627377
 20
-138.7439859679182
 10
96.6507758004901
 20
-138.7398518533359
 10
96.86643877786673
 20
-138.7271050000404
 10
96.86643877786673
 20
-138.7271050000404
 10
96.86643877786673
 20
-138.9344997482525
 10
96.86643877786673
 20
-138.9344997482525
 10
96.58497447672181
 20
-138.9172742708263
 10
96.24046492819683
 20
-138.9172742708263
 10
96.21703827889714
 20
-138.9172742708263
 97
        0
 97
        0
 92
        1
 93
        1
 72
     4
 94
        3
 73
     0
 74
     1
 95
       23
 96
       19
 40
0.0
 40
0.0
 40
0.0
 40
0.0
 40
1.0
 40
1.0
 40
1.0
 40
2.0
 40
2.0
 40
2.0
 40
3.0
 40
3.0
 40
3.0
 40
4.0
 40
4.0
 40
4.0
 40
5.0
 40
5.0
 40
5.0
 40
6.0
 40
6.0
 40
6.0
 40
6.0
 10
95.09807126528798
 20
-138.2892333638652
 10
95.09807126528798
 20
-138.3102484463252
 10
95.10013832257914
 20
-138.3484890062115
 10
95.07464461598829
 20
-138.3484890062115
 10
95.06396481998401
 20
-138.3484890062115
 10
95.05569659081941
 20
-138.3419433247895
 10
95.04501679481514
 20
-138.3250623569118
 10
95.04501679481514
 20
-138.3250623569118
 10
94.94131942070912
 20
-138.1431613152906
 10
94.94131942070912
 20
-138.1431613152906
 10
95.15732690763429
 20
-138.0139702345937
 10
95.35404185984206
 20
-137.7369845575797
 10
95.40055064889292
 20
-137.6649820619379
 10
95.40055064889292
 20
-137.6649820619379
 10
95.47255314453464
 20
-137.844816046268
 10
95.47255314453464
 20
-137.844816046268
 10
95.33922794925547
 20
-138.0415309984757
 10
95.16352807950773
 20
-138.2254990973881
 10
95.09807126528798
 20
-138.2892333638652
 97
        0
 97
        0
 92
        1
 93
        1
 72
     4
 94
        3
 73
     0
 74
     1
 95
       17
 96
       13
 40
0.0
 40
0.0
 40
0.0
 40
0.0
 40
1.0
 40
1.0
 40
1.0
 40
2.0
 40
2.0
 40
2.0
 40
3.0
 40
3.0
 40
3.0
 40
4.0
 40
4.0
 40
4.0
 40
4.0
 10
95.3519748025509
 20
-137.3941975567973
 10
95.29030759336493
 20
-137.3180609465733
 10
95.16146102221659
 20
-137.2419243363493
 10
95.05776364811057
 20
-137.2122965151761
 10
95.05776364811057
 20
-137.2122965151761
 10
95.15284828350346
 20
-137.0472764414326
 10
95.15284828350346
 20
-137.0472764414326
 10
95.25447860031834
 20
-137.0834499440278
 10
95.3602430317155
 20
-137.1402940195344
 10
95.44912649523495
 20
-137.2209092538892
 10
95.44912649523495
 20
-137.2209092538892
 10
95.3519748025509
 20
-137.3941975567973
 10
95.3519748025509
 20
-137.3941975567973
 97
        0
 97
        0
 92
        1
 93
        1
 72
     4
 94
        3
 73
     0
 74
     1
 95
       23
 96
       19
 40
0.0
 40
0.0
 40
0.0
 40
0.0
 40
1.0
 40
1.0
 40
1.0
 40
2.0
 40
2.0
 40
2.0
 40
3.0
 40
3.0
 40
3.0
 40
4.0
 40
4.0
 40
4.0
 40
5.0
 40
5.0
 40
5.0
 40
6.0
 40
6.0
 40
6.0
 40
6.0
 10
95.80466034931273
 20
-138.0987195835309
 10
95.78330075730418
 20
-138.1221462328306
 10
95.68614906462014
 20
-138.2341118361012
 10
95.54627818791899
 20
-138.3143825609075
 10
95.54627818791899
 20
-138.3143825609075
 10
95.37919105688437
 20
-138.1938042189238
 10
95.37919105688437
 20
-138.1938042189238
 10
95.52939722004126
 20
-138.1176676086997
 10
95.62896047956498
 20
-138.0225829733069
 10
95.67753632590701
 20
-137.969528502834
 10
95.67753632590701
 20
-137.969528502834
 10
95.8511691383636
 20
-138.05221079448
 10
95.8511691383636
 20
-138.05221079448
 10
95.8594373675282
 20
-138.0563449090623
 10
95.86805010624133
 20
-138.0628905904843
 10
95.86805010624133
 20
-138.07322587694
 10
95.86805010624133
 20
-138.0987195835309
 10
95.83187660364621
 20
-138.0987195835309
 10
95.80466034931273
 20
-138.0987195835309
 97
        0
 97
        0
 92
        1
 93
        1
 72
     4
 94
        3
 73
     0
 74
     1
 95
       20
 96
       16
 40
0.0
 40
0.0
 40
0.0
 40
0.0
 40
1.0
 40
1.0
 40
1.0
 40
2.0
 40
2.0
 40
2.0
 40
3.0
 40
3.0
 40
3.0
 40
4.0
 40
4.0
 40
4.0
 40
5.0
 40
5.0
 40
5.0
 40
5.0
 10
96.10266110878683
 20
-137.2567382469358
 10
96.0647650584491
 20
-137.3053140932778
 10
96.00344235881164
 20
-137.3838622703416
 10
95.86391599165903
 20
-137.493760816321
 10
95.94418671646535
 20
-137.4978949309033
 10
95.97381453763849
 20
-137.4978949309033
 10
95.99689667738967
 20
-137.4978949309033
 10
95.99689667738967
 20
-137.4978949309033
 10
96.22565101761026
 20
-137.4978949309033
 10
96.22565101761026
 20
-137.4978949309033
 10
96.25734589607455
 20
-137.4978949309033
 10
96.30592174241659
 20
-137.4958278736122
 10
96.37999129534946
 20
-137.493760816321
 10
96.26768118253031
 20
-137.4196912633881
 10
96.21910533618828
 20
-137.3731824743373
 10
96.10266110878683
 20
-137.2567382469358
 97
        0
 97
        0
 92
        1
 93
        1
 72
     4
 94
        3
 73
     0
 74
     1
 95
       17
 96
       13
 40
0.0
 40
0.0
 40
0.0
 40
0.0
 40
1.0
 40
1.0
 40
1.0
 40
2.0
 40
2.0
 40
2.0
 40
3.0
 40
3.0
 40
3.0
 40
4.0
 40
4.0
 40
4.0
 40
4.0
 10
96.6635226537855
 20
-138.3123155036164
 10
96.5281304012152
 20
-138.2003499003457
 10
96.42236596981802
 20
-138.1369601434172
 10
96.30385468512543
 20
-138.07322587694
 10
96.30385468512543
 20
-138.07322587694
 10
96.43063419898262
 20
-137.9612602736694
 10
96.43063419898262
 20
-137.9612602736694
 10
96.56189233697064
 20
-138.0077690627203
 10
96.6717908829501
 20
-138.0649576477754
 10
96.79684784906468
 20
-138.1665879645903
 10
96.79684784906468
 20
-138.1665879645903
 10
96.6635226537855
 20
-138.3123155036164
 10
96.6635226537855
 20
-138.3123155036164
 97
        0
 97
        0
 75
     2
 76
     1
 98
        0
  0
SPLINE
  5
10E
330
102
100
AcDbEntity
  8
_U+30EC_U+30A4_U+30E4_U+30FC 1
370
     0
100
AcDbSpline
210
0.0
220
0.0
230
1.0
 70
    11
 71
     3
 72
   113
 73
   109
 74
     0
 42
0.0000000001
 43
0.0000000001
 12
1.0
 22
0.0
 32
0.0
 13
1.0
 23
0.0
 33
0.0
 40
0.0
 40
0.0
 40
0.0
 40
0.0
 40
1.0
 40
1.0
 40
1.0
 40
2.0
 40
2.0
 40
2.0
 40
3.0
 40
3.0
 40
3.0
 40
4.0
 40
4.0
 40
4.0
 40
5.0
 40
5.0
 40
5.0
 40
6.0
 40
6.0
 40
6.0
 40
7.0
 40
7.0
 40
7.0
 40
8.0
 40
8.0
 40
8.0
 40
9.0
 40
9.0
 40
9.0
 40
10.0
 40
10.0
 40
10.0
 40
11.0
 40
11.0
 40
11.0
 40
12.0
 40
12.0
 40
12.0
 40
13.0
 40
13.0
 40
13.0
 40
14.0
 40
14.0
 40
14.0
 40
15.0
 40
15.0
 40
15.0
 40
16.0
 40
16.0
 40
16.0
 40
17.0
 40
17.0
 40
17.0
 40
18.0
 40
18.0
 40
18.0
 40
19.0
 40
19.0
 40
19.0
 40
20.0
 40
20.0
 40
20.0
 40
21.0
 40
21.0
 40
21.0
 40
22.0
 40
22.0
 40
22.0
 40
23.0
 40
23.0
 40
23.0
 40
24.0
 40
24.0
 40
24.0
 40
25.0
 40
25.0
 40
25.0
 40
26.0
 40
26.0
 40
26.0
 40
27.0
 40
27.0
 40
27.0
 40
28.0
 40
28.0
 40
28.0
 40
29.0
 40
29.0
 40
29.0
 40
30.0
 40
30.0
 40
30.0
 40
31.0
 40
31.0
 40
31.0
 40
32.0
 40
32.0
 40
32.0
 40
33.0
 40
33.0
 40
33.0
 40
34.0
 40
34.0
 40
34.0
 40
35.0
 40
35.0
 40
35.0
 40
36.0
 40
36.0
 40
36.0
 40
36.0
 10
98.54316675053782
 20
-138.2892333638652
 30
0.0
 10
98.54316675053782
 20
-138.2892333638652
 30
0.0
 10
98.64273001006154
 20
-138.3884521138404
 30
0.0
 10
98.64273001006154
 20
-138.3884521138404
 30
0.0
 10
98.6530652965173
 20
-138.3991319098447
 30
0.0
 10
98.66374509252157
 20
-138.4118787631401
 30
0.0
 10
98.66374509252157
 20
-138.4266926737267
 30
0.0
 10
98.66374509252157
 20
-138.4287597310178
 30
0.0
 10
98.66374509252157
 20
-138.458387552191
 30
0.0
 10
98.62550453263529
 20
-138.458387552191
 30
0.0
 10
98.61723630347069
 20
-138.458387552191
 30
0.0
 10
98.57692868629327
 20
-138.4542534376087
 30
0.0
 10
98.57072751441983
 20
-138.4542534376087
 30
0.0
 10
98.5304198972424
 20
-138.4859483160729
 30
0.0
 10
98.48391110819152
 20
-138.5197102518284
 30
0.0
 10
98.3843478486678
 20
-138.5768988368836
 30
0.0
 10
98.5304198972424
 20
-138.6847303255719
 30
0.0
 10
98.68923879911242
 20
-138.741918910627
 30
0.0
 10
98.9620903615442
 20
-138.7798149609648
 30
0.0
 10
98.9620903615442
 20
-138.7798149609648
 30
0.0
 10
98.81188419838732
 20
-138.9555148307125
 30
0.0
 10
98.81188419838732
 20
-138.9555148307125
 30
0.0
 10
98.54936792241128
 20
-138.8835123350708
 30
0.0
 10
98.39296058738093
 20
-138.7946288715513
 30
0.0
 10
98.31682397715691
 20
-138.741918910627
 30
0.0
 10
98.16661781400002
 20
-138.6402885938122
 30
0.0
 10
98.02261282271657
 20
-138.4773355773598
 30
0.0
 10
97.94647621249256
 20
-138.3123155036164
 30
0.0
 10
97.87895234098166
 20
-138.3781168273846
 30
0.0
 10
97.80488278804879
 20
-138.430826788309
 30
0.0
 10
97.72667912053362
 20
-138.479402634651
 30
0.0
 10
97.72667912053362
 20
-138.479402634651
 30
0.0
 10
97.72667912053362
 20
-138.7312391146228
 30
0.0
 10
97.72667912053362
 20
-138.7312391146228
 30
0.0
 10
97.88928762743741
 20
-138.7057454080319
 30
0.0
 10
98.07566729318943
 20
-138.6613036762722
 30
0.0
 10
98.13905705011801
 20
-138.6464897656856
 30
0.0
 10
98.13905705011801
 20
-138.6464897656856
 30
0.0
 10
98.10942922894488
 20
-138.8159884635599
 30
0.0
 10
98.10942922894488
 20
-138.8159884635599
 30
0.0
 10
98.10736217165372
 20
-138.8159884635599
 30
0.0
 10
98.08841414648485
 20
-138.8221896354333
 30
0.0
 10
98.0863470891937
 20
-138.8221896354333
 30
0.0
 10
97.88722057014625
 20
-138.8604301953196
 30
0.0
 10
97.56992727595474
 20
-138.9258870095394
 30
0.0
 10
97.37321232374698
 20
-138.961716002586
 30
0.0
 10
97.3625325277427
 20
-138.9789414800122
 30
0.0
 10
97.33945038799153
 20
-139.0106363584765
 30
0.0
 10
97.31602373869183
 20
-139.0106363584765
 30
0.0
 10
97.28880748435836
 20
-139.0106363584765
 30
0.0
 10
97.28432886022753
 20
-138.9913438237591
 30
0.0
 10
97.28226180293639
 20
-138.9723957985902
 30
0.0
 10
97.28226180293639
 20
-138.9723957985902
 30
0.0
 10
97.25676809634554
 20
-138.7991074956822
 30
0.0
 10
97.25676809634554
 20
-138.7991074956822
 30
0.0
 10
97.33083764927841
 20
-138.7904947569691
 30
0.0
 10
97.43901364751525
 20
-138.7777479036736
 30
0.0
 10
97.54684513620357
 20
-138.7567328212136
 30
0.0
 10
97.54684513620357
 20
-138.7567328212136
 30
0.0
 10
97.54684513620357
 20
-138.5789658941747
 30
0.0
 10
97.54684513620357
 20
-138.5789658941747
 30
0.0
 10
97.40284014492013
 20
-138.6509683898164
 30
0.0
 10
97.30775550952723
 20
-138.6805962109896
 30
0.0
 10
97.14273543578376
 20
-138.7102240321627
 30
0.0
 10
97.14273543578376
 20
-138.7102240321627
 30
0.0
 10
97.02215709380002
 20
-138.5407253342884
 30
0.0
 10
97.02215709380002
 20
-138.5407253342884
 30
0.0
 10
97.33945038799153
 20
-138.513509079955
 30
0.0
 10
97.53203122561699
 20
-138.4201469923047
 30
0.0
 10
97.70979815265589
 20
-138.2871663065741
 30
0.0
 10
97.5637261040813
 20
-138.2871663065741
 30
0.0
 10
97.26331377776751
 20
-138.2913004211563
 30
0.0
 10
97.06659882555974
 20
-138.2975015930298
 30
0.0
 10
97.06659882555974
 20
-138.2975015930298
 30
0.0
 10
97.06659882555974
 20
-138.1197346659909
 30
0.0
 10
97.06659882555974
 20
-138.1197346659909
 30
0.0
 10
97.22093910329893
 20
-138.1262803474129
 30
0.0
 10
97.51721731503042
 20
-138.1324815192863
 30
0.0
 10
97.70118541394277
 20
-138.1324815192863
 30
0.0
 10
97.70118541394277
 20
-138.1324815192863
 30
0.0
 10
97.9127142767371
 20
-138.1324815192863
 30
0.0
 10
97.9127142767371
 20
-138.1324815192863
 30
0.0
 10
97.9127142767371
 20
-138.0373968838934
 30
0.0
 10
97.91064721944595
 20
-137.9867539802603
 30
0.0
 10
97.90410153802398
 20
-137.9399006816609
 30
0.0
 10
97.90410153802398
 20
-137.9399006816609
 30
0.0
 10
98.12010902494914
 20
-137.9571261590871
 30
0.0
 10
98.12010902494914
 20
-137.9571261590871
 30
0.0
 10
98.16868487129116
 20
-137.9612602736694
 30
0.0
 10
98.17729761000429
 20
-137.976074184256
 30
0.0
 10
98.17729761000429
 20
-137.9908880948426
 30
0.0
 10
98.17729761000429
 20
-138.0163818014334
 30
0.0
 10
98.16007213257804
 20
-138.024650030598
 30
0.0
 10
98.10942922894488
 20
-138.0501437371888
 30
0.0
 10
98.10736217165372
 20
-138.0756374437797
 30
0.0
 10
98.10736217165372
 20
-138.0818386156532
 30
0.0
 10
98.10529511436258
 20
-138.1324815192863
 30
0.0
 10
98.10529511436258
 20
-138.1324815192863
 30
0.0
 10
98.33577200232578
 20
-138.1324815192863
 30
0.0
 10
98.33577200232578
 20
-138.1324815192863
 30
0.0
 10
98.50079207606925
 20
-138.1324815192863
 30
0.0
 10
98.79293617321844
 20
-138.1262803474129
 30
0.0
 10
98.97242564799996
 20
-138.1197346659909
 30
0.0
 10
98.97242564799996
 20
-138.1197346659909
 30
0.0
 10
98.97242564799996
 20
-138.2975015930298
 30
0.0
 10
98.97242564799996
 20
-138.2975015930298
 30
0.0
 10
98.84357907685161
 20
-138.2933674784475
 30
0.0
 10
98.82015242755192
 20
-138.2933674784475
 30
0.0
 10
98.54316675053782
 20
-138.2892333638652
 30
0.0
  0
SPLINE
  5
10F
330
102
100
AcDbEntity
  8
_U+30EC_U+30A4_U+30E4_U+30FC 1
370
     0
100
AcDbSpline
210
0.0
220
0.0
230
1.0
 70
    11
 71
     3
 72
    23
 73
    19
 74
     0
 42
0.0000000001
 43
0.0000000001
 12
1.0
 22
0.0
 32
0.0
 13
1.0
 23
0.0
 33
0.0
 40
0.0
 40
0.0
 40
0.0
 40
0.0
 40
1.0
 40
1.0
 40
1.0
 40
2.0
 40
2.0
 40
2.0
 40
3.0
 40
3.0
 40
3.0
 40
4.0
 40
4.0
 40
4.0
 40
5.0
 40
5.0
 40
5.0
 40
6.0
 40
6.0
 40
6.0
 40
6.0
 10
97.25917966318521
 20
-137.9378336243697
 30
0.0
 10
97.24195418575896
 20
-137.9781412415471
 30
0.0
 10
97.23575301388551
 20
-137.9950222094249
 30
0.0
 10
97.21473793142549
 20
-137.9950222094249
 30
0.0
 10
97.1999240208389
 20
-137.9950222094249
 30
0.0
 10
97.18924422483464
 20
-137.9781412415471
 30
0.0
 10
97.18304305296118
 20
-137.9653943882517
 30
0.0
 10
97.18304305296118
 20
-137.9653943882517
 30
0.0
 10
97.08347979343746
 20
-137.8003743145082
 30
0.0
 10
97.08347979343746
 20
-137.8003743145082
 30
0.0
 10
97.18511011025234
 20
-137.768679436044
 30
0.0
 10
97.33531627340923
 20
-137.7135579082799
 30
0.0
 10
97.53409828290815
 20
-137.5509494013762
 30
0.0
 10
97.53409828290815
 20
-137.5509494013762
 30
0.0
 10
97.59128686796329
 20
-137.7242377042842
 30
0.0
 10
97.59128686796329
 20
-137.7242377042842
 30
0.0
 10
97.49792478031303
 20
-137.8069199959302
 30
0.0
 10
97.4093858263421
 20
-137.8637640714368
 30
0.0
 10
97.25917966318521
 20
-137.9378336243697
 30
0.0
  0
SPLINE
  5
110
330
102
100
AcDbEntity
  8
_U+30EC_U+30A4_U+30E4_U+30FC 1
370
     0
100
AcDbSpline
210
0.0
220
0.0
230
1.0
 70
    11
 71
     3
 72
    17
 73
    13
 74
     0
 42
0.0000000001
 43
0.0000000001
 12
1.0
 22
0.0
 32
0.0
 13
1.0
 23
0.0
 33
0.0
 40
0.0
 40
0.0
 40
0.0
 40
0.0
 40
1.0
 40
1.0
 40
1.0
 40
2.0
 40
2.0
 40
2.0
 40
3.0
 40
3.0
 40
3.0
 40
4.0
 40
4.0
 40
4.0
 40
4.0
 10
97.41145288363325
 20
-137.4724012243124
 30
0.0
 10
97.38182506246011
 20
-137.4324381166836
 30
0.0
 10
97.31395668140068
 20
-137.334941914451
 30
0.0
 10
97.1320556397795
 20
-137.2250433684715
 30
0.0
 10
97.1320556397795
 20
-137.2250433684715
 30
0.0
 10
97.25917966318521
 20
-137.0917181731924
 30
0.0
 10
97.25917966318521
 20
-137.0917181731924
 30
0.0
 10
97.4452148193887
 20
-137.1933484900072
 30
0.0
 10
97.50240340444385
 20
-137.2822319535267
 30
0.0
 10
97.52996416832585
 20
-137.3246066279953
 30
0.0
 10
97.52996416832585
 20
-137.3246066279953
 30
0.0
 10
97.41145288363325
 20
-137.4724012243124
 30
0.0
 10
97.41145288363325
 20
-137.4724012243124
 30
0.0
  0
SPLINE
  5
111
330
102
100
AcDbEntity
  8
_U+30EC_U+30A4_U+30E4_U+30FC 1
370
     0
100
AcDbSpline
210
0.0
220
0.0
230
1.0
 70
    11
 71
     3
 72
    38
 73
    34
 74
     0
 42
0.0000000001
 43
0.0000000001
 12
1.0
 22
0.0
 32
0.0
 13
1.0
 23
0.0
 33
0.0
 40
0.0
 40
0.0
 40
0.0
 40
0.0
 40
1.0
 40
1.0
 40
1.0
 40
2.0
 40
2.0
 40
2.0
 40
3.0
 40
3.0
 40
3.0
 40
4.0
 40
4.0
 40
4.0
 40
5.0
 40
5.0
 40
5.0
 40
6.0
 40
6.0
 40
6.0
 40
7.0
 40
7.0
 40
7.0
 40
8.0
 40
8.0
 40
8.0
 40
9.0
 40
9.0
 40
9.0
 40
10.0
 40
10.0
 40
10.0
 40
11.0
 40
11.0
 40
11.0
 40
11.0
 10
97.77938908145794
 20
-137.1678547834164
 30
0.0
 10
97.77732202416678
 20
-137.2143635724672
 30
0.0
 10
97.77525496687564
 20
-137.3308077998687
 30
0.0
 10
97.77525496687564
 20
-137.3752495316284
 30
0.0
 10
97.77525496687564
 20
-137.3752495316284
 30
0.0
 10
97.77525496687564
 20
-137.7221706469931
 30
0.0
 10
97.77525496687564
 20
-137.7221706469931
 30
0.0
 10
97.77525496687564
 20
-137.8089870532214
 30
0.0
 10
97.77732202416678
 20
-137.9505804776651
 30
0.0
 10
97.78800182017106
 20
-138.0711588196489
 30
0.0
 10
97.78800182017106
 20
-138.0711588196489
 30
0.0
 10
97.59748803983675
 20
-138.0711588196489
 30
0.0
 10
97.59748803983675
 20
-138.0711588196489
 30
0.0
 10
97.60162215441905
 20
-138.0077690627203
 30
0.0
 10
97.60610077854987
 20
-137.9547145922474
 30
0.0
 10
97.60816783584102
 20
-137.899937574032
 30
0.0
 10
97.61023489313217
 20
-137.7772921747571
 30
0.0
 10
97.61230195042332
 20
-137.7624782641705
 30
0.0
 10
97.61230195042332
 20
-137.7180365324108
 30
0.0
 10
97.61230195042332
 20
-137.7180365324108
 30
0.0
 10
97.61230195042332
 20
-137.3962646140884
 30
0.0
 10
97.61230195042332
 20
-137.3962646140884
 30
0.0
 10
97.61230195042332
 20
-137.341487595873
 30
0.0
 10
97.59955509712789
 20
-137.1023979691966
 30
0.0
 10
97.59748803983675
 20
-137.0514105560149
 30
0.0
 10
97.59748803983675
 20
-137.0514105560149
 30
0.0
 10
97.7983371066268
 20
-137.0789713198969
 30
0.0
 10
97.7983371066268
 20
-137.0789713198969
 30
0.0
 10
97.81969669863535
 20
-137.0810383771881
 30
0.0
 10
97.85139157709966
 20
-137.0855170013189
 30
0.0
 10
97.85139157709966
 20
-137.1106661983612
 30
0.0
 10
97.85139157709966
 20
-137.1382269622432
 30
0.0
 10
97.80074867346649
 20
-137.1595865542518
 30
0.0
 10
97.77938908145794
 20
-137.1678547834164
 30
0.0
  0
SPLINE
  5
112
330
102
100
AcDbEntity
  8
_U+30EC_U+30A4_U+30E4_U+30FC 1
370
     0
100
AcDbSpline
210
0.0
220
0.0
230
1.0
 70
    11
 71
     3
 72
    83
 73
    79
 74
     0
 42
0.0000000001
 43
0.0000000001
 12
1.0
 22
0.0
 32
0.0
 13
1.0
 23
0.0
 33
0.0
 40
0.0
 40
0.0
 40
0.0
 40
0.0
 40
1.0
 40
1.0
 40
1.0
 40
2.0
 40
2.0
 40
2.0
 40
3.0
 40
3.0
 40
3.0
 40
4.0
 40
4.0
 40
4.0
 40
5.0
 40
5.0
 40
5.0
 40
6.0
 40
6.0
 40
6.0
 40
7.0
 40
7.0
 40
7.0
 40
8.0
 40
8.0
 40
8.0
 40
9.0
 40
9.0
 40
9.0
 40
10.0
 40
10.0
 40
10.0
 40
11.0
 40
11.0
 40
11.0
 40
12.0
 40
12.0
 40
12.0
 40
13.0
 40
13.0
 40
13.0
 40
14.0
 40
14.0
 40
14.0
 40
15.0
 40
15.0
 40
15.0
 40
16.0
 40
16.0
 40
16.0
 40
17.0
 40
17.0
 40
17.0
 40
18.0
 40
18.0
 40
18.0
 40
19.0
 40
19.0
 40
19.0
 40
20.0
 40
20.0
 40
20.0
 40
21.0
 40
21.0
 40
21.0
 40
22.0
 40
22.0
 40
22.0
 40
23.0
 40
23.0
 40
23.0
 40
24.0
 40
24.0
 40
24.0
 40
25.0
 40
25.0
 40
25.0
 40
26.0
 40
26.0
 40
26.0
 40
26.0
 10
98.58106280087557
 20
-137.4896267017387
 30
0.0
 10
98.58106280087557
 20
-137.4896267017387
 30
0.0
 10
98.48391110819152
 20
-137.4896267017387
 30
0.0
 10
98.48391110819152
 20
-137.4896267017387
 30
0.0
 10
98.48391110819152
 20
-137.4896267017387
 30
0.0
 10
98.48391110819152
 20
-137.7369845575797
 30
0.0
 10
98.48391110819152
 20
-137.7369845575797
 30
0.0
 10
98.48391110819152
 20
-137.7369845575797
 30
0.0
 10
98.566248890289
 20
-137.7369845575797
 30
0.0
 10
98.566248890289
 20
-137.7369845575797
 30
0.0
 10
98.63205021405727
 20
-137.7369845575797
 30
0.0
 10
98.77157658120989
 20
-137.7328504429973
 30
0.0
 10
98.8711398407336
 20
-137.7242377042842
 30
0.0
 10
98.8711398407336
 20
-137.7242377042842
 30
0.0
 10
98.8711398407336
 20
-137.9040716886143
 30
0.0
 10
98.8711398407336
 20
-137.9040716886143
 30
0.0
 10
98.77812226263187
 20
-137.8958034594497
 30
0.0
 10
98.62791609947497
 20
-137.8913248353188
 30
0.0
 10
98.566248890289
 20
-137.8913248353188
 30
0.0
 10
98.566248890289
 20
-137.8913248353188
 30
0.0
 10
98.26170244939291
 20
-137.8913248353188
 30
0.0
 10
98.26170244939291
 20
-137.8913248353188
 30
0.0
 10
98.2089924884686
 20
-137.8913248353188
 30
0.0
 10
98.062920439894
 20
-137.8958034594497
 30
0.0
 10
97.95715600849682
 20
-137.9040716886143
 30
0.0
 10
97.95715600849682
 20
-137.9040716886143
 30
0.0
 10
97.95715600849682
 20
-137.7242377042842
 30
0.0
 10
97.95715600849682
 20
-137.7242377042842
 30
0.0
 10
98.05671926802054
 20
-137.7328504429973
 30
0.0
 10
98.19624563517317
 20
-137.7369845575797
 30
0.0
 10
98.26170244939291
 20
-137.7369845575797
 30
0.0
 10
98.26170244939291
 20
-137.7369845575797
 30
0.0
 10
98.30614418115263
 20
-137.7369845575797
 30
0.0
 10
98.30614418115263
 20
-137.7369845575797
 30
0.0
 10
98.30614418115263
 20
-137.7369845575797
 30
0.0
 10
98.30614418115263
 20
-137.4896267017387
 30
0.0
 10
98.30614418115263
 20
-137.4896267017387
 30
0.0
 10
98.30614418115263
 20
-137.4896267017387
 30
0.0
 10
98.23207462821976
 20
-137.4896267017387
 30
0.0
 10
98.23207462821976
 20
-137.4896267017387
 30
0.0
 10
98.17075192858232
 20
-137.4896267017387
 30
0.0
 10
98.0036647975477
 20
-137.493760816321
 30
0.0
 10
97.88308645556396
 20
-137.5020290454856
 30
0.0
 10
97.88308645556396
 20
-137.5020290454856
 30
0.0
 10
97.88308645556396
 20
-137.3246066279953
 30
0.0
 10
97.88308645556396
 20
-137.3246066279953
 30
0.0
 10
97.99746362567424
 20
-137.3308077998687
 30
0.0
 10
98.15593801799574
 20
-137.334941914451
 30
0.0
 10
98.23207462821976
 20
-137.334941914451
 30
0.0
 10
98.23207462821976
 20
-137.334941914451
 30
0.0
 10
98.30407712386149
 20
-137.334941914451
 30
0.0
 10
98.30407712386149
 20
-137.334941914451
 30
0.0
 10
98.29994300927919
 20
-137.182668694003
 30
0.0
 10
98.29787595198803
 20
-137.1489067582475
 30
0.0
 10
98.29133027056606
 20
-137.0558891801458
 30
0.0
 10
98.29133027056606
 20
-137.0558891801458
 30
0.0
 10
98.5028591333604
 20
-137.0789713198969
 30
0.0
 10
98.5028591333604
 20
-137.0789713198969
 30
0.0
 10
98.52835283995125
 20
-137.0810383771881
 30
0.0
 10
98.55177948925095
 20
-137.0855170013189
 30
0.0
 10
98.55177948925095
 20
-137.1085991410701
 30
0.0
 10
98.55177948925095
 20
-137.1402940195344
 30
0.0
 10
98.50733775749123
 20
-137.1571749874121
 30
0.0
 10
98.48391110819152
 20
-137.1657877261252
 30
0.0
 10
98.48391110819152
 20
-137.1657877261252
 30
0.0
 10
98.48391110819152
 20
-137.334941914451
 30
0.0
 10
98.48391110819152
 20
-137.334941914451
 30
0.0
 10
98.48391110819152
 20
-137.334941914451
 30
0.0
 10
98.58106280087557
 20
-137.334941914451
 30
0.0
 10
98.58106280087557
 20
-137.334941914451
 30
0.0
 10
98.65754392064812
 20
-137.334941914451
 30
0.0
 10
98.81601831296962
 20
-137.3308077998687
 30
0.0
 10
98.93246254037105
 20
-137.3246066279953
 30
0.0
 10
98.93246254037105
 20
-137.3246066279953
 30
0.0
 10
98.93246254037105
 20
-137.5020290454856
 30
0.0
 10
98.93246254037105
 20
-137.5020290454856
 30
0.0
 10
98.82463105168273
 20
-137.4958278736122
 30
0.0
 10
98.65099823922614
 20
-137.4896267017387
 30
0.0
 10
98.58106280087557
 20
-137.4896267017387
 30
0.0
  0
SPLINE
  5
113
330
102
100
AcDbEntity
  8
_U+30EC_U+30A4_U+30E4_U+30FC 1
370
     0
100
AcDbSpline
210
0.0
220
0.0
230
1.0
 70
    11
 71
     3
 72
    17
 73
    13
 74
     0
 42
0.0000000001
 43
0.0000000001
 12
1.0
 22
0.0
 32
0.0
 13
1.0
 23
0.0
 33
0.0
 40
0.0
 40
0.0
 40
0.0
 40
0.0
 40
1.0
 40
1.0
 40
1.0
 40
2.0
 40
2.0
 40
2.0
 40
3.0
 40
3.0
 40
3.0
 40
4.0
 40
4.0
 40
4.0
 40
4.0
 10
98.33577200232578
 20
-138.2871663065741
 30
0.0
 10
98.33577200232578
 20
-138.2871663065741
 30
0.0
 10
98.13285587824457
 20
-138.2871663065741
 30
0.0
 10
98.13285587824457
 20
-138.2871663065741
 30
0.0
 10
98.16007213257804
 20
-138.3464219489204
 30
0.0
 10
98.21519366034204
 20
-138.4180799350135
 30
0.0
 10
98.24275442422403
 20
-138.4477077561867
 30
0.0
 10
98.27031518810604
 20
-138.4328938456001
 30
0.0
 10
98.3843478486678
 20
-138.3695040886715
 30
0.0
 10
98.47529836947841
 20
-138.2871663065741
 30
0.0
 10
98.47529836947841
 20
-138.2871663065741
 30
0.0
 10
98.33577200232578
 20
-138.2871663065741
 30
0.0
 10
98.33577200232578
 20
-138.2871663065741
 30
0.0
  0
HATCH
  5
114
330
102
100
AcDbEntity
  8
_U+30EC_U+30A4_U+30E4_U+30FC 1
 62
   179
420
  2234388
100
AcDbHatch
 10
0.0
 20
0.0
 30
0.0
210
0.0
220
0.0
230
1.0
  2
SOLID
 70
     1
 71
     0
 91
        6
 92
        1
 93
        1
 72
     4
 94
        3
 73
     0
 74
     1
 95
      113
 96
      109
 40
0.0
 40
0.0
 40
0.0
 40
0.0
 40
1.0
 40
1.0
 40
1.0
 40
2.0
 40
2.0
 40
2.0
 40
3.0
 40
3.0
 40
3.0
 40
4.0
 40
4.0
 40
4.0
 40
5.0
 40
5.0
 40
5.0
 40
6.0
 40
6.0
 40
6.0
 40
7.0
 40
7.0
 40
7.0
 40
8.0
 40
8.0
 40
8.0
 40
9.0
 40
9.0
 40
9.0
 40
10.0
 40
10.0
 40
10.0
 40
11.0
 40
11.0
 40
11.0
 40
12.0
 40
12.0
 40
12.0
 40
13.0
 40
13.0
 40
13.0
 40
14.0
 40
14.0
 40
14.0
 40
15.0
 40
15.0
 40
15.0
 40
16.0
 40
16.0
 40
16.0
 40
17.0
 40
17.0
 40
17.0
 40
18.0
 40
18.0
 40
18.0
 40
19.0
 40
19.0
 40
19.0
 40
20.0
 40
20.0
 40
20.0
 40
21.0
 40
21.0
 40
21.0
 40
22.0
 40
22.0
 40
22.0
 40
23.0
 40
23.0
 40
23.0
 40
24.0
 40
24.0
 40
24.0
 40
25.0
 40
25.0
 40
25.0
 40
26.0
 40
26.0
 40
26.0
 40
27.0
 40
27.0
 40
27.0
 40
28.0
 40
28.0
 40
28.0
 40
29.0
 40
29.0
 40
29.0
 40
30.0
 40
30.0
 40
30.0
 40
31.0
 40
31.0
 40
31.0
 40
32.0
 40
32.0
 40
32.0
 40
33.0
 40
33.0
 40
33.0
 40
34.0
 40
34.0
 40
34.0
 40
35.0
 40
35.0
 40
35.0
 40
36.0
 40
36.0
 40
36.0
 40
36.0
 10
98.54316675053782
 20
-138.2892333638652
 10
98.54316675053782
 20
-138.2892333638652
 10
98.64273001006154
 20
-138.3884521138404
 10
98.64273001006154
 20
-138.3884521138404
 10
98.6530652965173
 20
-138.3991319098447
 10
98.66374509252157
 20
-138.4118787631401
 10
98.66374509252157
 20
-138.4266926737267
 10
98.66374509252157
 20
-138.4287597310178
 10
98.66374509252157
 20
-138.458387552191
 10
98.62550453263529
 20
-138.458387552191
 10
98.61723630347069
 20
-138.458387552191
 10
98.57692868629327
 20
-138.4542534376087
 10
98.57072751441983
 20
-138.4542534376087
 10
98.5304198972424
 20
-138.4859483160729
 10
98.48391110819152
 20
-138.5197102518284
 10
98.3843478486678
 20
-138.5768988368836
 10
98.5304198972424
 20
-138.6847303255719
 10
98.68923879911242
 20
-138.741918910627
 10
98.9620903615442
 20
-138.7798149609648
 10
98.9620903615442
 20
-138.7798149609648
 10
98.81188419838732
 20
-138.9555148307125
 10
98.81188419838732
 20
-138.9555148307125
 10
98.54936792241128
 20
-138.8835123350708
 10
98.39296058738093
 20
-138.7946288715513
 10
98.31682397715691
 20
-138.741918910627
 10
98.16661781400002
 20
-138.6402885938122
 10
98.02261282271657
 20
-138.4773355773598
 10
97.94647621249256
 20
-138.3123155036164
 10
97.87895234098166
 20
-138.3781168273846
 10
97.80488278804879
 20
-138.430826788309
 10
97.72667912053362
 20
-138.479402634651
 10
97.72667912053362
 20
-138.479402634651
 10
97.72667912053362
 20
-138.7312391146228
 10
97.72667912053362
 20
-138.7312391146228
 10
97.88928762743741
 20
-138.7057454080319
 10
98.07566729318943
 20
-138.6613036762722
 10
98.13905705011801
 20
-138.6464897656856
 10
98.13905705011801
 20
-138.6464897656856
 10
98.10942922894488
 20
-138.8159884635599
 10
98.10942922894488
 20
-138.8159884635599
 10
98.10736217165372
 20
-138.8159884635599
 10
98.08841414648485
 20
-138.8221896354333
 10
98.0863470891937
 20
-138.8221896354333
 10
97.88722057014625
 20
-138.8604301953196
 10
97.56992727595474
 20
-138.9258870095394
 10
97.37321232374698
 20
-138.961716002586
 10
97.3625325277427
 20
-138.9789414800122
 10
97.33945038799153
 20
-139.0106363584765
 10
97.31602373869183
 20
-139.0106363584765
 10
97.28880748435836
 20
-139.0106363584765
 10
97.28432886022753
 20
-138.9913438237591
 10
97.28226180293639
 20
-138.9723957985902
 10
97.28226180293639
 20
-138.9723957985902
 10
97.25676809634554
 20
-138.7991074956822
 10
97.25676809634554
 20
-138.7991074956822
 10
97.33083764927841
 20
-138.7904947569691
 10
97.43901364751525
 20
-138.7777479036736
 10
97.54684513620357
 20
-138.7567328212136
 10
97.54684513620357
 20
-138.7567328212136
 10
97.54684513620357
 20
-138.5789658941747
 10
97.54684513620357
 20
-138.5789658941747
 10
97.40284014492013
 20
-138.6509683898164
 10
97.30775550952723
 20
-138.6805962109896
 10
97.14273543578376
 20
-138.7102240321627
 10
97.14273543578376
 20
-138.7102240321627
 10
97.02215709380002
 20
-138.5407253342884
 10
97.02215709380002
 20
-138.5407253342884
 10
97.33945038799153
 20
-138.513509079955
 10
97.53203122561699
 20
-138.4201469923047
 10
97.70979815265589
 20
-138.2871663065741
 10
97.5637261040813
 20
-138.2871663065741
 10
97.26331377776751
 20
-138.2913004211563
 10
97.06659882555974
 20
-138.2975015930298
 10
97.06659882555974
 20
-138.2975015930298
 10
97.06659882555974
 20
-138.1197346659909
 10
97.06659882555974
 20
-138.1197346659909
 10
97.22093910329893
 20
-138.1262803474129
 10
97.51721731503042
 20
-138.1324815192863
 10
97.70118541394277
 20
-138.1324815192863
 10
97.70118541394277
 20
-138.1324815192863
 10
97.9127142767371
 20
-138.1324815192863
 10
97.9127142767371
 20
-138.1324815192863
 10
97.9127142767371
 20
-138.0373968838934
 10
97.91064721944595
 20
-137.9867539802603
 10
97.90410153802398
 20
-137.9399006816609
 10
97.90410153802398
 20
-137.9399006816609
 10
98.12010902494914
 20
-137.9571261590871
 10
98.12010902494914
 20
-137.9571261590871
 10
98.16868487129116
 20
-137.9612602736694
 10
98.17729761000429
 20
-137.976074184256
 10
98.17729761000429
 20
-137.9908880948426
 10
98.17729761000429
 20
-138.0163818014334
 10
98.16007213257804
 20
-138.024650030598
 10
98.10942922894488
 20
-138.0501437371888
 10
98.10736217165372
 20
-138.0756374437797
 10
98.10736217165372
 20
-138.0818386156532
 10
98.10529511436258
 20
-138.1324815192863
 10
98.10529511436258
 20
-138.1324815192863
 10
98.33577200232578
 20
-138.1324815192863
 10
98.33577200232578
 20
-138.1324815192863
 10
98.50079207606925
 20
-138.1324815192863
 10
98.79293617321844
 20
-138.1262803474129
 10
98.97242564799996
 20
-138.1197346659909
 10
98.97242564799996
 20
-138.1197346659909
 10
98.97242564799996
 20
-138.2975015930298
 10
98.97242564799996
 20
-138.2975015930298
 10
98.84357907685161
 20
-138.2933674784475
 10
98.82015242755192
 20
-138.2933674784475
 10
98.54316675053782
 20
-138.2892333638652
 97
        0
 97
        0
 92
        1
 93
        1
 72
     4
 94
        3
 73
     0
 74
     1
 95
       23
 96
       19
 40
0.0
 40
0.0
 40
0.0
 40
0.0
 40
1.0
 40
1.0
 40
1.0
 40
2.0
 40
2.0
 40
2.0
 40
3.0
 40
3.0
 40
3.0
 40
4.0
 40
4.0
 40
4.0
 40
5.0
 40
5.0
 40
5.0
 40
6.0
 40
6.0
 40
6.0
 40
6.0
 10
97.25917966318521
 20
-137.9378336243697
 10
97.24195418575896
 20
-137.9781412415471
 10
97.23575301388551
 20
-137.9950222094249
 10
97.21473793142549
 20
-137.9950222094249
 10
97.1999240208389
 20
-137.9950222094249
 10
97.18924422483464
 20
-137.9781412415471
 10
97.18304305296118
 20
-137.9653943882517
 10
97.18304305296118
 20
-137.9653943882517
 10
97.08347979343746
 20
-137.8003743145082
 10
97.08347979343746
 20
-137.8003743145082
 10
97.18511011025234
 20
-137.768679436044
 10
97.33531627340923
 20
-137.7135579082799
 10
97.53409828290815
 20
-137.5509494013762
 10
97.53409828290815
 20
-137.5509494013762
 10
97.59128686796329
 20
-137.7242377042842
 10
97.59128686796329
 20
-137.7242377042842
 10
97.49792478031303
 20
-137.8069199959302
 10
97.4093858263421
 20
-137.8637640714368
 10
97.25917966318521
 20
-137.9378336243697
 97
        0
 97
        0
 92
        1
 93
        1
 72
     4
 94
        3
 73
     0
 74
     1
 95
       17
 96
       13
 40
0.0
 40
0.0
 40
0.0
 40
0.0
 40
1.0
 40
1.0
 40
1.0
 40
2.0
 40
2.0
 40
2.0
 40
3.0
 40
3.0
 40
3.0
 40
4.0
 40
4.0
 40
4.0
 40
4.0
 10
97.41145288363325
 20
-137.4724012243124
 10
97.38182506246011
 20
-137.4324381166836
 10
97.31395668140068
 20
-137.334941914451
 10
97.1320556397795
 20
-137.2250433684715
 10
97.1320556397795
 20
-137.2250433684715
 10
97.25917966318521
 20
-137.0917181731924
 10
97.25917966318521
 20
-137.0917181731924
 10
97.4452148193887
 20
-137.1933484900072
 10
97.50240340444385
 20
-137.2822319535267
 10
97.52996416832585
 20
-137.3246066279953
 10
97.52996416832585
 20
-137.3246066279953
 10
97.41145288363325
 20
-137.4724012243124
 10
97.41145288363325
 20
-137.4724012243124
 97
        0
 97
        0
 92
        1
 93
        1
 72
     4
 94
        3
 73
     0
 74
     1
 95
       38
 96
       34
 40
0.0
 40
0.0
 40
0.0
 40
0.0
 40
1.0
 40
1.0
 40
1.0
 40
2.0
 40
2.0
 40
2.0
 40
3.0
 40
3.0
 40
3.0
 40
4.0
 40
4.0
 40
4.0
 40
5.0
 40
5.0
 40
5.0
 40
6.0
 40
6.0
 40
6.0
 40
7.0
 40
7.0
 40
7.0
 40
8.0
 40
8.0
 40
8.0
 40
9.0
 40
9.0
 40
9.0
 40
10.0
 40
10.0
 40
10.0
 40
11.0
 40
11.0
 40
11.0
 40
11.0
 10
97.77938908145794
 20
-137.1678547834164
 10
97.77732202416678
 20
-137.2143635724672
 10
97.77525496687564
 20
-137.3308077998687
 10
97.77525496687564
 20
-137.3752495316284
 10
97.77525496687564
 20
-137.3752495316284
 10
97.77525496687564
 20
-137.7221706469931
 10
97.77525496687564
 20
-137.7221706469931
 10
97.77525496687564
 20
-137.8089870532214
 10
97.77732202416678
 20
-137.9505804776651
 10
97.78800182017106
 20
-138.0711588196489
 10
97.78800182017106
 20
-138.0711588196489
 10
97.59748803983675
 20
-138.0711588196489
 10
97.59748803983675
 20
-138.0711588196489
 10
97.60162215441905
 20
-138.0077690627203
 10
97.60610077854987
 20
-137.9547145922474
 10
97.60816783584102
 20
-137.899937574032
 10
97.61023489313217
 20
-137.7772921747571
 10
97.61230195042332
 20
-137.7624782641705
 10
97.61230195042332
 20
-137.7180365324108
 10
97.61230195042332
 20
-137.7180365324108
 10
97.61230195042332
 20
-137.3962646140884
 10
97.61230195042332
 20
-137.3962646140884
 10
97.61230195042332
 20
-137.341487595873
 10
97.59955509712789
 20
-137.1023979691966
 10
97.59748803983675
 20
-137.0514105560149
 10
97.59748803983675
 20
-137.0514105560149
 10
97.7983371066268
 20
-137.0789713198969
 10
97.7983371066268
 20
-137.0789713198969
 10
97.81969669863535
 20
-137.0810383771881
 10
97.85139157709966
 20
-137.0855170013189
 10
97.85139157709966
 20
-137.1106661983612
 10
97.85139157709966
 20
-137.1382269622432
 10
97.80074867346649
 20
-137.1595865542518
 10
97.77938908145794
 20
-137.1678547834164
 97
        0
 97
        0
 92
        1
 93
        1
 72
     4
 94
        3
 73
     0
 74
     1
 95
       83
 96
       79
 40
0.0
 40
0.0
 40
0.0
 40
0.0
 40
1.0
 40
1.0
 40
1.0
 40
2.0
 40
2.0
 40
2.0
 40
3.0
 40
3.0
 40
3.0
 40
4.0
 40
4.0
 40
4.0
 40
5.0
 40
5.0
 40
5.0
 40
6.0
 40
6.0
 40
6.0
 40
7.0
 40
7.0
 40
7.0
 40
8.0
 40
8.0
 40
8.0
 40
9.0
 40
9.0
 40
9.0
 40
10.0
 40
10.0
 40
10.0
 40
11.0
 40
11.0
 40
11.0
 40
12.0
 40
12.0
 40
12.0
 40
13.0
 40
13.0
 40
13.0
 40
14.0
 40
14.0
 40
14.0
 40
15.0
 40
15.0
 40
15.0
 40
16.0
 40
16.0
 40
16.0
 40
17.0
 40
17.0
 40
17.0
 40
18.0
 40
18.0
 40
18.0
 40
19.0
 40
19.0
 40
19.0
 40
20.0
 40
20.0
 40
20.0
 40
21.0
 40
21.0
 40
21.0
 40
22.0
 40
22.0
 40
22.0
 40
23.0
 40
23.0
 40
23.0
 40
24.0
 40
24.0
 40
24.0
 40
25.0
 40
25.0
 40
25.0
 40
26.0
 40
26.0
 40
26.0
 40
26.0
 10
98.58106280087557
 20
-137.4896267017387
 10
98.58106280087557
 20
-137.4896267017387
 10
98.48391110819152
 20
-137.4896267017387
 10
98.48391110819152
 20
-137.4896267017387
 10
98.48391110819152
 20
-137.4896267017387
 10
98.48391110819152
 20
-137.7369845575797
 10
98.48391110819152
 20
-137.7369845575797
 10
98.48391110819152
 20
-137.7369845575797
 10
98.566248890289
 20
-137.7369845575797
 10
98.566248890289
 20
-137.7369845575797
 10
98.63205021405727
 20
-137.7369845575797
 10
98.77157658120989
 20
-137.7328504429973
 10
98.8711398407336
 20
-137.7242377042842
 10
98.8711398407336
 20
-137.7242377042842
 10
98.8711398407336
 20
-137.9040716886143
 10
98.8711398407336
 20
-137.9040716886143
 10
98.77812226263187
 20
-137.8958034594497
 10
98.62791609947497
 20
-137.8913248353188
 10
98.566248890289
 20
-137.8913248353188
 10
98.566248890289
 20
-137.8913248353188
 10
98.26170244939291
 20
-137.8913248353188
 10
98.26170244939291
 20
-137.8913248353188
 10
98.2089924884686
 20
-137.8913248353188
 10
98.062920439894
 20
-137.8958034594497
 10
97.95715600849682
 20
-137.9040716886143
 10
97.95715600849682
 20
-137.9040716886143
 10
97.95715600849682
 20
-137.7242377042842
 10
97.95715600849682
 20
-137.7242377042842
 10
98.05671926802054
 20
-137.7328504429973
 10
98.19624563517317
 20
-137.7369845575797
 10
98.26170244939291
 20
-137.7369845575797
 10
98.26170244939291
 20
-137.7369845575797
 10
98.30614418115263
 20
-137.7369845575797
 10
98.30614418115263
 20
-137.7369845575797
 10
98.30614418115263
 20
-137.7369845575797
 10
98.30614418115263
 20
-137.4896267017387
 10
98.30614418115263
 20
-137.4896267017387
 10
98.30614418115263
 20
-137.4896267017387
 10
98.23207462821976
 20
-137.4896267017387
 10
98.23207462821976
 20
-137.4896267017387
 10
98.17075192858232
 20
-137.4896267017387
 10
98.0036647975477
 20
-137.493760816321
 10
97.88308645556396
 20
-137.5020290454856
 10
97.88308645556396
 20
-137.5020290454856
 10
97.88308645556396
 20
-137.3246066279953
 10
97.88308645556396
 20
-137.3246066279953
 10
97.99746362567424
 20
-137.3308077998687
 10
98.15593801799574
 20
-137.334941914451
 10
98.23207462821976
 20
-137.334941914451
 10
98.23207462821976
 20
-137.334941914451
 10
98.30407712386149
 20
-137.334941914451
 10
98.30407712386149
 20
-137.334941914451
 10
98.29994300927919
 20
-137.182668694003
 10
98.29787595198803
 20
-137.1489067582475
 10
98.29133027056606
 20
-137.0558891801458
 10
98.29133027056606
 20
-137.0558891801458
 10
98.5028591333604
 20
-137.0789713198969
 10
98.5028591333604
 20
-137.0789713198969
 10
98.52835283995125
 20
-137.0810383771881
 10
98.55177948925095
 20
-137.0855170013189
 10
98.55177948925095
 20
-137.1085991410701
 10
98.55177948925095
 20
-137.1402940195344
 10
98.50733775749123
 20
-137.1571749874121
 10
98.48391110819152
 20
-137.1657877261252
 10
98.48391110819152
 20
-137.1657877261252
 10
98.48391110819152
 20
-137.334941914451
 10
98.48391110819152
 20
-137.334941914451
 10
98.48391110819152
 20
-137.334941914451
 10
98.58106280087557
 20
-137.334941914451
 10
98.58106280087557
 20
-137.334941914451
 10
98.65754392064812
 20
-137.334941914451
 10
98.81601831296962
 20
-137.3308077998687
 10
98.93246254037105
 20
-137.3246066279953
 10
98.93246254037105
 20
-137.3246066279953
 10
98.93246254037105
 20
-137.5020290454856
 10
98.93246254037105
 20
-137.5020290454856
 10
98.82463105168273
 20
-137.4958278736122
 10
98.65099823922614
 20
-137.4896267017387
 10
98.58106280087557
 20
-137.4896267017387
 97
        0
 97
        0
 92
        1
 93
        1
 72
     4
 94
        3
 73
     0
 74
     1
 95
       17
 96
       13
 40
0.0
 40
0.0
 40
0.0
 40
0.0
 40
1.0
 40
1.0
 40
1.0
 40
2.0
 40
2.0
 40
2.0
 40
3.0
 40
3.0
 40
3.0
 40
4.0
 40
4.0
 40
4.0
 40
4.0
 10
98.33577200232578
 20
-138.2871663065741
 10
98.33577200232578
 20
-138.2871663065741
 10
98.13285587824457
 20
-138.2871663065741
 10
98.13285587824457
 20
-138.2871663065741
 10
98.16007213257804
 20
-138.3464219489204
 10
98.21519366034204
 20
-138.4180799350135
 10
98.24275442422403
 20
-138.4477077561867
 10
98.27031518810604
 20
-138.4328938456001
 10
98.3843478486678
 20
-138.3695040886715
 10
98.47529836947841
 20
-138.2871663065741
 10
98.47529836947841
 20
-138.2871663065741
 10
98.33577200232578
 20
-138.2871663065741
 10
98.33577200232578
 20
-138.2871663065741
 97
        0
 97
        0
 75
     2
 76
     1
 98
        0
  0
SPLINE
  5
115
330
102
100
AcDbEntity
  8
_U+30EC_U+30A4_U+30E4_U+30FC 1
370
     0
100
AcDbSpline
210
0.0
220
0.0
230
1.0
 70
    11
 71
     3
 72
    77
 73
    73
 74
     0
 42
0.0000000001
 43
0.0000000001
 12
1.0
 22
0.0
 32
0.0
 13
1.0
 23
0.0
 33
0.0
 40
0.0
 40
0.0
 40
0.0
 40
0.0
 40
1.0
 40
1.0
 40
1.0
 40
2.0
 40
2.0
 40
2.0
 40
3.0
 40
3.0
 40
3.0
 40
4.0
 40
4.0
 40
4.0
 40
5.0
 40
5.0
 40
5.0
 40
6.0
 40
6.0
 40
6.0
 40
7.0
 40
7.0
 40
7.0
 40
8.0
 40
8.0
 40
8.0
 40
9.0
 40
9.0
 40
9.0
 40
10.0
 40
10.0
 40
10.0
 40
11.0
 40
11.0
 40
11.0
 40
12.0
 40
12.0
 40
12.0
 40
13.0
 40
13.0
 40
13.0
 40
14.0
 40
14.0
 40
14.0
 40
15.0
 40
15.0
 40
15.0
 40
16.0
 40
16.0
 40
16.0
 40
17.0
 40
17.0
 40
17.0
 40
18.0
 40
18.0
 40
18.0
 40
19.0
 40
19.0
 40
19.0
 40
20.0
 40
20.0
 40
20.0
 40
21.0
 40
21.0
 40
21.0
 40
22.0
 40
22.0
 40
22.0
 40
23.0
 40
23.0
 40
23.0
 40
24.0
 40
24.0
 40
24.0
 40
24.0
 10
100.8269205477099
 20
-138.9172742708263
 30
0.0
 10
100.7804117586591
 20
-138.9427679774171
 30
0.0
 10
100.655699302093
 20
-138.9555148307125
 30
0.0
 10
100.5774956345779
 20
-138.9555148307125
 30
0.0
 10
100.5647487812824
 20
-138.9555148307125
 30
0.0
 10
100.5392550746916
 20
-138.9555148307125
 30
0.0
 10
100.5054931389361
 20
-138.9513807161302
 30
0.0
 10
100.5054931389361
 20
-138.9513807161302
 30
0.0
 10
100.4079969367036
 20
-138.7250379427493
 30
0.0
 10
100.4079969367036
 20
-138.7250379427493
 30
0.0
 10
100.4376247578767
 20
-138.7312391146228
 30
0.0
 10
100.4948133429319
 20
-138.7398518533359
 30
0.0
 10
100.6112575703333
 20
-138.7398518533359
 30
0.0
 10
100.6894612378485
 20
-138.7398518533359
 30
0.0
 10
100.6915282951396
 20
-138.6974771788673
 30
0.0
 10
100.6915282951396
 20
-138.6402885938122
 30
0.0
 10
100.6915282951396
 20
-138.6402885938122
 30
0.0
 10
100.6915282951396
 20
-138.2913004211563
 30
0.0
 10
100.6915282951396
 20
-138.2913004211563
 30
0.0
 10
100.6915282951396
 20
-138.2913004211563
 30
0.0
 10
100.2326415765043
 20
-138.2913004211563
 30
0.0
 10
100.2326415765043
 20
-138.2913004211563
 30
0.0
 10
100.2347086337955
 20
-138.4287597310178
 30
0.0
 10
100.2367756910866
 20
-138.6275417405167
 30
0.0
 10
100.2429768629601
 20
-138.7608669357959
 30
0.0
 10
100.2453884297998
 20
-138.7884276996779
 30
0.0
 10
100.2453884297998
 20
-138.8328694314376
 30
0.0
 10
100.2577907735467
 20
-138.8941921310751
 30
0.0
 10
100.2577907735467
 20
-138.8941921310751
 30
0.0
 10
100.0166340895792
 20
-138.8941921310751
 30
0.0
 10
100.0166340895792
 20
-138.8941921310751
 30
0.0
 10
100.04212779617
 20
-138.769479674509
 30
0.0
 10
100.04212779617
 20
-138.4287597310178
 30
0.0
 10
100.04212779617
 20
-138.2913004211563
 30
0.0
 10
100.04212779617
 20
-138.2913004211563
 30
0.0
 10
99.60012204541248
 20
-138.2913004211563
 30
0.0
 10
99.60012204541248
 20
-138.2913004211563
 30
0.0
 10
99.57669539611277
 20
-138.4986951693684
 30
0.0
 10
99.51123858189302
 20
-138.7670681076694
 30
0.0
 10
99.31452362968527
 20
-138.9513807161302
 30
0.0
 10
99.31452362968527
 20
-138.9513807161302
 30
0.0
 10
99.1260769066421
 20
-138.8287353168553
 30
0.0
 10
99.1260769066421
 20
-138.8287353168553
 30
0.0
 10
99.37998044390501
 20
-138.6085937153479
 30
0.0
 10
99.4116753223693
 20
-138.2764865105698
 30
0.0
 10
99.4116753223693
 20
-137.9443793057917
 30
0.0
 10
99.4116753223693
 20
-137.9443793057917
 30
0.0
 10
99.4116753223693
 20
-137.5085747269076
 30
0.0
 10
99.4116753223693
 20
-137.5085747269076
 30
0.0
 10
99.4116753223693
 20
-137.4724012243124
 30
0.0
 10
99.40960826507816
 20
-137.2398572790581
 30
0.0
 10
99.40099552636504
 20
-137.1382269622432
 30
0.0
 10
99.54086640306618
 20
-137.1489067582475
 30
0.0
 10
99.78202308703366
 20
-137.1489067582475
 30
0.0
 10
99.92568356876859
 20
-137.1489067582475
 30
0.0
 10
99.92568356876859
 20
-137.1489067582475
 30
0.0
 10
100.3849147969524
 20
-137.1489067582475
 30
0.0
 10
100.3849147969524
 20
-137.1489067582475
 30
0.0
 10
100.399728707539
 20
-137.1489067582475
 30
0.0
 10
100.7487168801948
 20
-137.1489067582475
 30
0.0
 10
100.9075357820648
 20
-137.1382269622432
 30
0.0
 10
100.9051242152251
 20
-137.1912814327161
 30
0.0
 10
100.8989230433517
 20
-137.3518228823287
 30
0.0
 10
100.8989230433517
 20
-137.4028102955104
 30
0.0
 10
100.8989230433517
 20
-137.4028102955104
 30
0.0
 10
100.8989230433517
 20
-138.0098361200114
 30
0.0
 10
100.8989230433517
 20
-138.0098361200114
 30
0.0
 10
100.8989230433517
 20
-138.0287841451803
 30
0.0
 10
100.9096028393559
 20
-138.5999809766347
 30
0.0
 10
100.9096028393559
 20
-138.7122910894539
 30
0.0
 10
100.9096028393559
 20
-138.769479674509
 30
0.0
 10
100.9096028393559
 20
-138.8707654817754
 30
0.0
 10
100.8269205477099
 20
-138.9172742708263
 30
0.0
  0
POLYLINE
  5
116
330
102
100
AcDbEntity
  8
_U+30EC_U+30A4_U+30E4_U+30FC 1
370
     0
100
AcDb2dPolyline
 66
     1
 10
0.0
 20
0.0
 30
0.0
  0
VERTEX
  5
117
330
116
100
AcDbEntity
  8
_U+30EC_U+30A4_U+30E4_U+30FC 1
370
     0
100
AcDbVertex
100
AcDb2dVertex
 10
100.04212779617
 20
-137.3308077998687
 30
0.0
  0
VERTEX
  5
118
330
116
100
AcDbEntity
  8
_U+30EC_U+30A4_U+30E4_U+30FC 1
370
     0
100
AcDbVertex
100
AcDb2dVertex
 10
99.60425615999478
 20
-137.3308077998687
 30
0.0
  0
VERTEX
  5
119
330
116
100
AcDbEntity
  8
_U+30EC_U+30A4_U+30E4_U+30FC 1
370
     0
100
AcDbVertex
100
AcDb2dVertex
 10
99.60425615999478
 20
-137.6353542407648
 30
0.0
  0
VERTEX
  5
11A
330
116
100
AcDbEntity
  8
_U+30EC_U+30A4_U+30E4_U+30FC 1
370
     0
100
AcDbVertex
100
AcDb2dVertex
 10
100.04212779617
 20
-137.6353542407648
 30
0.0
  0
VERTEX
  5
11B
330
116
100
AcDbEntity
  8
_U+30EC_U+30A4_U+30E4_U+30FC 1
370
     0
100
AcDbVertex
100
AcDb2dVertex
 10
100.04212779617
 20
-137.3308077998687
 30
0.0
  0
SEQEND
  5
11C
330
116
100
AcDbEntity
  8
_U+30EC_U+30A4_U+30E4_U+30FC 1
370
     0
  0
POLYLINE
  5
11D
330
102
100
AcDbEntity
  8
_U+30EC_U+30A4_U+30E4_U+30FC 1
370
     0
100
AcDb2dPolyline
 66
     1
 10
0.0
 20
0.0
 30
0.0
  0
VERTEX
  5
11E
330
11D
100
AcDbEntity
  8
_U+30EC_U+30A4_U+30E4_U+30FC 1
370
     0
100
AcDbVertex
100
AcDb2dVertex
 10
100.04212779617
 20
-137.8024413717994
 30
0.0
  0
VERTEX
  5
11F
330
11D
100
AcDbEntity
  8
_U+30EC_U+30A4_U+30E4_U+30FC 1
370
     0
100
AcDbVertex
100
AcDb2dVertex
 10
99.60425615999478
 20
-137.8024413717994
 30
0.0
  0
VERTEX
  5
120
330
11D
100
AcDbEntity
  8
_U+30EC_U+30A4_U+30E4_U+30FC 1
370
     0
100
AcDbVertex
100
AcDb2dVertex
 10
99.60425615999478
 20
-138.1114664368263
 30
0.0
  0
VERTEX
  5
121
330
11D
100
AcDbEntity
  8
_U+30EC_U+30A4_U+30E4_U+30FC 1
370
     0
100
AcDbVertex
100
AcDb2dVertex
 10
100.04212779617
 20
-138.1114664368263
 30
0.0
  0
VERTEX
  5
122
330
11D
100
AcDbEntity
  8
_U+30EC_U+30A4_U+30E4_U+30FC 1
370
     0
100
AcDbVertex
100
AcDb2dVertex
 10
100.04212779617
 20
-137.8024413717994
 30
0.0
  0
SEQEND
  5
123
330
11D
100
AcDbEntity
  8
_U+30EC_U+30A4_U+30E4_U+30FC 1
370
     0
  0
POLYLINE
  5
124
330
102
100
AcDbEntity
  8
_U+30EC_U+30A4_U+30E4_U+30FC 1
370
     0
100
AcDb2dPolyline
 66
     1
 10
0.0
 20
0.0
 30
0.0
  0
VERTEX
  5
125
330
124
100
AcDbEntity
  8
_U+30EC_U+30A4_U+30E4_U+30FC 1
370
     0
100
AcDbVertex
100
AcDb2dVertex
 10
100.6915282951396
 20
-137.3308077998687
 30
0.0
  0
VERTEX
  5
126
330
124
100
AcDbEntity
  8
_U+30EC_U+30A4_U+30E4_U+30FC 1
370
     0
100
AcDbVertex
100
AcDb2dVertex
 10
100.2326415765043
 20
-137.3308077998687
 30
0.0
  0
VERTEX
  5
127
330
124
100
AcDbEntity
  8
_U+30EC_U+30A4_U+30E4_U+30FC 1
370
     0
100
AcDbVertex
100
AcDb2dVertex
 10
100.2326415765043
 20
-137.6353542407648
 30
0.0
  0
VERTEX
  5
128
330
124
100
AcDbEntity
  8
_U+30EC_U+30A4_U+30E4_U+30FC 1
370
     0
100
AcDbVertex
100
AcDb2dVertex
 10
100.6915282951396
 20
-137.6353542407648
 30
0.0
  0
VERTEX
  5
129
330
124
100
AcDbEntity
  8
_U+30EC_U+30A4_U+30E4_U+30FC 1
370
     0
100
AcDbVertex
100
AcDb2dVertex
 10
100.6915282951396
 20
-137.3308077998687
 30
0.0
  0
SEQEND
  5
12A
330
124
100
AcDbEntity
  8
_U+30EC_U+30A4_U+30E4_U+30FC 1
370
     0
  0
POLYLINE
  5
12B
330
102
100
AcDbEntity
  8
_U+30EC_U+30A4_U+30E4_U+30FC 1
370
     0
100
AcDb2dPolyline
 66
     1
 10
0.0
 20
0.0
 30
0.0
  0
VERTEX
  5
12C
330
12B
100
AcDbEntity
  8
_U+30EC_U+30A4_U+30E4_U+30FC 1
370
     0
100
AcDbVertex
100
AcDb2dVertex
 10
100.6915282951396
 20
-137.8024413717994
 30
0.0
  0
VERTEX
  5
12D
330
12B
100
AcDbEntity
  8
_U+30EC_U+30A4_U+30E4_U+30FC 1
370
     0
100
AcDbVertex
100
AcDb2dVertex
 10
100.2326415765043
 20
-137.8024413717994
 30
0.0
  0
VERTEX
  5
12E
330
12B
100
AcDbEntity
  8
_U+30EC_U+30A4_U+30E4_U+30FC 1
370
     0
100
AcDbVertex
100
AcDb2dVertex
 10
100.2326415765043
 20
-138.1114664368263
 30
0.0
  0
VERTEX
  5
12F
330
12B
100
AcDbEntity
  8
_U+30EC_U+30A4_U+30E4_U+30FC 1
370
     0
100
AcDbVertex
100
AcDb2dVertex
 10
100.6915282951396
 20
-138.1114664368263
 30
0.0
  0
VERTEX
  5
130
330
12B
100
AcDbEntity
  8
_U+30EC_U+30A4_U+30E4_U+30FC 1
370
     0
100
AcDbVertex
100
AcDb2dVertex
 10
100.6915282951396
 20
-137.8024413717994
 30
0.0
  0
SEQEND
  5
131
330
12B
100
AcDbEntity
  8
_U+30EC_U+30A4_U+30E4_U+30FC 1
370
     0
  0
HATCH
  5
132
330
102
100
AcDbEntity
  8
_U+30EC_U+30A4_U+30E4_U+30FC 1
 62
   179
420
  2234388
100
AcDbHatch
 10
0.0
 20
0.0
 30
0.0
210
0.0
220
0.0
230
1.0
  2
SOLID
 70
     1
 71
     0
 91
        5
 92
        1
 93
        1
 72
     4
 94
        3
 73
     0
 74
     1
 95
       77
 96
       73
 40
0.0
 40
0.0
 40
0.0
 40
0.0
 40
1.0
 40
1.0
 40
1.0
 40
2.0
 40
2.0
 40
2.0
 40
3.0
 40
3.0
 40
3.0
 40
4.0
 40
4.0
 40
4.0
 40
5.0
 40
5.0
 40
5.0
 40
6.0
 40
6.0
 40
6.0
 40
7.0
 40
7.0
 40
7.0
 40
8.0
 40
8.0
 40
8.0
 40
9.0
 40
9.0
 40
9.0
 40
10.0
 40
10.0
 40
10.0
 40
11.0
 40
11.0
 40
11.0
 40
12.0
 40
12.0
 40
12.0
 40
13.0
 40
13.0
 40
13.0
 40
14.0
 40
14.0
 40
14.0
 40
15.0
 40
15.0
 40
15.0
 40
16.0
 40
16.0
 40
16.0
 40
17.0
 40
17.0
 40
17.0
 40
18.0
 40
18.0
 40
18.0
 40
19.0
 40
19.0
 40
19.0
 40
20.0
 40
20.0
 40
20.0
 40
21.0
 40
21.0
 40
21.0
 40
22.0
 40
22.0
 40
22.0
 40
23.0
 40
23.0
 40
23.0
 40
24.0
 40
24.0
 40
24.0
 40
24.0
 10
100.8269205477099
 20
-138.9172742708263
 10
100.7804117586591
 20
-138.9427679774171
 10
100.655699302093
 20
-138.9555148307125
 10
100.5774956345779
 20
-138.9555148307125
 10
100.5647487812824
 20
-138.9555148307125
 10
100.5392550746916
 20
-138.9555148307125
 10
100.5054931389361
 20
-138.9513807161302
 10
100.5054931389361
 20
-138.9513807161302
 10
100.4079969367036
 20
-138.7250379427493
 10
100.4079969367036
 20
-138.7250379427493
 10
100.4376247578767
 20
-138.7312391146228
 10
100.4948133429319
 20
-138.7398518533359
 10
100.6112575703333
 20
-138.7398518533359
 10
100.6894612378485
 20
-138.7398518533359
 10
100.6915282951396
 20
-138.6974771788673
 10
100.6915282951396
 20
-138.6402885938122
 10
100.6915282951396
 20
-138.6402885938122
 10
100.6915282951396
 20
-138.2913004211563
 10
100.6915282951396
 20
-138.2913004211563
 10
100.6915282951396
 20
-138.2913004211563
 10
100.2326415765043
 20
-138.2913004211563
 10
100.2326415765043
 20
-138.2913004211563
 10
100.2347086337955
 20
-138.4287597310178
 10
100.2367756910866
 20
-138.6275417405167
 10
100.2429768629601
 20
-138.7608669357959
 10
100.2453884297998
 20
-138.7884276996779
 10
100.2453884297998
 20
-138.8328694314376
 10
100.2577907735467
 20
-138.8941921310751
 10
100.2577907735467
 20
-138.8941921310751
 10
100.0166340895792
 20
-138.8941921310751
 10
100.0166340895792
 20
-138.8941921310751
 10
100.04212779617
 20
-138.769479674509
 10
100.04212779617
 20
-138.4287597310178
 10
100.04212779617
 20
-138.2913004211563
 10
100.04212779617
 20
-138.2913004211563
 10
99.60012204541248
 20
-138.2913004211563
 10
99.60012204541248
 20
-138.2913004211563
 10
99.57669539611277
 20
-138.4986951693684
 10
99.51123858189302
 20
-138.7670681076694
 10
99.31452362968527
 20
-138.9513807161302
 10
99.31452362968527
 20
-138.9513807161302
 10
99.1260769066421
 20
-138.8287353168553
 10
99.1260769066421
 20
-138.8287353168553
 10
99.37998044390501
 20
-138.6085937153479
 10
99.4116753223693
 20
-138.2764865105698
 10
99.4116753223693
 20
-137.9443793057917
 10
99.4116753223693
 20
-137.9443793057917
 10
99.4116753223693
 20
-137.5085747269076
 10
99.4116753223693
 20
-137.5085747269076
 10
99.4116753223693
 20
-137.4724012243124
 10
99.40960826507816
 20
-137.2398572790581
 10
99.40099552636504
 20
-137.1382269622432
 10
99.54086640306618
 20
-137.1489067582475
 10
99.78202308703366
 20
-137.1489067582475
 10
99.92568356876859
 20
-137.1489067582475
 10
99.92568356876859
 20
-137.1489067582475
 10
100.3849147969524
 20
-137.1489067582475
 10
100.3849147969524
 20
-137.1489067582475
 10
100.399728707539
 20
-137.1489067582475
 10
100.7487168801948
 20
-137.1489067582475
 10
100.9075357820648
 20
-137.1382269622432
 10
100.9051242152251
 20
-137.1912814327161
 10
100.8989230433517
 20
-137.3518228823287
 10
100.8989230433517
 20
-137.4028102955104
 10
100.8989230433517
 20
-137.4028102955104
 10
100.8989230433517
 20
-138.0098361200114
 10
100.8989230433517
 20
-138.0098361200114
 10
100.8989230433517
 20
-138.0287841451803
 10
100.9096028393559
 20
-138.5999809766347
 10
100.9096028393559
 20
-138.7122910894539
 10
100.9096028393559
 20
-138.769479674509
 10
100.9096028393559
 20
-138.8707654817754
 10
100.8269205477099
 20
-138.9172742708263
 97
        0
 97
        0
 92
        1
 93
        4
 72
     1
 10
100.04212779617
 20
-137.3308077998687
 11
99.60425615999478
 21
-137.3308077998687
 72
     1
 10
99.60425615999478
 20
-137.3308077998687
 11
99.60425615999478
 21
-137.6353542407648
 72
     1
 10
99.60425615999478
 20
-137.6353542407648
 11
100.04212779617
 21
-137.6353542407648
 72
     1
 10
100.04212779617
 20
-137.6353542407648
 11
100.04212779617
 21
-137.3308077998687
 97
        0
 92
        1
 93
        4
 72
     1
 10
100.04212779617
 20
-137.8024413717994
 11
99.60425615999478
 21
-137.8024413717994
 72
     1
 10
99.60425615999478
 20
-137.8024413717994
 11
99.60425615999478
 21
-138.1114664368263
 72
     1
 10
99.60425615999478
 20
-138.1114664368263
 11
100.04212779617
 21
-138.1114664368263
 72
     1
 10
100.04212779617
 20
-138.1114664368263
 11
100.04212779617
 21
-137.8024413717994
 97
        0
 92
        1
 93
        4
 72
     1
 10
100.6915282951396
 20
-137.3308077998687
 11
100.2326415765043
 21
-137.3308077998687
 72
     1
 10
100.2326415765043
 20
-137.3308077998687
 11
100.2326415765043
 21
-137.6353542407648
 72
     1
 10
100.2326415765043
 20
-137.6353542407648
 11
100.6915282951396
 21
-137.6353542407648
 72
     1
 10
100.6915282951396
 20
-137.6353542407648
 11
100.6915282951396
 21
-137.3308077998687
 97
        0
 92
        1
 93
        4
 72
     1
 10
100.6915282951396
 20
-137.8024413717994
 11
100.2326415765043
 21
-137.8024413717994
 72
     1
 10
100.2326415765043
 20
-137.8024413717994
 11
100.2326415765043
 21
-138.1114664368263
 72
     1
 10
100.2326415765043
 20
-138.1114664368263
 11
100.6915282951396
 21
-138.1114664368263
 72
     1
 10
100.6915282951396
 20
-138.1114664368263
 11
100.6915282951396
 21
-137.8024413717994
 97
        0
 75
     2
 76
     1
 98
        0
  0
SPLINE
  5
133
330
102
100
AcDbEntity
  8
_U+30EC_U+30A4_U+30E4_U+30FC 1
370
     0
100
AcDbSpline
210
0.0
220
0.0
230
1.0
 70
    11
 71
     3
 72
    44
 73
    40
 74
     0
 42
0.0000000001
 43
0.0000000001
 12
1.0
 22
0.0
 32
0.0
 13
1.0
 23
0.0
 33
0.0
 40
0.0
 40
0.0
 40
0.0
 40
0.0
 40
1.0
 40
1.0
 40
1.0
 40
2.0
 40
2.0
 40
2.0
 40
3.0
 40
3.0
 40
3.0
 40
4.0
 40
4.0
 40
4.0
 40
5.0
 40
5.0
 40
5.0
 40
6.0
 40
6.0
 40
6.0
 40
7.0
 40
7.0
 40
7.0
 40
8.0
 40
8.0
 40
8.0
 40
9.0
 40
9.0
 40
9.0
 40
10.0
 40
10.0
 40
10.0
 40
11.0
 40
11.0
 40
11.0
 40
12.0
 40
12.0
 40
12.0
 40
13.0
 40
13.0
 40
13.0
 40
13.0
 10
102.7044975871711
 20
-137.6670491192291
 30
0.0
 10
102.5925319839005
 20
-138.0353298266023
 30
0.0
 10
102.5415445707188
 20
-138.1938042189238
 30
0.0
 10
102.344829618511
 20
-138.4435736416044
 30
0.0
 10
102.1608615195987
 20
-138.6740505295676
 30
0.0
 10
101.9238389502135
 20
-138.8604301953196
 30
0.0
 10
101.6447862159083
 20
-138.9534477734214
 30
0.0
 10
101.6447862159083
 20
-138.9534477734214
 30
0.0
 10
101.4522053782828
 20
-138.7736137890913
 30
0.0
 10
101.4522053782828
 20
-138.7736137890913
 30
0.0
 10
102.0933376480878
 20
-138.6213405686433
 30
0.0
 10
102.4230332860262
 20
-138.0649576477754
 30
0.0
 10
102.4867675525033
 20
-137.625018954309
 30
0.0
 10
102.4867675525033
 20
-137.625018954309
 30
0.0
 10
101.7209228261323
 20
-137.625018954309
 30
0.0
 10
101.7209228261323
 20
-137.625018954309
 30
0.0
 10
101.6279052480305
 20
-137.625018954309
 30
0.0
 10
101.4435926395697
 20
-137.6291530688913
 30
0.0
 10
101.2871853045393
 20
-137.6481010940602
 30
0.0
 10
101.2871853045393
 20
-137.6481010940602
 30
0.0
 10
101.2871853045393
 20
-137.4279594925527
 30
0.0
 10
101.2871853045393
 20
-137.4279594925527
 30
0.0
 10
101.3740017107676
 20
-137.4493190845613
 30
0.0
 10
101.6254936811908
 20
-137.4493190845613
 30
0.0
 10
101.7250569407146
 20
-137.4493190845613
 30
0.0
 10
101.7250569407146
 20
-137.4493190845613
 30
0.0
 10
102.1567274050164
 20
-137.4493190845613
 30
0.0
 10
102.1567274050164
 20
-137.4493190845613
 30
0.0
 10
102.1991020794849
 20
-137.4493190845613
 30
0.0
 10
102.4337130820305
 20
-137.4472520272701
 30
0.0
 10
102.4719536419167
 20
-137.4407063458482
 30
0.0
 10
102.5143283163853
 20
-137.4345051739747
 30
0.0
 10
102.5163953736765
 20
-137.4324381166836
 30
0.0
 10
102.5777180733139
 20
-137.3921304995062
 30
0.0
 10
102.5777180733139
 20
-137.3921304995062
 30
0.0
 10
102.7658202868085
 20
-137.5464707772453
 30
0.0
 10
102.7658202868085
 20
-137.5464707772453
 30
0.0
 10
102.7361924656354
 20
-137.5760985984185
 30
0.0
 10
102.7213785550488
 20
-137.6077934768828
 30
0.0
 10
102.7044975871711
 20
-137.6670491192291
 30
0.0
  0
SPLINE
  5
134
330
102
100
AcDbEntity
  8
_U+30EC_U+30A4_U+30E4_U+30FC 1
370
     0
100
AcDbSpline
210
0.0
220
0.0
230
1.0
 70
    11
 71
     3
 72
    17
 73
    13
 74
     0
 42
0.0000000001
 43
0.0000000001
 12
1.0
 22
0.0
 32
0.0
 13
1.0
 23
0.0
 33
0.0
 40
0.0
 40
0.0
 40
0.0
 40
0.0
 40
1.0
 40
1.0
 40
1.0
 40
2.0
 40
2.0
 40
2.0
 40
3.0
 40
3.0
 40
3.0
 40
4.0
 40
4.0
 40
4.0
 40
4.0
 10
102.9139593926743
 20
-137.4682671097302
 30
0.0
 10
102.7871798788171
 20
-137.4682671097302
 30
0.0
 10
102.6855495620022
 20
-137.3666367929153
 30
0.0
 10
102.6855495620022
 20
-137.2398572790581
 30
0.0
 10
102.6855495620022
 20
-137.1130777652009
 30
0.0
 10
102.7871798788171
 20
-137.0093803910949
 30
0.0
 10
102.9139593926743
 20
-137.0093803910949
 30
0.0
 10
103.04108341608
 20
-137.0093803910949
 30
0.0
 10
103.144780790186
 20
-137.1130777652009
 30
0.0
 10
103.144780790186
 20
-137.2398572790581
 30
0.0
 10
103.144780790186
 20
-137.3666367929153
 30
0.0
 10
103.04108341608
 20
-137.4682671097302
 30
0.0
 10
102.9139593926743
 20
-137.4682671097302
 30
0.0
  0
SPLINE
  5
135
330
102
100
AcDbEntity
  8
_U+30EC_U+30A4_U+30E4_U+30FC 1
370
     0
100
AcDbSpline
210
0.0
220
0.0
230
1.0
 70
    11
 71
     3
 72
    17
 73
    13
 74
     0
 42
0.0000000001
 43
0.0000000001
 12
1.0
 22
0.0
 32
0.0
 13
1.0
 23
0.0
 33
0.0
 40
0.0
 40
0.0
 40
0.0
 40
0.0
 40
1.0
 40
1.0
 40
1.0
 40
2.0
 40
2.0
 40
2.0
 40
3.0
 40
3.0
 40
3.0
 40
4.0
 40
4.0
 40
4.0
 40
4.0
 10
102.9118923353831
 20
-137.1382269622432
 30
0.0
 10
102.8567708076191
 20
-137.1382269622432
 30
0.0
 10
102.8123290758594
 20
-137.182668694003
 30
0.0
 10
102.8123290758594
 20
-137.2377902217669
 30
0.0
 10
102.8123290758594
 20
-137.2949788068221
 30
0.0
 10
102.8567708076191
 20
-137.3435546531641
 30
0.0
 10
102.9160264499654
 20
-137.3435546531641
 30
0.0
 10
102.9752820923117
 20
-137.3435546531641
 30
0.0
 10
103.0155897094892
 20
-137.2925672399824
 30
0.0
 10
103.0155897094892
 20
-137.2398572790581
 30
0.0
 10
103.0155897094892
 20
-137.182668694003
 30
0.0
 10
102.9690809204383
 20
-137.1382269622432
 30
0.0
 10
102.9118923353831
 20
-137.1382269622432
 30
0.0
  0
HATCH
  5
136
330
102
100
AcDbEntity
  8
_U+30EC_U+30A4_U+30E4_U+30FC 1
 62
   179
420
  2234388
100
AcDbHatch
 10
0.0
 20
0.0
 30
0.0
210
0.0
220
0.0
230
1.0
  2
SOLID
 70
     1
 71
     0
 91
        3
 92
        1
 93
        1
 72
     4
 94
        3
 73
     0
 74
     1
 95
       44
 96
       40
 40
0.0
 40
0.0
 40
0.0
 40
0.0
 40
1.0
 40
1.0
 40
1.0
 40
2.0
 40
2.0
 40
2.0
 40
3.0
 40
3.0
 40
3.0
 40
4.0
 40
4.0
 40
4.0
 40
5.0
 40
5.0
 40
5.0
 40
6.0
 40
6.0
 40
6.0
 40
7.0
 40
7.0
 40
7.0
 40
8.0
 40
8.0
 40
8.0
 40
9.0
 40
9.0
 40
9.0
 40
10.0
 40
10.0
 40
10.0
 40
11.0
 40
11.0
 40
11.0
 40
12.0
 40
12.0
 40
12.0
 40
13.0
 40
13.0
 40
13.0
 40
13.0
 10
102.7044975871711
 20
-137.6670491192291
 10
102.5925319839005
 20
-138.0353298266023
 10
102.5415445707188
 20
-138.1938042189238
 10
102.344829618511
 20
-138.4435736416044
 10
102.1608615195987
 20
-138.6740505295676
 10
101.9238389502135
 20
-138.8604301953196
 10
101.6447862159083
 20
-138.9534477734214
 10
101.6447862159083
 20
-138.9534477734214
 10
101.4522053782828
 20
-138.7736137890913
 10
101.4522053782828
 20
-138.7736137890913
 10
102.0933376480878
 20
-138.6213405686433
 10
102.4230332860262
 20
-138.0649576477754
 10
102.4867675525033
 20
-137.625018954309
 10
102.4867675525033
 20
-137.625018954309
 10
101.7209228261323
 20
-137.625018954309
 10
101.7209228261323
 20
-137.625018954309
 10
101.6279052480305
 20
-137.625018954309
 10
101.4435926395697
 20
-137.6291530688913
 10
101.2871853045393
 20
-137.6481010940602
 10
101.2871853045393
 20
-137.6481010940602
 10
101.2871853045393
 20
-137.4279594925527
 10
101.2871853045393
 20
-137.4279594925527
 10
101.3740017107676
 20
-137.4493190845613
 10
101.6254936811908
 20
-137.4493190845613
 10
101.7250569407146
 20
-137.4493190845613
 10
101.7250569407146
 20
-137.4493190845613
 10
102.1567274050164
 20
-137.4493190845613
 10
102.1567274050164
 20
-137.4493190845613
 10
102.1991020794849
 20
-137.4493190845613
 10
102.4337130820305
 20
-137.4472520272701
 10
102.4719536419167
 20
-137.4407063458482
 10
102.5143283163853
 20
-137.4345051739747
 10
102.5163953736765
 20
-137.4324381166836
 10
102.5777180733139
 20
-137.3921304995062
 10
102.5777180733139
 20
-137.3921304995062
 10
102.7658202868085
 20
-137.5464707772453
 10
102.7658202868085
 20
-137.5464707772453
 10
102.7361924656354
 20
-137.5760985984185
 10
102.7213785550488
 20
-137.6077934768828
 10
102.7044975871711
 20
-137.6670491192291
 97
        0
 97
        0
 92
        1
 93
        1
 72
     4
 94
        3
 73
     0
 74
     1
 95
       17
 96
       13
 40
0.0
 40
0.0
 40
0.0
 40
0.0
 40
1.0
 40
1.0
 40
1.0
 40
2.0
 40
2.0
 40
2.0
 40
3.0
 40
3.0
 40
3.0
 40
4.0
 40
4.0
 40
4.0
 40
4.0
 10
102.9139593926743
 20
-137.4682671097302
 10
102.7871798788171
 20
-137.4682671097302
 10
102.6855495620022
 20
-137.3666367929153
 10
102.6855495620022
 20
-137.2398572790581
 10
102.6855495620022
 20
-137.1130777652009
 10
102.7871798788171
 20
-137.0093803910949
 10
102.9139593926743
 20
-137.0093803910949
 10
103.04108341608
 20
-137.0093803910949
 10
103.144780790186
 20
-137.1130777652009
 10
103.144780790186
 20
-137.2398572790581
 10
103.144780790186
 20
-137.3666367929153
 10
103.04108341608
 20
-137.4682671097302
 10
102.9139593926743
 20
-137.4682671097302
 97
        0
 97
        0
 92
        1
 93
        1
 72
     4
 94
        3
 73
     0
 74
     1
 95
       17
 96
       13
 40
0.0
 40
0.0
 40
0.0
 40
0.0
 40
1.0
 40
1.0
 40
1.0
 40
2.0
 40
2.0
 40
2.0
 40
3.0
 40
3.0
 40
3.0
 40
4.0
 40
4.0
 40
4.0
 40
4.0
 10
102.9118923353831
 20
-137.1382269622432
 10
102.8567708076191
 20
-137.1382269622432
 10
102.8123290758594
 20
-137.182668694003
 10
102.8123290758594
 20
-137.2377902217669
 10
102.8123290758594
 20
-137.2949788068221
 10
102.8567708076191
 20
-137.3435546531641
 10
102.9160264499654
 20
-137.3435546531641
 10
102.9752820923117
 20
-137.3435546531641
 10
103.0155897094892
 20
-137.2925672399824
 10
103.0155897094892
 20
-137.2398572790581
 10
103.0155897094892
 20
-137.182668694003
 10
102.9690809204383
 20
-137.1382269622432
 10
102.9118923353831
 20
-137.1382269622432
 97
        0
 97
        0
 75
     2
 76
     1
 98
        0
  0
SPLINE
  5
137
330
102
100
AcDbEntity
  8
_U+30EC_U+30A4_U+30E4_U+30FC 1
370
     0
100
AcDbSpline
210
0.0
220
0.0
230
1.0
 70
    11
 71
     3
 72
    50
 73
    46
 74
     0
 42
0.0000000001
 43
0.0000000001
 12
1.0
 22
0.0
 32
0.0
 13
1.0
 23
0.0
 33
0.0
 40
0.0
 40
0.0
 40
0.0
 40
0.0
 40
1.0
 40
1.0
 40
1.0
 40
2.0
 40
2.0
 40
2.0
 40
3.0
 40
3.0
 40
3.0
 40
4.0
 40
4.0
 40
4.0
 40
5.0
 40
5.0
 40
5.0
 40
6.0
 40
6.0
 40
6.0
 40
7.0
 40
7.0
 40
7.0
 40
8.0
 40
8.0
 40
8.0
 40
9.0
 40
9.0
 40
9.0
 40
10.0
 40
10.0
 40
10.0
 40
11.0
 40
11.0
 40
11.0
 40
12.0
 40
12.0
 40
12.0
 40
13.0
 40
13.0
 40
13.0
 40
14.0
 40
14.0
 40
14.0
 40
15.0
 40
15.0
 40
15.0
 40
15.0
 10
104.709198650038
 20
-137.976074184256
 30
0.0
 10
104.6306504729743
 20
-138.1538411112949
 30
0.0
 10
104.495258220404
 20
-138.3608913499584
 30
0.0
 10
104.3577989105425
 20
-138.5007622266595
 30
0.0
 10
104.1886447222167
 20
-138.6719834722765
 30
0.0
 10
104.0256917057644
 20
-138.7608669357959
 30
0.0
 10
103.7063313542818
 20
-138.9024603602397
 30
0.0
 10
103.7063313542818
 20
-138.9024603602397
 30
0.0
 10
103.537177165956
 20
-138.714358146745
 30
0.0
 10
103.537177165956
 20
-138.714358146745
 30
0.0
 10
103.7232123221595
 20
-138.6909314974453
 30
0.0
 10
103.8944335677764
 20
-138.6044596007656
 30
0.0
 10
104.047051297773
 20
-138.4986951693684
 30
0.0
 10
104.3092230642005
 20
-138.3167941277472
 30
0.0
 10
104.4997368445348
 20
-138.003634948138
 30
0.0
 10
104.5483126908768
 20
-137.8217339065168
 30
0.0
 10
104.5483126908768
 20
-137.8217339065168
 30
0.0
 10
103.8775525998987
 20
-137.8217339065168
 30
0.0
 10
103.8775525998987
 20
-137.8217339065168
 30
0.0
 10
103.7190782075772
 20
-137.8217339065168
 30
0.0
 10
103.426934110428
 20
-137.8300021356814
 30
0.0
 10
103.27466088998
 20
-137.8468831035591
 30
0.0
 10
103.27466088998
 20
-137.8468831035591
 30
0.0
 10
103.27466088998
 20
-137.6184732728871
 30
0.0
 10
103.27466088998
 20
-137.6184732728871
 30
0.0
 10
103.3087673352839
 20
-137.625018954309
 30
0.0
 10
103.3339165323262
 20
-137.6312201261825
 30
0.0
 10
103.3869710027991
 20
-137.6353542407648
 30
0.0
 10
103.4882568100654
 20
-137.6418999221868
 30
0.0
 10
103.6853162718217
 20
-137.6439669794779
 30
0.0
 10
103.7697211112104
 20
-137.6439669794779
 30
0.0
 10
103.7697211112104
 20
-137.6439669794779
 30
0.0
 10
104.275461128445
 20
-137.6439669794779
 30
0.0
 10
104.275461128445
 20
-137.6439669794779
 30
0.0
 10
104.3429849999559
 20
-137.6439669794779
 30
0.0
 10
104.4890570485305
 20
-137.6398328648956
 30
0.0
 10
104.550379748168
 20
-137.6332871834736
 30
0.0
 10
104.6223822438097
 20
-137.625018954309
 30
0.0
 10
104.6499430076917
 20
-137.6102050437225
 30
0.0
 10
104.6837049434471
 20
-137.5867783944228
 30
0.0
 10
104.6837049434471
 20
-137.5867783944228
 30
0.0
 10
104.8487250171906
 20
-137.7538655254574
 30
0.0
 10
104.8487250171906
 20
-137.7538655254574
 30
0.0
 10
104.77878957884
 20
-137.8217339065168
 30
0.0
 10
104.7322807897892
 20
-137.9254312806228
 30
0.0
 10
104.709198650038
 20
-137.976074184256
 30
0.0
  0
SPLINE
  5
138
330
102
100
AcDbEntity
  8
_U+30EC_U+30A4_U+30E4_U+30FC 1
370
     0
100
AcDbSpline
210
0.0
220
0.0
230
1.0
 70
    11
 71
     3
 72
    29
 73
    25
 74
     0
 42
0.0000000001
 43
0.0000000001
 12
1.0
 22
0.0
 32
0.0
 13
1.0
 23
0.0
 33
0.0
 40
0.0
 40
0.0
 40
0.0
 40
0.0
 40
1.0
 40
1.0
 40
1.0
 40
2.0
 40
2.0
 40
2.0
 40
3.0
 40
3.0
 40
3.0
 40
4.0
 40
4.0
 40
4.0
 40
5.0
 40
5.0
 40
5.0
 40
6.0
 40
6.0
 40
6.0
 40
7.0
 40
7.0
 40
7.0
 40
8.0
 40
8.0
 40
8.0
 40
8.0
 10
104.2162054860987
 20
-137.3497558250376
 30
0.0
 10
104.2162054860987
 20
-137.3497558250376
 30
0.0
 10
103.8754855426075
 20
-137.3497558250376
 30
0.0
 10
103.8754855426075
 20
-137.3497558250376
 30
0.0
 10
103.7614528820458
 20
-137.3497558250376
 30
0.0
 10
103.6450086546443
 20
-137.3542344491684
 30
0.0
 10
103.530631484534
 20
-137.369048359755
 30
0.0
 10
103.530631484534
 20
-137.369048359755
 30
0.0
 10
103.530631484534
 20
-137.1595865542518
 30
0.0
 10
103.530631484534
 20
-137.1595865542518
 30
0.0
 10
103.6491427692266
 20
-137.1744004648384
 30
0.0
 10
103.8227755816832
 20
-137.1785345794206
 30
0.0
 10
103.8754855426075
 20
-137.1785345794206
 30
0.0
 10
103.8754855426075
 20
-137.1785345794206
 30
0.0
 10
104.2162054860987
 20
-137.1785345794206
 30
0.0
 10
104.2162054860987
 20
-137.1785345794206
 30
0.0
 10
104.3326497135002
 20
-137.1785345794206
 30
0.0
 10
104.4487494313531
 20
-137.1744004648384
 30
0.0
 10
104.5651936587545
 20
-137.1595865542518
 30
0.0
 10
104.5651936587545
 20
-137.1595865542518
 30
0.0
 10
104.5651936587545
 20
-137.369048359755
 30
0.0
 10
104.5651936587545
 20
-137.369048359755
 30
0.0
 10
104.4149874955976
 20
-137.3497558250376
 30
0.0
 10
104.2310193966853
 20
-137.3497558250376
 30
0.0
 10
104.2162054860987
 20
-137.3497558250376
 30
0.0
  0
HATCH
  5
139
330
102
100
AcDbEntity
  8
_U+30EC_U+30A4_U+30E4_U+30FC 1
 62
   179
420
  2234388
100
AcDbHatch
 10
0.0
 20
0.0
 30
0.0
210
0.0
220
0.0
230
1.0
  2
SOLID
 70
     1
 71
     0
 91
        2
 92
        1
 93
        1
 72
     4
 94
        3
 73
     0
 74
     1
 95
       50
 96
       46
 40
0.0
 40
0.0
 40
0.0
 40
0.0
 40
1.0
 40
1.0
 40
1.0
 40
2.0
 40
2.0
 40
2.0
 40
3.0
 40
3.0
 40
3.0
 40
4.0
 40
4.0
 40
4.0
 40
5.0
 40
5.0
 40
5.0
 40
6.0
 40
6.0
 40
6.0
 40
7.0
 40
7.0
 40
7.0
 40
8.0
 40
8.0
 40
8.0
 40
9.0
 40
9.0
 40
9.0
 40
10.0
 40
10.0
 40
10.0
 40
11.0
 40
11.0
 40
11.0
 40
12.0
 40
12.0
 40
12.0
 40
13.0
 40
13.0
 40
13.0
 40
14.0
 40
14.0
 40
14.0
 40
15.0
 40
15.0
 40
15.0
 40
15.0
 10
104.709198650038
 20
-137.976074184256
 10
104.6306504729743
 20
-138.1538411112949
 10
104.495258220404
 20
-138.3608913499584
 10
104.3577989105425
 20
-138.5007622266595
 10
104.1886447222167
 20
-138.6719834722765
 10
104.0256917057644
 20
-138.7608669357959
 10
103.7063313542818
 20
-138.9024603602397
 10
103.7063313542818
 20
-138.9024603602397
 10
103.537177165956
 20
-138.714358146745
 10
103.537177165956
 20
-138.714358146745
 10
103.7232123221595
 20
-138.6909314974453
 10
103.8944335677764
 20
-138.6044596007656
 10
104.047051297773
 20
-138.4986951693684
 10
104.3092230642005
 20
-138.3167941277472
 10
104.4997368445348
 20
-138.003634948138
 10
104.5483126908768
 20
-137.8217339065168
 10
104.5483126908768
 20
-137.8217339065168
 10
103.8775525998987
 20
-137.8217339065168
 10
103.8775525998987
 20
-137.8217339065168
 10
103.7190782075772
 20
-137.8217339065168
 10
103.426934110428
 20
-137.8300021356814
 10
103.27466088998
 20
-137.8468831035591
 10
103.27466088998
 20
-137.8468831035591
 10
103.27466088998
 20
-137.6184732728871
 10
103.27466088998
 20
-137.6184732728871
 10
103.3087673352839
 20
-137.625018954309
 10
103.3339165323262
 20
-137.6312201261825
 10
103.3869710027991
 20
-137.6353542407648
 10
103.4882568100654
 20
-137.6418999221868
 10
103.6853162718217
 20
-137.6439669794779
 10
103.7697211112104
 20
-137.6439669794779
 10
103.7697211112104
 20
-137.6439669794779
 10
104.275461128445
 20
-137.6439669794779
 10
104.275461128445
 20
-137.6439669794779
 10
104.3429849999559
 20
-137.6439669794779
 10
104.4890570485305
 20
-137.6398328648956
 10
104.550379748168
 20
-137.6332871834736
 10
104.6223822438097
 20
-137.625018954309
 10
104.6499430076917
 20
-137.6102050437225
 10
104.6837049434471
 20
-137.5867783944228
 10
104.6837049434471
 20
-137.5867783944228
 10
104.8487250171906
 20
-137.7538655254574
 10
104.8487250171906
 20
-137.7538655254574
 10
104.77878957884
 20
-137.8217339065168
 10
104.7322807897892
 20
-137.9254312806228
 10
104.709198650038
 20
-137.976074184256
 97
        0
 97
        0
 92
        1
 93
        1
 72
     4
 94
        3
 73
     0
 74
     1
 95
       29
 96
       25
 40
0.0
 40
0.0
 40
0.0
 40
0.0
 40
1.0
 40
1.0
 40
1.0
 40
2.0
 40
2.0
 40
2.0
 40
3.0
 40
3.0
 40
3.0
 40
4.0
 40
4.0
 40
4.0
 40
5.0
 40
5.0
 40
5.0
 40
6.0
 40
6.0
 40
6.0
 40
7.0
 40
7.0
 40
7.0
 40
8.0
 40
8.0
 40
8.0
 40
8.0
 10
104.2162054860987
 20
-137.3497558250376
 10
104.2162054860987
 20
-137.3497558250376
 10
103.8754855426075
 20
-137.3497558250376
 10
103.8754855426075
 20
-137.3497558250376
 10
103.7614528820458
 20
-137.3497558250376
 10
103.6450086546443
 20
-137.3542344491684
 10
103.530631484534
 20
-137.369048359755
 10
103.530631484534
 20
-137.369048359755
 10
103.530631484534
 20
-137.1595865542518
 10
103.530631484534
 20
-137.1595865542518
 10
103.6491427692266
 20
-137.1744004648384
 10
103.8227755816832
 20
-137.1785345794206
 10
103.8754855426075
 20
-137.1785345794206
 10
103.8754855426075
 20
-137.1785345794206
 10
104.2162054860987
 20
-137.1785345794206
 10
104.2162054860987
 20
-137.1785345794206
 10
104.3326497135002
 20
-137.1785345794206
 10
104.4487494313531
 20
-137.1744004648384
 10
104.5651936587545
 20
-137.1595865542518
 10
104.5651936587545
 20
-137.1595865542518
 10
104.5651936587545
 20
-137.369048359755
 10
104.5651936587545
 20
-137.369048359755
 10
104.4149874955976
 20
-137.3497558250376
 10
104.2310193966853
 20
-137.3497558250376
 10
104.2162054860987
 20
-137.3497558250376
 97
        0
 97
        0
 75
     2
 76
     1
 98
        0
  0
SPLINE
  5
13A
330
102
100
AcDbEntity
  8
_U+30EC_U+30A4_U+30E4_U+30FC 1
370
     0
100
AcDbSpline
210
0.0
220
0.0
230
1.0
 70
    11
 71
     3
 72
    50
 73
    46
 74
     0
 42
0.0000000001
 43
0.0000000001
 12
1.0
 22
0.0
 32
0.0
 13
1.0
 23
0.0
 33
0.0
 40
0.0
 40
0.0
 40
0.0
 40
0.0
 40
1.0
 40
1.0
 40
1.0
 40
2.0
 40
2.0
 40
2.0
 40
3.0
 40
3.0
 40
3.0
 40
4.0
 40
4.0
 40
4.0
 40
5.0
 40
5.0
 40
5.0
 40
6.0
 40
6.0
 40
6.0
 40
7.0
 40
7.0
 40
7.0
 40
8.0
 40
8.0
 40
8.0
 40
9.0
 40
9.0
 40
9.0
 40
10.0
 40
10.0
 40
10.0
 40
11.0
 40
11.0
 40
11.0
 40
12.0
 40
12.0
 40
12.0
 40
13.0
 40
13.0
 40
13.0
 40
14.0
 40
14.0
 40
14.0
 40
15.0
 40
15.0
 40
15.0
 40
15.0
 10
106.419344048916
 20
-137.334941914451
 30
0.0
 10
106.2098822434128
 20
-137.5485378345365
 30
0.0
 10
106.1382242573196
 20
-137.6205403301782
 30
0.0
 10
105.9962863233273
 20
-137.7390516148708
 30
0.0
 10
105.9962863233273
 20
-137.7390516148708
 30
0.0
 10
105.9962863233273
 20
-138.3061143317429
 30
0.0
 10
105.9962863233273
 20
-138.3061143317429
 30
0.0
 10
105.9962863233273
 20
-138.4563204948998
 30
0.0
 10
106.0028320047493
 20
-138.4752685200687
 30
0.0
 10
106.0069661193316
 20
-138.6530354471076
 30
0.0
 10
106.0090331766228
 20
-138.7842935850956
 30
0.0
 10
106.0152343484962
 20
-138.8328694314376
 30
0.0
 10
106.0217800299182
 20
-138.8921250737839
 30
0.0
 10
106.0217800299182
 20
-138.8921250737839
 30
0.0
 10
105.7954372565373
 20
-138.8921250737839
 30
0.0
 10
105.7954372565373
 20
-138.8921250737839
 30
0.0
 10
105.7995713711196
 20
-138.8476833420242
 30
0.0
 10
105.8037054857019
 20
-138.8011745529733
 30
0.0
 10
105.8037054857019
 20
-138.7925618142602
 30
0.0
 10
105.8037054857019
 20
-138.7122910894539
 30
0.0
 10
105.8081841098327
 20
-138.3608913499584
 30
0.0
 10
105.8081841098327
 20
-138.2892333638652
 30
0.0
 10
105.8081841098327
 20
-138.2892333638652
 30
0.0
 10
105.8081841098327
 20
-137.8830566061542
 30
0.0
 10
105.8081841098327
 20
-137.8830566061542
 30
0.0
 10
105.6262830682115
 20
-138.0077690627203
 30
0.0
 10
105.4316351732949
 20
-138.1176676086997
 30
0.0
 10
105.2283745396651
 20
-138.2044840149281
 30
0.0
 10
105.2283745396651
 20
-138.2044840149281
 30
0.0
 10
105.0254584155839
 20
-138.0415309984757
 30
0.0
 10
105.0254584155839
 20
-138.0415309984757
 30
0.0
 10
105.1481038148588
 20
-138.0057020054291
 30
0.0
 10
105.4040744094129
 20
-137.9316324524963
 30
0.0
 10
105.7489284674864
 20
-137.6756618579422
 30
0.0
 10
105.964591444863
 20
-137.5168429560722
 30
0.0
 10
106.1571722824885
 20
-137.3287407425775
 30
0.0
 10
106.3094455029365
 20
-137.1085991410701
 30
0.0
 10
106.3094455029365
 20
-137.1085991410701
 30
0.0
 10
106.502026340562
 20
-137.2526041323535
 30
0.0
 10
106.502026340562
 20
-137.2526041323535
 30
0.0
 10
106.5147731938574
 20
-137.2632839283578
 30
0.0
 10
106.523041423022
 20
-137.2777533293958
 30
0.0
 10
106.523041423022
 20
-137.2905001826913
 30
0.0
 10
106.523041423022
 20
-137.3308077998687
 30
0.0
 10
106.4851453726843
 20
-137.3308077998687
 30
0.0
 10
106.419344048916
 20
-137.334941914451
 30
0.0
  0
HATCH
  5
13B
330
102
100
AcDbEntity
  8
_U+30EC_U+30A4_U+30E4_U+30FC 1
 62
   179
420
  2234388
100
AcDbHatch
 10
0.0
 20
0.0
 30
0.0
210
0.0
220
0.0
230
1.0
  2
SOLID
 70
     1
 71
     0
 91
        1
 92
        1
 93
        1
 72
     4
 94
        3
 73
     0
 74
     1
 95
       50
 96
       46
 40
0.0
 40
0.0
 40
0.0
 40
0.0
 40
1.0
 40
1.0
 40
1.0
 40
2.0
 40
2.0
 40
2.0
 40
3.0
 40
3.0
 40
3.0
 40
4.0
 40
4.0
 40
4.0
 40
5.0
 40
5.0
 40
5.0
 40
6.0
 40
6.0
 40
6.0
 40
7.0
 40
7.0
 40
7.0
 40
8.0
 40
8.0
 40
8.0
 40
9.0
 40
9.0
 40
9.0
 40
10.0
 40
10.0
 40
10.0
 40
11.0
 40
11.0
 40
11.0
 40
12.0
 40
12.0
 40
12.0
 40
13.0
 40
13.0
 40
13.0
 40
14.0
 40
14.0
 40
14.0
 40
15.0
 40
15.0
 40
15.0
 40
15.0
 10
106.419344048916
 20
-137.334941914451
 10
106.2098822434128
 20
-137.5485378345365
 10
106.1382242573196
 20
-137.6205403301782
 10
105.9962863233273
 20
-137.7390516148708
 10
105.9962863233273
 20
-137.7390516148708
 10
105.9962863233273
 20
-138.3061143317429
 10
105.9962863233273
 20
-138.3061143317429
 10
105.9962863233273
 20
-138.4563204948998
 10
106.0028320047493
 20
-138.4752685200687
 10
106.0069661193316
 20
-138.6530354471076
 10
106.0090331766228
 20
-138.7842935850956
 10
106.0152343484962
 20
-138.8328694314376
 10
106.0217800299182
 20
-138.8921250737839
 10
106.0217800299182
 20
-138.8921250737839
 10
105.7954372565373
 20
-138.8921250737839
 10
105.7954372565373
 20
-138.8921250737839
 10
105.7995713711196
 20
-138.8476833420242
 10
105.8037054857019
 20
-138.8011745529733
 10
105.8037054857019
 20
-138.7925618142602
 10
105.8037054857019
 20
-138.7122910894539
 10
105.8081841098327
 20
-138.3608913499584
 10
105.8081841098327
 20
-138.2892333638652
 10
105.8081841098327
 20
-138.2892333638652
 10
105.8081841098327
 20
-137.8830566061542
 10
105.8081841098327
 20
-137.8830566061542
 10
105.6262830682115
 20
-138.0077690627203
 10
105.4316351732949
 20
-138.1176676086997
 10
105.2283745396651
 20
-138.2044840149281
 10
105.2283745396651
 20
-138.2044840149281
 10
105.0254584155839
 20
-138.0415309984757
 10
105.0254584155839
 20
-138.0415309984757
 10
105.1481038148588
 20
-138.0057020054291
 10
105.4040744094129
 20
-137.9316324524963
 10
105.7489284674864
 20
-137.6756618579422
 10
105.964591444863
 20
-137.5168429560722
 10
106.1571722824885
 20
-137.3287407425775
 10
106.3094455029365
 20
-137.1085991410701
 10
106.3094455029365
 20
-137.1085991410701
 10
106.502026340562
 20
-137.2526041323535
 10
106.502026340562
 20
-137.2526041323535
 10
106.5147731938574
 20
-137.2632839283578
 10
106.523041423022
 20
-137.2777533293958
 10
106.523041423022
 20
-137.2905001826913
 10
106.523041423022
 20
-137.3308077998687
 10
106.4851453726843
 20
-137.3308077998687
 10
106.419344048916
 20
-137.334941914451
 97
        0
 97
        0
 75
     2
 76
     1
 98
        0
  0
SPLINE
  5
13C
330
102
100
AcDbEntity
  8
_U+30EC_U+30A4_U+30E4_U+30FC 1
370
     0
100
AcDbSpline
210
0.0
220
0.0
230
1.0
 70
    11
 71
     3
 72
    50
 73
    46
 74
     0
 42
0.0000000001
 43
0.0000000001
 12
1.0
 22
0.0
 32
0.0
 13
1.0
 23
0.0
 33
0.0
 40
0.0
 40
0.0
 40
0.0
 40
0.0
 40
1.0
 40
1.0
 40
1.0
 40
2.0
 40
2.0
 40
2.0
 40
3.0
 40
3.0
 40
3.0
 40
4.0
 40
4.0
 40
4.0
 40
5.0
 40
5.0
 40
5.0
 40
6.0
 40
6.0
 40
6.0
 40
7.0
 40
7.0
 40
7.0
 40
8.0
 40
8.0
 40
8.0
 40
9.0
 40
9.0
 40
9.0
 40
10.0
 40
10.0
 40
10.0
 40
11.0
 40
11.0
 40
11.0
 40
12.0
 40
12.0
 40
12.0
 40
13.0
 40
13.0
 40
13.0
 40
14.0
 40
14.0
 40
14.0
 40
15.0
 40
15.0
 40
15.0
 40
15.0
 10
108.1277669000514
 20
-137.8616970141457
 30
0.0
 10
108.066444200414
 20
-137.9336995097874
 30
0.0
 10
107.8059949817291
 20
-138.2509928039789
 30
0.0
 10
107.7491509062224
 20
-138.3143825609075
 30
0.0
 10
107.8335557456111
 20
-138.4118787631401
 30
0.0
 10
107.8845431587928
 20
-138.4752685200687
 30
0.0
 10
107.9499999730125
 20
-138.5662190408793
 30
0.0
 10
107.9499999730125
 20
-138.5662190408793
 30
0.0
 10
107.7660318741002
 20
-138.7036783507407
 30
0.0
 10
107.7660318741002
 20
-138.7036783507407
 30
0.0
 10
107.6306396215299
 20
-138.4921494879464
 30
0.0
 10
107.4590738663644
 20
-138.2678737718566
 30
0.0
 10
107.1652072214726
 20
-138.0690917623577
 30
0.0
 10
107.1652072214726
 20
-138.0690917623577
 30
0.0
 10
107.3133463273383
 20
-137.9147514846185
 30
0.0
 10
107.3133463273383
 20
-137.9147514846185
 30
0.0
 10
107.4232448733178
 20
-137.9950222094249
 30
0.0
 10
107.5269422474238
 20
-138.0839056729443
 30
0.0
 10
107.6240939401079
 20
-138.1789903083372
 30
0.0
 10
107.6919623211673
 20
-138.1028536981132
 30
0.0
 10
107.8948784452485
 20
-137.8596299568545
 30
0.0
 10
108.0282036405277
 20
-137.6312201261825
 30
0.0
 10
108.0282036405277
 20
-137.6312201261825
 30
0.0
 10
107.3553764922584
 20
-137.6312201261825
 30
0.0
 10
107.3553764922584
 20
-137.6312201261825
 30
0.0
 10
107.2306640356923
 20
-137.6312201261825
 30
0.0
 10
106.9788275557206
 20
-137.6398328648956
 30
0.0
 10
106.7693657502174
 20
-137.6501681513514
 30
0.0
 10
106.7693657502174
 20
-137.6501681513514
 30
0.0
 10
106.7693657502174
 20
-137.4303710593924
 30
0.0
 10
106.7693657502174
 20
-137.4303710593924
 30
0.0
 10
106.9536783586782
 20
-137.4493190845613
 30
0.0
 10
107.1586615400506
 20
-137.4534531991436
 30
0.0
 10
107.3471082630938
 20
-137.4534531991436
 30
0.0
 10
107.3471082630938
 20
-137.4534531991436
 30
0.0
 10
107.8504367134888
 20
-137.4534531991436
 30
0.0
 10
107.8504367134888
 20
-137.4534531991436
 30
0.0
 10
108.1890895996888
 20
-137.4534531991436
 30
0.0
 10
108.2335313314486
 20
-137.438639288557
 30
0.0
 10
108.315869113546
 20
-137.3983316713796
 30
0.0
 10
108.315869113546
 20
-137.3983316713796
 30
0.0
 10
108.4829562445806
 20
-137.5571505732496
 30
0.0
 10
108.4829562445806
 20
-137.5571505732496
 30
0.0
 10
108.3306830241326
 20
-137.6291530688913
 30
0.0
 10
108.1870225423977
 20
-137.7921060853436
 30
0.0
 10
108.1277669000514
 20
-137.8616970141457
 30
0.0
  0
HATCH
  5
13D
330
102
100
AcDbEntity
  8
_U+30EC_U+30A4_U+30E4_U+30FC 1
 62
   179
420
  2234388
100
AcDbHatch
 10
0.0
 20
0.0
 30
0.0
210
0.0
220
0.0
230
1.0
  2
SOLID
 70
     1
 71
     0
 91
        1
 92
        1
 93
        1
 72
     4
 94
        3
 73
     0
 74
     1
 95
       50
 96
       46
 40
0.0
 40
0.0
 40
0.0
 40
0.0
 40
1.0
 40
1.0
 40
1.0
 40
2.0
 40
2.0
 40
2.0
 40
3.0
 40
3.0
 40
3.0
 40
4.0
 40
4.0
 40
4.0
 40
5.0
 40
5.0
 40
5.0
 40
6.0
 40
6.0
 40
6.0
 40
7.0
 40
7.0
 40
7.0
 40
8.0
 40
8.0
 40
8.0
 40
9.0
 40
9.0
 40
9.0
 40
10.0
 40
10.0
 40
10.0
 40
11.0
 40
11.0
 40
11.0
 40
12.0
 40
12.0
 40
12.0
 40
13.0
 40
13.0
 40
13.0
 40
14.0
 40
14.0
 40
14.0
 40
15.0
 40
15.0
 40
15.0
 40
15.0
 10
108.1277669000514
 20
-137.8616970141457
 10
108.066444200414
 20
-137.9336995097874
 10
107.8059949817291
 20
-138.2509928039789
 10
107.7491509062224
 20
-138.3143825609075
 10
107.8335557456111
 20
-138.4118787631401
 10
107.8845431587928
 20
-138.4752685200687
 10
107.9499999730125
 20
-138.5662190408793
 10
107.9499999730125
 20
-138.5662190408793
 10
107.7660318741002
 20
-138.7036783507407
 10
107.7660318741002
 20
-138.7036783507407
 10
107.6306396215299
 20
-138.4921494879464
 10
107.4590738663644
 20
-138.2678737718566
 10
107.1652072214726
 20
-138.0690917623577
 10
107.1652072214726
 20
-138.0690917623577
 10
107.3133463273383
 20
-137.9147514846185
 10
107.3133463273383
 20
-137.9147514846185
 10
107.4232448733178
 20
-137.9950222094249
 10
107.5269422474238
 20
-138.0839056729443
 10
107.6240939401079
 20
-138.1789903083372
 10
107.6919623211673
 20
-138.1028536981132
 10
107.8948784452485
 20
-137.8596299568545
 10
108.0282036405277
 20
-137.6312201261825
 10
108.0282036405277
 20
-137.6312201261825
 10
107.3553764922584
 20
-137.6312201261825
 10
107.3553764922584
 20
-137.6312201261825
 10
107.2306640356923
 20
-137.6312201261825
 10
106.9788275557206
 20
-137.6398328648956
 10
106.7693657502174
 20
-137.6501681513514
 10
106.7693657502174
 20
-137.6501681513514
 10
106.7693657502174
 20
-137.4303710593924
 10
106.7693657502174
 20
-137.4303710593924
 10
106.9536783586782
 20
-137.4493190845613
 10
107.1586615400506
 20
-137.4534531991436
 10
107.3471082630938
 20
-137.4534531991436
 10
107.3471082630938
 20
-137.4534531991436
 10
107.8504367134888
 20
-137.4534531991436
 10
107.8504367134888
 20
-137.4534531991436
 10
108.1890895996888
 20
-137.4534531991436
 10
108.2335313314486
 20
-137.438639288557
 10
108.315869113546
 20
-137.3983316713796
 10
108.315869113546
 20
-137.3983316713796
 10
108.4829562445806
 20
-137.5571505732496
 10
108.4829562445806
 20
-137.5571505732496
 10
108.3306830241326
 20
-137.6291530688913
 10
108.1870225423977
 20
-137.7921060853436
 10
108.1277669000514
 20
-137.8616970141457
 97
        0
 97
        0
 75
     2
 76
     1
 98
        0
  0
SPLINE
  5
13E
330
102
100
AcDbEntity
  8
_U+30EC_U+30A4_U+30E4_U+30FC 1
370
     0
100
AcDbSpline
210
0.0
220
0.0
230
1.0
 70
    11
 71
     3
 72
    29
 73
    25
 74
     0
 42
0.0000000001
 43
0.0000000001
 12
1.0
 22
0.0
 32
0.0
 13
1.0
 23
0.0
 33
0.0
 40
0.0
 40
0.0
 40
0.0
 40
0.0
 40
1.0
 40
1.0
 40
1.0
 40
2.0
 40
2.0
 40
2.0
 40
3.0
 40
3.0
 40
3.0
 40
4.0
 40
4.0
 40
4.0
 40
5.0
 40
5.0
 40
5.0
 40
6.0
 40
6.0
 40
6.0
 40
7.0
 40
7.0
 40
7.0
 40
8.0
 40
8.0
 40
8.0
 40
8.0
 10
109.7510958927011
 20
-138.1049207554043
 30
0.0
 10
109.7510958927011
 20
-138.1049207554043
 30
0.0
 10
109.266715467475
 20
-138.1049207554043
 30
0.0
 10
109.266715467475
 20
-138.1049207554043
 30
0.0
 10
109.239154703593
 20
-138.1049207554043
 30
0.0
 10
108.9218614094015
 20
-138.1049207554043
 30
0.0
 10
108.7103325466071
 20
-138.1304144619952
 30
0.0
 10
108.7103325466071
 20
-138.1304144619952
 30
0.0
 10
108.7103325466071
 20
-137.899937574032
 30
0.0
 10
108.7103325466071
 20
-137.899937574032
 30
0.0
 10
108.8688069389286
 20
-137.9230197137831
 30
0.0
 10
109.059320719263
 20
-137.9254312806228
 30
0.0
 10
109.266715467475
 20
-137.9254312806228
 30
0.0
 10
109.266715467475
 20
-137.9254312806228
 30
0.0
 10
109.7510958927011
 20
-137.9254312806228
 30
0.0
 10
109.7510958927011
 20
-137.9254312806228
 30
0.0
 10
109.9371310489046
 20
-137.9254312806228
 30
0.0
 10
110.1235107146566
 20
-137.9230197137831
 30
0.0
 10
110.307478813569
 20
-137.899937574032
 30
0.0
 10
110.307478813569
 20
-137.899937574032
 30
0.0
 10
110.307478813569
 20
-138.1304144619952
 30
0.0
 10
110.307478813569
 20
-138.1304144619952
 30
0.0
 10
110.1235107146566
 20
-138.107332322244
 30
0.0
 10
109.8758083492672
 20
-138.1049207554043
 30
0.0
 10
109.7510958927011
 20
-138.1049207554043
 30
0.0
  0
HATCH
  5
13F
330
102
100
AcDbEntity
  8
_U+30EC_U+30A4_U+30E4_U+30FC 1
 62
   179
420
  2234388
100
AcDbHatch
 10
0.0
 20
0.0
 30
0.0
210
0.0
220
0.0
230
1.0
  2
SOLID
 70
     1
 71
     0
 91
        1
 92
        1
 93
        1
 72
     4
 94
        3
 73
     0
 74
     1
 95
       29
 96
       25
 40
0.0
 40
0.0
 40
0.0
 40
0.0
 40
1.0
 40
1.0
 40
1.0
 40
2.0
 40
2.0
 40
2.0
 40
3.0
 40
3.0
 40
3.0
 40
4.0
 40
4.0
 40
4.0
 40
5.0
 40
5.0
 40
5.0
 40
6.0
 40
6.0
 40
6.0
 40
7.0
 40
7.0
 40
7.0
 40
8.0
 40
8.0
 40
8.0
 40
8.0
 10
109.7510958927011
 20
-138.1049207554043
 10
109.7510958927011
 20
-138.1049207554043
 10
109.266715467475
 20
-138.1049207554043
 10
109.266715467475
 20
-138.1049207554043
 10
109.239154703593
 20
-138.1049207554043
 10
108.9218614094015
 20
-138.1049207554043
 10
108.7103325466071
 20
-138.1304144619952
 10
108.7103325466071
 20
-138.1304144619952
 10
108.7103325466071
 20
-137.899937574032
 10
108.7103325466071
 20
-137.899937574032
 10
108.8688069389286
 20
-137.9230197137831
 10
109.059320719263
 20
-137.9254312806228
 10
109.266715467475
 20
-137.9254312806228
 10
109.266715467475
 20
-137.9254312806228
 10
109.7510958927011
 20
-137.9254312806228
 10
109.7510958927011
 20
-137.9254312806228
 10
109.9371310489046
 20
-137.9254312806228
 10
110.1235107146566
 20
-137.9230197137831
 10
110.307478813569
 20
-137.899937574032
 10
110.307478813569
 20
-137.899937574032
 10
110.307478813569
 20
-138.1304144619952
 10
110.307478813569
 20
-138.1304144619952
 10
110.1235107146566
 20
-138.107332322244
 10
109.8758083492672
 20
-138.1049207554043
 10
109.7510958927011
 20
-138.1049207554043
 97
        0
 97
        0
 75
     2
 76
     1
 98
        0
  0
ENDBLK
  5
105
330
102
100
AcDbEntity
  8
0
100
AcDbBlockEnd
  0
ENDSEC
  0
SECTION
  2
ENTITIES
  0
POLYLINE
  5
41
330
1F
100
AcDbEntity
  8
_U+30EC_U+30A4_U+30E4_U+30FC 1
  6
AI-Linetype-1
 62
   154
420
    23468
370
    25
100
AcDb2dPolyline
 66
     1
 10
0.0
 20
0.0
 30
0.0
  0
VERTEX
  5
42
330
41
100
AcDbEntity
  8
_U+30EC_U+30A4_U+30E4_U+30FC 1
  6
AI-Linetype-1
 62
   154
420
    23468
370
    25
100
AcDbVertex
100
AcDb2dVertex
 10
79.54450769287277
 20
-122.2636760805452
 30
0.0
  0
VERTEX
  5
43
330
41
100
AcDbEntity
  8
_U+30EC_U+30A4_U+30E4_U+30FC 1
  6
AI-Linetype-1
 62
   154
420
    23468
370
    25
100
AcDbVertex
100
AcDb2dVertex
 10
77.95700773337326
 20
-122.2636760805452
 30
0.0
  0
VERTEX
  5
44
330
41
100
AcDbEntity
  8
_U+30EC_U+30A4_U+30E4_U+30FC 1
  6
AI-Linetype-1
 62
   154
420
    23468
370
    25
100
AcDbVertex
100
AcDb2dVertex
 10
77.95700773337326
 20
-136.4636871881061
 30
0.0
  0
VERTEX
  5
45
330
41
100
AcDbEntity
  8
_U+30EC_U+30A4_U+30E4_U+30FC 1
  6
AI-Linetype-1
 62
   154
420
    23468
370
    25
100
AcDbVertex
100
AcDb2dVertex
 10
92.70855124591893
 20
-136.4636871881061
 30
0.0
  0
VERTEX
  5
46
330
41
100
AcDbEntity
  8
_U+30EC_U+30A4_U+30E4_U+30FC 1
  6
AI-Linetype-1
 62
   154
420
    23468
370
    25
100
AcDbVertex
100
AcDb2dVertex
 10
92.70855124591893
 20
-134.6460349663387
 30
0.0
  0
SEQEND
  5
48
330
41
100
AcDbEntity
  8
_U+30EC_U+30A4_U+30E4_U+30FC 1
  6
AI-Linetype-1
 62
   154
420
    23468
370
    25
  0
POLYLINE
  5
49
330
1F
100
AcDbEntity
  8
_U+30EC_U+30A4_U+30E4_U+30FC 1
 62
     7
420
 16777215
370
    25
100
AcDb2dPolyline
 66
     1
 10
0.0
 20
0.0
 30
0.0
  0
VERTEX
  5
4A
330
49
100
AcDbEntity
  8
_U+30EC_U+30A4_U+30E4_U+30FC 1
 62
     7
420
 16777215
370
    25
100
AcDbVertex
100
AcDb2dVertex
 10
80.11777156713647
 20
-134.8637694107283
 30
0.0
  0
VERTEX
  5
4B
330
49
100
AcDbEntity
  8
_U+30EC_U+30A4_U+30E4_U+30FC 1
 62
     7
420
 16777215
370
    25
100
AcDbVertex
100
AcDb2dVertex
 10
92.11771903877009
 20
-134.8637694107283
 30
0.0
  0
SEQEND
  5
4C
330
49
100
AcDbEntity
  8
_U+30EC_U+30A4_U+30E4_U+30FC 1
 62
     7
420
 16777215
370
    25
  0
POLYLINE
  5
4D
330
1F
100
AcDbEntity
  8
_U+30EC_U+30A4_U+30E4_U+30FC 1
 62
     7
420
 16777215
370
    25
100
AcDb2dPolyline
 66
     1
 10
0.0
 20
0.0
 30
0.0
  0
VERTEX
  5
4E
330
4D
100
AcDbEntity
  8
_U+30EC_U+30A4_U+30E4_U+30FC 1
 62
     7
420
 16777215
370
    25
100
AcDbVertex
100
AcDb2dVertex
 10
80.11777156713647
 20
-128.3635566345758
 30
0.0
  0
VERTEX
  5
4F
330
4D
100
AcDbEntity
  8
_U+30EC_U+30A4_U+30E4_U+30FC 1
 62
     7
420
 16777215
370
    25
100
AcDbVertex
100
AcDb2dVertex
 10
92.11771903877009
 20
-128.3635566345758
 30
0.0
  0
SEQEND
  5
50
330
4D
100
AcDbEntity
  8
_U+30EC_U+30A4_U+30E4_U+30FC 1
 62
     7
420
 16777215
370
    25
  0
POLYLINE
  5
51
330
1F
100
AcDbEntity
  8
_U+30EC_U+30A4_U+30E4_U+30FC 1
 62
     7
420
 16777215
370
    25
100
AcDb2dPolyline
 66
     1
 10
0.0
 20
0.0
 30
0.0
  0
VERTEX
  5
52
330
51
100
AcDbEntity
  8
_U+30EC_U+30A4_U+30E4_U+30FC 1
 62
     7
420
 16777215
370
    25
100
AcDbVertex
100
AcDb2dVertex
 10
80.11777156713647
 20
-135.8642471882563
 30
0.0
  0
VERTEX
  5
53
330
51
100
AcDbEntity
  8
_U+30EC_U+30A4_U+30E4_U+30FC 1
 62
     7
420
 16777215
370
    25
100
AcDbVertex
100
AcDb2dVertex
 10
91.1172765642935
 20
-135.8642471882563
 30
0.0
  0
SEQEND
  5
54
330
51
100
AcDbEntity
  8
_U+30EC_U+30A4_U+30E4_U+30FC 1
 62
     7
420
 16777215
370
    25
  0
POLYLINE
  5
55
330
1F
100
AcDbEntity
  8
_U+30EC_U+30A4_U+30E4_U+30FC 1
 62
     7
420
 16777215
370
    25
100
AcDb2dPolyline
 66
     1
 10
0.0
 20
0.0
 30
0.0
  0
VERTEX
  5
56
330
55
100
AcDbEntity
  8
_U+30EC_U+30A4_U+30E4_U+30FC 1
 62
     7
420
 16777215
370
    25
100
AcDbVertex
100
AcDb2dVertex
 10
79.11729381488301
 20
-123.8635938579231
 30
0.0
  0
VERTEX
  5
57
330
55
100
AcDbEntity
  8
_U+30EC_U+30A4_U+30E4_U+30FC 1
 62
     7
420
 16777215
370
    25
100
AcDbVertex
100
AcDb2dVertex
 10
79.11729381488301
 20
-134.8637694107283
 30
0.0
  0
SEQEND
  5
58
330
55
100
AcDbEntity
  8
_U+30EC_U+30A4_U+30E4_U+30FC 1
 62
     7
420
 16777215
370
    25
  0
POLYLINE
  5
59
330
1F
100
AcDbEntity
  8
_U+30EC_U+30A4_U+30E4_U+30FC 1
 62
     7
420
 16777215
370
    25
100
AcDb2dPolyline
 66
     1
 10
0.0
 20
0.0
 30
0.0
  0
VERTEX
  5
5A
330
59
100
AcDbEntity
  8
_U+30EC_U+30A4_U+30E4_U+30FC 1
 62
     7
420
 16777215
370
    25
100
AcDbVertex
100
AcDb2dVertex
 10
80.11777156713647
 20
-122.8638216359509
 30
0.0
  0
VERTEX
  5
5B
330
59
100
AcDbEntity
  8
_U+30EC_U+30A4_U+30E4_U+30FC 1
 62
     7
420
 16777215
370
    25
100
AcDbVertex
100
AcDb2dVertex
 10
80.11777156713647
 20
-127.3638196903811
 30
0.0
  0
SEQEND
  5
5C
330
59
100
AcDbEntity
  8
_U+30EC_U+30A4_U+30E4_U+30FC 1
 62
     7
420
 16777215
370
    25
  0
POLYLINE
  5
5D
330
1F
100
AcDbEntity
  8
_U+30EC_U+30A4_U+30E4_U+30FC 1
 62
     7
420
 16777215
370
    25
100
AcDb2dPolyline
 66
     1
 10
0.0
 20
0.0
 30
0.0
  0
VERTEX
  5
5E
330
5D
100
AcDbEntity
  8
_U+30EC_U+30A4_U+30E4_U+30FC 1
 62
     7
420
 16777215
370
    25
100
AcDbVertex
100
AcDb2dVertex
 10
80.11777156713647
 20
-127.3638196903811
 30
0.0
  0
VERTEX
  5
5F
330
5D
100
AcDbEntity
  8
_U+30EC_U+30A4_U+30E4_U+30FC 1
 62
     7
420
 16777215
370
    25
100
AcDbVertex
100
AcDb2dVertex
 10
98.11769277458689
 20
-127.3638196903811
 30
0.0
  0
SEQEND
  5
60
330
5D
100
AcDbEntity
  8
_U+30EC_U+30A4_U+30E4_U+30FC 1
 62
     7
420
 16777215
370
    25
  0
POLYLINE
  5
61
330
1F
100
AcDbEntity
  8
_U+30EC_U+30A4_U+30E4_U+30FC 1
 62
     7
420
 16777215
370
    25
100
AcDb2dPolyline
 66
     1
 10
0.0
 20
0.0
 30
0.0
  0
VERTEX
  5
62
330
61
100
AcDbEntity
  8
_U+30EC_U+30A4_U+30E4_U+30FC 1
 62
     7
420
 16777215
370
    25
100
AcDbVertex
100
AcDb2dVertex
 10
80.11777156713647
 20
-128.3635566345758
 30
0.0
  0
VERTEX
  5
63
330
61
100
AcDbEntity
  8
_U+30EC_U+30A4_U+30E4_U+30FC 1
 62
     7
420
 16777215
370
    25
100
AcDbVertex
100
AcDb2dVertex
 10
80.11777156713647
 20
-134.8637694107283
 30
0.0
  0
SEQEND
  5
64
330
61
100
AcDbEntity
  8
_U+30EC_U+30A4_U+30E4_U+30FC 1
 62
     7
420
 16777215
370
    25
  0
POLYLINE
  5
65
330
1F
100
AcDbEntity
  8
_U+30EC_U+30A4_U+30E4_U+30FC 1
 62
     7
420
 16777215
370
    25
100
AcDb2dPolyline
 66
     1
 10
0.0
 20
0.0
 30
0.0
  0
VERTEX
  5
66
330
65
100
AcDbEntity
  8
_U+30EC_U+30A4_U+30E4_U+30FC 1
 62
     7
420
 16777215
370
    25
100
AcDbVertex
100
AcDb2dVertex
 10
92.63725485884896
 20
-128.0638366346506
 30
0.0
  0
VERTEX
  5
67
330
65
100
AcDbEntity
  8
_U+30EC_U+30A4_U+30E4_U+30FC 1
 62
     7
420
 16777215
370
    25
100
AcDbVertex
100
AcDb2dVertex
 10
97.41764057022449
 20
-128.0638366346506
 30
0.0
  0
SEQEND
  5
68
330
65
100
AcDbEntity
  8
_U+30EC_U+30A4_U+30E4_U+30FC 1
 62
     7
420
 16777215
370
    25
  0
POLYLINE
  5
69
330
1F
100
AcDbEntity
  8
_U+30EC_U+30A4_U+30E4_U+30FC 1
 62
     7
420
 16777215
370
    25
100
AcDb2dPolyline
 66
     1
 10
0.0
 20
0.0
 30
0.0
  0
VERTEX
  5
6A
330
69
100
AcDbEntity
  8
_U+30EC_U+30A4_U+30E4_U+30FC 1
 62
     7
420
 16777215
370
    25
100
AcDbVertex
100
AcDb2dVertex
 10
92.11771903877009
 20
-128.3635566345758
 30
0.0
  0
VERTEX
  5
6B
330
69
100
AcDbEntity
  8
_U+30EC_U+30A4_U+30E4_U+30FC 1
 62
     7
420
 16777215
370
    25
100
AcDbVertex
100
AcDb2dVertex
 10
92.63725485884896
 20
-128.0638366346506
 30
0.0
  0
SEQEND
  5
6C
330
69
100
AcDbEntity
  8
_U+30EC_U+30A4_U+30E4_U+30FC 1
 62
     7
420
 16777215
370
    25
  0
POLYLINE
  5
6D
330
1F
100
AcDbEntity
  8
_U+30EC_U+30A4_U+30E4_U+30FC 1
 62
     7
420
 16777215
370
     9
100
AcDb2dPolyline
 66
     1
 10
0.0
 20
0.0
 30
0.0
  0
VERTEX
  5
6E
330
6D
100
AcDbEntity
  8
_U+30EC_U+30A4_U+30E4_U+30FC 1
 62
     7
420
 16777215
370
     9
100
AcDbVertex
100
AcDb2dVertex
 10
79.41013464074535
 20
-135.5707007994409
 30
0.0
  0
VERTEX
  5
6F
330
6D
100
AcDbEntity
  8
_U+30EC_U+30A4_U+30E4_U+30FC 1
 62
     7
420
 16777215
370
     9
100
AcDbVertex
100
AcDb2dVertex
 10
75.1175347502587
 20
-139.863971076145
 30
0.0
  0
SEQEND
  5
70
330
6D
100
AcDbEntity
  8
_U+30EC_U+30A4_U+30E4_U+30FC 1
 62
     7
420
 16777215
370
     9
  0
POLYLINE
  5
71
330
1F
100
AcDbEntity
  8
_U+30EC_U+30A4_U+30E4_U+30FC 1
 62
     7
420
 16777215
370
     9
100
AcDb2dPolyline
 66
     1
 10
0.0
 20
0.0
 30
0.0
  0
VERTEX
  5
72
330
71
100
AcDbEntity
  8
_U+30EC_U+30A4_U+30E4_U+30FC 1
 62
     7
420
 16777215
370
     9
100
AcDbVertex
100
AcDb2dVertex
 10
70.90557985771461
 20
-139.863971076145
 30
0.0
  0
VERTEX
  5
73
330
71
100
AcDbEntity
  8
_U+30EC_U+30A4_U+30E4_U+30FC 1
 62
     7
420
 16777215
370
     9
100
AcDbVertex
100
AcDb2dVertex
 10
75.1175347502587
 20
-139.863971076145
 30
0.0
  0
SEQEND
  5
74
330
71
100
AcDbEntity
  8
_U+30EC_U+30A4_U+30E4_U+30FC 1
 62
     7
420
 16777215
370
     9
  0
POLYLINE
  5
75
330
1F
100
AcDbEntity
  8
_U+30EC_U+30A4_U+30E4_U+30FC 1
 62
     7
420
 16777215
370
     9
100
AcDb2dPolyline
 66
     1
 10
0.0
 20
0.0
 30
0.0
  0
VERTEX
  5
76
330
75
100
AcDbEntity
  8
_U+30EC_U+30A4_U+30E4_U+30FC 1
 62
     7
420
 16777215
370
     9
100
AcDbVertex
100
AcDb2dVertex
 10
79.41013464074535
 20
-135.5707007994409
 30
0.0
  0
VERTEX
  5
77
330
75
100
AcDbEntity
  8
_U+30EC_U+30A4_U+30E4_U+30FC 1
 62
     7
420
 16777215
370
     9
100
AcDbVertex
100
AcDb2dVertex
 10
78.11134998047204
 20
-136.3210591325862
 30
0.0
  0
SEQEND
  5
78
330
75
100
AcDbEntity
  8
_U+30EC_U+30A4_U+30E4_U+30FC 1
 62
     7
420
 16777215
370
     9
  0
POLYLINE
  5
79
330
1F
100
AcDbEntity
  8
_U+30EC_U+30A4_U+30E4_U+30FC 1
 62
     7
420
 16777215
370
     9
100
AcDb2dPolyline
 66
     1
 10
0.0
 20
0.0
 30
0.0
  0
VERTEX
  5
7A
330
79
100
AcDbEntity
  8
_U+30EC_U+30A4_U+30E4_U+30FC 1
 62
     7
420
 16777215
370
     9
100
AcDbVertex
100
AcDb2dVertex
 10
79.41013464074535
 20
-135.5707007994409
 30
0.0
  0
VERTEX
  5
7B
330
79
100
AcDbEntity
  8
_U+30EC_U+30A4_U+30E4_U+30FC 1
 62
     7
420
 16777215
370
     9
100
AcDbVertex
100
AcDb2dVertex
 10
78.66048188209281
 20
-136.8701930213377
 30
0.0
  0
SEQEND
  5
7C
330
79
100
AcDbEntity
  8
_U+30EC_U+30A4_U+30E4_U+30FC 1
 62
     7
420
 16777215
370
     9
  0
SPLINE
  5
7D
330
1F
100
AcDbEntity
  8
_U+30EC_U+30A4_U+30E4_U+30FC 1
 62
     7
420
 16777215
370
    25
100
AcDbSpline
210
0.0
220
0.0
230
1.0
 70
     8
 71
     3
 72
     8
 73
     4
 74
     0
 42
0.0000000001
 43
0.0000000001
 12
1.0
 22
0.0
 32
0.0
 13
1.0
 23
0.0
 33
0.0
 40
0.0
 40
0.0
 40
0.0
 40
0.0
 40
1.0
 40
1.0
 40
1.0
 40
1.0
 10
79.11729381488301
 20
-134.8637694107283
 30
0.0
 10
79.11729381488301
 20
-135.4163605217017
 30
0.0
 10
79.56518047012314
 20
-135.8642471882563
 30
0.0
 10
80.11777156713647
 20
-135.8642471882563
 30
0.0
  0
SPLINE
  5
7E
330
1F
100
AcDbEntity
  8
_U+30EC_U+30A4_U+30E4_U+30FC 1
 62
     7
420
 16777215
370
    25
100
AcDbSpline
210
0.0
220
0.0
230
1.0
 70
     8
 71
     3
 72
     8
 73
     4
 74
     0
 42
0.0000000001
 43
0.0000000001
 12
1.0
 22
0.0
 32
0.0
 13
1.0
 23
0.0
 33
0.0
 40
0.0
 40
0.0
 40
0.0
 40
0.0
 40
1.0
 40
1.0
 40
1.0
 40
1.0
 10
80.11777156713647
 20
-122.8638216359509
 30
0.0
 10
79.56518047012314
 20
-122.8638216359509
 30
0.0
 10
79.11729381488301
 20
-123.3116730247276
 30
0.0
 10
79.11729381488301
 20
-123.8635938579231
 30
0.0
  0
SPLINE
  5
7F
330
1F
100
AcDbEntity
  8
_U+30EC_U+30A4_U+30E4_U+30FC 1
 62
     7
420
 16777215
370
    25
100
AcDbSpline
210
0.0
220
0.0
230
1.0
 70
     8
 71
     3
 72
     8
 73
     4
 74
     0
 42
0.0000000001
 43
0.0000000001
 12
1.0
 22
0.0
 32
0.0
 13
1.0
 23
0.0
 33
0.0
 40
0.0
 40
0.0
 40
0.0
 40
0.0
 40
1.0
 40
1.0
 40
1.0
 40
1.0
 10
91.1172765642935
 20
-135.8642471882563
 30
0.0
 10
91.66986766130684
 20
-135.8642471882563
 30
0.0
 10
92.11771903877009
 20
-135.4163605217017
 30
0.0
 10
92.11771903877009
 20
-134.8637694107283
 30
0.0
  0
SPLINE
  5
80
330
1F
100
AcDbEntity
  8
_U+30EC_U+30A4_U+30E4_U+30FC 1
 62
     7
420
 16777215
370
    25
100
AcDbSpline
210
0.0
220
0.0
230
1.0
 70
     8
 71
     3
 72
     8
 73
     4
 74
     0
 42
0.0000000001
 43
0.0000000001
 12
1.0
 22
0.0
 32
0.0
 13
1.0
 23
0.0
 33
0.0
 40
0.0
 40
0.0
 40
0.0
 40
0.0
 40
1.0
 40
1.0
 40
1.0
 40
1.0
 10
97.41764057022449
 20
-128.0638366346506
 30
0.0
 10
97.80417917147417
 20
-128.0638366346506
 30
0.0
 10
98.11769277458689
 20
-127.7503583013959
 30
0.0
 10
98.11769277458689
 20
-127.3638196903811
 30
0.0
  0
SPLINE
  5
81
330
1F
100
AcDbEntity
  8
_U+30EC_U+30A4_U+30E4_U+30FC 1
 62
     7
420
 16777215
370
     9
100
AcDbSpline
210
0.0
220
0.0
230
1.0
 70
    11
 71
     3
 72
    17
 73
    13
 74
     0
 42
0.0000000001
 43
0.0000000001
 12
1.0
 22
0.0
 32
0.0
 13
1.0
 23
0.0
 33
0.0
 40
0.0
 40
0.0
 40
0.0
 40
0.0
 40
1.0
 40
1.0
 40
1.0
 40
2.0
 40
2.0
 40
2.0
 40
3.0
 40
3.0
 40
3.0
 40
4.0
 40
4.0
 40
4.0
 40
4.0
 10
98.21759943870472
 20
-118.864062470284
 30
0.0
 10
98.21759943870472
 20
-118.8089585814087
 30
0.0
 10
98.17350221760752
 20
-118.7641558036424
 30
0.0
 10
98.11769277458689
 20
-118.7641558036424
 30
0.0
 10
98.0632591648645
 20
-118.7641558036424
 30
0.0
 10
98.01849166600661
 20
-118.8089585814087
 30
0.0
 10
98.01849166600661
 20
-118.864062470284
 30
0.0
 10
98.01849166600661
 20
-118.9192016369367
 30
0.0
 10
98.0632591648645
 20
-118.9639691369256
 30
0.0
 10
98.11769277458689
 20
-118.9639691369256
 30
0.0
 10
98.17350221760752
 20
-118.9639691369256
 30
0.0
 10
98.21759943870472
 20
-118.9192016369367
 30
0.0
 10
98.21759943870472
 20
-118.864062470284
 30
0.0
  0
SPLINE
  5
82
330
1F
100
AcDbEntity
  8
_U+30EC_U+30A4_U+30E4_U+30FC 1
 62
     7
420
 16777215
370
     9
100
AcDbSpline
210
0.0
220
0.0
230
1.0
 70
    11
 71
     3
 72
    17
 73
    13
 74
     0
 42
0.0000000001
 43
0.0000000001
 12
1.0
 22
0.0
 32
0.0
 13
1.0
 23
0.0
 33
0.0
 40
0.0
 40
0.0
 40
0.0
 40
0.0
 40
1.0
 40
1.0
 40
1.0
 40
2.0
 40
2.0
 40
2.0
 40
3.0
 40
3.0
 40
3.0
 40
4.0
 40
4.0
 40
4.0
 40
4.0
 10
80.31758489537215
 20
-118.864062470284
 30
0.0
 10
80.31758489537215
 20
-118.8089585814087
 30
0.0
 10
80.27278211873738
 20
-118.7641558036424
 30
0.0
 10
80.21767823125431
 20
-118.7641558036424
 30
0.0
 10
80.16253906599437
 20
-118.7641558036424
 30
0.0
 10
80.11777156713647
 20
-118.8089585814087
 30
0.0
 10
80.11777156713647
 20
-118.864062470284
 30
0.0
 10
80.11777156713647
 20
-118.9192016369367
 30
0.0
 10
80.16253906599437
 20
-118.9639691369256
 30
0.0
 10
80.21767823125431
 20
-118.9639691369256
 30
0.0
 10
80.27278211873738
 20
-118.9639691369256
 30
0.0
 10
80.31758489537215
 20
-118.9192016369367
 30
0.0
 10
80.31758489537215
 20
-118.864062470284
 30
0.0
  0
SPLINE
  5
83
330
1F
100
AcDbEntity
  8
_U+30EC_U+30A4_U+30E4_U+30FC 1
 62
     7
420
 16777215
370
     9
100
AcDbSpline
210
0.0
220
0.0
230
1.0
 70
    11
 71
     3
 72
    17
 73
    13
 74
     0
 42
0.0000000001
 43
0.0000000001
 12
1.0
 22
0.0
 32
0.0
 13
1.0
 23
0.0
 33
0.0
 40
0.0
 40
0.0
 40
0.0
 40
0.0
 40
1.0
 40
1.0
 40
1.0
 40
2.0
 40
2.0
 40
2.0
 40
3.0
 40
3.0
 40
3.0
 40
4.0
 40
4.0
 40
4.0
 40
4.0
 10
79.21720047900085
 20
-125.3635696908815
 30
0.0
 10
79.21720047900085
 20
-125.3084658020063
 30
0.0
 10
79.17243298014296
 20
-125.2636630242395
 30
0.0
 10
79.11729381488301
 20
-125.2636630242395
 30
0.0
 10
79.06218992739994
 20
-125.2636630242395
 30
0.0
 10
79.01738715076517
 20
-125.3084658020063
 30
0.0
 10
79.01738715076517
 20
-125.3635696908815
 30
0.0
 10
79.01738715076517
 20
-125.4193791353119
 30
0.0
 10
79.06218992739994
 20
-125.4641819130783
 30
0.0
 10
79.11729381488301
 20
-125.4641819130783
 30
0.0
 10
79.17243298014296
 20
-125.4641819130783
 30
0.0
 10
79.21720047900085
 20
-125.4193791353119
 30
0.0
 10
79.21720047900085
 20
-125.3635696908815
 30
0.0
  0
SPLINE
  5
84
330
1F
100
AcDbEntity
  8
_U+30EC_U+30A4_U+30E4_U+30FC 1
 62
     7
420
 16777215
370
     9
100
AcDbSpline
210
0.0
220
0.0
230
1.0
 70
    11
 71
     3
 72
    17
 73
    13
 74
     0
 42
0.0000000001
 43
0.0000000001
 12
1.0
 22
0.0
 32
0.0
 13
1.0
 23
0.0
 33
0.0
 40
0.0
 40
0.0
 40
0.0
 40
0.0
 40
1.0
 40
1.0
 40
1.0
 40
2.0
 40
2.0
 40
2.0
 40
3.0
 40
3.0
 40
3.0
 40
4.0
 40
4.0
 40
4.0
 40
4.0
 10
80.21767823125431
 20
-125.3635696908815
 30
0.0
 10
80.21767823125431
 20
-125.3084658020063
 30
0.0
 10
80.17287545461954
 20
-125.2636630242395
 30
0.0
 10
80.11777156713647
 20
-125.2636630242395
 30
0.0
 10
80.06196212411585
 20
-125.2636630242395
 30
0.0
 10
80.01715934748108
 20
-125.3084658020063
 30
0.0
 10
80.01715934748108
 20
-125.3635696908815
 30
0.0
 10
80.01715934748108
 20
-125.4193791353119
 30
0.0
 10
80.06196212411585
 20
-125.4641819130783
 30
0.0
 10
80.11777156713647
 20
-125.4641819130783
 30
0.0
 10
80.17287545461954
 20
-125.4641819130783
 30
0.0
 10
80.21767823125431
 20
-125.4193791353119
 30
0.0
 10
80.21767823125431
 20
-125.3635696908815
 30
0.0
  0
SPLINE
  5
85
330
1F
100
AcDbEntity
  8
_U+30EC_U+30A4_U+30E4_U+30FC 1
 62
     7
420
 16777215
370
     9
100
AcDbSpline
210
0.0
220
0.0
230
1.0
 70
    11
 71
     3
 72
    17
 73
    13
 74
     0
 42
0.0000000001
 43
0.0000000001
 12
1.0
 22
0.0
 32
0.0
 13
1.0
 23
0.0
 33
0.0
 40
0.0
 40
0.0
 40
0.0
 40
0.0
 40
1.0
 40
1.0
 40
1.0
 40
2.0
 40
2.0
 40
2.0
 40
3.0
 40
3.0
 40
3.0
 40
4.0
 40
4.0
 40
4.0
 40
4.0
 10
74.31761115955534
 20
-135.8642471882563
 30
0.0
 10
74.31761115955534
 20
-135.8084377438259
 30
0.0
 10
74.27280838292057
 20
-135.7636349660592
 30
0.0
 10
74.2177044954375
 20
-135.7636349660592
 30
0.0
 10
74.16256533017756
 20
-135.7636349660592
 30
0.0
 10
74.11779783131966
 20
-135.8084377438259
 30
0.0
 10
74.11779783131966
 20
-135.8642471882563
 30
0.0
 10
74.11779783131966
 20
-135.9193510771312
 30
0.0
 10
74.16256533017756
 20
-135.9641538548979
 30
0.0
 10
74.2177044954375
 20
-135.9641538548979
 30
0.0
 10
74.27280838292057
 20
-135.9641538548979
 30
0.0
 10
74.31761115955534
 20
-135.9193510771312
 30
0.0
 10
74.31761115955534
 20
-135.8642471882563
 30
0.0
  0
SPLINE
  5
86
330
1F
100
AcDbEntity
  8
_U+30EC_U+30A4_U+30E4_U+30FC 1
 62
     7
420
 16777215
370
     9
100
AcDbSpline
210
0.0
220
0.0
230
1.0
 70
    11
 71
     3
 72
    17
 73
    13
 74
     0
 42
0.0000000001
 43
0.0000000001
 12
1.0
 22
0.0
 32
0.0
 13
1.0
 23
0.0
 33
0.0
 40
0.0
 40
0.0
 40
0.0
 40
0.0
 40
1.0
 40
1.0
 40
1.0
 40
2.0
 40
2.0
 40
2.0
 40
3.0
 40
3.0
 40
3.0
 40
4.0
 40
4.0
 40
4.0
 40
4.0
 10
74.31761115955534
 20
-122.8638216359509
 30
0.0
 10
74.31761115955534
 20
-122.8086824692978
 30
0.0
 10
74.27280838292057
 20
-122.7639149693089
 30
0.0
 10
74.2177044954375
 20
-122.7639149693089
 30
0.0
 10
74.16256533017756
 20
-122.7639149693089
 30
0.0
 10
74.11779783131966
 20
-122.8086824692978
 30
0.0
 10
74.11779783131966
 20
-122.8638216359509
 30
0.0
 10
74.11779783131966
 20
-122.9189255248258
 30
0.0
 10
74.16256533017756
 20
-122.9637283025925
 30
0.0
 10
74.2177044954375
 20
-122.9637283025925
 30
0.0
 10
74.27280838292057
 20
-122.9637283025925
 30
0.0
 10
74.31761115955534
 20
-122.9189255248258
 30
0.0
 10
74.31761115955534
 20
-122.8638216359509
 30
0.0
  0
SPLINE
  5
87
330
1F
100
AcDbEntity
  8
_U+30EC_U+30A4_U+30E4_U+30FC 1
 62
     7
420
 16777215
370
     9
100
AcDbSpline
210
0.0
220
0.0
230
1.0
 70
    11
 71
     3
 72
    17
 73
    13
 74
     0
 42
0.0000000001
 43
0.0000000001
 12
1.0
 22
0.0
 32
0.0
 13
1.0
 23
0.0
 33
0.0
 40
0.0
 40
0.0
 40
0.0
 40
0.0
 40
1.0
 40
1.0
 40
1.0
 40
2.0
 40
2.0
 40
2.0
 40
3.0
 40
3.0
 40
3.0
 40
4.0
 40
4.0
 40
4.0
 40
4.0
 10
92.21762570288791
 20
-139.863971076145
 30
0.0
 10
92.21762570288791
 20
-139.8088671872701
 30
0.0
 10
92.17282292625316
 20
-139.7640644095034
 30
0.0
 10
92.11771903877009
 20
-139.7640644095034
 30
0.0
 10
92.06257987351013
 20
-139.7640644095034
 30
0.0
 10
92.01781237465225
 20
-139.8088671872701
 30
0.0
 10
92.01781237465225
 20
-139.863971076145
 30
0.0
 10
92.01781237465225
 20
-139.9191102427981
 30
0.0
 10
92.06257987351013
 20
-139.9638777427867
 30
0.0
 10
92.11771903877009
 20
-139.9638777427867
 30
0.0
 10
92.17282292625316
 20
-139.9638777427867
 30
0.0
 10
92.21762570288791
 20
-139.9191102427981
 30
0.0
 10
92.21762570288791
 20
-139.863971076145
 30
0.0
  0
SPLINE
  5
88
330
1F
100
AcDbEntity
  8
_U+30EC_U+30A4_U+30E4_U+30FC 1
 62
     7
420
 16777215
370
     9
100
AcDbSpline
210
0.0
220
0.0
230
1.0
 70
    11
 71
     3
 72
    17
 73
    13
 74
     0
 42
0.0000000001
 43
0.0000000001
 12
1.0
 22
0.0
 32
0.0
 13
1.0
 23
0.0
 33
0.0
 40
0.0
 40
0.0
 40
0.0
 40
0.0
 40
1.0
 40
1.0
 40
1.0
 40
2.0
 40
2.0
 40
2.0
 40
3.0
 40
3.0
 40
3.0
 40
4.0
 40
4.0
 40
4.0
 40
4.0
 10
79.21720047900085
 20
-139.863971076145
 30
0.0
 10
79.21720047900085
 20
-139.8088671872701
 30
0.0
 10
79.17243298014296
 20
-139.7640644095034
 30
0.0
 10
79.11729381488301
 20
-139.7640644095034
 30
0.0
 10
79.06218992739994
 20
-139.7640644095034
 30
0.0
 10
79.01738715076517
 20
-139.8088671872701
 30
0.0
 10
79.01738715076517
 20
-139.863971076145
 30
0.0
 10
79.01738715076517
 20
-139.9191102427981
 30
0.0
 10
79.06218992739994
 20
-139.9638777427867
 30
0.0
 10
79.11729381488301
 20
-139.9638777427867
 30
0.0
 10
79.17243298014296
 20
-139.9638777427867
 30
0.0
 10
79.21720047900085
 20
-139.9191102427981
 30
0.0
 10
79.21720047900085
 20
-139.863971076145
 30
0.0
  0
SPLINE
  5
89
330
1F
100
AcDbEntity
  8
_U+30EC_U+30A4_U+30E4_U+30FC 1
 62
     7
420
 16777215
370
     9
100
AcDbSpline
210
0.0
220
0.0
230
1.0
 70
    11
 71
     3
 72
    17
 73
    13
 74
     0
 42
0.0000000001
 43
0.0000000001
 12
1.0
 22
0.0
 32
0.0
 13
1.0
 23
0.0
 33
0.0
 40
0.0
 40
0.0
 40
0.0
 40
0.0
 40
1.0
 40
1.0
 40
1.0
 40
2.0
 40
2.0
 40
2.0
 40
3.0
 40
3.0
 40
3.0
 40
4.0
 40
4.0
 40
4.0
 40
4.0
 10
96.2180550452729
 20
-128.3635566345758
 30
0.0
 10
96.2180550452729
 20
-128.3084527457006
 30
0.0
 10
96.17258199087748
 20
-128.2636499679342
 30
0.0
 10
96.11814838115508
 20
-128.2636499679342
 30
0.0
 10
96.06233893813445
 20
-128.2636499679342
 30
0.0
 10
96.01824171703724
 20
-128.3084527457006
 30
0.0
 10
96.01824171703724
 20
-128.3635566345758
 30
0.0
 10
96.01824171703724
 20
-128.4193660790063
 30
0.0
 10
96.06233893813445
 20
-128.464168856773
 30
0.0
 10
96.11814838115508
 20
-128.464168856773
 30
0.0
 10
96.17258199087748
 20
-128.464168856773
 30
0.0
 10
96.2180550452729
 20
-128.4193660790063
 30
0.0
 10
96.2180550452729
 20
-128.3635566345758
 30
0.0
  0
SPLINE
  5
8A
330
1F
100
AcDbEntity
  8
_U+30EC_U+30A4_U+30E4_U+30FC 1
 62
     7
420
 16777215
370
     9
100
AcDbSpline
210
0.0
220
0.0
230
1.0
 70
    11
 71
     3
 72
    17
 73
    13
 74
     0
 42
0.0000000001
 43
0.0000000001
 12
1.0
 22
0.0
 32
0.0
 13
1.0
 23
0.0
 33
0.0
 40
0.0
 40
0.0
 40
0.0
 40
0.0
 40
1.0
 40
1.0
 40
1.0
 40
2.0
 40
2.0
 40
2.0
 40
3.0
 40
3.0
 40
3.0
 40
4.0
 40
4.0
 40
4.0
 40
4.0
 10
96.2180550452729
 20
-134.8637694107283
 30
0.0
 10
96.2180550452729
 20
-134.8086655218533
 30
0.0
 10
96.17258199087748
 20
-134.7638627440866
 30
0.0
 10
96.11814838115508
 20
-134.7638627440866
 30
0.0
 10
96.06233893813445
 20
-134.7638627440866
 30
0.0
 10
96.01824171703724
 20
-134.8086655218533
 30
0.0
 10
96.01824171703724
 20
-134.8637694107283
 30
0.0
 10
96.01824171703724
 20
-134.9189085773813
 30
0.0
 10
96.06233893813445
 20
-134.9636760773699
 30
0.0
 10
96.11814838115508
 20
-134.9636760773699
 30
0.0
 10
96.17258199087748
 20
-134.9636760773699
 30
0.0
 10
96.2180550452729
 20
-134.9189085773813
 30
0.0
 10
96.2180550452729
 20
-134.8637694107283
 30
0.0
  0
INSERT
  5
8C
330
1F
100
AcDbEntity
  8
_U+30EC_U+30A4_U+30E4_U+30FC 1
100
AcDbBlockReference
  2
block 2
 10
0.0
 20
0.0
 30
0.0
  0
POLYLINE
  5
94
330
1F
100
AcDbEntity
  8
_U+30EC_U+30A4_U+30E4_U+30FC 1
 62
     7
420
 16777215
370
     9
100
AcDb2dPolyline
 66
     1
 10
0.0
 20
0.0
 30
0.0
  0
VERTEX
  5
95
330
94
100
AcDbEntity
  8
_U+30EC_U+30A4_U+30E4_U+30FC 1
 62
     7
420
 16777215
370
     9
100
AcDbVertex
100
AcDb2dVertex
 10
80.11777156713647
 20
-118.864062470284
 30
0.0
  0
VERTEX
  5
96
330
94
100
AcDbEntity
  8
_U+30EC_U+30A4_U+30E4_U+30FC 1
 62
     7
420
 16777215
370
     9
100
AcDbVertex
100
AcDb2dVertex
 10
98.11769277458689
 20
-118.864062470284
 30
0.0
  0
SEQEND
  5
97
330
94
100
AcDbEntity
  8
_U+30EC_U+30A4_U+30E4_U+30FC 1
 62
     7
420
 16777215
370
     9
  0
POLYLINE
  5
98
330
1F
100
AcDbEntity
  8
_U+30EC_U+30A4_U+30E4_U+30FC 1
 62
     7
420
 16777215
370
     9
100
AcDb2dPolyline
 66
     1
 10
0.0
 20
0.0
 30
0.0
  0
VERTEX
  5
99
330
98
100
AcDbEntity
  8
_U+30EC_U+30A4_U+30E4_U+30FC 1
 62
     7
420
 16777215
370
     9
100
AcDbVertex
100
AcDb2dVertex
 10
80.21767823125431
 20
-121.3238760807802
 30
0.0
  0
VERTEX
  5
9A
330
98
100
AcDbEntity
  8
_U+30EC_U+30A4_U+30E4_U+30FC 1
 62
     7
420
 16777215
370
     9
100
AcDbVertex
100
AcDb2dVertex
 10
80.21767823125431
 20
-117.8636199705341
 30
0.0
  0
SEQEND
  5
9B
330
98
100
AcDbEntity
  8
_U+30EC_U+30A4_U+30E4_U+30FC 1
 62
     7
420
 16777215
370
     9
  0
POLYLINE
  5
9C
330
1F
100
AcDbEntity
  8
_U+30EC_U+30A4_U+30E4_U+30FC 1
 62
     7
420
 16777215
370
     9
100
AcDb2dPolyline
 66
     1
 10
0.0
 20
0.0
 30
0.0
  0
VERTEX
  5
9D
330
9C
100
AcDbEntity
  8
_U+30EC_U+30A4_U+30E4_U+30FC 1
 62
     7
420
 16777215
370
     9
100
AcDbVertex
100
AcDb2dVertex
 10
98.11769277458689
 20
-124.8240666354608
 30
0.0
  0
VERTEX
  5
9E
330
9C
100
AcDbEntity
  8
_U+30EC_U+30A4_U+30E4_U+30FC 1
 62
     7
420
 16777215
370
     9
100
AcDbVertex
100
AcDb2dVertex
 10
98.11769277458689
 20
-117.8636199705341
 30
0.0
  0
SEQEND
  5
9F
330
9C
100
AcDbEntity
  8
_U+30EC_U+30A4_U+30E4_U+30FC 1
 62
     7
420
 16777215
370
     9
  0
INSERT
  5
A1
330
1F
100
AcDbEntity
  8
_U+30EC_U+30A4_U+30E4_U+30FC 1
100
AcDbBlockReference
  2
block 3
 10
0.0
 20
0.0
 30
0.0
  0
POLYLINE
  5
AA
330
1F
100
AcDbEntity
  8
_U+30EC_U+30A4_U+30E4_U+30FC 1
 62
     7
420
 16777215
370
     9
100
AcDb2dPolyline
 66
     1
 10
0.0
 20
0.0
 30
0.0
  0
VERTEX
  5
AB
330
AA
100
AcDbEntity
  8
_U+30EC_U+30A4_U+30E4_U+30FC 1
 62
     7
420
 16777215
370
     9
100
AcDbVertex
100
AcDb2dVertex
 10
80.11777156713647
 20
-125.3635696908815
 30
0.0
  0
VERTEX
  5
AC
330
AA
100
AcDbEntity
  8
_U+30EC_U+30A4_U+30E4_U+30FC 1
 62
     7
420
 16777215
370
     9
100
AcDbVertex
100
AcDb2dVertex
 10
83.88808609013897
 20
-125.3635696908815
 30
0.0
  0
SEQEND
  5
AD
330
AA
100
AcDbEntity
  8
_U+30EC_U+30A4_U+30E4_U+30FC 1
 62
     7
420
 16777215
370
     9
  0
POLYLINE
  5
AE
330
1F
100
AcDbEntity
  8
_U+30EC_U+30A4_U+30E4_U+30FC 1
 62
     7
420
 16777215
370
     9
100
AcDb2dPolyline
 66
     1
 10
0.0
 20
0.0
 30
0.0
  0
VERTEX
  5
AF
330
AE
100
AcDbEntity
  8
_U+30EC_U+30A4_U+30E4_U+30FC 1
 62
     7
420
 16777215
370
     9
100
AcDbVertex
100
AcDb2dVertex
 10
78.1175216181671
 20
-125.3635696908815
 30
0.0
  0
VERTEX
  5
B0
330
AE
100
AcDbEntity
  8
_U+30EC_U+30A4_U+30E4_U+30FC 1
 62
     7
420
 16777215
370
     9
100
AcDbVertex
100
AcDb2dVertex
 10
80.11777156713647
 20
-125.3635696908815
 30
0.0
  0
SEQEND
  5
B1
330
AE
100
AcDbEntity
  8
_U+30EC_U+30A4_U+30E4_U+30FC 1
 62
     7
420
 16777215
370
     9
  0
INSERT
  5
B3
330
1F
100
AcDbEntity
  8
_U+30EC_U+30A4_U+30E4_U+30FC 1
100
AcDbBlockReference
  2
block 4
 10
0.0
 20
0.0
 30
0.0
  0
POLYLINE
  5
B8
330
1F
100
AcDbEntity
  8
_U+30EC_U+30A4_U+30E4_U+30FC 1
 62
     7
420
 16777215
370
     9
100
AcDb2dPolyline
 66
     1
 10
0.0
 20
0.0
 30
0.0
  0
VERTEX
  5
B9
330
B8
100
AcDbEntity
  8
_U+30EC_U+30A4_U+30E4_U+30FC 1
 62
     7
420
 16777215
370
     9
100
AcDbVertex
100
AcDb2dVertex
 10
74.2177044954375
 20
-135.8642471882563
 30
0.0
  0
VERTEX
  5
BA
330
B8
100
AcDbEntity
  8
_U+30EC_U+30A4_U+30E4_U+30FC 1
 62
     7
420
 16777215
370
     9
100
AcDbVertex
100
AcDb2dVertex
 10
74.2177044954375
 20
-122.8638216359509
 30
0.0
  0
SEQEND
  5
BB
330
B8
100
AcDbEntity
  8
_U+30EC_U+30A4_U+30E4_U+30FC 1
 62
     7
420
 16777215
370
     9
  0
POLYLINE
  5
BC
330
1F
100
AcDbEntity
  8
_U+30EC_U+30A4_U+30E4_U+30FC 1
 62
     7
420
 16777215
370
     9
100
AcDb2dPolyline
 66
     1
 10
0.0
 20
0.0
 30
0.0
  0
VERTEX
  5
BD
330
BC
100
AcDbEntity
  8
_U+30EC_U+30A4_U+30E4_U+30FC 1
 62
     7
420
 16777215
370
     9
100
AcDbVertex
100
AcDb2dVertex
 10
76.67748276601667
 20
-135.8642471882563
 30
0.0
  0
VERTEX
  5
BE
330
BC
100
AcDbEntity
  8
_U+30EC_U+30A4_U+30E4_U+30FC 1
 62
     7
420
 16777215
370
     9
100
AcDbVertex
100
AcDb2dVertex
 10
73.21793229872159
 20
-135.8642471882563
 30
0.0
  0
SEQEND
  5
BF
330
BC
100
AcDbEntity
  8
_U+30EC_U+30A4_U+30E4_U+30FC 1
 62
     7
420
 16777215
370
     9
  0
POLYLINE
  5
C0
330
1F
100
AcDbEntity
  8
_U+30EC_U+30A4_U+30E4_U+30FC 1
 62
     7
420
 16777215
370
     9
100
AcDb2dPolyline
 66
     1
 10
0.0
 20
0.0
 30
0.0
  0
VERTEX
  5
C1
330
C0
100
AcDbEntity
  8
_U+30EC_U+30A4_U+30E4_U+30FC 1
 62
     7
420
 16777215
370
     9
100
AcDbVertex
100
AcDb2dVertex
 10
76.67748276601667
 20
-122.8638216359509
 30
0.0
  0
VERTEX
  5
C2
330
C0
100
AcDbEntity
  8
_U+30EC_U+30A4_U+30E4_U+30FC 1
 62
     7
420
 16777215
370
     9
100
AcDbVertex
100
AcDb2dVertex
 10
73.21793229872159
 20
-122.8638216359509
 30
0.0
  0
SEQEND
  5
C3
330
C0
100
AcDbEntity
  8
_U+30EC_U+30A4_U+30E4_U+30FC 1
 62
     7
420
 16777215
370
     9
  0
INSERT
  5
C5
330
1F
100
AcDbEntity
  8
_U+30EC_U+30A4_U+30E4_U+30FC 1
100
AcDbBlockReference
  2
block 5
 10
0.0
 20
0.0
 30
0.0
  0
POLYLINE
  5
CC
330
1F
100
AcDbEntity
  8
_U+30EC_U+30A4_U+30E4_U+30FC 1
 62
     7
420
 16777215
370
     9
100
AcDb2dPolyline
 66
     1
 10
0.0
 20
0.0
 30
0.0
  0
VERTEX
  5
CD
330
CC
100
AcDbEntity
  8
_U+30EC_U+30A4_U+30E4_U+30FC 1
 62
     7
420
 16777215
370
     9
100
AcDbVertex
100
AcDb2dVertex
 10
79.11729381488301
 20
-139.863971076145
 30
0.0
  0
VERTEX
  5
CE
330
CC
100
AcDbEntity
  8
_U+30EC_U+30A4_U+30E4_U+30FC 1
 62
     7
420
 16777215
370
     9
100
AcDbVertex
100
AcDb2dVertex
 10
92.11771903877009
 20
-139.863971076145
 30
0.0
  0
SEQEND
  5
CF
330
CC
100
AcDbEntity
  8
_U+30EC_U+30A4_U+30E4_U+30FC 1
 62
     7
420
 16777215
370
     9
  0
POLYLINE
  5
D0
330
1F
100
AcDbEntity
  8
_U+30EC_U+30A4_U+30E4_U+30FC 1
 62
     7
420
 16777215
370
     9
100
AcDb2dPolyline
 66
     1
 10
0.0
 20
0.0
 30
0.0
  0
VERTEX
  5
D1
330
D0
100
AcDbEntity
  8
_U+30EC_U+30A4_U+30E4_U+30FC 1
 62
     7
420
 16777215
370
     9
100
AcDbVertex
100
AcDb2dVertex
 10
79.11729381488301
 20
-137.4041927434269
 30
0.0
  0
VERTEX
  5
D2
330
D0
100
AcDbEntity
  8
_U+30EC_U+30A4_U+30E4_U+30FC 1
 62
     7
420
 16777215
370
     9
100
AcDbVertex
100
AcDb2dVertex
 10
79.11729381488301
 20
-140.8637432981176
 30
0.0
  0
SEQEND
  5
D3
330
D0
100
AcDbEntity
  8
_U+30EC_U+30A4_U+30E4_U+30FC 1
 62
     7
420
 16777215
370
     9
  0
POLYLINE
  5
D4
330
1F
100
AcDbEntity
  8
_U+30EC_U+30A4_U+30E4_U+30FC 1
 62
     7
420
 16777215
370
     9
100
AcDb2dPolyline
 66
     1
 10
0.0
 20
0.0
 30
0.0
  0
VERTEX
  5
D5
330
D4
100
AcDbEntity
  8
_U+30EC_U+30A4_U+30E4_U+30FC 1
 62
     7
420
 16777215
370
     9
100
AcDbVertex
100
AcDb2dVertex
 10
92.11771903877009
 20
-137.4041927434269
 30
0.0
  0
VERTEX
  5
D6
330
D4
100
AcDbEntity
  8
_U+30EC_U+30A4_U+30E4_U+30FC 1
 62
     7
420
 16777215
370
     9
100
AcDbVertex
100
AcDb2dVertex
 10
92.11771903877009
 20
-140.8637432981176
 30
0.0
  0
SEQEND
  5
D7
330
D4
100
AcDbEntity
  8
_U+30EC_U+30A4_U+30E4_U+30FC 1
 62
     7
420
 16777215
370
     9
  0
INSERT
  5
D9
330
1F
100
AcDbEntity
  8
_U+30EC_U+30A4_U+30E4_U+30FC 1
100
AcDbBlockReference
  2
block 6
 10
0.0
 20
0.0
 30
0.0
  0
POLYLINE
  5
E0
330
1F
100
AcDbEntity
  8
_U+30EC_U+30A4_U+30E4_U+30FC 1
 62
     7
420
 16777215
370
     9
100
AcDb2dPolyline
 66
     1
 10
0.0
 20
0.0
 30
0.0
  0
VERTEX
  5
E1
330
E0
100
AcDbEntity
  8
_U+30EC_U+30A4_U+30E4_U+30FC 1
 62
     7
420
 16777215
370
     9
100
AcDbVertex
100
AcDb2dVertex
 10
96.11814838115508
 20
-134.8637694107283
 30
0.0
  0
VERTEX
  5
E2
330
E0
100
AcDbEntity
  8
_U+30EC_U+30A4_U+30E4_U+30FC 1
 62
     7
420
 16777215
370
     9
100
AcDbVertex
100
AcDb2dVertex
 10
96.11814838115508
 20
-128.3635566345758
 30
0.0
  0
SEQEND
  5
E3
330
E0
100
AcDbEntity
  8
_U+30EC_U+30A4_U+30E4_U+30FC 1
 62
     7
420
 16777215
370
     9
  0
POLYLINE
  5
E4
330
1F
100
AcDbEntity
  8
_U+30EC_U+30A4_U+30E4_U+30FC 1
 62
     7
420
 16777215
370
     9
100
AcDb2dPolyline
 66
     1
 10
0.0
 20
0.0
 30
0.0
  0
VERTEX
  5
E5
330
E4
100
AcDbEntity
  8
_U+30EC_U+30A4_U+30E4_U+30FC 1
 62
     7
420
 16777215
370
     9
100
AcDbVertex
100
AcDb2dVertex
 10
94.65743675175426
 20
-134.8637694107283
 30
0.0
  0
VERTEX
  5
E6
330
E4
100
AcDbEntity
  8
_U+30EC_U+30A4_U+30E4_U+30FC 1
 62
     7
420
 16777215
370
     9
100
AcDbVertex
100
AcDb2dVertex
 10
97.11792057787099
 20
-134.8637694107283
 30
0.0
  0
SEQEND
  5
E7
330
E4
100
AcDbEntity
  8
_U+30EC_U+30A4_U+30E4_U+30FC 1
 62
     7
420
 16777215
370
     9
  0
POLYLINE
  5
E8
330
1F
100
AcDbEntity
  8
_U+30EC_U+30A4_U+30E4_U+30FC 1
 62
     7
420
 16777215
370
     9
100
AcDb2dPolyline
 66
     1
 10
0.0
 20
0.0
 30
0.0
  0
VERTEX
  5
E9
330
E8
100
AcDbEntity
  8
_U+30EC_U+30A4_U+30E4_U+30FC 1
 62
     7
420
 16777215
370
     9
100
AcDbVertex
100
AcDb2dVertex
 10
94.65743675175426
 20
-128.3635566345758
 30
0.0
  0
VERTEX
  5
EA
330
E8
100
AcDbEntity
  8
_U+30EC_U+30A4_U+30E4_U+30FC 1
 62
     7
420
 16777215
370
     9
100
AcDbVertex
100
AcDb2dVertex
 10
97.11792057787099
 20
-128.3635566345758
 30
0.0
  0
SEQEND
  5
EB
330
E8
100
AcDbEntity
  8
_U+30EC_U+30A4_U+30E4_U+30FC 1
 62
     7
420
 16777215
370
     9
  0
INSERT
  5
ED
330
1F
100
AcDbEntity
  8
_U+30EC_U+30A4_U+30E4_U+30FC 1
100
AcDbBlockReference
  2
block 7
 10
0.0
 20
0.0
 30
0.0
  0
POLYLINE
  5
FD
330
1F
100
AcDbEntity
  8
_U+30EC_U+30A4_U+30E4_U+30FC 1
 62
   179
420
  2234388
370
     9
100
AcDb2dPolyline
 66
     1
 10
0.0
 20
0.0
 30
0.0
  0
VERTEX
  5
FE
330
FD
100
AcDbEntity
  8
_U+30EC_U+30A4_U+30E4_U+30FC 1
 62
   179
420
  2234388
370
     9
100
AcDbVertex
100
AcDb2dVertex
 10
92.43190291964348
 20
-136.6011294102941
 30
0.0
  0
VERTEX
  5
FF
330
FD
100
AcDbEntity
  8
_U+30EC_U+30A4_U+30E4_U+30FC 1
 62
   179
420
  2234388
370
     9
100
AcDbVertex
100
AcDb2dVertex
 10
94.43074175753773
 20
-139.4078646873701
 30
0.0
  0
VERTEX
  5
100
330
FD
100
AcDbEntity
  8
_U+30EC_U+30A4_U+30E4_U+30FC 1
 62
   179
420
  2234388
370
     9
100
AcDbVertex
100
AcDb2dVertex
 10
110.790810784602
 20
-139.4078646873701
 30
0.0
  0
SEQEND
  5
101
330
FD
100
AcDbEntity
  8
_U+30EC_U+30A4_U+30E4_U+30FC 1
 62
   179
420
  2234388
370
     9
  0
INSERT
  5
103
330
1F
100
AcDbEntity
  8
_U+30EC_U+30A4_U+30E4_U+30FC 1
100
AcDbBlockReference
  2
block 8
 10
0.0
 20
0.0
 30
0.0
  0
ENDSEC
  0
SECTION
  2
OBJECTS
  0
DICTIONARY
  5
C
330
0
100
AcDbDictionary
281
     1
  3
ACAD_GROUP
350
D
  3
ACAD_LAYOUT
350
1A
  3
ACAD_MATERIAL
350
3B
  3
ACAD_MLEADERSTYLE
350
141
  3
ACAD_MLINESTYLE
350
17
  3
ACAD_PLOTSETTINGS
350
19
  3
ACAD_PLOTSTYLENAME
350
E
  3
ACAD_TABLESTYLE
350
140
  3
ACAD_VISUALSTYLE
350
2A
  0
SUN
  5
3F
330
29
100
AcDbSun
 90
        1
290
     0
 63
     7
421
 16777215
 40
1.0
291
     1
 91
  2455826
 92
 54000000
292
     0
 70
     2
 71
   256
280
     1
  0
DICTIONARY
  5
D
102
{ACAD_REACTORS
330
C
102
}
330
C
100
AcDbDictionary
281
     1
  0
DICTIONARY
  5
1A
102
{ACAD_REACTORS
330
C
102
}
330
C
100
AcDbDictionary
281
     1
  3
Layout1
350
1E
  3
Layout2
350
26
  3
Model
350
22
  0
DICTIONARY
  5
3B
102
{ACAD_REACTORS
330
C
102
}
330
C
100
AcDbDictionary
281
     1
  3
ByBlock
350
3D
  3
ByLayer
350
3C
  3
Global
350
3E
  0
DICTIONARY
  5
141
102
{ACAD_REACTORS
330
C
102
}
330
C
100
AcDbDictionary
281
     1
  0
DICTIONARY
  5
17
102
{ACAD_REACTORS
330
C
102
}
330
C
100
AcDbDictionary
281
     1
  3
Standard
350
18
  0
DICTIONARY
  5
19
102
{ACAD_REACTORS
330
C
102
}
330
C
100
AcDbDictionary
281
     1
  0
ACDBDICTIONARYWDFLT
  5
E
102
{ACAD_REACTORS
330
C
102
}
330
C
100
AcDbDictionary
281
     1
  3
Normal
350
F
100
AcDbDictionaryWithDefault
340
F
  0
DICTIONARY
  5
140
102
{ACAD_REACTORS
330
C
102
}
330
C
100
AcDbDictionary
281
     1
  0
DICTIONARY
  5
2A
102
{ACAD_REACTORS
330
C
102
}
330
C
100
AcDbDictionary
281
     1
  3
2dWireframe
350
2F
  3
3D Hidden
350
31
  3
3dWireframe
350
30
  3
Basic
350
32
  3
Brighten
350
36
  3
ColorChange
350
3A
  3
Conceptual
350
34
  3
Dim
350
35
  3
Facepattern
350
39
  3
Flat
350
2B
  3
FlatWithEdges
350
2C
  3
Gouraud
350
2D
  3
GouraudWithEdges
350
2E
  3
Linepattern
350
38
  3
Realistic
350
33
  3
Thicken
350
37
  0
LAYOUT
  5
1E
102
{ACAD_REACTORS
330
1A
102
}
330
1A
100
AcDbPlotSettings
  1

  2
none_device
  4

  6

 40
0.0
 41
0.0
 42
0.0
 43
0.0
 44
0.0
 45
0.0
 46
0.0
 47
0.0
 48
0.0
 49
0.0
140
0.0
141
0.0
142
1.0
143
1.0
 70
   688
 72
     0
 73
     0
 74
     5
  7

 75
    16
 76
     0
 77
     2
 78
   300
147
1.0
148
0.0
149
0.0
100
AcDbLayout
  1
Layout1
 70
     1
 71
     1
 10
0.0
 20
0.0
 11
12.0
 21
9.0
 12
0.0
 22
0.0
 32
0.0
 14
1.000000000000000E+20
 24
1.000000000000000E+20
 34
1.000000000000000E+20
 15
-1.000000000000000E+20
 25
-1.000000000000000E+20
 35
-1.000000000000000E+20
146
0.0
 13
0.0
 23
0.0
 33
0.0
 16
1.0
 26
0.0
 36
0.0
 17
0.0
 27
1.0
 37
0.0
 76
     0
330
1B
  0
LAYOUT
  5
26
102
{ACAD_REACTORS
330
1A
102
}
330
1A
100
AcDbPlotSettings
  1

  2
none_device
  4

  6

 40
0.0
 41
0.0
 42
0.0
 43
0.0
 44
0.0
 45
0.0
 46
0.0
 47
0.0
 48
0.0
 49
0.0
140
0.0
141
0.0
142
1.0
143
1.0
 70
   688
 72
     0
 73
     0
 74
     5
  7

 75
    16
 76
     0
 77
     2
 78
   300
147
1.0
148
0.0
149
0.0
100
AcDbLayout
  1
Layout2
 70
     1
 71
     2
 10
0.0
 20
0.0
 11
0.0
 21
0.0
 12
0.0
 22
0.0
 32
0.0
 14
0.0
 24
0.0
 34
0.0
 15
0.0
 25
0.0
 35
0.0
146
0.0
 13
0.0
 23
0.0
 33
0.0
 16
1.0
 26
0.0
 36
0.0
 17
0.0
 27
1.0
 37
0.0
 76
     0
330
23
  0
LAYOUT
  5
22
102
{ACAD_REACTORS
330
1A
102
}
330
1A
100
AcDbPlotSettings
  1

  2
none_device
  4

  6

 40
0.0
 41
0.0
 42
0.0
 43
0.0
 44
0.0
 45
0.0
 46
0.0
 47
0.0
 48
0.0
 49
0.0
140
0.0
141
0.0
142
1.0
143
1.0
 70
  1712
 72
     0
 73
     0
 74
     0
  7

 75
     0
 76
     0
 77
     2
 78
   300
147
1.0
148
0.0
149
0.0
100
AcDbLayout
  1
Model
 70
     1
 71
     0
 10
0.0
 20
0.0
 11
12.0
 21
9.0
 12
0.0
 22
0.0
 32
0.0
 14
1.000000000000000E+20
 24
1.000000000000000E+20
 34
1.000000000000000E+20
 15
-1.000000000000000E+20
 25
-1.000000000000000E+20
 35
-1.000000000000000E+20
146
0.0
 13
0.0
 23
0.0
 33
0.0
 16
1.0
 26
0.0
 36
0.0
 17
0.0
 27
1.0
 37
0.0
 76
     0
330
1F
331
29
  0
MATERIAL
  5
3D
102
{ACAD_REACTORS
330
3B
102
}
330
3B
100
AcDbMaterial
  1
ByBlock
 72
     1
 94
      127
  0
MATERIAL
  5
3C
102
{ACAD_REACTORS
330
3B
102
}
330
3B
100
AcDbMaterial
  1
ByLayer
 72
     1
 94
      127
  0
MATERIAL
  5
3E
102
{ACAD_REACTORS
330
3B
102
}
330
3B
100
AcDbMaterial
  1
Global
 72
     1
 94
      127
  0
MLINESTYLE
  5
18
102
{ACAD_REACTORS
330
17
102
}
330
17
100
AcDbMlineStyle
  2
Standard
 70
     0
  3

 62
   256
 51
90.0
 52
90.0
 71
     2
 49
0.5
 62
   256
  6
BYLAYER
 49
-0.5
 62
   256
  6
BYLAYER
  0
ACDBPLACEHOLDER
  5
F
102
{ACAD_REACTORS
330
E
102
}
330
E
  0
VISUALSTYLE
  5
2F
102
{ACAD_REACTORS
330
2A
102
}
330
2A
100
AcDbVisualStyle
  2
2dWireframe
 70
     4
177
     2
291
     0
 71
     0
176
     1
 72
     2
176
     1
 73
     0
176
     1
 90
        0
176
     1
 40
-0.6
176
     1
 41
-30.0
176
     1
 62
     5
 63
     7
421
 16777215
176
     1
 74
     1
176
     1
 91
        4
176
     1
 64
     7
176
     1
 65
   257
176
     1
 75
     1
176
     1
175
     1
176
     1
 42
1.0
176
     1
 92
        0
176
     1
 66
   257
176
     1
 43
1.0
176
     1
 76
     1
176
     1
 77
     6
176
     1
 78
     2
176
     1
 67
     7
176
     1
 79
     5
176
     1
170
     0
176
     1
171
     0
176
     1
290
     0
176
     1
 93
        1
176
     1
 44
0.0
176
     1
173
     0
176
     1
  0
VISUALSTYLE
  5
31
102
{ACAD_REACTORS
330
2A
102
}
330
2A
100
AcDbVisualStyle
  2
3D Hidden
 70
     6
177
     2
291
     0
 71
     1
176
     1
 72
     2
176
     1
 73
     2
176
     1
 90
        0
176
     1
 40
-0.6
176
     1
 41
-30.0
176
     1
 62
     5
 63
     7
421
 16777215
176
     1
 74
     2
176
     1
 91
        2
176
     1
 64
     7
176
     1
 65
   257
176
     1
 75
     2
176
     1
175
     1
176
     1
 42
40.0
176
     1
 92
        0
176
     1
 66
   257
176
     1
 43
1.0
176
     1
 76
     1
176
     1
 77
     6
176
     1
 78
     2
176
     1
 67
     7
176
     1
 79
     3
176
     1
170
     0
176
     1
171
     0
176
     1
290
     0
176
     1
 93
        1
176
     1
 44
0.0
176
     1
173
     0
176
     1
  0
VISUALSTYLE
  5
30
102
{ACAD_REACTORS
330
2A
102
}
330
2A
100
AcDbVisualStyle
  2
3dWireframe
 70
     5
177
     2
291
     0
 71
     0
176
     1
 72
     2
176
     1
 73
     0
176
     1
 90
        0
176
     1
 40
-0.6
176
     1
 41
-30.0
176
     1
 62
     5
 63
     7
421
 16777215
176
     1
 74
     1
176
     1
 91
        4
176
     1
 64
     7
176
     1
 65
   257
176
     1
 75
     1
176
     1
175
     1
176
     1
 42
1.0
176
     1
 92
        0
176
     1
 66
   257
176
     1
 43
1.0
176
     1
 76
     1
176
     1
 77
     6
176
     1
 78
     2
176
     1
 67
     7
176
     1
 79
     5
176
     1
170
     0
176
     1
171
     0
176
     1
290
     0
176
     1
 93
        1
176
     1
 44
0.0
176
     1
173
     0
176
     1
  0
VISUALSTYLE
  5
32
102
{ACAD_REACTORS
330
2A
102
}
330
2A
100
AcDbVisualStyle
  2
Basic
 70
     7
177
     2
291
     1
 71
     1
176
     1
 72
     0
176
     1
 73
     1
176
     1
 90
        0
176
     1
 40
-0.6
176
     1
 41
-30.0
176
     1
 62
     5
 63
     7
421
 16777215
176
     1
 74
     0
176
     1
 91
        4
176
     1
 64
     7
176
     1
 65
   257
176
     1
 75
     1
176
     1
175
     1
176
     1
 42
1.0
176
     1
 92
        8
176
     1
 66
     7
176
     1
 43
1.0
176
     1
 76
     1
176
     1
 77
     6
176
     1
 78
     2
176
     1
 67
     7
176
     1
 79
     5
176
     1
170
     0
176
     1
171
     0
176
     1
290
     0
176
     1
 93
        1
176
     1
 44
0.0
176
     1
173
     0
176
     1
  0
VISUALSTYLE
  5
36
102
{ACAD_REACTORS
330
2A
102
}
330
2A
100
AcDbVisualStyle
  2
Brighten
 70
    12
177
     2
291
     1
 71
     2
176
     1
 72
     2
176
     1
 73
     0
176
     1
 90
        0
176
     1
 40
-0.6
176
     1
 41
-30.0
176
     1
 62
     5
 63
     7
421
 16777215
176
     1
 74
     1
176
     1
 91
        4
176
     1
 64
     7
176
     1
 65
   257
176
     1
 75
     1
176
     1
175
     1
176
     1
 42
1.0
176
     1
 92
        8
176
     1
 66
     7
176
     1
 43
1.0
176
     1
 76
     1
176
     1
 77
     6
176
     1
 78
     2
176
     1
 67
     7
176
     1
 79
     5
176
     1
170
     0
176
     1
171
     0
176
     1
290
     0
176
     1
 93
        1
176
     1
 44
50.0
176
     1
173
     0
176
     1
  0
VISUALSTYLE
  5
3A
102
{ACAD_REACTORS
330
2A
102
}
330
2A
100
AcDbVisualStyle
  2
ColorChange
 70
    16
177
     2
291
     1
 71
     2
176
     1
 72
     2
176
     1
 73
     3
176
     1
 90
        0
176
     1
 40
-0.6
176
     1
 41
-30.0
176
     1
 62
     5
 63
     8
421
  8421504
176
     1
 74
     1
176
     1
 91
        4
176
     1
 64
     7
176
     1
 65
   257
176
     1
 75
     1
176
     1
175
     1
176
     1
 42
1.0
176
     1
 92
        8
176
     1
 66
     8
424
  8421504
176
     1
 43
1.0
176
     1
 76
     1
176
     1
 77
     6
176
     1
 78
     2
176
     1
 67
     7
176
     1
 79
     5
176
     1
170
     0
176
     1
171
     0
176
     1
290
     0
176
     1
 93
        1
176
     1
 44
0.0
176
     1
173
     0
176
     1
  0
VISUALSTYLE
  5
34
102
{ACAD_REACTORS
330
2A
102
}
330
2A
100
AcDbVisualStyle
  2
Conceptual
 70
     9
177
     2
291
     0
 71
     3
176
     1
 72
     2
176
     1
 73
     0
176
     1
 90
        0
176
     1
 40
-0.6
176
     1
 41
-30.0
176
     1
 62
     5
 63
     7
421
 16777215
176
     1
 74
     2
176
     1
 91
        2
176
     1
 64
     7
176
     1
 65
   257
176
     1
 75
     1
176
     1
175
     1
176
     1
 42
40.0
176
     1
 92
        8
176
     1
 66
     7
176
     1
 43
1.0
176
     1
 76
     1
176
     1
 77
     6
176
     1
 78
     2
176
     1
 67
     7
176
     1
 79
     3
176
     1
170
     0
176
     1
171
     0
176
     1
290
     0
176
     1
 93
        1
176
     1
 44
0.0
176
     1
173
     0
176
     1
  0
VISUALSTYLE
  5
35
102
{ACAD_REACTORS
330
2A
102
}
330
2A
100
AcDbVisualStyle
  2
Dim
 70
    11
177
     2
291
     1
 71
     2
176
     1
 72
     2
176
     1
 73
     0
176
     1
 90
        0
176
     1
 40
-0.6
176
     1
 41
-30.0
176
     1
 62
     5
 63
     7
421
 16777215
176
     1
 74
     1
176
     1
 91
        4
176
     1
 64
     7
176
     1
 65
   257
176
     1
 75
     1
176
     1
175
     1
176
     1
 42
1.0
176
     1
 92
        8
176
     1
 66
     7
176
     1
 43
1.0
176
     1
 76
     1
176
     1
 77
     6
176
     1
 78
     2
176
     1
 67
     7
176
     1
 79
     5
176
     1
170
     0
176
     1
171
     0
176
     1
290
     0
176
     1
 93
        1
176
     1
 44
-50.0
176
     1
173
     0
176
     1
  0
VISUALSTYLE
  5
39
102
{ACAD_REACTORS
330
2A
102
}
330
2A
100
AcDbVisualStyle
  2
Facepattern
 70
    15
177
     2
291
     1
 71
     2
176
     1
 72
     2
176
     1
 73
     0
176
     1
 90
        0
176
     1
 40
-0.6
176
     1
 41
-30.0
176
     1
 62
     5
 63
     7
421
 16777215
176
     1
 74
     1
176
     1
 91
        4
176
     1
 64
     7
176
     1
 65
   257
176
     1
 75
     1
176
     1
175
     1
176
     1
 42
1.0
176
     1
 92
        8
176
     1
 66
     7
176
     1
 43
1.0
176
     1
 76
     1
176
     1
 77
     6
176
     1
 78
     2
176
     1
 67
     7
176
     1
 79
     5
176
     1
170
     0
176
     1
171
     0
176
     1
290
     0
176
     1
 93
        1
176
     1
 44
0.0
176
     1
173
     0
176
     1
  0
VISUALSTYLE
  5
2B
102
{ACAD_REACTORS
330
2A
102
}
330
2A
100
AcDbVisualStyle
  2
Flat
 70
     0
177
     2
291
     1
 71
     2
176
     1
 72
     1
176
     1
 73
     1
176
     1
 90
        2
176
     1
 40
-0.6
176
     1
 41
30.0
176
     1
 62
     5
 63
     7
421
 16777215
176
     1
 74
     0
176
     1
 91
        4
176
     1
 64
     7
176
     1
 65
   257
176
     1
 75
     1
176
     1
175
     1
176
     1
 42
1.0
176
     1
 92
        8
176
     1
 66
     7
176
     1
 43
1.0
176
     1
 76
     1
176
     1
 77
     6
176
     1
 78
     2
176
     1
 67
     7
176
     1
 79
     5
176
     1
170
     0
176
     1
171
     0
176
     1
290
     0
176
     1
 93
       13
176
     1
 44
0.0
176
     1
173
     0
176
     1
  0
VISUALSTYLE
  5
2C
102
{ACAD_REACTORS
330
2A
102
}
330
2A
100
AcDbVisualStyle
  2
FlatWithEdges
 70
     1
177
     2
291
     1
 71
     2
176
     1
 72
     1
176
     1
 73
     1
176
     1
 90
        2
176
     1
 40
-0.6
176
     1
 41
30.0
176
     1
 62
     5
 63
     7
421
 16777215
176
     1
 74
     1
176
     1
 91
        4
176
     1
 64
     7
176
     1
 65
   257
176
     1
 75
     1
176
     1
175
     1
176
     1
 42
1.0
176
     1
 92
        0
176
     1
 66
   257
176
     1
 43
1.0
176
     1
 76
     1
176
     1
 77
     6
176
     1
 78
     2
176
     1
 67
     7
176
     1
 79
     5
176
     1
170
     0
176
     1
171
     0
176
     1
290
     0
176
     1
 93
       13
176
     1
 44
0.0
176
     1
173
     0
176
     1
  0
VISUALSTYLE
  5
2D
102
{ACAD_REACTORS
330
2A
102
}
330
2A
100
AcDbVisualStyle
  2
Gouraud
 70
     2
177
     2
291
     1
 71
     2
176
     1
 72
     2
176
     1
 73
     1
176
     1
 90
        2
176
     1
 40
-0.6
176
     1
 41
30.0
176
     1
 62
     5
 63
     7
421
 16777215
176
     1
 74
     0
176
     1
 91
        4
176
     1
 64
     7
176
     1
 65
   257
176
     1
 75
     1
176
     1
175
     1
176
     1
 42
1.0
176
     1
 92
        0
176
     1
 66
     7
176
     1
 43
1.0
176
     1
 76
     1
176
     1
 77
     6
176
     1
 78
     2
176
     1
 67
     7
176
     1
 79
     5
176
     1
170
     0
176
     1
171
     0
176
     1
290
     0
176
     1
 93
       13
176
     1
 44
0.0
176
     1
173
     0
176
     1
  0
VISUALSTYLE
  5
2E
102
{ACAD_REACTORS
330
2A
102
}
330
2A
100
AcDbVisualStyle
  2
GouraudWithEdges
 70
     3
177
     2
291
     1
 71
     2
176
     1
 72
     2
176
     1
 73
     1
176
     1
 90
        2
176
     1
 40
-0.6
176
     1
 41
30.0
176
     1
 62
     5
 63
     7
421
 16777215
176
     1
 74
     1
176
     1
 91
        4
176
     1
 64
     7
176
     1
 65
   257
176
     1
 75
     1
176
     1
175
     1
176
     1
 42
1.0
176
     1
 92
        0
176
     1
 66
   257
176
     1
 43
1.0
176
     1
 76
     1
176
     1
 77
     6
176
     1
 78
     2
176
     1
 67
     7
176
     1
 79
     5
176
     1
170
     0
176
     1
171
     0
176
     1
290
     0
176
     1
 93
       13
176
     1
 44
0.0
176
     1
173
     0
176
     1
  0
VISUALSTYLE
  5
38
102
{ACAD_REACTORS
330
2A
102
}
330
2A
100
AcDbVisualStyle
  2
Linepattern
 70
    14
177
     2
291
     1
 71
     2
176
     1
 72
     2
176
     1
 73
     0
176
     1
 90
        0
176
     1
 40
-0.6
176
     1
 41
-30.0
176
     1
 62
     5
 63
     7
421
 16777215
176
     1
 74
     1
176
     1
 91
        4
176
     1
 64
     7
176
     1
 65
   257
176
     1
 75
     7
176
     1
175
     7
176
     1
 42
1.0
176
     1
 92
        8
176
     1
 66
     7
176
     1
 43
1.0
176
     1
 76
     1
176
     1
 77
     6
176
     1
 78
     2
176
     1
 67
     7
176
     1
 79
     5
176
     1
170
     0
176
     1
171
     0
176
     1
290
     0
176
     1
 93
        1
176
     1
 44
0.0
176
     1
173
     0
176
     1
  0
VISUALSTYLE
  5
33
102
{ACAD_REACTORS
330
2A
102
}
330
2A
100
AcDbVisualStyle
  2
Realistic
 70
     8
177
     2
291
     0
 71
     2
176
     1
 72
     2
176
     1
 73
     0
176
     1
 90
        0
176
     1
 40
-0.6
176
     1
 41
-30.0
176
     1
 62
     5
 63
     7
421
 16777215
176
     1
 74
     1
176
     1
 91
        0
176
     1
 64
     7
176
     1
 65
   257
176
     1
 75
     1
176
     1
175
     1
176
     1
 42
1.0
176
     1
 92
        8
176
     1
 66
     8
424
  7895160
176
     1
 43
1.0
176
     1
 76
     1
176
     1
 77
     6
176
     1
 78
     2
176
     1
 67
     7
176
     1
 79
     5
176
     1
170
     0
176
     1
171
     0
176
     1
290
     0
176
     1
 93
       13
176
     1
 44
0.0
176
     1
173
     0
176
     1
  0
VISUALSTYLE
  5
37
102
{ACAD_REACTORS
330
2A
102
}
330
2A
100
AcDbVisualStyle
  2
Thicken
 70
    13
177
     2
291
     1
 71
     2
176
     1
 72
     2
176
     1
 73
     0
176
     1
 90
        0
176
     1
 40
-0.6
176
     1
 41
-30.0
176
     1
 62
     5
 63
     7
421
 16777215
176
     1
 74
     1
176
     1
 91
        4
176
     1
 64
     7
176
     1
 65
   257
176
     1
 75
     1
176
     1
175
     1
176
     1
 42
1.0
176
     1
 92
       12
176
     1
 66
     7
176
     1
 43
1.0
176
     1
 76
     1
176
     1
 77
     6
176
     1
 78
     2
176
     1
 67
     7
176
     1
 79
     5
176
     1
170
     0
176
     1
171
     0
176
     1
290
     0
176
     1
 93
        1
176
     1
 44
0.0
176
     1
173
     0
176
     1
  0
ENDSEC
  0
EOF
