  0
SECTION
  2
HEADER
  9
$ACADVER
  1
AC1024
  9
$ACADMAINTVER
 70
     6
  9
$DWGCODEPAGE
  3
UNDEFINED
  9
$INSBASE
 10
0.0
 20
0.0
 30
0.0
  9
$EXTMIN
 10
1.000000000000000E+20
 20
1.000000000000000E+20
 30
1.000000000000000E+20
  9
$EXTMAX
 10
-1.000000000000000E+20
 20
-1.000000000000000E+20
 30
-1.000000000000000E+20
  9
$LIMMIN
 10
0.0
 20
0.0
  9
$LIMMAX
 10
12.0
 20
9.0
  9
$ORTHOMODE
 70
     0
  9
$REGENMODE
 70
     1
  9
$FILLMODE
 70
     1
  9
$QTEXTMODE
 70
     0
  9
$MIRRTEXT
 70
     1
  9
$LTSCALE
 40
1.0
  9
$ATTMODE
 70
     1
  9
$TEXTSIZE
 40
0.2
  9
$TRACEWID
 40
0.05
  9
$TEXTSTYLE
  7
Standard
  9
$CLAYER
  8
0
  9
$CELTYPE
  6
ByLayer
  9
$CECOLOR
 62
   256
  9
$CELTSCALE
 40
1.0
  9
$DISPSILH
 70
     0
  9
$DIMSCALE
 40
1.0
  9
$DIMASZ
 40
0.18
  9
$DIMEXO
 40
0.0625
  9
$DIMDLI
 40
0.38
  9
$DIMRND
 40
0.0
  9
$DIMDLE
 40
0.0
  9
$DIMEXE
 40
0.18
  9
$DIMTP
 40
0.0
  9
$DIMTM
 40
0.0
  9
$DIMTXT
 40
0.18
  9
$DIMCEN
 40
0.09
  9
$DIMTSZ
 40
0.0
  9
$DIMTOL
 70
     0
  9
$DIMLIM
 70
     0
  9
$DIMTIH
 70
     1
  9
$DIMTOH
 70
     1
  9
$DIMSE1
 70
     0
  9
$DIMSE2
 70
     0
  9
$DIMTAD
 70
     0
  9
$DIMZIN
 70
     0
  9
$DIMBLK
  1

  9
$DIMASO
 70
     1
  9
$DIMSHO
 70
     1
  9
$DIMPOST
  1

  9
$DIMAPOST
  1

  9
$DIMALT
 70
     0
  9
$DIMALTD
 70
     2
  9
$DIMALTF
 40
25.4
  9
$DIMLFAC
 40
1.0
  9
$DIMTOFL
 70
     0
  9
$DIMTVP
 40
0.0
  9
$DIMTIX
 70
     0
  9
$DIMSOXD
 70
     0
  9
$DIMSAH
 70
     0
  9
$DIMBLK1
  1

  9
$DIMBLK2
  1

  9
$DIMSTYLE
  2
Standard
  9
$DIMCLRD
 70
     0
  9
$DIMCLRE
 70
     0
  9
$DIMCLRT
 70
     0
  9
$DIMTFAC
 40
1.0
  9
$DIMGAP
 40
0.09
  9
$DIMJUST
 70
     0
  9
$DIMSD1
 70
     0
  9
$DIMSD2
 70
     0
  9
$DIMTOLJ
 70
     1
  9
$DIMTZIN
 70
     0
  9
$DIMALTZ
 70
     0
  9
$DIMALTTZ
 70
     0
  9
$DIMUPT
 70
     0
  9
$DIMDEC
 70
     4
  9
$DIMTDEC
 70
     4
  9
$DIMALTU
 70
     2
  9
$DIMALTTD
 70
     2
  9
$DIMTXSTY
  7
Standard
  9
$DIMAUNIT
 70
     0
  9
$DIMADEC
 70
     0
  9
$DIMALTRND
 40
0.0
  9
$DIMAZIN
 70
     0
  9
$DIMDSEP
 70
    46
  9
$DIMATFIT
 70
     3
  9
$DIMFRAC
 70
     0
  9
$DIMLDRBLK
  1

  9
$DIMLUNIT
 70
     2
  9
$DIMLWD
 70
    -2
  9
$DIMLWE
 70
    -2
  9
$DIMTMOVE
 70
     0
  9
$DIMFXL
 40
1.0
  9
$DIMFXLON
 70
     0
  9
$DIMJOGANG
 40
0.7853981633974483
  9
$DIMTFILL
 70
     0
  9
$DIMTFILLCLR
 70
     0
  9
$DIMARCSYM
 70
     0
  9
$DIMLTYPE
  6

  9
$DIMLTEX1
  6

  9
$DIMLTEX2
  6

  9
$DIMTXTDIRECTION
 70
     0
  9
$LUNITS
 70
     2
  9
$LUPREC
 70
     4
  9
$SKETCHINC
 40
0.1
  9
$FILLETRAD
 40
0.5
  9
$AUNITS
 70
     0
  9
$AUPREC
 70
     0
  9
$MENU
  1
.
  9
$ELEVATION
 40
0.0
  9
$PELEVATION
 40
0.0
  9
$THICKNESS
 40
0.0
  9
$LIMCHECK
 70
     0
  9
$CHAMFERA
 40
0.5
  9
$CHAMFERB
 40
0.5
  9
$CHAMFERC
 40
1.0
  9
$CHAMFERD
 40
0.0
  9
$SKPOLY
 70
     0
  9
$TDCREATE
 40
2457917.599583333
  9
$TDUCREATE
 40
2457917.224583333
  9
$TDUPDATE
 40
2457917.599583333
  9
$TDUUPDATE
 40
2457917.224583333
  9
$TDINDWG
 40
0.0000000116
  9
$TDUSRTIMER
 40
0.0000000116
  9
$USRTIMER
 70
     1
  9
$ANGBASE
 50
0.0
  9
$ANGDIR
 70
     0
  9
$PDMODE
 70
     0
  9
$PDSIZE
 40
0.0
  9
$PLINEWID
 40
0.0
  9
$SPLFRAME
 70
     0
  9
$SPLINETYPE
 70
     6
  9
$SPLINESEGS
 70
     8
  9
$HANDSEED
  5
141
  9
$SURFTAB1
 70
     6
  9
$SURFTAB2
 70
     6
  9
$SURFTYPE
 70
     6
  9
$SURFU
 70
     6
  9
$SURFV
 70
     6
  9
$UCSBASE
  2

  9
$UCSNAME
  2

  9
$UCSORG
 10
0.0
 20
0.0
 30
0.0
  9
$UCSXDIR
 10
1.0
 20
0.0
 30
0.0
  9
$UCSYDIR
 10
0.0
 20
1.0
 30
0.0
  9
$UCSORTHOREF
  2

  9
$UCSORTHOVIEW
 70
     0
  9
$UCSORGTOP
 10
0.0
 20
0.0
 30
0.0
  9
$UCSORGBOTTOM
 10
0.0
 20
0.0
 30
0.0
  9
$UCSORGLEFT
 10
0.0
 20
0.0
 30
0.0
  9
$UCSORGRIGHT
 10
0.0
 20
0.0
 30
0.0
  9
$UCSORGFRONT
 10
0.0
 20
0.0
 30
0.0
  9
$UCSORGBACK
 10
0.0
 20
0.0
 30
0.0
  9
$PUCSBASE
  2

  9
$PUCSNAME
  2

  9
$PUCSORG
 10
0.0
 20
0.0
 30
0.0
  9
$PUCSXDIR
 10
1.0
 20
0.0
 30
0.0
  9
$PUCSYDIR
 10
0.0
 20
1.0
 30
0.0
  9
$PUCSORTHOREF
  2

  9
$PUCSORTHOVIEW
 70
     0
  9
$PUCSORGTOP
 10
0.0
 20
0.0
 30
0.0
  9
$PUCSORGBOTTOM
 10
0.0
 20
0.0
 30
0.0
  9
$PUCSORGLEFT
 10
0.0
 20
0.0
 30
0.0
  9
$PUCSORGRIGHT
 10
0.0
 20
0.0
 30
0.0
  9
$PUCSORGFRONT
 10
0.0
 20
0.0
 30
0.0
  9
$PUCSORGBACK
 10
0.0
 20
0.0
 30
0.0
  9
$USERI1
 70
     0
  9
$USERI2
 70
     0
  9
$USERI3
 70
     0
  9
$USERI4
 70
     0
  9
$USERI5
 70
     0
  9
$USERR1
 40
0.0
  9
$USERR2
 40
0.0
  9
$USERR3
 40
0.0
  9
$USERR4
 40
0.0
  9
$USERR5
 40
0.0
  9
$WORLDVIEW
 70
     1
  9
$SHADEDGE
 70
     3
  9
$SHADEDIF
 70
    70
  9
$TILEMODE
 70
     1
  9
$MAXACTVP
 70
    64
  9
$PINSBASE
 10
0.0
 20
0.0
 30
0.0
  9
$PLIMCHECK
 70
     0
  9
$PEXTMIN
 10
1.000000000000000E+20
 20
1.000000000000000E+20
 30
1.000000000000000E+20
  9
$PEXTMAX
 10
-1.000000000000000E+20
 20
-1.000000000000000E+20
 30
-1.000000000000000E+20
  9
$PLIMMIN
 10
0.0
 20
0.0
  9
$PLIMMAX
 10
12.0
 20
9.0
  9
$UNITMODE
 70
     0
  9
$VISRETAIN
 70
     1
  9
$PLINEGEN
 70
     0
  9
$PSLTSCALE
 70
     1
  9
$TREEDEPTH
 70
  3020
  9
$CMLSTYLE
  2
Standard
  9
$CMLJUST
 70
     0
  9
$CMLSCALE
 40
1.0
  9
$PROXYGRAPHICS
 70
     1
  9
$MEASUREMENT
 70
     0
  9
$CELWEIGHT
370
    -1
  9
$ENDCAPS
280
     0
  9
$JOINSTYLE
280
     0
  9
$LWDISPLAY
290
     1
  9
$INSUNITS
 70
     1
  9
$HYPERLINKBASE
  1

  9
$STYLESHEET
  1

  9
$XEDIT
290
     1
  9
$CEPSNTYPE
380
     0
  9
$PSTYLEMODE
290
     1
  9
$FINGERPRINTGUID
  2
{88D4475E-E38C-641D-9D60-1A630FFA5D01}
  9
$VERSIONGUID
  2
{FAEB1C32-E019-11D5-929B-00C0DF256EC4}
  9
$EXTNAMES
290
     1
  9
$PSVPSCALE
 40
0.0
  9
$OLESTARTUP
290
     0
  9
$SORTENTS
280
   127
  9
$INDEXCTL
280
     0
  9
$HIDETEXT
280
     1
  9
$XCLIPFRAME
280
     2
  9
$HALOGAP
280
     0
  9
$OBSCOLOR
 70
   257
  9
$OBSLTYPE
280
     0
  9
$INTERSECTIONDISPLAY
280
     0
  9
$INTERSECTIONCOLOR
 70
   257
  9
$DIMASSOC
280
     2
  9
$PROJECTNAME
  1

  9
$CAMERADISPLAY
290
     0
  9
$LENSLENGTH
 40
50.0
  9
$CAMERAHEIGHT
 40
0.0
  9
$STEPSPERSEC
 40
2.0
  9
$STEPSIZE
 40
6.0
  9
$3DDWFPREC
 40
2.0
  9
$PSOLWIDTH
 40
0.25
  9
$PSOLHEIGHT
 40
4.0
  9
$LOFTANG1
 40
1.570796326794897
  9
$LOFTANG2
 40
1.570796326794897
  9
$LOFTMAG1
 40
0.0
  9
$LOFTMAG2
 40
0.0
  9
$LOFTPARAM
 70
     7
  9
$LOFTNORMALS
280
     1
  9
$LATITUDE
 40
37.795
  9
$LONGITUDE
 40
-122.394
  9
$NORTHDIRECTION
 40
0.0
  9
$TIMEZONE
 70
 -8000
  9
$LIGHTGLYPHDISPLAY
280
     1
  9
$TILEMODELIGHTSYNCH
280
     1
  9
$CMATERIAL
347
3C
  9
$SOLIDHIST
280
     1
  9
$SHOWHIST
280
     1
  9
$DWFFRAME
280
     2
  9
$DGNFRAME
280
     2
  9
$REALWORLDSCALE
290
     1
  9
$INTERFERECOLOR
 62
   256
  9
$CSHADOW
280
     0
  9
$SHADOWPLANELOCATION
 40
0.0
  0
ENDSEC
  0
SECTION
  2
CLASSES
  0
CLASS
  1
ACDBDICTIONARYWDFLT
  2
AcDbDictionaryWithDefault
  3
ObjectDBX Classes
 90
        0
 91
        4
280
     0
281
     0
  0
CLASS
  1
VISUALSTYLE
  2
AcDbVisualStyle
  3
ObjectDBX Classes
 90
     4095
 91
        4
280
     0
281
     0
  0
CLASS
  1
MATERIAL
  2
AcDbMaterial
  3
ObjectDBX Classes
 90
     1153
 91
        4
280
     0
281
     0
  0
CLASS
  1
SUN
  2
AcDbSun
  3
SCENEOE
 90
     1024
 91
        4
280
     0
281
     0
  0
ENDSEC
  0
SECTION
  2
TABLES
  0
TABLE
  2
VPORT
  5
8
330
0
100
AcDbSymbolTable
 70
     1
  0
VPORT
  5
29
330
8
100
AcDbSymbolTableRecord
100
AcDbViewportTableRecord
  2
*Active
 70
     0
 10
0.0
 20
0.0
 11
1.0
 21
1.0
 12
0.0
 22
0.0
 13
0.0
 23
0.0
 14
0.5
 24
0.5
 15
0.5
 25
0.5
 16
0.0
 26
0.0
 36
1.0
 17
91.00082462281999
 27
-128.4993055234307
 37
0.0
 40
256.9986110468615
 41
0.7081814508812795
 42
50.0
 43
0.0
 44
0.0
 50
0.0
 51
0.0
 71
     0
 72
   100
 73
     1
 74
     3
 75
     0
 76
     0
 77
     0
 78
     0
281
     0
 65
     1
110
0.0
120
0.0
130
0.0
111
1.0
121
0.0
131
0.0
112
0.0
122
1.0
132
0.0
 79
     0
146
0.0
 60
     3
 61
     5
292
     1
282
     1
141
0.0
142
0.0
 63
   250
361
3F
  0
ENDTAB
  0
TABLE
  2
LTYPE
  5
5
330
0
100
AcDbSymbolTable
 70
     2
  0
LTYPE
  5
14
330
5
100
AcDbSymbolTableRecord
100
AcDbLinetypeTableRecord
  2
ByBlock
 70
     0
  3

 72
    65
 73
     0
 40
0.0
  0
LTYPE
  5
15
330
5
100
AcDbSymbolTableRecord
100
AcDbLinetypeTableRecord
  2
ByLayer
 70
     0
  3

 72
    65
 73
     0
 40
0.0
  0
LTYPE
  5
16
330
5
100
AcDbSymbolTableRecord
100
AcDbLinetypeTableRecord
  2
Continuous
 70
     0
  3
Solid line
 72
    65
 73
     0
 40
0.0
  0
LTYPE
  5
47
330
5
100
AcDbSymbolTableRecord
100
AcDbLinetypeTableRecord
  2
AI-Linetype-1
 70
     0
  3
Adobe Illustrator Linetype No. 1
 72
    65
 73
     2
 40
1.411111110758333
 49
0.7055555553791667
 74
     0
 49
-0.7055555553791667
 74
     0
  0
ENDTAB
  0
TABLE
  2
LAYER
  5
2
330
0
100
AcDbSymbolTable
 70
     2
  0
LAYER
  5
10
330
2
100
AcDbSymbolTableRecord
100
AcDbLayerTableRecord
  2
0
 70
     0
 62
     7
  6
Continuous
370
    -3
390
F
347
3E
  0
LAYER
  5
40
330
2
100
AcDbSymbolTableRecord
100
AcDbLayerTableRecord
  2
_U+30EC_U+30A4_U+30E4_U+30FC 1
 70
     0
 62
     7
  6
Continuous
370
    -3
390
F
347
3E
  0
ENDTAB
  0
TABLE
  2
STYLE
  5
3
330
0
100
AcDbSymbolTable
 70
     1
  0
STYLE
  5
11
330
3
100
AcDbSymbolTableRecord
100
AcDbTextStyleTableRecord
  2
Standard
 70
     0
 40
0.0
 41
1.0
 50
0.0
 71
     0
 42
0.2
  3
txt
  4

  0
ENDTAB
  0
TABLE
  2
VIEW
  5
6
330
0
100
AcDbSymbolTable
 70
     0
  0
ENDTAB
  0
TABLE
  2
UCS
  5
7
330
0
100
AcDbSymbolTable
 70
     0
  0
ENDTAB
  0
TABLE
  2
APPID
  5
9
330
0
100
AcDbSymbolTable
 70
     1
  0
APPID
  5
12
330
9
100
AcDbSymbolTableRecord
100
AcDbRegAppTableRecord
  2
ACAD
 70
     0
  0
ENDTAB
  0
TABLE
  2
DIMSTYLE
  5
A
330
0
100
AcDbSymbolTable
 70
     1
100
AcDbDimStyleTable
  0
DIMSTYLE
105
27
330
A
100
AcDbSymbolTableRecord
100
AcDbDimStyleTableRecord
  2
Standard
 70
     0
178
     0
340
11
  0
ENDTAB
  0
TABLE
  2
BLOCK_RECORD
  5
1
330
0
100
AcDbSymbolTable
 70
     8
  0
BLOCK_RECORD
  5
1F
330
1
100
AcDbSymbolTableRecord
100
AcDbBlockTableRecord
  2
*Model_Space
340
22
 70
     0
280
     1
281
     0
  0
BLOCK_RECORD
  5
1B
330
1
100
AcDbSymbolTableRecord
100
AcDbBlockTableRecord
  2
*Paper_Space
340
1E
 70
     0
280
     1
281
     0
  0
BLOCK_RECORD
  5
23
330
1
100
AcDbSymbolTableRecord
100
AcDbBlockTableRecord
  2
*Paper_Space0
340
26
 70
     0
280
     1
281
     0
  0
BLOCK_RECORD
  5
8B
330
1
100
AcDbSymbolTableRecord
100
AcDbBlockTableRecord
  2
block 2
340
0
102
{BLKREFS
331
8C
102
}
 70
     0
280
     1
281
     0
  0
BLOCK_RECORD
  5
A0
330
1
100
AcDbSymbolTableRecord
100
AcDbBlockTableRecord
  2
block 3
340
0
102
{BLKREFS
331
A1
102
}
 70
     0
280
     1
281
     0
  0
BLOCK_RECORD
  5
B0
330
1
100
AcDbSymbolTableRecord
100
AcDbBlockTableRecord
  2
block 4
340
0
102
{BLKREFS
331
B1
102
}
 70
     0
280
     1
281
     0
  0
BLOCK_RECORD
  5
C2
330
1
100
AcDbSymbolTableRecord
100
AcDbBlockTableRecord
  2
block 5
340
0
102
{BLKREFS
331
C3
102
}
 70
     0
280
     1
281
     0
  0
BLOCK_RECORD
  5
D7
330
1
100
AcDbSymbolTableRecord
100
AcDbBlockTableRecord
  2
block 6
340
0
102
{BLKREFS
331
D8
102
}
 70
     0
280
     1
281
     0
  0
BLOCK_RECORD
  5
EC
330
1
100
AcDbSymbolTableRecord
100
AcDbBlockTableRecord
  2
block 7
340
0
102
{BLKREFS
331
ED
102
}
 70
     0
280
     1
281
     0
  0
BLOCK_RECORD
  5
101
330
1
100
AcDbSymbolTableRecord
100
AcDbBlockTableRecord
  2
block 8
340
0
102
{BLKREFS
331
102
102
}
 70
     0
280
     1
281
     0
  0
ENDTAB
  0
ENDSEC
  0
SECTION
  2
BLOCKS
  0
BLOCK
  5
20
330
1F
100
AcDbEntity
  8
0
100
AcDbBlockBegin
  2
*Model_Space
 70
     0
 10
0.0
 20
0.0
 30
0.0
  3
*Model_Space
  1

  0
ENDBLK
  5
21
330
1F
100
AcDbEntity
  8
0
100
AcDbBlockEnd
  0
BLOCK
  5
1C
330
1B
100
AcDbEntity
 67
     1
  8
0
100
AcDbBlockBegin
  2
*Paper_Space
 70
     0
 10
0.0
 20
0.0
 30
0.0
  3
*Paper_Space
  1

  0
ENDBLK
  5
1D
330
1B
100
AcDbEntity
 67
     1
  8
0
100
AcDbBlockEnd
  0
BLOCK
  5
24
330
23
100
AcDbEntity
  8
0
100
AcDbBlockBegin
  2
*Paper_Space0
 70
     0
 10
0.0
 20
0.0
 30
0.0
  3
*Paper_Space0
  1

  0
ENDBLK
  5
25
330
23
100
AcDbEntity
  8
0
100
AcDbBlockEnd
  0
BLOCK
  5
8D
330
8B
100
AcDbEntity
  8
0
100
AcDbBlockBegin
  2
block 2
 70
     0
 10
0.0
 20
0.0
 30
0.0
  3
block 2
  1

  0
SPLINE
  5
8F
330
8B
100
AcDbEntity
  8
_U+30EC_U+30A4_U+30E4_U+30FC 1
370
     0
100
AcDbSpline
210
0.0
220
0.0
230
1.0
 70
    11
 71
     3
 72
    26
 73
    22
 74
     0
 42
0.0000000001
 43
0.0000000001
 12
1.0
 22
0.0
 32
0.0
 13
1.0
 23
0.0
 33
0.0
 40
0.0
 40
0.0
 40
0.0
 40
0.0
 40
1.0
 40
1.0
 40
1.0
 40
2.0
 40
2.0
 40
2.0
 40
3.0
 40
3.0
 40
3.0
 40
4.0
 40
4.0
 40
4.0
 40
5.0
 40
5.0
 40
5.0
 40
6.0
 40
6.0
 40
6.0
 40
7.0
 40
7.0
 40
7.0
 40
7.0
 10
73.21224092136708
 20
-137.3063476219234
 30
0.0
 10
73.21224092136708
 20
-137.3063476219234
 30
0.0
 10
73.21224092136708
 20
-136.2021945189009
 30
0.0
 10
73.21224092136708
 20
-136.2021945189009
 30
0.0
 10
73.21224092136708
 20
-136.2021945189009
 30
0.0
 10
72.8594631436775
 20
-136.2021945189009
 30
0.0
 10
72.8594631436775
 20
-136.2021945189009
 30
0.0
 10
72.8594631436775
 20
-136.2021945189009
 30
0.0
 10
72.8594631436775
 20
-136.0540554130351
 30
0.0
 10
72.8594631436775
 20
-136.0540554130351
 30
0.0
 10
73.2144802334325
 20
-136.0392415024485
 30
0.0
 10
73.26426186319435
 20
-135.8762884859962
 30
0.0
 10
73.29578448688439
 20
-135.7619113158859
 30
0.0
 10
73.29578448688439
 20
-135.7619113158859
 30
0.0
 10
73.45184731236621
 20
-135.7619113158859
 30
0.0
 10
73.45184731236621
 20
-135.7619113158859
 30
0.0
 10
73.45184731236621
 20
-135.7619113158859
 30
0.0
 10
73.45184731236621
 20
-137.3063476219234
 30
0.0
 10
73.45184731236621
 20
-137.3063476219234
 30
0.0
 10
73.45184731236621
 20
-137.3063476219234
 30
0.0
 10
73.21224092136708
 20
-137.3063476219234
 30
0.0
 10
73.21224092136708
 20
-137.3063476219234
 30
0.0
  0
HATCH
  5
90
330
8B
100
AcDbEntity
  8
_U+30EC_U+30A4_U+30E4_U+30FC 1
 62
     7
420
 16777215
100
AcDbHatch
 10
0.0
 20
0.0
 30
0.0
210
0.0
220
0.0
230
1.0
  2
SOLID
 70
     1
 71
     0
 91
        1
 92
        1
 93
        1
 72
     4
 94
        3
 73
     0
 74
     1
 95
       26
 96
       22
 40
0.0
 40
0.0
 40
0.0
 40
0.0
 40
1.0
 40
1.0
 40
1.0
 40
2.0
 40
2.0
 40
2.0
 40
3.0
 40
3.0
 40
3.0
 40
4.0
 40
4.0
 40
4.0
 40
5.0
 40
5.0
 40
5.0
 40
6.0
 40
6.0
 40
6.0
 40
7.0
 40
7.0
 40
7.0
 40
7.0
 10
73.21224092136708
 20
-137.3063476219234
 10
73.21224092136708
 20
-137.3063476219234
 10
73.21224092136708
 20
-136.2021945189009
 10
73.21224092136708
 20
-136.2021945189009
 10
73.21224092136708
 20
-136.2021945189009
 10
72.8594631436775
 20
-136.2021945189009
 10
72.8594631436775
 20
-136.2021945189009
 10
72.8594631436775
 20
-136.2021945189009
 10
72.8594631436775
 20
-136.0540554130351
 10
72.8594631436775
 20
-136.0540554130351
 10
73.2144802334325
 20
-136.0392415024485
 10
73.26426186319435
 20
-135.8762884859962
 10
73.29578448688439
 20
-135.7619113158859
 10
73.29578448688439
 20
-135.7619113158859
 10
73.45184731236621
 20
-135.7619113158859
 10
73.45184731236621
 20
-135.7619113158859
 10
73.45184731236621
 20
-135.7619113158859
 10
73.45184731236621
 20
-137.3063476219234
 10
73.45184731236621
 20
-137.3063476219234
 10
73.45184731236621
 20
-137.3063476219234
 10
73.21224092136708
 20
-137.3063476219234
 10
73.21224092136708
 20
-137.3063476219234
 97
        0
 97
        0
 75
     2
 76
     1
 98
        0
  0
SPLINE
  5
91
330
8B
100
AcDbEntity
  8
_U+30EC_U+30A4_U+30E4_U+30FC 1
370
     0
100
AcDbSpline
210
0.0
220
0.0
230
1.0
 70
    11
 71
     3
 72
    44
 73
    40
 74
     0
 42
0.0000000001
 43
0.0000000001
 12
1.0
 22
0.0
 32
0.0
 13
1.0
 23
0.0
 33
0.0
 40
0.0
 40
0.0
 40
0.0
 40
0.0
 40
1.0
 40
1.0
 40
1.0
 40
2.0
 40
2.0
 40
2.0
 40
3.0
 40
3.0
 40
3.0
 40
4.0
 40
4.0
 40
4.0
 40
5.0
 40
5.0
 40
5.0
 40
6.0
 40
6.0
 40
6.0
 40
7.0
 40
7.0
 40
7.0
 40
8.0
 40
8.0
 40
8.0
 40
9.0
 40
9.0
 40
9.0
 40
10.0
 40
10.0
 40
10.0
 40
11.0
 40
11.0
 40
11.0
 40
12.0
 40
12.0
 40
12.0
 40
13.0
 40
13.0
 40
13.0
 40
13.0
 10
75.07138669998216
 20
-137.3063476219234
 30
0.0
 10
75.04658201248836
 20
-137.2619058901637
 30
0.0
 10
75.0238443822857
 20
-137.2091959292394
 30
0.0
 10
75.0216050702203
 20
-136.9783745317276
 30
0.0
 10
75.01712644608948
 20
-136.735150790469
 30
0.0
 10
74.95390894393513
 20
-136.6652153521184
 30
0.0
 10
74.76391192792362
 20
-136.6652153521184
 30
0.0
 10
74.76391192792362
 20
-136.6652153521184
 30
0.0
 10
74.32759058471672
 20
-136.6652153521184
 30
0.0
 10
74.32759058471672
 20
-136.6652153521184
 30
0.0
 10
74.32759058471672
 20
-136.6652153521184
 30
0.0
 10
74.32759058471672
 20
-137.3063476219234
 30
0.0
 10
74.32759058471672
 20
-137.3063476219234
 30
0.0
 10
74.32759058471672
 20
-137.3063476219234
 30
0.0
 10
74.07661537861627
 20
-137.3063476219234
 30
0.0
 10
74.07661537861627
 20
-137.3063476219234
 30
0.0
 10
74.07661537861627
 20
-137.3063476219234
 30
0.0
 10
74.07661537861627
 20
-135.7619113158859
 30
0.0
 10
74.07661537861627
 20
-135.7619113158859
 30
0.0
 10
74.07661537861627
 20
-135.7619113158859
 30
0.0
 10
74.79784611845332
 20
-135.7619113158859
 30
0.0
 10
74.79784611845332
 20
-135.7619113158859
 30
0.0
 10
75.12564695387483
 20
-135.7619113158859
 30
0.0
 10
75.30427515478505
 20
-135.9334770710514
 30
0.0
 10
75.30427515478505
 20
-136.1894476656054
 30
0.0
 10
75.30427515478505
 20
-136.2400905692386
 30
0.0
 10
75.2953179065234
 20
-136.3227728608846
 30
0.0
 10
75.24777558882695
 20
-136.4030435856909
 30
0.0
 10
75.18438583189835
 20
-136.5067409597969
 30
0.0
 10
75.11445039354778
 20
-136.5256889849658
 30
0.0
 10
75.04882132455377
 20
-136.5425699528435
 30
0.0
 10
75.19575464699967
 20
-136.5849446273121
 30
0.0
 10
75.26810165218993
 20
-136.6335204736541
 30
0.0
 10
75.27258027632075
 20
-136.9487467105545
 30
0.0
 10
75.27705890045158
 20
-137.2195312156951
 30
0.0
 10
75.31564396988637
 20
-137.2512260941594
 30
0.0
 10
75.38799097507662
 20
-137.3063476219234
 30
0.0
 10
75.38799097507662
 20
-137.3063476219234
 30
0.0
 10
75.07138669998216
 20
-137.3063476219234
 30
0.0
 10
75.07138669998216
 20
-137.3063476219234
 30
0.0
  0
SPLINE
  5
92
330
8B
100
AcDbEntity
  8
_U+30EC_U+30A4_U+30E4_U+30FC 1
370
     0
100
AcDbSpline
210
0.0
220
0.0
230
1.0
 70
    11
 71
     3
 72
    20
 73
    16
 74
     0
 42
0.0000000001
 43
0.0000000001
 12
1.0
 22
0.0
 32
0.0
 13
1.0
 23
0.0
 33
0.0
 40
0.0
 40
0.0
 40
0.0
 40
0.0
 40
1.0
 40
1.0
 40
1.0
 40
2.0
 40
2.0
 40
2.0
 40
3.0
 40
3.0
 40
3.0
 40
4.0
 40
4.0
 40
4.0
 40
5.0
 40
5.0
 40
5.0
 40
5.0
 10
74.80232474258415
 20
-135.9734401786802
 30
0.0
 10
74.80232474258415
 20
-135.9734401786802
 30
0.0
 10
74.32759058471672
 20
-135.9734401786802
 30
0.0
 10
74.32759058471672
 20
-135.9734401786802
 30
0.0
 10
74.32759058471672
 20
-135.9734401786802
 30
0.0
 10
74.32759058471672
 20
-136.4536864893241
 30
0.0
 10
74.32759058471672
 20
-136.4536864893241
 30
0.0
 10
74.32759058471672
 20
-136.4536864893241
 30
0.0
 10
74.80008543051873
 20
-136.4536864893241
 30
0.0
 10
74.80008543051873
 20
-136.4536864893241
 30
0.0
 10
74.9063666262387
 20
-136.4536864893241
 30
0.0
 10
75.05106063661918
 20
-136.3775498791001
 30
0.0
 10
75.05106063661918
 20
-136.2063286334831
 30
0.0
 10
75.05106063661918
 20
-136.128124965968
 30
0.0
 10
75.01488713402406
 20
-135.9734401786802
 30
0.0
 10
74.80232474258415
 20
-135.9734401786802
 30
0.0
  0
HATCH
  5
93
330
8B
100
AcDbEntity
  8
_U+30EC_U+30A4_U+30E4_U+30FC 1
 62
     7
420
 16777215
100
AcDbHatch
 10
0.0
 20
0.0
 30
0.0
210
0.0
220
0.0
230
1.0
  2
SOLID
 70
     1
 71
     0
 91
        2
 92
        1
 93
        1
 72
     4
 94
        3
 73
     0
 74
     1
 95
       44
 96
       40
 40
0.0
 40
0.0
 40
0.0
 40
0.0
 40
1.0
 40
1.0
 40
1.0
 40
2.0
 40
2.0
 40
2.0
 40
3.0
 40
3.0
 40
3.0
 40
4.0
 40
4.0
 40
4.0
 40
5.0
 40
5.0
 40
5.0
 40
6.0
 40
6.0
 40
6.0
 40
7.0
 40
7.0
 40
7.0
 40
8.0
 40
8.0
 40
8.0
 40
9.0
 40
9.0
 40
9.0
 40
10.0
 40
10.0
 40
10.0
 40
11.0
 40
11.0
 40
11.0
 40
12.0
 40
12.0
 40
12.0
 40
13.0
 40
13.0
 40
13.0
 40
13.0
 10
75.07138669998216
 20
-137.3063476219234
 10
75.04658201248836
 20
-137.2619058901637
 10
75.0238443822857
 20
-137.2091959292394
 10
75.0216050702203
 20
-136.9783745317276
 10
75.01712644608948
 20
-136.735150790469
 10
74.95390894393513
 20
-136.6652153521184
 10
74.76391192792362
 20
-136.6652153521184
 10
74.76391192792362
 20
-136.6652153521184
 10
74.32759058471672
 20
-136.6652153521184
 10
74.32759058471672
 20
-136.6652153521184
 10
74.32759058471672
 20
-136.6652153521184
 10
74.32759058471672
 20
-137.3063476219234
 10
74.32759058471672
 20
-137.3063476219234
 10
74.32759058471672
 20
-137.3063476219234
 10
74.07661537861627
 20
-137.3063476219234
 10
74.07661537861627
 20
-137.3063476219234
 10
74.07661537861627
 20
-137.3063476219234
 10
74.07661537861627
 20
-135.7619113158859
 10
74.07661537861627
 20
-135.7619113158859
 10
74.07661537861627
 20
-135.7619113158859
 10
74.79784611845332
 20
-135.7619113158859
 10
74.79784611845332
 20
-135.7619113158859
 10
75.12564695387483
 20
-135.7619113158859
 10
75.30427515478505
 20
-135.9334770710514
 10
75.30427515478505
 20
-136.1894476656054
 10
75.30427515478505
 20
-136.2400905692386
 10
75.2953179065234
 20
-136.3227728608846
 10
75.24777558882695
 20
-136.4030435856909
 10
75.18438583189835
 20
-136.5067409597969
 10
75.11445039354778
 20
-136.5256889849658
 10
75.04882132455377
 20
-136.5425699528435
 10
75.19575464699967
 20
-136.5849446273121
 10
75.26810165218993
 20
-136.6335204736541
 10
75.27258027632075
 20
-136.9487467105545
 10
75.27705890045158
 20
-137.2195312156951
 10
75.31564396988637
 20
-137.2512260941594
 10
75.38799097507662
 20
-137.3063476219234
 10
75.38799097507662
 20
-137.3063476219234
 10
75.07138669998216
 20
-137.3063476219234
 10
75.07138669998216
 20
-137.3063476219234
 97
        0
 97
        0
 92
        1
 93
        1
 72
     4
 94
        3
 73
     0
 74
     1
 95
       20
 96
       16
 40
0.0
 40
0.0
 40
0.0
 40
0.0
 40
1.0
 40
1.0
 40
1.0
 40
2.0
 40
2.0
 40
2.0
 40
3.0
 40
3.0
 40
3.0
 40
4.0
 40
4.0
 40
4.0
 40
5.0
 40
5.0
 40
5.0
 40
5.0
 10
74.80232474258415
 20
-135.9734401786802
 10
74.80232474258415
 20
-135.9734401786802
 10
74.32759058471672
 20
-135.9734401786802
 10
74.32759058471672
 20
-135.9734401786802
 10
74.32759058471672
 20
-135.9734401786802
 10
74.32759058471672
 20
-136.4536864893241
 10
74.32759058471672
 20
-136.4536864893241
 10
74.32759058471672
 20
-136.4536864893241
 10
74.80008543051873
 20
-136.4536864893241
 10
74.80008543051873
 20
-136.4536864893241
 10
74.9063666262387
 20
-136.4536864893241
 10
75.05106063661918
 20
-136.3775498791001
 10
75.05106063661918
 20
-136.2063286334831
 10
75.05106063661918
 20
-136.128124965968
 10
75.01488713402406
 20
-135.9734401786802
 10
74.80232474258415
 20
-135.9734401786802
 97
        0
 97
        0
 75
     2
 76
     1
 98
        0
  0
ENDBLK
  5
8E
330
8B
100
AcDbEntity
  8
0
100
AcDbBlockEnd
  0
BLOCK
  5
A2
330
A0
100
AcDbEntity
  8
0
100
AcDbBlockBegin
  2
block 3
 70
     0
 10
0.0
 20
0.0
 30
0.0
  3
block 3
  1

  0
SPLINE
  5
A4
330
A0
100
AcDbEntity
  8
_U+30EC_U+30A4_U+30E4_U+30FC 1
370
     0
100
AcDbSpline
210
0.0
220
0.0
230
1.0
 70
    11
 71
     3
 72
    26
 73
    22
 74
     0
 42
0.0000000001
 43
0.0000000001
 12
1.0
 22
0.0
 32
0.0
 13
1.0
 23
0.0
 33
0.0
 40
0.0
 40
0.0
 40
0.0
 40
0.0
 40
1.0
 40
1.0
 40
1.0
 40
2.0
 40
2.0
 40
2.0
 40
3.0
 40
3.0
 40
3.0
 40
4.0
 40
4.0
 40
4.0
 40
5.0
 40
5.0
 40
5.0
 40
6.0
 40
6.0
 40
6.0
 40
7.0
 40
7.0
 40
7.0
 40
7.0
 10
88.52396780555999
 20
-119.8565944795845
 30
0.0
 10
88.52396780555999
 20
-119.8565944795845
 30
0.0
 10
88.52396780555999
 20
-118.7522691217876
 30
0.0
 10
88.52396780555999
 20
-118.7522691217876
 30
0.0
 10
88.52396780555999
 20
-118.7522691217876
 30
0.0
 10
88.17153453741892
 20
-118.7522691217876
 30
0.0
 10
88.17153453741892
 20
-118.7522691217876
 30
0.0
 10
88.17153453741892
 20
-118.7522691217876
 30
0.0
 10
88.17153453741892
 20
-118.6043022706962
 30
0.0
 10
88.17153453741892
 20
-118.6043022706962
 30
0.0
 10
88.52637937239966
 20
-118.5894883601096
 30
0.0
 10
88.57598874738726
 20
-118.4265353436573
 30
0.0
 10
88.60768362585155
 20
-118.3123304283212
 30
0.0
 10
88.60768362585155
 20
-118.3123304283212
 30
0.0
 10
88.76374645133338
 20
-118.3123304283212
 30
0.0
 10
88.76374645133338
 20
-118.3123304283212
 30
0.0
 10
88.76374645133338
 20
-118.3123304283212
 30
0.0
 10
88.76374645133338
 20
-119.8565944795845
 30
0.0
 10
88.76374645133338
 20
-119.8565944795845
 30
0.0
 10
88.76374645133338
 20
-119.8565944795845
 30
0.0
 10
88.52396780555999
 20
-119.8565944795845
 30
0.0
 10
88.52396780555999
 20
-119.8565944795845
 30
0.0
  0
HATCH
  5
A5
330
A0
100
AcDbEntity
  8
_U+30EC_U+30A4_U+30E4_U+30FC 1
 62
     7
420
 16777215
100
AcDbHatch
 10
0.0
 20
0.0
 30
0.0
210
0.0
220
0.0
230
1.0
  2
SOLID
 70
     1
 71
     0
 91
        1
 92
        1
 93
        1
 72
     4
 94
        3
 73
     0
 74
     1
 95
       26
 96
       22
 40
0.0
 40
0.0
 40
0.0
 40
0.0
 40
1.0
 40
1.0
 40
1.0
 40
2.0
 40
2.0
 40
2.0
 40
3.0
 40
3.0
 40
3.0
 40
4.0
 40
4.0
 40
4.0
 40
5.0
 40
5.0
 40
5.0
 40
6.0
 40
6.0
 40
6.0
 40
7.0
 40
7.0
 40
7.0
 40
7.0
 10
88.52396780555999
 20
-119.8565944795845
 10
88.52396780555999
 20
-119.8565944795845
 10
88.52396780555999
 20
-118.7522691217876
 10
88.52396780555999
 20
-118.7522691217876
 10
88.52396780555999
 20
-118.7522691217876
 10
88.17153453741892
 20
-118.7522691217876
 10
88.17153453741892
 20
-118.7522691217876
 10
88.17153453741892
 20
-118.7522691217876
 10
88.17153453741892
 20
-118.6043022706962
 10
88.17153453741892
 20
-118.6043022706962
 10
88.52637937239966
 20
-118.5894883601096
 10
88.57598874738726
 20
-118.4265353436573
 10
88.60768362585155
 20
-118.3123304283212
 10
88.60768362585155
 20
-118.3123304283212
 10
88.76374645133338
 20
-118.3123304283212
 10
88.76374645133338
 20
-118.3123304283212
 10
88.76374645133338
 20
-118.3123304283212
 10
88.76374645133338
 20
-119.8565944795845
 10
88.76374645133338
 20
-119.8565944795845
 10
88.76374645133338
 20
-119.8565944795845
 10
88.52396780555999
 20
-119.8565944795845
 10
88.52396780555999
 20
-119.8565944795845
 97
        0
 97
        0
 75
     2
 76
     1
 98
        0
  0
SPLINE
  5
A6
330
A0
100
AcDbEntity
  8
_U+30EC_U+30A4_U+30E4_U+30FC 1
370
     0
100
AcDbSpline
210
0.0
220
0.0
230
1.0
 70
    11
 71
     3
 72
    53
 73
    49
 74
     0
 42
0.0000000001
 43
0.0000000001
 12
1.0
 22
0.0
 32
0.0
 13
1.0
 23
0.0
 33
0.0
 40
0.0
 40
0.0
 40
0.0
 40
0.0
 40
1.0
 40
1.0
 40
1.0
 40
2.0
 40
2.0
 40
2.0
 40
3.0
 40
3.0
 40
3.0
 40
4.0
 40
4.0
 40
4.0
 40
5.0
 40
5.0
 40
5.0
 40
6.0
 40
6.0
 40
6.0
 40
7.0
 40
7.0
 40
7.0
 40
8.0
 40
8.0
 40
8.0
 40
9.0
 40
9.0
 40
9.0
 40
10.0
 40
10.0
 40
10.0
 40
11.0
 40
11.0
 40
11.0
 40
12.0
 40
12.0
 40
12.0
 40
13.0
 40
13.0
 40
13.0
 40
14.0
 40
14.0
 40
14.0
 40
15.0
 40
15.0
 40
15.0
 40
16.0
 40
16.0
 40
16.0
 40
16.0
 10
89.813467045689
 20
-119.9072373832176
 30
0.0
 10
89.73009573494595
 20
-119.9072373832176
 30
0.0
 10
89.62123071761206
 20
-119.8903564153399
 30
0.0
 10
89.51305471937522
 20
-119.8269666584113
 30
0.0
 10
89.32736407272024
 20
-119.7170681124318
 30
0.0
 10
89.30497095206613
 20
-119.5858099744438
 30
0.0
 10
89.28464488870314
 20
-119.4779784857555
 30
0.0
 10
89.28464488870314
 20
-119.4779784857555
 30
0.0
 10
89.52201196763686
 20
-119.4779784857555
 30
0.0
 10
89.52201196763686
 20
-119.4779784857555
 30
0.0
 10
89.5805785908861
 20
-119.6767604952544
 30
0.0
 10
89.71631535300496
 20
-119.7063883164276
 30
0.0
 10
89.81587861252868
 20
-119.7063883164276
 30
0.0
 10
89.96505124704
 20
-119.7063883164276
 30
0.0
 10
90.12765975394379
 20
-119.6068250569039
 30
0.0
 10
90.12765975394379
 20
-119.3742811116495
 30
0.0
 10
90.12765975394379
 20
-119.1183105170954
 30
0.0
 10
89.93576793541537
 20
-119.0485473335191
 30
0.0
 10
89.80692136426703
 20
-119.0485473335191
 30
0.0
 10
89.77281491896305
 20
-119.0485473335191
 30
0.0
 10
89.62123071761206
 20
-119.0485473335191
 30
0.0
 10
89.52649059176768
 20
-119.1775661594417
 30
0.0
 10
89.52649059176768
 20
-119.1775661594417
 30
0.0
 10
89.33873288782156
 20
-119.1584458794986
 30
0.0
 10
89.33873288782156
 20
-119.1584458794986
 30
0.0
 10
89.33873288782156
 20
-119.1584458794986
 30
0.0
 10
89.46757945896991
 20
-118.3123304283212
 30
0.0
 10
89.46757945896991
 20
-118.3123304283212
 30
0.0
 10
89.46757945896991
 20
-118.3123304283212
 30
0.0
 10
90.29957001865775
 20
-118.3123304283212
 30
0.0
 10
90.29957001865775
 20
-118.3123304283212
 30
0.0
 10
90.29957001865775
 20
-118.3123304283212
 30
0.0
 10
90.29957001865775
 20
-118.5069783232378
 30
0.0
 10
90.29957001865775
 20
-118.5069783232378
 30
0.0
 10
90.29957001865775
 20
-118.5069783232378
 30
0.0
 10
89.64190129052356
 20
-118.5069783232378
 30
0.0
 10
89.64190129052356
 20
-118.5069783232378
 30
0.0
 10
89.64190129052356
 20
-118.5069783232378
 30
0.0
 10
89.57162134262445
 20
-118.9300360488265
 30
0.0
 10
89.57162134262445
 20
-118.9300360488265
 30
0.0
 10
89.63707815684421
 20
-118.8961018582968
 30
0.0
 10
89.7252726012666
 20
-118.8559664958937
 30
0.0
 10
89.8520521151238
 20
-118.8559664958937
 30
0.0
 10
90.12318112981296
 20
-118.8559664958937
 30
0.0
 10
90.37639564797882
 20
-119.0421739068714
 30
0.0
 10
90.37639564797882
 20
-119.3551608317064
 30
0.0
 10
90.37639564797882
 20
-119.6726263806721
 30
0.0
 10
90.13696151175395
 20
-119.9072373832176
 30
0.0
 10
89.813467045689
 20
-119.9072373832176
 30
0.0
  0
HATCH
  5
A7
330
A0
100
AcDbEntity
  8
_U+30EC_U+30A4_U+30E4_U+30FC 1
 62
     7
420
 16777215
100
AcDbHatch
 10
0.0
 20
0.0
 30
0.0
210
0.0
220
0.0
230
1.0
  2
SOLID
 70
     1
 71
     0
 91
        1
 92
        1
 93
        1
 72
     4
 94
        3
 73
     0
 74
     1
 95
       53
 96
       49
 40
0.0
 40
0.0
 40
0.0
 40
0.0
 40
1.0
 40
1.0
 40
1.0
 40
2.0
 40
2.0
 40
2.0
 40
3.0
 40
3.0
 40
3.0
 40
4.0
 40
4.0
 40
4.0
 40
5.0
 40
5.0
 40
5.0
 40
6.0
 40
6.0
 40
6.0
 40
7.0
 40
7.0
 40
7.0
 40
8.0
 40
8.0
 40
8.0
 40
9.0
 40
9.0
 40
9.0
 40
10.0
 40
10.0
 40
10.0
 40
11.0
 40
11.0
 40
11.0
 40
12.0
 40
12.0
 40
12.0
 40
13.0
 40
13.0
 40
13.0
 40
14.0
 40
14.0
 40
14.0
 40
15.0
 40
15.0
 40
15.0
 40
16.0
 40
16.0
 40
16.0
 40
16.0
 10
89.813467045689
 20
-119.9072373832176
 10
89.73009573494595
 20
-119.9072373832176
 10
89.62123071761206
 20
-119.8903564153399
 10
89.51305471937522
 20
-119.8269666584113
 10
89.32736407272024
 20
-119.7170681124318
 10
89.30497095206613
 20
-119.5858099744438
 10
89.28464488870314
 20
-119.4779784857555
 10
89.28464488870314
 20
-119.4779784857555
 10
89.52201196763686
 20
-119.4779784857555
 10
89.52201196763686
 20
-119.4779784857555
 10
89.5805785908861
 20
-119.6767604952544
 10
89.71631535300496
 20
-119.7063883164276
 10
89.81587861252868
 20
-119.7063883164276
 10
89.96505124704
 20
-119.7063883164276
 10
90.12765975394379
 20
-119.6068250569039
 10
90.12765975394379
 20
-119.3742811116495
 10
90.12765975394379
 20
-119.1183105170954
 10
89.93576793541537
 20
-119.0485473335191
 10
89.80692136426703
 20
-119.0485473335191
 10
89.77281491896305
 20
-119.0485473335191
 10
89.62123071761206
 20
-119.0485473335191
 10
89.52649059176768
 20
-119.1775661594417
 10
89.52649059176768
 20
-119.1775661594417
 10
89.33873288782156
 20
-119.1584458794986
 10
89.33873288782156
 20
-119.1584458794986
 10
89.33873288782156
 20
-119.1584458794986
 10
89.46757945896991
 20
-118.3123304283212
 10
89.46757945896991
 20
-118.3123304283212
 10
89.46757945896991
 20
-118.3123304283212
 10
90.29957001865775
 20
-118.3123304283212
 10
90.29957001865775
 20
-118.3123304283212
 10
90.29957001865775
 20
-118.3123304283212
 10
90.29957001865775
 20
-118.5069783232378
 10
90.29957001865775
 20
-118.5069783232378
 10
90.29957001865775
 20
-118.5069783232378
 10
89.64190129052356
 20
-118.5069783232378
 10
89.64190129052356
 20
-118.5069783232378
 10
89.64190129052356
 20
-118.5069783232378
 10
89.57162134262445
 20
-118.9300360488265
 10
89.57162134262445
 20
-118.9300360488265
 10
89.63707815684421
 20
-118.8961018582968
 10
89.7252726012666
 20
-118.8559664958937
 10
89.8520521151238
 20
-118.8559664958937
 10
90.12318112981296
 20
-118.8559664958937
 10
90.37639564797882
 20
-119.0421739068714
 10
90.37639564797882
 20
-119.3551608317064
 10
90.37639564797882
 20
-119.6726263806721
 10
90.13696151175395
 20
-119.9072373832176
 10
89.813467045689
 20
-119.9072373832176
 97
        0
 97
        0
 75
     2
 76
     1
 98
        0
  0
ENDBLK
  5
A3
330
A0
100
AcDbEntity
  8
0
100
AcDbBlockEnd
  0
BLOCK
  5
B2
330
B0
100
AcDbEntity
  8
0
100
AcDbBlockBegin
  2
block 4
 70
     0
 10
0.0
 20
0.0
 30
0.0
  3
block 4
  1

  0
SPLINE
  5
B4
330
B0
100
AcDbEntity
  8
_U+30EC_U+30A4_U+30E4_U+30FC 1
370
     0
100
AcDbSpline
210
0.0
220
0.0
230
1.0
 70
    11
 71
     3
 72
    26
 73
    22
 74
     0
 42
0.0000000001
 43
0.0000000001
 12
1.0
 22
0.0
 32
0.0
 13
1.0
 23
0.0
 33
0.0
 40
0.0
 40
0.0
 40
0.0
 40
0.0
 40
1.0
 40
1.0
 40
1.0
 40
2.0
 40
2.0
 40
2.0
 40
3.0
 40
3.0
 40
3.0
 40
4.0
 40
4.0
 40
4.0
 40
5.0
 40
5.0
 40
5.0
 40
6.0
 40
6.0
 40
6.0
 40
7.0
 40
7.0
 40
7.0
 40
7.0
 10
82.93188881390245
 20
-126.3564561316053
 30
0.0
 10
82.93188881390245
 20
-126.3564561316053
 30
0.0
 10
82.93188881390245
 20
-125.2521307738085
 30
0.0
 10
82.93188881390245
 20
-125.2521307738085
 30
0.0
 10
82.93188881390245
 20
-125.2521307738085
 30
0.0
 10
82.57911103621286
 20
-125.2521307738085
 30
0.0
 10
82.57911103621286
 20
-125.2521307738085
 30
0.0
 10
82.57911103621286
 20
-125.2521307738085
 30
0.0
 10
82.57911103621286
 20
-125.104163922717
 30
0.0
 10
82.57911103621286
 20
-125.104163922717
 30
0.0
 10
82.93412812596786
 20
-125.0893500121305
 30
0.0
 10
82.98390975572973
 20
-124.9263969956781
 30
0.0
 10
83.01543237941976
 20
-124.8121920803421
 30
0.0
 10
83.01543237941976
 20
-124.8121920803421
 30
0.0
 10
83.17149520490157
 20
-124.8121920803421
 30
0.0
 10
83.17149520490157
 20
-124.8121920803421
 30
0.0
 10
83.17149520490157
 20
-124.8121920803421
 30
0.0
 10
83.17149520490157
 20
-126.3564561316053
 30
0.0
 10
83.17149520490157
 20
-126.3564561316053
 30
0.0
 10
83.17149520490157
 20
-126.3564561316053
 30
0.0
 10
82.93188881390245
 20
-126.3564561316053
 30
0.0
 10
82.93188881390245
 20
-126.3564561316053
 30
0.0
  0
HATCH
  5
B5
330
B0
100
AcDbEntity
  8
_U+30EC_U+30A4_U+30E4_U+30FC 1
 62
     7
420
 16777215
100
AcDbHatch
 10
0.0
 20
0.0
 30
0.0
210
0.0
220
0.0
230
1.0
  2
SOLID
 70
     1
 71
     0
 91
        1
 92
        1
 93
        1
 72
     4
 94
        3
 73
     0
 74
     1
 95
       26
 96
       22
 40
0.0
 40
0.0
 40
0.0
 40
0.0
 40
1.0
 40
1.0
 40
1.0
 40
2.0
 40
2.0
 40
2.0
 40
3.0
 40
3.0
 40
3.0
 40
4.0
 40
4.0
 40
4.0
 40
5.0
 40
5.0
 40
5.0
 40
6.0
 40
6.0
 40
6.0
 40
7.0
 40
7.0
 40
7.0
 40
7.0
 10
82.93188881390245
 20
-126.3564561316053
 10
82.93188881390245
 20
-126.3564561316053
 10
82.93188881390245
 20
-125.2521307738085
 10
82.93188881390245
 20
-125.2521307738085
 10
82.93188881390245
 20
-125.2521307738085
 10
82.57911103621286
 20
-125.2521307738085
 10
82.57911103621286
 20
-125.2521307738085
 10
82.57911103621286
 20
-125.2521307738085
 10
82.57911103621286
 20
-125.104163922717
 10
82.57911103621286
 20
-125.104163922717
 10
82.93412812596786
 20
-125.0893500121305
 10
82.98390975572973
 20
-124.9263969956781
 10
83.01543237941976
 20
-124.8121920803421
 10
83.01543237941976
 20
-124.8121920803421
 10
83.17149520490157
 20
-124.8121920803421
 10
83.17149520490157
 20
-124.8121920803421
 10
83.17149520490157
 20
-124.8121920803421
 10
83.17149520490157
 20
-126.3564561316053
 10
83.17149520490157
 20
-126.3564561316053
 10
83.17149520490157
 20
-126.3564561316053
 10
82.93188881390245
 20
-126.3564561316053
 10
82.93188881390245
 20
-126.3564561316053
 97
        0
 97
        0
 75
     2
 76
     1
 98
        0
  0
ENDBLK
  5
B3
330
B0
100
AcDbEntity
  8
0
100
AcDbBlockEnd
  0
BLOCK
  5
C4
330
C2
100
AcDbEntity
  8
0
100
AcDbBlockBegin
  2
block 5
 70
     0
 10
0.0
 20
0.0
 30
0.0
  3
block 5
  1

  0
SPLINE
  5
C6
330
C2
100
AcDbEntity
  8
_U+30EC_U+30A4_U+30E4_U+30FC 1
370
     0
100
AcDbSpline
210
0.0
220
0.0
230
1.0
 70
    11
 71
     3
 72
    26
 73
    22
 74
     0
 42
0.0000000001
 43
0.0000000001
 12
1.0
 22
0.0
 32
0.0
 13
1.0
 23
0.0
 33
0.0
 40
0.0
 40
0.0
 40
0.0
 40
0.0
 40
1.0
 40
1.0
 40
1.0
 40
2.0
 40
2.0
 40
2.0
 40
3.0
 40
3.0
 40
3.0
 40
4.0
 40
4.0
 40
4.0
 40
5.0
 40
5.0
 40
5.0
 40
6.0
 40
6.0
 40
6.0
 40
7.0
 40
7.0
 40
7.0
 40
7.0
 10
75.20884600984363
 20
-130.1291801975024
 30
0.0
 10
75.20884600984363
 20
-130.1291801975024
 30
0.0
 10
74.10452065204679
 20
-130.1291801975024
 30
0.0
 10
74.10452065204679
 20
-130.1291801975024
 30
0.0
 10
74.10452065204679
 20
-130.1291801975024
 30
0.0
 10
74.10452065204679
 20
-130.4816134656435
 30
0.0
 10
74.10452065204679
 20
-130.4816134656435
 30
0.0
 10
74.10452065204679
 20
-130.4816134656435
 30
0.0
 10
73.95638154618105
 20
-130.4816134656435
 30
0.0
 10
73.95638154618105
 20
-130.4816134656435
 30
0.0
 10
73.94173989036874
 20
-130.1267686306628
 30
0.0
 10
73.77878687391642
 20
-130.0771592556752
 30
0.0
 10
73.66458195858038
 20
-130.0454643772109
 30
0.0
 10
73.66458195858038
 20
-130.0454643772109
 30
0.0
 10
73.66458195858038
 20
-129.889401551729
 30
0.0
 10
73.66458195858038
 20
-129.889401551729
 30
0.0
 10
73.66458195858038
 20
-129.889401551729
 30
0.0
 10
75.20884600984363
 20
-129.889401551729
 30
0.0
 10
75.20884600984363
 20
-129.889401551729
 30
0.0
 10
75.20884600984363
 20
-129.889401551729
 30
0.0
 10
75.20884600984363
 20
-130.1291801975024
 30
0.0
 10
75.20884600984363
 20
-130.1291801975024
 30
0.0
  0
HATCH
  5
C7
330
C2
100
AcDbEntity
  8
_U+30EC_U+30A4_U+30E4_U+30FC 1
 62
     7
420
 16777215
100
AcDbHatch
 10
0.0
 20
0.0
 30
0.0
210
0.0
220
0.0
230
1.0
  2
SOLID
 70
     1
 71
     0
 91
        1
 92
        1
 93
        1
 72
     4
 94
        3
 73
     0
 74
     1
 95
       26
 96
       22
 40
0.0
 40
0.0
 40
0.0
 40
0.0
 40
1.0
 40
1.0
 40
1.0
 40
2.0
 40
2.0
 40
2.0
 40
3.0
 40
3.0
 40
3.0
 40
4.0
 40
4.0
 40
4.0
 40
5.0
 40
5.0
 40
5.0
 40
6.0
 40
6.0
 40
6.0
 40
7.0
 40
7.0
 40
7.0
 40
7.0
 10
75.20884600984363
 20
-130.1291801975024
 10
75.20884600984363
 20
-130.1291801975024
 10
74.10452065204679
 20
-130.1291801975024
 10
74.10452065204679
 20
-130.1291801975024
 10
74.10452065204679
 20
-130.1291801975024
 10
74.10452065204679
 20
-130.4816134656435
 10
74.10452065204679
 20
-130.4816134656435
 10
74.10452065204679
 20
-130.4816134656435
 10
73.95638154618105
 20
-130.4816134656435
 10
73.95638154618105
 20
-130.4816134656435
 10
73.94173989036874
 20
-130.1267686306628
 10
73.77878687391642
 20
-130.0771592556752
 10
73.66458195858038
 20
-130.0454643772109
 10
73.66458195858038
 20
-130.0454643772109
 10
73.66458195858038
 20
-129.889401551729
 10
73.66458195858038
 20
-129.889401551729
 10
73.66458195858038
 20
-129.889401551729
 10
75.20884600984363
 20
-129.889401551729
 10
75.20884600984363
 20
-129.889401551729
 10
75.20884600984363
 20
-129.889401551729
 10
75.20884600984363
 20
-130.1291801975024
 10
75.20884600984363
 20
-130.1291801975024
 97
        0
 97
        0
 75
     2
 76
     1
 98
        0
  0
SPLINE
  5
C8
330
C2
100
AcDbEntity
  8
_U+30EC_U+30A4_U+30E4_U+30FC 1
370
     0
100
AcDbSpline
210
0.0
220
0.0
230
1.0
 70
    11
 71
     3
 72
    29
 73
    25
 74
     0
 42
0.0000000001
 43
0.0000000001
 12
1.0
 22
0.0
 32
0.0
 13
1.0
 23
0.0
 33
0.0
 40
0.0
 40
0.0
 40
0.0
 40
0.0
 40
1.0
 40
1.0
 40
1.0
 40
2.0
 40
2.0
 40
2.0
 40
3.0
 40
3.0
 40
3.0
 40
4.0
 40
4.0
 40
4.0
 40
5.0
 40
5.0
 40
5.0
 40
6.0
 40
6.0
 40
6.0
 40
7.0
 40
7.0
 40
7.0
 40
8.0
 40
8.0
 40
8.0
 40
8.0
 10
75.03107908280474
 20
-128.3942301111306
 30
0.0
 10
75.24054088830792
 20
-128.5096408098865
 30
0.0
 10
75.25966116825106
 20
-128.6949869469929
 30
0.0
 10
75.25966116825106
 20
-128.8193548940104
 30
0.0
 10
75.25966116825106
 20
-128.9909206491759
 30
0.0
 10
75.21315237920018
 20
-129.1425048505269
 30
0.0
 10
75.03107908280474
 20
-129.2441351673417
 30
0.0
 10
74.83660344266238
 20
-129.3550672419668
 30
0.0
 10
74.59958087327719
 20
-129.3753933053298
 30
0.0
 10
74.43662785682487
 20
-129.3753933053298
 30
0.0
 10
74.29279512031569
 20
-129.3753933053298
 30
0.0
 10
74.04113089511819
 20
-129.357134299258
 30
0.0
 10
73.84217663084502
 20
-129.2441351673417
 30
0.0
 10
73.63908825198953
 20
-129.1290689781344
 30
0.0
 10
73.6158338574641
 20
-128.9571587134204
 30
0.0
 10
73.6158338574641
 20
-128.8193548940104
 30
0.0
 10
73.6158338574641
 20
-128.6495116865876
 30
0.0
 10
73.66027558922383
 20
-128.4958604279455
 30
0.0
 10
73.84217663084502
 20
-128.3942301111306
 30
0.0
 10
74.03475746847047
 20
-128.2877766606364
 30
0.0
 10
74.26316729914255
 20
-128.2629719731426
 30
0.0
 10
74.43662785682487
 20
-128.2629719731426
 30
0.0
 10
74.60802135721606
 20
-128.2629719731426
 30
0.0
 10
74.83867049995354
 20
-128.2857096033453
 30
0.0
 10
75.03107908280474
 20
-128.3942301111306
 30
0.0
  0
SPLINE
  5
C9
330
C2
100
AcDbEntity
  8
_U+30EC_U+30A4_U+30E4_U+30FC 1
370
     0
100
AcDbSpline
210
0.0
220
0.0
230
1.0
 70
    11
 71
     3
 72
    17
 73
    13
 74
     0
 42
0.0000000001
 43
0.0000000001
 12
1.0
 22
0.0
 32
0.0
 13
1.0
 23
0.0
 33
0.0
 40
0.0
 40
0.0
 40
0.0
 40
0.0
 40
1.0
 40
1.0
 40
1.0
 40
2.0
 40
2.0
 40
2.0
 40
3.0
 40
3.0
 40
3.0
 40
4.0
 40
4.0
 40
4.0
 40
4.0
 10
73.80841469508957
 20
-128.8193548940104
 30
0.0
 10
73.80841469508957
 20
-129.0860052845688
 30
0.0
 10
74.09177379875136
 20
-129.1356146595564
 30
0.0
 10
74.43662785682487
 20
-129.1356146595564
 30
0.0
 10
74.7561604630818
 20
-129.1356146595564
 30
0.0
 10
75.06501327333444
 20
-129.0973740996701
 30
0.0
 10
75.06501327333444
 20
-128.8193548940104
 30
0.0
 10
75.06501327333444
 20
-128.5547715607433
 30
0.0
 10
74.78354897218954
 20
-128.502750618916
 30
0.0
 10
74.43662785682487
 20
-128.502750618916
 30
0.0
 10
74.11726750534221
 20
-128.502750618916
 30
0.0
 10
73.80841469508957
 20
-128.5434027456419
 30
0.0
 10
73.80841469508957
 20
-128.8193548940104
 30
0.0
  0
HATCH
  5
CA
330
C2
100
AcDbEntity
  8
_U+30EC_U+30A4_U+30E4_U+30FC 1
 62
     7
420
 16777215
100
AcDbHatch
 10
0.0
 20
0.0
 30
0.0
210
0.0
220
0.0
230
1.0
  2
SOLID
 70
     1
 71
     0
 91
        2
 92
        1
 93
        1
 72
     4
 94
        3
 73
     0
 74
     1
 95
       29
 96
       25
 40
0.0
 40
0.0
 40
0.0
 40
0.0
 40
1.0
 40
1.0
 40
1.0
 40
2.0
 40
2.0
 40
2.0
 40
3.0
 40
3.0
 40
3.0
 40
4.0
 40
4.0
 40
4.0
 40
5.0
 40
5.0
 40
5.0
 40
6.0
 40
6.0
 40
6.0
 40
7.0
 40
7.0
 40
7.0
 40
8.0
 40
8.0
 40
8.0
 40
8.0
 10
75.03107908280474
 20
-128.3942301111306
 10
75.24054088830792
 20
-128.5096408098865
 10
75.25966116825106
 20
-128.6949869469929
 10
75.25966116825106
 20
-128.8193548940104
 10
75.25966116825106
 20
-128.9909206491759
 10
75.21315237920018
 20
-129.1425048505269
 10
75.03107908280474
 20
-129.2441351673417
 10
74.83660344266238
 20
-129.3550672419668
 10
74.59958087327719
 20
-129.3753933053298
 10
74.43662785682487
 20
-129.3753933053298
 10
74.29279512031569
 20
-129.3753933053298
 10
74.04113089511819
 20
-129.357134299258
 10
73.84217663084502
 20
-129.2441351673417
 10
73.63908825198953
 20
-129.1290689781344
 10
73.6158338574641
 20
-128.9571587134204
 10
73.6158338574641
 20
-128.8193548940104
 10
73.6158338574641
 20
-128.6495116865876
 10
73.66027558922383
 20
-128.4958604279455
 10
73.84217663084502
 20
-128.3942301111306
 10
74.03475746847047
 20
-128.2877766606364
 10
74.26316729914255
 20
-128.2629719731426
 10
74.43662785682487
 20
-128.2629719731426
 10
74.60802135721606
 20
-128.2629719731426
 10
74.83867049995354
 20
-128.2857096033453
 10
75.03107908280474
 20
-128.3942301111306
 97
        0
 97
        0
 92
        1
 93
        1
 72
     4
 94
        3
 73
     0
 74
     1
 95
       17
 96
       13
 40
0.0
 40
0.0
 40
0.0
 40
0.0
 40
1.0
 40
1.0
 40
1.0
 40
2.0
 40
2.0
 40
2.0
 40
3.0
 40
3.0
 40
3.0
 40
4.0
 40
4.0
 40
4.0
 40
4.0
 10
73.80841469508957
 20
-128.8193548940104
 10
73.80841469508957
 20
-129.0860052845688
 10
74.09177379875136
 20
-129.1356146595564
 10
74.43662785682487
 20
-129.1356146595564
 10
74.7561604630818
 20
-129.1356146595564
 10
75.06501327333444
 20
-129.0973740996701
 10
75.06501327333444
 20
-128.8193548940104
 10
75.06501327333444
 20
-128.5547715607433
 10
74.78354897218954
 20
-128.502750618916
 10
74.43662785682487
 20
-128.502750618916
 10
74.11726750534221
 20
-128.502750618916
 10
73.80841469508957
 20
-128.5434027456419
 10
73.80841469508957
 20
-128.8193548940104
 97
        0
 97
        0
 75
     2
 76
     1
 98
        0
  0
ENDBLK
  5
C5
330
C2
100
AcDbEntity
  8
0
100
AcDbBlockEnd
  0
BLOCK
  5
D9
330
D7
100
AcDbEntity
  8
0
100
AcDbBlockBegin
  2
block 6
 70
     0
 10
0.0
 20
0.0
 30
0.0
  3
block 6
  1

  0
SPLINE
  5
DB
330
D7
100
AcDbEntity
  8
_U+30EC_U+30A4_U+30E4_U+30FC 1
370
     0
100
AcDbSpline
210
0.0
220
0.0
230
1.0
 70
    11
 71
     3
 72
    26
 73
    22
 74
     0
 42
0.0000000001
 43
0.0000000001
 12
1.0
 22
0.0
 32
0.0
 13
1.0
 23
0.0
 33
0.0
 40
0.0
 40
0.0
 40
0.0
 40
0.0
 40
1.0
 40
1.0
 40
1.0
 40
2.0
 40
2.0
 40
2.0
 40
3.0
 40
3.0
 40
3.0
 40
4.0
 40
4.0
 40
4.0
 40
5.0
 40
5.0
 40
5.0
 40
6.0
 40
6.0
 40
6.0
 40
7.0
 40
7.0
 40
7.0
 40
7.0
 10
85.02891843577403
 20
-137.8565293709178
 30
0.0
 10
85.02891843577403
 20
-137.8565293709178
 30
0.0
 10
85.02891843577403
 20
-136.7523762678952
 30
0.0
 10
85.02891843577403
 20
-136.7523762678952
 30
0.0
 10
85.02891843577403
 20
-136.7523762678952
 30
0.0
 10
84.67648516763296
 20
-136.7523762678952
 30
0.0
 10
84.67648516763296
 20
-136.7523762678952
 30
0.0
 10
84.67648516763296
 20
-136.7523762678952
 30
0.0
 10
84.67648516763296
 20
-136.6042371620295
 30
0.0
 10
84.67648516763296
 20
-136.6042371620295
 30
0.0
 10
85.0313300026137
 20
-136.5894232514429
 30
0.0
 10
85.0809393776013
 20
-136.4264702349906
 30
0.0
 10
85.11263425606559
 20
-136.3120930648803
 30
0.0
 10
85.11263425606559
 20
-136.3120930648803
 30
0.0
 10
85.26869708154742
 20
-136.3120930648803
 30
0.0
 10
85.26869708154742
 20
-136.3120930648803
 30
0.0
 10
85.26869708154742
 20
-136.3120930648803
 30
0.0
 10
85.26869708154742
 20
-137.8565293709178
 30
0.0
 10
85.26869708154742
 20
-137.8565293709178
 30
0.0
 10
85.26869708154742
 20
-137.8565293709178
 30
0.0
 10
85.02891843577403
 20
-137.8565293709178
 30
0.0
 10
85.02891843577403
 20
-137.8565293709178
 30
0.0
  0
HATCH
  5
DC
330
D7
100
AcDbEntity
  8
_U+30EC_U+30A4_U+30E4_U+30FC 1
 62
     7
420
 16777215
100
AcDbHatch
 10
0.0
 20
0.0
 30
0.0
210
0.0
220
0.0
230
1.0
  2
SOLID
 70
     1
 71
     0
 91
        1
 92
        1
 93
        1
 72
     4
 94
        3
 73
     0
 74
     1
 95
       26
 96
       22
 40
0.0
 40
0.0
 40
0.0
 40
0.0
 40
1.0
 40
1.0
 40
1.0
 40
2.0
 40
2.0
 40
2.0
 40
3.0
 40
3.0
 40
3.0
 40
4.0
 40
4.0
 40
4.0
 40
5.0
 40
5.0
 40
5.0
 40
6.0
 40
6.0
 40
6.0
 40
7.0
 40
7.0
 40
7.0
 40
7.0
 10
85.02891843577403
 20
-137.8565293709178
 10
85.02891843577403
 20
-137.8565293709178
 10
85.02891843577403
 20
-136.7523762678952
 10
85.02891843577403
 20
-136.7523762678952
 10
85.02891843577403
 20
-136.7523762678952
 10
84.67648516763296
 20
-136.7523762678952
 10
84.67648516763296
 20
-136.7523762678952
 10
84.67648516763296
 20
-136.7523762678952
 10
84.67648516763296
 20
-136.6042371620295
 10
84.67648516763296
 20
-136.6042371620295
 10
85.0313300026137
 20
-136.5894232514429
 10
85.0809393776013
 20
-136.4264702349906
 10
85.11263425606559
 20
-136.3120930648803
 10
85.11263425606559
 20
-136.3120930648803
 10
85.26869708154742
 20
-136.3120930648803
 10
85.26869708154742
 20
-136.3120930648803
 10
85.26869708154742
 20
-136.3120930648803
 10
85.26869708154742
 20
-137.8565293709178
 10
85.26869708154742
 20
-137.8565293709178
 10
85.26869708154742
 20
-137.8565293709178
 10
85.02891843577403
 20
-137.8565293709178
 10
85.02891843577403
 20
-137.8565293709178
 97
        0
 97
        0
 75
     2
 76
     1
 98
        0
  0
SPLINE
  5
DD
330
D7
100
AcDbEntity
  8
_U+30EC_U+30A4_U+30E4_U+30FC 1
370
     0
100
AcDbSpline
210
0.0
220
0.0
230
1.0
 70
    11
 71
     3
 72
    29
 73
    25
 74
     0
 42
0.0000000001
 43
0.0000000001
 12
1.0
 22
0.0
 32
0.0
 13
1.0
 23
0.0
 33
0.0
 40
0.0
 40
0.0
 40
0.0
 40
0.0
 40
1.0
 40
1.0
 40
1.0
 40
2.0
 40
2.0
 40
2.0
 40
3.0
 40
3.0
 40
3.0
 40
4.0
 40
4.0
 40
4.0
 40
5.0
 40
5.0
 40
5.0
 40
6.0
 40
6.0
 40
6.0
 40
7.0
 40
7.0
 40
7.0
 40
8.0
 40
8.0
 40
8.0
 40
8.0
 10
86.76386852214584
 20
-137.6787624438789
 30
0.0
 10
86.64845782338998
 20
-137.8882242493821
 30
0.0
 10
86.46311168628353
 20
-137.907172274551
 30
0.0
 10
86.33874373926601
 20
-137.907172274551
 30
0.0
 10
86.16717798410058
 20
-137.907172274551
 30
0.0
 10
86.01559378274958
 20
-137.8606634855001
 30
0.0
 10
85.91396346593471
 20
-137.6787624438789
 30
0.0
 10
85.80303139130966
 20
-137.4841145489623
 30
0.0
 10
85.78270532794669
 20
-137.2470919795771
 30
0.0
 10
85.78270532794669
 20
-137.0844834726733
 30
0.0
 10
85.78270532794669
 20
-136.9404784813899
 30
0.0
 10
85.80061982446999
 20
-136.6886420014181
 30
0.0
 10
85.91396346593471
 20
-136.4898599919192
 30
0.0
 10
86.02902965514205
 20
-136.286943867838
 30
0.0
 10
86.20093991985603
 20
-136.2635172185383
 30
0.0
 10
86.33874373926601
 20
-136.2635172185383
 30
0.0
 10
86.50858694668882
 20
-136.2635172185383
 30
0.0
 10
86.66223820533098
 20
-136.307958950298
 30
0.0
 10
86.76386852214584
 20
-136.4898599919192
 30
0.0
 10
86.87032197264006
 20
-136.6824408295447
 30
0.0
 10
86.89512666013385
 20
-136.9108506602167
 30
0.0
 10
86.89512666013385
 20
-137.0844834726733
 30
0.0
 10
86.89512666013385
 20
-137.2557047182902
 30
0.0
 10
86.87238902993121
 20
-137.4861816062535
 30
0.0
 10
86.76386852214584
 20
-137.6787624438789
 30
0.0
  0
SPLINE
  5
DE
330
D7
100
AcDbEntity
  8
_U+30EC_U+30A4_U+30E4_U+30FC 1
370
     0
100
AcDbSpline
210
0.0
220
0.0
230
1.0
 70
    11
 71
     3
 72
    17
 73
    13
 74
     0
 42
0.0000000001
 43
0.0000000001
 12
1.0
 22
0.0
 32
0.0
 13
1.0
 23
0.0
 33
0.0
 40
0.0
 40
0.0
 40
0.0
 40
0.0
 40
1.0
 40
1.0
 40
1.0
 40
2.0
 40
2.0
 40
2.0
 40
3.0
 40
3.0
 40
3.0
 40
4.0
 40
4.0
 40
4.0
 40
4.0
 10
86.33874373926601
 20
-136.4560980561638
 30
0.0
 10
86.07209334870768
 20
-136.4560980561638
 30
0.0
 10
86.02248397372007
 20
-136.7396294145998
 30
0.0
 10
86.02248397372007
 20
-137.0844834726733
 30
0.0
 10
86.02248397372007
 20
-137.403843824156
 30
0.0
 10
86.06072453360635
 20
-137.7125243796344
 30
0.0
 10
86.33874373926601
 20
-137.7125243796344
 30
0.0
 10
86.6033270725332
 20
-137.7125243796344
 30
0.0
 10
86.65534801436047
 20
-137.431404588038
 30
0.0
 10
86.65534801436047
 20
-137.0844834726733
 30
0.0
 10
86.65534801436047
 20
-136.7647786116422
 30
0.0
 10
86.61469588763453
 20
-136.4560980561638
 30
0.0
 10
86.33874373926601
 20
-136.4560980561638
 30
0.0
  0
HATCH
  5
DF
330
D7
100
AcDbEntity
  8
_U+30EC_U+30A4_U+30E4_U+30FC 1
 62
     7
420
 16777215
100
AcDbHatch
 10
0.0
 20
0.0
 30
0.0
210
0.0
220
0.0
230
1.0
  2
SOLID
 70
     1
 71
     0
 91
        2
 92
        1
 93
        1
 72
     4
 94
        3
 73
     0
 74
     1
 95
       29
 96
       25
 40
0.0
 40
0.0
 40
0.0
 40
0.0
 40
1.0
 40
1.0
 40
1.0
 40
2.0
 40
2.0
 40
2.0
 40
3.0
 40
3.0
 40
3.0
 40
4.0
 40
4.0
 40
4.0
 40
5.0
 40
5.0
 40
5.0
 40
6.0
 40
6.0
 40
6.0
 40
7.0
 40
7.0
 40
7.0
 40
8.0
 40
8.0
 40
8.0
 40
8.0
 10
86.76386852214584
 20
-137.6787624438789
 10
86.64845782338998
 20
-137.8882242493821
 10
86.46311168628353
 20
-137.907172274551
 10
86.33874373926601
 20
-137.907172274551
 10
86.16717798410058
 20
-137.907172274551
 10
86.01559378274958
 20
-137.8606634855001
 10
85.91396346593471
 20
-137.6787624438789
 10
85.80303139130966
 20
-137.4841145489623
 10
85.78270532794669
 20
-137.2470919795771
 10
85.78270532794669
 20
-137.0844834726733
 10
85.78270532794669
 20
-136.9404784813899
 10
85.80061982446999
 20
-136.6886420014181
 10
85.91396346593471
 20
-136.4898599919192
 10
86.02902965514205
 20
-136.286943867838
 10
86.20093991985603
 20
-136.2635172185383
 10
86.33874373926601
 20
-136.2635172185383
 10
86.50858694668882
 20
-136.2635172185383
 10
86.66223820533098
 20
-136.307958950298
 10
86.76386852214584
 20
-136.4898599919192
 10
86.87032197264006
 20
-136.6824408295447
 10
86.89512666013385
 20
-136.9108506602167
 10
86.89512666013385
 20
-137.0844834726733
 10
86.89512666013385
 20
-137.2557047182902
 10
86.87238902993121
 20
-137.4861816062535
 10
86.76386852214584
 20
-137.6787624438789
 97
        0
 97
        0
 92
        1
 93
        1
 72
     4
 94
        3
 73
     0
 74
     1
 95
       17
 96
       13
 40
0.0
 40
0.0
 40
0.0
 40
0.0
 40
1.0
 40
1.0
 40
1.0
 40
2.0
 40
2.0
 40
2.0
 40
3.0
 40
3.0
 40
3.0
 40
4.0
 40
4.0
 40
4.0
 40
4.0
 10
86.33874373926601
 20
-136.4560980561638
 10
86.07209334870768
 20
-136.4560980561638
 10
86.02248397372007
 20
-136.7396294145998
 10
86.02248397372007
 20
-137.0844834726733
 10
86.02248397372007
 20
-137.403843824156
 10
86.06072453360635
 20
-137.7125243796344
 10
86.33874373926601
 20
-137.7125243796344
 10
86.6033270725332
 20
-137.7125243796344
 10
86.65534801436047
 20
-137.431404588038
 10
86.65534801436047
 20
-137.0844834726733
 10
86.65534801436047
 20
-136.7647786116422
 10
86.61469588763453
 20
-136.4560980561638
 10
86.33874373926601
 20
-136.4560980561638
 97
        0
 97
        0
 75
     2
 76
     1
 98
        0
  0
ENDBLK
  5
DA
330
D7
100
AcDbEntity
  8
0
100
AcDbBlockEnd
  0
BLOCK
  5
EE
330
EC
100
AcDbEntity
  8
0
100
AcDbBlockBegin
  2
block 7
 70
     0
 10
0.0
 20
0.0
 30
0.0
  3
block 7
  1

  0
SPLINE
  5
F0
330
EC
100
AcDbEntity
  8
_U+30EC_U+30A4_U+30E4_U+30FC 1
370
     0
100
AcDbSpline
210
0.0
220
0.0
230
1.0
 70
    11
 71
     3
 72
    62
 73
    58
 74
     0
 42
0.0000000001
 43
0.0000000001
 12
1.0
 22
0.0
 32
0.0
 13
1.0
 23
0.0
 33
0.0
 40
0.0
 40
0.0
 40
0.0
 40
0.0
 40
1.0
 40
1.0
 40
1.0
 40
2.0
 40
2.0
 40
2.0
 40
3.0
 40
3.0
 40
3.0
 40
4.0
 40
4.0
 40
4.0
 40
5.0
 40
5.0
 40
5.0
 40
6.0
 40
6.0
 40
6.0
 40
7.0
 40
7.0
 40
7.0
 40
8.0
 40
8.0
 40
8.0
 40
9.0
 40
9.0
 40
9.0
 40
10.0
 40
10.0
 40
10.0
 40
11.0
 40
11.0
 40
11.0
 40
12.0
 40
12.0
 40
12.0
 40
13.0
 40
13.0
 40
13.0
 40
14.0
 40
14.0
 40
14.0
 40
15.0
 40
15.0
 40
15.0
 40
16.0
 40
16.0
 40
16.0
 40
17.0
 40
17.0
 40
17.0
 40
18.0
 40
18.0
 40
18.0
 40
19.0
 40
19.0
 40
19.0
 40
19.0
 10
94.25953502417818
 20
-132.6919867289798
 30
0.0
 10
94.25953502417818
 20
-132.7936170457947
 30
0.0
 10
94.23851994171815
 20
-133.0265055005976
 30
0.0
 10
94.05248478551466
 20
-133.1598306958767
 30
0.0
 10
93.94017467269552
 20
-133.2390678920375
 30
0.0
 10
93.84095592272033
 20
-133.2435465161683
 30
0.0
 10
93.75620657378317
 20
-133.2480251402991
 30
0.0
 10
93.75620657378317
 20
-133.2480251402991
 30
0.0
 10
93.75620657378317
 20
-133.0130696282051
 30
0.0
 10
93.75620657378317
 20
-133.0130696282051
 30
0.0
 10
93.83027612671604
 20
-133.0106580613654
 30
0.0
 10
94.06488712926156
 20
-132.9992892462641
 30
0.0
 10
94.06488712926156
 20
-132.6964653531106
 30
0.0
 10
94.06488712926156
 20
-132.5493597758905
 30
0.0
 10
93.9952962004595
 20
-132.3867512689866
 30
0.0
 10
93.76688636978744
 20
-132.3867512689866
 30
0.0
 10
93.650442142386
 20
-132.3867512689866
 30
0.0
 10
93.60186629604398
 20
-132.4274033957126
 30
0.0
 10
93.57017141757969
 20
-132.461165331468
 30
0.0
 10
93.49610186464682
 20
-132.5404025276288
 30
0.0
 10
93.48335501135139
 20
-132.6647704746463
 30
0.0
 10
93.48335501135139
 20
-132.7236816074441
 30
0.0
 10
93.48335501135139
 20
-132.7440076708071
 30
0.0
 10
93.48542206864254
 20
-132.7822482306933
 30
0.0
 10
93.48955618322483
 20
-132.8118760518665
 30
0.0
 10
93.48955618322483
 20
-132.8118760518665
 30
0.0
 10
93.29490828830822
 20
-132.8118760518665
 30
0.0
 10
93.29490828830822
 20
-132.8118760518665
 30
0.0
 10
93.30145396973019
 20
-132.7712239251405
 30
0.0
 10
93.30352102702135
 20
-132.7257486647352
 30
0.0
 10
93.30352102702135
 20
-132.7192029833133
 30
0.0
 10
93.30352102702135
 20
-132.6489230354142
 30
0.0
 10
93.2821614350128
 20
-132.4363606439742
 30
0.0
 10
93.04548337517613
 20
-132.4363606439742
 30
0.0
 10
92.86771644813724
 20
-132.4363606439742
 30
0.0
 10
92.81259492037324
 20
-132.5765760302239
 30
0.0
 10
92.81259492037324
 20
-132.6940537862709
 30
0.0
 10
92.81259492037324
 20
-132.97689612561
 30
0.0
 10
93.04548337517613
 20
-132.9858533738716
 30
0.0
 10
93.11714136126933
 20
-132.9903319980024
 30
0.0
 10
93.11714136126933
 20
-132.9903319980024
 30
0.0
 10
93.11714136126933
 20
-133.2073730135732
 30
0.0
 10
93.11714136126933
 20
-133.2073730135732
 30
0.0
 10
92.99242890470329
 20
-133.1984157653115
 30
0.0
 10
92.61587996816547
 20
-133.1691324536869
 30
0.0
 10
92.61587996816547
 20
-132.6806179138785
 30
0.0
 10
92.61587996816547
 20
-132.4408392681051
 30
0.0
 10
92.7430039915712
 20
-132.1831461258084
 30
0.0
 10
93.03893769375416
 20
-132.1831461258084
 30
0.0
 10
93.22531735950618
 20
-132.1831461258084
 30
0.0
 10
93.30765514160365
 20
-132.2851209521718
 30
0.0
 10
93.36897784124109
 20
-132.3912298931175
 30
0.0
 10
93.3965386051231
 20
-132.3257730788977
 30
0.0
 10
93.47680932992941
 20
-132.1311251839811
 30
0.0
 10
93.75413951649203
 20
-132.1311251839811
 30
0.0
 10
94.09244789314356
 20
-132.1311251839811
 30
0.0
 10
94.25953502417818
 20
-132.3957085172483
 30
0.0
 10
94.25953502417818
 20
-132.6919867289798
 30
0.0
  0
HATCH
  5
F1
330
EC
100
AcDbEntity
  8
_U+30EC_U+30A4_U+30E4_U+30FC 1
 62
     7
420
 16777215
100
AcDbHatch
 10
0.0
 20
0.0
 30
0.0
210
0.0
220
0.0
230
1.0
  2
SOLID
 70
     1
 71
     0
 91
        1
 92
        1
 93
        1
 72
     4
 94
        3
 73
     0
 74
     1
 95
       62
 96
       58
 40
0.0
 40
0.0
 40
0.0
 40
0.0
 40
1.0
 40
1.0
 40
1.0
 40
2.0
 40
2.0
 40
2.0
 40
3.0
 40
3.0
 40
3.0
 40
4.0
 40
4.0
 40
4.0
 40
5.0
 40
5.0
 40
5.0
 40
6.0
 40
6.0
 40
6.0
 40
7.0
 40
7.0
 40
7.0
 40
8.0
 40
8.0
 40
8.0
 40
9.0
 40
9.0
 40
9.0
 40
10.0
 40
10.0
 40
10.0
 40
11.0
 40
11.0
 40
11.0
 40
12.0
 40
12.0
 40
12.0
 40
13.0
 40
13.0
 40
13.0
 40
14.0
 40
14.0
 40
14.0
 40
15.0
 40
15.0
 40
15.0
 40
16.0
 40
16.0
 40
16.0
 40
17.0
 40
17.0
 40
17.0
 40
18.0
 40
18.0
 40
18.0
 40
19.0
 40
19.0
 40
19.0
 40
19.0
 10
94.25953502417818
 20
-132.6919867289798
 10
94.25953502417818
 20
-132.7936170457947
 10
94.23851994171815
 20
-133.0265055005976
 10
94.05248478551466
 20
-133.1598306958767
 10
93.94017467269552
 20
-133.2390678920375
 10
93.84095592272033
 20
-133.2435465161683
 10
93.75620657378317
 20
-133.2480251402991
 10
93.75620657378317
 20
-133.2480251402991
 10
93.75620657378317
 20
-133.0130696282051
 10
93.75620657378317
 20
-133.0130696282051
 10
93.83027612671604
 20
-133.0106580613654
 10
94.06488712926156
 20
-132.9992892462641
 10
94.06488712926156
 20
-132.6964653531106
 10
94.06488712926156
 20
-132.5493597758905
 10
93.9952962004595
 20
-132.3867512689866
 10
93.76688636978744
 20
-132.3867512689866
 10
93.650442142386
 20
-132.3867512689866
 10
93.60186629604398
 20
-132.4274033957126
 10
93.57017141757969
 20
-132.461165331468
 10
93.49610186464682
 20
-132.5404025276288
 10
93.48335501135139
 20
-132.6647704746463
 10
93.48335501135139
 20
-132.7236816074441
 10
93.48335501135139
 20
-132.7440076708071
 10
93.48542206864254
 20
-132.7822482306933
 10
93.48955618322483
 20
-132.8118760518665
 10
93.48955618322483
 20
-132.8118760518665
 10
93.29490828830822
 20
-132.8118760518665
 10
93.29490828830822
 20
-132.8118760518665
 10
93.30145396973019
 20
-132.7712239251405
 10
93.30352102702135
 20
-132.7257486647352
 10
93.30352102702135
 20
-132.7192029833133
 10
93.30352102702135
 20
-132.6489230354142
 10
93.2821614350128
 20
-132.4363606439742
 10
93.04548337517613
 20
-132.4363606439742
 10
92.86771644813724
 20
-132.4363606439742
 10
92.81259492037324
 20
-132.5765760302239
 10
92.81259492037324
 20
-132.6940537862709
 10
92.81259492037324
 20
-132.97689612561
 10
93.04548337517613
 20
-132.9858533738716
 10
93.11714136126933
 20
-132.9903319980024
 10
93.11714136126933
 20
-132.9903319980024
 10
93.11714136126933
 20
-133.2073730135732
 10
93.11714136126933
 20
-133.2073730135732
 10
92.99242890470329
 20
-133.1984157653115
 10
92.61587996816547
 20
-133.1691324536869
 10
92.61587996816547
 20
-132.6806179138785
 10
92.61587996816547
 20
-132.4408392681051
 10
92.7430039915712
 20
-132.1831461258084
 10
93.03893769375416
 20
-132.1831461258084
 10
93.22531735950618
 20
-132.1831461258084
 10
93.30765514160365
 20
-132.2851209521718
 10
93.36897784124109
 20
-132.3912298931175
 10
93.3965386051231
 20
-132.3257730788977
 10
93.47680932992941
 20
-132.1311251839811
 10
93.75413951649203
 20
-132.1311251839811
 10
94.09244789314356
 20
-132.1311251839811
 10
94.25953502417818
 20
-132.3957085172483
 10
94.25953502417818
 20
-132.6919867289798
 97
        0
 97
        0
 75
     2
 76
     1
 98
        0
  0
POLYLINE
  5
F2
330
EC
100
AcDbEntity
  8
_U+30EC_U+30A4_U+30E4_U+30FC 1
370
     0
100
AcDb2dPolyline
 66
     1
 10
0.0
 20
0.0
 30
0.0
  0
VERTEX
  5
F3
330
F2
100
AcDbEntity
  8
_U+30EC_U+30A4_U+30E4_U+30FC 1
370
     0
100
AcDbVertex
100
AcDb2dVertex
 10
94.208892120545
 20
-131.89548065279
 30
0.0
  0
VERTEX
  5
F4
330
F2
100
AcDbEntity
  8
_U+30EC_U+30A4_U+30E4_U+30FC 1
370
     0
100
AcDbVertex
100
AcDb2dVertex
 10
93.95705564057324
 20
-131.89548065279
 30
0.0
  0
VERTEX
  5
F5
330
F2
100
AcDbEntity
  8
_U+30EC_U+30A4_U+30E4_U+30FC 1
370
     0
100
AcDbVertex
100
AcDb2dVertex
 10
93.95705564057324
 20
-131.626418695392
 30
0.0
  0
VERTEX
  5
F6
330
F2
100
AcDbEntity
  8
_U+30EC_U+30A4_U+30E4_U+30FC 1
370
     0
100
AcDbVertex
100
AcDb2dVertex
 10
94.208892120545
 20
-131.626418695392
 30
0.0
  0
VERTEX
  5
F7
330
F2
100
AcDbEntity
  8
_U+30EC_U+30A4_U+30E4_U+30FC 1
370
     0
100
AcDbVertex
100
AcDb2dVertex
 10
94.208892120545
 20
-131.89548065279
 30
0.0
  0
SEQEND
  5
F8
330
F2
100
AcDbEntity
  8
_U+30EC_U+30A4_U+30E4_U+30FC 1
370
     0
  0
HATCH
  5
F9
330
EC
100
AcDbEntity
  8
_U+30EC_U+30A4_U+30E4_U+30FC 1
 62
     7
420
 16777215
100
AcDbHatch
 10
0.0
 20
0.0
 30
0.0
210
0.0
220
0.0
230
1.0
  2
SOLID
 70
     1
 71
     0
 91
        1
 92
        1
 93
        4
 72
     1
 10
94.208892120545
 20
-131.89548065279
 11
93.95705564057324
 21
-131.89548065279
 72
     1
 10
93.95705564057324
 20
-131.89548065279
 11
93.95705564057324
 21
-131.626418695392
 72
     1
 10
93.95705564057324
 20
-131.626418695392
 11
94.208892120545
 21
-131.626418695392
 72
     1
 10
94.208892120545
 20
-131.626418695392
 11
94.208892120545
 21
-131.89548065279
 97
        0
 75
     2
 76
     1
 98
        0
  0
SPLINE
  5
FA
330
EC
100
AcDbEntity
  8
_U+30EC_U+30A4_U+30E4_U+30FC 1
370
     0
100
AcDbSpline
210
0.0
220
0.0
230
1.0
 70
    11
 71
     3
 72
    53
 73
    49
 74
     0
 42
0.0000000001
 43
0.0000000001
 12
1.0
 22
0.0
 32
0.0
 13
1.0
 23
0.0
 33
0.0
 40
0.0
 40
0.0
 40
0.0
 40
0.0
 40
1.0
 40
1.0
 40
1.0
 40
2.0
 40
2.0
 40
2.0
 40
3.0
 40
3.0
 40
3.0
 40
4.0
 40
4.0
 40
4.0
 40
5.0
 40
5.0
 40
5.0
 40
6.0
 40
6.0
 40
6.0
 40
7.0
 40
7.0
 40
7.0
 40
8.0
 40
8.0
 40
8.0
 40
9.0
 40
9.0
 40
9.0
 40
10.0
 40
10.0
 40
10.0
 40
11.0
 40
11.0
 40
11.0
 40
12.0
 40
12.0
 40
12.0
 40
13.0
 40
13.0
 40
13.0
 40
14.0
 40
14.0
 40
14.0
 40
15.0
 40
15.0
 40
15.0
 40
16.0
 40
16.0
 40
16.0
 40
16.0
 10
94.25953502417818
 20
-130.8595404403754
 30
0.0
 10
94.25953502417818
 20
-130.943256260667
 30
0.0
 10
94.24265405630045
 20
-131.0514322589038
 30
0.0
 10
94.17926429937185
 20
-131.1602972762377
 30
0.0
 10
94.06936575339239
 20
-131.3456434133442
 30
0.0
 10
93.93810761540436
 20
-131.3680365339983
 30
0.0
 10
93.83027612671604
 20
-131.3883625973612
 30
0.0
 10
93.83027612671604
 20
-131.3883625973612
 30
0.0
 10
93.83027612671604
 20
-131.1509955184275
 30
0.0
 10
93.83027612671604
 20
-131.1509955184275
 30
0.0
 10
94.02905813621496
 20
-131.0924288951783
 30
0.0
 10
94.05868595738811
 20
-130.9566921330594
 30
0.0
 10
94.05868595738811
 20
-130.8571288735357
 30
0.0
 10
94.05868595738811
 20
-130.7079562390244
 30
0.0
 10
93.95912269786439
 20
-130.5450032225721
 30
0.0
 10
93.72657875261002
 20
-130.5450032225721
 30
0.0
 10
93.47060815805597
 20
-130.5450032225721
 30
0.0
 10
93.4006727197054
 20
-130.737239550649
 30
0.0
 10
93.4006727197054
 20
-130.8660861217974
 30
0.0
 10
93.4006727197054
 20
-130.9001925671014
 30
0.0
 10
93.4006727197054
 20
-131.0514322589038
 30
0.0
 10
93.52986380040225
 20
-131.1465168942967
 30
0.0
 10
93.52986380040225
 20
-131.1465168942967
 30
0.0
 10
93.51091577523339
 20
-131.3342745982428
 30
0.0
 10
93.51091577523339
 20
-131.3342745982428
 30
0.0
 10
93.51091577523339
 20
-131.3342745982428
 30
0.0
 10
92.6644558145075
 20
-131.2054280270945
 30
0.0
 10
92.6644558145075
 20
-131.2054280270945
 30
0.0
 10
92.6644558145075
 20
-131.2054280270945
 30
0.0
 10
92.6644558145075
 20
-130.3734374674067
 30
0.0
 10
92.6644558145075
 20
-130.3734374674067
 30
0.0
 10
92.6644558145075
 20
-130.3734374674067
 30
0.0
 10
92.85910370942412
 20
-130.3734374674067
 30
0.0
 10
92.85910370942412
 20
-130.3734374674067
 30
0.0
 10
92.85910370942412
 20
-130.3734374674067
 30
0.0
 10
92.85910370942412
 20
-131.0311061955408
 30
0.0
 10
92.85910370942412
 20
-131.0311061955408
 30
0.0
 10
92.85910370942412
 20
-131.0311061955408
 30
0.0
 10
93.2821614350128
 20
-131.1013861434399
 30
0.0
 10
93.2821614350128
 20
-131.1013861434399
 30
0.0
 10
93.24839949925735
 20
-131.0359293292202
 30
0.0
 10
93.20809188207993
 20
-130.9477348847978
 30
0.0
 10
93.20809188207993
 20
-130.8209553709406
 30
0.0
 10
93.20809188207993
 20
-130.5498263562514
 30
0.0
 10
93.39447154783194
 20
-130.2966118380856
 30
0.0
 10
93.70763072744116
 20
-130.2966118380856
 30
0.0
 10
94.02492402163266
 20
-130.2966118380856
 30
0.0
 10
94.25953502417818
 20
-130.5360459743104
 30
0.0
 10
94.25953502417818
 20
-130.8595404403754
 30
0.0
  0
HATCH
  5
FB
330
EC
100
AcDbEntity
  8
_U+30EC_U+30A4_U+30E4_U+30FC 1
 62
     7
420
 16777215
100
AcDbHatch
 10
0.0
 20
0.0
 30
0.0
210
0.0
220
0.0
230
1.0
  2
SOLID
 70
     1
 71
     0
 91
        1
 92
        1
 93
        1
 72
     4
 94
        3
 73
     0
 74
     1
 95
       53
 96
       49
 40
0.0
 40
0.0
 40
0.0
 40
0.0
 40
1.0
 40
1.0
 40
1.0
 40
2.0
 40
2.0
 40
2.0
 40
3.0
 40
3.0
 40
3.0
 40
4.0
 40
4.0
 40
4.0
 40
5.0
 40
5.0
 40
5.0
 40
6.0
 40
6.0
 40
6.0
 40
7.0
 40
7.0
 40
7.0
 40
8.0
 40
8.0
 40
8.0
 40
9.0
 40
9.0
 40
9.0
 40
10.0
 40
10.0
 40
10.0
 40
11.0
 40
11.0
 40
11.0
 40
12.0
 40
12.0
 40
12.0
 40
13.0
 40
13.0
 40
13.0
 40
14.0
 40
14.0
 40
14.0
 40
15.0
 40
15.0
 40
15.0
 40
16.0
 40
16.0
 40
16.0
 40
16.0
 10
94.25953502417818
 20
-130.8595404403754
 10
94.25953502417818
 20
-130.943256260667
 10
94.24265405630045
 20
-131.0514322589038
 10
94.17926429937185
 20
-131.1602972762377
 10
94.06936575339239
 20
-131.3456434133442
 10
93.93810761540436
 20
-131.3680365339983
 10
93.83027612671604
 20
-131.3883625973612
 10
93.83027612671604
 20
-131.3883625973612
 10
93.83027612671604
 20
-131.1509955184275
 10
93.83027612671604
 20
-131.1509955184275
 10
94.02905813621496
 20
-131.0924288951783
 10
94.05868595738811
 20
-130.9566921330594
 10
94.05868595738811
 20
-130.8571288735357
 10
94.05868595738811
 20
-130.7079562390244
 10
93.95912269786439
 20
-130.5450032225721
 10
93.72657875261002
 20
-130.5450032225721
 10
93.47060815805597
 20
-130.5450032225721
 10
93.4006727197054
 20
-130.737239550649
 10
93.4006727197054
 20
-130.8660861217974
 10
93.4006727197054
 20
-130.9001925671014
 10
93.4006727197054
 20
-131.0514322589038
 10
93.52986380040225
 20
-131.1465168942967
 10
93.52986380040225
 20
-131.1465168942967
 10
93.51091577523339
 20
-131.3342745982428
 10
93.51091577523339
 20
-131.3342745982428
 10
93.51091577523339
 20
-131.3342745982428
 10
92.6644558145075
 20
-131.2054280270945
 10
92.6644558145075
 20
-131.2054280270945
 10
92.6644558145075
 20
-131.2054280270945
 10
92.6644558145075
 20
-130.3734374674067
 10
92.6644558145075
 20
-130.3734374674067
 10
92.6644558145075
 20
-130.3734374674067
 10
92.85910370942412
 20
-130.3734374674067
 10
92.85910370942412
 20
-130.3734374674067
 10
92.85910370942412
 20
-130.3734374674067
 10
92.85910370942412
 20
-131.0311061955408
 10
92.85910370942412
 20
-131.0311061955408
 10
92.85910370942412
 20
-131.0311061955408
 10
93.2821614350128
 20
-131.1013861434399
 10
93.2821614350128
 20
-131.1013861434399
 10
93.24839949925735
 20
-131.0359293292202
 10
93.20809188207993
 20
-130.9477348847978
 10
93.20809188207993
 20
-130.8209553709406
 10
93.20809188207993
 20
-130.5498263562514
 10
93.39447154783194
 20
-130.2966118380856
 10
93.70763072744116
 20
-130.2966118380856
 10
94.02492402163266
 20
-130.2966118380856
 10
94.25953502417818
 20
-130.5360459743104
 10
94.25953502417818
 20
-130.8595404403754
 97
        0
 97
        0
 75
     2
 76
     1
 98
        0
  0
ENDBLK
  5
EF
330
EC
100
AcDbEntity
  8
0
100
AcDbBlockEnd
  0
BLOCK
  5
103
330
101
100
AcDbEntity
  8
0
100
AcDbBlockBegin
  2
block 8
 70
     0
 10
0.0
 20
0.0
 30
0.0
  3
block 8
  1

  0
SPLINE
  5
105
330
101
100
AcDbEntity
  8
_U+30EC_U+30A4_U+30E4_U+30FC 1
370
     0
100
AcDbSpline
210
0.0
220
0.0
230
1.0
 70
    11
 71
     3
 72
    17
 73
    13
 74
     0
 42
0.0000000001
 43
0.0000000001
 12
1.0
 22
0.0
 32
0.0
 13
1.0
 23
0.0
 33
0.0
 40
0.0
 40
0.0
 40
0.0
 40
0.0
 40
1.0
 40
1.0
 40
1.0
 40
2.0
 40
2.0
 40
2.0
 40
3.0
 40
3.0
 40
3.0
 40
4.0
 40
4.0
 40
4.0
 40
4.0
 10
93.75999617881695
 20
-136.3279405041125
 30
0.0
 10
93.65423174741979
 20
-136.2221760727153
 30
0.0
 10
93.57361651306493
 20
-136.1842800223775
 30
0.0
 10
93.48059893496318
 20
-136.1522406343647
 30
0.0
 10
93.48059893496318
 20
-136.1522406343647
 30
0.0
 10
93.59049748094266
 20
-135.9872205606213
 30
0.0
 10
93.59049748094266
 20
-135.9872205606213
 30
0.0
 10
93.68799368317522
 20
-136.0295952350898
 30
0.0
 10
93.80857202515897
 20
-136.1081434121535
 30
0.0
 10
93.8612819860833
 20
-136.162920430369
 30
0.0
 10
93.8612819860833
 20
-136.162920430369
 30
0.0
 10
93.75999617881695
 20
-136.3279405041125
 30
0.0
 10
93.75999617881695
 20
-136.3279405041125
 30
0.0
  0
SPLINE
  5
106
330
101
100
AcDbEntity
  8
_U+30EC_U+30A4_U+30E4_U+30FC 1
370
     0
100
AcDbSpline
210
0.0
220
0.0
230
1.0
 70
    11
 71
     3
 72
   182
 73
   178
 74
     0
 42
0.0000000001
 43
0.0000000001
 12
1.0
 22
0.0
 32
0.0
 13
1.0
 23
0.0
 33
0.0
 40
0.0
 40
0.0
 40
0.0
 40
0.0
 40
1.0
 40
1.0
 40
1.0
 40
2.0
 40
2.0
 40
2.0
 40
3.0
 40
3.0
 40
3.0
 40
4.0
 40
4.0
 40
4.0
 40
5.0
 40
5.0
 40
5.0
 40
6.0
 40
6.0
 40
6.0
 40
7.0
 40
7.0
 40
7.0
 40
8.0
 40
8.0
 40
8.0
 40
9.0
 40
9.0
 40
9.0
 40
10.0
 40
10.0
 40
10.0
 40
11.0
 40
11.0
 40
11.0
 40
12.0
 40
12.0
 40
12.0
 40
13.0
 40
13.0
 40
13.0
 40
14.0
 40
14.0
 40
14.0
 40
15.0
 40
15.0
 40
15.0
 40
16.0
 40
16.0
 40
16.0
 40
17.0
 40
17.0
 40
17.0
 40
18.0
 40
18.0
 40
18.0
 40
19.0
 40
19.0
 40
19.0
 40
20.0
 40
20.0
 40
20.0
 40
21.0
 40
21.0
 40
21.0
 40
22.0
 40
22.0
 40
22.0
 40
23.0
 40
23.0
 40
23.0
 40
24.0
 40
24.0
 40
24.0
 40
25.0
 40
25.0
 40
25.0
 40
26.0
 40
26.0
 40
26.0
 40
27.0
 40
27.0
 40
27.0
 40
28.0
 40
28.0
 40
28.0
 40
29.0
 40
29.0
 40
29.0
 40
30.0
 40
30.0
 40
30.0
 40
31.0
 40
31.0
 40
31.0
 40
32.0
 40
32.0
 40
32.0
 40
33.0
 40
33.0
 40
33.0
 40
34.0
 40
34.0
 40
34.0
 40
35.0
 40
35.0
 40
35.0
 40
36.0
 40
36.0
 40
36.0
 40
37.0
 40
37.0
 40
37.0
 40
38.0
 40
38.0
 40
38.0
 40
39.0
 40
39.0
 40
39.0
 40
40.0
 40
40.0
 40
40.0
 40
41.0
 40
41.0
 40
41.0
 40
42.0
 40
42.0
 40
42.0
 40
43.0
 40
43.0
 40
43.0
 40
44.0
 40
44.0
 40
44.0
 40
45.0
 40
45.0
 40
45.0
 40
46.0
 40
46.0
 40
46.0
 40
47.0
 40
47.0
 40
47.0
 40
48.0
 40
48.0
 40
48.0
 40
49.0
 40
49.0
 40
49.0
 40
50.0
 40
50.0
 40
50.0
 40
51.0
 40
51.0
 40
51.0
 40
52.0
 40
52.0
 40
52.0
 40
53.0
 40
53.0
 40
53.0
 40
54.0
 40
54.0
 40
54.0
 40
55.0
 40
55.0
 40
55.0
 40
56.0
 40
56.0
 40
56.0
 40
57.0
 40
57.0
 40
57.0
 40
58.0
 40
58.0
 40
58.0
 40
59.0
 40
59.0
 40
59.0
 40
59.0
 10
94.80489363949323
 20
-137.5061631600679
 30
0.0
 10
94.80489363949323
 20
-137.5061631600679
 30
0.0
 10
94.16823999381906
 20
-137.5061631600679
 30
0.0
 10
94.16823999381906
 20
-137.5061631600679
 30
0.0
 10
93.95429956418504
 20
-137.5061631600679
 30
0.0
 10
93.7386365868084
 20
-137.5106417841987
 30
0.0
 10
93.52504066672292
 20
-137.5233886374942
 30
0.0
 10
93.52504066672292
 20
-137.5233886374942
 30
0.0
 10
93.52504066672292
 20
-137.3159938892821
 30
0.0
 10
93.52504066672292
 20
-137.3159938892821
 30
0.0
 10
93.74724932552152
 20
-137.3287407425775
 30
0.0
 10
94.07074379158648
 20
-137.3328748571599
 30
0.0
 10
94.16823999381906
 20
-137.3328748571599
 30
0.0
 10
94.16823999381906
 20
-137.3328748571599
 30
0.0
 10
94.388037085778
 20
-137.3328748571599
 30
0.0
 10
94.388037085778
 20
-137.3328748571599
 30
0.0
 10
94.388037085778
 20
-137.3328748571599
 30
0.0
 10
94.388037085778
 20
-137.1912814327161
 30
0.0
 10
94.388037085778
 20
-137.1912814327161
 30
0.0
 10
94.388037085778
 20
-137.1912814327161
 30
0.0
 10
94.22749563616536
 20
-137.1912814327161
 30
0.0
 10
94.22749563616536
 20
-137.1912814327161
 30
0.0
 10
94.06247556242188
 20
-137.1912814327161
 30
0.0
 10
93.89745548867842
 20
-137.1954155472984
 30
0.0
 10
93.73243541493495
 20
-137.2102294578849
 30
0.0
 10
93.73243541493495
 20
-137.2102294578849
 30
0.0
 10
93.73243541493495
 20
-137.0007676523818
 30
0.0
 10
93.73243541493495
 20
-137.0007676523818
 30
0.0
 10
93.90365666055187
 20
-137.0155815629683
 30
0.0
 10
94.15135902594133
 20
-137.0197156775506
 30
0.0
 10
94.22749563616536
 20
-137.0197156775506
 30
0.0
 10
94.22749563616536
 20
-137.0197156775506
 30
0.0
 10
94.388037085778
 20
-137.0197156775506
 30
0.0
 10
94.388037085778
 20
-137.0197156775506
 30
0.0
 10
94.3839029711957
 20
-136.9477131819089
 30
0.0
 10
94.3839029711957
 20
-136.9415120100355
 30
0.0
 10
94.37770179932224
 20
-136.8884575395626
 30
0.0
 10
94.37770179932224
 20
-136.8884575395626
 30
0.0
 10
94.51722816647487
 20
-136.9032714501492
 30
0.0
 10
94.51722816647487
 20
-136.9032714501492
 30
0.0
 10
94.51722816647487
 20
-136.9032714501492
 30
0.0
 10
94.41766490695115
 20
-136.7320502045323
 30
0.0
 10
94.41766490695115
 20
-136.7320502045323
 30
0.0
 10
94.46417369600202
 20
-136.7382513764057
 30
0.0
 10
94.53824324893489
 20
-136.7468641151189
 30
0.0
 10
94.55512421681262
 20
-136.7468641151189
 30
0.0
 10
94.60611162999432
 20
-136.7468641151189
 30
0.0
 10
94.62299259787203
 20
-136.7258490326588
 30
0.0
 10
94.62299259787203
 20
-136.6686604476037
 30
0.0
 10
94.62299259787203
 20
-136.6686604476037
 30
0.0
 10
94.62299259787203
 20
-136.5312011377422
 30
0.0
 10
94.62299259787203
 20
-136.5312011377422
 30
0.0
 10
94.62299259787203
 20
-136.5312011377422
 30
0.0
 10
94.51722816647487
 20
-136.5312011377422
 30
0.0
 10
94.51722816647487
 20
-136.5312011377422
 30
0.0
 10
94.3839029711957
 20
-136.5312011377422
 30
0.0
 10
94.22749563616536
 20
-136.5312011377422
 30
0.0
 10
94.10450572734193
 20
-136.5436034814891
 30
0.0
 10
94.10450572734193
 20
-136.5436034814891
 30
0.0
 10
94.10450572734193
 20
-136.3534342107033
 30
0.0
 10
94.10450572734193
 20
-136.3534342107033
 30
0.0
 10
94.27193736792508
 20
-136.3703151785811
 30
0.0
 10
94.50241425588828
 20
-136.3723822358722
 30
0.0
 10
94.51722816647487
 20
-136.3723822358722
 30
0.0
 10
94.51722816647487
 20
-136.3723822358722
 30
0.0
 10
94.62299259787203
 20
-136.3723822358722
 30
0.0
 10
94.62299259787203
 20
-136.3723822358722
 30
0.0
 10
94.62299259787203
 20
-136.3723822358722
 30
0.0
 10
94.62299259787203
 20
-136.2411240978842
 30
0.0
 10
94.62299259787203
 20
-136.2411240978842
 30
0.0
 10
94.62299259787203
 20
-136.2411240978842
 30
0.0
 10
94.58475203798577
 20
-136.2411240978842
 30
0.0
 10
94.58475203798577
 20
-136.2411240978842
 30
0.0
 10
94.54031030622603
 20
-136.2411240978842
 30
0.0
 10
94.41559784965999
 20
-136.245602722015
 30
0.0
 10
94.32671438614055
 20
-136.2538709511796
 30
0.0
 10
94.32671438614055
 20
-136.2538709511796
 30
0.0
 10
94.32671438614055
 20
-136.1736002263733
 30
0.0
 10
94.32671438614055
 20
-136.1736002263733
 30
0.0
 10
94.27400442521622
 20
-136.211496276711
 30
0.0
 10
94.24851071862538
 20
-136.2263101872976
 30
0.0
 10
94.2061360441568
 20
-136.2497368365973
 30
0.0
 10
94.2061360441568
 20
-136.2497368365973
 30
0.0
 10
94.01803383066216
 20
-136.1205457559004
 30
0.0
 10
94.01803383066216
 20
-136.1205457559004
 30
0.0
 10
94.09623749817733
 20
-136.086783820145
 30
0.0
 10
94.25264483320768
 20
-136.0233940632164
 30
0.0
 10
94.40939667778655
 20
-135.8793890719329
 30
0.0
 10
94.49173445988401
 20
-135.8011854044178
 30
0.0
 10
94.56993812739918
 20
-135.7164360554806
 30
0.0
 10
94.62299259787203
 20
-135.6151502482143
 30
0.0
 10
94.62299259787203
 20
-135.6151502482143
 30
0.0
 10
94.83452146066638
 20
-135.6764729478517
 30
0.0
 10
94.83452146066638
 20
-135.6764729478517
 30
0.0
 10
94.85346948583525
 20
-135.6826741197252
 30
0.0
 10
94.86414928183952
 20
-135.6912868584383
 30
0.0
 10
94.86414928183952
 20
-135.7040337117337
 30
0.0
 10
94.86414928183952
 20
-135.7209146796114
 30
0.0
 10
94.85140242854409
 20
-135.7271158514849
 30
0.0
 10
94.82590872195325
 20
-135.7398627047803
 30
0.0
 10
94.90652395630809
 20
-135.8373589070129
 30
0.0
 10
95.06947697276041
 20
-135.9345105996969
 30
0.0
 10
95.10323890851586
 20
-135.9534586248658
 30
0.0
 10
95.25344507167276
 20
-136.0423420883853
 30
0.0
 10
95.36747773223452
 20
-136.0699028522673
 30
0.0
 10
95.44602590929821
 20
-136.0888508774361
 30
0.0
 10
95.44602590929821
 20
-136.0888508774361
 30
0.0
 10
95.32751462460563
 20
-136.2580050657619
 30
0.0
 10
95.32751462460563
 20
-136.2580050657619
 30
0.0
 10
95.24276527566848
 20
-136.2287217541373
 30
0.0
 10
95.19212237203531
 20
-136.2094292194199
 30
0.0
 10
95.07361108734271
 20
-136.1439724052001
 30
0.0
 10
95.07361108734271
 20
-136.1439724052001
 30
0.0
 10
95.07361108734271
 20
-136.2538709511796
 30
0.0
 10
95.07361108734271
 20
-136.2538709511796
 30
0.0
 10
94.99092879569672
 20
-136.245602722015
 30
0.0
 10
94.86414928183952
 20
-136.2411240978842
 30
0.0
 10
94.81109481136667
 20
-136.2411240978842
 30
0.0
 10
94.81109481136667
 20
-136.2411240978842
 30
0.0
 10
94.81109481136667
 20
-136.3723822358722
 30
0.0
 10
94.81109481136667
 20
-136.3723822358722
 30
0.0
 10
94.81109481136667
 20
-136.3723822358722
 30
0.0
 10
94.93167315335042
 20
-136.3723822358722
 30
0.0
 10
94.93167315335042
 20
-136.3723822358722
 30
0.0
 10
94.9340847201901
 20
-136.3723822358722
 30
0.0
 10
95.16662866544446
 20
-136.3703151785811
 30
0.0
 10
95.34439559248335
 20
-136.3534342107033
 30
0.0
 10
95.34439559248335
 20
-136.3534342107033
 30
0.0
 10
95.34439559248335
 20
-136.5436034814891
 30
0.0
 10
95.34439559248335
 20
-136.5436034814891
 30
0.0
 10
95.21520451178648
 20
-136.5312011377422
 30
0.0
 10
95.05879717675614
 20
-136.5312011377422
 30
0.0
 10
94.93167315335042
 20
-136.5312011377422
 30
0.0
 10
94.93167315335042
 20
-136.5312011377422
 30
0.0
 10
94.81109481136667
 20
-136.5312011377422
 30
0.0
 10
94.81109481136667
 20
-136.5312011377422
 30
0.0
 10
94.81109481136667
 20
-136.5312011377422
 30
0.0
 10
94.81109481136667
 20
-136.7575439111231
 30
0.0
 10
94.81109481136667
 20
-136.7575439111231
 30
0.0
 10
94.81109481136667
 20
-136.8760551958157
 30
0.0
 10
94.78594561432435
 20
-136.9118841888623
 30
0.0
 10
94.62505965516318
 20
-136.9266980994489
 30
0.0
 10
94.62919376974548
 20
-136.9456461246178
 30
0.0
 10
94.62299259787203
 20
-136.956325920622
 30
0.0
 10
94.58475203798577
 20
-136.9794080603732
 30
0.0
 10
94.58268498069461
 20
-136.9987005950906
 30
0.0
 10
94.58268498069461
 20
-137.0049017669641
 30
0.0
 10
94.58061792340347
 20
-137.0197156775506
 30
0.0
 10
94.58061792340347
 20
-137.0197156775506
 30
0.0
 10
94.71807723326494
 20
-137.0197156775506
 30
0.0
 10
94.71807723326494
 20
-137.0197156775506
 30
0.0
 10
94.8830973070084
 20
-137.0197156775506
 30
0.0
 10
95.05018443804302
 20
-137.0155815629683
 30
0.0
 10
95.21727156907762
 20
-137.0007676523818
 30
0.0
 10
95.21727156907762
 20
-137.0007676523818
 30
0.0
 10
95.21727156907762
 20
-137.2081624005938
 30
0.0
 10
95.21727156907762
 20
-137.2081624005938
 30
0.0
 10
95.00160859170099
 20
-137.1912814327161
 30
0.0
 10
94.73736976798233
 20
-137.1912814327161
 30
0.0
 10
94.71807723326494
 20
-137.1912814327161
 30
0.0
 10
94.71807723326494
 20
-137.1912814327161
 30
0.0
 10
94.57855086611231
 20
-137.1912814327161
 30
0.0
 10
94.57855086611231
 20
-137.1912814327161
 30
0.0
 10
94.57855086611231
 20
-137.1912814327161
 30
0.0
 10
94.57855086611231
 20
-137.3328748571599
 30
0.0
 10
94.57855086611231
 20
-137.3328748571599
 30
0.0
 10
94.57855086611231
 20
-137.3328748571599
 30
0.0
 10
94.80489363949323
 20
-137.3328748571599
 30
0.0
 10
94.80489363949323
 20
-137.3328748571599
 30
0.0
 10
95.02055661686987
 20
-137.3328748571599
 30
0.0
 10
95.23863116108618
 20
-137.3287407425775
 30
0.0
 10
95.45429413846281
 20
-137.3159938892821
 30
0.0
 10
95.45429413846281
 20
-137.3159938892821
 30
0.0
 10
95.45429413846281
 20
-137.5233886374942
 30
0.0
 10
95.45429413846281
 20
-137.5233886374942
 30
0.0
 10
95.1728298373179
 20
-137.5061631600679
 30
0.0
 10
94.82832028879292
 20
-137.5061631600679
 30
0.0
 10
94.80489363949323
 20
-137.5061631600679
 30
0.0
  0
SPLINE
  5
107
330
101
100
AcDbEntity
  8
_U+30EC_U+30A4_U+30E4_U+30FC 1
370
     0
100
AcDbSpline
210
0.0
220
0.0
230
1.0
 70
    11
 71
     3
 72
    23
 73
    19
 74
     0
 42
0.0000000001
 43
0.0000000001
 12
1.0
 22
0.0
 32
0.0
 13
1.0
 23
0.0
 33
0.0
 40
0.0
 40
0.0
 40
0.0
 40
0.0
 40
1.0
 40
1.0
 40
1.0
 40
2.0
 40
2.0
 40
2.0
 40
3.0
 40
3.0
 40
3.0
 40
4.0
 40
4.0
 40
4.0
 40
5.0
 40
5.0
 40
5.0
 40
6.0
 40
6.0
 40
6.0
 40
6.0
 10
93.68592662588408
 20
-136.8781222531069
 30
0.0
 10
93.68592662588408
 20
-136.8991373355669
 30
0.0
 10
93.68799368317522
 20
-136.9373778954532
 30
0.0
 10
93.66249997658439
 20
-136.9373778954532
 30
0.0
 10
93.6518201805801
 20
-136.9373778954532
 30
0.0
 10
93.6435519514155
 20
-136.9308322140312
 30
0.0
 10
93.63287215541123
 20
-136.9139512461535
 30
0.0
 10
93.63287215541123
 20
-136.9139512461535
 30
0.0
 10
93.52917478130522
 20
-136.7320502045323
 30
0.0
 10
93.52917478130522
 20
-136.7320502045323
 30
0.0
 10
93.74518226823038
 20
-136.6028591238354
 30
0.0
 10
93.94189722043814
 20
-136.3258734468213
 30
0.0
 10
93.98840600948901
 20
-136.2538709511796
 30
0.0
 10
93.98840600948901
 20
-136.2538709511796
 30
0.0
 10
94.06040850513074
 20
-136.4337049355096
 30
0.0
 10
94.06040850513074
 20
-136.4337049355096
 30
0.0
 10
93.92708330985157
 20
-136.6304198877174
 30
0.0
 10
93.75138344010382
 20
-136.8143879866298
 30
0.0
 10
93.68592662588408
 20
-136.8781222531069
 30
0.0
  0
SPLINE
  5
108
330
101
100
AcDbEntity
  8
_U+30EC_U+30A4_U+30E4_U+30FC 1
370
     0
100
AcDbSpline
210
0.0
220
0.0
230
1.0
 70
    11
 71
     3
 72
    17
 73
    13
 74
     0
 42
0.0000000001
 43
0.0000000001
 12
1.0
 22
0.0
 32
0.0
 13
1.0
 23
0.0
 33
0.0
 40
0.0
 40
0.0
 40
0.0
 40
0.0
 40
1.0
 40
1.0
 40
1.0
 40
2.0
 40
2.0
 40
2.0
 40
3.0
 40
3.0
 40
3.0
 40
4.0
 40
4.0
 40
4.0
 40
4.0
 10
93.939830163147
 20
-135.983086446039
 30
0.0
 10
93.87816295396102
 20
-135.9069498358149
 30
0.0
 10
93.74931638281268
 20
-135.8308132255909
 30
0.0
 10
93.64561900870666
 20
-135.8011854044178
 30
0.0
 10
93.64561900870666
 20
-135.8011854044178
 30
0.0
 10
93.74070364409955
 20
-135.6361653306743
 30
0.0
 10
93.74070364409955
 20
-135.6361653306743
 30
0.0
 10
93.84233396091442
 20
-135.6723388332694
 30
0.0
 10
93.94809839231159
 20
-135.729182908776
 30
0.0
 10
94.03698185583103
 20
-135.8097981431309
 30
0.0
 10
94.03698185583103
 20
-135.8097981431309
 30
0.0
 10
93.939830163147
 20
-135.983086446039
 30
0.0
 10
93.939830163147
 20
-135.983086446039
 30
0.0
  0
SPLINE
  5
109
330
101
100
AcDbEntity
  8
_U+30EC_U+30A4_U+30E4_U+30FC 1
370
     0
100
AcDbSpline
210
0.0
220
0.0
230
1.0
 70
    11
 71
     3
 72
    23
 73
    19
 74
     0
 42
0.0000000001
 43
0.0000000001
 12
1.0
 22
0.0
 32
0.0
 13
1.0
 23
0.0
 33
0.0
 40
0.0
 40
0.0
 40
0.0
 40
0.0
 40
1.0
 40
1.0
 40
1.0
 40
2.0
 40
2.0
 40
2.0
 40
3.0
 40
3.0
 40
3.0
 40
4.0
 40
4.0
 40
4.0
 40
5.0
 40
5.0
 40
5.0
 40
6.0
 40
6.0
 40
6.0
 40
6.0
 10
94.39251570990882
 20
-136.6876084727726
 30
0.0
 10
94.37115611790027
 20
-136.7110351220722
 30
0.0
 10
94.27400442521622
 20
-136.8230007253429
 30
0.0
 10
94.13413354851508
 20
-136.9032714501492
 30
0.0
 10
94.13413354851508
 20
-136.9032714501492
 30
0.0
 10
93.96704641748046
 20
-136.7826931081654
 30
0.0
 10
93.96704641748046
 20
-136.7826931081654
 30
0.0
 10
94.11725258063736
 20
-136.7065564979414
 30
0.0
 10
94.21681584016108
 20
-136.6114718625485
 30
0.0
 10
94.26539168650311
 20
-136.5584173920757
 30
0.0
 10
94.26539168650311
 20
-136.5584173920757
 30
0.0
 10
94.4390244989597
 20
-136.6410996837217
 30
0.0
 10
94.4390244989597
 20
-136.6410996837217
 30
0.0
 10
94.4472927281243
 20
-136.645233798304
 30
0.0
 10
94.45590546683742
 20
-136.6517794797259
 30
0.0
 10
94.45590546683742
 20
-136.6621147661817
 30
0.0
 10
94.45590546683742
 20
-136.6876084727726
 30
0.0
 10
94.41973196424229
 20
-136.6876084727726
 30
0.0
 10
94.39251570990882
 20
-136.6876084727726
 30
0.0
  0
SPLINE
  5
10A
330
101
100
AcDbEntity
  8
_U+30EC_U+30A4_U+30E4_U+30FC 1
370
     0
100
AcDbSpline
210
0.0
220
0.0
230
1.0
 70
    11
 71
     3
 72
    20
 73
    16
 74
     0
 42
0.0000000001
 43
0.0000000001
 12
1.0
 22
0.0
 32
0.0
 13
1.0
 23
0.0
 33
0.0
 40
0.0
 40
0.0
 40
0.0
 40
0.0
 40
1.0
 40
1.0
 40
1.0
 40
2.0
 40
2.0
 40
2.0
 40
3.0
 40
3.0
 40
3.0
 40
4.0
 40
4.0
 40
4.0
 40
5.0
 40
5.0
 40
5.0
 40
5.0
 10
94.69051646938293
 20
-135.8456271361775
 30
0.0
 10
94.65262041904518
 20
-135.8942029825195
 30
0.0
 10
94.59129771940773
 20
-135.9727511595832
 30
0.0
 10
94.45177135225512
 20
-136.0826497055627
 30
0.0
 10
94.53204207706143
 20
-136.086783820145
 30
0.0
 10
94.56166989823458
 20
-136.086783820145
 30
0.0
 10
94.58475203798577
 20
-136.086783820145
 30
0.0
 10
94.58475203798577
 20
-136.086783820145
 30
0.0
 10
94.81350637820636
 20
-136.086783820145
 30
0.0
 10
94.81350637820636
 20
-136.086783820145
 30
0.0
 10
94.84520125667065
 20
-136.086783820145
 30
0.0
 10
94.89377710301267
 20
-136.0847167628538
 30
0.0
 10
94.96784665594554
 20
-136.0826497055627
 30
0.0
 10
94.8555365431264
 20
-136.0085801526298
 30
0.0
 10
94.80696069678437
 20
-135.9620713635789
 30
0.0
 10
94.69051646938293
 20
-135.8456271361775
 30
0.0
  0
SPLINE
  5
10B
330
101
100
AcDbEntity
  8
_U+30EC_U+30A4_U+30E4_U+30FC 1
370
     0
100
AcDbSpline
210
0.0
220
0.0
230
1.0
 70
    11
 71
     3
 72
    17
 73
    13
 74
     0
 42
0.0000000001
 43
0.0000000001
 12
1.0
 22
0.0
 32
0.0
 13
1.0
 23
0.0
 33
0.0
 40
0.0
 40
0.0
 40
0.0
 40
0.0
 40
1.0
 40
1.0
 40
1.0
 40
2.0
 40
2.0
 40
2.0
 40
3.0
 40
3.0
 40
3.0
 40
4.0
 40
4.0
 40
4.0
 40
4.0
 10
95.2513780143816
 20
-136.901204392858
 30
0.0
 10
95.11598576181129
 20
-136.7892387895874
 30
0.0
 10
95.01022133041411
 20
-136.7258490326588
 30
0.0
 10
94.89171004572152
 20
-136.6621147661817
 30
0.0
 10
94.89171004572152
 20
-136.6621147661817
 30
0.0
 10
95.01848955957871
 20
-136.5501491629111
 30
0.0
 10
95.01848955957871
 20
-136.5501491629111
 30
0.0
 10
95.14974769756674
 20
-136.596657951962
 30
0.0
 10
95.2596462435462
 20
-136.6538465370171
 30
0.0
 10
95.38470320966077
 20
-136.755476853832
 30
0.0
 10
95.38470320966077
 20
-136.755476853832
 30
0.0
 10
95.2513780143816
 20
-136.901204392858
 30
0.0
 10
95.2513780143816
 20
-136.901204392858
 30
0.0
  0
HATCH
  5
10C
330
101
100
AcDbEntity
  8
_U+30EC_U+30A4_U+30E4_U+30FC 1
 62
   179
420
  2234388
100
AcDbHatch
 10
0.0
 20
0.0
 30
0.0
210
0.0
220
0.0
230
1.0
  2
SOLID
 70
     1
 71
     0
 91
        7
 92
        1
 93
        1
 72
     4
 94
        3
 73
     0
 74
     1
 95
       17
 96
       13
 40
0.0
 40
0.0
 40
0.0
 40
0.0
 40
1.0
 40
1.0
 40
1.0
 40
2.0
 40
2.0
 40
2.0
 40
3.0
 40
3.0
 40
3.0
 40
4.0
 40
4.0
 40
4.0
 40
4.0
 10
93.75999617881695
 20
-136.3279405041125
 10
93.65423174741979
 20
-136.2221760727153
 10
93.57361651306493
 20
-136.1842800223775
 10
93.48059893496318
 20
-136.1522406343647
 10
93.48059893496318
 20
-136.1522406343647
 10
93.59049748094266
 20
-135.9872205606213
 10
93.59049748094266
 20
-135.9872205606213
 10
93.68799368317522
 20
-136.0295952350898
 10
93.80857202515897
 20
-136.1081434121535
 10
93.8612819860833
 20
-136.162920430369
 10
93.8612819860833
 20
-136.162920430369
 10
93.75999617881695
 20
-136.3279405041125
 10
93.75999617881695
 20
-136.3279405041125
 97
        0
 97
        0
 92
        1
 93
        1
 72
     4
 94
        3
 73
     0
 74
     1
 95
      182
 96
      178
 40
0.0
 40
0.0
 40
0.0
 40
0.0
 40
1.0
 40
1.0
 40
1.0
 40
2.0
 40
2.0
 40
2.0
 40
3.0
 40
3.0
 40
3.0
 40
4.0
 40
4.0
 40
4.0
 40
5.0
 40
5.0
 40
5.0
 40
6.0
 40
6.0
 40
6.0
 40
7.0
 40
7.0
 40
7.0
 40
8.0
 40
8.0
 40
8.0
 40
9.0
 40
9.0
 40
9.0
 40
10.0
 40
10.0
 40
10.0
 40
11.0
 40
11.0
 40
11.0
 40
12.0
 40
12.0
 40
12.0
 40
13.0
 40
13.0
 40
13.0
 40
14.0
 40
14.0
 40
14.0
 40
15.0
 40
15.0
 40
15.0
 40
16.0
 40
16.0
 40
16.0
 40
17.0
 40
17.0
 40
17.0
 40
18.0
 40
18.0
 40
18.0
 40
19.0
 40
19.0
 40
19.0
 40
20.0
 40
20.0
 40
20.0
 40
21.0
 40
21.0
 40
21.0
 40
22.0
 40
22.0
 40
22.0
 40
23.0
 40
23.0
 40
23.0
 40
24.0
 40
24.0
 40
24.0
 40
25.0
 40
25.0
 40
25.0
 40
26.0
 40
26.0
 40
26.0
 40
27.0
 40
27.0
 40
27.0
 40
28.0
 40
28.0
 40
28.0
 40
29.0
 40
29.0
 40
29.0
 40
30.0
 40
30.0
 40
30.0
 40
31.0
 40
31.0
 40
31.0
 40
32.0
 40
32.0
 40
32.0
 40
33.0
 40
33.0
 40
33.0
 40
34.0
 40
34.0
 40
34.0
 40
35.0
 40
35.0
 40
35.0
 40
36.0
 40
36.0
 40
36.0
 40
37.0
 40
37.0
 40
37.0
 40
38.0
 40
38.0
 40
38.0
 40
39.0
 40
39.0
 40
39.0
 40
40.0
 40
40.0
 40
40.0
 40
41.0
 40
41.0
 40
41.0
 40
42.0
 40
42.0
 40
42.0
 40
43.0
 40
43.0
 40
43.0
 40
44.0
 40
44.0
 40
44.0
 40
45.0
 40
45.0
 40
45.0
 40
46.0
 40
46.0
 40
46.0
 40
47.0
 40
47.0
 40
47.0
 40
48.0
 40
48.0
 40
48.0
 40
49.0
 40
49.0
 40
49.0
 40
50.0
 40
50.0
 40
50.0
 40
51.0
 40
51.0
 40
51.0
 40
52.0
 40
52.0
 40
52.0
 40
53.0
 40
53.0
 40
53.0
 40
54.0
 40
54.0
 40
54.0
 40
55.0
 40
55.0
 40
55.0
 40
56.0
 40
56.0
 40
56.0
 40
57.0
 40
57.0
 40
57.0
 40
58.0
 40
58.0
 40
58.0
 40
59.0
 40
59.0
 40
59.0
 40
59.0
 10
94.80489363949323
 20
-137.5061631600679
 10
94.80489363949323
 20
-137.5061631600679
 10
94.16823999381906
 20
-137.5061631600679
 10
94.16823999381906
 20
-137.5061631600679
 10
93.95429956418504
 20
-137.5061631600679
 10
93.7386365868084
 20
-137.5106417841987
 10
93.52504066672292
 20
-137.5233886374942
 10
93.52504066672292
 20
-137.5233886374942
 10
93.52504066672292
 20
-137.3159938892821
 10
93.52504066672292
 20
-137.3159938892821
 10
93.74724932552152
 20
-137.3287407425775
 10
94.07074379158648
 20
-137.3328748571599
 10
94.16823999381906
 20
-137.3328748571599
 10
94.16823999381906
 20
-137.3328748571599
 10
94.388037085778
 20
-137.3328748571599
 10
94.388037085778
 20
-137.3328748571599
 10
94.388037085778
 20
-137.3328748571599
 10
94.388037085778
 20
-137.1912814327161
 10
94.388037085778
 20
-137.1912814327161
 10
94.388037085778
 20
-137.1912814327161
 10
94.22749563616536
 20
-137.1912814327161
 10
94.22749563616536
 20
-137.1912814327161
 10
94.06247556242188
 20
-137.1912814327161
 10
93.89745548867842
 20
-137.1954155472984
 10
93.73243541493495
 20
-137.2102294578849
 10
93.73243541493495
 20
-137.2102294578849
 10
93.73243541493495
 20
-137.0007676523818
 10
93.73243541493495
 20
-137.0007676523818
 10
93.90365666055187
 20
-137.0155815629683
 10
94.15135902594133
 20
-137.0197156775506
 10
94.22749563616536
 20
-137.0197156775506
 10
94.22749563616536
 20
-137.0197156775506
 10
94.388037085778
 20
-137.0197156775506
 10
94.388037085778
 20
-137.0197156775506
 10
94.3839029711957
 20
-136.9477131819089
 10
94.3839029711957
 20
-136.9415120100355
 10
94.37770179932224
 20
-136.8884575395626
 10
94.37770179932224
 20
-136.8884575395626
 10
94.51722816647487
 20
-136.9032714501492
 10
94.51722816647487
 20
-136.9032714501492
 10
94.51722816647487
 20
-136.9032714501492
 10
94.41766490695115
 20
-136.7320502045323
 10
94.41766490695115
 20
-136.7320502045323
 10
94.46417369600202
 20
-136.7382513764057
 10
94.53824324893489
 20
-136.7468641151189
 10
94.55512421681262
 20
-136.7468641151189
 10
94.60611162999432
 20
-136.7468641151189
 10
94.62299259787203
 20
-136.7258490326588
 10
94.62299259787203
 20
-136.6686604476037
 10
94.62299259787203
 20
-136.6686604476037
 10
94.62299259787203
 20
-136.5312011377422
 10
94.62299259787203
 20
-136.5312011377422
 10
94.62299259787203
 20
-136.5312011377422
 10
94.51722816647487
 20
-136.5312011377422
 10
94.51722816647487
 20
-136.5312011377422
 10
94.3839029711957
 20
-136.5312011377422
 10
94.22749563616536
 20
-136.5312011377422
 10
94.10450572734193
 20
-136.5436034814891
 10
94.10450572734193
 20
-136.5436034814891
 10
94.10450572734193
 20
-136.3534342107033
 10
94.10450572734193
 20
-136.3534342107033
 10
94.27193736792508
 20
-136.3703151785811
 10
94.50241425588828
 20
-136.3723822358722
 10
94.51722816647487
 20
-136.3723822358722
 10
94.51722816647487
 20
-136.3723822358722
 10
94.62299259787203
 20
-136.3723822358722
 10
94.62299259787203
 20
-136.3723822358722
 10
94.62299259787203
 20
-136.3723822358722
 10
94.62299259787203
 20
-136.2411240978842
 10
94.62299259787203
 20
-136.2411240978842
 10
94.62299259787203
 20
-136.2411240978842
 10
94.58475203798577
 20
-136.2411240978842
 10
94.58475203798577
 20
-136.2411240978842
 10
94.54031030622603
 20
-136.2411240978842
 10
94.41559784965999
 20
-136.245602722015
 10
94.32671438614055
 20
-136.2538709511796
 10
94.32671438614055
 20
-136.2538709511796
 10
94.32671438614055
 20
-136.1736002263733
 10
94.32671438614055
 20
-136.1736002263733
 10
94.27400442521622
 20
-136.211496276711
 10
94.24851071862538
 20
-136.2263101872976
 10
94.2061360441568
 20
-136.2497368365973
 10
94.2061360441568
 20
-136.2497368365973
 10
94.01803383066216
 20
-136.1205457559004
 10
94.01803383066216
 20
-136.1205457559004
 10
94.09623749817733
 20
-136.086783820145
 10
94.25264483320768
 20
-136.0233940632164
 10
94.40939667778655
 20
-135.8793890719329
 10
94.49173445988401
 20
-135.8011854044178
 10
94.56993812739918
 20
-135.7164360554806
 10
94.62299259787203
 20
-135.6151502482143
 10
94.62299259787203
 20
-135.6151502482143
 10
94.83452146066638
 20
-135.6764729478517
 10
94.83452146066638
 20
-135.6764729478517
 10
94.85346948583525
 20
-135.6826741197252
 10
94.86414928183952
 20
-135.6912868584383
 10
94.86414928183952
 20
-135.7040337117337
 10
94.86414928183952
 20
-135.7209146796114
 10
94.85140242854409
 20
-135.7271158514849
 10
94.82590872195325
 20
-135.7398627047803
 10
94.90652395630809
 20
-135.8373589070129
 10
95.06947697276041
 20
-135.9345105996969
 10
95.10323890851586
 20
-135.9534586248658
 10
95.25344507167276
 20
-136.0423420883853
 10
95.36747773223452
 20
-136.0699028522673
 10
95.44602590929821
 20
-136.0888508774361
 10
95.44602590929821
 20
-136.0888508774361
 10
95.32751462460563
 20
-136.2580050657619
 10
95.32751462460563
 20
-136.2580050657619
 10
95.24276527566848
 20
-136.2287217541373
 10
95.19212237203531
 20
-136.2094292194199
 10
95.07361108734271
 20
-136.1439724052001
 10
95.07361108734271
 20
-136.1439724052001
 10
95.07361108734271
 20
-136.2538709511796
 10
95.07361108734271
 20
-136.2538709511796
 10
94.99092879569672
 20
-136.245602722015
 10
94.86414928183952
 20
-136.2411240978842
 10
94.81109481136667
 20
-136.2411240978842
 10
94.81109481136667
 20
-136.2411240978842
 10
94.81109481136667
 20
-136.3723822358722
 10
94.81109481136667
 20
-136.3723822358722
 10
94.81109481136667
 20
-136.3723822358722
 10
94.93167315335042
 20
-136.3723822358722
 10
94.93167315335042
 20
-136.3723822358722
 10
94.9340847201901
 20
-136.3723822358722
 10
95.16662866544446
 20
-136.3703151785811
 10
95.34439559248335
 20
-136.3534342107033
 10
95.34439559248335
 20
-136.3534342107033
 10
95.34439559248335
 20
-136.5436034814891
 10
95.34439559248335
 20
-136.5436034814891
 10
95.21520451178648
 20
-136.5312011377422
 10
95.05879717675614
 20
-136.5312011377422
 10
94.93167315335042
 20
-136.5312011377422
 10
94.93167315335042
 20
-136.5312011377422
 10
94.81109481136667
 20
-136.5312011377422
 10
94.81109481136667
 20
-136.5312011377422
 10
94.81109481136667
 20
-136.5312011377422
 10
94.81109481136667
 20
-136.7575439111231
 10
94.81109481136667
 20
-136.7575439111231
 10
94.81109481136667
 20
-136.8760551958157
 10
94.78594561432435
 20
-136.9118841888623
 10
94.62505965516318
 20
-136.9266980994489
 10
94.62919376974548
 20
-136.9456461246178
 10
94.62299259787203
 20
-136.956325920622
 10
94.58475203798577
 20
-136.9794080603732
 10
94.58268498069461
 20
-136.9987005950906
 10
94.58268498069461
 20
-137.0049017669641
 10
94.58061792340347
 20
-137.0197156775506
 10
94.58061792340347
 20
-137.0197156775506
 10
94.71807723326494
 20
-137.0197156775506
 10
94.71807723326494
 20
-137.0197156775506
 10
94.8830973070084
 20
-137.0197156775506
 10
95.05018443804302
 20
-137.0155815629683
 10
95.21727156907762
 20
-137.0007676523818
 10
95.21727156907762
 20
-137.0007676523818
 10
95.21727156907762
 20
-137.2081624005938
 10
95.21727156907762
 20
-137.2081624005938
 10
95.00160859170099
 20
-137.1912814327161
 10
94.73736976798233
 20
-137.1912814327161
 10
94.71807723326494
 20
-137.1912814327161
 10
94.71807723326494
 20
-137.1912814327161
 10
94.57855086611231
 20
-137.1912814327161
 10
94.57855086611231
 20
-137.1912814327161
 10
94.57855086611231
 20
-137.1912814327161
 10
94.57855086611231
 20
-137.3328748571599
 10
94.57855086611231
 20
-137.3328748571599
 10
94.57855086611231
 20
-137.3328748571599
 10
94.80489363949323
 20
-137.3328748571599
 10
94.80489363949323
 20
-137.3328748571599
 10
95.02055661686987
 20
-137.3328748571599
 10
95.23863116108618
 20
-137.3287407425775
 10
95.45429413846281
 20
-137.3159938892821
 10
95.45429413846281
 20
-137.3159938892821
 10
95.45429413846281
 20
-137.5233886374942
 10
95.45429413846281
 20
-137.5233886374942
 10
95.1728298373179
 20
-137.5061631600679
 10
94.82832028879292
 20
-137.5061631600679
 10
94.80489363949323
 20
-137.5061631600679
 97
        0
 97
        0
 92
        1
 93
        1
 72
     4
 94
        3
 73
     0
 74
     1
 95
       23
 96
       19
 40
0.0
 40
0.0
 40
0.0
 40
0.0
 40
1.0
 40
1.0
 40
1.0
 40
2.0
 40
2.0
 40
2.0
 40
3.0
 40
3.0
 40
3.0
 40
4.0
 40
4.0
 40
4.0
 40
5.0
 40
5.0
 40
5.0
 40
6.0
 40
6.0
 40
6.0
 40
6.0
 10
93.68592662588408
 20
-136.8781222531069
 10
93.68592662588408
 20
-136.8991373355669
 10
93.68799368317522
 20
-136.9373778954532
 10
93.66249997658439
 20
-136.9373778954532
 10
93.6518201805801
 20
-136.9373778954532
 10
93.6435519514155
 20
-136.9308322140312
 10
93.63287215541123
 20
-136.9139512461535
 10
93.63287215541123
 20
-136.9139512461535
 10
93.52917478130522
 20
-136.7320502045323
 10
93.52917478130522
 20
-136.7320502045323
 10
93.74518226823038
 20
-136.6028591238354
 10
93.94189722043814
 20
-136.3258734468213
 10
93.98840600948901
 20
-136.2538709511796
 10
93.98840600948901
 20
-136.2538709511796
 10
94.06040850513074
 20
-136.4337049355096
 10
94.06040850513074
 20
-136.4337049355096
 10
93.92708330985157
 20
-136.6304198877174
 10
93.75138344010382
 20
-136.8143879866298
 10
93.68592662588408
 20
-136.8781222531069
 97
        0
 97
        0
 92
        1
 93
        1
 72
     4
 94
        3
 73
     0
 74
     1
 95
       17
 96
       13
 40
0.0
 40
0.0
 40
0.0
 40
0.0
 40
1.0
 40
1.0
 40
1.0
 40
2.0
 40
2.0
 40
2.0
 40
3.0
 40
3.0
 40
3.0
 40
4.0
 40
4.0
 40
4.0
 40
4.0
 10
93.939830163147
 20
-135.983086446039
 10
93.87816295396102
 20
-135.9069498358149
 10
93.74931638281268
 20
-135.8308132255909
 10
93.64561900870666
 20
-135.8011854044178
 10
93.64561900870666
 20
-135.8011854044178
 10
93.74070364409955
 20
-135.6361653306743
 10
93.74070364409955
 20
-135.6361653306743
 10
93.84233396091442
 20
-135.6723388332694
 10
93.94809839231159
 20
-135.729182908776
 10
94.03698185583103
 20
-135.8097981431309
 10
94.03698185583103
 20
-135.8097981431309
 10
93.939830163147
 20
-135.983086446039
 10
93.939830163147
 20
-135.983086446039
 97
        0
 97
        0
 92
        1
 93
        1
 72
     4
 94
        3
 73
     0
 74
     1
 95
       23
 96
       19
 40
0.0
 40
0.0
 40
0.0
 40
0.0
 40
1.0
 40
1.0
 40
1.0
 40
2.0
 40
2.0
 40
2.0
 40
3.0
 40
3.0
 40
3.0
 40
4.0
 40
4.0
 40
4.0
 40
5.0
 40
5.0
 40
5.0
 40
6.0
 40
6.0
 40
6.0
 40
6.0
 10
94.39251570990882
 20
-136.6876084727726
 10
94.37115611790027
 20
-136.7110351220722
 10
94.27400442521622
 20
-136.8230007253429
 10
94.13413354851508
 20
-136.9032714501492
 10
94.13413354851508
 20
-136.9032714501492
 10
93.96704641748046
 20
-136.7826931081654
 10
93.96704641748046
 20
-136.7826931081654
 10
94.11725258063736
 20
-136.7065564979414
 10
94.21681584016108
 20
-136.6114718625485
 10
94.26539168650311
 20
-136.5584173920757
 10
94.26539168650311
 20
-136.5584173920757
 10
94.4390244989597
 20
-136.6410996837217
 10
94.4390244989597
 20
-136.6410996837217
 10
94.4472927281243
 20
-136.645233798304
 10
94.45590546683742
 20
-136.6517794797259
 10
94.45590546683742
 20
-136.6621147661817
 10
94.45590546683742
 20
-136.6876084727726
 10
94.41973196424229
 20
-136.6876084727726
 10
94.39251570990882
 20
-136.6876084727726
 97
        0
 97
        0
 92
        1
 93
        1
 72
     4
 94
        3
 73
     0
 74
     1
 95
       20
 96
       16
 40
0.0
 40
0.0
 40
0.0
 40
0.0
 40
1.0
 40
1.0
 40
1.0
 40
2.0
 40
2.0
 40
2.0
 40
3.0
 40
3.0
 40
3.0
 40
4.0
 40
4.0
 40
4.0
 40
5.0
 40
5.0
 40
5.0
 40
5.0
 10
94.69051646938293
 20
-135.8456271361775
 10
94.65262041904518
 20
-135.8942029825195
 10
94.59129771940773
 20
-135.9727511595832
 10
94.45177135225512
 20
-136.0826497055627
 10
94.53204207706143
 20
-136.086783820145
 10
94.56166989823458
 20
-136.086783820145
 10
94.58475203798577
 20
-136.086783820145
 10
94.58475203798577
 20
-136.086783820145
 10
94.81350637820636
 20
-136.086783820145
 10
94.81350637820636
 20
-136.086783820145
 10
94.84520125667065
 20
-136.086783820145
 10
94.89377710301267
 20
-136.0847167628538
 10
94.96784665594554
 20
-136.0826497055627
 10
94.8555365431264
 20
-136.0085801526298
 10
94.80696069678437
 20
-135.9620713635789
 10
94.69051646938293
 20
-135.8456271361775
 97
        0
 97
        0
 92
        1
 93
        1
 72
     4
 94
        3
 73
     0
 74
     1
 95
       17
 96
       13
 40
0.0
 40
0.0
 40
0.0
 40
0.0
 40
1.0
 40
1.0
 40
1.0
 40
2.0
 40
2.0
 40
2.0
 40
3.0
 40
3.0
 40
3.0
 40
4.0
 40
4.0
 40
4.0
 40
4.0
 10
95.2513780143816
 20
-136.901204392858
 10
95.11598576181129
 20
-136.7892387895874
 10
95.01022133041411
 20
-136.7258490326588
 10
94.89171004572152
 20
-136.6621147661817
 10
94.89171004572152
 20
-136.6621147661817
 10
95.01848955957871
 20
-136.5501491629111
 10
95.01848955957871
 20
-136.5501491629111
 10
95.14974769756674
 20
-136.596657951962
 10
95.2596462435462
 20
-136.6538465370171
 10
95.38470320966077
 20
-136.755476853832
 10
95.38470320966077
 20
-136.755476853832
 10
95.2513780143816
 20
-136.901204392858
 10
95.2513780143816
 20
-136.901204392858
 97
        0
 97
        0
 75
     2
 76
     1
 98
        0
  0
SPLINE
  5
10D
330
101
100
AcDbEntity
  8
_U+30EC_U+30A4_U+30E4_U+30FC 1
370
     0
100
AcDbSpline
210
0.0
220
0.0
230
1.0
 70
    11
 71
     3
 72
   113
 73
   109
 74
     0
 42
0.0000000001
 43
0.0000000001
 12
1.0
 22
0.0
 32
0.0
 13
1.0
 23
0.0
 33
0.0
 40
0.0
 40
0.0
 40
0.0
 40
0.0
 40
1.0
 40
1.0
 40
1.0
 40
2.0
 40
2.0
 40
2.0
 40
3.0
 40
3.0
 40
3.0
 40
4.0
 40
4.0
 40
4.0
 40
5.0
 40
5.0
 40
5.0
 40
6.0
 40
6.0
 40
6.0
 40
7.0
 40
7.0
 40
7.0
 40
8.0
 40
8.0
 40
8.0
 40
9.0
 40
9.0
 40
9.0
 40
10.0
 40
10.0
 40
10.0
 40
11.0
 40
11.0
 40
11.0
 40
12.0
 40
12.0
 40
12.0
 40
13.0
 40
13.0
 40
13.0
 40
14.0
 40
14.0
 40
14.0
 40
15.0
 40
15.0
 40
15.0
 40
16.0
 40
16.0
 40
16.0
 40
17.0
 40
17.0
 40
17.0
 40
18.0
 40
18.0
 40
18.0
 40
19.0
 40
19.0
 40
19.0
 40
20.0
 40
20.0
 40
20.0
 40
21.0
 40
21.0
 40
21.0
 40
22.0
 40
22.0
 40
22.0
 40
23.0
 40
23.0
 40
23.0
 40
24.0
 40
24.0
 40
24.0
 40
25.0
 40
25.0
 40
25.0
 40
26.0
 40
26.0
 40
26.0
 40
27.0
 40
27.0
 40
27.0
 40
28.0
 40
28.0
 40
28.0
 40
29.0
 40
29.0
 40
29.0
 40
30.0
 40
30.0
 40
30.0
 40
31.0
 40
31.0
 40
31.0
 40
32.0
 40
32.0
 40
32.0
 40
33.0
 40
33.0
 40
33.0
 40
34.0
 40
34.0
 40
34.0
 40
35.0
 40
35.0
 40
35.0
 40
36.0
 40
36.0
 40
36.0
 40
36.0
 10
97.13102211113392
 20
-136.8781222531069
 30
0.0
 10
97.13102211113392
 20
-136.8781222531069
 30
0.0
 10
97.23058537065764
 20
-136.977341003082
 30
0.0
 10
97.23058537065764
 20
-136.977341003082
 30
0.0
 10
97.24092065711339
 20
-136.9880207990863
 30
0.0
 10
97.25160045311766
 20
-137.0007676523818
 30
0.0
 10
97.25160045311766
 20
-137.0155815629683
 30
0.0
 10
97.25160045311766
 20
-137.0176486202595
 30
0.0
 10
97.25160045311766
 20
-137.0472764414326
 30
0.0
 10
97.21335989323138
 20
-137.0472764414326
 30
0.0
 10
97.20509166406679
 20
-137.0472764414326
 30
0.0
 10
97.16478404688937
 20
-137.0431423268503
 30
0.0
 10
97.15858287501591
 20
-137.0431423268503
 30
0.0
 10
97.11827525783849
 20
-137.0748372053146
 30
0.0
 10
97.07176646878762
 20
-137.1085991410701
 30
0.0
 10
96.9722032092639
 20
-137.1657877261252
 30
0.0
 10
97.11827525783849
 20
-137.2736192148136
 30
0.0
 10
97.27709415970851
 20
-137.3308077998687
 30
0.0
 10
97.5499457221403
 20
-137.3687038502064
 30
0.0
 10
97.5499457221403
 20
-137.3687038502064
 30
0.0
 10
97.3997395589834
 20
-137.5444037199542
 30
0.0
 10
97.3997395589834
 20
-137.5444037199542
 30
0.0
 10
97.13722328300736
 20
-137.4724012243124
 30
0.0
 10
96.98081594797702
 20
-137.383517760793
 30
0.0
 10
96.904679337753
 20
-137.3308077998687
 30
0.0
 10
96.75447317459611
 20
-137.2291774830538
 30
0.0
 10
96.61046818331266
 20
-137.0662244666015
 30
0.0
 10
96.53433157308865
 20
-136.901204392858
 30
0.0
 10
96.46680770157775
 20
-136.9670057166263
 30
0.0
 10
96.39273814864488
 20
-137.0197156775506
 30
0.0
 10
96.3145344811297
 20
-137.0682915238927
 30
0.0
 10
96.3145344811297
 20
-137.0682915238927
 30
0.0
 10
96.3145344811297
 20
-137.3201280038644
 30
0.0
 10
96.3145344811297
 20
-137.3201280038644
 30
0.0
 10
96.47714298803349
 20
-137.2946342972736
 30
0.0
 10
96.6635226537855
 20
-137.2501925655139
 30
0.0
 10
96.7269124107141
 20
-137.2353786549273
 30
0.0
 10
96.7269124107141
 20
-137.2353786549273
 30
0.0
 10
96.69728458954096
 20
-137.4048773528016
 30
0.0
 10
96.69728458954096
 20
-137.4048773528016
 30
0.0
 10
96.69521753224981
 20
-137.4048773528016
 30
0.0
 10
96.67626950708093
 20
-137.411078524675
 30
0.0
 10
96.67420244978979
 20
-137.411078524675
 30
0.0
 10
96.47507593074235
 20
-137.4493190845613
 30
0.0
 10
96.15778263655083
 20
-137.514775898781
 30
0.0
 10
95.96106768434306
 20
-137.5506048918276
 30
0.0
 10
95.9503878883388
 20
-137.5678303692539
 30
0.0
 10
95.92730574858763
 20
-137.5995252477182
 30
0.0
 10
95.90387909928792
 20
-137.5995252477182
 30
0.0
 10
95.87666284495445
 20
-137.5995252477182
 30
0.0
 10
95.87218422082363
 20
-137.5802327130008
 30
0.0
 10
95.87011716353247
 20
-137.5612846878319
 30
0.0
 10
95.87011716353247
 20
-137.5612846878319
 30
0.0
 10
95.84462345694163
 20
-137.3879963849238
 30
0.0
 10
95.84462345694163
 20
-137.3879963849238
 30
0.0
 10
95.9186930098745
 20
-137.3793836462107
 30
0.0
 10
96.02686900811135
 20
-137.3666367929153
 30
0.0
 10
96.13470049679967
 20
-137.3456217104553
 30
0.0
 10
96.13470049679967
 20
-137.3456217104553
 30
0.0
 10
96.13470049679967
 20
-137.1678547834164
 30
0.0
 10
96.13470049679967
 20
-137.1678547834164
 30
0.0
 10
95.99069550551621
 20
-137.2398572790581
 30
0.0
 10
95.89561087012332
 20
-137.2694851002312
 30
0.0
 10
95.73059079637986
 20
-137.2991129214044
 30
0.0
 10
95.73059079637986
 20
-137.2991129214044
 30
0.0
 10
95.61001245439611
 20
-137.1296142235301
 30
0.0
 10
95.61001245439611
 20
-137.1296142235301
 30
0.0
 10
95.92730574858763
 20
-137.1023979691966
 30
0.0
 10
96.11988658621308
 20
-137.0090358815464
 30
0.0
 10
96.29765351325197
 20
-136.8760551958157
 30
0.0
 10
96.15158146467739
 20
-136.8760551958157
 30
0.0
 10
95.8511691383636
 20
-136.880189310398
 30
0.0
 10
95.65445418615583
 20
-136.8863904822715
 30
0.0
 10
95.65445418615583
 20
-136.8863904822715
 30
0.0
 10
95.65445418615583
 20
-136.7086235552326
 30
0.0
 10
95.65445418615583
 20
-136.7086235552326
 30
0.0
 10
95.80879446389503
 20
-136.7151692366546
 30
0.0
 10
96.10507267562652
 20
-136.721370408528
 30
0.0
 10
96.28904077453886
 20
-136.721370408528
 30
0.0
 10
96.28904077453886
 20
-136.721370408528
 30
0.0
 10
96.5005696373332
 20
-136.721370408528
 30
0.0
 10
96.5005696373332
 20
-136.721370408528
 30
0.0
 10
96.5005696373332
 20
-136.6262857731351
 30
0.0
 10
96.49850258004204
 20
-136.5756428695019
 30
0.0
 10
96.49195689862007
 20
-136.5287895709025
 30
0.0
 10
96.49195689862007
 20
-136.5287895709025
 30
0.0
 10
96.70796438554524
 20
-136.5460150483288
 30
0.0
 10
96.70796438554524
 20
-136.5460150483288
 30
0.0
 10
96.75654023188726
 20
-136.5501491629111
 30
0.0
 10
96.76515297060038
 20
-136.5649630734977
 30
0.0
 10
96.76515297060038
 20
-136.5797769840842
 30
0.0
 10
96.76515297060038
 20
-136.6052706906751
 30
0.0
 10
96.74792749317413
 20
-136.6135389198397
 30
0.0
 10
96.69728458954096
 20
-136.6390326264305
 30
0.0
 10
96.69521753224981
 20
-136.6645263330214
 30
0.0
 10
96.69521753224981
 20
-136.6707275048948
 30
0.0
 10
96.69315047495866
 20
-136.721370408528
 30
0.0
 10
96.69315047495866
 20
-136.721370408528
 30
0.0
 10
96.92362736292188
 20
-136.721370408528
 30
0.0
 10
96.92362736292188
 20
-136.721370408528
 30
0.0
 10
97.08864743666534
 20
-136.721370408528
 30
0.0
 10
97.38079153381453
 20
-136.7151692366546
 30
0.0
 10
97.56028100859605
 20
-136.7086235552326
 30
0.0
 10
97.56028100859605
 20
-136.7086235552326
 30
0.0
 10
97.56028100859605
 20
-136.8863904822715
 30
0.0
 10
97.56028100859605
 20
-136.8863904822715
 30
0.0
 10
97.4314344374477
 20
-136.8822563676892
 30
0.0
 10
97.408007788148
 20
-136.8822563676892
 30
0.0
 10
97.13102211113392
 20
-136.8781222531069
 30
0.0
  0
SPLINE
  5
10E
330
101
100
AcDbEntity
  8
_U+30EC_U+30A4_U+30E4_U+30FC 1
370
     0
100
AcDbSpline
210
0.0
220
0.0
230
1.0
 70
    11
 71
     3
 72
    23
 73
    19
 74
     0
 42
0.0000000001
 43
0.0000000001
 12
1.0
 22
0.0
 32
0.0
 13
1.0
 23
0.0
 33
0.0
 40
0.0
 40
0.0
 40
0.0
 40
0.0
 40
1.0
 40
1.0
 40
1.0
 40
2.0
 40
2.0
 40
2.0
 40
3.0
 40
3.0
 40
3.0
 40
4.0
 40
4.0
 40
4.0
 40
5.0
 40
5.0
 40
5.0
 40
6.0
 40
6.0
 40
6.0
 40
6.0
 10
95.8470350237813
 20
-136.5267225136114
 30
0.0
 10
95.82980954635505
 20
-136.5670301307888
 30
0.0
 10
95.82360837448161
 20
-136.5839110986665
 30
0.0
 10
95.80259329202158
 20
-136.5839110986665
 30
0.0
 10
95.787779381435
 20
-136.5839110986665
 30
0.0
 10
95.77709958543073
 20
-136.5670301307888
 30
0.0
 10
95.77089841355728
 20
-136.5542832774934
 30
0.0
 10
95.77089841355728
 20
-136.5542832774934
 30
0.0
 10
95.67133515403356
 20
-136.3892632037499
 30
0.0
 10
95.67133515403356
 20
-136.3892632037499
 30
0.0
 10
95.77296547084843
 20
-136.3575683252856
 30
0.0
 10
95.92317163400533
 20
-136.3024467975216
 30
0.0
 10
96.12195364350424
 20
-136.1398382906178
 30
0.0
 10
96.12195364350424
 20
-136.1398382906178
 30
0.0
 10
96.17914222855939
 20
-136.3131265935259
 30
0.0
 10
96.17914222855939
 20
-136.3131265935259
 30
0.0
 10
96.08578014090911
 20
-136.3958088851719
 30
0.0
 10
95.9972411869382
 20
-136.4526529606785
 30
0.0
 10
95.8470350237813
 20
-136.5267225136114
 30
0.0
  0
SPLINE
  5
10F
330
101
100
AcDbEntity
  8
_U+30EC_U+30A4_U+30E4_U+30FC 1
370
     0
100
AcDbSpline
210
0.0
220
0.0
230
1.0
 70
    11
 71
     3
 72
    17
 73
    13
 74
     0
 42
0.0000000001
 43
0.0000000001
 12
1.0
 22
0.0
 32
0.0
 13
1.0
 23
0.0
 33
0.0
 40
0.0
 40
0.0
 40
0.0
 40
0.0
 40
1.0
 40
1.0
 40
1.0
 40
2.0
 40
2.0
 40
2.0
 40
3.0
 40
3.0
 40
3.0
 40
4.0
 40
4.0
 40
4.0
 40
4.0
 10
95.99930824422934
 20
-136.0612901135541
 30
0.0
 10
95.96968042305619
 20
-136.0213270059252
 30
0.0
 10
95.90181204199678
 20
-135.9238308036927
 30
0.0
 10
95.71991100037559
 20
-135.8139322577132
 30
0.0
 10
95.71991100037559
 20
-135.8139322577132
 30
0.0
 10
95.8470350237813
 20
-135.680607062434
 30
0.0
 10
95.8470350237813
 20
-135.680607062434
 30
0.0
 10
96.03307017998479
 20
-135.7822373792489
 30
0.0
 10
96.09025876503993
 20
-135.8711208427683
 30
0.0
 10
96.11781952892194
 20
-135.9134955172369
 30
0.0
 10
96.11781952892194
 20
-135.9134955172369
 30
0.0
 10
95.99930824422934
 20
-136.0612901135541
 30
0.0
 10
95.99930824422934
 20
-136.0612901135541
 30
0.0
  0
SPLINE
  5
110
330
101
100
AcDbEntity
  8
_U+30EC_U+30A4_U+30E4_U+30FC 1
370
     0
100
AcDbSpline
210
0.0
220
0.0
230
1.0
 70
    11
 71
     3
 72
    38
 73
    34
 74
     0
 42
0.0000000001
 43
0.0000000001
 12
1.0
 22
0.0
 32
0.0
 13
1.0
 23
0.0
 33
0.0
 40
0.0
 40
0.0
 40
0.0
 40
0.0
 40
1.0
 40
1.0
 40
1.0
 40
2.0
 40
2.0
 40
2.0
 40
3.0
 40
3.0
 40
3.0
 40
4.0
 40
4.0
 40
4.0
 40
5.0
 40
5.0
 40
5.0
 40
6.0
 40
6.0
 40
6.0
 40
7.0
 40
7.0
 40
7.0
 40
8.0
 40
8.0
 40
8.0
 40
9.0
 40
9.0
 40
9.0
 40
10.0
 40
10.0
 40
10.0
 40
11.0
 40
11.0
 40
11.0
 40
11.0
 10
96.36724444205403
 20
-135.756743672658
 30
0.0
 10
96.36517738476287
 20
-135.8032524617089
 30
0.0
 10
96.36311032747173
 20
-135.9196966891104
 30
0.0
 10
96.36311032747173
 20
-135.9641384208701
 30
0.0
 10
96.36311032747173
 20
-135.9641384208701
 30
0.0
 10
96.36311032747173
 20
-136.3110595362348
 30
0.0
 10
96.36311032747173
 20
-136.3110595362348
 30
0.0
 10
96.36311032747173
 20
-136.397875942463
 30
0.0
 10
96.36517738476287
 20
-136.5394693669068
 30
0.0
 10
96.37585718076716
 20
-136.6600477088905
 30
0.0
 10
96.37585718076716
 20
-136.6600477088905
 30
0.0
 10
96.18534340043284
 20
-136.6600477088905
 30
0.0
 10
96.18534340043284
 20
-136.6600477088905
 30
0.0
 10
96.18947751501514
 20
-136.596657951962
 30
0.0
 10
96.19395613914595
 20
-136.5436034814891
 30
0.0
 10
96.19602319643711
 20
-136.4888264632736
 30
0.0
 10
96.19809025372825
 20
-136.3661810639987
 30
0.0
 10
96.20015731101941
 20
-136.3513671534122
 30
0.0
 10
96.20015731101941
 20
-136.3069254216524
 30
0.0
 10
96.20015731101941
 20
-136.3069254216524
 30
0.0
 10
96.20015731101941
 20
-135.9851535033301
 30
0.0
 10
96.20015731101941
 20
-135.9851535033301
 30
0.0
 10
96.20015731101941
 20
-135.9303764851146
 30
0.0
 10
96.18741045772398
 20
-135.6912868584383
 30
0.0
 10
96.18534340043284
 20
-135.6402994452566
 30
0.0
 10
96.18534340043284
 20
-135.6402994452566
 30
0.0
 10
96.3861924672229
 20
-135.6678602091386
 30
0.0
 10
96.3861924672229
 20
-135.6678602091386
 30
0.0
 10
96.40755205923145
 20
-135.6699272664297
 30
0.0
 10
96.43924693769574
 20
-135.6744058905606
 30
0.0
 10
96.43924693769574
 20
-135.6995550876029
 30
0.0
 10
96.43924693769574
 20
-135.7271158514849
 30
0.0
 10
96.38860403406258
 20
-135.7484754434934
 30
0.0
 10
96.36724444205403
 20
-135.756743672658
 30
0.0
  0
SPLINE
  5
111
330
101
100
AcDbEntity
  8
_U+30EC_U+30A4_U+30E4_U+30FC 1
370
     0
100
AcDbSpline
210
0.0
220
0.0
230
1.0
 70
    11
 71
     3
 72
    83
 73
    79
 74
     0
 42
0.0000000001
 43
0.0000000001
 12
1.0
 22
0.0
 32
0.0
 13
1.0
 23
0.0
 33
0.0
 40
0.0
 40
0.0
 40
0.0
 40
0.0
 40
1.0
 40
1.0
 40
1.0
 40
2.0
 40
2.0
 40
2.0
 40
3.0
 40
3.0
 40
3.0
 40
4.0
 40
4.0
 40
4.0
 40
5.0
 40
5.0
 40
5.0
 40
6.0
 40
6.0
 40
6.0
 40
7.0
 40
7.0
 40
7.0
 40
8.0
 40
8.0
 40
8.0
 40
9.0
 40
9.0
 40
9.0
 40
10.0
 40
10.0
 40
10.0
 40
11.0
 40
11.0
 40
11.0
 40
12.0
 40
12.0
 40
12.0
 40
13.0
 40
13.0
 40
13.0
 40
14.0
 40
14.0
 40
14.0
 40
15.0
 40
15.0
 40
15.0
 40
16.0
 40
16.0
 40
16.0
 40
17.0
 40
17.0
 40
17.0
 40
18.0
 40
18.0
 40
18.0
 40
19.0
 40
19.0
 40
19.0
 40
20.0
 40
20.0
 40
20.0
 40
21.0
 40
21.0
 40
21.0
 40
22.0
 40
22.0
 40
22.0
 40
23.0
 40
23.0
 40
23.0
 40
24.0
 40
24.0
 40
24.0
 40
25.0
 40
25.0
 40
25.0
 40
26.0
 40
26.0
 40
26.0
 40
26.0
 10
97.16891816147167
 20
-136.0785155909804
 30
0.0
 10
97.16891816147167
 20
-136.0785155909804
 30
0.0
 10
97.07176646878762
 20
-136.0785155909804
 30
0.0
 10
97.07176646878762
 20
-136.0785155909804
 30
0.0
 10
97.07176646878762
 20
-136.0785155909804
 30
0.0
 10
97.07176646878762
 20
-136.3258734468213
 30
0.0
 10
97.07176646878762
 20
-136.3258734468213
 30
0.0
 10
97.07176646878762
 20
-136.3258734468213
 30
0.0
 10
97.15410425088508
 20
-136.3258734468213
 30
0.0
 10
97.15410425088508
 20
-136.3258734468213
 30
0.0
 10
97.21990557465337
 20
-136.3258734468213
 30
0.0
 10
97.35943194180598
 20
-136.321739332239
 30
0.0
 10
97.4589952013297
 20
-136.3131265935259
 30
0.0
 10
97.4589952013297
 20
-136.3131265935259
 30
0.0
 10
97.4589952013297
 20
-136.4929605778559
 30
0.0
 10
97.4589952013297
 20
-136.4929605778559
 30
0.0
 10
97.36597762322795
 20
-136.4846923486913
 30
0.0
 10
97.21577146007107
 20
-136.4802137245605
 30
0.0
 10
97.15410425088508
 20
-136.4802137245605
 30
0.0
 10
97.15410425088508
 20
-136.4802137245605
 30
0.0
 10
96.84955780998901
 20
-136.4802137245605
 30
0.0
 10
96.84955780998901
 20
-136.4802137245605
 30
0.0
 10
96.79684784906468
 20
-136.4802137245605
 30
0.0
 10
96.6507758004901
 20
-136.4846923486913
 30
0.0
 10
96.54501136909292
 20
-136.4929605778559
 30
0.0
 10
96.54501136909292
 20
-136.4929605778559
 30
0.0
 10
96.54501136909292
 20
-136.3131265935259
 30
0.0
 10
96.54501136909292
 20
-136.3131265935259
 30
0.0
 10
96.64457462861664
 20
-136.321739332239
 30
0.0
 10
96.78410099576925
 20
-136.3258734468213
 30
0.0
 10
96.84955780998901
 20
-136.3258734468213
 30
0.0
 10
96.84955780998901
 20
-136.3258734468213
 30
0.0
 10
96.89399954174873
 20
-136.3258734468213
 30
0.0
 10
96.89399954174873
 20
-136.3258734468213
 30
0.0
 10
96.89399954174873
 20
-136.3258734468213
 30
0.0
 10
96.89399954174873
 20
-136.0785155909804
 30
0.0
 10
96.89399954174873
 20
-136.0785155909804
 30
0.0
 10
96.89399954174873
 20
-136.0785155909804
 30
0.0
 10
96.81992998881586
 20
-136.0785155909804
 30
0.0
 10
96.81992998881586
 20
-136.0785155909804
 30
0.0
 10
96.75860728917841
 20
-136.0785155909804
 30
0.0
 10
96.5915201581438
 20
-136.0826497055627
 30
0.0
 10
96.47094181616005
 20
-136.0909179347273
 30
0.0
 10
96.47094181616005
 20
-136.0909179347273
 30
0.0
 10
96.47094181616005
 20
-135.9134955172369
 30
0.0
 10
96.47094181616005
 20
-135.9134955172369
 30
0.0
 10
96.58531898627034
 20
-135.9196966891104
 30
0.0
 10
96.74379337859183
 20
-135.9238308036927
 30
0.0
 10
96.81992998881586
 20
-135.9238308036927
 30
0.0
 10
96.81992998881586
 20
-135.9238308036927
 30
0.0
 10
96.89193248445757
 20
-135.9238308036927
 30
0.0
 10
96.89193248445757
 20
-135.9238308036927
 30
0.0
 10
96.88779836987527
 20
-135.7715575832446
 30
0.0
 10
96.88573131258413
 20
-135.7377956474892
 30
0.0
 10
96.87918563116216
 20
-135.6447780693874
 30
0.0
 10
96.87918563116216
 20
-135.6447780693874
 30
0.0
 10
97.0907144939565
 20
-135.6678602091386
 30
0.0
 10
97.0907144939565
 20
-135.6678602091386
 30
0.0
 10
97.11620820054735
 20
-135.6699272664297
 30
0.0
 10
97.13963484984704
 20
-135.6744058905606
 30
0.0
 10
97.13963484984704
 20
-135.6974880303117
 30
0.0
 10
97.13963484984704
 20
-135.729182908776
 30
0.0
 10
97.09519311808732
 20
-135.7460638766538
 30
0.0
 10
97.07176646878762
 20
-135.7546766153669
 30
0.0
 10
97.07176646878762
 20
-135.7546766153669
 30
0.0
 10
97.07176646878762
 20
-135.9238308036927
 30
0.0
 10
97.07176646878762
 20
-135.9238308036927
 30
0.0
 10
97.07176646878762
 20
-135.9238308036927
 30
0.0
 10
97.16891816147167
 20
-135.9238308036927
 30
0.0
 10
97.16891816147167
 20
-135.9238308036927
 30
0.0
 10
97.2453992812442
 20
-135.9238308036927
 30
0.0
 10
97.4038736735657
 20
-135.9196966891104
 30
0.0
 10
97.52031790096714
 20
-135.9134955172369
 30
0.0
 10
97.52031790096714
 20
-135.9134955172369
 30
0.0
 10
97.52031790096714
 20
-136.0909179347273
 30
0.0
 10
97.52031790096714
 20
-136.0909179347273
 30
0.0
 10
97.41248641227882
 20
-136.0847167628538
 30
0.0
 10
97.23885359982224
 20
-136.0785155909804
 30
0.0
 10
97.16891816147167
 20
-136.0785155909804
 30
0.0
  0
SPLINE
  5
112
330
101
100
AcDbEntity
  8
_U+30EC_U+30A4_U+30E4_U+30FC 1
370
     0
100
AcDbSpline
210
0.0
220
0.0
230
1.0
 70
    11
 71
     3
 72
    17
 73
    13
 74
     0
 42
0.0000000001
 43
0.0000000001
 12
1.0
 22
0.0
 32
0.0
 13
1.0
 23
0.0
 33
0.0
 40
0.0
 40
0.0
 40
0.0
 40
0.0
 40
1.0
 40
1.0
 40
1.0
 40
2.0
 40
2.0
 40
2.0
 40
3.0
 40
3.0
 40
3.0
 40
4.0
 40
4.0
 40
4.0
 40
4.0
 10
96.92362736292188
 20
-136.8760551958157
 30
0.0
 10
96.92362736292188
 20
-136.8760551958157
 30
0.0
 10
96.72071123884066
 20
-136.8760551958157
 30
0.0
 10
96.72071123884066
 20
-136.8760551958157
 30
0.0
 10
96.74792749317413
 20
-136.935310838162
 30
0.0
 10
96.80304902093813
 20
-137.0069688242552
 30
0.0
 10
96.83060978482013
 20
-137.0365966454283
 30
0.0
 10
96.85817054870213
 20
-137.0217827348418
 30
0.0
 10
96.9722032092639
 20
-136.9583929779132
 30
0.0
 10
97.06315373007449
 20
-136.8760551958157
 30
0.0
 10
97.06315373007449
 20
-136.8760551958157
 30
0.0
 10
96.92362736292188
 20
-136.8760551958157
 30
0.0
 10
96.92362736292188
 20
-136.8760551958157
 30
0.0
  0
HATCH
  5
113
330
101
100
AcDbEntity
  8
_U+30EC_U+30A4_U+30E4_U+30FC 1
 62
   179
420
  2234388
100
AcDbHatch
 10
0.0
 20
0.0
 30
0.0
210
0.0
220
0.0
230
1.0
  2
SOLID
 70
     1
 71
     0
 91
        6
 92
        1
 93
        1
 72
     4
 94
        3
 73
     0
 74
     1
 95
      113
 96
      109
 40
0.0
 40
0.0
 40
0.0
 40
0.0
 40
1.0
 40
1.0
 40
1.0
 40
2.0
 40
2.0
 40
2.0
 40
3.0
 40
3.0
 40
3.0
 40
4.0
 40
4.0
 40
4.0
 40
5.0
 40
5.0
 40
5.0
 40
6.0
 40
6.0
 40
6.0
 40
7.0
 40
7.0
 40
7.0
 40
8.0
 40
8.0
 40
8.0
 40
9.0
 40
9.0
 40
9.0
 40
10.0
 40
10.0
 40
10.0
 40
11.0
 40
11.0
 40
11.0
 40
12.0
 40
12.0
 40
12.0
 40
13.0
 40
13.0
 40
13.0
 40
14.0
 40
14.0
 40
14.0
 40
15.0
 40
15.0
 40
15.0
 40
16.0
 40
16.0
 40
16.0
 40
17.0
 40
17.0
 40
17.0
 40
18.0
 40
18.0
 40
18.0
 40
19.0
 40
19.0
 40
19.0
 40
20.0
 40
20.0
 40
20.0
 40
21.0
 40
21.0
 40
21.0
 40
22.0
 40
22.0
 40
22.0
 40
23.0
 40
23.0
 40
23.0
 40
24.0
 40
24.0
 40
24.0
 40
25.0
 40
25.0
 40
25.0
 40
26.0
 40
26.0
 40
26.0
 40
27.0
 40
27.0
 40
27.0
 40
28.0
 40
28.0
 40
28.0
 40
29.0
 40
29.0
 40
29.0
 40
30.0
 40
30.0
 40
30.0
 40
31.0
 40
31.0
 40
31.0
 40
32.0
 40
32.0
 40
32.0
 40
33.0
 40
33.0
 40
33.0
 40
34.0
 40
34.0
 40
34.0
 40
35.0
 40
35.0
 40
35.0
 40
36.0
 40
36.0
 40
36.0
 40
36.0
 10
97.13102211113392
 20
-136.8781222531069
 10
97.13102211113392
 20
-136.8781222531069
 10
97.23058537065764
 20
-136.977341003082
 10
97.23058537065764
 20
-136.977341003082
 10
97.24092065711339
 20
-136.9880207990863
 10
97.25160045311766
 20
-137.0007676523818
 10
97.25160045311766
 20
-137.0155815629683
 10
97.25160045311766
 20
-137.0176486202595
 10
97.25160045311766
 20
-137.0472764414326
 10
97.21335989323138
 20
-137.0472764414326
 10
97.20509166406679
 20
-137.0472764414326
 10
97.16478404688937
 20
-137.0431423268503
 10
97.15858287501591
 20
-137.0431423268503
 10
97.11827525783849
 20
-137.0748372053146
 10
97.07176646878762
 20
-137.1085991410701
 10
96.9722032092639
 20
-137.1657877261252
 10
97.11827525783849
 20
-137.2736192148136
 10
97.27709415970851
 20
-137.3308077998687
 10
97.5499457221403
 20
-137.3687038502064
 10
97.5499457221403
 20
-137.3687038502064
 10
97.3997395589834
 20
-137.5444037199542
 10
97.3997395589834
 20
-137.5444037199542
 10
97.13722328300736
 20
-137.4724012243124
 10
96.98081594797702
 20
-137.383517760793
 10
96.904679337753
 20
-137.3308077998687
 10
96.75447317459611
 20
-137.2291774830538
 10
96.61046818331266
 20
-137.0662244666015
 10
96.53433157308865
 20
-136.901204392858
 10
96.46680770157775
 20
-136.9670057166263
 10
96.39273814864488
 20
-137.0197156775506
 10
96.3145344811297
 20
-137.0682915238927
 10
96.3145344811297
 20
-137.0682915238927
 10
96.3145344811297
 20
-137.3201280038644
 10
96.3145344811297
 20
-137.3201280038644
 10
96.47714298803349
 20
-137.2946342972736
 10
96.6635226537855
 20
-137.2501925655139
 10
96.7269124107141
 20
-137.2353786549273
 10
96.7269124107141
 20
-137.2353786549273
 10
96.69728458954096
 20
-137.4048773528016
 10
96.69728458954096
 20
-137.4048773528016
 10
96.69521753224981
 20
-137.4048773528016
 10
96.67626950708093
 20
-137.411078524675
 10
96.67420244978979
 20
-137.411078524675
 10
96.47507593074235
 20
-137.4493190845613
 10
96.15778263655083
 20
-137.514775898781
 10
95.96106768434306
 20
-137.5506048918276
 10
95.9503878883388
 20
-137.5678303692539
 10
95.92730574858763
 20
-137.5995252477182
 10
95.90387909928792
 20
-137.5995252477182
 10
95.87666284495445
 20
-137.5995252477182
 10
95.87218422082363
 20
-137.5802327130008
 10
95.87011716353247
 20
-137.5612846878319
 10
95.87011716353247
 20
-137.5612846878319
 10
95.84462345694163
 20
-137.3879963849238
 10
95.84462345694163
 20
-137.3879963849238
 10
95.9186930098745
 20
-137.3793836462107
 10
96.02686900811135
 20
-137.3666367929153
 10
96.13470049679967
 20
-137.3456217104553
 10
96.13470049679967
 20
-137.3456217104553
 10
96.13470049679967
 20
-137.1678547834164
 10
96.13470049679967
 20
-137.1678547834164
 10
95.99069550551621
 20
-137.2398572790581
 10
95.89561087012332
 20
-137.2694851002312
 10
95.73059079637986
 20
-137.2991129214044
 10
95.73059079637986
 20
-137.2991129214044
 10
95.61001245439611
 20
-137.1296142235301
 10
95.61001245439611
 20
-137.1296142235301
 10
95.92730574858763
 20
-137.1023979691966
 10
96.11988658621308
 20
-137.0090358815464
 10
96.29765351325197
 20
-136.8760551958157
 10
96.15158146467739
 20
-136.8760551958157
 10
95.8511691383636
 20
-136.880189310398
 10
95.65445418615583
 20
-136.8863904822715
 10
95.65445418615583
 20
-136.8863904822715
 10
95.65445418615583
 20
-136.7086235552326
 10
95.65445418615583
 20
-136.7086235552326
 10
95.80879446389503
 20
-136.7151692366546
 10
96.10507267562652
 20
-136.721370408528
 10
96.28904077453886
 20
-136.721370408528
 10
96.28904077453886
 20
-136.721370408528
 10
96.5005696373332
 20
-136.721370408528
 10
96.5005696373332
 20
-136.721370408528
 10
96.5005696373332
 20
-136.6262857731351
 10
96.49850258004204
 20
-136.5756428695019
 10
96.49195689862007
 20
-136.5287895709025
 10
96.49195689862007
 20
-136.5287895709025
 10
96.70796438554524
 20
-136.5460150483288
 10
96.70796438554524
 20
-136.5460150483288
 10
96.75654023188726
 20
-136.5501491629111
 10
96.76515297060038
 20
-136.5649630734977
 10
96.76515297060038
 20
-136.5797769840842
 10
96.76515297060038
 20
-136.6052706906751
 10
96.74792749317413
 20
-136.6135389198397
 10
96.69728458954096
 20
-136.6390326264305
 10
96.69521753224981
 20
-136.6645263330214
 10
96.69521753224981
 20
-136.6707275048948
 10
96.69315047495866
 20
-136.721370408528
 10
96.69315047495866
 20
-136.721370408528
 10
96.92362736292188
 20
-136.721370408528
 10
96.92362736292188
 20
-136.721370408528
 10
97.08864743666534
 20
-136.721370408528
 10
97.38079153381453
 20
-136.7151692366546
 10
97.56028100859605
 20
-136.7086235552326
 10
97.56028100859605
 20
-136.7086235552326
 10
97.56028100859605
 20
-136.8863904822715
 10
97.56028100859605
 20
-136.8863904822715
 10
97.4314344374477
 20
-136.8822563676892
 10
97.408007788148
 20
-136.8822563676892
 10
97.13102211113392
 20
-136.8781222531069
 97
        0
 97
        0
 92
        1
 93
        1
 72
     4
 94
        3
 73
     0
 74
     1
 95
       23
 96
       19
 40
0.0
 40
0.0
 40
0.0
 40
0.0
 40
1.0
 40
1.0
 40
1.0
 40
2.0
 40
2.0
 40
2.0
 40
3.0
 40
3.0
 40
3.0
 40
4.0
 40
4.0
 40
4.0
 40
5.0
 40
5.0
 40
5.0
 40
6.0
 40
6.0
 40
6.0
 40
6.0
 10
95.8470350237813
 20
-136.5267225136114
 10
95.82980954635505
 20
-136.5670301307888
 10
95.82360837448161
 20
-136.5839110986665
 10
95.80259329202158
 20
-136.5839110986665
 10
95.787779381435
 20
-136.5839110986665
 10
95.77709958543073
 20
-136.5670301307888
 10
95.77089841355728
 20
-136.5542832774934
 10
95.77089841355728
 20
-136.5542832774934
 10
95.67133515403356
 20
-136.3892632037499
 10
95.67133515403356
 20
-136.3892632037499
 10
95.77296547084843
 20
-136.3575683252856
 10
95.92317163400533
 20
-136.3024467975216
 10
96.12195364350424
 20
-136.1398382906178
 10
96.12195364350424
 20
-136.1398382906178
 10
96.17914222855939
 20
-136.3131265935259
 10
96.17914222855939
 20
-136.3131265935259
 10
96.08578014090911
 20
-136.3958088851719
 10
95.9972411869382
 20
-136.4526529606785
 10
95.8470350237813
 20
-136.5267225136114
 97
        0
 97
        0
 92
        1
 93
        1
 72
     4
 94
        3
 73
     0
 74
     1
 95
       17
 96
       13
 40
0.0
 40
0.0
 40
0.0
 40
0.0
 40
1.0
 40
1.0
 40
1.0
 40
2.0
 40
2.0
 40
2.0
 40
3.0
 40
3.0
 40
3.0
 40
4.0
 40
4.0
 40
4.0
 40
4.0
 10
95.99930824422934
 20
-136.0612901135541
 10
95.96968042305619
 20
-136.0213270059252
 10
95.90181204199678
 20
-135.9238308036927
 10
95.71991100037559
 20
-135.8139322577132
 10
95.71991100037559
 20
-135.8139322577132
 10
95.8470350237813
 20
-135.680607062434
 10
95.8470350237813
 20
-135.680607062434
 10
96.03307017998479
 20
-135.7822373792489
 10
96.09025876503993
 20
-135.8711208427683
 10
96.11781952892194
 20
-135.9134955172369
 10
96.11781952892194
 20
-135.9134955172369
 10
95.99930824422934
 20
-136.0612901135541
 10
95.99930824422934
 20
-136.0612901135541
 97
        0
 97
        0
 92
        1
 93
        1
 72
     4
 94
        3
 73
     0
 74
     1
 95
       38
 96
       34
 40
0.0
 40
0.0
 40
0.0
 40
0.0
 40
1.0
 40
1.0
 40
1.0
 40
2.0
 40
2.0
 40
2.0
 40
3.0
 40
3.0
 40
3.0
 40
4.0
 40
4.0
 40
4.0
 40
5.0
 40
5.0
 40
5.0
 40
6.0
 40
6.0
 40
6.0
 40
7.0
 40
7.0
 40
7.0
 40
8.0
 40
8.0
 40
8.0
 40
9.0
 40
9.0
 40
9.0
 40
10.0
 40
10.0
 40
10.0
 40
11.0
 40
11.0
 40
11.0
 40
11.0
 10
96.36724444205403
 20
-135.756743672658
 10
96.36517738476287
 20
-135.8032524617089
 10
96.36311032747173
 20
-135.9196966891104
 10
96.36311032747173
 20
-135.9641384208701
 10
96.36311032747173
 20
-135.9641384208701
 10
96.36311032747173
 20
-136.3110595362348
 10
96.36311032747173
 20
-136.3110595362348
 10
96.36311032747173
 20
-136.397875942463
 10
96.36517738476287
 20
-136.5394693669068
 10
96.37585718076716
 20
-136.6600477088905
 10
96.37585718076716
 20
-136.6600477088905
 10
96.18534340043284
 20
-136.6600477088905
 10
96.18534340043284
 20
-136.6600477088905
 10
96.18947751501514
 20
-136.596657951962
 10
96.19395613914595
 20
-136.5436034814891
 10
96.19602319643711
 20
-136.4888264632736
 10
96.19809025372825
 20
-136.3661810639987
 10
96.20015731101941
 20
-136.3513671534122
 10
96.20015731101941
 20
-136.3069254216524
 10
96.20015731101941
 20
-136.3069254216524
 10
96.20015731101941
 20
-135.9851535033301
 10
96.20015731101941
 20
-135.9851535033301
 10
96.20015731101941
 20
-135.9303764851146
 10
96.18741045772398
 20
-135.6912868584383
 10
96.18534340043284
 20
-135.6402994452566
 10
96.18534340043284
 20
-135.6402994452566
 10
96.3861924672229
 20
-135.6678602091386
 10
96.3861924672229
 20
-135.6678602091386
 10
96.40755205923145
 20
-135.6699272664297
 10
96.43924693769574
 20
-135.6744058905606
 10
96.43924693769574
 20
-135.6995550876029
 10
96.43924693769574
 20
-135.7271158514849
 10
96.38860403406258
 20
-135.7484754434934
 10
96.36724444205403
 20
-135.756743672658
 97
        0
 97
        0
 92
        1
 93
        1
 72
     4
 94
        3
 73
     0
 74
     1
 95
       83
 96
       79
 40
0.0
 40
0.0
 40
0.0
 40
0.0
 40
1.0
 40
1.0
 40
1.0
 40
2.0
 40
2.0
 40
2.0
 40
3.0
 40
3.0
 40
3.0
 40
4.0
 40
4.0
 40
4.0
 40
5.0
 40
5.0
 40
5.0
 40
6.0
 40
6.0
 40
6.0
 40
7.0
 40
7.0
 40
7.0
 40
8.0
 40
8.0
 40
8.0
 40
9.0
 40
9.0
 40
9.0
 40
10.0
 40
10.0
 40
10.0
 40
11.0
 40
11.0
 40
11.0
 40
12.0
 40
12.0
 40
12.0
 40
13.0
 40
13.0
 40
13.0
 40
14.0
 40
14.0
 40
14.0
 40
15.0
 40
15.0
 40
15.0
 40
16.0
 40
16.0
 40
16.0
 40
17.0
 40
17.0
 40
17.0
 40
18.0
 40
18.0
 40
18.0
 40
19.0
 40
19.0
 40
19.0
 40
20.0
 40
20.0
 40
20.0
 40
21.0
 40
21.0
 40
21.0
 40
22.0
 40
22.0
 40
22.0
 40
23.0
 40
23.0
 40
23.0
 40
24.0
 40
24.0
 40
24.0
 40
25.0
 40
25.0
 40
25.0
 40
26.0
 40
26.0
 40
26.0
 40
26.0
 10
97.16891816147167
 20
-136.0785155909804
 10
97.16891816147167
 20
-136.0785155909804
 10
97.07176646878762
 20
-136.0785155909804
 10
97.07176646878762
 20
-136.0785155909804
 10
97.07176646878762
 20
-136.0785155909804
 10
97.07176646878762
 20
-136.3258734468213
 10
97.07176646878762
 20
-136.3258734468213
 10
97.07176646878762
 20
-136.3258734468213
 10
97.15410425088508
 20
-136.3258734468213
 10
97.15410425088508
 20
-136.3258734468213
 10
97.21990557465337
 20
-136.3258734468213
 10
97.35943194180598
 20
-136.321739332239
 10
97.4589952013297
 20
-136.3131265935259
 10
97.4589952013297
 20
-136.3131265935259
 10
97.4589952013297
 20
-136.4929605778559
 10
97.4589952013297
 20
-136.4929605778559
 10
97.36597762322795
 20
-136.4846923486913
 10
97.21577146007107
 20
-136.4802137245605
 10
97.15410425088508
 20
-136.4802137245605
 10
97.15410425088508
 20
-136.4802137245605
 10
96.84955780998901
 20
-136.4802137245605
 10
96.84955780998901
 20
-136.4802137245605
 10
96.79684784906468
 20
-136.4802137245605
 10
96.6507758004901
 20
-136.4846923486913
 10
96.54501136909292
 20
-136.4929605778559
 10
96.54501136909292
 20
-136.4929605778559
 10
96.54501136909292
 20
-136.3131265935259
 10
96.54501136909292
 20
-136.3131265935259
 10
96.64457462861664
 20
-136.321739332239
 10
96.78410099576925
 20
-136.3258734468213
 10
96.84955780998901
 20
-136.3258734468213
 10
96.84955780998901
 20
-136.3258734468213
 10
96.89399954174873
 20
-136.3258734468213
 10
96.89399954174873
 20
-136.3258734468213
 10
96.89399954174873
 20
-136.3258734468213
 10
96.89399954174873
 20
-136.0785155909804
 10
96.89399954174873
 20
-136.0785155909804
 10
96.89399954174873
 20
-136.0785155909804
 10
96.81992998881586
 20
-136.0785155909804
 10
96.81992998881586
 20
-136.0785155909804
 10
96.75860728917841
 20
-136.0785155909804
 10
96.5915201581438
 20
-136.0826497055627
 10
96.47094181616005
 20
-136.0909179347273
 10
96.47094181616005
 20
-136.0909179347273
 10
96.47094181616005
 20
-135.9134955172369
 10
96.47094181616005
 20
-135.9134955172369
 10
96.58531898627034
 20
-135.9196966891104
 10
96.74379337859183
 20
-135.9238308036927
 10
96.81992998881586
 20
-135.9238308036927
 10
96.81992998881586
 20
-135.9238308036927
 10
96.89193248445757
 20
-135.9238308036927
 10
96.89193248445757
 20
-135.9238308036927
 10
96.88779836987527
 20
-135.7715575832446
 10
96.88573131258413
 20
-135.7377956474892
 10
96.87918563116216
 20
-135.6447780693874
 10
96.87918563116216
 20
-135.6447780693874
 10
97.0907144939565
 20
-135.6678602091386
 10
97.0907144939565
 20
-135.6678602091386
 10
97.11620820054735
 20
-135.6699272664297
 10
97.13963484984704
 20
-135.6744058905606
 10
97.13963484984704
 20
-135.6974880303117
 10
97.13963484984704
 20
-135.729182908776
 10
97.09519311808732
 20
-135.7460638766538
 10
97.07176646878762
 20
-135.7546766153669
 10
97.07176646878762
 20
-135.7546766153669
 10
97.07176646878762
 20
-135.9238308036927
 10
97.07176646878762
 20
-135.9238308036927
 10
97.07176646878762
 20
-135.9238308036927
 10
97.16891816147167
 20
-135.9238308036927
 10
97.16891816147167
 20
-135.9238308036927
 10
97.2453992812442
 20
-135.9238308036927
 10
97.4038736735657
 20
-135.9196966891104
 10
97.52031790096714
 20
-135.9134955172369
 10
97.52031790096714
 20
-135.9134955172369
 10
97.52031790096714
 20
-136.0909179347273
 10
97.52031790096714
 20
-136.0909179347273
 10
97.41248641227882
 20
-136.0847167628538
 10
97.23885359982224
 20
-136.0785155909804
 10
97.16891816147167
 20
-136.0785155909804
 97
        0
 97
        0
 92
        1
 93
        1
 72
     4
 94
        3
 73
     0
 74
     1
 95
       17
 96
       13
 40
0.0
 40
0.0
 40
0.0
 40
0.0
 40
1.0
 40
1.0
 40
1.0
 40
2.0
 40
2.0
 40
2.0
 40
3.0
 40
3.0
 40
3.0
 40
4.0
 40
4.0
 40
4.0
 40
4.0
 10
96.92362736292188
 20
-136.8760551958157
 10
96.92362736292188
 20
-136.8760551958157
 10
96.72071123884066
 20
-136.8760551958157
 10
96.72071123884066
 20
-136.8760551958157
 10
96.74792749317413
 20
-136.935310838162
 10
96.80304902093813
 20
-137.0069688242552
 10
96.83060978482013
 20
-137.0365966454283
 10
96.85817054870213
 20
-137.0217827348418
 10
96.9722032092639
 20
-136.9583929779132
 10
97.06315373007449
 20
-136.8760551958157
 10
97.06315373007449
 20
-136.8760551958157
 10
96.92362736292188
 20
-136.8760551958157
 10
96.92362736292188
 20
-136.8760551958157
 97
        0
 97
        0
 75
     2
 76
     1
 98
        0
  0
SPLINE
  5
114
330
101
100
AcDbEntity
  8
_U+30EC_U+30A4_U+30E4_U+30FC 1
370
     0
100
AcDbSpline
210
0.0
220
0.0
230
1.0
 70
    11
 71
     3
 72
    77
 73
    73
 74
     0
 42
0.0000000001
 43
0.0000000001
 12
1.0
 22
0.0
 32
0.0
 13
1.0
 23
0.0
 33
0.0
 40
0.0
 40
0.0
 40
0.0
 40
0.0
 40
1.0
 40
1.0
 40
1.0
 40
2.0
 40
2.0
 40
2.0
 40
3.0
 40
3.0
 40
3.0
 40
4.0
 40
4.0
 40
4.0
 40
5.0
 40
5.0
 40
5.0
 40
6.0
 40
6.0
 40
6.0
 40
7.0
 40
7.0
 40
7.0
 40
8.0
 40
8.0
 40
8.0
 40
9.0
 40
9.0
 40
9.0
 40
10.0
 40
10.0
 40
10.0
 40
11.0
 40
11.0
 40
11.0
 40
12.0
 40
12.0
 40
12.0
 40
13.0
 40
13.0
 40
13.0
 40
14.0
 40
14.0
 40
14.0
 40
15.0
 40
15.0
 40
15.0
 40
16.0
 40
16.0
 40
16.0
 40
17.0
 40
17.0
 40
17.0
 40
18.0
 40
18.0
 40
18.0
 40
19.0
 40
19.0
 40
19.0
 40
20.0
 40
20.0
 40
20.0
 40
21.0
 40
21.0
 40
21.0
 40
22.0
 40
22.0
 40
22.0
 40
23.0
 40
23.0
 40
23.0
 40
24.0
 40
24.0
 40
24.0
 40
24.0
 10
99.41477590830603
 20
-137.5061631600679
 30
0.0
 10
99.36826711925517
 20
-137.5316568666588
 30
0.0
 10
99.24355466268912
 20
-137.5444037199542
 30
0.0
 10
99.16535099517394
 20
-137.5444037199542
 30
0.0
 10
99.15260414187853
 20
-137.5444037199542
 30
0.0
 10
99.12711043528768
 20
-137.5444037199542
 30
0.0
 10
99.09334849953223
 20
-137.5402696053719
 30
0.0
 10
99.09334849953223
 20
-137.5402696053719
 30
0.0
 10
98.99585229729965
 20
-137.313926831991
 30
0.0
 10
98.99585229729965
 20
-137.313926831991
 30
0.0
 10
99.0254801184728
 20
-137.3201280038644
 30
0.0
 10
99.08266870352794
 20
-137.3287407425775
 30
0.0
 10
99.19911293092939
 20
-137.3287407425775
 30
0.0
 10
99.27731659844457
 20
-137.3287407425775
 30
0.0
 10
99.27938365573571
 20
-137.286366068109
 30
0.0
 10
99.27938365573571
 20
-137.2291774830538
 30
0.0
 10
99.27938365573571
 20
-137.2291774830538
 30
0.0
 10
99.27938365573571
 20
-136.880189310398
 30
0.0
 10
99.27938365573571
 20
-136.880189310398
 30
0.0
 10
99.27938365573571
 20
-136.880189310398
 30
0.0
 10
98.82049693710043
 20
-136.880189310398
 30
0.0
 10
98.82049693710043
 20
-136.880189310398
 30
0.0
 10
98.82256399439159
 20
-137.0176486202595
 30
0.0
 10
98.82463105168273
 20
-137.2164306297584
 30
0.0
 10
98.83083222355619
 20
-137.3497558250376
 30
0.0
 10
98.83324379039585
 20
-137.3773165889196
 30
0.0
 10
98.83324379039585
 20
-137.4217583206793
 30
0.0
 10
98.84564613414275
 20
-137.4830810203167
 30
0.0
 10
98.84564613414275
 20
-137.4830810203167
 30
0.0
 10
98.60448945017527
 20
-137.4830810203167
 30
0.0
 10
98.60448945017527
 20
-137.4830810203167
 30
0.0
 10
98.62998315676612
 20
-137.3583685637507
 30
0.0
 10
98.62998315676612
 20
-137.0176486202595
 30
0.0
 10
98.62998315676612
 20
-136.880189310398
 30
0.0
 10
98.62998315676612
 20
-136.880189310398
 30
0.0
 10
98.18797740600857
 20
-136.880189310398
 30
0.0
 10
98.18797740600857
 20
-136.880189310398
 30
0.0
 10
98.16455075670886
 20
-137.08758405861
 30
0.0
 10
98.09909394248912
 20
-137.355956996911
 30
0.0
 10
97.90237899028135
 20
-137.5402696053719
 30
0.0
 10
97.90237899028135
 20
-137.5402696053719
 30
0.0
 10
97.71393226723819
 20
-137.417624206097
 30
0.0
 10
97.71393226723819
 20
-137.417624206097
 30
0.0
 10
97.9678358045011
 20
-137.1974826045895
 30
0.0
 10
97.9995306829654
 20
-136.8653753998114
 30
0.0
 10
97.9995306829654
 20
-136.5332681950333
 30
0.0
 10
97.9995306829654
 20
-136.5332681950333
 30
0.0
 10
97.9995306829654
 20
-136.0974636161492
 30
0.0
 10
97.9995306829654
 20
-136.0974636161492
 30
0.0
 10
97.9995306829654
 20
-136.0612901135541
 30
0.0
 10
97.99746362567424
 20
-135.8287461682998
 30
0.0
 10
97.98885088696113
 20
-135.7271158514849
 30
0.0
 10
98.12872176366227
 20
-135.7377956474892
 30
0.0
 10
98.36987844762976
 20
-135.7377956474892
 30
0.0
 10
98.51353892936467
 20
-135.7377956474892
 30
0.0
 10
98.51353892936467
 20
-135.7377956474892
 30
0.0
 10
98.97277015754848
 20
-135.7377956474892
 30
0.0
 10
98.97277015754848
 20
-135.7377956474892
 30
0.0
 10
98.98758406813505
 20
-135.7377956474892
 30
0.0
 10
99.33657224079086
 20
-135.7377956474892
 30
0.0
 10
99.49539114266088
 20
-135.7271158514849
 30
0.0
 10
99.49297957582121
 20
-135.7801703219577
 30
0.0
 10
99.48677840394775
 20
-135.9407117715704
 30
0.0
 10
99.48677840394775
 20
-135.9916991847521
 30
0.0
 10
99.48677840394775
 20
-135.9916991847521
 30
0.0
 10
99.48677840394775
 20
-136.5987250092531
 30
0.0
 10
99.48677840394775
 20
-136.5987250092531
 30
0.0
 10
99.48677840394775
 20
-136.617673034422
 30
0.0
 10
99.49745819995204
 20
-137.1888698658764
 30
0.0
 10
99.49745819995204
 20
-137.3011799786956
 30
0.0
 10
99.49745819995204
 20
-137.3583685637507
 30
0.0
 10
99.49745819995204
 20
-137.459654371017
 30
0.0
 10
99.41477590830603
 20
-137.5061631600679
 30
0.0
  0
POLYLINE
  5
115
330
101
100
AcDbEntity
  8
_U+30EC_U+30A4_U+30E4_U+30FC 1
370
     0
100
AcDb2dPolyline
 66
     1
 10
0.0
 20
0.0
 30
0.0
  0
VERTEX
  5
116
330
115
100
AcDbEntity
  8
_U+30EC_U+30A4_U+30E4_U+30FC 1
370
     0
100
AcDbVertex
100
AcDb2dVertex
 10
98.62998315676612
 20
-135.9196966891104
 30
0.0
  0
VERTEX
  5
117
330
115
100
AcDbEntity
  8
_U+30EC_U+30A4_U+30E4_U+30FC 1
370
     0
100
AcDbVertex
100
AcDb2dVertex
 10
98.19211152059087
 20
-135.9196966891104
 30
0.0
  0
VERTEX
  5
118
330
115
100
AcDbEntity
  8
_U+30EC_U+30A4_U+30E4_U+30FC 1
370
     0
100
AcDbVertex
100
AcDb2dVertex
 10
98.19211152059087
 20
-136.2242431300064
 30
0.0
  0
VERTEX
  5
119
330
115
100
AcDbEntity
  8
_U+30EC_U+30A4_U+30E4_U+30FC 1
370
     0
100
AcDbVertex
100
AcDb2dVertex
 10
98.62998315676612
 20
-136.2242431300064
 30
0.0
  0
VERTEX
  5
11A
330
115
100
AcDbEntity
  8
_U+30EC_U+30A4_U+30E4_U+30FC 1
370
     0
100
AcDbVertex
100
AcDb2dVertex
 10
98.62998315676612
 20
-135.9196966891104
 30
0.0
  0
SEQEND
  5
11B
330
115
100
AcDbEntity
  8
_U+30EC_U+30A4_U+30E4_U+30FC 1
370
     0
  0
POLYLINE
  5
11C
330
101
100
AcDbEntity
  8
_U+30EC_U+30A4_U+30E4_U+30FC 1
370
     0
100
AcDb2dPolyline
 66
     1
 10
0.0
 20
0.0
 30
0.0
  0
VERTEX
  5
11D
330
11C
100
AcDbEntity
  8
_U+30EC_U+30A4_U+30E4_U+30FC 1
370
     0
100
AcDbVertex
100
AcDb2dVertex
 10
98.62998315676612
 20
-136.3913302610411
 30
0.0
  0
VERTEX
  5
11E
330
11C
100
AcDbEntity
  8
_U+30EC_U+30A4_U+30E4_U+30FC 1
370
     0
100
AcDbVertex
100
AcDb2dVertex
 10
98.19211152059087
 20
-136.3913302610411
 30
0.0
  0
VERTEX
  5
11F
330
11C
100
AcDbEntity
  8
_U+30EC_U+30A4_U+30E4_U+30FC 1
370
     0
100
AcDbVertex
100
AcDb2dVertex
 10
98.19211152059087
 20
-136.700355326068
 30
0.0
  0
VERTEX
  5
120
330
11C
100
AcDbEntity
  8
_U+30EC_U+30A4_U+30E4_U+30FC 1
370
     0
100
AcDbVertex
100
AcDb2dVertex
 10
98.62998315676612
 20
-136.700355326068
 30
0.0
  0
VERTEX
  5
121
330
11C
100
AcDbEntity
  8
_U+30EC_U+30A4_U+30E4_U+30FC 1
370
     0
100
AcDbVertex
100
AcDb2dVertex
 10
98.62998315676612
 20
-136.3913302610411
 30
0.0
  0
SEQEND
  5
122
330
11C
100
AcDbEntity
  8
_U+30EC_U+30A4_U+30E4_U+30FC 1
370
     0
  0
POLYLINE
  5
123
330
101
100
AcDbEntity
  8
_U+30EC_U+30A4_U+30E4_U+30FC 1
370
     0
100
AcDb2dPolyline
 66
     1
 10
0.0
 20
0.0
 30
0.0
  0
VERTEX
  5
124
330
123
100
AcDbEntity
  8
_U+30EC_U+30A4_U+30E4_U+30FC 1
370
     0
100
AcDbVertex
100
AcDb2dVertex
 10
99.27938365573571
 20
-135.9196966891104
 30
0.0
  0
VERTEX
  5
125
330
123
100
AcDbEntity
  8
_U+30EC_U+30A4_U+30E4_U+30FC 1
370
     0
100
AcDbVertex
100
AcDb2dVertex
 10
98.82049693710043
 20
-135.9196966891104
 30
0.0
  0
VERTEX
  5
126
330
123
100
AcDbEntity
  8
_U+30EC_U+30A4_U+30E4_U+30FC 1
370
     0
100
AcDbVertex
100
AcDb2dVertex
 10
98.82049693710043
 20
-136.2242431300064
 30
0.0
  0
VERTEX
  5
127
330
123
100
AcDbEntity
  8
_U+30EC_U+30A4_U+30E4_U+30FC 1
370
     0
100
AcDbVertex
100
AcDb2dVertex
 10
99.27938365573571
 20
-136.2242431300064
 30
0.0
  0
VERTEX
  5
128
330
123
100
AcDbEntity
  8
_U+30EC_U+30A4_U+30E4_U+30FC 1
370
     0
100
AcDbVertex
100
AcDb2dVertex
 10
99.27938365573571
 20
-135.9196966891104
 30
0.0
  0
SEQEND
  5
129
330
123
100
AcDbEntity
  8
_U+30EC_U+30A4_U+30E4_U+30FC 1
370
     0
  0
POLYLINE
  5
12A
330
101
100
AcDbEntity
  8
_U+30EC_U+30A4_U+30E4_U+30FC 1
370
     0
100
AcDb2dPolyline
 66
     1
 10
0.0
 20
0.0
 30
0.0
  0
VERTEX
  5
12B
330
12A
100
AcDbEntity
  8
_U+30EC_U+30A4_U+30E4_U+30FC 1
370
     0
100
AcDbVertex
100
AcDb2dVertex
 10
99.27938365573571
 20
-136.3913302610411
 30
0.0
  0
VERTEX
  5
12C
330
12A
100
AcDbEntity
  8
_U+30EC_U+30A4_U+30E4_U+30FC 1
370
     0
100
AcDbVertex
100
AcDb2dVertex
 10
98.82049693710043
 20
-136.3913302610411
 30
0.0
  0
VERTEX
  5
12D
330
12A
100
AcDbEntity
  8
_U+30EC_U+30A4_U+30E4_U+30FC 1
370
     0
100
AcDbVertex
100
AcDb2dVertex
 10
98.82049693710043
 20
-136.700355326068
 30
0.0
  0
VERTEX
  5
12E
330
12A
100
AcDbEntity
  8
_U+30EC_U+30A4_U+30E4_U+30FC 1
370
     0
100
AcDbVertex
100
AcDb2dVertex
 10
99.27938365573571
 20
-136.700355326068
 30
0.0
  0
VERTEX
  5
12F
330
12A
100
AcDbEntity
  8
_U+30EC_U+30A4_U+30E4_U+30FC 1
370
     0
100
AcDbVertex
100
AcDb2dVertex
 10
99.27938365573571
 20
-136.3913302610411
 30
0.0
  0
SEQEND
  5
130
330
12A
100
AcDbEntity
  8
_U+30EC_U+30A4_U+30E4_U+30FC 1
370
     0
  0
HATCH
  5
131
330
101
100
AcDbEntity
  8
_U+30EC_U+30A4_U+30E4_U+30FC 1
 62
   179
420
  2234388
100
AcDbHatch
 10
0.0
 20
0.0
 30
0.0
210
0.0
220
0.0
230
1.0
  2
SOLID
 70
     1
 71
     0
 91
        5
 92
        1
 93
        1
 72
     4
 94
        3
 73
     0
 74
     1
 95
       77
 96
       73
 40
0.0
 40
0.0
 40
0.0
 40
0.0
 40
1.0
 40
1.0
 40
1.0
 40
2.0
 40
2.0
 40
2.0
 40
3.0
 40
3.0
 40
3.0
 40
4.0
 40
4.0
 40
4.0
 40
5.0
 40
5.0
 40
5.0
 40
6.0
 40
6.0
 40
6.0
 40
7.0
 40
7.0
 40
7.0
 40
8.0
 40
8.0
 40
8.0
 40
9.0
 40
9.0
 40
9.0
 40
10.0
 40
10.0
 40
10.0
 40
11.0
 40
11.0
 40
11.0
 40
12.0
 40
12.0
 40
12.0
 40
13.0
 40
13.0
 40
13.0
 40
14.0
 40
14.0
 40
14.0
 40
15.0
 40
15.0
 40
15.0
 40
16.0
 40
16.0
 40
16.0
 40
17.0
 40
17.0
 40
17.0
 40
18.0
 40
18.0
 40
18.0
 40
19.0
 40
19.0
 40
19.0
 40
20.0
 40
20.0
 40
20.0
 40
21.0
 40
21.0
 40
21.0
 40
22.0
 40
22.0
 40
22.0
 40
23.0
 40
23.0
 40
23.0
 40
24.0
 40
24.0
 40
24.0
 40
24.0
 10
99.41477590830603
 20
-137.5061631600679
 10
99.36826711925517
 20
-137.5316568666588
 10
99.24355466268912
 20
-137.5444037199542
 10
99.16535099517394
 20
-137.5444037199542
 10
99.15260414187853
 20
-137.5444037199542
 10
99.12711043528768
 20
-137.5444037199542
 10
99.09334849953223
 20
-137.5402696053719
 10
99.09334849953223
 20
-137.5402696053719
 10
98.99585229729965
 20
-137.313926831991
 10
98.99585229729965
 20
-137.313926831991
 10
99.0254801184728
 20
-137.3201280038644
 10
99.08266870352794
 20
-137.3287407425775
 10
99.19911293092939
 20
-137.3287407425775
 10
99.27731659844457
 20
-137.3287407425775
 10
99.27938365573571
 20
-137.286366068109
 10
99.27938365573571
 20
-137.2291774830538
 10
99.27938365573571
 20
-137.2291774830538
 10
99.27938365573571
 20
-136.880189310398
 10
99.27938365573571
 20
-136.880189310398
 10
99.27938365573571
 20
-136.880189310398
 10
98.82049693710043
 20
-136.880189310398
 10
98.82049693710043
 20
-136.880189310398
 10
98.82256399439159
 20
-137.0176486202595
 10
98.82463105168273
 20
-137.2164306297584
 10
98.83083222355619
 20
-137.3497558250376
 10
98.83324379039585
 20
-137.3773165889196
 10
98.83324379039585
 20
-137.4217583206793
 10
98.84564613414275
 20
-137.4830810203167
 10
98.84564613414275
 20
-137.4830810203167
 10
98.60448945017527
 20
-137.4830810203167
 10
98.60448945017527
 20
-137.4830810203167
 10
98.62998315676612
 20
-137.3583685637507
 10
98.62998315676612
 20
-137.0176486202595
 10
98.62998315676612
 20
-136.880189310398
 10
98.62998315676612
 20
-136.880189310398
 10
98.18797740600857
 20
-136.880189310398
 10
98.18797740600857
 20
-136.880189310398
 10
98.16455075670886
 20
-137.08758405861
 10
98.09909394248912
 20
-137.355956996911
 10
97.90237899028135
 20
-137.5402696053719
 10
97.90237899028135
 20
-137.5402696053719
 10
97.71393226723819
 20
-137.417624206097
 10
97.71393226723819
 20
-137.417624206097
 10
97.9678358045011
 20
-137.1974826045895
 10
97.9995306829654
 20
-136.8653753998114
 10
97.9995306829654
 20
-136.5332681950333
 10
97.9995306829654
 20
-136.5332681950333
 10
97.9995306829654
 20
-136.0974636161492
 10
97.9995306829654
 20
-136.0974636161492
 10
97.9995306829654
 20
-136.0612901135541
 10
97.99746362567424
 20
-135.8287461682998
 10
97.98885088696113
 20
-135.7271158514849
 10
98.12872176366227
 20
-135.7377956474892
 10
98.36987844762976
 20
-135.7377956474892
 10
98.51353892936467
 20
-135.7377956474892
 10
98.51353892936467
 20
-135.7377956474892
 10
98.97277015754848
 20
-135.7377956474892
 10
98.97277015754848
 20
-135.7377956474892
 10
98.98758406813505
 20
-135.7377956474892
 10
99.33657224079086
 20
-135.7377956474892
 10
99.49539114266088
 20
-135.7271158514849
 10
99.49297957582121
 20
-135.7801703219577
 10
99.48677840394775
 20
-135.9407117715704
 10
99.48677840394775
 20
-135.9916991847521
 10
99.48677840394775
 20
-135.9916991847521
 10
99.48677840394775
 20
-136.5987250092531
 10
99.48677840394775
 20
-136.5987250092531
 10
99.48677840394775
 20
-136.617673034422
 10
99.49745819995204
 20
-137.1888698658764
 10
99.49745819995204
 20
-137.3011799786956
 10
99.49745819995204
 20
-137.3583685637507
 10
99.49745819995204
 20
-137.459654371017
 10
99.41477590830603
 20
-137.5061631600679
 97
        0
 97
        0
 92
        1
 93
        4
 72
     1
 10
98.62998315676612
 20
-135.9196966891104
 11
98.19211152059087
 21
-135.9196966891104
 72
     1
 10
98.19211152059087
 20
-135.9196966891104
 11
98.19211152059087
 21
-136.2242431300064
 72
     1
 10
98.19211152059087
 20
-136.2242431300064
 11
98.62998315676612
 21
-136.2242431300064
 72
     1
 10
98.62998315676612
 20
-136.2242431300064
 11
98.62998315676612
 21
-135.9196966891104
 97
        0
 92
        1
 93
        4
 72
     1
 10
98.62998315676612
 20
-136.3913302610411
 11
98.19211152059087
 21
-136.3913302610411
 72
     1
 10
98.19211152059087
 20
-136.3913302610411
 11
98.19211152059087
 21
-136.700355326068
 72
     1
 10
98.19211152059087
 20
-136.700355326068
 11
98.62998315676612
 21
-136.700355326068
 72
     1
 10
98.62998315676612
 20
-136.700355326068
 11
98.62998315676612
 21
-136.3913302610411
 97
        0
 92
        1
 93
        4
 72
     1
 10
99.27938365573571
 20
-135.9196966891104
 11
98.82049693710043
 21
-135.9196966891104
 72
     1
 10
98.82049693710043
 20
-135.9196966891104
 11
98.82049693710043
 21
-136.2242431300064
 72
     1
 10
98.82049693710043
 20
-136.2242431300064
 11
99.27938365573571
 21
-136.2242431300064
 72
     1
 10
99.27938365573571
 20
-136.2242431300064
 11
99.27938365573571
 21
-135.9196966891104
 97
        0
 92
        1
 93
        4
 72
     1
 10
99.27938365573571
 20
-136.3913302610411
 11
98.82049693710043
 21
-136.3913302610411
 72
     1
 10
98.82049693710043
 20
-136.3913302610411
 11
98.82049693710043
 21
-136.700355326068
 72
     1
 10
98.82049693710043
 20
-136.700355326068
 11
99.27938365573571
 21
-136.700355326068
 72
     1
 10
99.27938365573571
 20
-136.700355326068
 11
99.27938365573571
 21
-136.3913302610411
 97
        0
 75
     2
 76
     1
 98
        0
  0
SPLINE
  5
132
330
101
100
AcDbEntity
  8
_U+30EC_U+30A4_U+30E4_U+30FC 1
370
     0
100
AcDbSpline
210
0.0
220
0.0
230
1.0
 70
    11
 71
     3
 72
    44
 73
    40
 74
     0
 42
0.0000000001
 43
0.0000000001
 12
1.0
 22
0.0
 32
0.0
 13
1.0
 23
0.0
 33
0.0
 40
0.0
 40
0.0
 40
0.0
 40
0.0
 40
1.0
 40
1.0
 40
1.0
 40
2.0
 40
2.0
 40
2.0
 40
3.0
 40
3.0
 40
3.0
 40
4.0
 40
4.0
 40
4.0
 40
5.0
 40
5.0
 40
5.0
 40
6.0
 40
6.0
 40
6.0
 40
7.0
 40
7.0
 40
7.0
 40
8.0
 40
8.0
 40
8.0
 40
9.0
 40
9.0
 40
9.0
 40
10.0
 40
10.0
 40
10.0
 40
11.0
 40
11.0
 40
11.0
 40
12.0
 40
12.0
 40
12.0
 40
13.0
 40
13.0
 40
13.0
 40
13.0
 10
101.2923529477672
 20
-136.2559380084707
 30
0.0
 10
101.1803873444966
 20
-136.6242187158439
 30
0.0
 10
101.1293999313149
 20
-136.7826931081654
 30
0.0
 10
100.9326849791071
 20
-137.0324625308461
 30
0.0
 10
100.7487168801948
 20
-137.2629394188093
 30
0.0
 10
100.5116943108096
 20
-137.4493190845613
 30
0.0
 10
100.2326415765043
 20
-137.542336662663
 30
0.0
 10
100.2326415765043
 20
-137.542336662663
 30
0.0
 10
100.0400607388789
 20
-137.362502678333
 30
0.0
 10
100.0400607388789
 20
-137.362502678333
 30
0.0
 10
100.6811930086839
 20
-137.2102294578849
 30
0.0
 10
101.0108886466223
 20
-136.6538465370171
 30
0.0
 10
101.0746229130994
 20
-136.2139078435507
 30
0.0
 10
101.0746229130994
 20
-136.2139078435507
 30
0.0
 10
100.3087781867284
 20
-136.2139078435507
 30
0.0
 10
100.3087781867284
 20
-136.2139078435507
 30
0.0
 10
100.2157606086266
 20
-136.2139078435507
 30
0.0
 10
100.0314480001658
 20
-136.218041958133
 30
0.0
 10
99.87504066513542
 20
-136.2369899833019
 30
0.0
 10
99.87504066513542
 20
-136.2369899833019
 30
0.0
 10
99.87504066513542
 20
-136.0168483817944
 30
0.0
 10
99.87504066513542
 20
-136.0168483817944
 30
0.0
 10
99.96185707136371
 20
-136.0382079738029
 30
0.0
 10
100.2133490417869
 20
-136.0382079738029
 30
0.0
 10
100.3129123013107
 20
-136.0382079738029
 30
0.0
 10
100.3129123013107
 20
-136.0382079738029
 30
0.0
 10
100.7445827656125
 20
-136.0382079738029
 30
0.0
 10
100.7445827656125
 20
-136.0382079738029
 30
0.0
 10
100.786957440081
 20
-136.0382079738029
 30
0.0
 10
101.0215684426266
 20
-136.0361409165118
 30
0.0
 10
101.0598090025128
 20
-136.0295952350898
 30
0.0
 10
101.1021836769814
 20
-136.0233940632164
 30
0.0
 10
101.1042507342726
 20
-136.0213270059252
 30
0.0
 10
101.16557343391
 20
-135.9810193887478
 30
0.0
 10
101.16557343391
 20
-135.9810193887478
 30
0.0
 10
101.3536756474046
 20
-136.135359666487
 30
0.0
 10
101.3536756474046
 20
-136.135359666487
 30
0.0
 10
101.3240478262315
 20
-136.1649874876601
 30
0.0
 10
101.3092339156449
 20
-136.1966823661244
 30
0.0
 10
101.2923529477672
 20
-136.2559380084707
 30
0.0
  0
SPLINE
  5
133
330
101
100
AcDbEntity
  8
_U+30EC_U+30A4_U+30E4_U+30FC 1
370
     0
100
AcDbSpline
210
0.0
220
0.0
230
1.0
 70
    11
 71
     3
 72
    17
 73
    13
 74
     0
 42
0.0000000001
 43
0.0000000001
 12
1.0
 22
0.0
 32
0.0
 13
1.0
 23
0.0
 33
0.0
 40
0.0
 40
0.0
 40
0.0
 40
0.0
 40
1.0
 40
1.0
 40
1.0
 40
2.0
 40
2.0
 40
2.0
 40
3.0
 40
3.0
 40
3.0
 40
4.0
 40
4.0
 40
4.0
 40
4.0
 10
101.5018147532704
 20
-136.0571559989718
 30
0.0
 10
101.3750352394132
 20
-136.0571559989718
 30
0.0
 10
101.2734049225983
 20
-135.9555256821569
 30
0.0
 10
101.2734049225983
 20
-135.8287461682998
 30
0.0
 10
101.2734049225983
 20
-135.7019666544426
 30
0.0
 10
101.3750352394132
 20
-135.5982692803366
 30
0.0
 10
101.5018147532704
 20
-135.5982692803366
 30
0.0
 10
101.6289387766761
 20
-135.5982692803366
 30
0.0
 10
101.7326361507821
 20
-135.7019666544426
 30
0.0
 10
101.7326361507821
 20
-135.8287461682998
 30
0.0
 10
101.7326361507821
 20
-135.9555256821569
 30
0.0
 10
101.6289387766761
 20
-136.0571559989718
 30
0.0
 10
101.5018147532704
 20
-136.0571559989718
 30
0.0
  0
SPLINE
  5
134
330
101
100
AcDbEntity
  8
_U+30EC_U+30A4_U+30E4_U+30FC 1
370
     0
100
AcDbSpline
210
0.0
220
0.0
230
1.0
 70
    11
 71
     3
 72
    17
 73
    13
 74
     0
 42
0.0000000001
 43
0.0000000001
 12
1.0
 22
0.0
 32
0.0
 13
1.0
 23
0.0
 33
0.0
 40
0.0
 40
0.0
 40
0.0
 40
0.0
 40
1.0
 40
1.0
 40
1.0
 40
2.0
 40
2.0
 40
2.0
 40
3.0
 40
3.0
 40
3.0
 40
4.0
 40
4.0
 40
4.0
 40
4.0
 10
101.4997476959792
 20
-135.7271158514849
 30
0.0
 10
101.4446261682152
 20
-135.7271158514849
 30
0.0
 10
101.4001844364555
 20
-135.7715575832446
 30
0.0
 10
101.4001844364555
 20
-135.8266791110086
 30
0.0
 10
101.4001844364555
 20
-135.8838676960638
 30
0.0
 10
101.4446261682152
 20
-135.9324435424058
 30
0.0
 10
101.5038818105615
 20
-135.9324435424058
 30
0.0
 10
101.5631374529078
 20
-135.9324435424058
 30
0.0
 10
101.6034450700853
 20
-135.8814561292241
 30
0.0
 10
101.6034450700853
 20
-135.8287461682998
 30
0.0
 10
101.6034450700853
 20
-135.7715575832446
 30
0.0
 10
101.5569362810344
 20
-135.7271158514849
 30
0.0
 10
101.4997476959792
 20
-135.7271158514849
 30
0.0
  0
HATCH
  5
135
330
101
100
AcDbEntity
  8
_U+30EC_U+30A4_U+30E4_U+30FC 1
 62
   179
420
  2234388
100
AcDbHatch
 10
0.0
 20
0.0
 30
0.0
210
0.0
220
0.0
230
1.0
  2
SOLID
 70
     1
 71
     0
 91
        3
 92
        1
 93
        1
 72
     4
 94
        3
 73
     0
 74
     1
 95
       44
 96
       40
 40
0.0
 40
0.0
 40
0.0
 40
0.0
 40
1.0
 40
1.0
 40
1.0
 40
2.0
 40
2.0
 40
2.0
 40
3.0
 40
3.0
 40
3.0
 40
4.0
 40
4.0
 40
4.0
 40
5.0
 40
5.0
 40
5.0
 40
6.0
 40
6.0
 40
6.0
 40
7.0
 40
7.0
 40
7.0
 40
8.0
 40
8.0
 40
8.0
 40
9.0
 40
9.0
 40
9.0
 40
10.0
 40
10.0
 40
10.0
 40
11.0
 40
11.0
 40
11.0
 40
12.0
 40
12.0
 40
12.0
 40
13.0
 40
13.0
 40
13.0
 40
13.0
 10
101.2923529477672
 20
-136.2559380084707
 10
101.1803873444966
 20
-136.6242187158439
 10
101.1293999313149
 20
-136.7826931081654
 10
100.9326849791071
 20
-137.0324625308461
 10
100.7487168801948
 20
-137.2629394188093
 10
100.5116943108096
 20
-137.4493190845613
 10
100.2326415765043
 20
-137.542336662663
 10
100.2326415765043
 20
-137.542336662663
 10
100.0400607388789
 20
-137.362502678333
 10
100.0400607388789
 20
-137.362502678333
 10
100.6811930086839
 20
-137.2102294578849
 10
101.0108886466223
 20
-136.6538465370171
 10
101.0746229130994
 20
-136.2139078435507
 10
101.0746229130994
 20
-136.2139078435507
 10
100.3087781867284
 20
-136.2139078435507
 10
100.3087781867284
 20
-136.2139078435507
 10
100.2157606086266
 20
-136.2139078435507
 10
100.0314480001658
 20
-136.218041958133
 10
99.87504066513542
 20
-136.2369899833019
 10
99.87504066513542
 20
-136.2369899833019
 10
99.87504066513542
 20
-136.0168483817944
 10
99.87504066513542
 20
-136.0168483817944
 10
99.96185707136371
 20
-136.0382079738029
 10
100.2133490417869
 20
-136.0382079738029
 10
100.3129123013107
 20
-136.0382079738029
 10
100.3129123013107
 20
-136.0382079738029
 10
100.7445827656125
 20
-136.0382079738029
 10
100.7445827656125
 20
-136.0382079738029
 10
100.786957440081
 20
-136.0382079738029
 10
101.0215684426266
 20
-136.0361409165118
 10
101.0598090025128
 20
-136.0295952350898
 10
101.1021836769814
 20
-136.0233940632164
 10
101.1042507342726
 20
-136.0213270059252
 10
101.16557343391
 20
-135.9810193887478
 10
101.16557343391
 20
-135.9810193887478
 10
101.3536756474046
 20
-136.135359666487
 10
101.3536756474046
 20
-136.135359666487
 10
101.3240478262315
 20
-136.1649874876601
 10
101.3092339156449
 20
-136.1966823661244
 10
101.2923529477672
 20
-136.2559380084707
 97
        0
 97
        0
 92
        1
 93
        1
 72
     4
 94
        3
 73
     0
 74
     1
 95
       17
 96
       13
 40
0.0
 40
0.0
 40
0.0
 40
0.0
 40
1.0
 40
1.0
 40
1.0
 40
2.0
 40
2.0
 40
2.0
 40
3.0
 40
3.0
 40
3.0
 40
4.0
 40
4.0
 40
4.0
 40
4.0
 10
101.5018147532704
 20
-136.0571559989718
 10
101.3750352394132
 20
-136.0571559989718
 10
101.2734049225983
 20
-135.9555256821569
 10
101.2734049225983
 20
-135.8287461682998
 10
101.2734049225983
 20
-135.7019666544426
 10
101.3750352394132
 20
-135.5982692803366
 10
101.5018147532704
 20
-135.5982692803366
 10
101.6289387766761
 20
-135.5982692803366
 10
101.7326361507821
 20
-135.7019666544426
 10
101.7326361507821
 20
-135.8287461682998
 10
101.7326361507821
 20
-135.9555256821569
 10
101.6289387766761
 20
-136.0571559989718
 10
101.5018147532704
 20
-136.0571559989718
 97
        0
 97
        0
 92
        1
 93
        1
 72
     4
 94
        3
 73
     0
 74
     1
 95
       17
 96
       13
 40
0.0
 40
0.0
 40
0.0
 40
0.0
 40
1.0
 40
1.0
 40
1.0
 40
2.0
 40
2.0
 40
2.0
 40
3.0
 40
3.0
 40
3.0
 40
4.0
 40
4.0
 40
4.0
 40
4.0
 10
101.4997476959792
 20
-135.7271158514849
 10
101.4446261682152
 20
-135.7271158514849
 10
101.4001844364555
 20
-135.7715575832446
 10
101.4001844364555
 20
-135.8266791110086
 10
101.4001844364555
 20
-135.8838676960638
 10
101.4446261682152
 20
-135.9324435424058
 10
101.5038818105615
 20
-135.9324435424058
 10
101.5631374529078
 20
-135.9324435424058
 10
101.6034450700853
 20
-135.8814561292241
 10
101.6034450700853
 20
-135.8287461682998
 10
101.6034450700853
 20
-135.7715575832446
 10
101.5569362810344
 20
-135.7271158514849
 10
101.4997476959792
 20
-135.7271158514849
 97
        0
 97
        0
 75
     2
 76
     1
 98
        0
  0
SPLINE
  5
136
330
101
100
AcDbEntity
  8
_U+30EC_U+30A4_U+30E4_U+30FC 1
370
     0
100
AcDbSpline
210
0.0
220
0.0
230
1.0
 70
    11
 71
     3
 72
    50
 73
    46
 74
     0
 42
0.0000000001
 43
0.0000000001
 12
1.0
 22
0.0
 32
0.0
 13
1.0
 23
0.0
 33
0.0
 40
0.0
 40
0.0
 40
0.0
 40
0.0
 40
1.0
 40
1.0
 40
1.0
 40
2.0
 40
2.0
 40
2.0
 40
3.0
 40
3.0
 40
3.0
 40
4.0
 40
4.0
 40
4.0
 40
5.0
 40
5.0
 40
5.0
 40
6.0
 40
6.0
 40
6.0
 40
7.0
 40
7.0
 40
7.0
 40
8.0
 40
8.0
 40
8.0
 40
9.0
 40
9.0
 40
9.0
 40
10.0
 40
10.0
 40
10.0
 40
11.0
 40
11.0
 40
11.0
 40
12.0
 40
12.0
 40
12.0
 40
13.0
 40
13.0
 40
13.0
 40
14.0
 40
14.0
 40
14.0
 40
15.0
 40
15.0
 40
15.0
 40
15.0
 10
103.2970540106341
 20
-136.5649630734977
 30
0.0
 10
103.2185058335704
 20
-136.7427300005365
 30
0.0
 10
103.0831135810001
 20
-136.9497802392001
 30
0.0
 10
102.9456542711386
 20
-137.0896511159012
 30
0.0
 10
102.7765000828128
 20
-137.2608723615181
 30
0.0
 10
102.6135470663605
 20
-137.3497558250376
 30
0.0
 10
102.2941867148779
 20
-137.4913492494813
 30
0.0
 10
102.2941867148779
 20
-137.4913492494813
 30
0.0
 10
102.1250325265521
 20
-137.3032470359867
 30
0.0
 10
102.1250325265521
 20
-137.3032470359867
 30
0.0
 10
102.3110676827556
 20
-137.279820386687
 30
0.0
 10
102.4822889283725
 20
-137.1933484900072
 30
0.0
 10
102.6349066583691
 20
-137.08758405861
 30
0.0
 10
102.8970784247966
 20
-136.9056830169889
 30
0.0
 10
103.0875922051309
 20
-136.5925238373796
 30
0.0
 10
103.1361680514729
 20
-136.4106227957585
 30
0.0
 10
103.1361680514729
 20
-136.4106227957585
 30
0.0
 10
102.4654079604948
 20
-136.4106227957585
 30
0.0
 10
102.4654079604948
 20
-136.4106227957585
 30
0.0
 10
102.3069335681733
 20
-136.4106227957585
 30
0.0
 10
102.0147894710241
 20
-136.4188910249231
 30
0.0
 10
101.862516250576
 20
-136.4357719928008
 30
0.0
 10
101.862516250576
 20
-136.4357719928008
 30
0.0
 10
101.862516250576
 20
-136.2073621621287
 30
0.0
 10
101.862516250576
 20
-136.2073621621287
 30
0.0
 10
101.89662269588
 20
-136.2139078435507
 30
0.0
 10
101.9217718929223
 20
-136.2201090154242
 30
0.0
 10
101.9748263633952
 20
-136.2242431300064
 30
0.0
 10
102.0761121706615
 20
-136.2307888114284
 30
0.0
 10
102.2731716324178
 20
-136.2328558687196
 30
0.0
 10
102.3575764718064
 20
-136.2328558687196
 30
0.0
 10
102.3575764718064
 20
-136.2328558687196
 30
0.0
 10
102.8633164890411
 20
-136.2328558687196
 30
0.0
 10
102.8633164890411
 20
-136.2328558687196
 30
0.0
 10
102.930840360552
 20
-136.2328558687196
 30
0.0
 10
103.0769124091266
 20
-136.2287217541373
 30
0.0
 10
103.1382351087641
 20
-136.2221760727153
 30
0.0
 10
103.2102376044058
 20
-136.2139078435507
 30
0.0
 10
103.2377983682878
 20
-136.1990939329641
 30
0.0
 10
103.2715603040432
 20
-136.1756672836644
 30
0.0
 10
103.2715603040432
 20
-136.1756672836644
 30
0.0
 10
103.4365803777867
 20
-136.342754414699
 30
0.0
 10
103.4365803777867
 20
-136.342754414699
 30
0.0
 10
103.3666449394361
 20
-136.4106227957585
 30
0.0
 10
103.3201361503853
 20
-136.5143201698645
 30
0.0
 10
103.2970540106341
 20
-136.5649630734977
 30
0.0
  0
SPLINE
  5
137
330
101
100
AcDbEntity
  8
_U+30EC_U+30A4_U+30E4_U+30FC 1
370
     0
100
AcDbSpline
210
0.0
220
0.0
230
1.0
 70
    11
 71
     3
 72
    29
 73
    25
 74
     0
 42
0.0000000001
 43
0.0000000001
 12
1.0
 22
0.0
 32
0.0
 13
1.0
 23
0.0
 33
0.0
 40
0.0
 40
0.0
 40
0.0
 40
0.0
 40
1.0
 40
1.0
 40
1.0
 40
2.0
 40
2.0
 40
2.0
 40
3.0
 40
3.0
 40
3.0
 40
4.0
 40
4.0
 40
4.0
 40
5.0
 40
5.0
 40
5.0
 40
6.0
 40
6.0
 40
6.0
 40
7.0
 40
7.0
 40
7.0
 40
8.0
 40
8.0
 40
8.0
 40
8.0
 10
102.8040608466948
 20
-135.9386447142792
 30
0.0
 10
102.8040608466948
 20
-135.9386447142792
 30
0.0
 10
102.4633409032036
 20
-135.9386447142792
 30
0.0
 10
102.4633409032036
 20
-135.9386447142792
 30
0.0
 10
102.3493082426418
 20
-135.9386447142792
 30
0.0
 10
102.2328640152404
 20
-135.9431233384101
 30
0.0
 10
102.1184868451301
 20
-135.9579372489966
 30
0.0
 10
102.1184868451301
 20
-135.9579372489966
 30
0.0
 10
102.1184868451301
 20
-135.7484754434934
 30
0.0
 10
102.1184868451301
 20
-135.7484754434934
 30
0.0
 10
102.2369981298227
 20
-135.76328935408
 30
0.0
 10
102.4106309422793
 20
-135.7674234686623
 30
0.0
 10
102.4633409032036
 20
-135.7674234686623
 30
0.0
 10
102.4633409032036
 20
-135.7674234686623
 30
0.0
 10
102.8040608466948
 20
-135.7674234686623
 30
0.0
 10
102.8040608466948
 20
-135.7674234686623
 30
0.0
 10
102.9205050740963
 20
-135.7674234686623
 30
0.0
 10
103.0366047919492
 20
-135.76328935408
 30
0.0
 10
103.1530490193506
 20
-135.7484754434934
 30
0.0
 10
103.1530490193506
 20
-135.7484754434934
 30
0.0
 10
103.1530490193506
 20
-135.9579372489966
 30
0.0
 10
103.1530490193506
 20
-135.9579372489966
 30
0.0
 10
103.0028428561937
 20
-135.9386447142792
 30
0.0
 10
102.8188747572814
 20
-135.9386447142792
 30
0.0
 10
102.8040608466948
 20
-135.9386447142792
 30
0.0
  0
HATCH
  5
138
330
101
100
AcDbEntity
  8
_U+30EC_U+30A4_U+30E4_U+30FC 1
 62
   179
420
  2234388
100
AcDbHatch
 10
0.0
 20
0.0
 30
0.0
210
0.0
220
0.0
230
1.0
  2
SOLID
 70
     1
 71
     0
 91
        2
 92
        1
 93
        1
 72
     4
 94
        3
 73
     0
 74
     1
 95
       50
 96
       46
 40
0.0
 40
0.0
 40
0.0
 40
0.0
 40
1.0
 40
1.0
 40
1.0
 40
2.0
 40
2.0
 40
2.0
 40
3.0
 40
3.0
 40
3.0
 40
4.0
 40
4.0
 40
4.0
 40
5.0
 40
5.0
 40
5.0
 40
6.0
 40
6.0
 40
6.0
 40
7.0
 40
7.0
 40
7.0
 40
8.0
 40
8.0
 40
8.0
 40
9.0
 40
9.0
 40
9.0
 40
10.0
 40
10.0
 40
10.0
 40
11.0
 40
11.0
 40
11.0
 40
12.0
 40
12.0
 40
12.0
 40
13.0
 40
13.0
 40
13.0
 40
14.0
 40
14.0
 40
14.0
 40
15.0
 40
15.0
 40
15.0
 40
15.0
 10
103.2970540106341
 20
-136.5649630734977
 10
103.2185058335704
 20
-136.7427300005365
 10
103.0831135810001
 20
-136.9497802392001
 10
102.9456542711386
 20
-137.0896511159012
 10
102.7765000828128
 20
-137.2608723615181
 10
102.6135470663605
 20
-137.3497558250376
 10
102.2941867148779
 20
-137.4913492494813
 10
102.2941867148779
 20
-137.4913492494813
 10
102.1250325265521
 20
-137.3032470359867
 10
102.1250325265521
 20
-137.3032470359867
 10
102.3110676827556
 20
-137.279820386687
 10
102.4822889283725
 20
-137.1933484900072
 10
102.6349066583691
 20
-137.08758405861
 10
102.8970784247966
 20
-136.9056830169889
 10
103.0875922051309
 20
-136.5925238373796
 10
103.1361680514729
 20
-136.4106227957585
 10
103.1361680514729
 20
-136.4106227957585
 10
102.4654079604948
 20
-136.4106227957585
 10
102.4654079604948
 20
-136.4106227957585
 10
102.3069335681733
 20
-136.4106227957585
 10
102.0147894710241
 20
-136.4188910249231
 10
101.862516250576
 20
-136.4357719928008
 10
101.862516250576
 20
-136.4357719928008
 10
101.862516250576
 20
-136.2073621621287
 10
101.862516250576
 20
-136.2073621621287
 10
101.89662269588
 20
-136.2139078435507
 10
101.9217718929223
 20
-136.2201090154242
 10
101.9748263633952
 20
-136.2242431300064
 10
102.0761121706615
 20
-136.2307888114284
 10
102.2731716324178
 20
-136.2328558687196
 10
102.3575764718064
 20
-136.2328558687196
 10
102.3575764718064
 20
-136.2328558687196
 10
102.8633164890411
 20
-136.2328558687196
 10
102.8633164890411
 20
-136.2328558687196
 10
102.930840360552
 20
-136.2328558687196
 10
103.0769124091266
 20
-136.2287217541373
 10
103.1382351087641
 20
-136.2221760727153
 10
103.2102376044058
 20
-136.2139078435507
 10
103.2377983682878
 20
-136.1990939329641
 10
103.2715603040432
 20
-136.1756672836644
 10
103.2715603040432
 20
-136.1756672836644
 10
103.4365803777867
 20
-136.342754414699
 10
103.4365803777867
 20
-136.342754414699
 10
103.3666449394361
 20
-136.4106227957585
 10
103.3201361503853
 20
-136.5143201698645
 10
103.2970540106341
 20
-136.5649630734977
 97
        0
 97
        0
 92
        1
 93
        1
 72
     4
 94
        3
 73
     0
 74
     1
 95
       29
 96
       25
 40
0.0
 40
0.0
 40
0.0
 40
0.0
 40
1.0
 40
1.0
 40
1.0
 40
2.0
 40
2.0
 40
2.0
 40
3.0
 40
3.0
 40
3.0
 40
4.0
 40
4.0
 40
4.0
 40
5.0
 40
5.0
 40
5.0
 40
6.0
 40
6.0
 40
6.0
 40
7.0
 40
7.0
 40
7.0
 40
8.0
 40
8.0
 40
8.0
 40
8.0
 10
102.8040608466948
 20
-135.9386447142792
 10
102.8040608466948
 20
-135.9386447142792
 10
102.4633409032036
 20
-135.9386447142792
 10
102.4633409032036
 20
-135.9386447142792
 10
102.3493082426418
 20
-135.9386447142792
 10
102.2328640152404
 20
-135.9431233384101
 10
102.1184868451301
 20
-135.9579372489966
 10
102.1184868451301
 20
-135.9579372489966
 10
102.1184868451301
 20
-135.7484754434934
 10
102.1184868451301
 20
-135.7484754434934
 10
102.2369981298227
 20
-135.76328935408
 10
102.4106309422793
 20
-135.7674234686623
 10
102.4633409032036
 20
-135.7674234686623
 10
102.4633409032036
 20
-135.7674234686623
 10
102.8040608466948
 20
-135.7674234686623
 10
102.8040608466948
 20
-135.7674234686623
 10
102.9205050740963
 20
-135.7674234686623
 10
103.0366047919492
 20
-135.76328935408
 10
103.1530490193506
 20
-135.7484754434934
 10
103.1530490193506
 20
-135.7484754434934
 10
103.1530490193506
 20
-135.9579372489966
 10
103.1530490193506
 20
-135.9579372489966
 10
103.0028428561937
 20
-135.9386447142792
 10
102.8188747572814
 20
-135.9386447142792
 10
102.8040608466948
 20
-135.9386447142792
 97
        0
 97
        0
 75
     2
 76
     1
 98
        0
  0
SPLINE
  5
139
330
101
100
AcDbEntity
  8
_U+30EC_U+30A4_U+30E4_U+30FC 1
370
     0
100
AcDbSpline
210
0.0
220
0.0
230
1.0
 70
    11
 71
     3
 72
    50
 73
    46
 74
     0
 42
0.0000000001
 43
0.0000000001
 12
1.0
 22
0.0
 32
0.0
 13
1.0
 23
0.0
 33
0.0
 40
0.0
 40
0.0
 40
0.0
 40
0.0
 40
1.0
 40
1.0
 40
1.0
 40
2.0
 40
2.0
 40
2.0
 40
3.0
 40
3.0
 40
3.0
 40
4.0
 40
4.0
 40
4.0
 40
5.0
 40
5.0
 40
5.0
 40
6.0
 40
6.0
 40
6.0
 40
7.0
 40
7.0
 40
7.0
 40
8.0
 40
8.0
 40
8.0
 40
9.0
 40
9.0
 40
9.0
 40
10.0
 40
10.0
 40
10.0
 40
11.0
 40
11.0
 40
11.0
 40
12.0
 40
12.0
 40
12.0
 40
13.0
 40
13.0
 40
13.0
 40
14.0
 40
14.0
 40
14.0
 40
15.0
 40
15.0
 40
15.0
 40
15.0
 10
105.0071994095121
 20
-135.9238308036927
 30
0.0
 10
104.7977376040089
 20
-136.1374267237782
 30
0.0
 10
104.7260796179157
 20
-136.2094292194199
 30
0.0
 10
104.5841416839234
 20
-136.3279405041125
 30
0.0
 10
104.5841416839234
 20
-136.3279405041125
 30
0.0
 10
104.5841416839234
 20
-136.8950032209846
 30
0.0
 10
104.5841416839234
 20
-136.8950032209846
 30
0.0
 10
104.5841416839234
 20
-137.0452093841415
 30
0.0
 10
104.5906873653454
 20
-137.0641574093104
 30
0.0
 10
104.5948214799277
 20
-137.2419243363493
 30
0.0
 10
104.5968885372188
 20
-137.3731824743373
 30
0.0
 10
104.6030897090923
 20
-137.4217583206793
 30
0.0
 10
104.6096353905143
 20
-137.4810139630256
 30
0.0
 10
104.6096353905143
 20
-137.4810139630256
 30
0.0
 10
104.3832926171333
 20
-137.4810139630256
 30
0.0
 10
104.3832926171333
 20
-137.4810139630256
 30
0.0
 10
104.3874267317156
 20
-137.4365722312659
 30
0.0
 10
104.3915608462979
 20
-137.390063442215
 30
0.0
 10
104.3915608462979
 20
-137.3814507035019
 30
0.0
 10
104.3915608462979
 20
-137.3011799786956
 30
0.0
 10
104.3960394704288
 20
-136.9497802392001
 30
0.0
 10
104.3960394704288
 20
-136.8781222531069
 30
0.0
 10
104.3960394704288
 20
-136.8781222531069
 30
0.0
 10
104.3960394704288
 20
-136.4719454953959
 30
0.0
 10
104.3960394704288
 20
-136.4719454953959
 30
0.0
 10
104.2141384288076
 20
-136.596657951962
 30
0.0
 10
104.019490533891
 20
-136.7065564979414
 30
0.0
 10
103.8162299002612
 20
-136.7933729041697
 30
0.0
 10
103.8162299002612
 20
-136.7933729041697
 30
0.0
 10
103.61331377618
 20
-136.6304198877174
 30
0.0
 10
103.61331377618
 20
-136.6304198877174
 30
0.0
 10
103.7359591754549
 20
-136.5945908946708
 30
0.0
 10
103.991929770009
 20
-136.5205213417379
 30
0.0
 10
104.3367838280825
 20
-136.2645507471839
 30
0.0
 10
104.5524468054591
 20
-136.1057318453138
 30
0.0
 10
104.7450276430846
 20
-135.9176296318192
 30
0.0
 10
104.8973008635326
 20
-135.6974880303117
 30
0.0
 10
104.8973008635326
 20
-135.6974880303117
 30
0.0
 10
105.0898817011581
 20
-135.8414930215952
 30
0.0
 10
105.0898817011581
 20
-135.8414930215952
 30
0.0
 10
105.1026285544535
 20
-135.8521728175995
 30
0.0
 10
105.1108967836181
 20
-135.8666422186375
 30
0.0
 10
105.1108967836181
 20
-135.8793890719329
 30
0.0
 10
105.1108967836181
 20
-135.9196966891104
 30
0.0
 10
105.0730007332804
 20
-135.9196966891104
 30
0.0
 10
105.0071994095121
 20
-135.9238308036927
 30
0.0
  0
HATCH
  5
13A
330
101
100
AcDbEntity
  8
_U+30EC_U+30A4_U+30E4_U+30FC 1
 62
   179
420
  2234388
100
AcDbHatch
 10
0.0
 20
0.0
 30
0.0
210
0.0
220
0.0
230
1.0
  2
SOLID
 70
     1
 71
     0
 91
        1
 92
        1
 93
        1
 72
     4
 94
        3
 73
     0
 74
     1
 95
       50
 96
       46
 40
0.0
 40
0.0
 40
0.0
 40
0.0
 40
1.0
 40
1.0
 40
1.0
 40
2.0
 40
2.0
 40
2.0
 40
3.0
 40
3.0
 40
3.0
 40
4.0
 40
4.0
 40
4.0
 40
5.0
 40
5.0
 40
5.0
 40
6.0
 40
6.0
 40
6.0
 40
7.0
 40
7.0
 40
7.0
 40
8.0
 40
8.0
 40
8.0
 40
9.0
 40
9.0
 40
9.0
 40
10.0
 40
10.0
 40
10.0
 40
11.0
 40
11.0
 40
11.0
 40
12.0
 40
12.0
 40
12.0
 40
13.0
 40
13.0
 40
13.0
 40
14.0
 40
14.0
 40
14.0
 40
15.0
 40
15.0
 40
15.0
 40
15.0
 10
105.0071994095121
 20
-135.9238308036927
 10
104.7977376040089
 20
-136.1374267237782
 10
104.7260796179157
 20
-136.2094292194199
 10
104.5841416839234
 20
-136.3279405041125
 10
104.5841416839234
 20
-136.3279405041125
 10
104.5841416839234
 20
-136.8950032209846
 10
104.5841416839234
 20
-136.8950032209846
 10
104.5841416839234
 20
-137.0452093841415
 10
104.5906873653454
 20
-137.0641574093104
 10
104.5948214799277
 20
-137.2419243363493
 10
104.5968885372188
 20
-137.3731824743373
 10
104.6030897090923
 20
-137.4217583206793
 10
104.6096353905143
 20
-137.4810139630256
 10
104.6096353905143
 20
-137.4810139630256
 10
104.3832926171333
 20
-137.4810139630256
 10
104.3832926171333
 20
-137.4810139630256
 10
104.3874267317156
 20
-137.4365722312659
 10
104.3915608462979
 20
-137.390063442215
 10
104.3915608462979
 20
-137.3814507035019
 10
104.3915608462979
 20
-137.3011799786956
 10
104.3960394704288
 20
-136.9497802392001
 10
104.3960394704288
 20
-136.8781222531069
 10
104.3960394704288
 20
-136.8781222531069
 10
104.3960394704288
 20
-136.4719454953959
 10
104.3960394704288
 20
-136.4719454953959
 10
104.2141384288076
 20
-136.596657951962
 10
104.019490533891
 20
-136.7065564979414
 10
103.8162299002612
 20
-136.7933729041697
 10
103.8162299002612
 20
-136.7933729041697
 10
103.61331377618
 20
-136.6304198877174
 10
103.61331377618
 20
-136.6304198877174
 10
103.7359591754549
 20
-136.5945908946708
 10
103.991929770009
 20
-136.5205213417379
 10
104.3367838280825
 20
-136.2645507471839
 10
104.5524468054591
 20
-136.1057318453138
 10
104.7450276430846
 20
-135.9176296318192
 10
104.8973008635326
 20
-135.6974880303117
 10
104.8973008635326
 20
-135.6974880303117
 10
105.0898817011581
 20
-135.8414930215952
 10
105.0898817011581
 20
-135.8414930215952
 10
105.1026285544535
 20
-135.8521728175995
 10
105.1108967836181
 20
-135.8666422186375
 10
105.1108967836181
 20
-135.8793890719329
 10
105.1108967836181
 20
-135.9196966891104
 10
105.0730007332804
 20
-135.9196966891104
 10
105.0071994095121
 20
-135.9238308036927
 97
        0
 97
        0
 75
     2
 76
     1
 98
        0
  0
SPLINE
  5
13B
330
101
100
AcDbEntity
  8
_U+30EC_U+30A4_U+30E4_U+30FC 1
370
     0
100
AcDbSpline
210
0.0
220
0.0
230
1.0
 70
    11
 71
     3
 72
    50
 73
    46
 74
     0
 42
0.0000000001
 43
0.0000000001
 12
1.0
 22
0.0
 32
0.0
 13
1.0
 23
0.0
 33
0.0
 40
0.0
 40
0.0
 40
0.0
 40
0.0
 40
1.0
 40
1.0
 40
1.0
 40
2.0
 40
2.0
 40
2.0
 40
3.0
 40
3.0
 40
3.0
 40
4.0
 40
4.0
 40
4.0
 40
5.0
 40
5.0
 40
5.0
 40
6.0
 40
6.0
 40
6.0
 40
7.0
 40
7.0
 40
7.0
 40
8.0
 40
8.0
 40
8.0
 40
9.0
 40
9.0
 40
9.0
 40
10.0
 40
10.0
 40
10.0
 40
11.0
 40
11.0
 40
11.0
 40
12.0
 40
12.0
 40
12.0
 40
13.0
 40
13.0
 40
13.0
 40
14.0
 40
14.0
 40
14.0
 40
15.0
 40
15.0
 40
15.0
 40
15.0
 10
106.7156222606475
 20
-136.4505859033873
 30
0.0
 10
106.65429956101
 20
-136.5225883990291
 30
0.0
 10
106.3938503423252
 20
-136.8398816932206
 30
0.0
 10
106.3370062668185
 20
-136.9032714501492
 30
0.0
 10
106.4214111062071
 20
-137.0007676523818
 30
0.0
 10
106.4723985193888
 20
-137.0641574093104
 30
0.0
 10
106.5378553336086
 20
-137.1551079301209
 30
0.0
 10
106.5378553336086
 20
-137.1551079301209
 30
0.0
 10
106.3538872346963
 20
-137.2925672399824
 30
0.0
 10
106.3538872346963
 20
-137.2925672399824
 30
0.0
 10
106.2184949821259
 20
-137.0810383771881
 30
0.0
 10
106.0469292269605
 20
-136.8567626610983
 30
0.0
 10
105.7530625820687
 20
-136.6579806515994
 30
0.0
 10
105.7530625820687
 20
-136.6579806515994
 30
0.0
 10
105.9012016879344
 20
-136.5036403738602
 30
0.0
 10
105.9012016879344
 20
-136.5036403738602
 30
0.0
 10
106.0111002339139
 20
-136.5839110986665
 30
0.0
 10
106.1147976080199
 20
-136.672794562186
 30
0.0
 10
106.211949300704
 20
-136.7678791975789
 30
0.0
 10
106.2798176817634
 20
-136.6917425873548
 30
0.0
 10
106.4827338058446
 20
-136.4485188460962
 30
0.0
 10
106.6160590011238
 20
-136.2201090154242
 30
0.0
 10
106.6160590011238
 20
-136.2201090154242
 30
0.0
 10
105.9432318528545
 20
-136.2201090154242
 30
0.0
 10
105.9432318528545
 20
-136.2201090154242
 30
0.0
 10
105.8185193962884
 20
-136.2201090154242
 30
0.0
 10
105.5666829163167
 20
-136.2287217541373
 30
0.0
 10
105.3572211108135
 20
-136.239057040593
 30
0.0
 10
105.3572211108135
 20
-136.239057040593
 30
0.0
 10
105.3572211108135
 20
-136.0192599486341
 30
0.0
 10
105.3572211108135
 20
-136.0192599486341
 30
0.0
 10
105.5415337192743
 20
-136.0382079738029
 30
0.0
 10
105.7465169006467
 20
-136.0423420883853
 30
0.0
 10
105.9349636236899
 20
-136.0423420883853
 30
0.0
 10
105.9349636236899
 20
-136.0423420883853
 30
0.0
 10
106.4382920740849
 20
-136.0423420883853
 30
0.0
 10
106.4382920740849
 20
-136.0423420883853
 30
0.0
 10
106.7769449602849
 20
-136.0423420883853
 30
0.0
 10
106.8213866920447
 20
-136.0275281777987
 30
0.0
 10
106.9037244741421
 20
-135.9872205606213
 30
0.0
 10
106.9037244741421
 20
-135.9872205606213
 30
0.0
 10
107.0708116051767
 20
-136.1460394624913
 30
0.0
 10
107.0708116051767
 20
-136.1460394624913
 30
0.0
 10
106.9185383847287
 20
-136.218041958133
 30
0.0
 10
106.7748779029938
 20
-136.3809949745853
 30
0.0
 10
106.7156222606475
 20
-136.4505859033873
 30
0.0
  0
HATCH
  5
13C
330
101
100
AcDbEntity
  8
_U+30EC_U+30A4_U+30E4_U+30FC 1
 62
   179
420
  2234388
100
AcDbHatch
 10
0.0
 20
0.0
 30
0.0
210
0.0
220
0.0
230
1.0
  2
SOLID
 70
     1
 71
     0
 91
        1
 92
        1
 93
        1
 72
     4
 94
        3
 73
     0
 74
     1
 95
       50
 96
       46
 40
0.0
 40
0.0
 40
0.0
 40
0.0
 40
1.0
 40
1.0
 40
1.0
 40
2.0
 40
2.0
 40
2.0
 40
3.0
 40
3.0
 40
3.0
 40
4.0
 40
4.0
 40
4.0
 40
5.0
 40
5.0
 40
5.0
 40
6.0
 40
6.0
 40
6.0
 40
7.0
 40
7.0
 40
7.0
 40
8.0
 40
8.0
 40
8.0
 40
9.0
 40
9.0
 40
9.0
 40
10.0
 40
10.0
 40
10.0
 40
11.0
 40
11.0
 40
11.0
 40
12.0
 40
12.0
 40
12.0
 40
13.0
 40
13.0
 40
13.0
 40
14.0
 40
14.0
 40
14.0
 40
15.0
 40
15.0
 40
15.0
 40
15.0
 10
106.7156222606475
 20
-136.4505859033873
 10
106.65429956101
 20
-136.5225883990291
 10
106.3938503423252
 20
-136.8398816932206
 10
106.3370062668185
 20
-136.9032714501492
 10
106.4214111062071
 20
-137.0007676523818
 10
106.4723985193888
 20
-137.0641574093104
 10
106.5378553336086
 20
-137.1551079301209
 10
106.5378553336086
 20
-137.1551079301209
 10
106.3538872346963
 20
-137.2925672399824
 10
106.3538872346963
 20
-137.2925672399824
 10
106.2184949821259
 20
-137.0810383771881
 10
106.0469292269605
 20
-136.8567626610983
 10
105.7530625820687
 20
-136.6579806515994
 10
105.7530625820687
 20
-136.6579806515994
 10
105.9012016879344
 20
-136.5036403738602
 10
105.9012016879344
 20
-136.5036403738602
 10
106.0111002339139
 20
-136.5839110986665
 10
106.1147976080199
 20
-136.672794562186
 10
106.211949300704
 20
-136.7678791975789
 10
106.2798176817634
 20
-136.6917425873548
 10
106.4827338058446
 20
-136.4485188460962
 10
106.6160590011238
 20
-136.2201090154242
 10
106.6160590011238
 20
-136.2201090154242
 10
105.9432318528545
 20
-136.2201090154242
 10
105.9432318528545
 20
-136.2201090154242
 10
105.8185193962884
 20
-136.2201090154242
 10
105.5666829163167
 20
-136.2287217541373
 10
105.3572211108135
 20
-136.239057040593
 10
105.3572211108135
 20
-136.239057040593
 10
105.3572211108135
 20
-136.0192599486341
 10
105.3572211108135
 20
-136.0192599486341
 10
105.5415337192743
 20
-136.0382079738029
 10
105.7465169006467
 20
-136.0423420883853
 10
105.9349636236899
 20
-136.0423420883853
 10
105.9349636236899
 20
-136.0423420883853
 10
106.4382920740849
 20
-136.0423420883853
 10
106.4382920740849
 20
-136.0423420883853
 10
106.7769449602849
 20
-136.0423420883853
 10
106.8213866920447
 20
-136.0275281777987
 10
106.9037244741421
 20
-135.9872205606213
 10
106.9037244741421
 20
-135.9872205606213
 10
107.0708116051767
 20
-136.1460394624913
 10
107.0708116051767
 20
-136.1460394624913
 10
106.9185383847287
 20
-136.218041958133
 10
106.7748779029938
 20
-136.3809949745853
 10
106.7156222606475
 20
-136.4505859033873
 97
        0
 97
        0
 75
     2
 76
     1
 98
        0
  0
SPLINE
  5
13D
330
101
100
AcDbEntity
  8
_U+30EC_U+30A4_U+30E4_U+30FC 1
370
     0
100
AcDbSpline
210
0.0
220
0.0
230
1.0
 70
    11
 71
     3
 72
    29
 73
    25
 74
     0
 42
0.0000000001
 43
0.0000000001
 12
1.0
 22
0.0
 32
0.0
 13
1.0
 23
0.0
 33
0.0
 40
0.0
 40
0.0
 40
0.0
 40
0.0
 40
1.0
 40
1.0
 40
1.0
 40
2.0
 40
2.0
 40
2.0
 40
3.0
 40
3.0
 40
3.0
 40
4.0
 40
4.0
 40
4.0
 40
5.0
 40
5.0
 40
5.0
 40
6.0
 40
6.0
 40
6.0
 40
7.0
 40
7.0
 40
7.0
 40
8.0
 40
8.0
 40
8.0
 40
8.0
 10
108.3389512532972
 20
-136.693809644646
 30
0.0
 10
108.3389512532972
 20
-136.693809644646
 30
0.0
 10
107.8545708280711
 20
-136.693809644646
 30
0.0
 10
107.8545708280711
 20
-136.693809644646
 30
0.0
 10
107.8270100641891
 20
-136.693809644646
 30
0.0
 10
107.5097167699976
 20
-136.693809644646
 30
0.0
 10
107.2981879072032
 20
-136.7193033512368
 30
0.0
 10
107.2981879072032
 20
-136.7193033512368
 30
0.0
 10
107.2981879072032
 20
-136.4888264632736
 30
0.0
 10
107.2981879072032
 20
-136.4888264632736
 30
0.0
 10
107.4566622995247
 20
-136.5119086030248
 30
0.0
 10
107.6471760798591
 20
-136.5143201698645
 30
0.0
 10
107.8545708280711
 20
-136.5143201698645
 30
0.0
 10
107.8545708280711
 20
-136.5143201698645
 30
0.0
 10
108.3389512532972
 20
-136.5143201698645
 30
0.0
 10
108.3389512532972
 20
-136.5143201698645
 30
0.0
 10
108.5249864095007
 20
-136.5143201698645
 30
0.0
 10
108.7113660752527
 20
-136.5119086030248
 30
0.0
 10
108.8953341741651
 20
-136.4888264632736
 30
0.0
 10
108.8953341741651
 20
-136.4888264632736
 30
0.0
 10
108.8953341741651
 20
-136.7193033512368
 30
0.0
 10
108.8953341741651
 20
-136.7193033512368
 30
0.0
 10
108.7113660752527
 20
-136.6962212114857
 30
0.0
 10
108.4636637098633
 20
-136.693809644646
 30
0.0
 10
108.3389512532972
 20
-136.693809644646
 30
0.0
  0
HATCH
  5
13E
330
101
100
AcDbEntity
  8
_U+30EC_U+30A4_U+30E4_U+30FC 1
 62
   179
420
  2234388
100
AcDbHatch
 10
0.0
 20
0.0
 30
0.0
210
0.0
220
0.0
230
1.0
  2
SOLID
 70
     1
 71
     0
 91
        1
 92
        1
 93
        1
 72
     4
 94
        3
 73
     0
 74
     1
 95
       29
 96
       25
 40
0.0
 40
0.0
 40
0.0
 40
0.0
 40
1.0
 40
1.0
 40
1.0
 40
2.0
 40
2.0
 40
2.0
 40
3.0
 40
3.0
 40
3.0
 40
4.0
 40
4.0
 40
4.0
 40
5.0
 40
5.0
 40
5.0
 40
6.0
 40
6.0
 40
6.0
 40
7.0
 40
7.0
 40
7.0
 40
8.0
 40
8.0
 40
8.0
 40
8.0
 10
108.3389512532972
 20
-136.693809644646
 10
108.3389512532972
 20
-136.693809644646
 10
107.8545708280711
 20
-136.693809644646
 10
107.8545708280711
 20
-136.693809644646
 10
107.8270100641891
 20
-136.693809644646
 10
107.5097167699976
 20
-136.693809644646
 10
107.2981879072032
 20
-136.7193033512368
 10
107.2981879072032
 20
-136.7193033512368
 10
107.2981879072032
 20
-136.4888264632736
 10
107.2981879072032
 20
-136.4888264632736
 10
107.4566622995247
 20
-136.5119086030248
 10
107.6471760798591
 20
-136.5143201698645
 10
107.8545708280711
 20
-136.5143201698645
 10
107.8545708280711
 20
-136.5143201698645
 10
108.3389512532972
 20
-136.5143201698645
 10
108.3389512532972
 20
-136.5143201698645
 10
108.5249864095007
 20
-136.5143201698645
 10
108.7113660752527
 20
-136.5119086030248
 10
108.8953341741651
 20
-136.4888264632736
 10
108.8953341741651
 20
-136.4888264632736
 10
108.8953341741651
 20
-136.7193033512368
 10
108.8953341741651
 20
-136.7193033512368
 10
108.7113660752527
 20
-136.6962212114857
 10
108.4636637098633
 20
-136.693809644646
 10
108.3389512532972
 20
-136.693809644646
 97
        0
 97
        0
 75
     2
 76
     1
 98
        0
  0
ENDBLK
  5
104
330
101
100
AcDbEntity
  8
0
100
AcDbBlockEnd
  0
ENDSEC
  0
SECTION
  2
ENTITIES
  0
POLYLINE
  5
41
330
1F
100
AcDbEntity
  8
_U+30EC_U+30A4_U+30E4_U+30FC 1
  6
AI-Linetype-1
 62
   154
420
    23468
370
    25
100
AcDb2dPolyline
 66
     1
 10
0.0
 20
0.0
 30
0.0
  0
VERTEX
  5
42
330
41
100
AcDbEntity
  8
_U+30EC_U+30A4_U+30E4_U+30FC 1
  6
AI-Linetype-1
 62
   154
420
    23468
370
    25
100
AcDbVertex
100
AcDb2dVertex
 10
81.13218609082799
 20
-123.8525519134812
 30
0.0
  0
VERTEX
  5
43
330
41
100
AcDbEntity
  8
_U+30EC_U+30A4_U+30E4_U+30FC 1
  6
AI-Linetype-1
 62
   154
420
    23468
370
    25
100
AcDbVertex
100
AcDb2dVertex
 10
79.54468609122486
 20
-123.8525519134812
 30
0.0
  0
VERTEX
  5
44
330
41
100
AcDbEntity
  8
_U+30EC_U+30A4_U+30E4_U+30FC 1
  6
AI-Linetype-1
 62
   154
420
    23468
370
    25
100
AcDbVertex
100
AcDb2dVertex
 10
79.54468609122486
 20
-135.0525760773478
 30
0.0
  0
VERTEX
  5
45
330
41
100
AcDbEntity
  8
_U+30EC_U+30A4_U+30E4_U+30FC 1
  6
AI-Linetype-1
 62
   154
420
    23468
370
    25
100
AcDbVertex
100
AcDb2dVertex
 10
91.29641942162023
 20
-135.0525760773478
 30
0.0
  0
VERTEX
  5
46
330
41
100
AcDbEntity
  8
_U+30EC_U+30A4_U+30E4_U+30FC 1
  6
AI-Linetype-1
 62
   154
420
    23468
370
    25
100
AcDbVertex
100
AcDb2dVertex
 10
91.29641942162023
 20
-133.2349238555803
 30
0.0
  0
SEQEND
  5
48
330
41
100
AcDbEntity
  8
_U+30EC_U+30A4_U+30E4_U+30FC 1
  6
AI-Linetype-1
 62
   154
420
    23468
370
    25
  0
POLYLINE
  5
49
330
1F
100
AcDbEntity
  8
_U+30EC_U+30A4_U+30E4_U+30FC 1
 62
     7
420
 16777215
370
    25
100
AcDb2dPolyline
 66
     1
 10
0.0
 20
0.0
 30
0.0
  0
VERTEX
  5
4A
330
49
100
AcDbEntity
  8
_U+30EC_U+30A4_U+30E4_U+30FC 1
 62
     7
420
 16777215
370
    25
100
AcDbVertex
100
AcDb2dVertex
 10
81.70544997957356
 20
-133.4526582999699
 30
0.0
  0
VERTEX
  5
4B
330
49
100
AcDbEntity
  8
_U+30EC_U+30A4_U+30E4_U+30FC 1
 62
     7
420
 16777215
370
    25
100
AcDbVertex
100
AcDb2dVertex
 10
90.70558490812996
 20
-133.4526582999699
 30
0.0
  0
SEQEND
  5
4C
330
49
100
AcDbEntity
  8
_U+30EC_U+30A4_U+30E4_U+30FC 1
 62
     7
420
 16777215
370
    25
  0
POLYLINE
  5
4D
330
1F
100
AcDbEntity
  8
_U+30EC_U+30A4_U+30E4_U+30FC 1
 62
     7
420
 16777215
370
    25
100
AcDb2dPolyline
 66
     1
 10
0.0
 20
0.0
 30
0.0
  0
VERTEX
  5
4E
330
4D
100
AcDbEntity
  8
_U+30EC_U+30A4_U+30E4_U+30FC 1
 62
     7
420
 16777215
370
    25
100
AcDbVertex
100
AcDb2dVertex
 10
81.70544997957356
 20
-129.9524324675119
 30
0.0
  0
VERTEX
  5
4F
330
4D
100
AcDbEntity
  8
_U+30EC_U+30A4_U+30E4_U+30FC 1
 62
     7
420
 16777215
370
    25
100
AcDbVertex
100
AcDb2dVertex
 10
90.80566796113219
 20
-129.9524324675119
 30
0.0
  0
SEQEND
  5
50
330
4D
100
AcDbEntity
  8
_U+30EC_U+30A4_U+30E4_U+30FC 1
 62
     7
420
 16777215
370
    25
  0
POLYLINE
  5
51
330
1F
100
AcDbEntity
  8
_U+30EC_U+30A4_U+30E4_U+30FC 1
 62
     7
420
 16777215
370
    25
100
AcDb2dPolyline
 66
     1
 10
0.0
 20
0.0
 30
0.0
  0
VERTEX
  5
52
330
51
100
AcDbEntity
  8
_U+30EC_U+30A4_U+30E4_U+30FC 1
 62
     7
420
 16777215
370
    25
100
AcDbVertex
100
AcDb2dVertex
 10
81.70544997957356
 20
-134.453136077498
 30
0.0
  0
VERTEX
  5
53
330
51
100
AcDbEntity
  8
_U+30EC_U+30A4_U+30E4_U+30FC 1
 62
     7
420
 16777215
370
    25
100
AcDbVertex
100
AcDb2dVertex
 10
89.7051071558765
 20
-134.453136077498
 30
0.0
  0
SEQEND
  5
54
330
51
100
AcDbEntity
  8
_U+30EC_U+30A4_U+30E4_U+30FC 1
 62
     7
420
 16777215
370
    25
  0
POLYLINE
  5
55
330
1F
100
AcDbEntity
  8
_U+30EC_U+30A4_U+30E4_U+30FC 1
 62
     7
420
 16777215
370
    25
100
AcDb2dPolyline
 66
     1
 10
0.0
 20
0.0
 30
0.0
  0
VERTEX
  5
56
330
55
100
AcDbEntity
  8
_U+30EC_U+30A4_U+30E4_U+30FC 1
 62
     7
420
 16777215
370
    25
100
AcDbVertex
100
AcDb2dVertex
 10
80.70497220204614
 20
-125.4524696908591
 30
0.0
  0
VERTEX
  5
57
330
55
100
AcDbEntity
  8
_U+30EC_U+30A4_U+30E4_U+30FC 1
 62
     7
420
 16777215
370
    25
100
AcDbVertex
100
AcDb2dVertex
 10
80.70497220204614
 20
-133.4526582999699
 30
0.0
  0
SEQEND
  5
58
330
55
100
AcDbEntity
  8
_U+30EC_U+30A4_U+30E4_U+30FC 1
 62
     7
420
 16777215
370
    25
  0
POLYLINE
  5
59
330
1F
100
AcDbEntity
  8
_U+30EC_U+30A4_U+30E4_U+30FC 1
 62
     7
420
 16777215
370
    25
100
AcDb2dPolyline
 66
     1
 10
0.0
 20
0.0
 30
0.0
  0
VERTEX
  5
5A
330
59
100
AcDbEntity
  8
_U+30EC_U+30A4_U+30E4_U+30FC 1
 62
     7
420
 16777215
370
    25
100
AcDbVertex
100
AcDb2dVertex
 10
81.70544997957356
 20
-124.4526974688869
 30
0.0
  0
VERTEX
  5
5B
330
59
100
AcDbEntity
  8
_U+30EC_U+30A4_U+30E4_U+30FC 1
 62
     7
420
 16777215
370
    25
100
AcDbVertex
100
AcDb2dVertex
 10
81.70544997957356
 20
-128.9526955233175
 30
0.0
  0
SEQEND
  5
5C
330
59
100
AcDbEntity
  8
_U+30EC_U+30A4_U+30E4_U+30FC 1
 62
     7
420
 16777215
370
    25
  0
POLYLINE
  5
5D
330
1F
100
AcDbEntity
  8
_U+30EC_U+30A4_U+30E4_U+30FC 1
 62
     7
420
 16777215
370
    25
100
AcDb2dPolyline
 66
     1
 10
0.0
 20
0.0
 30
0.0
  0
VERTEX
  5
5E
330
5D
100
AcDbEntity
  8
_U+30EC_U+30A4_U+30E4_U+30FC 1
 62
     7
420
 16777215
370
    25
100
AcDbVertex
100
AcDb2dVertex
 10
81.70544997957356
 20
-128.9526955233175
 30
0.0
  0
VERTEX
  5
5F
330
5D
100
AcDbEntity
  8
_U+30EC_U+30A4_U+30E4_U+30FC 1
 62
     7
420
 16777215
370
    25
100
AcDbVertex
100
AcDb2dVertex
 10
96.80581808583338
 20
-128.9526955233175
 30
0.0
  0
SEQEND
  5
60
330
5D
100
AcDbEntity
  8
_U+30EC_U+30A4_U+30E4_U+30FC 1
 62
     7
420
 16777215
370
    25
  0
POLYLINE
  5
61
330
1F
100
AcDbEntity
  8
_U+30EC_U+30A4_U+30E4_U+30FC 1
 62
     7
420
 16777215
370
    25
100
AcDb2dPolyline
 66
     1
 10
0.0
 20
0.0
 30
0.0
  0
VERTEX
  5
62
330
61
100
AcDbEntity
  8
_U+30EC_U+30A4_U+30E4_U+30FC 1
 62
     7
420
 16777215
370
    25
100
AcDbVertex
100
AcDb2dVertex
 10
81.70544997957356
 20
-129.9524324675119
 30
0.0
  0
VERTEX
  5
63
330
61
100
AcDbEntity
  8
_U+30EC_U+30A4_U+30E4_U+30FC 1
 62
     7
420
 16777215
370
    25
100
AcDbVertex
100
AcDb2dVertex
 10
81.70544997957356
 20
-133.4526582999699
 30
0.0
  0
SEQEND
  5
64
330
61
100
AcDbEntity
  8
_U+30EC_U+30A4_U+30E4_U+30FC 1
 62
     7
420
 16777215
370
    25
  0
POLYLINE
  5
65
330
1F
100
AcDbEntity
  8
_U+30EC_U+30A4_U+30E4_U+30FC 1
 62
     7
420
 16777215
370
    25
100
AcDb2dPolyline
 66
     1
 10
0.0
 20
0.0
 30
0.0
  0
VERTEX
  5
66
330
65
100
AcDbEntity
  8
_U+30EC_U+30A4_U+30E4_U+30FC 1
 62
     7
420
 16777215
370
    25
100
AcDbVertex
100
AcDb2dVertex
 10
91.32516850343418
 20
-129.652712467587
 30
0.0
  0
VERTEX
  5
67
330
65
100
AcDbEntity
  8
_U+30EC_U+30A4_U+30E4_U+30FC 1
 62
     7
420
 16777215
370
    25
100
AcDbVertex
100
AcDb2dVertex
 10
96.10576588147097
 20
-129.652712467587
 30
0.0
  0
SEQEND
  5
68
330
65
100
AcDbEntity
  8
_U+30EC_U+30A4_U+30E4_U+30FC 1
 62
     7
420
 16777215
370
    25
  0
POLYLINE
  5
69
330
1F
100
AcDbEntity
  8
_U+30EC_U+30A4_U+30E4_U+30FC 1
 62
     7
420
 16777215
370
    25
100
AcDb2dPolyline
 66
     1
 10
0.0
 20
0.0
 30
0.0
  0
VERTEX
  5
6A
330
69
100
AcDbEntity
  8
_U+30EC_U+30A4_U+30E4_U+30FC 1
 62
     7
420
 16777215
370
    25
100
AcDbVertex
100
AcDb2dVertex
 10
90.80566796113219
 20
-129.9524324675119
 30
0.0
  0
VERTEX
  5
6B
330
69
100
AcDbEntity
  8
_U+30EC_U+30A4_U+30E4_U+30FC 1
 62
     7
420
 16777215
370
    25
100
AcDbVertex
100
AcDb2dVertex
 10
91.32516850343418
 20
-129.652712467587
 30
0.0
  0
SEQEND
  5
6C
330
69
100
AcDbEntity
  8
_U+30EC_U+30A4_U+30E4_U+30FC 1
 62
     7
420
 16777215
370
    25
  0
POLYLINE
  5
6D
330
1F
100
AcDbEntity
  8
_U+30EC_U+30A4_U+30E4_U+30FC 1
 62
     7
420
 16777215
370
     9
100
AcDb2dPolyline
 66
     1
 10
0.0
 20
0.0
 30
0.0
  0
VERTEX
  5
6E
330
6D
100
AcDbEntity
  8
_U+30EC_U+30A4_U+30E4_U+30FC 1
 62
     7
420
 16777215
370
     9
100
AcDbVertex
100
AcDb2dVertex
 10
80.99781098912923
 20
-134.1595896886826
 30
0.0
  0
VERTEX
  5
6F
330
6D
100
AcDbEntity
  8
_U+30EC_U+30A4_U+30E4_U+30FC 1
 62
     7
420
 16777215
370
     9
100
AcDbVertex
100
AcDb2dVertex
 10
76.7052110986426
 20
-138.4528599653867
 30
0.0
  0
SEQEND
  5
70
330
6D
100
AcDbEntity
  8
_U+30EC_U+30A4_U+30E4_U+30FC 1
 62
     7
420
 16777215
370
     9
  0
POLYLINE
  5
71
330
1F
100
AcDbEntity
  8
_U+30EC_U+30A4_U+30E4_U+30FC 1
 62
     7
420
 16777215
370
     9
100
AcDb2dPolyline
 66
     1
 10
0.0
 20
0.0
 30
0.0
  0
VERTEX
  5
72
330
71
100
AcDbEntity
  8
_U+30EC_U+30A4_U+30E4_U+30FC 1
 62
     7
420
 16777215
370
     9
100
AcDbVertex
100
AcDb2dVertex
 10
72.49325620609851
 20
-138.4528599653867
 30
0.0
  0
VERTEX
  5
73
330
71
100
AcDbEntity
  8
_U+30EC_U+30A4_U+30E4_U+30FC 1
 62
     7
420
 16777215
370
     9
100
AcDbVertex
100
AcDb2dVertex
 10
76.7052110986426
 20
-138.4528599653867
 30
0.0
  0
SEQEND
  5
74
330
71
100
AcDbEntity
  8
_U+30EC_U+30A4_U+30E4_U+30FC 1
 62
     7
420
 16777215
370
     9
  0
POLYLINE
  5
75
330
1F
100
AcDbEntity
  8
_U+30EC_U+30A4_U+30E4_U+30FC 1
 62
     7
420
 16777215
370
     9
100
AcDb2dPolyline
 66
     1
 10
0.0
 20
0.0
 30
0.0
  0
VERTEX
  5
76
330
75
100
AcDbEntity
  8
_U+30EC_U+30A4_U+30E4_U+30FC 1
 62
     7
420
 16777215
370
     9
100
AcDbVertex
100
AcDb2dVertex
 10
80.99781098912923
 20
-134.1595896886826
 30
0.0
  0
VERTEX
  5
77
330
75
100
AcDbEntity
  8
_U+30EC_U+30A4_U+30E4_U+30FC 1
 62
     7
420
 16777215
370
     9
100
AcDbVertex
100
AcDb2dVertex
 10
79.69902435559739
 20
-134.9099480218279
 30
0.0
  0
SEQEND
  5
78
330
75
100
AcDbEntity
  8
_U+30EC_U+30A4_U+30E4_U+30FC 1
 62
     7
420
 16777215
370
     9
  0
POLYLINE
  5
79
330
1F
100
AcDbEntity
  8
_U+30EC_U+30A4_U+30E4_U+30FC 1
 62
     7
420
 16777215
370
     9
100
AcDb2dPolyline
 66
     1
 10
0.0
 20
0.0
 30
0.0
  0
VERTEX
  5
7A
330
79
100
AcDbEntity
  8
_U+30EC_U+30A4_U+30E4_U+30FC 1
 62
     7
420
 16777215
370
     9
100
AcDbVertex
100
AcDb2dVertex
 10
80.99781098912923
 20
-134.1595896886826
 30
0.0
  0
VERTEX
  5
7B
330
79
100
AcDbEntity
  8
_U+30EC_U+30A4_U+30E4_U+30FC 1
 62
     7
420
 16777215
370
     9
100
AcDbVertex
100
AcDb2dVertex
 10
80.2481582304767
 20
-135.4590819105794
 30
0.0
  0
SEQEND
  5
7C
330
79
100
AcDbEntity
  8
_U+30EC_U+30A4_U+30E4_U+30FC 1
 62
     7
420
 16777215
370
     9
  0
SPLINE
  5
7D
330
1F
100
AcDbEntity
  8
_U+30EC_U+30A4_U+30E4_U+30FC 1
 62
     7
420
 16777215
370
    25
100
AcDbSpline
210
0.0
220
0.0
230
1.0
 70
     8
 71
     3
 72
     8
 73
     4
 74
     0
 42
0.0000000001
 43
0.0000000001
 12
1.0
 22
0.0
 32
0.0
 13
1.0
 23
0.0
 33
0.0
 40
0.0
 40
0.0
 40
0.0
 40
0.0
 40
1.0
 40
1.0
 40
1.0
 40
1.0
 10
80.70497220204614
 20
-133.4526582999699
 30
0.0
 10
80.70497220204614
 20
-134.0052494109434
 30
0.0
 10
81.15285681850703
 20
-134.453136077498
 30
0.0
 10
81.70544997957356
 20
-134.453136077498
 30
0.0
  0
SPLINE
  5
7E
330
1F
100
AcDbEntity
  8
_U+30EC_U+30A4_U+30E4_U+30FC 1
 62
     7
420
 16777215
370
    25
100
AcDbSpline
210
0.0
220
0.0
230
1.0
 70
     8
 71
     3
 72
     8
 73
     4
 74
     0
 42
0.0000000001
 43
0.0000000001
 12
1.0
 22
0.0
 32
0.0
 13
1.0
 23
0.0
 33
0.0
 40
0.0
 40
0.0
 40
0.0
 40
0.0
 40
1.0
 40
1.0
 40
1.0
 40
1.0
 10
81.70544997957356
 20
-124.4526974688869
 30
0.0
 10
81.15285681850703
 20
-124.4526974688869
 30
0.0
 10
80.70497220204614
 20
-124.9005488576639
 30
0.0
 10
80.70497220204614
 20
-125.4524696908591
 30
0.0
  0
SPLINE
  5
7F
330
1F
100
AcDbEntity
  8
_U+30EC_U+30A4_U+30E4_U+30FC 1
 62
     7
420
 16777215
370
    25
100
AcDbSpline
210
0.0
220
0.0
230
1.0
 70
     8
 71
     3
 72
     8
 73
     4
 74
     0
 42
0.0000000001
 43
0.0000000001
 12
1.0
 22
0.0
 32
0.0
 13
1.0
 23
0.0
 33
0.0
 40
0.0
 40
0.0
 40
0.0
 40
0.0
 40
1.0
 40
1.0
 40
1.0
 40
1.0
 10
89.7051071558765
 20
-134.453136077498
 30
0.0
 10
90.25769825288984
 20
-134.453136077498
 30
0.0
 10
90.70558490812996
 20
-134.0052494109434
 30
0.0
 10
90.70558490812996
 20
-133.4526582999699
 30
0.0
  0
SPLINE
  5
80
330
1F
100
AcDbEntity
  8
_U+30EC_U+30A4_U+30E4_U+30FC 1
 62
     7
420
 16777215
370
    25
100
AcDbSpline
210
0.0
220
0.0
230
1.0
 70
     8
 71
     3
 72
     8
 73
     4
 74
     0
 42
0.0000000001
 43
0.0000000001
 12
1.0
 22
0.0
 32
0.0
 13
1.0
 23
0.0
 33
0.0
 40
0.0
 40
0.0
 40
0.0
 40
0.0
 40
1.0
 40
1.0
 40
1.0
 40
1.0
 10
96.10576588147097
 20
-129.652712467587
 30
0.0
 10
96.49230448272067
 20
-129.652712467587
 30
0.0
 10
96.80581808583338
 20
-129.3392341343319
 30
0.0
 10
96.80581808583338
 20
-128.9526955233175
 30
0.0
  0
SPLINE
  5
81
330
1F
100
AcDbEntity
  8
_U+30EC_U+30A4_U+30E4_U+30FC 1
 62
     7
420
 16777215
370
     9
100
AcDbSpline
210
0.0
220
0.0
230
1.0
 70
    11
 71
     3
 72
    17
 73
    13
 74
     0
 42
0.0000000001
 43
0.0000000001
 12
1.0
 22
0.0
 32
0.0
 13
1.0
 23
0.0
 33
0.0
 40
0.0
 40
0.0
 40
0.0
 40
0.0
 40
1.0
 40
1.0
 40
1.0
 40
2.0
 40
2.0
 40
2.0
 40
3.0
 40
3.0
 40
3.0
 40
4.0
 40
4.0
 40
4.0
 40
4.0
 10
96.90572474995122
 20
-120.45293830322
 30
0.0
 10
96.90572474995122
 20
-120.3978344143451
 30
0.0
 10
96.86092197331645
 20
-120.3530316365784
 30
0.0
 10
96.80581808583338
 20
-120.3530316365784
 30
0.0
 10
96.75067892057343
 20
-120.3530316365784
 30
0.0
 10
96.70591386471256
 20
-120.3978344143451
 30
0.0
 10
96.70591386471256
 20
-120.45293830322
 30
0.0
 10
96.70591386471256
 20
-120.5080774698731
 30
0.0
 10
96.75067892057343
 20
-120.5528449698616
 30
0.0
 10
96.80581808583338
 20
-120.5528449698616
 30
0.0
 10
96.86092197331645
 20
-120.5528449698616
 30
0.0
 10
96.90572474995122
 20
-120.5080774698731
 30
0.0
 10
96.90572474995122
 20
-120.45293830322
 30
0.0
  0
SPLINE
  5
82
330
1F
100
AcDbEntity
  8
_U+30EC_U+30A4_U+30E4_U+30FC 1
 62
     7
420
 16777215
370
     9
100
AcDbSpline
210
0.0
220
0.0
230
1.0
 70
    11
 71
     3
 72
    17
 73
    13
 74
     0
 42
0.0000000001
 43
0.0000000001
 12
1.0
 22
0.0
 32
0.0
 13
1.0
 23
0.0
 33
0.0
 40
0.0
 40
0.0
 40
0.0
 40
0.0
 40
1.0
 40
1.0
 40
1.0
 40
2.0
 40
2.0
 40
2.0
 40
3.0
 40
3.0
 40
3.0
 40
4.0
 40
4.0
 40
4.0
 40
4.0
 10
81.90526124375603
 20
-120.45293830322
 30
0.0
 10
81.90526124375603
 20
-120.3978344143451
 30
0.0
 10
81.86045846712128
 20
-120.3530316365784
 30
0.0
 10
81.8053545796382
 20
-120.3530316365784
 30
0.0
 10
81.75021541437825
 20
-120.3530316365784
 30
0.0
 10
81.70544997957356
 20
-120.3978344143451
 30
0.0
 10
81.70544997957356
 20
-120.45293830322
 30
0.0
 10
81.70544997957356
 20
-120.5080774698731
 30
0.0
 10
81.75021541437825
 20
-120.5528449698616
 30
0.0
 10
81.8053545796382
 20
-120.5528449698616
 30
0.0
 10
81.86045846712128
 20
-120.5528449698616
 30
0.0
 10
81.90526124375603
 20
-120.5080774698731
 30
0.0
 10
81.90526124375603
 20
-120.45293830322
 30
0.0
  0
SPLINE
  5
83
330
1F
100
AcDbEntity
  8
_U+30EC_U+30A4_U+30E4_U+30FC 1
 62
     7
420
 16777215
370
     9
100
AcDbSpline
210
0.0
220
0.0
230
1.0
 70
    11
 71
     3
 72
    17
 73
    13
 74
     0
 42
0.0000000001
 43
0.0000000001
 12
1.0
 22
0.0
 32
0.0
 13
1.0
 23
0.0
 33
0.0
 40
0.0
 40
0.0
 40
0.0
 40
0.0
 40
1.0
 40
1.0
 40
1.0
 40
2.0
 40
2.0
 40
2.0
 40
3.0
 40
3.0
 40
3.0
 40
4.0
 40
4.0
 40
4.0
 40
4.0
 10
80.80487682738473
 20
-126.9524455238175
 30
0.0
 10
80.80487682738473
 20
-126.8973416349423
 30
0.0
 10
80.76010932852685
 20
-126.8525388571759
 30
0.0
 10
80.70497220204614
 20
-126.8525388571759
 30
0.0
 10
80.64986627578382
 20
-126.8525388571759
 30
0.0
 10
80.60506349914907
 20
-126.8973416349423
 30
0.0
 10
80.60506349914907
 20
-126.9524455238175
 30
0.0
 10
80.60506349914907
 20
-127.008254968248
 30
0.0
 10
80.64986627578382
 20
-127.0530577460147
 30
0.0
 10
80.70497220204614
 20
-127.0530577460147
 30
0.0
 10
80.76010932852685
 20
-127.0530577460147
 30
0.0
 10
80.80487682738473
 20
-127.008254968248
 30
0.0
 10
80.80487682738473
 20
-126.9524455238175
 30
0.0
  0
SPLINE
  5
84
330
1F
100
AcDbEntity
  8
_U+30EC_U+30A4_U+30E4_U+30FC 1
 62
     7
420
 16777215
370
     9
100
AcDbSpline
210
0.0
220
0.0
230
1.0
 70
    11
 71
     3
 72
    17
 73
    13
 74
     0
 42
0.0000000001
 43
0.0000000001
 12
1.0
 22
0.0
 32
0.0
 13
1.0
 23
0.0
 33
0.0
 40
0.0
 40
0.0
 40
0.0
 40
0.0
 40
1.0
 40
1.0
 40
1.0
 40
2.0
 40
2.0
 40
2.0
 40
3.0
 40
3.0
 40
3.0
 40
4.0
 40
4.0
 40
4.0
 40
4.0
 10
81.8053545796382
 20
-126.9524455238175
 30
0.0
 10
81.8053545796382
 20
-126.8973416349423
 30
0.0
 10
81.76055180300344
 20
-126.8525388571759
 30
0.0
 10
81.70544997957356
 20
-126.8525388571759
 30
0.0
 10
81.64963847249973
 20
-126.8525388571759
 30
0.0
 10
81.60483569586498
 20
-126.8973416349423
 30
0.0
 10
81.60483569586498
 20
-126.9524455238175
 30
0.0
 10
81.60483569586498
 20
-127.008254968248
 30
0.0
 10
81.64963847249973
 20
-127.0530577460147
 30
0.0
 10
81.70544997957356
 20
-127.0530577460147
 30
0.0
 10
81.76055180300344
 20
-127.0530577460147
 30
0.0
 10
81.8053545796382
 20
-127.008254968248
 30
0.0
 10
81.8053545796382
 20
-126.9524455238175
 30
0.0
  0
SPLINE
  5
85
330
1F
100
AcDbEntity
  8
_U+30EC_U+30A4_U+30E4_U+30FC 1
 62
     7
420
 16777215
370
     9
100
AcDbSpline
210
0.0
220
0.0
230
1.0
 70
    11
 71
     3
 72
    17
 73
    13
 74
     0
 42
0.0000000001
 43
0.0000000001
 12
1.0
 22
0.0
 32
0.0
 13
1.0
 23
0.0
 33
0.0
 40
0.0
 40
0.0
 40
0.0
 40
0.0
 40
1.0
 40
1.0
 40
1.0
 40
2.0
 40
2.0
 40
2.0
 40
3.0
 40
3.0
 40
3.0
 40
4.0
 40
4.0
 40
4.0
 40
4.0
 10
75.90528750793924
 20
-134.453136077498
 30
0.0
 10
75.90528750793924
 20
-134.3973266330675
 30
0.0
 10
75.86048473130447
 20
-134.3525238553008
 30
0.0
 10
75.80534556604452
 20
-134.3525238553008
 30
0.0
 10
75.75024167856144
 20
-134.3525238553008
 30
0.0
 10
75.70543890192668
 20
-134.3973266330675
 30
0.0
 10
75.70543890192668
 20
-134.453136077498
 30
0.0
 10
75.70543890192668
 20
-134.5082399663729
 30
0.0
 10
75.75024167856144
 20
-134.5530427441396
 30
0.0
 10
75.80534556604452
 20
-134.5530427441396
 30
0.0
 10
75.86048473130447
 20
-134.5530427441396
 30
0.0
 10
75.90528750793924
 20
-134.5082399663729
 30
0.0
 10
75.90528750793924
 20
-134.453136077498
 30
0.0
  0
SPLINE
  5
86
330
1F
100
AcDbEntity
  8
_U+30EC_U+30A4_U+30E4_U+30FC 1
 62
     7
420
 16777215
370
     9
100
AcDbSpline
210
0.0
220
0.0
230
1.0
 70
    11
 71
     3
 72
    17
 73
    13
 74
     0
 42
0.0000000001
 43
0.0000000001
 12
1.0
 22
0.0
 32
0.0
 13
1.0
 23
0.0
 33
0.0
 40
0.0
 40
0.0
 40
0.0
 40
0.0
 40
1.0
 40
1.0
 40
1.0
 40
2.0
 40
2.0
 40
2.0
 40
3.0
 40
3.0
 40
3.0
 40
4.0
 40
4.0
 40
4.0
 40
4.0
 10
75.90528750793924
 20
-124.4526974688869
 30
0.0
 10
75.90528750793924
 20
-124.3975583022338
 30
0.0
 10
75.86048473130447
 20
-124.3527908022453
 30
0.0
 10
75.80534556604452
 20
-124.3527908022453
 30
0.0
 10
75.75024167856144
 20
-124.3527908022453
 30
0.0
 10
75.70543890192668
 20
-124.3975583022338
 30
0.0
 10
75.70543890192668
 20
-124.4526974688869
 30
0.0
 10
75.70543890192668
 20
-124.5078013577618
 30
0.0
 10
75.75024167856144
 20
-124.5526041355285
 30
0.0
 10
75.80534556604452
 20
-124.5526041355285
 30
0.0
 10
75.86048473130447
 20
-124.5526041355285
 30
0.0
 10
75.90528750793924
 20
-124.5078013577618
 30
0.0
 10
75.90528750793924
 20
-124.4526974688869
 30
0.0
  0
SPLINE
  5
87
330
1F
100
AcDbEntity
  8
_U+30EC_U+30A4_U+30E4_U+30FC 1
 62
     7
420
 16777215
370
     9
100
AcDbSpline
210
0.0
220
0.0
230
1.0
 70
    11
 71
     3
 72
    17
 73
    13
 74
     0
 42
0.0000000001
 43
0.0000000001
 12
1.0
 22
0.0
 32
0.0
 13
1.0
 23
0.0
 33
0.0
 40
0.0
 40
0.0
 40
0.0
 40
0.0
 40
1.0
 40
1.0
 40
1.0
 40
2.0
 40
2.0
 40
2.0
 40
3.0
 40
3.0
 40
3.0
 40
4.0
 40
4.0
 40
4.0
 40
4.0
 10
90.8054915722478
 20
-138.4528599653867
 30
0.0
 10
90.8054915722478
 20
-138.3977560765118
 30
0.0
 10
90.76068879561304
 20
-138.3529532987451
 30
0.0
 10
90.70558490812996
 20
-138.3529532987451
 30
0.0
 10
90.65044574287002
 20
-138.3529532987451
 30
0.0
 10
90.60568053290416
 20
-138.3977560765118
 30
0.0
 10
90.60568053290416
 20
-138.4528599653867
 30
0.0
 10
90.60568053290416
 20
-138.5079991320398
 30
0.0
 10
90.65044574287002
 20
-138.5527666320284
 30
0.0
 10
90.70558490812996
 20
-138.5527666320284
 30
0.0
 10
90.76068879561304
 20
-138.5527666320284
 30
0.0
 10
90.8054915722478
 20
-138.5079991320398
 30
0.0
 10
90.8054915722478
 20
-138.4528599653867
 30
0.0
  0
SPLINE
  5
88
330
1F
100
AcDbEntity
  8
_U+30EC_U+30A4_U+30E4_U+30FC 1
 62
     7
420
 16777215
370
     9
100
AcDbSpline
210
0.0
220
0.0
230
1.0
 70
    11
 71
     3
 72
    17
 73
    13
 74
     0
 42
0.0000000001
 43
0.0000000001
 12
1.0
 22
0.0
 32
0.0
 13
1.0
 23
0.0
 33
0.0
 40
0.0
 40
0.0
 40
0.0
 40
0.0
 40
1.0
 40
1.0
 40
1.0
 40
2.0
 40
2.0
 40
2.0
 40
3.0
 40
3.0
 40
3.0
 40
4.0
 40
4.0
 40
4.0
 40
4.0
 10
80.80487682738473
 20
-138.4528599653867
 30
0.0
 10
80.80487682738473
 20
-138.3977560765118
 30
0.0
 10
80.76010932852685
 20
-138.3529532987451
 30
0.0
 10
80.70497220204614
 20
-138.3529532987451
 30
0.0
 10
80.64986627578382
 20
-138.3529532987451
 30
0.0
 10
80.60506349914907
 20
-138.3977560765118
 30
0.0
 10
80.60506349914907
 20
-138.4528599653867
 30
0.0
 10
80.60506349914907
 20
-138.5079991320398
 30
0.0
 10
80.64986627578382
 20
-138.5527666320284
 30
0.0
 10
80.70497220204614
 20
-138.5527666320284
 30
0.0
 10
80.76010932852685
 20
-138.5527666320284
 30
0.0
 10
80.80487682738473
 20
-138.5079991320398
 30
0.0
 10
80.80487682738473
 20
-138.4528599653867
 30
0.0
  0
SPLINE
  5
89
330
1F
100
AcDbEntity
  8
_U+30EC_U+30A4_U+30E4_U+30FC 1
 62
     7
420
 16777215
370
     9
100
AcDbSpline
210
0.0
220
0.0
230
1.0
 70
    11
 71
     3
 72
    17
 73
    13
 74
     0
 42
0.0000000001
 43
0.0000000001
 12
1.0
 22
0.0
 32
0.0
 13
1.0
 23
0.0
 33
0.0
 40
0.0
 40
0.0
 40
0.0
 40
0.0
 40
1.0
 40
1.0
 40
1.0
 40
2.0
 40
2.0
 40
2.0
 40
3.0
 40
3.0
 40
3.0
 40
4.0
 40
4.0
 40
4.0
 40
4.0
 10
94.90547480098185
 20
-129.9524324675119
 30
0.0
 10
94.90547480098185
 20
-129.8973285786369
 30
0.0
 10
94.86070730212396
 20
-129.8525258008702
 30
0.0
 10
94.80556813686401
 20
-129.8525258008702
 30
0.0
 10
94.75046664297932
 20
-129.8525258008702
 30
0.0
 10
94.7056638652126
 20
-129.8973285786369
 30
0.0
 10
94.7056638652126
 20
-129.9524324675119
 30
0.0
 10
94.7056638652126
 20
-130.0082419119423
 30
0.0
 10
94.75046664297932
 20
-130.053044689709
 30
0.0
 10
94.80556813686401
 20
-130.053044689709
 30
0.0
 10
94.86070730212396
 20
-130.053044689709
 30
0.0
 10
94.90547480098185
 20
-130.0082419119423
 30
0.0
 10
94.90547480098185
 20
-129.9524324675119
 30
0.0
  0
SPLINE
  5
8A
330
1F
100
AcDbEntity
  8
_U+30EC_U+30A4_U+30E4_U+30FC 1
 62
     7
420
 16777215
370
     9
100
AcDbSpline
210
0.0
220
0.0
230
1.0
 70
    11
 71
     3
 72
    17
 73
    13
 74
     0
 42
0.0000000001
 43
0.0000000001
 12
1.0
 22
0.0
 32
0.0
 13
1.0
 23
0.0
 33
0.0
 40
0.0
 40
0.0
 40
0.0
 40
0.0
 40
1.0
 40
1.0
 40
1.0
 40
2.0
 40
2.0
 40
2.0
 40
3.0
 40
3.0
 40
3.0
 40
4.0
 40
4.0
 40
4.0
 40
4.0
 10
94.90547480098185
 20
-133.4526582999699
 30
0.0
 10
94.90547480098185
 20
-133.397554411095
 30
0.0
 10
94.86070730212396
 20
-133.3527516333283
 30
0.0
 10
94.80556813686401
 20
-133.3527516333283
 30
0.0
 10
94.75046664297932
 20
-133.3527516333283
 30
0.0
 10
94.7056638652126
 20
-133.397554411095
 30
0.0
 10
94.7056638652126
 20
-133.4526582999699
 30
0.0
 10
94.7056638652126
 20
-133.507797466623
 30
0.0
 10
94.75046664297932
 20
-133.5525649666116
 30
0.0
 10
94.80556813686401
 20
-133.5525649666116
 30
0.0
 10
94.86070730212396
 20
-133.5525649666116
 30
0.0
 10
94.90547480098185
 20
-133.507797466623
 30
0.0
 10
94.90547480098185
 20
-133.4526582999699
 30
0.0
  0
INSERT
  5
8C
330
1F
100
AcDbEntity
  8
_U+30EC_U+30A4_U+30E4_U+30FC 1
100
AcDbBlockReference
  2
block 2
 10
0.0
 20
0.0
 30
0.0
  0
POLYLINE
  5
94
330
1F
100
AcDbEntity
  8
_U+30EC_U+30A4_U+30E4_U+30FC 1
 62
     7
420
 16777215
370
     9
100
AcDb2dPolyline
 66
     1
 10
0.0
 20
0.0
 30
0.0
  0
VERTEX
  5
95
330
94
100
AcDbEntity
  8
_U+30EC_U+30A4_U+30E4_U+30FC 1
 62
     7
420
 16777215
370
     9
100
AcDbVertex
100
AcDb2dVertex
 10
81.70544997957356
 20
-120.45293830322
 30
0.0
  0
VERTEX
  5
96
330
94
100
AcDbEntity
  8
_U+30EC_U+30A4_U+30E4_U+30FC 1
 62
     7
420
 16777215
370
     9
100
AcDbVertex
100
AcDb2dVertex
 10
96.80581808583338
 20
-120.45293830322
 30
0.0
  0
SEQEND
  5
97
330
94
100
AcDbEntity
  8
_U+30EC_U+30A4_U+30E4_U+30FC 1
 62
     7
420
 16777215
370
     9
  0
POLYLINE
  5
98
330
1F
100
AcDbEntity
  8
_U+30EC_U+30A4_U+30E4_U+30FC 1
 62
     7
420
 16777215
370
     9
100
AcDb2dPolyline
 66
     1
 10
0.0
 20
0.0
 30
0.0
  0
VERTEX
  5
99
330
98
100
AcDbEntity
  8
_U+30EC_U+30A4_U+30E4_U+30FC 1
 62
     7
420
 16777215
370
     9
100
AcDbVertex
100
AcDb2dVertex
 10
81.8053545796382
 20
-122.9127519137162
 30
0.0
  0
VERTEX
  5
9A
330
98
100
AcDbEntity
  8
_U+30EC_U+30A4_U+30E4_U+30FC 1
 62
     7
420
 16777215
370
     9
100
AcDbVertex
100
AcDb2dVertex
 10
81.8053545796382
 20
-119.4524958034701
 30
0.0
  0
SEQEND
  5
9B
330
98
100
AcDbEntity
  8
_U+30EC_U+30A4_U+30E4_U+30FC 1
 62
     7
420
 16777215
370
     9
  0
POLYLINE
  5
9C
330
1F
100
AcDbEntity
  8
_U+30EC_U+30A4_U+30E4_U+30FC 1
 62
     7
420
 16777215
370
     9
100
AcDb2dPolyline
 66
     1
 10
0.0
 20
0.0
 30
0.0
  0
VERTEX
  5
9D
330
9C
100
AcDbEntity
  8
_U+30EC_U+30A4_U+30E4_U+30FC 1
 62
     7
420
 16777215
370
     9
100
AcDbVertex
100
AcDb2dVertex
 10
96.80581808583338
 20
-126.4129424683968
 30
0.0
  0
VERTEX
  5
9E
330
9C
100
AcDbEntity
  8
_U+30EC_U+30A4_U+30E4_U+30FC 1
 62
     7
420
 16777215
370
     9
100
AcDbVertex
100
AcDb2dVertex
 10
96.80581808583338
 20
-119.4524958034701
 30
0.0
  0
SEQEND
  5
9F
330
9C
100
AcDbEntity
  8
_U+30EC_U+30A4_U+30E4_U+30FC 1
 62
     7
420
 16777215
370
     9
  0
INSERT
  5
A1
330
1F
100
AcDbEntity
  8
_U+30EC_U+30A4_U+30E4_U+30FC 1
100
AcDbBlockReference
  2
block 3
 10
0.0
 20
0.0
 30
0.0
  0
POLYLINE
  5
A8
330
1F
100
AcDbEntity
  8
_U+30EC_U+30A4_U+30E4_U+30FC 1
 62
     7
420
 16777215
370
     9
100
AcDb2dPolyline
 66
     1
 10
0.0
 20
0.0
 30
0.0
  0
VERTEX
  5
A9
330
A8
100
AcDbEntity
  8
_U+30EC_U+30A4_U+30E4_U+30FC 1
 62
     7
420
 16777215
370
     9
100
AcDbVertex
100
AcDb2dVertex
 10
81.70544997957356
 20
-126.9524455238175
 30
0.0
  0
VERTEX
  5
AA
330
A8
100
AcDbEntity
  8
_U+30EC_U+30A4_U+30E4_U+30FC 1
 62
     7
420
 16777215
370
     9
100
AcDbVertex
100
AcDb2dVertex
 10
85.47576031933168
 20
-126.9524455238175
 30
0.0
  0
SEQEND
  5
AB
330
A8
100
AcDbEntity
  8
_U+30EC_U+30A4_U+30E4_U+30FC 1
 62
     7
420
 16777215
370
     9
  0
POLYLINE
  5
AC
330
1F
100
AcDbEntity
  8
_U+30EC_U+30A4_U+30E4_U+30FC 1
 62
     7
420
 16777215
370
     9
100
AcDb2dPolyline
 66
     1
 10
0.0
 20
0.0
 30
0.0
  0
VERTEX
  5
AD
330
AC
100
AcDbEntity
  8
_U+30EC_U+30A4_U+30E4_U+30FC 1
 62
     7
420
 16777215
370
     9
100
AcDbVertex
100
AcDb2dVertex
 10
79.7051999800736
 20
-126.9524455238175
 30
0.0
  0
VERTEX
  5
AE
330
AC
100
AcDbEntity
  8
_U+30EC_U+30A4_U+30E4_U+30FC 1
 62
     7
420
 16777215
370
     9
100
AcDbVertex
100
AcDb2dVertex
 10
81.70544997957356
 20
-126.9524455238175
 30
0.0
  0
SEQEND
  5
AF
330
AC
100
AcDbEntity
  8
_U+30EC_U+30A4_U+30E4_U+30FC 1
 62
     7
420
 16777215
370
     9
  0
INSERT
  5
B1
330
1F
100
AcDbEntity
  8
_U+30EC_U+30A4_U+30E4_U+30FC 1
100
AcDbBlockReference
  2
block 4
 10
0.0
 20
0.0
 30
0.0
  0
POLYLINE
  5
B6
330
1F
100
AcDbEntity
  8
_U+30EC_U+30A4_U+30E4_U+30FC 1
 62
     7
420
 16777215
370
     9
100
AcDb2dPolyline
 66
     1
 10
0.0
 20
0.0
 30
0.0
  0
VERTEX
  5
B7
330
B6
100
AcDbEntity
  8
_U+30EC_U+30A4_U+30E4_U+30FC 1
 62
     7
420
 16777215
370
     9
100
AcDbVertex
100
AcDb2dVertex
 10
75.80534556604452
 20
-134.453136077498
 30
0.0
  0
VERTEX
  5
B8
330
B6
100
AcDbEntity
  8
_U+30EC_U+30A4_U+30E4_U+30FC 1
 62
     7
420
 16777215
370
     9
100
AcDbVertex
100
AcDb2dVertex
 10
75.80534556604452
 20
-124.4526974688869
 30
0.0
  0
SEQEND
  5
B9
330
B6
100
AcDbEntity
  8
_U+30EC_U+30A4_U+30E4_U+30FC 1
 62
     7
420
 16777215
370
     9
  0
POLYLINE
  5
BA
330
1F
100
AcDbEntity
  8
_U+30EC_U+30A4_U+30E4_U+30FC 1
 62
     7
420
 16777215
370
     9
100
AcDb2dPolyline
 66
     1
 10
0.0
 20
0.0
 30
0.0
  0
VERTEX
  5
BB
330
BA
100
AcDbEntity
  8
_U+30EC_U+30A4_U+30E4_U+30FC 1
 62
     7
420
 16777215
370
     9
100
AcDbVertex
100
AcDb2dVertex
 10
78.26516109154493
 20
-134.453136077498
 30
0.0
  0
VERTEX
  5
BC
330
BA
100
AcDbEntity
  8
_U+30EC_U+30A4_U+30E4_U+30FC 1
 62
     7
420
 16777215
370
     9
100
AcDbVertex
100
AcDb2dVertex
 10
74.80560864710549
 20
-134.453136077498
 30
0.0
  0
SEQEND
  5
BD
330
BA
100
AcDbEntity
  8
_U+30EC_U+30A4_U+30E4_U+30FC 1
 62
     7
420
 16777215
370
     9
  0
POLYLINE
  5
BE
330
1F
100
AcDbEntity
  8
_U+30EC_U+30A4_U+30E4_U+30FC 1
 62
     7
420
 16777215
370
     9
100
AcDb2dPolyline
 66
     1
 10
0.0
 20
0.0
 30
0.0
  0
VERTEX
  5
BF
330
BE
100
AcDbEntity
  8
_U+30EC_U+30A4_U+30E4_U+30FC 1
 62
     7
420
 16777215
370
     9
100
AcDbVertex
100
AcDb2dVertex
 10
78.26516109154493
 20
-124.4526974688869
 30
0.0
  0
VERTEX
  5
C0
330
BE
100
AcDbEntity
  8
_U+30EC_U+30A4_U+30E4_U+30FC 1
 62
     7
420
 16777215
370
     9
100
AcDbVertex
100
AcDb2dVertex
 10
74.80560864710549
 20
-124.4526974688869
 30
0.0
  0
SEQEND
  5
C1
330
BE
100
AcDbEntity
  8
_U+30EC_U+30A4_U+30E4_U+30FC 1
 62
     7
420
 16777215
370
     9
  0
INSERT
  5
C3
330
1F
100
AcDbEntity
  8
_U+30EC_U+30A4_U+30E4_U+30FC 1
100
AcDbBlockReference
  2
block 5
 10
0.0
 20
0.0
 30
0.0
  0
POLYLINE
  5
CB
330
1F
100
AcDbEntity
  8
_U+30EC_U+30A4_U+30E4_U+30FC 1
 62
     7
420
 16777215
370
     9
100
AcDb2dPolyline
 66
     1
 10
0.0
 20
0.0
 30
0.0
  0
VERTEX
  5
CC
330
CB
100
AcDbEntity
  8
_U+30EC_U+30A4_U+30E4_U+30FC 1
 62
     7
420
 16777215
370
     9
100
AcDbVertex
100
AcDb2dVertex
 10
80.70497220204614
 20
-138.4528599653867
 30
0.0
  0
VERTEX
  5
CD
330
CB
100
AcDbEntity
  8
_U+30EC_U+30A4_U+30E4_U+30FC 1
 62
     7
420
 16777215
370
     9
100
AcDbVertex
100
AcDb2dVertex
 10
90.70558490812996
 20
-138.4528599653867
 30
0.0
  0
SEQEND
  5
CE
330
CB
100
AcDbEntity
  8
_U+30EC_U+30A4_U+30E4_U+30FC 1
 62
     7
420
 16777215
370
     9
  0
POLYLINE
  5
CF
330
1F
100
AcDbEntity
  8
_U+30EC_U+30A4_U+30E4_U+30FC 1
 62
     7
420
 16777215
370
     9
100
AcDb2dPolyline
 66
     1
 10
0.0
 20
0.0
 30
0.0
  0
VERTEX
  5
D0
330
CF
100
AcDbEntity
  8
_U+30EC_U+30A4_U+30E4_U+30FC 1
 62
     7
420
 16777215
370
     9
100
AcDbVertex
100
AcDb2dVertex
 10
80.70497220204614
 20
-135.9930816326686
 30
0.0
  0
VERTEX
  5
D1
330
CF
100
AcDbEntity
  8
_U+30EC_U+30A4_U+30E4_U+30FC 1
 62
     7
420
 16777215
370
     9
100
AcDbVertex
100
AcDb2dVertex
 10
80.70497220204614
 20
-139.4526321873592
 30
0.0
  0
SEQEND
  5
D2
330
CF
100
AcDbEntity
  8
_U+30EC_U+30A4_U+30E4_U+30FC 1
 62
     7
420
 16777215
370
     9
  0
POLYLINE
  5
D3
330
1F
100
AcDbEntity
  8
_U+30EC_U+30A4_U+30E4_U+30FC 1
 62
     7
420
 16777215
370
     9
100
AcDb2dPolyline
 66
     1
 10
0.0
 20
0.0
 30
0.0
  0
VERTEX
  5
D4
330
D3
100
AcDbEntity
  8
_U+30EC_U+30A4_U+30E4_U+30FC 1
 62
     7
420
 16777215
370
     9
100
AcDbVertex
100
AcDb2dVertex
 10
90.70558490812996
 20
-135.9930816326686
 30
0.0
  0
VERTEX
  5
D5
330
D3
100
AcDbEntity
  8
_U+30EC_U+30A4_U+30E4_U+30FC 1
 62
     7
420
 16777215
370
     9
100
AcDbVertex
100
AcDb2dVertex
 10
90.70558490812996
 20
-139.4526321873592
 30
0.0
  0
SEQEND
  5
D6
330
D3
100
AcDbEntity
  8
_U+30EC_U+30A4_U+30E4_U+30FC 1
 62
     7
420
 16777215
370
     9
  0
INSERT
  5
D8
330
1F
100
AcDbEntity
  8
_U+30EC_U+30A4_U+30E4_U+30FC 1
100
AcDbBlockReference
  2
block 6
 10
0.0
 20
0.0
 30
0.0
  0
POLYLINE
  5
E0
330
1F
100
AcDbEntity
  8
_U+30EC_U+30A4_U+30E4_U+30FC 1
 62
     7
420
 16777215
370
     9
100
AcDb2dPolyline
 66
     1
 10
0.0
 20
0.0
 30
0.0
  0
VERTEX
  5
E1
330
E0
100
AcDbEntity
  8
_U+30EC_U+30A4_U+30E4_U+30FC 1
 62
     7
420
 16777215
370
     9
100
AcDbVertex
100
AcDb2dVertex
 10
94.80556813686401
 20
-133.4526582999699
 30
0.0
  0
VERTEX
  5
E2
330
E0
100
AcDbEntity
  8
_U+30EC_U+30A4_U+30E4_U+30FC 1
 62
     7
420
 16777215
370
     9
100
AcDbVertex
100
AcDb2dVertex
 10
94.80556813686401
 20
-129.9524324675119
 30
0.0
  0
SEQEND
  5
E3
330
E0
100
AcDbEntity
  8
_U+30EC_U+30A4_U+30E4_U+30FC 1
 62
     7
420
 16777215
370
     9
  0
POLYLINE
  5
E4
330
1F
100
AcDbEntity
  8
_U+30EC_U+30A4_U+30E4_U+30FC 1
 62
     7
420
 16777215
370
     9
100
AcDb2dPolyline
 66
     1
 10
0.0
 20
0.0
 30
0.0
  0
VERTEX
  5
E5
330
E4
100
AcDbEntity
  8
_U+30EC_U+30A4_U+30E4_U+30FC 1
 62
     7
420
 16777215
370
     9
100
AcDbVertex
100
AcDb2dVertex
 10
93.34556206300076
 20
-133.4526582999699
 30
0.0
  0
VERTEX
  5
E6
330
E4
100
AcDbEntity
  8
_U+30EC_U+30A4_U+30E4_U+30FC 1
 62
     7
420
 16777215
370
     9
100
AcDbVertex
100
AcDb2dVertex
 10
95.80534033357992
 20
-133.4526582999699
 30
0.0
  0
SEQEND
  5
E7
330
E4
100
AcDbEntity
  8
_U+30EC_U+30A4_U+30E4_U+30FC 1
 62
     7
420
 16777215
370
     9
  0
POLYLINE
  5
E8
330
1F
100
AcDbEntity
  8
_U+30EC_U+30A4_U+30E4_U+30FC 1
 62
     7
420
 16777215
370
     9
100
AcDb2dPolyline
 66
     1
 10
0.0
 20
0.0
 30
0.0
  0
VERTEX
  5
E9
330
E8
100
AcDbEntity
  8
_U+30EC_U+30A4_U+30E4_U+30FC 1
 62
     7
420
 16777215
370
     9
100
AcDbVertex
100
AcDb2dVertex
 10
93.34556206300076
 20
-129.9524324675119
 30
0.0
  0
VERTEX
  5
EA
330
E8
100
AcDbEntity
  8
_U+30EC_U+30A4_U+30E4_U+30FC 1
 62
     7
420
 16777215
370
     9
100
AcDbVertex
100
AcDb2dVertex
 10
95.80534033357992
 20
-129.9524324675119
 30
0.0
  0
SEQEND
  5
EB
330
E8
100
AcDbEntity
  8
_U+30EC_U+30A4_U+30E4_U+30FC 1
 62
     7
420
 16777215
370
     9
  0
INSERT
  5
ED
330
1F
100
AcDbEntity
  8
_U+30EC_U+30A4_U+30E4_U+30FC 1
100
AcDbBlockReference
  2
block 7
 10
0.0
 20
0.0
 30
0.0
  0
POLYLINE
  5
FC
330
1F
100
AcDbEntity
  8
_U+30EC_U+30A4_U+30E4_U+30FC 1
 62
   179
420
  2234388
370
     9
100
AcDb2dPolyline
 66
     1
 10
0.0
 20
0.0
 30
0.0
  0
VERTEX
  5
FD
330
FC
100
AcDbEntity
  8
_U+30EC_U+30A4_U+30E4_U+30FC 1
 62
   179
420
  2234388
370
     9
100
AcDbVertex
100
AcDb2dVertex
 10
91.06421878786934
 20
-135.2044821884208
 30
0.0
  0
VERTEX
  5
FE
330
FC
100
AcDbEntity
  8
_U+30EC_U+30A4_U+30E4_U+30FC 1
 62
   179
420
  2234388
370
     9
100
AcDbVertex
100
AcDb2dVertex
 10
93.01896040466639
 20
-137.9967535766117
 30
0.0
  0
VERTEX
  5
FF
330
FC
100
AcDbEntity
  8
_U+30EC_U+30A4_U+30E4_U+30FC 1
 62
   179
420
  2234388
370
     9
100
AcDbVertex
100
AcDb2dVertex
 10
107.3791322605301
 20
-137.9967535766117
 30
0.0
  0
SEQEND
  5
100
330
FC
100
AcDbEntity
  8
_U+30EC_U+30A4_U+30E4_U+30FC 1
 62
   179
420
  2234388
370
     9
  0
INSERT
  5
102
330
1F
100
AcDbEntity
  8
_U+30EC_U+30A4_U+30E4_U+30FC 1
100
AcDbBlockReference
  2
block 8
 10
0.0
 20
0.0
 30
0.0
  0
ENDSEC
  0
SECTION
  2
OBJECTS
  0
DICTIONARY
  5
C
330
0
100
AcDbDictionary
281
     1
  3
ACAD_GROUP
350
D
  3
ACAD_LAYOUT
350
1A
  3
ACAD_MATERIAL
350
3B
  3
ACAD_MLEADERSTYLE
350
140
  3
ACAD_MLINESTYLE
350
17
  3
ACAD_PLOTSETTINGS
350
19
  3
ACAD_PLOTSTYLENAME
350
E
  3
ACAD_TABLESTYLE
350
13F
  3
ACAD_VISUALSTYLE
350
2A
  0
SUN
  5
3F
330
29
100
AcDbSun
 90
        1
290
     0
 63
     7
421
 16777215
 40
1.0
291
     1
 91
  2455826
 92
 54000000
292
     0
 70
     2
 71
   256
280
     1
  0
DICTIONARY
  5
D
102
{ACAD_REACTORS
330
C
102
}
330
C
100
AcDbDictionary
281
     1
  0
DICTIONARY
  5
1A
102
{ACAD_REACTORS
330
C
102
}
330
C
100
AcDbDictionary
281
     1
  3
Layout1
350
1E
  3
Layout2
350
26
  3
Model
350
22
  0
DICTIONARY
  5
3B
102
{ACAD_REACTORS
330
C
102
}
330
C
100
AcDbDictionary
281
     1
  3
ByBlock
350
3D
  3
ByLayer
350
3C
  3
Global
350
3E
  0
DICTIONARY
  5
140
102
{ACAD_REACTORS
330
C
102
}
330
C
100
AcDbDictionary
281
     1
  0
DICTIONARY
  5
17
102
{ACAD_REACTORS
330
C
102
}
330
C
100
AcDbDictionary
281
     1
  3
Standard
350
18
  0
DICTIONARY
  5
19
102
{ACAD_REACTORS
330
C
102
}
330
C
100
AcDbDictionary
281
     1
  0
ACDBDICTIONARYWDFLT
  5
E
102
{ACAD_REACTORS
330
C
102
}
330
C
100
AcDbDictionary
281
     1
  3
Normal
350
F
100
AcDbDictionaryWithDefault
340
F
  0
DICTIONARY
  5
13F
102
{ACAD_REACTORS
330
C
102
}
330
C
100
AcDbDictionary
281
     1
  0
DICTIONARY
  5
2A
102
{ACAD_REACTORS
330
C
102
}
330
C
100
AcDbDictionary
281
     1
  3
2dWireframe
350
2F
  3
3D Hidden
350
31
  3
3dWireframe
350
30
  3
Basic
350
32
  3
Brighten
350
36
  3
ColorChange
350
3A
  3
Conceptual
350
34
  3
Dim
350
35
  3
Facepattern
350
39
  3
Flat
350
2B
  3
FlatWithEdges
350
2C
  3
Gouraud
350
2D
  3
GouraudWithEdges
350
2E
  3
Linepattern
350
38
  3
Realistic
350
33
  3
Thicken
350
37
  0
LAYOUT
  5
1E
102
{ACAD_REACTORS
330
1A
102
}
330
1A
100
AcDbPlotSettings
  1

  2
none_device
  4

  6

 40
0.0
 41
0.0
 42
0.0
 43
0.0
 44
0.0
 45
0.0
 46
0.0
 47
0.0
 48
0.0
 49
0.0
140
0.0
141
0.0
142
1.0
143
1.0
 70
   688
 72
     0
 73
     0
 74
     5
  7

 75
    16
 76
     0
 77
     2
 78
   300
147
1.0
148
0.0
149
0.0
100
AcDbLayout
  1
Layout1
 70
     1
 71
     1
 10
0.0
 20
0.0
 11
12.0
 21
9.0
 12
0.0
 22
0.0
 32
0.0
 14
1.000000000000000E+20
 24
1.000000000000000E+20
 34
1.000000000000000E+20
 15
-1.000000000000000E+20
 25
-1.000000000000000E+20
 35
-1.000000000000000E+20
146
0.0
 13
0.0
 23
0.0
 33
0.0
 16
1.0
 26
0.0
 36
0.0
 17
0.0
 27
1.0
 37
0.0
 76
     0
330
1B
  0
LAYOUT
  5
26
102
{ACAD_REACTORS
330
1A
102
}
330
1A
100
AcDbPlotSettings
  1

  2
none_device
  4

  6

 40
0.0
 41
0.0
 42
0.0
 43
0.0
 44
0.0
 45
0.0
 46
0.0
 47
0.0
 48
0.0
 49
0.0
140
0.0
141
0.0
142
1.0
143
1.0
 70
   688
 72
     0
 73
     0
 74
     5
  7

 75
    16
 76
     0
 77
     2
 78
   300
147
1.0
148
0.0
149
0.0
100
AcDbLayout
  1
Layout2
 70
     1
 71
     2
 10
0.0
 20
0.0
 11
0.0
 21
0.0
 12
0.0
 22
0.0
 32
0.0
 14
0.0
 24
0.0
 34
0.0
 15
0.0
 25
0.0
 35
0.0
146
0.0
 13
0.0
 23
0.0
 33
0.0
 16
1.0
 26
0.0
 36
0.0
 17
0.0
 27
1.0
 37
0.0
 76
     0
330
23
  0
LAYOUT
  5
22
102
{ACAD_REACTORS
330
1A
102
}
330
1A
100
AcDbPlotSettings
  1

  2
none_device
  4

  6

 40
0.0
 41
0.0
 42
0.0
 43
0.0
 44
0.0
 45
0.0
 46
0.0
 47
0.0
 48
0.0
 49
0.0
140
0.0
141
0.0
142
1.0
143
1.0
 70
  1712
 72
     0
 73
     0
 74
     0
  7

 75
     0
 76
     0
 77
     2
 78
   300
147
1.0
148
0.0
149
0.0
100
AcDbLayout
  1
Model
 70
     1
 71
     0
 10
0.0
 20
0.0
 11
12.0
 21
9.0
 12
0.0
 22
0.0
 32
0.0
 14
1.000000000000000E+20
 24
1.000000000000000E+20
 34
1.000000000000000E+20
 15
-1.000000000000000E+20
 25
-1.000000000000000E+20
 35
-1.000000000000000E+20
146
0.0
 13
0.0
 23
0.0
 33
0.0
 16
1.0
 26
0.0
 36
0.0
 17
0.0
 27
1.0
 37
0.0
 76
     0
330
1F
331
29
  0
MATERIAL
  5
3D
102
{ACAD_REACTORS
330
3B
102
}
330
3B
100
AcDbMaterial
  1
ByBlock
 72
     1
 94
      127
  0
MATERIAL
  5
3C
102
{ACAD_REACTORS
330
3B
102
}
330
3B
100
AcDbMaterial
  1
ByLayer
 72
     1
 94
      127
  0
MATERIAL
  5
3E
102
{ACAD_REACTORS
330
3B
102
}
330
3B
100
AcDbMaterial
  1
Global
 72
     1
 94
      127
  0
MLINESTYLE
  5
18
102
{ACAD_REACTORS
330
17
102
}
330
17
100
AcDbMlineStyle
  2
Standard
 70
     0
  3

 62
   256
 51
90.0
 52
90.0
 71
     2
 49
0.5
 62
   256
  6
BYLAYER
 49
-0.5
 62
   256
  6
BYLAYER
  0
ACDBPLACEHOLDER
  5
F
102
{ACAD_REACTORS
330
E
102
}
330
E
  0
VISUALSTYLE
  5
2F
102
{ACAD_REACTORS
330
2A
102
}
330
2A
100
AcDbVisualStyle
  2
2dWireframe
 70
     4
177
     2
291
     0
 71
     0
176
     1
 72
     2
176
     1
 73
     0
176
     1
 90
        0
176
     1
 40
-0.6
176
     1
 41
-30.0
176
     1
 62
     5
 63
     7
421
 16777215
176
     1
 74
     1
176
     1
 91
        4
176
     1
 64
     7
176
     1
 65
   257
176
     1
 75
     1
176
     1
175
     1
176
     1
 42
1.0
176
     1
 92
        0
176
     1
 66
   257
176
     1
 43
1.0
176
     1
 76
     1
176
     1
 77
     6
176
     1
 78
     2
176
     1
 67
     7
176
     1
 79
     5
176
     1
170
     0
176
     1
171
     0
176
     1
290
     0
176
     1
 93
        1
176
     1
 44
0.0
176
     1
173
     0
176
     1
  0
VISUALSTYLE
  5
31
102
{ACAD_REACTORS
330
2A
102
}
330
2A
100
AcDbVisualStyle
  2
3D Hidden
 70
     6
177
     2
291
     0
 71
     1
176
     1
 72
     2
176
     1
 73
     2
176
     1
 90
        0
176
     1
 40
-0.6
176
     1
 41
-30.0
176
     1
 62
     5
 63
     7
421
 16777215
176
     1
 74
     2
176
     1
 91
        2
176
     1
 64
     7
176
     1
 65
   257
176
     1
 75
     2
176
     1
175
     1
176
     1
 42
40.0
176
     1
 92
        0
176
     1
 66
   257
176
     1
 43
1.0
176
     1
 76
     1
176
     1
 77
     6
176
     1
 78
     2
176
     1
 67
     7
176
     1
 79
     3
176
     1
170
     0
176
     1
171
     0
176
     1
290
     0
176
     1
 93
        1
176
     1
 44
0.0
176
     1
173
     0
176
     1
  0
VISUALSTYLE
  5
30
102
{ACAD_REACTORS
330
2A
102
}
330
2A
100
AcDbVisualStyle
  2
3dWireframe
 70
     5
177
     2
291
     0
 71
     0
176
     1
 72
     2
176
     1
 73
     0
176
     1
 90
        0
176
     1
 40
-0.6
176
     1
 41
-30.0
176
     1
 62
     5
 63
     7
421
 16777215
176
     1
 74
     1
176
     1
 91
        4
176
     1
 64
     7
176
     1
 65
   257
176
     1
 75
     1
176
     1
175
     1
176
     1
 42
1.0
176
     1
 92
        0
176
     1
 66
   257
176
     1
 43
1.0
176
     1
 76
     1
176
     1
 77
     6
176
     1
 78
     2
176
     1
 67
     7
176
     1
 79
     5
176
     1
170
     0
176
     1
171
     0
176
     1
290
     0
176
     1
 93
        1
176
     1
 44
0.0
176
     1
173
     0
176
     1
  0
VISUALSTYLE
  5
32
102
{ACAD_REACTORS
330
2A
102
}
330
2A
100
AcDbVisualStyle
  2
Basic
 70
     7
177
     2
291
     1
 71
     1
176
     1
 72
     0
176
     1
 73
     1
176
     1
 90
        0
176
     1
 40
-0.6
176
     1
 41
-30.0
176
     1
 62
     5
 63
     7
421
 16777215
176
     1
 74
     0
176
     1
 91
        4
176
     1
 64
     7
176
     1
 65
   257
176
     1
 75
     1
176
     1
175
     1
176
     1
 42
1.0
176
     1
 92
        8
176
     1
 66
     7
176
     1
 43
1.0
176
     1
 76
     1
176
     1
 77
     6
176
     1
 78
     2
176
     1
 67
     7
176
     1
 79
     5
176
     1
170
     0
176
     1
171
     0
176
     1
290
     0
176
     1
 93
        1
176
     1
 44
0.0
176
     1
173
     0
176
     1
  0
VISUALSTYLE
  5
36
102
{ACAD_REACTORS
330
2A
102
}
330
2A
100
AcDbVisualStyle
  2
Brighten
 70
    12
177
     2
291
     1
 71
     2
176
     1
 72
     2
176
     1
 73
     0
176
     1
 90
        0
176
     1
 40
-0.6
176
     1
 41
-30.0
176
     1
 62
     5
 63
     7
421
 16777215
176
     1
 74
     1
176
     1
 91
        4
176
     1
 64
     7
176
     1
 65
   257
176
     1
 75
     1
176
     1
175
     1
176
     1
 42
1.0
176
     1
 92
        8
176
     1
 66
     7
176
     1
 43
1.0
176
     1
 76
     1
176
     1
 77
     6
176
     1
 78
     2
176
     1
 67
     7
176
     1
 79
     5
176
     1
170
     0
176
     1
171
     0
176
     1
290
     0
176
     1
 93
        1
176
     1
 44
50.0
176
     1
173
     0
176
     1
  0
VISUALSTYLE
  5
3A
102
{ACAD_REACTORS
330
2A
102
}
330
2A
100
AcDbVisualStyle
  2
ColorChange
 70
    16
177
     2
291
     1
 71
     2
176
     1
 72
     2
176
     1
 73
     3
176
     1
 90
        0
176
     1
 40
-0.6
176
     1
 41
-30.0
176
     1
 62
     5
 63
     8
421
  8421504
176
     1
 74
     1
176
     1
 91
        4
176
     1
 64
     7
176
     1
 65
   257
176
     1
 75
     1
176
     1
175
     1
176
     1
 42
1.0
176
     1
 92
        8
176
     1
 66
     8
424
  8421504
176
     1
 43
1.0
176
     1
 76
     1
176
     1
 77
     6
176
     1
 78
     2
176
     1
 67
     7
176
     1
 79
     5
176
     1
170
     0
176
     1
171
     0
176
     1
290
     0
176
     1
 93
        1
176
     1
 44
0.0
176
     1
173
     0
176
     1
  0
VISUALSTYLE
  5
34
102
{ACAD_REACTORS
330
2A
102
}
330
2A
100
AcDbVisualStyle
  2
Conceptual
 70
     9
177
     2
291
     0
 71
     3
176
     1
 72
     2
176
     1
 73
     0
176
     1
 90
        0
176
     1
 40
-0.6
176
     1
 41
-30.0
176
     1
 62
     5
 63
     7
421
 16777215
176
     1
 74
     2
176
     1
 91
        2
176
     1
 64
     7
176
     1
 65
   257
176
     1
 75
     1
176
     1
175
     1
176
     1
 42
40.0
176
     1
 92
        8
176
     1
 66
     7
176
     1
 43
1.0
176
     1
 76
     1
176
     1
 77
     6
176
     1
 78
     2
176
     1
 67
     7
176
     1
 79
     3
176
     1
170
     0
176
     1
171
     0
176
     1
290
     0
176
     1
 93
        1
176
     1
 44
0.0
176
     1
173
     0
176
     1
  0
VISUALSTYLE
  5
35
102
{ACAD_REACTORS
330
2A
102
}
330
2A
100
AcDbVisualStyle
  2
Dim
 70
    11
177
     2
291
     1
 71
     2
176
     1
 72
     2
176
     1
 73
     0
176
     1
 90
        0
176
     1
 40
-0.6
176
     1
 41
-30.0
176
     1
 62
     5
 63
     7
421
 16777215
176
     1
 74
     1
176
     1
 91
        4
176
     1
 64
     7
176
     1
 65
   257
176
     1
 75
     1
176
     1
175
     1
176
     1
 42
1.0
176
     1
 92
        8
176
     1
 66
     7
176
     1
 43
1.0
176
     1
 76
     1
176
     1
 77
     6
176
     1
 78
     2
176
     1
 67
     7
176
     1
 79
     5
176
     1
170
     0
176
     1
171
     0
176
     1
290
     0
176
     1
 93
        1
176
     1
 44
-50.0
176
     1
173
     0
176
     1
  0
VISUALSTYLE
  5
39
102
{ACAD_REACTORS
330
2A
102
}
330
2A
100
AcDbVisualStyle
  2
Facepattern
 70
    15
177
     2
291
     1
 71
     2
176
     1
 72
     2
176
     1
 73
     0
176
     1
 90
        0
176
     1
 40
-0.6
176
     1
 41
-30.0
176
     1
 62
     5
 63
     7
421
 16777215
176
     1
 74
     1
176
     1
 91
        4
176
     1
 64
     7
176
     1
 65
   257
176
     1
 75
     1
176
     1
175
     1
176
     1
 42
1.0
176
     1
 92
        8
176
     1
 66
     7
176
     1
 43
1.0
176
     1
 76
     1
176
     1
 77
     6
176
     1
 78
     2
176
     1
 67
     7
176
     1
 79
     5
176
     1
170
     0
176
     1
171
     0
176
     1
290
     0
176
     1
 93
        1
176
     1
 44
0.0
176
     1
173
     0
176
     1
  0
VISUALSTYLE
  5
2B
102
{ACAD_REACTORS
330
2A
102
}
330
2A
100
AcDbVisualStyle
  2
Flat
 70
     0
177
     2
291
     1
 71
     2
176
     1
 72
     1
176
     1
 73
     1
176
     1
 90
        2
176
     1
 40
-0.6
176
     1
 41
30.0
176
     1
 62
     5
 63
     7
421
 16777215
176
     1
 74
     0
176
     1
 91
        4
176
     1
 64
     7
176
     1
 65
   257
176
     1
 75
     1
176
     1
175
     1
176
     1
 42
1.0
176
     1
 92
        8
176
     1
 66
     7
176
     1
 43
1.0
176
     1
 76
     1
176
     1
 77
     6
176
     1
 78
     2
176
     1
 67
     7
176
     1
 79
     5
176
     1
170
     0
176
     1
171
     0
176
     1
290
     0
176
     1
 93
       13
176
     1
 44
0.0
176
     1
173
     0
176
     1
  0
VISUALSTYLE
  5
2C
102
{ACAD_REACTORS
330
2A
102
}
330
2A
100
AcDbVisualStyle
  2
FlatWithEdges
 70
     1
177
     2
291
     1
 71
     2
176
     1
 72
     1
176
     1
 73
     1
176
     1
 90
        2
176
     1
 40
-0.6
176
     1
 41
30.0
176
     1
 62
     5
 63
     7
421
 16777215
176
     1
 74
     1
176
     1
 91
        4
176
     1
 64
     7
176
     1
 65
   257
176
     1
 75
     1
176
     1
175
     1
176
     1
 42
1.0
176
     1
 92
        0
176
     1
 66
   257
176
     1
 43
1.0
176
     1
 76
     1
176
     1
 77
     6
176
     1
 78
     2
176
     1
 67
     7
176
     1
 79
     5
176
     1
170
     0
176
     1
171
     0
176
     1
290
     0
176
     1
 93
       13
176
     1
 44
0.0
176
     1
173
     0
176
     1
  0
VISUALSTYLE
  5
2D
102
{ACAD_REACTORS
330
2A
102
}
330
2A
100
AcDbVisualStyle
  2
Gouraud
 70
     2
177
     2
291
     1
 71
     2
176
     1
 72
     2
176
     1
 73
     1
176
     1
 90
        2
176
     1
 40
-0.6
176
     1
 41
30.0
176
     1
 62
     5
 63
     7
421
 16777215
176
     1
 74
     0
176
     1
 91
        4
176
     1
 64
     7
176
     1
 65
   257
176
     1
 75
     1
176
     1
175
     1
176
     1
 42
1.0
176
     1
 92
        0
176
     1
 66
     7
176
     1
 43
1.0
176
     1
 76
     1
176
     1
 77
     6
176
     1
 78
     2
176
     1
 67
     7
176
     1
 79
     5
176
     1
170
     0
176
     1
171
     0
176
     1
290
     0
176
     1
 93
       13
176
     1
 44
0.0
176
     1
173
     0
176
     1
  0
VISUALSTYLE
  5
2E
102
{ACAD_REACTORS
330
2A
102
}
330
2A
100
AcDbVisualStyle
  2
GouraudWithEdges
 70
     3
177
     2
291
     1
 71
     2
176
     1
 72
     2
176
     1
 73
     1
176
     1
 90
        2
176
     1
 40
-0.6
176
     1
 41
30.0
176
     1
 62
     5
 63
     7
421
 16777215
176
     1
 74
     1
176
     1
 91
        4
176
     1
 64
     7
176
     1
 65
   257
176
     1
 75
     1
176
     1
175
     1
176
     1
 42
1.0
176
     1
 92
        0
176
     1
 66
   257
176
     1
 43
1.0
176
     1
 76
     1
176
     1
 77
     6
176
     1
 78
     2
176
     1
 67
     7
176
     1
 79
     5
176
     1
170
     0
176
     1
171
     0
176
     1
290
     0
176
     1
 93
       13
176
     1
 44
0.0
176
     1
173
     0
176
     1
  0
VISUALSTYLE
  5
38
102
{ACAD_REACTORS
330
2A
102
}
330
2A
100
AcDbVisualStyle
  2
Linepattern
 70
    14
177
     2
291
     1
 71
     2
176
     1
 72
     2
176
     1
 73
     0
176
     1
 90
        0
176
     1
 40
-0.6
176
     1
 41
-30.0
176
     1
 62
     5
 63
     7
421
 16777215
176
     1
 74
     1
176
     1
 91
        4
176
     1
 64
     7
176
     1
 65
   257
176
     1
 75
     7
176
     1
175
     7
176
     1
 42
1.0
176
     1
 92
        8
176
     1
 66
     7
176
     1
 43
1.0
176
     1
 76
     1
176
     1
 77
     6
176
     1
 78
     2
176
     1
 67
     7
176
     1
 79
     5
176
     1
170
     0
176
     1
171
     0
176
     1
290
     0
176
     1
 93
        1
176
     1
 44
0.0
176
     1
173
     0
176
     1
  0
VISUALSTYLE
  5
33
102
{ACAD_REACTORS
330
2A
102
}
330
2A
100
AcDbVisualStyle
  2
Realistic
 70
     8
177
     2
291
     0
 71
     2
176
     1
 72
     2
176
     1
 73
     0
176
     1
 90
        0
176
     1
 40
-0.6
176
     1
 41
-30.0
176
     1
 62
     5
 63
     7
421
 16777215
176
     1
 74
     1
176
     1
 91
        0
176
     1
 64
     7
176
     1
 65
   257
176
     1
 75
     1
176
     1
175
     1
176
     1
 42
1.0
176
     1
 92
        8
176
     1
 66
     8
424
  7895160
176
     1
 43
1.0
176
     1
 76
     1
176
     1
 77
     6
176
     1
 78
     2
176
     1
 67
     7
176
     1
 79
     5
176
     1
170
     0
176
     1
171
     0
176
     1
290
     0
176
     1
 93
       13
176
     1
 44
0.0
176
     1
173
     0
176
     1
  0
VISUALSTYLE
  5
37
102
{ACAD_REACTORS
330
2A
102
}
330
2A
100
AcDbVisualStyle
  2
Thicken
 70
    13
177
     2
291
     1
 71
     2
176
     1
 72
     2
176
     1
 73
     0
176
     1
 90
        0
176
     1
 40
-0.6
176
     1
 41
-30.0
176
     1
 62
     5
 63
     7
421
 16777215
176
     1
 74
     1
176
     1
 91
        4
176
     1
 64
     7
176
     1
 65
   257
176
     1
 75
     1
176
     1
175
     1
176
     1
 42
1.0
176
     1
 92
       12
176
     1
 66
     7
176
     1
 43
1.0
176
     1
 76
     1
176
     1
 77
     6
176
     1
 78
     2
176
     1
 67
     7
176
     1
 79
     5
176
     1
170
     0
176
     1
171
     0
176
     1
290
     0
176
     1
 93
        1
176
     1
 44
0.0
176
     1
173
     0
176
     1
  0
ENDSEC
  0
EOF
