  0
SECTION
  2
HEADER
  9
$ACADVER
  1
AC1024
  9
$ACADMAINTVER
 70
     6
  9
$DWGCODEPAGE
  3
UNDEFINED
  9
$INSBASE
 10
0.0
 20
0.0
 30
0.0
  9
$EXTMIN
 10
1.000000000000000E+20
 20
1.000000000000000E+20
 30
1.000000000000000E+20
  9
$EXTMAX
 10
-1.000000000000000E+20
 20
-1.000000000000000E+20
 30
-1.000000000000000E+20
  9
$LIMMIN
 10
0.0
 20
0.0
  9
$LIMMAX
 10
12.0
 20
9.0
  9
$ORTHOMODE
 70
     0
  9
$REGENMODE
 70
     1
  9
$FILLMODE
 70
     1
  9
$QTEXTMODE
 70
     0
  9
$MIRRTEXT
 70
     1
  9
$LTSCALE
 40
1.0
  9
$ATTMODE
 70
     1
  9
$TEXTSIZE
 40
0.2
  9
$TRACEWID
 40
0.05
  9
$TEXTSTYLE
  7
Standard
  9
$CLAYER
  8
0
  9
$CELTYPE
  6
ByLayer
  9
$CECOLOR
 62
   256
  9
$CELTSCALE
 40
1.0
  9
$DISPSILH
 70
     0
  9
$DIMSCALE
 40
1.0
  9
$DIMASZ
 40
0.18
  9
$DIMEXO
 40
0.0625
  9
$DIMDLI
 40
0.38
  9
$DIMRND
 40
0.0
  9
$DIMDLE
 40
0.0
  9
$DIMEXE
 40
0.18
  9
$DIMTP
 40
0.0
  9
$DIMTM
 40
0.0
  9
$DIMTXT
 40
0.18
  9
$DIMCEN
 40
0.09
  9
$DIMTSZ
 40
0.0
  9
$DIMTOL
 70
     0
  9
$DIMLIM
 70
     0
  9
$DIMTIH
 70
     1
  9
$DIMTOH
 70
     1
  9
$DIMSE1
 70
     0
  9
$DIMSE2
 70
     0
  9
$DIMTAD
 70
     0
  9
$DIMZIN
 70
     0
  9
$DIMBLK
  1

  9
$DIMASO
 70
     1
  9
$DIMSHO
 70
     1
  9
$DIMPOST
  1

  9
$DIMAPOST
  1

  9
$DIMALT
 70
     0
  9
$DIMALTD
 70
     2
  9
$DIMALTF
 40
25.4
  9
$DIMLFAC
 40
1.0
  9
$DIMTOFL
 70
     0
  9
$DIMTVP
 40
0.0
  9
$DIMTIX
 70
     0
  9
$DIMSOXD
 70
     0
  9
$DIMSAH
 70
     0
  9
$DIMBLK1
  1

  9
$DIMBLK2
  1

  9
$DIMSTYLE
  2
Standard
  9
$DIMCLRD
 70
     0
  9
$DIMCLRE
 70
     0
  9
$DIMCLRT
 70
     0
  9
$DIMTFAC
 40
1.0
  9
$DIMGAP
 40
0.09
  9
$DIMJUST
 70
     0
  9
$DIMSD1
 70
     0
  9
$DIMSD2
 70
     0
  9
$DIMTOLJ
 70
     1
  9
$DIMTZIN
 70
     0
  9
$DIMALTZ
 70
     0
  9
$DIMALTTZ
 70
     0
  9
$DIMUPT
 70
     0
  9
$DIMDEC
 70
     4
  9
$DIMTDEC
 70
     4
  9
$DIMALTU
 70
     2
  9
$DIMALTTD
 70
     2
  9
$DIMTXSTY
  7
Standard
  9
$DIMAUNIT
 70
     0
  9
$DIMADEC
 70
     0
  9
$DIMALTRND
 40
0.0
  9
$DIMAZIN
 70
     0
  9
$DIMDSEP
 70
    46
  9
$DIMATFIT
 70
     3
  9
$DIMFRAC
 70
     0
  9
$DIMLDRBLK
  1

  9
$DIMLUNIT
 70
     2
  9
$DIMLWD
 70
    -2
  9
$DIMLWE
 70
    -2
  9
$DIMTMOVE
 70
     0
  9
$DIMFXL
 40
1.0
  9
$DIMFXLON
 70
     0
  9
$DIMJOGANG
 40
0.7853981633974483
  9
$DIMTFILL
 70
     0
  9
$DIMTFILLCLR
 70
     0
  9
$DIMARCSYM
 70
     0
  9
$DIMLTYPE
  6

  9
$DIMLTEX1
  6

  9
$DIMLTEX2
  6

  9
$DIMTXTDIRECTION
 70
     0
  9
$LUNITS
 70
     2
  9
$LUPREC
 70
     4
  9
$SKETCHINC
 40
0.1
  9
$FILLETRAD
 40
0.5
  9
$AUNITS
 70
     0
  9
$AUPREC
 70
     0
  9
$MENU
  1
.
  9
$ELEVATION
 40
0.0
  9
$PELEVATION
 40
0.0
  9
$THICKNESS
 40
0.0
  9
$LIMCHECK
 70
     0
  9
$CHAMFERA
 40
0.5
  9
$CHAMFERB
 40
0.5
  9
$CHAMFERC
 40
1.0
  9
$CHAMFERD
 40
0.0
  9
$SKPOLY
 70
     0
  9
$TDCREATE
 40
2458263.575590266
  9
$TDUCREATE
 40
2458263.200590278
  9
$TDUPDATE
 40
2458263.575590266
  9
$TDUUPDATE
 40
2458263.200590278
  9
$TDINDWG
 40
0.0000000116
  9
$TDUSRTIMER
 40
0.0000000116
  9
$USRTIMER
 70
     1
  9
$ANGBASE
 50
0.0
  9
$ANGDIR
 70
     0
  9
$PDMODE
 70
     0
  9
$PDSIZE
 40
0.0
  9
$PLINEWID
 40
0.0
  9
$SPLFRAME
 70
     0
  9
$SPLINETYPE
 70
     6
  9
$SPLINESEGS
 70
     8
  9
$HANDSEED
  5
124
  9
$SURFTAB1
 70
     6
  9
$SURFTAB2
 70
     6
  9
$SURFTYPE
 70
     6
  9
$SURFU
 70
     6
  9
$SURFV
 70
     6
  9
$UCSBASE
  2

  9
$UCSNAME
  2

  9
$UCSORG
 10
0.0
 20
0.0
 30
0.0
  9
$UCSXDIR
 10
1.0
 20
0.0
 30
0.0
  9
$UCSYDIR
 10
0.0
 20
1.0
 30
0.0
  9
$UCSORTHOREF
  2

  9
$UCSORTHOVIEW
 70
     0
  9
$UCSORGTOP
 10
0.0
 20
0.0
 30
0.0
  9
$UCSORGBOTTOM
 10
0.0
 20
0.0
 30
0.0
  9
$UCSORGLEFT
 10
0.0
 20
0.0
 30
0.0
  9
$UCSORGRIGHT
 10
0.0
 20
0.0
 30
0.0
  9
$UCSORGFRONT
 10
0.0
 20
0.0
 30
0.0
  9
$UCSORGBACK
 10
0.0
 20
0.0
 30
0.0
  9
$PUCSBASE
  2

  9
$PUCSNAME
  2

  9
$PUCSORG
 10
0.0
 20
0.0
 30
0.0
  9
$PUCSXDIR
 10
1.0
 20
0.0
 30
0.0
  9
$PUCSYDIR
 10
0.0
 20
1.0
 30
0.0
  9
$PUCSORTHOREF
  2

  9
$PUCSORTHOVIEW
 70
     0
  9
$PUCSORGTOP
 10
0.0
 20
0.0
 30
0.0
  9
$PUCSORGBOTTOM
 10
0.0
 20
0.0
 30
0.0
  9
$PUCSORGLEFT
 10
0.0
 20
0.0
 30
0.0
  9
$PUCSORGRIGHT
 10
0.0
 20
0.0
 30
0.0
  9
$PUCSORGFRONT
 10
0.0
 20
0.0
 30
0.0
  9
$PUCSORGBACK
 10
0.0
 20
0.0
 30
0.0
  9
$USERI1
 70
     0
  9
$USERI2
 70
     0
  9
$USERI3
 70
     0
  9
$USERI4
 70
     0
  9
$USERI5
 70
     0
  9
$USERR1
 40
0.0
  9
$USERR2
 40
0.0
  9
$USERR3
 40
0.0
  9
$USERR4
 40
0.0
  9
$USERR5
 40
0.0
  9
$WORLDVIEW
 70
     1
  9
$SHADEDGE
 70
     3
  9
$SHADEDIF
 70
    70
  9
$TILEMODE
 70
     1
  9
$MAXACTVP
 70
    64
  9
$PINSBASE
 10
0.0
 20
0.0
 30
0.0
  9
$PLIMCHECK
 70
     0
  9
$PEXTMIN
 10
1.000000000000000E+20
 20
1.000000000000000E+20
 30
1.000000000000000E+20
  9
$PEXTMAX
 10
-1.000000000000000E+20
 20
-1.000000000000000E+20
 30
-1.000000000000000E+20
  9
$PLIMMIN
 10
0.0
 20
0.0
  9
$PLIMMAX
 10
12.0
 20
9.0
  9
$UNITMODE
 70
     0
  9
$VISRETAIN
 70
     1
  9
$PLINEGEN
 70
     0
  9
$PSLTSCALE
 70
     1
  9
$TREEDEPTH
 70
  3020
  9
$CMLSTYLE
  2
Standard
  9
$CMLJUST
 70
     0
  9
$CMLSCALE
 40
1.0
  9
$PROXYGRAPHICS
 70
     1
  9
$MEASUREMENT
 70
     0
  9
$CELWEIGHT
370
    -1
  9
$ENDCAPS
280
     0
  9
$JOINSTYLE
280
     0
  9
$LWDISPLAY
290
     1
  9
$INSUNITS
 70
     1
  9
$HYPERLINKBASE
  1

  9
$STYLESHEET
  1

  9
$XEDIT
290
     1
  9
$CEPSNTYPE
380
     0
  9
$PSTYLEMODE
290
     1
  9
$FINGERPRINTGUID
  2
{6AE1E832-B1AC-AB3E-0F9B-8FE4B6C99329}
  9
$VERSIONGUID
  2
{FAEB1C32-E019-11D5-929B-00C0DF256EC4}
  9
$EXTNAMES
290
     1
  9
$PSVPSCALE
 40
0.0
  9
$OLESTARTUP
290
     0
  9
$SORTENTS
280
   127
  9
$INDEXCTL
280
     0
  9
$HIDETEXT
280
     1
  9
$XCLIPFRAME
280
     2
  9
$HALOGAP
280
     0
  9
$OBSCOLOR
 70
   257
  9
$OBSLTYPE
280
     0
  9
$INTERSECTIONDISPLAY
280
     0
  9
$INTERSECTIONCOLOR
 70
   257
  9
$DIMASSOC
280
     2
  9
$PROJECTNAME
  1

  9
$CAMERADISPLAY
290
     0
  9
$LENSLENGTH
 40
50.0
  9
$CAMERAHEIGHT
 40
0.0
  9
$STEPSPERSEC
 40
2.0
  9
$STEPSIZE
 40
6.0
  9
$3DDWFPREC
 40
2.0
  9
$PSOLWIDTH
 40
0.25
  9
$PSOLHEIGHT
 40
4.0
  9
$LOFTANG1
 40
1.570796326794897
  9
$LOFTANG2
 40
1.570796326794897
  9
$LOFTMAG1
 40
0.0
  9
$LOFTMAG2
 40
0.0
  9
$LOFTPARAM
 70
     7
  9
$LOFTNORMALS
280
     1
  9
$LATITUDE
 40
37.795
  9
$LONGITUDE
 40
-122.394
  9
$NORTHDIRECTION
 40
0.0
  9
$TIMEZONE
 70
 -8000
  9
$LIGHTGLYPHDISPLAY
280
     1
  9
$TILEMODELIGHTSYNCH
280
     1
  9
$CMATERIAL
347
3C
  9
$SOLIDHIST
280
     1
  9
$SHOWHIST
280
     1
  9
$DWFFRAME
280
     2
  9
$DGNFRAME
280
     2
  9
$REALWORLDSCALE
290
     1
  9
$INTERFERECOLOR
 62
   256
  9
$CSHADOW
280
     0
  9
$SHADOWPLANELOCATION
 40
0.0
  0
ENDSEC
  0
SECTION
  2
CLASSES
  0
CLASS
  1
ACDBDICTIONARYWDFLT
  2
AcDbDictionaryWithDefault
  3
ObjectDBX Classes
 90
        0
 91
        4
280
     0
281
     0
  0
CLASS
  1
VISUALSTYLE
  2
AcDbVisualStyle
  3
ObjectDBX Classes
 90
     4095
 91
        4
280
     0
281
     0
  0
CLASS
  1
MATERIAL
  2
AcDbMaterial
  3
ObjectDBX Classes
 90
     1153
 91
        4
280
     0
281
     0
  0
CLASS
  1
SUN
  2
AcDbSun
  3
SCENEOE
 90
     1024
 91
        4
280
     0
281
     0
  0
ENDSEC
  0
SECTION
  2
TABLES
  0
TABLE
  2
VPORT
  5
8
330
0
100
AcDbSymbolTable
 70
     1
  0
VPORT
  5
29
330
8
100
AcDbSymbolTableRecord
100
AcDbViewportTableRecord
  2
*Active
 70
     0
 10
0.0
 20
0.0
 11
1.0
 21
1.0
 12
0.0
 22
0.0
 13
0.0
 23
0.0
 14
0.5
 24
0.5
 15
0.5
 25
0.5
 16
0.0
 26
0.0
 36
1.0
 17
105.0007777515277
 27
-148.5000416295416
 37
0.0
 40
297.0000832590831
 41
0.7070757462376333
 42
50.0
 43
0.0
 44
0.0
 50
0.0
 51
0.0
 71
     0
 72
   100
 73
     1
 74
     3
 75
     0
 76
     0
 77
     0
 78
     0
281
     0
 65
     1
110
0.0
120
0.0
130
0.0
111
1.0
121
0.0
131
0.0
112
0.0
122
1.0
132
0.0
 79
     0
146
0.0
 60
     3
 61
     5
292
     1
282
     1
141
0.0
142
0.0
 63
   250
361
3F
  0
ENDTAB
  0
TABLE
  2
LTYPE
  5
5
330
0
100
AcDbSymbolTable
 70
     2
  0
LTYPE
  5
14
330
5
100
AcDbSymbolTableRecord
100
AcDbLinetypeTableRecord
  2
ByBlock
 70
     0
  3

 72
    65
 73
     0
 40
0.0
  0
LTYPE
  5
15
330
5
100
AcDbSymbolTableRecord
100
AcDbLinetypeTableRecord
  2
ByLayer
 70
     0
  3

 72
    65
 73
     0
 40
0.0
  0
LTYPE
  5
16
330
5
100
AcDbSymbolTableRecord
100
AcDbLinetypeTableRecord
  2
Continuous
 70
     0
  3
Solid line
 72
    65
 73
     0
 40
0.0
  0
LTYPE
  5
46
330
5
100
AcDbSymbolTableRecord
100
AcDbLinetypeTableRecord
  2
AI-Linetype-1
 70
     0
  3
Adobe Illustrator Linetype No. 1
 72
    65
 73
     2
 40
1.411111110758333
 49
0.7055555553791667
 74
     0
 49
-0.7055555553791667
 74
     0
  0
ENDTAB
  0
TABLE
  2
LAYER
  5
2
330
0
100
AcDbSymbolTable
 70
     2
  0
LAYER
  5
10
330
2
100
AcDbSymbolTableRecord
100
AcDbLayerTableRecord
  2
0
 70
     0
 62
     7
  6
Continuous
370
    -3
390
F
347
3E
  0
LAYER
  5
40
330
2
100
AcDbSymbolTableRecord
100
AcDbLayerTableRecord
  2
_U+30EC_U+30A4_U+30E4_U+30FC 1
 70
     0
 62
     7
  6
Continuous
370
    -3
390
F
347
3E
  0
ENDTAB
  0
TABLE
  2
STYLE
  5
3
330
0
100
AcDbSymbolTable
 70
     1
  0
STYLE
  5
11
330
3
100
AcDbSymbolTableRecord
100
AcDbTextStyleTableRecord
  2
Standard
 70
     0
 40
0.0
 41
1.0
 50
0.0
 71
     0
 42
0.2
  3
txt
  4

  0
ENDTAB
  0
TABLE
  2
VIEW
  5
6
330
0
100
AcDbSymbolTable
 70
     0
  0
ENDTAB
  0
TABLE
  2
UCS
  5
7
330
0
100
AcDbSymbolTable
 70
     0
  0
ENDTAB
  0
TABLE
  2
APPID
  5
9
330
0
100
AcDbSymbolTable
 70
     1
  0
APPID
  5
12
330
9
100
AcDbSymbolTableRecord
100
AcDbRegAppTableRecord
  2
ACAD
 70
     0
  0
ENDTAB
  0
TABLE
  2
DIMSTYLE
  5
A
330
0
100
AcDbSymbolTable
 70
     1
100
AcDbDimStyleTable
  0
DIMSTYLE
105
27
330
A
100
AcDbSymbolTableRecord
100
AcDbDimStyleTableRecord
  2
Standard
 70
     0
178
     0
340
11
  0
ENDTAB
  0
TABLE
  2
BLOCK_RECORD
  5
1
330
0
100
AcDbSymbolTable
 70
     6
  0
BLOCK_RECORD
  5
1F
330
1
100
AcDbSymbolTableRecord
100
AcDbBlockTableRecord
  2
*Model_Space
340
22
 70
     0
280
     1
281
     0
  0
BLOCK_RECORD
  5
1B
330
1
100
AcDbSymbolTableRecord
100
AcDbBlockTableRecord
  2
*Paper_Space
340
1E
 70
     0
280
     1
281
     0
  0
BLOCK_RECORD
  5
23
330
1
100
AcDbSymbolTableRecord
100
AcDbBlockTableRecord
  2
*Paper_Space0
340
26
 70
     0
280
     1
281
     0
  0
BLOCK_RECORD
  5
93
330
1
100
AcDbSymbolTableRecord
100
AcDbBlockTableRecord
  2
block 2
340
0
102
{BLKREFS
331
94
102
}
 70
     0
280
     1
281
     0
  0
BLOCK_RECORD
  5
A7
330
1
100
AcDbSymbolTableRecord
100
AcDbBlockTableRecord
  2
block 3
340
0
102
{BLKREFS
331
A8
102
}
 70
     0
280
     1
281
     0
  0
BLOCK_RECORD
  5
BB
330
1
100
AcDbSymbolTableRecord
100
AcDbBlockTableRecord
  2
block 4
340
0
102
{BLKREFS
331
BC
102
}
 70
     0
280
     1
281
     0
  0
BLOCK_RECORD
  5
D9
330
1
100
AcDbSymbolTableRecord
100
AcDbBlockTableRecord
  2
block 5
340
0
102
{BLKREFS
331
DA
102
}
 70
     0
280
     1
281
     0
  0
BLOCK_RECORD
  5
E4
330
1
100
AcDbSymbolTableRecord
100
AcDbBlockTableRecord
  2
block 6
340
0
102
{BLKREFS
331
E5
102
}
 70
     0
280
     1
281
     0
  0
ENDTAB
  0
ENDSEC
  0
SECTION
  2
BLOCKS
  0
BLOCK
  5
20
330
1F
100
AcDbEntity
  8
0
100
AcDbBlockBegin
  2
*Model_Space
 70
     0
 10
0.0
 20
0.0
 30
0.0
  3
*Model_Space
  1

  0
ENDBLK
  5
21
330
1F
100
AcDbEntity
  8
0
100
AcDbBlockEnd
  0
BLOCK
  5
1C
330
1B
100
AcDbEntity
 67
     1
  8
0
100
AcDbBlockBegin
  2
*Paper_Space
 70
     0
 10
0.0
 20
0.0
 30
0.0
  3
*Paper_Space
  1

  0
ENDBLK
  5
1D
330
1B
100
AcDbEntity
 67
     1
  8
0
100
AcDbBlockEnd
  0
BLOCK
  5
24
330
23
100
AcDbEntity
  8
0
100
AcDbBlockBegin
  2
*Paper_Space0
 70
     0
 10
0.0
 20
0.0
 30
0.0
  3
*Paper_Space0
  1

  0
ENDBLK
  5
25
330
23
100
AcDbEntity
  8
0
100
AcDbBlockEnd
  0
BLOCK
  5
95
330
93
100
AcDbEntity
  8
0
100
AcDbBlockBegin
  2
block 2
 70
     0
 10
0.0
 20
0.0
 30
0.0
  3
block 2
  1

  0
SPLINE
  5
97
330
93
100
AcDbEntity
  8
_U+30EC_U+30A4_U+30E4_U+30FC 1
370
     0
100
AcDbSpline
210
0.0
220
0.0
230
1.0
 70
    11
 71
     3
 72
    44
 73
    40
 74
     0
 42
0.0000000001
 43
0.0000000001
 12
1.0
 22
0.0
 32
0.0
 13
1.0
 23
0.0
 33
0.0
 40
0.0
 40
0.0
 40
0.0
 40
0.0
 40
1.0
 40
1.0
 40
1.0
 40
2.0
 40
2.0
 40
2.0
 40
3.0
 40
3.0
 40
3.0
 40
4.0
 40
4.0
 40
4.0
 40
5.0
 40
5.0
 40
5.0
 40
6.0
 40
6.0
 40
6.0
 40
7.0
 40
7.0
 40
7.0
 40
8.0
 40
8.0
 40
8.0
 40
9.0
 40
9.0
 40
9.0
 40
10.0
 40
10.0
 40
10.0
 40
11.0
 40
11.0
 40
11.0
 40
12.0
 40
12.0
 40
12.0
 40
13.0
 40
13.0
 40
13.0
 40
13.0
 10
102.3968505603383
 20
-165.4073024760093
 30
0.0
 10
102.1639621055354
 20
-165.5661213778793
 30
0.0
 10
102.0643988460117
 20
-165.6401909308122
 30
0.0
 10
102.0127224137329
 20
-165.7838514125471
 30
0.0
 10
102.0127224137329
 20
-165.7838514125471
 30
0.0
 10
102.8443684638722
 20
-165.7838514125471
 30
0.0
 10
102.8443684638722
 20
-165.7838514125471
 30
0.0
 10
102.8443684638722
 20
-165.7838514125471
 30
0.0
 10
102.8443684638722
 20
-165.989179103468
 30
0.0
 10
102.8443684638722
 20
-165.989179103468
 30
0.0
 10
102.8443684638722
 20
-165.989179103468
 30
0.0
 10
101.7457275136261
 20
-165.989179103468
 30
0.0
 10
101.7457275136261
 20
-165.989179103468
 30
0.0
 10
101.77983395893
 20
-165.6315781920991
 30
0.0
 10
101.8497693972806
 20
-165.5533745245839
 30
0.0
 10
102.2611137982195
 20
-165.2550292555613
 30
0.0
 10
102.5346543797483
 20
-165.0562472460623
 30
0.0
 10
102.6049343276474
 20
-164.9883788650029
 30
0.0
 10
102.6049343276474
 20
-164.8509195551414
 30
0.0
 10
102.6049343276474
 20
-164.7324082704488
 30
0.0
 10
102.5281086983263
 20
-164.6014946420094
 30
0.0
 10
102.3176133641775
 20
-164.6014946420094
 30
0.0
 10
102.0395941585179
 20
-164.6014946420094
 30
0.0
 10
102.0306369102562
 20
-164.8319715299726
 30
0.0
 10
102.0261582861254
 20
-164.948415757374
 30
0.0
 10
102.0261582861254
 20
-164.948415757374
 30
0.0
 10
101.786379640352
 20
-164.948415757374
 30
0.0
 10
101.786379640352
 20
-164.948415757374
 30
0.0
 10
101.7956813981622
 20
-164.8212917339683
 30
0.0
 10
101.806705703715
 20
-164.7093261306977
 30
0.0
 10
101.8928330908462
 20
-164.5908148460051
 30
0.0
 10
102.0103108468933
 20
-164.4299288868439
 30
0.0
 10
102.2090928563922
 20
-164.3961669510885
 30
0.0
 10
102.3334608034097
 20
-164.3961669510885
 30
0.0
 10
102.6297390151412
 20
-164.3961669510885
 30
0.0
 10
102.8512586548428
 20
-164.5801350500008
 30
0.0
 10
102.8512586548428
 20
-164.8529866124326
 30
0.0
 10
102.8512586548428
 20
-165.0817409526532
 30
0.0
 10
102.7268907078252
 20
-165.1809597026284
 30
0.0
 10
102.3968505603383
 20
-165.4073024760093
 30
0.0
  0
HATCH
  5
98
330
93
100
AcDbEntity
  8
_U+30EC_U+30A4_U+30E4_U+30FC 1
 62
   179
420
  2234388
100
AcDbHatch
 10
0.0
 20
0.0
 30
0.0
210
0.0
220
0.0
230
1.0
  2
SOLID
 70
     1
 71
     0
 91
        1
 92
        1
 93
        1
 72
     4
 94
        3
 73
     0
 74
     1
 95
       44
 96
       40
 40
0.0
 40
0.0
 40
0.0
 40
0.0
 40
1.0
 40
1.0
 40
1.0
 40
2.0
 40
2.0
 40
2.0
 40
3.0
 40
3.0
 40
3.0
 40
4.0
 40
4.0
 40
4.0
 40
5.0
 40
5.0
 40
5.0
 40
6.0
 40
6.0
 40
6.0
 40
7.0
 40
7.0
 40
7.0
 40
8.0
 40
8.0
 40
8.0
 40
9.0
 40
9.0
 40
9.0
 40
10.0
 40
10.0
 40
10.0
 40
11.0
 40
11.0
 40
11.0
 40
12.0
 40
12.0
 40
12.0
 40
13.0
 40
13.0
 40
13.0
 40
13.0
 10
102.3968505603383
 20
-165.4073024760093
 10
102.1639621055354
 20
-165.5661213778793
 10
102.0643988460117
 20
-165.6401909308122
 10
102.0127224137329
 20
-165.7838514125471
 10
102.0127224137329
 20
-165.7838514125471
 10
102.8443684638722
 20
-165.7838514125471
 10
102.8443684638722
 20
-165.7838514125471
 10
102.8443684638722
 20
-165.7838514125471
 10
102.8443684638722
 20
-165.989179103468
 10
102.8443684638722
 20
-165.989179103468
 10
102.8443684638722
 20
-165.989179103468
 10
101.7457275136261
 20
-165.989179103468
 10
101.7457275136261
 20
-165.989179103468
 10
101.77983395893
 20
-165.6315781920991
 10
101.8497693972806
 20
-165.5533745245839
 10
102.2611137982195
 20
-165.2550292555613
 10
102.5346543797483
 20
-165.0562472460623
 10
102.6049343276474
 20
-164.9883788650029
 10
102.6049343276474
 20
-164.8509195551414
 10
102.6049343276474
 20
-164.7324082704488
 10
102.5281086983263
 20
-164.6014946420094
 10
102.3176133641775
 20
-164.6014946420094
 10
102.0395941585179
 20
-164.6014946420094
 10
102.0306369102562
 20
-164.8319715299726
 10
102.0261582861254
 20
-164.948415757374
 10
102.0261582861254
 20
-164.948415757374
 10
101.786379640352
 20
-164.948415757374
 10
101.786379640352
 20
-164.948415757374
 10
101.7956813981622
 20
-164.8212917339683
 10
101.806705703715
 20
-164.7093261306977
 10
101.8928330908462
 20
-164.5908148460051
 10
102.0103108468933
 20
-164.4299288868439
 10
102.2090928563922
 20
-164.3961669510885
 10
102.3334608034097
 20
-164.3961669510885
 10
102.6297390151412
 20
-164.3961669510885
 10
102.8512586548428
 20
-164.5801350500008
 10
102.8512586548428
 20
-164.8529866124326
 10
102.8512586548428
 20
-165.0817409526532
 10
102.7268907078252
 20
-165.1809597026284
 10
102.3968505603383
 20
-165.4073024760093
 97
        0
 97
        0
 75
     2
 76
     1
 98
        0
  0
SPLINE
  5
99
330
93
100
AcDbEntity
  8
_U+30EC_U+30A4_U+30E4_U+30FC 1
370
     0
100
AcDbSpline
210
0.0
220
0.0
230
1.0
 70
    11
 71
     3
 72
    62
 73
    58
 74
     0
 42
0.0000000001
 43
0.0000000001
 12
1.0
 22
0.0
 32
0.0
 13
1.0
 23
0.0
 33
0.0
 40
0.0
 40
0.0
 40
0.0
 40
0.0
 40
1.0
 40
1.0
 40
1.0
 40
2.0
 40
2.0
 40
2.0
 40
3.0
 40
3.0
 40
3.0
 40
4.0
 40
4.0
 40
4.0
 40
5.0
 40
5.0
 40
5.0
 40
6.0
 40
6.0
 40
6.0
 40
7.0
 40
7.0
 40
7.0
 40
8.0
 40
8.0
 40
8.0
 40
9.0
 40
9.0
 40
9.0
 40
10.0
 40
10.0
 40
10.0
 40
11.0
 40
11.0
 40
11.0
 40
12.0
 40
12.0
 40
12.0
 40
13.0
 40
13.0
 40
13.0
 40
14.0
 40
14.0
 40
14.0
 40
15.0
 40
15.0
 40
15.0
 40
16.0
 40
16.0
 40
16.0
 40
17.0
 40
17.0
 40
17.0
 40
18.0
 40
18.0
 40
18.0
 40
19.0
 40
19.0
 40
19.0
 40
19.0
 10
103.5461344142176
 20
-166.0398220071012
 30
0.0
 10
103.4445040974028
 20
-166.0398220071012
 30
0.0
 10
103.2116156425999
 20
-166.0188069246411
 30
0.0
 10
103.0782904473207
 20
-165.8327717684377
 30
0.0
 10
102.99905325116
 20
-165.7204616556185
 30
0.0
 10
102.9945746270291
 20
-165.6212429056433
 30
0.0
 10
102.9900960028983
 20
-165.5364935567061
 30
0.0
 10
102.9900960028983
 20
-165.5364935567061
 30
0.0
 10
103.2250515149924
 20
-165.5364935567061
 30
0.0
 10
103.2250515149924
 20
-165.5364935567061
 30
0.0
 10
103.227463081832
 20
-165.610563109639
 30
0.0
 10
103.2388318969333
 20
-165.8451741121845
 30
0.0
 10
103.5416557900868
 20
-165.8451741121845
 30
0.0
 10
103.688761367307
 20
-165.8451741121845
 30
0.0
 10
103.8513698742108
 20
-165.7755831833825
 30
0.0
 10
103.8513698742108
 20
-165.5471733527104
 30
0.0
 10
103.8513698742108
 20
-165.430729125309
 30
0.0
 10
103.8107177474848
 20
-165.382153278967
 30
0.0
 10
103.7766113021809
 20
-165.3504584005027
 30
0.0
 10
103.6977186155686
 20
-165.2763888475698
 30
0.0
 10
103.5733506685511
 20
-165.2636419942744
 30
0.0
 10
103.5144395357533
 20
-165.2636419942744
 30
0.0
 10
103.4941134723904
 20
-165.2636419942744
 30
0.0
 10
103.4558729125041
 20
-165.2657090515655
 30
0.0
 10
103.4262450913309
 20
-165.2698431661478
 30
0.0
 10
103.4262450913309
 20
-165.2698431661478
 30
0.0
 10
103.4262450913309
 20
-165.0751952712312
 30
0.0
 10
103.4262450913309
 20
-165.0751952712312
 30
0.0
 10
103.4668972180569
 20
-165.0817409526532
 30
0.0
 10
103.5123724784622
 20
-165.0838080099443
 30
0.0
 10
103.5189181598842
 20
-165.0838080099443
 30
0.0
 10
103.5891981077833
 20
-165.0838080099443
 30
0.0
 10
103.8017604992232
 20
-165.0624484179358
 30
0.0
 10
103.8017604992232
 20
-164.8257703580991
 30
0.0
 10
103.8017604992232
 20
-164.6480034310602
 30
0.0
 10
103.6615451129735
 20
-164.5928819032962
 30
0.0
 10
103.5440673569265
 20
-164.5928819032962
 30
0.0
 10
103.2612250175875
 20
-164.5928819032962
 30
0.0
 10
103.2522677693258
 20
-164.8257703580991
 30
0.0
 10
103.247789145195
 20
-164.8974283441923
 30
0.0
 10
103.247789145195
 20
-164.8974283441923
 30
0.0
 10
103.0307481296243
 20
-164.8974283441923
 30
0.0
 10
103.0307481296243
 20
-164.8974283441923
 30
0.0
 10
103.0397053778859
 20
-164.7727158876263
 30
0.0
 10
103.0689886895105
 20
-164.3961669510885
 30
0.0
 10
103.557503229319
 20
-164.3961669510885
 30
0.0
 10
103.7972818750924
 20
-164.3961669510885
 30
0.0
 10
104.054975017389
 20
-164.5232909744942
 30
0.0
 10
104.054975017389
 20
-164.8192246766772
 30
0.0
 10
104.054975017389
 20
-165.0056043424292
 30
0.0
 10
103.9530001910256
 20
-165.0879421245266
 30
0.0
 10
103.8468912500799
 20
-165.1492648241641
 30
0.0
 10
103.9123480642997
 20
-165.1768255880461
 30
0.0
 10
104.1069959592163
 20
-165.2570963128524
 30
0.0
 10
104.1069959592163
 20
-165.534426499415
 30
0.0
 10
104.1069959592163
 20
-165.8727348760665
 30
0.0
 10
103.8424126259491
 20
-166.0398220071012
 30
0.0
 10
103.5461344142176
 20
-166.0398220071012
 30
0.0
  0
HATCH
  5
9A
330
93
100
AcDbEntity
  8
_U+30EC_U+30A4_U+30E4_U+30FC 1
 62
   179
420
  2234388
100
AcDbHatch
 10
0.0
 20
0.0
 30
0.0
210
0.0
220
0.0
230
1.0
  2
SOLID
 70
     1
 71
     0
 91
        1
 92
        1
 93
        1
 72
     4
 94
        3
 73
     0
 74
     1
 95
       62
 96
       58
 40
0.0
 40
0.0
 40
0.0
 40
0.0
 40
1.0
 40
1.0
 40
1.0
 40
2.0
 40
2.0
 40
2.0
 40
3.0
 40
3.0
 40
3.0
 40
4.0
 40
4.0
 40
4.0
 40
5.0
 40
5.0
 40
5.0
 40
6.0
 40
6.0
 40
6.0
 40
7.0
 40
7.0
 40
7.0
 40
8.0
 40
8.0
 40
8.0
 40
9.0
 40
9.0
 40
9.0
 40
10.0
 40
10.0
 40
10.0
 40
11.0
 40
11.0
 40
11.0
 40
12.0
 40
12.0
 40
12.0
 40
13.0
 40
13.0
 40
13.0
 40
14.0
 40
14.0
 40
14.0
 40
15.0
 40
15.0
 40
15.0
 40
16.0
 40
16.0
 40
16.0
 40
17.0
 40
17.0
 40
17.0
 40
18.0
 40
18.0
 40
18.0
 40
19.0
 40
19.0
 40
19.0
 40
19.0
 10
103.5461344142176
 20
-166.0398220071012
 10
103.4445040974028
 20
-166.0398220071012
 10
103.2116156425999
 20
-166.0188069246411
 10
103.0782904473207
 20
-165.8327717684377
 10
102.99905325116
 20
-165.7204616556185
 10
102.9945746270291
 20
-165.6212429056433
 10
102.9900960028983
 20
-165.5364935567061
 10
102.9900960028983
 20
-165.5364935567061
 10
103.2250515149924
 20
-165.5364935567061
 10
103.2250515149924
 20
-165.5364935567061
 10
103.227463081832
 20
-165.610563109639
 10
103.2388318969333
 20
-165.8451741121845
 10
103.5416557900868
 20
-165.8451741121845
 10
103.688761367307
 20
-165.8451741121845
 10
103.8513698742108
 20
-165.7755831833825
 10
103.8513698742108
 20
-165.5471733527104
 10
103.8513698742108
 20
-165.430729125309
 10
103.8107177474848
 20
-165.382153278967
 10
103.7766113021809
 20
-165.3504584005027
 10
103.6977186155686
 20
-165.2763888475698
 10
103.5733506685511
 20
-165.2636419942744
 10
103.5144395357533
 20
-165.2636419942744
 10
103.4941134723904
 20
-165.2636419942744
 10
103.4558729125041
 20
-165.2657090515655
 10
103.4262450913309
 20
-165.2698431661478
 10
103.4262450913309
 20
-165.2698431661478
 10
103.4262450913309
 20
-165.0751952712312
 10
103.4262450913309
 20
-165.0751952712312
 10
103.4668972180569
 20
-165.0817409526532
 10
103.5123724784622
 20
-165.0838080099443
 10
103.5189181598842
 20
-165.0838080099443
 10
103.5891981077833
 20
-165.0838080099443
 10
103.8017604992232
 20
-165.0624484179358
 10
103.8017604992232
 20
-164.8257703580991
 10
103.8017604992232
 20
-164.6480034310602
 10
103.6615451129735
 20
-164.5928819032962
 10
103.5440673569265
 20
-164.5928819032962
 10
103.2612250175875
 20
-164.5928819032962
 10
103.2522677693258
 20
-164.8257703580991
 10
103.247789145195
 20
-164.8974283441923
 10
103.247789145195
 20
-164.8974283441923
 10
103.0307481296243
 20
-164.8974283441923
 10
103.0307481296243
 20
-164.8974283441923
 10
103.0397053778859
 20
-164.7727158876263
 10
103.0689886895105
 20
-164.3961669510885
 10
103.557503229319
 20
-164.3961669510885
 10
103.7972818750924
 20
-164.3961669510885
 10
104.054975017389
 20
-164.5232909744942
 10
104.054975017389
 20
-164.8192246766772
 10
104.054975017389
 20
-165.0056043424292
 10
103.9530001910256
 20
-165.0879421245266
 10
103.8468912500799
 20
-165.1492648241641
 10
103.9123480642997
 20
-165.1768255880461
 10
104.1069959592163
 20
-165.2570963128524
 10
104.1069959592163
 20
-165.534426499415
 10
104.1069959592163
 20
-165.8727348760665
 10
103.8424126259491
 20
-166.0398220071012
 10
103.5461344142176
 20
-166.0398220071012
 97
        0
 97
        0
 75
     2
 76
     1
 98
        0
  0
ENDBLK
  5
96
330
93
100
AcDbEntity
  8
0
100
AcDbBlockEnd
  0
BLOCK
  5
A9
330
A7
100
AcDbEntity
  8
0
100
AcDbBlockBegin
  2
block 3
 70
     0
 10
0.0
 20
0.0
 30
0.0
  3
block 3
  1

  0
SPLINE
  5
AB
330
A7
100
AcDbEntity
  8
_U+30EC_U+30A4_U+30E4_U+30FC 1
370
     0
100
AcDbSpline
210
0.0
220
0.0
230
1.0
 70
    11
 71
     3
 72
    26
 73
    22
 74
     0
 42
0.0000000001
 43
0.0000000001
 12
1.0
 22
0.0
 32
0.0
 13
1.0
 23
0.0
 33
0.0
 40
0.0
 40
0.0
 40
0.0
 40
0.0
 40
1.0
 40
1.0
 40
1.0
 40
2.0
 40
2.0
 40
2.0
 40
3.0
 40
3.0
 40
3.0
 40
4.0
 40
4.0
 40
4.0
 40
5.0
 40
5.0
 40
5.0
 40
6.0
 40
6.0
 40
6.0
 40
7.0
 40
7.0
 40
7.0
 40
7.0
 10
96.74551592633446
 20
-134.4150512359275
 30
0.0
 10
96.74551592633446
 20
-134.4150512359275
 30
0.0
 10
96.74551592633446
 20
-133.3108981329049
 30
0.0
 10
96.74551592633446
 20
-133.3108981329049
 30
0.0
 10
96.74551592633446
 20
-133.3108981329049
 30
0.0
 10
96.3930826581934
 20
-133.3108981329049
 30
0.0
 10
96.3930826581934
 20
-133.3108981329049
 30
0.0
 10
96.3930826581934
 20
-133.3108981329049
 30
0.0
 10
96.3930826581934
 20
-133.1627590270392
 30
0.0
 10
96.3930826581934
 20
-133.1627590270392
 30
0.0
 10
96.74792749317413
 20
-133.1479451164526
 30
0.0
 10
96.79753686816173
 20
-132.9849921000003
 30
0.0
 10
96.82923174662604
 20
-132.87061492989
 30
0.0
 10
96.82923174662604
 20
-132.87061492989
 30
0.0
 10
96.98529457210785
 20
-132.87061492989
 30
0.0
 10
96.98529457210785
 20
-132.87061492989
 30
0.0
 10
96.98529457210785
 20
-132.87061492989
 30
0.0
 10
96.98529457210785
 20
-134.4150512359275
 30
0.0
 10
96.98529457210785
 20
-134.4150512359275
 30
0.0
 10
96.98529457210785
 20
-134.4150512359275
 30
0.0
 10
96.74551592633446
 20
-134.4150512359275
 30
0.0
 10
96.74551592633446
 20
-134.4150512359275
 30
0.0
  0
HATCH
  5
AC
330
A7
100
AcDbEntity
  8
_U+30EC_U+30A4_U+30E4_U+30FC 1
 62
   179
420
  2234388
100
AcDbHatch
 10
0.0
 20
0.0
 30
0.0
210
0.0
220
0.0
230
1.0
  2
SOLID
 70
     1
 71
     0
 91
        1
 92
        1
 93
        1
 72
     4
 94
        3
 73
     0
 74
     1
 95
       26
 96
       22
 40
0.0
 40
0.0
 40
0.0
 40
0.0
 40
1.0
 40
1.0
 40
1.0
 40
2.0
 40
2.0
 40
2.0
 40
3.0
 40
3.0
 40
3.0
 40
4.0
 40
4.0
 40
4.0
 40
5.0
 40
5.0
 40
5.0
 40
6.0
 40
6.0
 40
6.0
 40
7.0
 40
7.0
 40
7.0
 40
7.0
 10
96.74551592633446
 20
-134.4150512359275
 10
96.74551592633446
 20
-134.4150512359275
 10
96.74551592633446
 20
-133.3108981329049
 10
96.74551592633446
 20
-133.3108981329049
 10
96.74551592633446
 20
-133.3108981329049
 10
96.3930826581934
 20
-133.3108981329049
 10
96.3930826581934
 20
-133.3108981329049
 10
96.3930826581934
 20
-133.3108981329049
 10
96.3930826581934
 20
-133.1627590270392
 10
96.3930826581934
 20
-133.1627590270392
 10
96.74792749317413
 20
-133.1479451164526
 10
96.79753686816173
 20
-132.9849921000003
 10
96.82923174662604
 20
-132.87061492989
 10
96.82923174662604
 20
-132.87061492989
 10
96.98529457210785
 20
-132.87061492989
 10
96.98529457210785
 20
-132.87061492989
 10
96.98529457210785
 20
-132.87061492989
 10
96.98529457210785
 20
-134.4150512359275
 10
96.98529457210785
 20
-134.4150512359275
 10
96.98529457210785
 20
-134.4150512359275
 10
96.74551592633446
 20
-134.4150512359275
 10
96.74551592633446
 20
-134.4150512359275
 97
        0
 97
        0
 75
     2
 76
     1
 98
        0
  0
SPLINE
  5
AD
330
A7
100
AcDbEntity
  8
_U+30EC_U+30A4_U+30E4_U+30FC 1
370
     0
100
AcDbSpline
210
0.0
220
0.0
230
1.0
 70
    11
 71
     3
 72
    44
 73
    40
 74
     0
 42
0.0000000001
 43
0.0000000001
 12
1.0
 22
0.0
 32
0.0
 13
1.0
 23
0.0
 33
0.0
 40
0.0
 40
0.0
 40
0.0
 40
0.0
 40
1.0
 40
1.0
 40
1.0
 40
2.0
 40
2.0
 40
2.0
 40
3.0
 40
3.0
 40
3.0
 40
4.0
 40
4.0
 40
4.0
 40
5.0
 40
5.0
 40
5.0
 40
6.0
 40
6.0
 40
6.0
 40
7.0
 40
7.0
 40
7.0
 40
8.0
 40
8.0
 40
8.0
 40
9.0
 40
9.0
 40
9.0
 40
10.0
 40
10.0
 40
10.0
 40
11.0
 40
11.0
 40
11.0
 40
12.0
 40
12.0
 40
12.0
 40
13.0
 40
13.0
 40
13.0
 40
13.0
 10
98.15490448935017
 20
-133.8331746084688
 30
0.0
 10
97.92201603454728
 20
-133.9919935103388
 30
0.0
 10
97.82245277502356
 20
-134.0660630632717
 30
0.0
 10
97.77043183319628
 20
-134.2097235450066
 30
0.0
 10
97.77043183319628
 20
-134.2097235450066
 30
0.0
 10
98.60276690243265
 20
-134.2097235450066
 30
0.0
 10
98.60276690243265
 20
-134.2097235450066
 30
0.0
 10
98.60276690243265
 20
-134.2097235450066
 30
0.0
 10
98.60276690243265
 20
-134.4150512359275
 30
0.0
 10
98.60276690243265
 20
-134.4150512359275
 30
0.0
 10
98.60276690243265
 20
-134.4150512359275
 30
0.0
 10
97.50378144263794
 20
-134.4150512359275
 30
0.0
 10
97.50378144263794
 20
-134.4150512359275
 30
0.0
 10
97.53788788794192
 20
-134.0574503245586
 30
0.0
 10
97.60782332629249
 20
-133.9792466570434
 30
0.0
 10
98.01916772723132
 20
-133.6809013880207
 30
0.0
 10
98.29270830876015
 20
-133.4821193785218
 30
0.0
 10
98.36298825665926
 20
-133.4142509974624
 30
0.0
 10
98.36298825665926
 20
-133.2767916876009
 30
0.0
 10
98.36298825665926
 20
-133.1582804029084
 30
0.0
 10
98.28616262733819
 20
-133.0273667744688
 30
0.0
 10
98.07566729318943
 20
-133.0273667744688
 30
0.0
 10
97.79764808752977
 20
-133.0273667744688
 30
0.0
 10
97.78869083926811
 20
-133.2578436624321
 30
0.0
 10
97.78421221513729
 20
-133.3742878898335
 30
0.0
 10
97.78421221513729
 20
-133.3742878898335
 30
0.0
 10
97.54443356936389
 20
-133.3742878898335
 30
0.0
 10
97.54443356936389
 20
-133.3742878898335
 30
0.0
 10
97.55339081762554
 20
-133.2471638664278
 30
0.0
 10
97.56475963272688
 20
-133.1351982631572
 30
0.0
 10
97.65088701985812
 20
-133.0166869784646
 30
0.0
 10
97.76836477590514
 20
-132.8558010193034
 30
0.0
 10
97.96714678540405
 20
-132.822039083548
 30
0.0
 10
98.09151473242157
 20
-132.822039083548
 30
0.0
 10
98.38779294415306
 20
-132.822039083548
 30
0.0
 10
98.60931258385462
 20
-133.0060071824603
 30
0.0
 10
98.60931258385462
 20
-133.2788587448921
 30
0.0
 10
98.60931258385462
 20
-133.5076130851127
 30
0.0
 10
98.4849446368371
 20
-133.6068318350879
 30
0.0
 10
98.15490448935017
 20
-133.8331746084688
 30
0.0
  0
HATCH
  5
AE
330
A7
100
AcDbEntity
  8
_U+30EC_U+30A4_U+30E4_U+30FC 1
 62
   179
420
  2234388
100
AcDbHatch
 10
0.0
 20
0.0
 30
0.0
210
0.0
220
0.0
230
1.0
  2
SOLID
 70
     1
 71
     0
 91
        1
 92
        1
 93
        1
 72
     4
 94
        3
 73
     0
 74
     1
 95
       44
 96
       40
 40
0.0
 40
0.0
 40
0.0
 40
0.0
 40
1.0
 40
1.0
 40
1.0
 40
2.0
 40
2.0
 40
2.0
 40
3.0
 40
3.0
 40
3.0
 40
4.0
 40
4.0
 40
4.0
 40
5.0
 40
5.0
 40
5.0
 40
6.0
 40
6.0
 40
6.0
 40
7.0
 40
7.0
 40
7.0
 40
8.0
 40
8.0
 40
8.0
 40
9.0
 40
9.0
 40
9.0
 40
10.0
 40
10.0
 40
10.0
 40
11.0
 40
11.0
 40
11.0
 40
12.0
 40
12.0
 40
12.0
 40
13.0
 40
13.0
 40
13.0
 40
13.0
 10
98.15490448935017
 20
-133.8331746084688
 10
97.92201603454728
 20
-133.9919935103388
 10
97.82245277502356
 20
-134.0660630632717
 10
97.77043183319628
 20
-134.2097235450066
 10
97.77043183319628
 20
-134.2097235450066
 10
98.60276690243265
 20
-134.2097235450066
 10
98.60276690243265
 20
-134.2097235450066
 10
98.60276690243265
 20
-134.2097235450066
 10
98.60276690243265
 20
-134.4150512359275
 10
98.60276690243265
 20
-134.4150512359275
 10
98.60276690243265
 20
-134.4150512359275
 10
97.50378144263794
 20
-134.4150512359275
 10
97.50378144263794
 20
-134.4150512359275
 10
97.53788788794192
 20
-134.0574503245586
 10
97.60782332629249
 20
-133.9792466570434
 10
98.01916772723132
 20
-133.6809013880207
 10
98.29270830876015
 20
-133.4821193785218
 10
98.36298825665926
 20
-133.4142509974624
 10
98.36298825665926
 20
-133.2767916876009
 10
98.36298825665926
 20
-133.1582804029084
 10
98.28616262733819
 20
-133.0273667744688
 10
98.07566729318943
 20
-133.0273667744688
 10
97.79764808752977
 20
-133.0273667744688
 10
97.78869083926811
 20
-133.2578436624321
 10
97.78421221513729
 20
-133.3742878898335
 10
97.78421221513729
 20
-133.3742878898335
 10
97.54443356936389
 20
-133.3742878898335
 10
97.54443356936389
 20
-133.3742878898335
 10
97.55339081762554
 20
-133.2471638664278
 10
97.56475963272688
 20
-133.1351982631572
 10
97.65088701985812
 20
-133.0166869784646
 10
97.76836477590514
 20
-132.8558010193034
 10
97.96714678540405
 20
-132.822039083548
 10
98.09151473242157
 20
-132.822039083548
 10
98.38779294415306
 20
-132.822039083548
 10
98.60931258385462
 20
-133.0060071824603
 10
98.60931258385462
 20
-133.2788587448921
 10
98.60931258385462
 20
-133.5076130851127
 10
98.4849446368371
 20
-133.6068318350879
 10
98.15490448935017
 20
-133.8331746084688
 97
        0
 97
        0
 75
     2
 76
     1
 98
        0
  0
ENDBLK
  5
AA
330
A7
100
AcDbEntity
  8
0
100
AcDbBlockEnd
  0
BLOCK
  5
BD
330
BB
100
AcDbEntity
  8
0
100
AcDbBlockBegin
  2
block 4
 70
     0
 10
0.0
 20
0.0
 30
0.0
  3
block 4
  1

  0
SPLINE
  5
BF
330
BB
100
AcDbEntity
  8
_U+30EC_U+30A4_U+30E4_U+30FC 1
370
     0
100
AcDbSpline
210
0.0
220
0.0
230
1.0
 70
    11
 71
     3
 72
    44
 73
    40
 74
     0
 42
0.0000000001
 43
0.0000000001
 12
1.0
 22
0.0
 32
0.0
 13
1.0
 23
0.0
 33
0.0
 40
0.0
 40
0.0
 40
0.0
 40
0.0
 40
1.0
 40
1.0
 40
1.0
 40
2.0
 40
2.0
 40
2.0
 40
3.0
 40
3.0
 40
3.0
 40
4.0
 40
4.0
 40
4.0
 40
5.0
 40
5.0
 40
5.0
 40
6.0
 40
6.0
 40
6.0
 40
7.0
 40
7.0
 40
7.0
 40
8.0
 40
8.0
 40
8.0
 40
9.0
 40
9.0
 40
9.0
 40
10.0
 40
10.0
 40
10.0
 40
11.0
 40
11.0
 40
11.0
 40
12.0
 40
12.0
 40
12.0
 40
13.0
 40
13.0
 40
13.0
 40
13.0
 10
86.24297008477606
 20
-152.2473822319034
 30
0.0
 10
86.40178898664608
 20
-152.4802706867063
 30
0.0
 10
86.47585853957895
 20
-152.5798339462301
 30
0.0
 10
86.61951902131388
 20
-152.6315103785088
 30
0.0
 10
86.61951902131388
 20
-152.6315103785088
 30
0.0
 10
86.61951902131388
 20
-151.7998643283695
 30
0.0
 10
86.61951902131388
 20
-151.7998643283695
 30
0.0
 10
86.61951902131388
 20
-151.7998643283695
 30
0.0
 10
86.82484671223476
 20
-151.7998643283695
 30
0.0
 10
86.82484671223476
 20
-151.7998643283695
 30
0.0
 10
86.82484671223476
 20
-151.7998643283695
 30
0.0
 10
86.82484671223476
 20
-152.8985052786157
 30
0.0
 10
86.82484671223476
 20
-152.8985052786157
 30
0.0
 10
86.46724580086583
 20
-152.8643988333117
 30
0.0
 10
86.38904213335066
 20
-152.7944633949611
 30
0.0
 10
86.09069686432802
 20
-152.3831189940223
 30
0.0
 10
85.89191485482911
 20
-152.1095784124934
 30
0.0
 10
85.82404647376968
 20
-152.0392984645943
 30
0.0
 10
85.68658716390821
 20
-152.0392984645943
 30
0.0
 10
85.56807587921563
 20
-152.0392984645943
 30
0.0
 10
85.43716225077613
 20
-152.1161240939154
 30
0.0
 10
85.43716225077613
 20
-152.3266194280642
 30
0.0
 10
85.43716225077613
 20
-152.6046386337239
 30
0.0
 10
85.66763913873935
 20
-152.6135958819855
 30
0.0
 10
85.78408336614079
 20
-152.6180745061163
 30
0.0
 10
85.78408336614079
 20
-152.6180745061163
 30
0.0
 10
85.78408336614079
 20
-152.8578531518897
 30
0.0
 10
85.78408336614079
 20
-152.8578531518897
 30
0.0
 10
85.65695934273506
 20
-152.8485513940795
 30
0.0
 10
85.54499373946445
 20
-152.8375270885267
 30
0.0
 10
85.42648245477186
 20
-152.7513997013955
 30
0.0
 10
85.2655964956107
 20
-152.6339219453485
 30
0.0
 10
85.23183455985524
 20
-152.4351399358495
 30
0.0
 10
85.23183455985524
 20
-152.310771988832
 30
0.0
 10
85.23183455985524
 20
-152.0144937771005
 30
0.0
 10
85.41580265876757
 20
-151.792974137399
 30
0.0
 10
85.68865422119937
 20
-151.792974137399
 30
0.0
 10
85.91740856141996
 20
-151.792974137399
 30
0.0
 10
86.01662731139515
 20
-151.9173420844165
 30
0.0
 10
86.24297008477606
 20
-152.2473822319034
 30
0.0
  0
HATCH
  5
C0
330
BB
100
AcDbEntity
  8
_U+30EC_U+30A4_U+30E4_U+30FC 1
 62
   179
420
  2234388
100
AcDbHatch
 10
0.0
 20
0.0
 30
0.0
210
0.0
220
0.0
230
1.0
  2
SOLID
 70
     1
 71
     0
 91
        1
 92
        1
 93
        1
 72
     4
 94
        3
 73
     0
 74
     1
 95
       44
 96
       40
 40
0.0
 40
0.0
 40
0.0
 40
0.0
 40
1.0
 40
1.0
 40
1.0
 40
2.0
 40
2.0
 40
2.0
 40
3.0
 40
3.0
 40
3.0
 40
4.0
 40
4.0
 40
4.0
 40
5.0
 40
5.0
 40
5.0
 40
6.0
 40
6.0
 40
6.0
 40
7.0
 40
7.0
 40
7.0
 40
8.0
 40
8.0
 40
8.0
 40
9.0
 40
9.0
 40
9.0
 40
10.0
 40
10.0
 40
10.0
 40
11.0
 40
11.0
 40
11.0
 40
12.0
 40
12.0
 40
12.0
 40
13.0
 40
13.0
 40
13.0
 40
13.0
 10
86.24297008477606
 20
-152.2473822319034
 10
86.40178898664608
 20
-152.4802706867063
 10
86.47585853957895
 20
-152.5798339462301
 10
86.61951902131388
 20
-152.6315103785088
 10
86.61951902131388
 20
-152.6315103785088
 10
86.61951902131388
 20
-151.7998643283695
 10
86.61951902131388
 20
-151.7998643283695
 10
86.61951902131388
 20
-151.7998643283695
 10
86.82484671223476
 20
-151.7998643283695
 10
86.82484671223476
 20
-151.7998643283695
 10
86.82484671223476
 20
-151.7998643283695
 10
86.82484671223476
 20
-152.8985052786157
 10
86.82484671223476
 20
-152.8985052786157
 10
86.46724580086583
 20
-152.8643988333117
 10
86.38904213335066
 20
-152.7944633949611
 10
86.09069686432802
 20
-152.3831189940223
 10
85.89191485482911
 20
-152.1095784124934
 10
85.82404647376968
 20
-152.0392984645943
 10
85.68658716390821
 20
-152.0392984645943
 10
85.56807587921563
 20
-152.0392984645943
 10
85.43716225077613
 20
-152.1161240939154
 10
85.43716225077613
 20
-152.3266194280642
 10
85.43716225077613
 20
-152.6046386337239
 10
85.66763913873935
 20
-152.6135958819855
 10
85.78408336614079
 20
-152.6180745061163
 10
85.78408336614079
 20
-152.6180745061163
 10
85.78408336614079
 20
-152.8578531518897
 10
85.78408336614079
 20
-152.8578531518897
 10
85.65695934273506
 20
-152.8485513940795
 10
85.54499373946445
 20
-152.8375270885267
 10
85.42648245477186
 20
-152.7513997013955
 10
85.2655964956107
 20
-152.6339219453485
 10
85.23183455985524
 20
-152.4351399358495
 10
85.23183455985524
 20
-152.310771988832
 10
85.23183455985524
 20
-152.0144937771005
 10
85.41580265876757
 20
-151.792974137399
 10
85.68865422119937
 20
-151.792974137399
 10
85.91740856141996
 20
-151.792974137399
 10
86.01662731139515
 20
-151.9173420844165
 10
86.24297008477606
 20
-152.2473822319034
 97
        0
 97
        0
 75
     2
 76
     1
 98
        0
  0
SPLINE
  5
C1
330
BB
100
AcDbEntity
  8
_U+30EC_U+30A4_U+30E4_U+30FC 1
370
     0
100
AcDbSpline
210
0.0
220
0.0
230
1.0
 70
    11
 71
     3
 72
    26
 73
    22
 74
     0
 42
0.0000000001
 43
0.0000000001
 12
1.0
 22
0.0
 32
0.0
 13
1.0
 23
0.0
 33
0.0
 40
0.0
 40
0.0
 40
0.0
 40
0.0
 40
1.0
 40
1.0
 40
1.0
 40
2.0
 40
2.0
 40
2.0
 40
3.0
 40
3.0
 40
3.0
 40
4.0
 40
4.0
 40
4.0
 40
5.0
 40
5.0
 40
5.0
 40
6.0
 40
6.0
 40
6.0
 40
7.0
 40
7.0
 40
7.0
 40
7.0
 10
86.82484671223476
 20
-151.1411620715897
 30
0.0
 10
86.82484671223476
 20
-151.1411620715897
 30
0.0
 10
85.72069360921219
 20
-151.1411620715897
 30
0.0
 10
85.72069360921219
 20
-151.1411620715897
 30
0.0
 10
85.72069360921219
 20
-151.1411620715897
 30
0.0
 10
85.72069360921219
 20
-151.4935953397308
 30
0.0
 10
85.72069360921219
 20
-151.4935953397308
 30
0.0
 10
85.72069360921219
 20
-151.4935953397308
 30
0.0
 10
85.57255450334645
 20
-151.4935953397308
 30
0.0
 10
85.57255450334645
 20
-151.4935953397308
 30
0.0
 10
85.55774059275987
 20
-151.13875050475
 30
0.0
 10
85.39478757630755
 20
-151.0891411297625
 30
0.0
 10
85.28041040619726
 20
-151.0574462512981
 30
0.0
 10
85.28041040619726
 20
-151.0574462512981
 30
0.0
 10
85.28041040619726
 20
-150.9013834258163
 30
0.0
 10
85.28041040619726
 20
-150.9013834258163
 30
0.0
 10
85.28041040619726
 20
-150.9013834258163
 30
0.0
 10
86.82484671223476
 20
-150.9013834258163
 30
0.0
 10
86.82484671223476
 20
-150.9013834258163
 30
0.0
 10
86.82484671223476
 20
-150.9013834258163
 30
0.0
 10
86.82484671223476
 20
-151.1411620715897
 30
0.0
 10
86.82484671223476
 20
-151.1411620715897
 30
0.0
  0
HATCH
  5
C2
330
BB
100
AcDbEntity
  8
_U+30EC_U+30A4_U+30E4_U+30FC 1
 62
   179
420
  2234388
100
AcDbHatch
 10
0.0
 20
0.0
 30
0.0
210
0.0
220
0.0
230
1.0
  2
SOLID
 70
     1
 71
     0
 91
        1
 92
        1
 93
        1
 72
     4
 94
        3
 73
     0
 74
     1
 95
       26
 96
       22
 40
0.0
 40
0.0
 40
0.0
 40
0.0
 40
1.0
 40
1.0
 40
1.0
 40
2.0
 40
2.0
 40
2.0
 40
3.0
 40
3.0
 40
3.0
 40
4.0
 40
4.0
 40
4.0
 40
5.0
 40
5.0
 40
5.0
 40
6.0
 40
6.0
 40
6.0
 40
7.0
 40
7.0
 40
7.0
 40
7.0
 10
86.82484671223476
 20
-151.1411620715897
 10
86.82484671223476
 20
-151.1411620715897
 10
85.72069360921219
 20
-151.1411620715897
 10
85.72069360921219
 20
-151.1411620715897
 10
85.72069360921219
 20
-151.1411620715897
 10
85.72069360921219
 20
-151.4935953397308
 10
85.72069360921219
 20
-151.4935953397308
 10
85.72069360921219
 20
-151.4935953397308
 10
85.57255450334645
 20
-151.4935953397308
 10
85.57255450334645
 20
-151.4935953397308
 10
85.55774059275987
 20
-151.13875050475
 10
85.39478757630755
 20
-151.0891411297625
 10
85.28041040619726
 20
-151.0574462512981
 10
85.28041040619726
 20
-151.0574462512981
 10
85.28041040619726
 20
-150.9013834258163
 10
85.28041040619726
 20
-150.9013834258163
 10
85.28041040619726
 20
-150.9013834258163
 10
86.82484671223476
 20
-150.9013834258163
 10
86.82484671223476
 20
-150.9013834258163
 10
86.82484671223476
 20
-150.9013834258163
 10
86.82484671223476
 20
-151.1411620715897
 10
86.82484671223476
 20
-151.1411620715897
 97
        0
 97
        0
 75
     2
 76
     1
 98
        0
  0
POLYLINE
  5
C3
330
BB
100
AcDbEntity
  8
_U+30EC_U+30A4_U+30E4_U+30FC 1
370
     0
100
AcDb2dPolyline
 66
     1
 10
0.0
 20
0.0
 30
0.0
  0
VERTEX
  5
C4
330
C3
100
AcDbEntity
  8
_U+30EC_U+30A4_U+30E4_U+30FC 1
370
     0
100
AcDbVertex
100
AcDb2dVertex
 10
86.82484671223476
 20
-150.3015923018343
 30
0.0
  0
VERTEX
  5
C5
330
C3
100
AcDbEntity
  8
_U+30EC_U+30A4_U+30E4_U+30FC 1
370
     0
100
AcDbVertex
100
AcDb2dVertex
 10
86.573010232263
 20
-150.3015923018343
 30
0.0
  0
VERTEX
  5
C6
330
C3
100
AcDbEntity
  8
_U+30EC_U+30A4_U+30E4_U+30FC 1
370
     0
100
AcDbVertex
100
AcDb2dVertex
 10
86.573010232263
 20
-150.0325303444363
 30
0.0
  0
VERTEX
  5
C7
330
C3
100
AcDbEntity
  8
_U+30EC_U+30A4_U+30E4_U+30FC 1
370
     0
100
AcDbVertex
100
AcDb2dVertex
 10
86.82484671223476
 20
-150.0325303444363
 30
0.0
  0
VERTEX
  5
C8
330
C3
100
AcDbEntity
  8
_U+30EC_U+30A4_U+30E4_U+30FC 1
370
     0
100
AcDbVertex
100
AcDb2dVertex
 10
86.82484671223476
 20
-150.3015923018343
 30
0.0
  0
SEQEND
  5
C9
330
C3
100
AcDbEntity
  8
_U+30EC_U+30A4_U+30E4_U+30FC 1
370
     0
  0
HATCH
  5
CA
330
BB
100
AcDbEntity
  8
_U+30EC_U+30A4_U+30E4_U+30FC 1
 62
   179
420
  2234388
100
AcDbHatch
 10
0.0
 20
0.0
 30
0.0
210
0.0
220
0.0
230
1.0
  2
SOLID
 70
     1
 71
     0
 91
        1
 92
        1
 93
        4
 72
     1
 10
86.82484671223476
 20
-150.3015923018343
 11
86.573010232263
 21
-150.3015923018343
 72
     1
 10
86.573010232263
 20
-150.3015923018343
 11
86.573010232263
 21
-150.0325303444363
 72
     1
 10
86.573010232263
 20
-150.0325303444363
 11
86.82484671223476
 21
-150.0325303444363
 72
     1
 10
86.82484671223476
 20
-150.0325303444363
 11
86.82484671223476
 21
-150.3015923018343
 97
        0
 75
     2
 76
     1
 98
        0
  0
SPLINE
  5
CB
330
BB
100
AcDbEntity
  8
_U+30EC_U+30A4_U+30E4_U+30FC 1
370
     0
100
AcDbSpline
210
0.0
220
0.0
230
1.0
 70
    11
 71
     3
 72
    53
 73
    49
 74
     0
 42
0.0000000001
 43
0.0000000001
 12
1.0
 22
0.0
 32
0.0
 13
1.0
 23
0.0
 33
0.0
 40
0.0
 40
0.0
 40
0.0
 40
0.0
 40
1.0
 40
1.0
 40
1.0
 40
2.0
 40
2.0
 40
2.0
 40
3.0
 40
3.0
 40
3.0
 40
4.0
 40
4.0
 40
4.0
 40
5.0
 40
5.0
 40
5.0
 40
6.0
 40
6.0
 40
6.0
 40
7.0
 40
7.0
 40
7.0
 40
8.0
 40
8.0
 40
8.0
 40
9.0
 40
9.0
 40
9.0
 40
10.0
 40
10.0
 40
10.0
 40
11.0
 40
11.0
 40
11.0
 40
12.0
 40
12.0
 40
12.0
 40
13.0
 40
13.0
 40
13.0
 40
14.0
 40
14.0
 40
14.0
 40
15.0
 40
15.0
 40
15.0
 40
16.0
 40
16.0
 40
16.0
 40
16.0
 10
86.87548961586793
 20
-149.2659965989682
 30
0.0
 10
86.87548961586793
 20
-149.3497124192598
 30
0.0
 10
86.85860864799021
 20
-149.4578884174966
 30
0.0
 10
86.79521889106162
 20
-149.5667534348305
 30
0.0
 10
86.68532034508215
 20
-149.752099571937
 30
0.0
 10
86.55406220709413
 20
-149.7744926925911
 30
0.0
 10
86.4462307184058
 20
-149.7948187559541
 30
0.0
 10
86.4462307184058
 20
-149.7948187559541
 30
0.0
 10
86.4462307184058
 20
-149.5574516770204
 30
0.0
 10
86.4462307184058
 20
-149.5574516770204
 30
0.0
 10
86.64501272790473
 20
-149.4988850537711
 30
0.0
 10
86.67464054907788
 20
-149.3631482916523
 30
0.0
 10
86.67464054907788
 20
-149.2635850321286
 30
0.0
 10
86.67464054907788
 20
-149.1144123976172
 30
0.0
 10
86.57507728955414
 20
-148.9514593811649
 30
0.0
 10
86.34253334429978
 20
-148.9514593811649
 30
0.0
 10
86.08656274974572
 20
-148.9514593811649
 30
0.0
 10
86.01662731139515
 20
-149.1436957092419
 30
0.0
 10
86.01662731139515
 20
-149.2725422803902
 30
0.0
 10
86.01662731139515
 20
-149.3066487256942
 30
0.0
 10
86.01662731139515
 20
-149.4578884174966
 30
0.0
 10
86.14581839209202
 20
-149.5529730528895
 30
0.0
 10
86.14581839209202
 20
-149.5529730528895
 30
0.0
 10
86.12687036692314
 20
-149.7407307568357
 30
0.0
 10
86.12687036692314
 20
-149.7407307568357
 30
0.0
 10
86.12687036692314
 20
-149.7407307568357
 30
0.0
 10
85.28041040619726
 20
-149.6118841856873
 30
0.0
 10
85.28041040619726
 20
-149.6118841856873
 30
0.0
 10
85.28041040619726
 20
-149.6118841856873
 30
0.0
 10
85.28041040619726
 20
-148.7798936259995
 30
0.0
 10
85.28041040619726
 20
-148.7798936259995
 30
0.0
 10
85.28041040619726
 20
-148.7798936259995
 30
0.0
 10
85.47505830111388
 20
-148.7798936259995
 30
0.0
 10
85.47505830111388
 20
-148.7798936259995
 30
0.0
 10
85.47505830111388
 20
-148.7798936259995
 30
0.0
 10
85.47505830111388
 20
-149.4375623541337
 30
0.0
 10
85.47505830111388
 20
-149.4375623541337
 30
0.0
 10
85.47505830111388
 20
-149.4375623541337
 30
0.0
 10
85.89811602670255
 20
-149.5078423020328
 30
0.0
 10
85.89811602670255
 20
-149.5078423020328
 30
0.0
 10
85.8643540909471
 20
-149.442385487813
 30
0.0
 10
85.82404647376968
 20
-149.3541910433906
 30
0.0
 10
85.82404647376968
 20
-149.2274115295334
 30
0.0
 10
85.82404647376968
 20
-148.9562825148443
 30
0.0
 10
86.0104261395217
 20
-148.7030679966784
 30
0.0
 10
86.32358531913091
 20
-148.7030679966784
 30
0.0
 10
86.64087861332243
 20
-148.7030679966784
 30
0.0
 10
86.87548961586793
 20
-148.9425021329033
 30
0.0
 10
86.87548961586793
 20
-149.2659965989682
 30
0.0
  0
HATCH
  5
CC
330
BB
100
AcDbEntity
  8
_U+30EC_U+30A4_U+30E4_U+30FC 1
 62
   179
420
  2234388
100
AcDbHatch
 10
0.0
 20
0.0
 30
0.0
210
0.0
220
0.0
230
1.0
  2
SOLID
 70
     1
 71
     0
 91
        1
 92
        1
 93
        1
 72
     4
 94
        3
 73
     0
 74
     1
 95
       53
 96
       49
 40
0.0
 40
0.0
 40
0.0
 40
0.0
 40
1.0
 40
1.0
 40
1.0
 40
2.0
 40
2.0
 40
2.0
 40
3.0
 40
3.0
 40
3.0
 40
4.0
 40
4.0
 40
4.0
 40
5.0
 40
5.0
 40
5.0
 40
6.0
 40
6.0
 40
6.0
 40
7.0
 40
7.0
 40
7.0
 40
8.0
 40
8.0
 40
8.0
 40
9.0
 40
9.0
 40
9.0
 40
10.0
 40
10.0
 40
10.0
 40
11.0
 40
11.0
 40
11.0
 40
12.0
 40
12.0
 40
12.0
 40
13.0
 40
13.0
 40
13.0
 40
14.0
 40
14.0
 40
14.0
 40
15.0
 40
15.0
 40
15.0
 40
16.0
 40
16.0
 40
16.0
 40
16.0
 10
86.87548961586793
 20
-149.2659965989682
 10
86.87548961586793
 20
-149.3497124192598
 10
86.85860864799021
 20
-149.4578884174966
 10
86.79521889106162
 20
-149.5667534348305
 10
86.68532034508215
 20
-149.752099571937
 10
86.55406220709413
 20
-149.7744926925911
 10
86.4462307184058
 20
-149.7948187559541
 10
86.4462307184058
 20
-149.7948187559541
 10
86.4462307184058
 20
-149.5574516770204
 10
86.4462307184058
 20
-149.5574516770204
 10
86.64501272790473
 20
-149.4988850537711
 10
86.67464054907788
 20
-149.3631482916523
 10
86.67464054907788
 20
-149.2635850321286
 10
86.67464054907788
 20
-149.1144123976172
 10
86.57507728955414
 20
-148.9514593811649
 10
86.34253334429978
 20
-148.9514593811649
 10
86.08656274974572
 20
-148.9514593811649
 10
86.01662731139515
 20
-149.1436957092419
 10
86.01662731139515
 20
-149.2725422803902
 10
86.01662731139515
 20
-149.3066487256942
 10
86.01662731139515
 20
-149.4578884174966
 10
86.14581839209202
 20
-149.5529730528895
 10
86.14581839209202
 20
-149.5529730528895
 10
86.12687036692314
 20
-149.7407307568357
 10
86.12687036692314
 20
-149.7407307568357
 10
86.12687036692314
 20
-149.7407307568357
 10
85.28041040619726
 20
-149.6118841856873
 10
85.28041040619726
 20
-149.6118841856873
 10
85.28041040619726
 20
-149.6118841856873
 10
85.28041040619726
 20
-148.7798936259995
 10
85.28041040619726
 20
-148.7798936259995
 10
85.28041040619726
 20
-148.7798936259995
 10
85.47505830111388
 20
-148.7798936259995
 10
85.47505830111388
 20
-148.7798936259995
 10
85.47505830111388
 20
-148.7798936259995
 10
85.47505830111388
 20
-149.4375623541337
 10
85.47505830111388
 20
-149.4375623541337
 10
85.47505830111388
 20
-149.4375623541337
 10
85.89811602670255
 20
-149.5078423020328
 10
85.89811602670255
 20
-149.5078423020328
 10
85.8643540909471
 20
-149.442385487813
 10
85.82404647376968
 20
-149.3541910433906
 10
85.82404647376968
 20
-149.2274115295334
 10
85.82404647376968
 20
-148.9562825148443
 10
86.0104261395217
 20
-148.7030679966784
 10
86.32358531913091
 20
-148.7030679966784
 10
86.64087861332243
 20
-148.7030679966784
 10
86.87548961586793
 20
-148.9425021329033
 10
86.87548961586793
 20
-149.2659965989682
 97
        0
 97
        0
 75
     2
 76
     1
 98
        0
  0
ENDBLK
  5
BE
330
BB
100
AcDbEntity
  8
0
100
AcDbBlockEnd
  0
BLOCK
  5
DB
330
D9
100
AcDbEntity
  8
0
100
AcDbBlockBegin
  2
block 5
 70
     0
 10
0.0
 20
0.0
 30
0.0
  3
block 5
  1

  0
SPLINE
  5
DD
330
D9
100
AcDbEntity
  8
_U+30EC_U+30A4_U+30E4_U+30FC 1
370
     0
100
AcDbSpline
210
0.0
220
0.0
230
1.0
 70
    11
 71
     3
 72
    26
 73
    22
 74
     0
 42
0.0000000001
 43
0.0000000001
 12
1.0
 22
0.0
 32
0.0
 13
1.0
 23
0.0
 33
0.0
 40
0.0
 40
0.0
 40
0.0
 40
0.0
 40
1.0
 40
1.0
 40
1.0
 40
2.0
 40
2.0
 40
2.0
 40
3.0
 40
3.0
 40
3.0
 40
4.0
 40
4.0
 40
4.0
 40
5.0
 40
5.0
 40
5.0
 40
6.0
 40
6.0
 40
6.0
 40
7.0
 40
7.0
 40
7.0
 40
7.0
 10
86.82484671223476
 20
-165.5957491990524
 30
0.0
 10
86.82484671223476
 20
-165.5957491990524
 30
0.0
 10
85.72069360921219
 20
-165.5957491990524
 30
0.0
 10
85.72069360921219
 20
-165.5957491990524
 30
0.0
 10
85.72069360921219
 20
-165.5957491990524
 30
0.0
 10
85.72069360921219
 20
-165.9481824671935
 30
0.0
 10
85.72069360921219
 20
-165.9481824671935
 30
0.0
 10
85.72069360921219
 20
-165.9481824671935
 30
0.0
 10
85.57255450334645
 20
-165.9481824671935
 30
0.0
 10
85.57255450334645
 20
-165.9481824671935
 30
0.0
 10
85.55774059275987
 20
-165.5933376322128
 30
0.0
 10
85.39478757630755
 20
-165.5437282572252
 30
0.0
 10
85.28041040619726
 20
-165.5120333787609
 30
0.0
 10
85.28041040619726
 20
-165.5120333787609
 30
0.0
 10
85.28041040619726
 20
-165.3559705532791
 30
0.0
 10
85.28041040619726
 20
-165.3559705532791
 30
0.0
 10
85.28041040619726
 20
-165.3559705532791
 30
0.0
 10
86.82484671223476
 20
-165.3559705532791
 30
0.0
 10
86.82484671223476
 20
-165.3559705532791
 30
0.0
 10
86.82484671223476
 20
-165.3559705532791
 30
0.0
 10
86.82484671223476
 20
-165.5957491990524
 30
0.0
 10
86.82484671223476
 20
-165.5957491990524
 30
0.0
  0
HATCH
  5
DE
330
D9
100
AcDbEntity
  8
_U+30EC_U+30A4_U+30E4_U+30FC 1
 62
   179
420
  2234388
100
AcDbHatch
 10
0.0
 20
0.0
 30
0.0
210
0.0
220
0.0
230
1.0
  2
SOLID
 70
     1
 71
     0
 91
        1
 92
        1
 93
        1
 72
     4
 94
        3
 73
     0
 74
     1
 95
       26
 96
       22
 40
0.0
 40
0.0
 40
0.0
 40
0.0
 40
1.0
 40
1.0
 40
1.0
 40
2.0
 40
2.0
 40
2.0
 40
3.0
 40
3.0
 40
3.0
 40
4.0
 40
4.0
 40
4.0
 40
5.0
 40
5.0
 40
5.0
 40
6.0
 40
6.0
 40
6.0
 40
7.0
 40
7.0
 40
7.0
 40
7.0
 10
86.82484671223476
 20
-165.5957491990524
 10
86.82484671223476
 20
-165.5957491990524
 10
85.72069360921219
 20
-165.5957491990524
 10
85.72069360921219
 20
-165.5957491990524
 10
85.72069360921219
 20
-165.5957491990524
 10
85.72069360921219
 20
-165.9481824671935
 10
85.72069360921219
 20
-165.9481824671935
 10
85.72069360921219
 20
-165.9481824671935
 10
85.57255450334645
 20
-165.9481824671935
 10
85.57255450334645
 20
-165.9481824671935
 10
85.55774059275987
 20
-165.5933376322128
 10
85.39478757630755
 20
-165.5437282572252
 10
85.28041040619726
 20
-165.5120333787609
 10
85.28041040619726
 20
-165.5120333787609
 10
85.28041040619726
 20
-165.3559705532791
 10
85.28041040619726
 20
-165.3559705532791
 10
85.28041040619726
 20
-165.3559705532791
 10
86.82484671223476
 20
-165.3559705532791
 10
86.82484671223476
 20
-165.3559705532791
 10
86.82484671223476
 20
-165.3559705532791
 10
86.82484671223476
 20
-165.5957491990524
 10
86.82484671223476
 20
-165.5957491990524
 97
        0
 97
        0
 75
     2
 76
     1
 98
        0
  0
ENDBLK
  5
DC
330
D9
100
AcDbEntity
  8
0
100
AcDbBlockEnd
  0
BLOCK
  5
E6
330
E4
100
AcDbEntity
  8
0
100
AcDbBlockBegin
  2
block 6
 70
     0
 10
0.0
 20
0.0
 30
0.0
  3
block 6
  1

  0
SPLINE
  5
E8
330
E4
100
AcDbEntity
  8
_U+30EC_U+30A4_U+30E4_U+30FC 1
370
     0
100
AcDbSpline
210
0.0
220
0.0
230
1.0
 70
    11
 71
     3
 72
    17
 73
    13
 74
     0
 42
0.0000000001
 43
0.0000000001
 12
1.0
 22
0.0
 32
0.0
 13
1.0
 23
0.0
 33
0.0
 40
0.0
 40
0.0
 40
0.0
 40
0.0
 40
1.0
 40
1.0
 40
1.0
 40
2.0
 40
2.0
 40
2.0
 40
3.0
 40
3.0
 40
3.0
 40
4.0
 40
4.0
 40
4.0
 40
4.0
 10
108.2249185927354
 20
-130.9920043617832
 30
0.0
 10
108.1191541613383
 20
-130.8862399303861
 30
0.0
 10
108.0385389269834
 20
-130.8483438800483
 30
0.0
 10
107.9455213488817
 20
-130.8163044920355
 30
0.0
 10
107.9455213488817
 20
-130.8163044920355
 30
0.0
 10
108.0557644044097
 20
-130.6512844182921
 30
0.0
 10
108.0557644044097
 20
-130.6512844182921
 30
0.0
 10
108.1529160970937
 20
-130.6936590927606
 30
0.0
 10
108.2734944390775
 20
-130.7722072698243
 30
0.0
 10
108.3265489095503
 20
-130.8269842880398
 30
0.0
 10
108.3265489095503
 20
-130.8269842880398
 30
0.0
 10
108.2249185927354
 20
-130.9920043617832
 30
0.0
 10
108.2249185927354
 20
-130.9920043617832
 30
0.0
  0
SPLINE
  5
E9
330
E4
100
AcDbEntity
  8
_U+30EC_U+30A4_U+30E4_U+30FC 1
370
     0
100
AcDbSpline
210
0.0
220
0.0
230
1.0
 70
    11
 71
     3
 72
   182
 73
   178
 74
     0
 42
0.0000000001
 43
0.0000000001
 12
1.0
 22
0.0
 32
0.0
 13
1.0
 23
0.0
 33
0.0
 40
0.0
 40
0.0
 40
0.0
 40
0.0
 40
1.0
 40
1.0
 40
1.0
 40
2.0
 40
2.0
 40
2.0
 40
3.0
 40
3.0
 40
3.0
 40
4.0
 40
4.0
 40
4.0
 40
5.0
 40
5.0
 40
5.0
 40
6.0
 40
6.0
 40
6.0
 40
7.0
 40
7.0
 40
7.0
 40
8.0
 40
8.0
 40
8.0
 40
9.0
 40
9.0
 40
9.0
 40
10.0
 40
10.0
 40
10.0
 40
11.0
 40
11.0
 40
11.0
 40
12.0
 40
12.0
 40
12.0
 40
13.0
 40
13.0
 40
13.0
 40
14.0
 40
14.0
 40
14.0
 40
15.0
 40
15.0
 40
15.0
 40
16.0
 40
16.0
 40
16.0
 40
17.0
 40
17.0
 40
17.0
 40
18.0
 40
18.0
 40
18.0
 40
19.0
 40
19.0
 40
19.0
 40
20.0
 40
20.0
 40
20.0
 40
21.0
 40
21.0
 40
21.0
 40
22.0
 40
22.0
 40
22.0
 40
23.0
 40
23.0
 40
23.0
 40
24.0
 40
24.0
 40
24.0
 40
25.0
 40
25.0
 40
25.0
 40
26.0
 40
26.0
 40
26.0
 40
27.0
 40
27.0
 40
27.0
 40
28.0
 40
28.0
 40
28.0
 40
29.0
 40
29.0
 40
29.0
 40
30.0
 40
30.0
 40
30.0
 40
31.0
 40
31.0
 40
31.0
 40
32.0
 40
32.0
 40
32.0
 40
33.0
 40
33.0
 40
33.0
 40
34.0
 40
34.0
 40
34.0
 40
35.0
 40
35.0
 40
35.0
 40
36.0
 40
36.0
 40
36.0
 40
37.0
 40
37.0
 40
37.0
 40
38.0
 40
38.0
 40
38.0
 40
39.0
 40
39.0
 40
39.0
 40
40.0
 40
40.0
 40
40.0
 40
41.0
 40
41.0
 40
41.0
 40
42.0
 40
42.0
 40
42.0
 40
43.0
 40
43.0
 40
43.0
 40
44.0
 40
44.0
 40
44.0
 40
45.0
 40
45.0
 40
45.0
 40
46.0
 40
46.0
 40
46.0
 40
47.0
 40
47.0
 40
47.0
 40
48.0
 40
48.0
 40
48.0
 40
49.0
 40
49.0
 40
49.0
 40
50.0
 40
50.0
 40
50.0
 40
51.0
 40
51.0
 40
51.0
 40
52.0
 40
52.0
 40
52.0
 40
53.0
 40
53.0
 40
53.0
 40
54.0
 40
54.0
 40
54.0
 40
55.0
 40
55.0
 40
55.0
 40
56.0
 40
56.0
 40
56.0
 40
57.0
 40
57.0
 40
57.0
 40
58.0
 40
58.0
 40
58.0
 40
59.0
 40
59.0
 40
59.0
 40
59.0
 10
109.2698160534117
 20
-132.1702270177387
 30
0.0
 10
109.2698160534117
 20
-132.1702270177387
 30
0.0
 10
108.6331624077375
 20
-132.1702270177387
 30
0.0
 10
108.6331624077375
 20
-132.1702270177387
 30
0.0
 10
108.4195664876521
 20
-132.1702270177387
 30
0.0
 10
108.2035590007269
 20
-132.1747056418695
 30
0.0
 10
107.9899630806414
 20
-132.187452495165
 30
0.0
 10
107.9899630806414
 20
-132.187452495165
 30
0.0
 10
107.9899630806414
 20
-131.9800577469529
 30
0.0
 10
107.9899630806414
 20
-131.9800577469529
 30
0.0
 10
108.21217173944
 20
-131.9928046002483
 30
0.0
 10
108.535666205505
 20
-131.9969387148306
 30
0.0
 10
108.6331624077375
 20
-131.9969387148306
 30
0.0
 10
108.6331624077375
 20
-131.9969387148306
 30
0.0
 10
108.853304009245
 20
-131.9969387148306
 30
0.0
 10
108.853304009245
 20
-131.9969387148306
 30
0.0
 10
108.853304009245
 20
-131.9969387148306
 30
0.0
 10
108.853304009245
 20
-131.8553452903869
 30
0.0
 10
108.853304009245
 20
-131.8553452903869
 30
0.0
 10
108.853304009245
 20
-131.8553452903869
 30
0.0
 10
108.6924180500838
 20
-131.8553452903869
 30
0.0
 10
108.6924180500838
 20
-131.8553452903869
 30
0.0
 10
108.5273979763404
 20
-131.8553452903869
 30
0.0
 10
108.3623779025969
 20
-131.8594794049692
 30
0.0
 10
108.1973578288534
 20
-131.8742933155557
 30
0.0
 10
108.1973578288534
 20
-131.8742933155557
 30
0.0
 10
108.1973578288534
 20
-131.6648315100526
 30
0.0
 10
108.1973578288534
 20
-131.6648315100526
 30
0.0
 10
108.3685790744704
 20
-131.6796454206391
 30
0.0
 10
108.6162814398598
 20
-131.6837795352214
 30
0.0
 10
108.6924180500838
 20
-131.6837795352214
 30
0.0
 10
108.6924180500838
 20
-131.6837795352214
 30
0.0
 10
108.853304009245
 20
-131.6837795352214
 30
0.0
 10
108.853304009245
 20
-131.6837795352214
 30
0.0
 10
108.8488253851142
 20
-131.6117770395797
 30
0.0
 10
108.8488253851142
 20
-131.6055758677062
 30
0.0
 10
108.8426242132407
 20
-131.5525213972334
 30
0.0
 10
108.8426242132407
 20
-131.5525213972334
 30
0.0
 10
108.9821505803934
 20
-131.56733530782
 30
0.0
 10
108.9821505803934
 20
-131.56733530782
 30
0.0
 10
108.9821505803934
 20
-131.56733530782
 30
0.0
 10
108.8829318304182
 20
-131.3961140622031
 30
0.0
 10
108.8829318304182
 20
-131.3961140622031
 30
0.0
 10
108.929440619469
 20
-131.4023152340765
 30
0.0
 10
109.0035101724019
 20
-131.4109279727896
 30
0.0
 10
109.0203911402796
 20
-131.4109279727896
 30
0.0
 10
109.0710340439128
 20
-131.4109279727896
 30
0.0
 10
109.0879150117905
 20
-131.3899128903296
 30
0.0
 10
109.0879150117905
 20
-131.3327243052745
 30
0.0
 10
109.0879150117905
 20
-131.3327243052745
 30
0.0
 10
109.0879150117905
 20
-131.195264995413
 30
0.0
 10
109.0879150117905
 20
-131.195264995413
 30
0.0
 10
109.0879150117905
 20
-131.195264995413
 30
0.0
 10
108.9821505803934
 20
-131.195264995413
 30
0.0
 10
108.9821505803934
 20
-131.195264995413
 30
0.0
 10
108.8488253851142
 20
-131.195264995413
 30
0.0
 10
108.6924180500838
 20
-131.195264995413
 30
0.0
 10
108.569772650809
 20
-131.2076673391599
 30
0.0
 10
108.569772650809
 20
-131.2076673391599
 30
0.0
 10
108.569772650809
 20
-131.0174980683741
 30
0.0
 10
108.569772650809
 20
-131.0174980683741
 30
0.0
 10
108.7368597818436
 20
-131.0343790362518
 30
0.0
 10
108.9673366698068
 20
-131.036446093543
 30
0.0
 10
108.9821505803934
 20
-131.036446093543
 30
0.0
 10
108.9821505803934
 20
-131.036446093543
 30
0.0
 10
109.0879150117905
 20
-131.036446093543
 30
0.0
 10
109.0879150117905
 20
-131.036446093543
 30
0.0
 10
109.0879150117905
 20
-131.036446093543
 30
0.0
 10
109.0879150117905
 20
-130.905187955555
 30
0.0
 10
109.0879150117905
 20
-130.905187955555
 30
0.0
 10
109.0879150117905
 20
-130.905187955555
 30
0.0
 10
109.0500189614528
 20
-130.905187955555
 30
0.0
 10
109.0500189614528
 20
-130.905187955555
 30
0.0
 10
109.0055772296931
 20
-130.905187955555
 30
0.0
 10
108.8805202635785
 20
-130.9096665796858
 30
0.0
 10
108.791636800059
 20
-130.9179348088504
 30
0.0
 10
108.791636800059
 20
-130.9179348088504
 30
0.0
 10
108.791636800059
 20
-130.8376640840441
 30
0.0
 10
108.791636800059
 20
-130.8376640840441
 30
0.0
 10
108.7389268391347
 20
-130.8755601343818
 30
0.0
 10
108.7134331325439
 20
-130.8903740449684
 30
0.0
 10
108.6710584580753
 20
-130.9138006942681
 30
0.0
 10
108.6710584580753
 20
-130.9138006942681
 30
0.0
 10
108.4829562445806
 20
-130.7846096135712
 30
0.0
 10
108.4829562445806
 20
-130.7846096135712
 30
0.0
 10
108.5611599120958
 20
-130.7508476778158
 30
0.0
 10
108.7179117566747
 20
-130.6874579208872
 30
0.0
 10
108.874319091705
 20
-130.5434529296037
 30
0.0
 10
108.9566568738025
 20
-130.4652492620885
 30
0.0
 10
109.0352050508662
 20
-130.3804999131514
 30
0.0
 10
109.0879150117905
 20
-130.2792141058851
 30
0.0
 10
109.0879150117905
 20
-130.2792141058851
 30
0.0
 10
109.2994438745849
 20
-130.3405368055225
 30
0.0
 10
109.2994438745849
 20
-130.3405368055225
 30
0.0
 10
109.3183918997537
 20
-130.3467379773959
 30
0.0
 10
109.329071695758
 20
-130.3553507161091
 30
0.0
 10
109.329071695758
 20
-130.3680975694045
 30
0.0
 10
109.329071695758
 20
-130.3849785372822
 30
0.0
 10
109.3163248424626
 20
-130.3911797091557
 30
0.0
 10
109.2911756454203
 20
-130.4039265624511
 30
0.0
 10
109.3714463702266
 20
-130.5014227646837
 30
0.0
 10
109.5343993866789
 20
-130.5985744573677
 30
0.0
 10
109.5681613224343
 20
-130.6175224825366
 30
0.0
 10
109.7183674855912
 20
-130.706405946056
 30
0.0
 10
109.8327446557015
 20
-130.733966709938
 30
0.0
 10
109.9109483232167
 20
-130.7529147351069
 30
0.0
 10
109.9109483232167
 20
-130.7529147351069
 30
0.0
 10
109.7924370385241
 20
-130.9220689234327
 30
0.0
 10
109.7924370385241
 20
-130.9220689234327
 30
0.0
 10
109.707687689587
 20
-130.8927856118081
 30
0.0
 10
109.6570447859538
 20
-130.8734930770907
 30
0.0
 10
109.5385335012612
 20
-130.8080362628709
 30
0.0
 10
109.5385335012612
 20
-130.8080362628709
 30
0.0
 10
109.5385335012612
 20
-130.9179348088504
 30
0.0
 10
109.5385335012612
 20
-130.9179348088504
 30
0.0
 10
109.4561957191637
 20
-130.9096665796858
 30
0.0
 10
109.329071695758
 20
-130.905187955555
 30
0.0
 10
109.2763617348337
 20
-130.905187955555
 30
0.0
 10
109.2763617348337
 20
-130.905187955555
 30
0.0
 10
109.2763617348337
 20
-131.036446093543
 30
0.0
 10
109.2763617348337
 20
-131.036446093543
 30
0.0
 10
109.2763617348337
 20
-131.036446093543
 30
0.0
 10
109.3969400768174
 20
-131.036446093543
 30
0.0
 10
109.3969400768174
 20
-131.036446093543
 30
0.0
 10
109.3990071341086
 20
-131.036446093543
 30
0.0
 10
109.6315510793629
 20
-131.0343790362518
 30
0.0
 10
109.8093180064018
 20
-131.0174980683741
 30
0.0
 10
109.8093180064018
 20
-131.0174980683741
 30
0.0
 10
109.8093180064018
 20
-131.2076673391599
 30
0.0
 10
109.8093180064018
 20
-131.2076673391599
 30
0.0
 10
109.6804714352535
 20
-131.195264995413
 30
0.0
 10
109.5237195906746
 20
-131.195264995413
 30
0.0
 10
109.3969400768174
 20
-131.195264995413
 30
0.0
 10
109.3969400768174
 20
-131.195264995413
 30
0.0
 10
109.2763617348337
 20
-131.195264995413
 30
0.0
 10
109.2763617348337
 20
-131.195264995413
 30
0.0
 10
109.2763617348337
 20
-131.195264995413
 30
0.0
 10
109.2763617348337
 20
-131.4216077687939
 30
0.0
 10
109.2763617348337
 20
-131.4216077687939
 30
0.0
 10
109.2763617348337
 20
-131.5401190534865
 30
0.0
 10
109.2508680282428
 20
-131.5759480465331
 30
0.0
 10
109.0899820690817
 20
-131.5907619571197
 30
0.0
 10
109.0944606932125
 20
-131.6097099822886
 30
0.0
 10
109.0879150117905
 20
-131.6203897782928
 30
0.0
 10
109.0500189614528
 20
-131.643471918044
 30
0.0
 10
109.0476073946131
 20
-131.6627644527614
 30
0.0
 10
109.0476073946131
 20
-131.6689656246348
 30
0.0
 10
109.045540337322
 20
-131.6837795352214
 30
0.0
 10
109.045540337322
 20
-131.6837795352214
 30
0.0
 10
109.1833441567319
 20
-131.6837795352214
 30
0.0
 10
109.1833441567319
 20
-131.6837795352214
 30
0.0
 10
109.3480197209269
 20
-131.6837795352214
 30
0.0
 10
109.51545136151
 20
-131.6796454206391
 30
0.0
 10
109.6825384925447
 20
-131.6648315100526
 30
0.0
 10
109.6825384925447
 20
-131.6648315100526
 30
0.0
 10
109.6825384925447
 20
-131.8722262582646
 30
0.0
 10
109.6825384925447
 20
-131.8722262582646
 30
0.0
 10
109.4665310056195
 20
-131.8553452903869
 30
0.0
 10
109.2022921819008
 20
-131.8553452903869
 30
0.0
 10
109.1833441567319
 20
-131.8553452903869
 30
0.0
 10
109.1833441567319
 20
-131.8553452903869
 30
0.0
 10
109.0434732800308
 20
-131.8553452903869
 30
0.0
 10
109.0434732800308
 20
-131.8553452903869
 30
0.0
 10
109.0434732800308
 20
-131.8553452903869
 30
0.0
 10
109.0434732800308
 20
-131.9969387148306
 30
0.0
 10
109.0434732800308
 20
-131.9969387148306
 30
0.0
 10
109.0434732800308
 20
-131.9969387148306
 30
0.0
 10
109.2698160534117
 20
-131.9969387148306
 30
0.0
 10
109.2698160534117
 20
-131.9969387148306
 30
0.0
 10
109.4858235403369
 20
-131.9969387148306
 30
0.0
 10
109.7035535750047
 20
-131.9928046002483
 30
0.0
 10
109.9192165523813
 20
-131.9800577469529
 30
0.0
 10
109.9192165523813
 20
-131.9800577469529
 30
0.0
 10
109.9192165523813
 20
-132.187452495165
 30
0.0
 10
109.9192165523813
 20
-132.187452495165
 30
0.0
 10
109.6380967607849
 20
-132.1702270177387
 30
0.0
 10
109.2932427027114
 20
-132.1702270177387
 30
0.0
 10
109.2698160534117
 20
-132.1702270177387
 30
0.0
  0
SPLINE
  5
EA
330
E4
100
AcDbEntity
  8
_U+30EC_U+30A4_U+30E4_U+30FC 1
370
     0
100
AcDbSpline
210
0.0
220
0.0
230
1.0
 70
    11
 71
     3
 72
    23
 73
    19
 74
     0
 42
0.0000000001
 43
0.0000000001
 12
1.0
 22
0.0
 32
0.0
 13
1.0
 23
0.0
 33
0.0
 40
0.0
 40
0.0
 40
0.0
 40
0.0
 40
1.0
 40
1.0
 40
1.0
 40
2.0
 40
2.0
 40
2.0
 40
3.0
 40
3.0
 40
3.0
 40
4.0
 40
4.0
 40
4.0
 40
5.0
 40
5.0
 40
5.0
 40
6.0
 40
6.0
 40
6.0
 40
6.0
 10
108.1508490398026
 20
-131.5421861107777
 30
0.0
 10
108.1508490398026
 20
-131.5632011932377
 30
0.0
 10
108.1529160970937
 20
-131.601441753124
 30
0.0
 10
108.1274223905029
 20
-131.601441753124
 30
0.0
 10
108.1170871040471
 20
-131.601441753124
 30
0.0
 10
108.108474365334
 20
-131.594896071702
 30
0.0
 10
108.0977945693297
 20
-131.5780151038242
 30
0.0
 10
108.0977945693297
 20
-131.5780151038242
 30
0.0
 10
107.9940971952237
 20
-131.3961140622031
 30
0.0
 10
107.9940971952237
 20
-131.3961140622031
 30
0.0
 10
108.2101046821489
 20
-131.2669229815062
 30
0.0
 10
108.4068196343566
 20
-130.9899373044921
 30
0.0
 10
108.4533284234075
 20
-130.9179348088504
 30
0.0
 10
108.4533284234075
 20
-130.9179348088504
 30
0.0
 10
108.5253309190492
 20
-131.0977687931804
 30
0.0
 10
108.5253309190492
 20
-131.0977687931804
 30
0.0
 10
108.3920057237701
 20
-131.2944837453882
 30
0.0
 10
108.2163058540223
 20
-131.4784518443005
 30
0.0
 10
108.1508490398026
 20
-131.5421861107777
 30
0.0
  0
SPLINE
  5
EB
330
E4
100
AcDbEntity
  8
_U+30EC_U+30A4_U+30E4_U+30FC 1
370
     0
100
AcDbSpline
210
0.0
220
0.0
230
1.0
 70
    11
 71
     3
 72
    17
 73
    13
 74
     0
 42
0.0000000001
 43
0.0000000001
 12
1.0
 22
0.0
 32
0.0
 13
1.0
 23
0.0
 33
0.0
 40
0.0
 40
0.0
 40
0.0
 40
0.0
 40
1.0
 40
1.0
 40
1.0
 40
2.0
 40
2.0
 40
2.0
 40
3.0
 40
3.0
 40
3.0
 40
4.0
 40
4.0
 40
4.0
 40
4.0
 10
108.4047525770655
 20
-130.6471503037097
 30
0.0
 10
108.343429877428
 20
-130.5710136934857
 30
0.0
 10
108.2142387967312
 20
-130.4948770832617
 30
0.0
 10
108.1105414226251
 20
-130.4652492620885
 30
0.0
 10
108.1105414226251
 20
-130.4652492620885
 30
0.0
 10
108.2059705675666
 20
-130.3002291883451
 30
0.0
 10
108.2059705675666
 20
-130.3002291883451
 30
0.0
 10
108.3072563748329
 20
-130.3364026909402
 30
0.0
 10
108.4130208062301
 20
-130.3932467664468
 30
0.0
 10
108.5019042697495
 20
-130.4738620008017
 30
0.0
 10
108.5019042697495
 20
-130.4738620008017
 30
0.0
 10
108.4047525770655
 20
-130.6471503037097
 30
0.0
 10
108.4047525770655
 20
-130.6471503037097
 30
0.0
  0
SPLINE
  5
EC
330
E4
100
AcDbEntity
  8
_U+30EC_U+30A4_U+30E4_U+30FC 1
370
     0
100
AcDbSpline
210
0.0
220
0.0
230
1.0
 70
    11
 71
     3
 72
    23
 73
    19
 74
     0
 42
0.0000000001
 43
0.0000000001
 12
1.0
 22
0.0
 32
0.0
 13
1.0
 23
0.0
 33
0.0
 40
0.0
 40
0.0
 40
0.0
 40
0.0
 40
1.0
 40
1.0
 40
1.0
 40
2.0
 40
2.0
 40
2.0
 40
3.0
 40
3.0
 40
3.0
 40
4.0
 40
4.0
 40
4.0
 40
5.0
 40
5.0
 40
5.0
 40
6.0
 40
6.0
 40
6.0
 40
6.0
 10
108.8574381238273
 20
-131.3516723304433
 30
0.0
 10
108.8360785318188
 20
-131.375098979743
 30
0.0
 10
108.7389268391347
 20
-131.4870645830136
 30
0.0
 10
108.5994004719821
 20
-131.56733530782
 30
0.0
 10
108.5994004719821
 20
-131.56733530782
 30
0.0
 10
108.4323133409475
 20
-131.4467569658362
 30
0.0
 10
108.4323133409475
 20
-131.4467569658362
 30
0.0
 10
108.5825195041044
 20
-131.3706203556122
 30
0.0
 10
108.6817382540796
 20
-131.2755357202193
 30
0.0
 10
108.7303141004216
 20
-131.2224812497465
 30
0.0
 10
108.7303141004216
 20
-131.2224812497465
 30
0.0
 10
108.9039469128782
 20
-131.3051635413925
 30
0.0
 10
108.9039469128782
 20
-131.3051635413925
 30
0.0
 10
108.9125596515913
 20
-131.3092976559748
 30
0.0
 10
108.9208278807559
 20
-131.3158433373967
 30
0.0
 10
108.9208278807559
 20
-131.3261786238525
 30
0.0
 10
108.9208278807559
 20
-131.3516723304433
 30
0.0
 10
108.8849988877093
 20
-131.3516723304433
 30
0.0
 10
108.8574381238273
 20
-131.3516723304433
 30
0.0
  0
SPLINE
  5
ED
330
E4
100
AcDbEntity
  8
_U+30EC_U+30A4_U+30E4_U+30FC 1
370
     0
100
AcDbSpline
210
0.0
220
0.0
230
1.0
 70
    11
 71
     3
 72
    20
 73
    16
 74
     0
 42
0.0000000001
 43
0.0000000001
 12
1.0
 22
0.0
 32
0.0
 13
1.0
 23
0.0
 33
0.0
 40
0.0
 40
0.0
 40
0.0
 40
0.0
 40
1.0
 40
1.0
 40
1.0
 40
2.0
 40
2.0
 40
2.0
 40
3.0
 40
3.0
 40
3.0
 40
4.0
 40
4.0
 40
4.0
 40
5.0
 40
5.0
 40
5.0
 40
5.0
 10
109.15578339285
 20
-130.5096909938483
 30
0.0
 10
109.1175428329637
 20
-130.5582668401903
 30
0.0
 10
109.0562201333262
 20
-130.636815017254
 30
0.0
 10
108.9166937661736
 20
-130.7467135632335
 30
0.0
 10
108.9969644909799
 20
-130.7508476778158
 30
0.0
 10
109.0265923121531
 20
-130.7508476778158
 30
0.0
 10
109.0500189614528
 20
-130.7508476778158
 30
0.0
 10
109.0500189614528
 20
-130.7508476778158
 30
0.0
 10
109.2784287921248
 20
-130.7508476778158
 30
0.0
 10
109.2784287921248
 20
-130.7508476778158
 30
0.0
 10
109.3101236705891
 20
-130.7508476778158
 30
0.0
 10
109.3586995169312
 20
-130.7487806205246
 30
0.0
 10
109.432769069864
 20
-130.7467135632335
 30
0.0
 10
109.3208034665934
 20
-130.6726440103006
 30
0.0
 10
109.2718831107029
 20
-130.6261352212497
 30
0.0
 10
109.15578339285
 20
-130.5096909938483
 30
0.0
  0
SPLINE
  5
EE
330
E4
100
AcDbEntity
  8
_U+30EC_U+30A4_U+30E4_U+30FC 1
370
     0
100
AcDbSpline
210
0.0
220
0.0
230
1.0
 70
    11
 71
     3
 72
    17
 73
    13
 74
     0
 42
0.0000000001
 43
0.0000000001
 12
1.0
 22
0.0
 32
0.0
 13
1.0
 23
0.0
 33
0.0
 40
0.0
 40
0.0
 40
0.0
 40
0.0
 40
1.0
 40
1.0
 40
1.0
 40
2.0
 40
2.0
 40
2.0
 40
3.0
 40
3.0
 40
3.0
 40
4.0
 40
4.0
 40
4.0
 40
4.0
 10
109.7163004283001
 20
-131.5652682505288
 30
0.0
 10
109.5809081757298
 20
-131.4533026472582
 30
0.0
 10
109.4751437443326
 20
-131.3899128903296
 30
0.0
 10
109.35663245964
 20
-131.3261786238525
 30
0.0
 10
109.35663245964
 20
-131.3261786238525
 30
0.0
 10
109.4834119734972
 20
-131.2142130205819
 30
0.0
 10
109.4834119734972
 20
-131.2142130205819
 30
0.0
 10
109.6146701114852
 20
-131.2607218096327
 30
0.0
 10
109.7249131670132
 20
-131.3179103946879
 30
0.0
 10
109.8496256235793
 20
-131.4195407115027
 30
0.0
 10
109.8496256235793
 20
-131.4195407115027
 30
0.0
 10
109.7163004283001
 20
-131.5652682505288
 30
0.0
 10
109.7163004283001
 20
-131.5652682505288
 30
0.0
  0
HATCH
  5
EF
330
E4
100
AcDbEntity
  8
_U+30EC_U+30A4_U+30E4_U+30FC 1
 62
   179
420
  2234388
100
AcDbHatch
 10
0.0
 20
0.0
 30
0.0
210
0.0
220
0.0
230
1.0
  2
SOLID
 70
     1
 71
     0
 91
        7
 92
        1
 93
        1
 72
     4
 94
        3
 73
     0
 74
     1
 95
       17
 96
       13
 40
0.0
 40
0.0
 40
0.0
 40
0.0
 40
1.0
 40
1.0
 40
1.0
 40
2.0
 40
2.0
 40
2.0
 40
3.0
 40
3.0
 40
3.0
 40
4.0
 40
4.0
 40
4.0
 40
4.0
 10
108.2249185927354
 20
-130.9920043617832
 10
108.1191541613383
 20
-130.8862399303861
 10
108.0385389269834
 20
-130.8483438800483
 10
107.9455213488817
 20
-130.8163044920355
 10
107.9455213488817
 20
-130.8163044920355
 10
108.0557644044097
 20
-130.6512844182921
 10
108.0557644044097
 20
-130.6512844182921
 10
108.1529160970937
 20
-130.6936590927606
 10
108.2734944390775
 20
-130.7722072698243
 10
108.3265489095503
 20
-130.8269842880398
 10
108.3265489095503
 20
-130.8269842880398
 10
108.2249185927354
 20
-130.9920043617832
 10
108.2249185927354
 20
-130.9920043617832
 97
        0
 97
        0
 92
        1
 93
        1
 72
     4
 94
        3
 73
     0
 74
     1
 95
      182
 96
      178
 40
0.0
 40
0.0
 40
0.0
 40
0.0
 40
1.0
 40
1.0
 40
1.0
 40
2.0
 40
2.0
 40
2.0
 40
3.0
 40
3.0
 40
3.0
 40
4.0
 40
4.0
 40
4.0
 40
5.0
 40
5.0
 40
5.0
 40
6.0
 40
6.0
 40
6.0
 40
7.0
 40
7.0
 40
7.0
 40
8.0
 40
8.0
 40
8.0
 40
9.0
 40
9.0
 40
9.0
 40
10.0
 40
10.0
 40
10.0
 40
11.0
 40
11.0
 40
11.0
 40
12.0
 40
12.0
 40
12.0
 40
13.0
 40
13.0
 40
13.0
 40
14.0
 40
14.0
 40
14.0
 40
15.0
 40
15.0
 40
15.0
 40
16.0
 40
16.0
 40
16.0
 40
17.0
 40
17.0
 40
17.0
 40
18.0
 40
18.0
 40
18.0
 40
19.0
 40
19.0
 40
19.0
 40
20.0
 40
20.0
 40
20.0
 40
21.0
 40
21.0
 40
21.0
 40
22.0
 40
22.0
 40
22.0
 40
23.0
 40
23.0
 40
23.0
 40
24.0
 40
24.0
 40
24.0
 40
25.0
 40
25.0
 40
25.0
 40
26.0
 40
26.0
 40
26.0
 40
27.0
 40
27.0
 40
27.0
 40
28.0
 40
28.0
 40
28.0
 40
29.0
 40
29.0
 40
29.0
 40
30.0
 40
30.0
 40
30.0
 40
31.0
 40
31.0
 40
31.0
 40
32.0
 40
32.0
 40
32.0
 40
33.0
 40
33.0
 40
33.0
 40
34.0
 40
34.0
 40
34.0
 40
35.0
 40
35.0
 40
35.0
 40
36.0
 40
36.0
 40
36.0
 40
37.0
 40
37.0
 40
37.0
 40
38.0
 40
38.0
 40
38.0
 40
39.0
 40
39.0
 40
39.0
 40
40.0
 40
40.0
 40
40.0
 40
41.0
 40
41.0
 40
41.0
 40
42.0
 40
42.0
 40
42.0
 40
43.0
 40
43.0
 40
43.0
 40
44.0
 40
44.0
 40
44.0
 40
45.0
 40
45.0
 40
45.0
 40
46.0
 40
46.0
 40
46.0
 40
47.0
 40
47.0
 40
47.0
 40
48.0
 40
48.0
 40
48.0
 40
49.0
 40
49.0
 40
49.0
 40
50.0
 40
50.0
 40
50.0
 40
51.0
 40
51.0
 40
51.0
 40
52.0
 40
52.0
 40
52.0
 40
53.0
 40
53.0
 40
53.0
 40
54.0
 40
54.0
 40
54.0
 40
55.0
 40
55.0
 40
55.0
 40
56.0
 40
56.0
 40
56.0
 40
57.0
 40
57.0
 40
57.0
 40
58.0
 40
58.0
 40
58.0
 40
59.0
 40
59.0
 40
59.0
 40
59.0
 10
109.2698160534117
 20
-132.1702270177387
 10
109.2698160534117
 20
-132.1702270177387
 10
108.6331624077375
 20
-132.1702270177387
 10
108.6331624077375
 20
-132.1702270177387
 10
108.4195664876521
 20
-132.1702270177387
 10
108.2035590007269
 20
-132.1747056418695
 10
107.9899630806414
 20
-132.187452495165
 10
107.9899630806414
 20
-132.187452495165
 10
107.9899630806414
 20
-131.9800577469529
 10
107.9899630806414
 20
-131.9800577469529
 10
108.21217173944
 20
-131.9928046002483
 10
108.535666205505
 20
-131.9969387148306
 10
108.6331624077375
 20
-131.9969387148306
 10
108.6331624077375
 20
-131.9969387148306
 10
108.853304009245
 20
-131.9969387148306
 10
108.853304009245
 20
-131.9969387148306
 10
108.853304009245
 20
-131.9969387148306
 10
108.853304009245
 20
-131.8553452903869
 10
108.853304009245
 20
-131.8553452903869
 10
108.853304009245
 20
-131.8553452903869
 10
108.6924180500838
 20
-131.8553452903869
 10
108.6924180500838
 20
-131.8553452903869
 10
108.5273979763404
 20
-131.8553452903869
 10
108.3623779025969
 20
-131.8594794049692
 10
108.1973578288534
 20
-131.8742933155557
 10
108.1973578288534
 20
-131.8742933155557
 10
108.1973578288534
 20
-131.6648315100526
 10
108.1973578288534
 20
-131.6648315100526
 10
108.3685790744704
 20
-131.6796454206391
 10
108.6162814398598
 20
-131.6837795352214
 10
108.6924180500838
 20
-131.6837795352214
 10
108.6924180500838
 20
-131.6837795352214
 10
108.853304009245
 20
-131.6837795352214
 10
108.853304009245
 20
-131.6837795352214
 10
108.8488253851142
 20
-131.6117770395797
 10
108.8488253851142
 20
-131.6055758677062
 10
108.8426242132407
 20
-131.5525213972334
 10
108.8426242132407
 20
-131.5525213972334
 10
108.9821505803934
 20
-131.56733530782
 10
108.9821505803934
 20
-131.56733530782
 10
108.9821505803934
 20
-131.56733530782
 10
108.8829318304182
 20
-131.3961140622031
 10
108.8829318304182
 20
-131.3961140622031
 10
108.929440619469
 20
-131.4023152340765
 10
109.0035101724019
 20
-131.4109279727896
 10
109.0203911402796
 20
-131.4109279727896
 10
109.0710340439128
 20
-131.4109279727896
 10
109.0879150117905
 20
-131.3899128903296
 10
109.0879150117905
 20
-131.3327243052745
 10
109.0879150117905
 20
-131.3327243052745
 10
109.0879150117905
 20
-131.195264995413
 10
109.0879150117905
 20
-131.195264995413
 10
109.0879150117905
 20
-131.195264995413
 10
108.9821505803934
 20
-131.195264995413
 10
108.9821505803934
 20
-131.195264995413
 10
108.8488253851142
 20
-131.195264995413
 10
108.6924180500838
 20
-131.195264995413
 10
108.569772650809
 20
-131.2076673391599
 10
108.569772650809
 20
-131.2076673391599
 10
108.569772650809
 20
-131.0174980683741
 10
108.569772650809
 20
-131.0174980683741
 10
108.7368597818436
 20
-131.0343790362518
 10
108.9673366698068
 20
-131.036446093543
 10
108.9821505803934
 20
-131.036446093543
 10
108.9821505803934
 20
-131.036446093543
 10
109.0879150117905
 20
-131.036446093543
 10
109.0879150117905
 20
-131.036446093543
 10
109.0879150117905
 20
-131.036446093543
 10
109.0879150117905
 20
-130.905187955555
 10
109.0879150117905
 20
-130.905187955555
 10
109.0879150117905
 20
-130.905187955555
 10
109.0500189614528
 20
-130.905187955555
 10
109.0500189614528
 20
-130.905187955555
 10
109.0055772296931
 20
-130.905187955555
 10
108.8805202635785
 20
-130.9096665796858
 10
108.791636800059
 20
-130.9179348088504
 10
108.791636800059
 20
-130.9179348088504
 10
108.791636800059
 20
-130.8376640840441
 10
108.791636800059
 20
-130.8376640840441
 10
108.7389268391347
 20
-130.8755601343818
 10
108.7134331325439
 20
-130.8903740449684
 10
108.6710584580753
 20
-130.9138006942681
 10
108.6710584580753
 20
-130.9138006942681
 10
108.4829562445806
 20
-130.7846096135712
 10
108.4829562445806
 20
-130.7846096135712
 10
108.5611599120958
 20
-130.7508476778158
 10
108.7179117566747
 20
-130.6874579208872
 10
108.874319091705
 20
-130.5434529296037
 10
108.9566568738025
 20
-130.4652492620885
 10
109.0352050508662
 20
-130.3804999131514
 10
109.0879150117905
 20
-130.2792141058851
 10
109.0879150117905
 20
-130.2792141058851
 10
109.2994438745849
 20
-130.3405368055225
 10
109.2994438745849
 20
-130.3405368055225
 10
109.3183918997537
 20
-130.3467379773959
 10
109.329071695758
 20
-130.3553507161091
 10
109.329071695758
 20
-130.3680975694045
 10
109.329071695758
 20
-130.3849785372822
 10
109.3163248424626
 20
-130.3911797091557
 10
109.2911756454203
 20
-130.4039265624511
 10
109.3714463702266
 20
-130.5014227646837
 10
109.5343993866789
 20
-130.5985744573677
 10
109.5681613224343
 20
-130.6175224825366
 10
109.7183674855912
 20
-130.706405946056
 10
109.8327446557015
 20
-130.733966709938
 10
109.9109483232167
 20
-130.7529147351069
 10
109.9109483232167
 20
-130.7529147351069
 10
109.7924370385241
 20
-130.9220689234327
 10
109.7924370385241
 20
-130.9220689234327
 10
109.707687689587
 20
-130.8927856118081
 10
109.6570447859538
 20
-130.8734930770907
 10
109.5385335012612
 20
-130.8080362628709
 10
109.5385335012612
 20
-130.8080362628709
 10
109.5385335012612
 20
-130.9179348088504
 10
109.5385335012612
 20
-130.9179348088504
 10
109.4561957191637
 20
-130.9096665796858
 10
109.329071695758
 20
-130.905187955555
 10
109.2763617348337
 20
-130.905187955555
 10
109.2763617348337
 20
-130.905187955555
 10
109.2763617348337
 20
-131.036446093543
 10
109.2763617348337
 20
-131.036446093543
 10
109.2763617348337
 20
-131.036446093543
 10
109.3969400768174
 20
-131.036446093543
 10
109.3969400768174
 20
-131.036446093543
 10
109.3990071341086
 20
-131.036446093543
 10
109.6315510793629
 20
-131.0343790362518
 10
109.8093180064018
 20
-131.0174980683741
 10
109.8093180064018
 20
-131.0174980683741
 10
109.8093180064018
 20
-131.2076673391599
 10
109.8093180064018
 20
-131.2076673391599
 10
109.6804714352535
 20
-131.195264995413
 10
109.5237195906746
 20
-131.195264995413
 10
109.3969400768174
 20
-131.195264995413
 10
109.3969400768174
 20
-131.195264995413
 10
109.2763617348337
 20
-131.195264995413
 10
109.2763617348337
 20
-131.195264995413
 10
109.2763617348337
 20
-131.195264995413
 10
109.2763617348337
 20
-131.4216077687939
 10
109.2763617348337
 20
-131.4216077687939
 10
109.2763617348337
 20
-131.5401190534865
 10
109.2508680282428
 20
-131.5759480465331
 10
109.0899820690817
 20
-131.5907619571197
 10
109.0944606932125
 20
-131.6097099822886
 10
109.0879150117905
 20
-131.6203897782928
 10
109.0500189614528
 20
-131.643471918044
 10
109.0476073946131
 20
-131.6627644527614
 10
109.0476073946131
 20
-131.6689656246348
 10
109.045540337322
 20
-131.6837795352214
 10
109.045540337322
 20
-131.6837795352214
 10
109.1833441567319
 20
-131.6837795352214
 10
109.1833441567319
 20
-131.6837795352214
 10
109.3480197209269
 20
-131.6837795352214
 10
109.51545136151
 20
-131.6796454206391
 10
109.6825384925447
 20
-131.6648315100526
 10
109.6825384925447
 20
-131.6648315100526
 10
109.6825384925447
 20
-131.8722262582646
 10
109.6825384925447
 20
-131.8722262582646
 10
109.4665310056195
 20
-131.8553452903869
 10
109.2022921819008
 20
-131.8553452903869
 10
109.1833441567319
 20
-131.8553452903869
 10
109.1833441567319
 20
-131.8553452903869
 10
109.0434732800308
 20
-131.8553452903869
 10
109.0434732800308
 20
-131.8553452903869
 10
109.0434732800308
 20
-131.8553452903869
 10
109.0434732800308
 20
-131.9969387148306
 10
109.0434732800308
 20
-131.9969387148306
 10
109.0434732800308
 20
-131.9969387148306
 10
109.2698160534117
 20
-131.9969387148306
 10
109.2698160534117
 20
-131.9969387148306
 10
109.4858235403369
 20
-131.9969387148306
 10
109.7035535750047
 20
-131.9928046002483
 10
109.9192165523813
 20
-131.9800577469529
 10
109.9192165523813
 20
-131.9800577469529
 10
109.9192165523813
 20
-132.187452495165
 10
109.9192165523813
 20
-132.187452495165
 10
109.6380967607849
 20
-132.1702270177387
 10
109.2932427027114
 20
-132.1702270177387
 10
109.2698160534117
 20
-132.1702270177387
 97
        0
 97
        0
 92
        1
 93
        1
 72
     4
 94
        3
 73
     0
 74
     1
 95
       23
 96
       19
 40
0.0
 40
0.0
 40
0.0
 40
0.0
 40
1.0
 40
1.0
 40
1.0
 40
2.0
 40
2.0
 40
2.0
 40
3.0
 40
3.0
 40
3.0
 40
4.0
 40
4.0
 40
4.0
 40
5.0
 40
5.0
 40
5.0
 40
6.0
 40
6.0
 40
6.0
 40
6.0
 10
108.1508490398026
 20
-131.5421861107777
 10
108.1508490398026
 20
-131.5632011932377
 10
108.1529160970937
 20
-131.601441753124
 10
108.1274223905029
 20
-131.601441753124
 10
108.1170871040471
 20
-131.601441753124
 10
108.108474365334
 20
-131.594896071702
 10
108.0977945693297
 20
-131.5780151038242
 10
108.0977945693297
 20
-131.5780151038242
 10
107.9940971952237
 20
-131.3961140622031
 10
107.9940971952237
 20
-131.3961140622031
 10
108.2101046821489
 20
-131.2669229815062
 10
108.4068196343566
 20
-130.9899373044921
 10
108.4533284234075
 20
-130.9179348088504
 10
108.4533284234075
 20
-130.9179348088504
 10
108.5253309190492
 20
-131.0977687931804
 10
108.5253309190492
 20
-131.0977687931804
 10
108.3920057237701
 20
-131.2944837453882
 10
108.2163058540223
 20
-131.4784518443005
 10
108.1508490398026
 20
-131.5421861107777
 97
        0
 97
        0
 92
        1
 93
        1
 72
     4
 94
        3
 73
     0
 74
     1
 95
       17
 96
       13
 40
0.0
 40
0.0
 40
0.0
 40
0.0
 40
1.0
 40
1.0
 40
1.0
 40
2.0
 40
2.0
 40
2.0
 40
3.0
 40
3.0
 40
3.0
 40
4.0
 40
4.0
 40
4.0
 40
4.0
 10
108.4047525770655
 20
-130.6471503037097
 10
108.343429877428
 20
-130.5710136934857
 10
108.2142387967312
 20
-130.4948770832617
 10
108.1105414226251
 20
-130.4652492620885
 10
108.1105414226251
 20
-130.4652492620885
 10
108.2059705675666
 20
-130.3002291883451
 10
108.2059705675666
 20
-130.3002291883451
 10
108.3072563748329
 20
-130.3364026909402
 10
108.4130208062301
 20
-130.3932467664468
 10
108.5019042697495
 20
-130.4738620008017
 10
108.5019042697495
 20
-130.4738620008017
 10
108.4047525770655
 20
-130.6471503037097
 10
108.4047525770655
 20
-130.6471503037097
 97
        0
 97
        0
 92
        1
 93
        1
 72
     4
 94
        3
 73
     0
 74
     1
 95
       23
 96
       19
 40
0.0
 40
0.0
 40
0.0
 40
0.0
 40
1.0
 40
1.0
 40
1.0
 40
2.0
 40
2.0
 40
2.0
 40
3.0
 40
3.0
 40
3.0
 40
4.0
 40
4.0
 40
4.0
 40
5.0
 40
5.0
 40
5.0
 40
6.0
 40
6.0
 40
6.0
 40
6.0
 10
108.8574381238273
 20
-131.3516723304433
 10
108.8360785318188
 20
-131.375098979743
 10
108.7389268391347
 20
-131.4870645830136
 10
108.5994004719821
 20
-131.56733530782
 10
108.5994004719821
 20
-131.56733530782
 10
108.4323133409475
 20
-131.4467569658362
 10
108.4323133409475
 20
-131.4467569658362
 10
108.5825195041044
 20
-131.3706203556122
 10
108.6817382540796
 20
-131.2755357202193
 10
108.7303141004216
 20
-131.2224812497465
 10
108.7303141004216
 20
-131.2224812497465
 10
108.9039469128782
 20
-131.3051635413925
 10
108.9039469128782
 20
-131.3051635413925
 10
108.9125596515913
 20
-131.3092976559748
 10
108.9208278807559
 20
-131.3158433373967
 10
108.9208278807559
 20
-131.3261786238525
 10
108.9208278807559
 20
-131.3516723304433
 10
108.8849988877093
 20
-131.3516723304433
 10
108.8574381238273
 20
-131.3516723304433
 97
        0
 97
        0
 92
        1
 93
        1
 72
     4
 94
        3
 73
     0
 74
     1
 95
       20
 96
       16
 40
0.0
 40
0.0
 40
0.0
 40
0.0
 40
1.0
 40
1.0
 40
1.0
 40
2.0
 40
2.0
 40
2.0
 40
3.0
 40
3.0
 40
3.0
 40
4.0
 40
4.0
 40
4.0
 40
5.0
 40
5.0
 40
5.0
 40
5.0
 10
109.15578339285
 20
-130.5096909938483
 10
109.1175428329637
 20
-130.5582668401903
 10
109.0562201333262
 20
-130.636815017254
 10
108.9166937661736
 20
-130.7467135632335
 10
108.9969644909799
 20
-130.7508476778158
 10
109.0265923121531
 20
-130.7508476778158
 10
109.0500189614528
 20
-130.7508476778158
 10
109.0500189614528
 20
-130.7508476778158
 10
109.2784287921248
 20
-130.7508476778158
 10
109.2784287921248
 20
-130.7508476778158
 10
109.3101236705891
 20
-130.7508476778158
 10
109.3586995169312
 20
-130.7487806205246
 10
109.432769069864
 20
-130.7467135632335
 10
109.3208034665934
 20
-130.6726440103006
 10
109.2718831107029
 20
-130.6261352212497
 10
109.15578339285
 20
-130.5096909938483
 97
        0
 97
        0
 92
        1
 93
        1
 72
     4
 94
        3
 73
     0
 74
     1
 95
       17
 96
       13
 40
0.0
 40
0.0
 40
0.0
 40
0.0
 40
1.0
 40
1.0
 40
1.0
 40
2.0
 40
2.0
 40
2.0
 40
3.0
 40
3.0
 40
3.0
 40
4.0
 40
4.0
 40
4.0
 40
4.0
 10
109.7163004283001
 20
-131.5652682505288
 10
109.5809081757298
 20
-131.4533026472582
 10
109.4751437443326
 20
-131.3899128903296
 10
109.35663245964
 20
-131.3261786238525
 10
109.35663245964
 20
-131.3261786238525
 10
109.4834119734972
 20
-131.2142130205819
 10
109.4834119734972
 20
-131.2142130205819
 10
109.6146701114852
 20
-131.2607218096327
 10
109.7249131670132
 20
-131.3179103946879
 10
109.8496256235793
 20
-131.4195407115027
 10
109.8496256235793
 20
-131.4195407115027
 10
109.7163004283001
 20
-131.5652682505288
 10
109.7163004283001
 20
-131.5652682505288
 97
        0
 97
        0
 75
     2
 76
     1
 98
        0
  0
SPLINE
  5
F0
330
E4
100
AcDbEntity
  8
_U+30EC_U+30A4_U+30E4_U+30FC 1
370
     0
100
AcDbSpline
210
0.0
220
0.0
230
1.0
 70
    11
 71
     3
 72
   113
 73
   109
 74
     0
 42
0.0000000001
 43
0.0000000001
 12
1.0
 22
0.0
 32
0.0
 13
1.0
 23
0.0
 33
0.0
 40
0.0
 40
0.0
 40
0.0
 40
0.0
 40
1.0
 40
1.0
 40
1.0
 40
2.0
 40
2.0
 40
2.0
 40
3.0
 40
3.0
 40
3.0
 40
4.0
 40
4.0
 40
4.0
 40
5.0
 40
5.0
 40
5.0
 40
6.0
 40
6.0
 40
6.0
 40
7.0
 40
7.0
 40
7.0
 40
8.0
 40
8.0
 40
8.0
 40
9.0
 40
9.0
 40
9.0
 40
10.0
 40
10.0
 40
10.0
 40
11.0
 40
11.0
 40
11.0
 40
12.0
 40
12.0
 40
12.0
 40
13.0
 40
13.0
 40
13.0
 40
14.0
 40
14.0
 40
14.0
 40
15.0
 40
15.0
 40
15.0
 40
16.0
 40
16.0
 40
16.0
 40
17.0
 40
17.0
 40
17.0
 40
18.0
 40
18.0
 40
18.0
 40
19.0
 40
19.0
 40
19.0
 40
20.0
 40
20.0
 40
20.0
 40
21.0
 40
21.0
 40
21.0
 40
22.0
 40
22.0
 40
22.0
 40
23.0
 40
23.0
 40
23.0
 40
24.0
 40
24.0
 40
24.0
 40
25.0
 40
25.0
 40
25.0
 40
26.0
 40
26.0
 40
26.0
 40
27.0
 40
27.0
 40
27.0
 40
28.0
 40
28.0
 40
28.0
 40
29.0
 40
29.0
 40
29.0
 40
30.0
 40
30.0
 40
30.0
 40
31.0
 40
31.0
 40
31.0
 40
32.0
 40
32.0
 40
32.0
 40
33.0
 40
33.0
 40
33.0
 40
34.0
 40
34.0
 40
34.0
 40
35.0
 40
35.0
 40
35.0
 40
36.0
 40
36.0
 40
36.0
 40
36.0
 10
111.5959445250524
 20
-131.5421861107777
 30
0.0
 10
111.5959445250524
 20
-131.5421861107777
 30
0.0
 10
111.6955077845761
 20
-131.6414048607529
 30
0.0
 10
111.6955077845761
 20
-131.6414048607529
 30
0.0
 10
111.7058430710319
 20
-131.6520846567571
 30
0.0
 10
111.7165228670361
 20
-131.6648315100526
 30
0.0
 10
111.7165228670361
 20
-131.6796454206391
 30
0.0
 10
111.7165228670361
 20
-131.6817124779303
 30
0.0
 10
111.7165228670361
 20
-131.7113402991034
 30
0.0
 10
111.6786268166984
 20
-131.7113402991034
 30
0.0
 10
111.6700140779853
 20
-131.7113402991034
 30
0.0
 10
111.6297064608079
 20
-131.7072061845211
 30
0.0
 10
111.6235052889344
 20
-131.7072061845211
 30
0.0
 10
111.583197671757
 20
-131.7389010629854
 30
0.0
 10
111.5366888827061
 20
-131.7726629987409
 30
0.0
 10
111.4374701327309
 20
-131.829851583796
 30
0.0
 10
111.583197671757
 20
-131.9376830724843
 30
0.0
 10
111.742016573627
 20
-131.9948716575395
 30
0.0
 10
112.0148681360588
 20
-132.0327677078772
 30
0.0
 10
112.0148681360588
 20
-132.0327677078772
 30
0.0
 10
111.8646619729019
 20
-132.208467577625
 30
0.0
 10
111.8646619729019
 20
-132.208467577625
 30
0.0
 10
111.6024902064744
 20
-132.1364650819833
 30
0.0
 10
111.4457383618955
 20
-132.0475816184638
 30
0.0
 10
111.3696017516715
 20
-131.9948716575395
 30
0.0
 10
111.2193955885146
 20
-131.8932413407246
 30
0.0
 10
111.0757351067797
 20
-131.7302883242723
 30
0.0
 10
110.9995984965557
 20
-131.5652682505288
 30
0.0
 10
110.9317301154962
 20
-131.6310695742971
 30
0.0
 10
110.8576605625634
 20
-131.6837795352214
 30
0.0
 10
110.7794568950482
 20
-131.7323553815635
 30
0.0
 10
110.7794568950482
 20
-131.7323553815635
 30
0.0
 10
110.7794568950482
 20
-131.9841918615352
 30
0.0
 10
110.7794568950482
 20
-131.9841918615352
 30
0.0
 10
110.9424099115005
 20
-131.9586981549444
 30
0.0
 10
111.128445067704
 20
-131.9142564231846
 30
0.0
 10
111.1918348246326
 20
-131.8994425125981
 30
0.0
 10
111.1918348246326
 20
-131.8994425125981
 30
0.0
 10
111.1622070034595
 20
-132.0689412104724
 30
0.0
 10
111.1622070034595
 20
-132.0689412104724
 30
0.0
 10
111.1601399461683
 20
-132.0689412104724
 30
0.0
 10
111.1411919209994
 20
-132.0751423823458
 30
0.0
 10
111.1391248637083
 20
-132.0751423823458
 30
0.0
 10
110.9403428542094
 20
-132.1133829422321
 30
0.0
 10
110.6227050504693
 20
-132.1788397564518
 30
0.0
 10
110.4259900982616
 20
-132.2146687494984
 30
0.0
 10
110.4156548118058
 20
-132.2318942269247
 30
0.0
 10
110.3922281625061
 20
-132.263589105389
 30
0.0
 10
110.3691460227549
 20
-132.263589105389
 30
0.0
 10
110.3415852588729
 20
-132.263589105389
 30
0.0
 10
110.3374511442906
 20
-132.2442965706716
 30
0.0
 10
110.335039577451
 20
-132.2253485455027
 30
0.0
 10
110.335039577451
 20
-132.2253485455027
 30
0.0
 10
110.3098903804086
 20
-132.0520602425946
 30
0.0
 10
110.3098903804086
 20
-132.0520602425946
 30
0.0
 10
110.3839599333415
 20
-132.0434475038815
 30
0.0
 10
110.4917914220298
 20
-132.0307006505861
 30
0.0
 10
110.5996229107182
 20
-132.0096855681261
 30
0.0
 10
110.5996229107182
 20
-132.0096855681261
 30
0.0
 10
110.5996229107182
 20
-131.8319186410872
 30
0.0
 10
110.5996229107182
 20
-131.8319186410872
 30
0.0
 10
110.4556179194347
 20
-131.9039211367289
 30
0.0
 10
110.3605332840418
 20
-131.933548957902
 30
0.0
 10
110.1955132102983
 20
-131.9631767790752
 30
0.0
 10
110.1955132102983
 20
-131.9631767790752
 30
0.0
 10
110.0749348683146
 20
-131.7936780812009
 30
0.0
 10
110.0749348683146
 20
-131.7936780812009
 30
0.0
 10
110.3922281625061
 20
-131.7664618268674
 30
0.0
 10
110.5848090001316
 20
-131.6730997392172
 30
0.0
 10
110.7625759271705
 20
-131.5401190534865
 30
0.0
 10
110.6165038785959
 20
-131.5401190534865
 30
0.0
 10
110.3160915522821
 20
-131.5442531680688
 30
0.0
 10
110.1193766000743
 20
-131.5504543399423
 30
0.0
 10
110.1193766000743
 20
-131.5504543399423
 30
0.0
 10
110.1193766000743
 20
-131.3726874129034
 30
0.0
 10
110.1193766000743
 20
-131.3726874129034
 30
0.0
 10
110.2737168778135
 20
-131.3792330943253
 30
0.0
 10
110.569995089545
 20
-131.3854342661988
 30
0.0
 10
110.7539631884573
 20
-131.3854342661988
 30
0.0
 10
110.7539631884573
 20
-131.3854342661988
 30
0.0
 10
110.9654920512517
 20
-131.3854342661988
 30
0.0
 10
110.9654920512517
 20
-131.3854342661988
 30
0.0
 10
110.9654920512517
 20
-131.2903496308059
 30
0.0
 10
110.9634249939605
 20
-131.2397067271727
 30
0.0
 10
110.9572238220871
 20
-131.1928534285733
 30
0.0
 10
110.9572238220871
 20
-131.1928534285733
 30
0.0
 10
111.1728867994637
 20
-131.2100789059996
 30
0.0
 10
111.1728867994637
 20
-131.2100789059996
 30
0.0
 10
111.2214626458057
 20
-131.2142130205819
 30
0.0
 10
111.2300753845189
 20
-131.2290269311684
 30
0.0
 10
111.2300753845189
 20
-131.243840841755
 30
0.0
 10
111.2300753845189
 20
-131.2693345483459
 30
0.0
 10
111.2131944166411
 20
-131.2776027775105
 30
0.0
 10
111.1622070034595
 20
-131.3030964841013
 30
0.0
 10
111.1601399461683
 20
-131.3285901906922
 30
0.0
 10
111.1601399461683
 20
-131.3347913625656
 30
0.0
 10
111.1580728888772
 20
-131.3854342661988
 30
0.0
 10
111.1580728888772
 20
-131.3854342661988
 30
0.0
 10
111.3885497768404
 20
-131.3854342661988
 30
0.0
 10
111.3885497768404
 20
-131.3854342661988
 30
0.0
 10
111.5535698505838
 20
-131.3854342661988
 30
0.0
 10
111.845713947733
 20
-131.3792330943253
 30
0.0
 10
112.0255479320631
 20
-131.3726874129034
 30
0.0
 10
112.0255479320631
 20
-131.3726874129034
 30
0.0
 10
112.0255479320631
 20
-131.5504543399423
 30
0.0
 10
112.0255479320631
 20
-131.5504543399423
 30
0.0
 10
111.8963568513662
 20
-131.5463202253599
 30
0.0
 10
111.873274711615
 20
-131.5463202253599
 30
0.0
 10
111.5959445250524
 20
-131.5421861107777
 30
0.0
  0
SPLINE
  5
F1
330
E4
100
AcDbEntity
  8
_U+30EC_U+30A4_U+30E4_U+30FC 1
370
     0
100
AcDbSpline
210
0.0
220
0.0
230
1.0
 70
    11
 71
     3
 72
    23
 73
    19
 74
     0
 42
0.0000000001
 43
0.0000000001
 12
1.0
 22
0.0
 32
0.0
 13
1.0
 23
0.0
 33
0.0
 40
0.0
 40
0.0
 40
0.0
 40
0.0
 40
1.0
 40
1.0
 40
1.0
 40
2.0
 40
2.0
 40
2.0
 40
3.0
 40
3.0
 40
3.0
 40
4.0
 40
4.0
 40
4.0
 40
5.0
 40
5.0
 40
5.0
 40
6.0
 40
6.0
 40
6.0
 40
6.0
 10
110.3119574376998
 20
-131.1907863712822
 30
0.0
 10
110.2950764698221
 20
-131.2310939884596
 30
0.0
 10
110.2885307884001
 20
-131.2479749563373
 30
0.0
 10
110.2675157059401
 20
-131.2479749563373
 30
0.0
 10
110.2527017953535
 20
-131.2479749563373
 30
0.0
 10
110.2420219993492
 20
-131.2310939884596
 30
0.0
 10
110.2358208274758
 20
-131.2183471351642
 30
0.0
 10
110.2358208274758
 20
-131.2183471351642
 30
0.0
 10
110.1362575679521
 20
-131.0533270614207
 30
0.0
 10
110.1362575679521
 20
-131.0533270614207
 30
0.0
 10
110.2378878847669
 20
-131.0216321829564
 30
0.0
 10
110.3880940479238
 20
-130.9665106551924
 30
0.0
 10
110.5868760574227
 20
-130.8039021482886
 30
0.0
 10
110.5868760574227
 20
-130.8039021482886
 30
0.0
 10
110.6440646424779
 20
-130.9771904511967
 30
0.0
 10
110.6440646424779
 20
-130.9771904511967
 30
0.0
 10
110.5510470643761
 20
-131.0598727428427
 30
0.0
 10
110.4621636008567
 20
-131.1167168183493
 30
0.0
 10
110.3119574376998
 20
-131.1907863712822
 30
0.0
  0
SPLINE
  5
F2
330
E4
100
AcDbEntity
  8
_U+30EC_U+30A4_U+30E4_U+30FC 1
370
     0
100
AcDbSpline
210
0.0
220
0.0
230
1.0
 70
    11
 71
     3
 72
    17
 73
    13
 74
     0
 42
0.0000000001
 43
0.0000000001
 12
1.0
 22
0.0
 32
0.0
 13
1.0
 23
0.0
 33
0.0
 40
0.0
 40
0.0
 40
0.0
 40
0.0
 40
1.0
 40
1.0
 40
1.0
 40
2.0
 40
2.0
 40
2.0
 40
3.0
 40
3.0
 40
3.0
 40
4.0
 40
4.0
 40
4.0
 40
4.0
 10
110.4642306581478
 20
-130.7253539712249
 30
0.0
 10
110.4346028369747
 20
-130.685390863596
 30
0.0
 10
110.3667344559153
 20
-130.5878946613634
 30
0.0
 10
110.1848334142941
 20
-130.477996115384
 30
0.0
 10
110.1848334142941
 20
-130.477996115384
 30
0.0
 10
110.3119574376998
 20
-130.3446709201048
 30
0.0
 10
110.3119574376998
 20
-130.3446709201048
 30
0.0
 10
110.4979925939033
 20
-130.4463012369197
 30
0.0
 10
110.5551811789584
 20
-130.5351847004391
 30
0.0
 10
110.5827419428404
 20
-130.5775593749077
 30
0.0
 10
110.5827419428404
 20
-130.5775593749077
 30
0.0
 10
110.4642306581478
 20
-130.7253539712249
 30
0.0
 10
110.4642306581478
 20
-130.7253539712249
 30
0.0
  0
SPLINE
  5
F3
330
E4
100
AcDbEntity
  8
_U+30EC_U+30A4_U+30E4_U+30FC 1
370
     0
100
AcDbSpline
210
0.0
220
0.0
230
1.0
 70
    11
 71
     3
 72
    38
 73
    34
 74
     0
 42
0.0000000001
 43
0.0000000001
 12
1.0
 22
0.0
 32
0.0
 13
1.0
 23
0.0
 33
0.0
 40
0.0
 40
0.0
 40
0.0
 40
0.0
 40
1.0
 40
1.0
 40
1.0
 40
2.0
 40
2.0
 40
2.0
 40
3.0
 40
3.0
 40
3.0
 40
4.0
 40
4.0
 40
4.0
 40
5.0
 40
5.0
 40
5.0
 40
6.0
 40
6.0
 40
6.0
 40
7.0
 40
7.0
 40
7.0
 40
8.0
 40
8.0
 40
8.0
 40
9.0
 40
9.0
 40
9.0
 40
10.0
 40
10.0
 40
10.0
 40
11.0
 40
11.0
 40
11.0
 40
11.0
 10
110.8321668559725
 20
-130.4208075303288
 30
0.0
 10
110.8300997986814
 20
-130.4673163193797
 30
0.0
 10
110.8280327413902
 20
-130.5837605467811
 30
0.0
 10
110.8280327413902
 20
-130.6282022785409
 30
0.0
 10
110.8280327413902
 20
-130.6282022785409
 30
0.0
 10
110.8280327413902
 20
-130.9751233939055
 30
0.0
 10
110.8280327413902
 20
-130.9751233939055
 30
0.0
 10
110.8280327413902
 20
-131.0619398001338
 30
0.0
 10
110.8300997986814
 20
-131.2035332245776
 30
0.0
 10
110.8407795946856
 20
-131.3241115665613
 30
0.0
 10
110.8407795946856
 20
-131.3241115665613
 30
0.0
 10
110.6502658143513
 20
-131.3241115665613
 30
0.0
 10
110.6502658143513
 20
-131.3241115665613
 30
0.0
 10
110.6547444384822
 20
-131.2607218096327
 30
0.0
 10
110.6588785530645
 20
-131.2076673391599
 30
0.0
 10
110.6609456103556
 20
-131.1528903209444
 30
0.0
 10
110.6630126676468
 20
-131.0302449216695
 30
0.0
 10
110.6650797249379
 20
-131.015431011083
 30
0.0
 10
110.6650797249379
 20
-130.9709892793232
 30
0.0
 10
110.6650797249379
 20
-130.9709892793232
 30
0.0
 10
110.6650797249379
 20
-130.6492173610009
 30
0.0
 10
110.6650797249379
 20
-130.6492173610009
 30
0.0
 10
110.6650797249379
 20
-130.5944403427854
 30
0.0
 10
110.6523328716425
 20
-130.3553507161091
 30
0.0
 10
110.6502658143513
 20
-130.3043633029274
 30
0.0
 10
110.6502658143513
 20
-130.3043633029274
 30
0.0
 10
110.8514593906899
 20
-130.3319240668094
 30
0.0
 10
110.8514593906899
 20
-130.3319240668094
 30
0.0
 10
110.8724744731499
 20
-130.3339911241005
 30
0.0
 10
110.9041693516142
 20
-130.3384697482313
 30
0.0
 10
110.9041693516142
 20
-130.3636189452737
 30
0.0
 10
110.9041693516142
 20
-130.3911797091557
 30
0.0
 10
110.8535264479811
 20
-130.4125393011642
 30
0.0
 10
110.8321668559725
 20
-130.4208075303288
 30
0.0
  0
SPLINE
  5
F4
330
E4
100
AcDbEntity
  8
_U+30EC_U+30A4_U+30E4_U+30FC 1
370
     0
100
AcDbSpline
210
0.0
220
0.0
230
1.0
 70
    11
 71
     3
 72
    83
 73
    79
 74
     0
 42
0.0000000001
 43
0.0000000001
 12
1.0
 22
0.0
 32
0.0
 13
1.0
 23
0.0
 33
0.0
 40
0.0
 40
0.0
 40
0.0
 40
0.0
 40
1.0
 40
1.0
 40
1.0
 40
2.0
 40
2.0
 40
2.0
 40
3.0
 40
3.0
 40
3.0
 40
4.0
 40
4.0
 40
4.0
 40
5.0
 40
5.0
 40
5.0
 40
6.0
 40
6.0
 40
6.0
 40
7.0
 40
7.0
 40
7.0
 40
8.0
 40
8.0
 40
8.0
 40
9.0
 40
9.0
 40
9.0
 40
10.0
 40
10.0
 40
10.0
 40
11.0
 40
11.0
 40
11.0
 40
12.0
 40
12.0
 40
12.0
 40
13.0
 40
13.0
 40
13.0
 40
14.0
 40
14.0
 40
14.0
 40
15.0
 40
15.0
 40
15.0
 40
16.0
 40
16.0
 40
16.0
 40
17.0
 40
17.0
 40
17.0
 40
18.0
 40
18.0
 40
18.0
 40
19.0
 40
19.0
 40
19.0
 40
20.0
 40
20.0
 40
20.0
 40
21.0
 40
21.0
 40
21.0
 40
22.0
 40
22.0
 40
22.0
 40
23.0
 40
23.0
 40
23.0
 40
24.0
 40
24.0
 40
24.0
 40
25.0
 40
25.0
 40
25.0
 40
26.0
 40
26.0
 40
26.0
 40
26.0
 10
111.6341850849387
 20
-130.7425794486512
 30
0.0
 10
111.6341850849387
 20
-130.7425794486512
 30
0.0
 10
111.5366888827061
 20
-130.7425794486512
 30
0.0
 10
111.5366888827061
 20
-130.7425794486512
 30
0.0
 10
111.5366888827061
 20
-130.7425794486512
 30
0.0
 10
111.5366888827061
 20
-130.9899373044921
 30
0.0
 10
111.5366888827061
 20
-130.9899373044921
 30
0.0
 10
111.5366888827061
 20
-130.9899373044921
 30
0.0
 10
111.6193711743521
 20
-130.9899373044921
 30
0.0
 10
111.6193711743521
 20
-130.9899373044921
 30
0.0
 10
111.6848279885719
 20
-130.9899373044921
 30
0.0
 10
111.8243543557245
 20
-130.9858031899098
 30
0.0
 10
111.9239176152482
 20
-130.9771904511967
 30
0.0
 10
111.9239176152482
 20
-130.9771904511967
 30
0.0
 10
111.9239176152482
 20
-131.1570244355267
 30
0.0
 10
111.9239176152482
 20
-131.1570244355267
 30
0.0
 10
111.8309000371464
 20
-131.1487562063621
 30
0.0
 10
111.6806938739896
 20
-131.1442775822313
 30
0.0
 10
111.6193711743521
 20
-131.1442775822313
 30
0.0
 10
111.6193711743521
 20
-131.1442775822313
 30
0.0
 10
111.3144802239075
 20
-131.1442775822313
 30
0.0
 10
111.3144802239075
 20
-131.1442775822313
 30
0.0
 10
111.2617702629832
 20
-131.1442775822313
 30
0.0
 10
111.1156982144086
 20
-131.1487562063621
 30
0.0
 10
111.0099337830114
 20
-131.1570244355267
 30
0.0
 10
111.0099337830114
 20
-131.1570244355267
 30
0.0
 10
111.0099337830114
 20
-130.9771904511967
 30
0.0
 10
111.0099337830114
 20
-130.9771904511967
 30
0.0
 10
111.1094970425351
 20
-130.9858031899098
 30
0.0
 10
111.2490234096878
 20
-130.9899373044921
 30
0.0
 10
111.3144802239075
 20
-130.9899373044921
 30
0.0
 10
111.3144802239075
 20
-130.9899373044921
 30
0.0
 10
111.3589219556672
 20
-130.9899373044921
 30
0.0
 10
111.3589219556672
 20
-130.9899373044921
 30
0.0
 10
111.3589219556672
 20
-130.9899373044921
 30
0.0
 10
111.3589219556672
 20
-130.7425794486512
 30
0.0
 10
111.3589219556672
 20
-130.7425794486512
 30
0.0
 10
111.3589219556672
 20
-130.7425794486512
 30
0.0
 10
111.2851969122829
 20
-130.7425794486512
 30
0.0
 10
111.2851969122829
 20
-130.7425794486512
 30
0.0
 10
111.2235297030969
 20
-130.7425794486512
 30
0.0
 10
111.0564425720623
 20
-130.7467135632335
 30
0.0
 10
110.9358642300785
 20
-130.7549817923981
 30
0.0
 10
110.9358642300785
 20
-130.7549817923981
 30
0.0
 10
110.9358642300785
 20
-130.5775593749077
 30
0.0
 10
110.9358642300785
 20
-130.5775593749077
 30
0.0
 10
111.0502414001888
 20
-130.5837605467811
 30
0.0
 10
111.2087157925103
 20
-130.5878946613634
 30
0.0
 10
111.2851969122829
 20
-130.5878946613634
 30
0.0
 10
111.2851969122829
 20
-130.5878946613634
 30
0.0
 10
111.3568548983761
 20
-130.5878946613634
 30
0.0
 10
111.3568548983761
 20
-130.5878946613634
 30
0.0
 10
111.3527207837938
 20
-130.4356214409154
 30
0.0
 10
111.3506537265026
 20
-130.40185950516
 30
0.0
 10
111.3441080450806
 20
-130.3088419270582
 30
0.0
 10
111.3441080450806
 20
-130.3088419270582
 30
0.0
 10
111.5559814174235
 20
-130.3319240668094
 30
0.0
 10
111.5559814174235
 20
-130.3319240668094
 30
0.0
 10
111.5811306144658
 20
-130.3339911241005
 30
0.0
 10
111.6045572637655
 20
-130.3384697482313
 30
0.0
 10
111.6045572637655
 20
-130.3615518879825
 30
0.0
 10
111.6045572637655
 20
-130.3932467664468
 30
0.0
 10
111.5601155320058
 20
-130.4101277343246
 30
0.0
 10
111.5366888827061
 20
-130.4187404730377
 30
0.0
 10
111.5366888827061
 20
-130.4187404730377
 30
0.0
 10
111.5366888827061
 20
-130.5878946613634
 30
0.0
 10
111.5366888827061
 20
-130.5878946613634
 30
0.0
 10
111.5366888827061
 20
-130.5878946613634
 30
0.0
 10
111.6341850849387
 20
-130.5878946613634
 30
0.0
 10
111.6341850849387
 20
-130.5878946613634
 30
0.0
 10
111.7103216951627
 20
-130.5878946613634
 30
0.0
 10
111.8687960874842
 20
-130.5837605467811
 30
0.0
 10
111.9852403148856
 20
-130.5775593749077
 30
0.0
 10
111.9852403148856
 20
-130.5775593749077
 30
0.0
 10
111.9852403148856
 20
-130.7549817923981
 30
0.0
 10
111.9852403148856
 20
-130.7549817923981
 30
0.0
 10
111.8774088261973
 20
-130.7487806205246
 30
0.0
 10
111.7037760137407
 20
-130.7425794486512
 30
0.0
 10
111.6341850849387
 20
-130.7425794486512
 30
0.0
  0
SPLINE
  5
F5
330
E4
100
AcDbEntity
  8
_U+30EC_U+30A4_U+30E4_U+30FC 1
370
     0
100
AcDbSpline
210
0.0
220
0.0
230
1.0
 70
    11
 71
     3
 72
    17
 73
    13
 74
     0
 42
0.0000000001
 43
0.0000000001
 12
1.0
 22
0.0
 32
0.0
 13
1.0
 23
0.0
 33
0.0
 40
0.0
 40
0.0
 40
0.0
 40
0.0
 40
1.0
 40
1.0
 40
1.0
 40
2.0
 40
2.0
 40
2.0
 40
3.0
 40
3.0
 40
3.0
 40
4.0
 40
4.0
 40
4.0
 40
4.0
 10
111.3885497768404
 20
-131.5401190534865
 30
0.0
 10
111.3885497768404
 20
-131.5401190534865
 30
0.0
 10
111.1856336527592
 20
-131.5401190534865
 30
0.0
 10
111.1856336527592
 20
-131.5401190534865
 30
0.0
 10
111.2131944166411
 20
-131.5993746958328
 30
0.0
 10
111.2679714348566
 20
-131.671032681926
 30
0.0
 10
111.2955321987386
 20
-131.7006605030992
 30
0.0
 10
111.3230929626206
 20
-131.6858465925126
 30
0.0
 10
111.4374701327309
 20
-131.622456835584
 30
0.0
 10
111.5284206535415
 20
-131.5401190534865
 30
0.0
 10
111.5284206535415
 20
-131.5401190534865
 30
0.0
 10
111.3885497768404
 20
-131.5401190534865
 30
0.0
 10
111.3885497768404
 20
-131.5401190534865
 30
0.0
  0
HATCH
  5
F6
330
E4
100
AcDbEntity
  8
_U+30EC_U+30A4_U+30E4_U+30FC 1
 62
   179
420
  2234388
100
AcDbHatch
 10
0.0
 20
0.0
 30
0.0
210
0.0
220
0.0
230
1.0
  2
SOLID
 70
     1
 71
     0
 91
        6
 92
        1
 93
        1
 72
     4
 94
        3
 73
     0
 74
     1
 95
      113
 96
      109
 40
0.0
 40
0.0
 40
0.0
 40
0.0
 40
1.0
 40
1.0
 40
1.0
 40
2.0
 40
2.0
 40
2.0
 40
3.0
 40
3.0
 40
3.0
 40
4.0
 40
4.0
 40
4.0
 40
5.0
 40
5.0
 40
5.0
 40
6.0
 40
6.0
 40
6.0
 40
7.0
 40
7.0
 40
7.0
 40
8.0
 40
8.0
 40
8.0
 40
9.0
 40
9.0
 40
9.0
 40
10.0
 40
10.0
 40
10.0
 40
11.0
 40
11.0
 40
11.0
 40
12.0
 40
12.0
 40
12.0
 40
13.0
 40
13.0
 40
13.0
 40
14.0
 40
14.0
 40
14.0
 40
15.0
 40
15.0
 40
15.0
 40
16.0
 40
16.0
 40
16.0
 40
17.0
 40
17.0
 40
17.0
 40
18.0
 40
18.0
 40
18.0
 40
19.0
 40
19.0
 40
19.0
 40
20.0
 40
20.0
 40
20.0
 40
21.0
 40
21.0
 40
21.0
 40
22.0
 40
22.0
 40
22.0
 40
23.0
 40
23.0
 40
23.0
 40
24.0
 40
24.0
 40
24.0
 40
25.0
 40
25.0
 40
25.0
 40
26.0
 40
26.0
 40
26.0
 40
27.0
 40
27.0
 40
27.0
 40
28.0
 40
28.0
 40
28.0
 40
29.0
 40
29.0
 40
29.0
 40
30.0
 40
30.0
 40
30.0
 40
31.0
 40
31.0
 40
31.0
 40
32.0
 40
32.0
 40
32.0
 40
33.0
 40
33.0
 40
33.0
 40
34.0
 40
34.0
 40
34.0
 40
35.0
 40
35.0
 40
35.0
 40
36.0
 40
36.0
 40
36.0
 40
36.0
 10
111.5959445250524
 20
-131.5421861107777
 10
111.5959445250524
 20
-131.5421861107777
 10
111.6955077845761
 20
-131.6414048607529
 10
111.6955077845761
 20
-131.6414048607529
 10
111.7058430710319
 20
-131.6520846567571
 10
111.7165228670361
 20
-131.6648315100526
 10
111.7165228670361
 20
-131.6796454206391
 10
111.7165228670361
 20
-131.6817124779303
 10
111.7165228670361
 20
-131.7113402991034
 10
111.6786268166984
 20
-131.7113402991034
 10
111.6700140779853
 20
-131.7113402991034
 10
111.6297064608079
 20
-131.7072061845211
 10
111.6235052889344
 20
-131.7072061845211
 10
111.583197671757
 20
-131.7389010629854
 10
111.5366888827061
 20
-131.7726629987409
 10
111.4374701327309
 20
-131.829851583796
 10
111.583197671757
 20
-131.9376830724843
 10
111.742016573627
 20
-131.9948716575395
 10
112.0148681360588
 20
-132.0327677078772
 10
112.0148681360588
 20
-132.0327677078772
 10
111.8646619729019
 20
-132.208467577625
 10
111.8646619729019
 20
-132.208467577625
 10
111.6024902064744
 20
-132.1364650819833
 10
111.4457383618955
 20
-132.0475816184638
 10
111.3696017516715
 20
-131.9948716575395
 10
111.2193955885146
 20
-131.8932413407246
 10
111.0757351067797
 20
-131.7302883242723
 10
110.9995984965557
 20
-131.5652682505288
 10
110.9317301154962
 20
-131.6310695742971
 10
110.8576605625634
 20
-131.6837795352214
 10
110.7794568950482
 20
-131.7323553815635
 10
110.7794568950482
 20
-131.7323553815635
 10
110.7794568950482
 20
-131.9841918615352
 10
110.7794568950482
 20
-131.9841918615352
 10
110.9424099115005
 20
-131.9586981549444
 10
111.128445067704
 20
-131.9142564231846
 10
111.1918348246326
 20
-131.8994425125981
 10
111.1918348246326
 20
-131.8994425125981
 10
111.1622070034595
 20
-132.0689412104724
 10
111.1622070034595
 20
-132.0689412104724
 10
111.1601399461683
 20
-132.0689412104724
 10
111.1411919209994
 20
-132.0751423823458
 10
111.1391248637083
 20
-132.0751423823458
 10
110.9403428542094
 20
-132.1133829422321
 10
110.6227050504693
 20
-132.1788397564518
 10
110.4259900982616
 20
-132.2146687494984
 10
110.4156548118058
 20
-132.2318942269247
 10
110.3922281625061
 20
-132.263589105389
 10
110.3691460227549
 20
-132.263589105389
 10
110.3415852588729
 20
-132.263589105389
 10
110.3374511442906
 20
-132.2442965706716
 10
110.335039577451
 20
-132.2253485455027
 10
110.335039577451
 20
-132.2253485455027
 10
110.3098903804086
 20
-132.0520602425946
 10
110.3098903804086
 20
-132.0520602425946
 10
110.3839599333415
 20
-132.0434475038815
 10
110.4917914220298
 20
-132.0307006505861
 10
110.5996229107182
 20
-132.0096855681261
 10
110.5996229107182
 20
-132.0096855681261
 10
110.5996229107182
 20
-131.8319186410872
 10
110.5996229107182
 20
-131.8319186410872
 10
110.4556179194347
 20
-131.9039211367289
 10
110.3605332840418
 20
-131.933548957902
 10
110.1955132102983
 20
-131.9631767790752
 10
110.1955132102983
 20
-131.9631767790752
 10
110.0749348683146
 20
-131.7936780812009
 10
110.0749348683146
 20
-131.7936780812009
 10
110.3922281625061
 20
-131.7664618268674
 10
110.5848090001316
 20
-131.6730997392172
 10
110.7625759271705
 20
-131.5401190534865
 10
110.6165038785959
 20
-131.5401190534865
 10
110.3160915522821
 20
-131.5442531680688
 10
110.1193766000743
 20
-131.5504543399423
 10
110.1193766000743
 20
-131.5504543399423
 10
110.1193766000743
 20
-131.3726874129034
 10
110.1193766000743
 20
-131.3726874129034
 10
110.2737168778135
 20
-131.3792330943253
 10
110.569995089545
 20
-131.3854342661988
 10
110.7539631884573
 20
-131.3854342661988
 10
110.7539631884573
 20
-131.3854342661988
 10
110.9654920512517
 20
-131.3854342661988
 10
110.9654920512517
 20
-131.3854342661988
 10
110.9654920512517
 20
-131.2903496308059
 10
110.9634249939605
 20
-131.2397067271727
 10
110.9572238220871
 20
-131.1928534285733
 10
110.9572238220871
 20
-131.1928534285733
 10
111.1728867994637
 20
-131.2100789059996
 10
111.1728867994637
 20
-131.2100789059996
 10
111.2214626458057
 20
-131.2142130205819
 10
111.2300753845189
 20
-131.2290269311684
 10
111.2300753845189
 20
-131.243840841755
 10
111.2300753845189
 20
-131.2693345483459
 10
111.2131944166411
 20
-131.2776027775105
 10
111.1622070034595
 20
-131.3030964841013
 10
111.1601399461683
 20
-131.3285901906922
 10
111.1601399461683
 20
-131.3347913625656
 10
111.1580728888772
 20
-131.3854342661988
 10
111.1580728888772
 20
-131.3854342661988
 10
111.3885497768404
 20
-131.3854342661988
 10
111.3885497768404
 20
-131.3854342661988
 10
111.5535698505838
 20
-131.3854342661988
 10
111.845713947733
 20
-131.3792330943253
 10
112.0255479320631
 20
-131.3726874129034
 10
112.0255479320631
 20
-131.3726874129034
 10
112.0255479320631
 20
-131.5504543399423
 10
112.0255479320631
 20
-131.5504543399423
 10
111.8963568513662
 20
-131.5463202253599
 10
111.873274711615
 20
-131.5463202253599
 10
111.5959445250524
 20
-131.5421861107777
 97
        0
 97
        0
 92
        1
 93
        1
 72
     4
 94
        3
 73
     0
 74
     1
 95
       23
 96
       19
 40
0.0
 40
0.0
 40
0.0
 40
0.0
 40
1.0
 40
1.0
 40
1.0
 40
2.0
 40
2.0
 40
2.0
 40
3.0
 40
3.0
 40
3.0
 40
4.0
 40
4.0
 40
4.0
 40
5.0
 40
5.0
 40
5.0
 40
6.0
 40
6.0
 40
6.0
 40
6.0
 10
110.3119574376998
 20
-131.1907863712822
 10
110.2950764698221
 20
-131.2310939884596
 10
110.2885307884001
 20
-131.2479749563373
 10
110.2675157059401
 20
-131.2479749563373
 10
110.2527017953535
 20
-131.2479749563373
 10
110.2420219993492
 20
-131.2310939884596
 10
110.2358208274758
 20
-131.2183471351642
 10
110.2358208274758
 20
-131.2183471351642
 10
110.1362575679521
 20
-131.0533270614207
 10
110.1362575679521
 20
-131.0533270614207
 10
110.2378878847669
 20
-131.0216321829564
 10
110.3880940479238
 20
-130.9665106551924
 10
110.5868760574227
 20
-130.8039021482886
 10
110.5868760574227
 20
-130.8039021482886
 10
110.6440646424779
 20
-130.9771904511967
 10
110.6440646424779
 20
-130.9771904511967
 10
110.5510470643761
 20
-131.0598727428427
 10
110.4621636008567
 20
-131.1167168183493
 10
110.3119574376998
 20
-131.1907863712822
 97
        0
 97
        0
 92
        1
 93
        1
 72
     4
 94
        3
 73
     0
 74
     1
 95
       17
 96
       13
 40
0.0
 40
0.0
 40
0.0
 40
0.0
 40
1.0
 40
1.0
 40
1.0
 40
2.0
 40
2.0
 40
2.0
 40
3.0
 40
3.0
 40
3.0
 40
4.0
 40
4.0
 40
4.0
 40
4.0
 10
110.4642306581478
 20
-130.7253539712249
 10
110.4346028369747
 20
-130.685390863596
 10
110.3667344559153
 20
-130.5878946613634
 10
110.1848334142941
 20
-130.477996115384
 10
110.1848334142941
 20
-130.477996115384
 10
110.3119574376998
 20
-130.3446709201048
 10
110.3119574376998
 20
-130.3446709201048
 10
110.4979925939033
 20
-130.4463012369197
 10
110.5551811789584
 20
-130.5351847004391
 10
110.5827419428404
 20
-130.5775593749077
 10
110.5827419428404
 20
-130.5775593749077
 10
110.4642306581478
 20
-130.7253539712249
 10
110.4642306581478
 20
-130.7253539712249
 97
        0
 97
        0
 92
        1
 93
        1
 72
     4
 94
        3
 73
     0
 74
     1
 95
       38
 96
       34
 40
0.0
 40
0.0
 40
0.0
 40
0.0
 40
1.0
 40
1.0
 40
1.0
 40
2.0
 40
2.0
 40
2.0
 40
3.0
 40
3.0
 40
3.0
 40
4.0
 40
4.0
 40
4.0
 40
5.0
 40
5.0
 40
5.0
 40
6.0
 40
6.0
 40
6.0
 40
7.0
 40
7.0
 40
7.0
 40
8.0
 40
8.0
 40
8.0
 40
9.0
 40
9.0
 40
9.0
 40
10.0
 40
10.0
 40
10.0
 40
11.0
 40
11.0
 40
11.0
 40
11.0
 10
110.8321668559725
 20
-130.4208075303288
 10
110.8300997986814
 20
-130.4673163193797
 10
110.8280327413902
 20
-130.5837605467811
 10
110.8280327413902
 20
-130.6282022785409
 10
110.8280327413902
 20
-130.6282022785409
 10
110.8280327413902
 20
-130.9751233939055
 10
110.8280327413902
 20
-130.9751233939055
 10
110.8280327413902
 20
-131.0619398001338
 10
110.8300997986814
 20
-131.2035332245776
 10
110.8407795946856
 20
-131.3241115665613
 10
110.8407795946856
 20
-131.3241115665613
 10
110.6502658143513
 20
-131.3241115665613
 10
110.6502658143513
 20
-131.3241115665613
 10
110.6547444384822
 20
-131.2607218096327
 10
110.6588785530645
 20
-131.2076673391599
 10
110.6609456103556
 20
-131.1528903209444
 10
110.6630126676468
 20
-131.0302449216695
 10
110.6650797249379
 20
-131.015431011083
 10
110.6650797249379
 20
-130.9709892793232
 10
110.6650797249379
 20
-130.9709892793232
 10
110.6650797249379
 20
-130.6492173610009
 10
110.6650797249379
 20
-130.6492173610009
 10
110.6650797249379
 20
-130.5944403427854
 10
110.6523328716425
 20
-130.3553507161091
 10
110.6502658143513
 20
-130.3043633029274
 10
110.6502658143513
 20
-130.3043633029274
 10
110.8514593906899
 20
-130.3319240668094
 10
110.8514593906899
 20
-130.3319240668094
 10
110.8724744731499
 20
-130.3339911241005
 10
110.9041693516142
 20
-130.3384697482313
 10
110.9041693516142
 20
-130.3636189452737
 10
110.9041693516142
 20
-130.3911797091557
 10
110.8535264479811
 20
-130.4125393011642
 10
110.8321668559725
 20
-130.4208075303288
 97
        0
 97
        0
 92
        1
 93
        1
 72
     4
 94
        3
 73
     0
 74
     1
 95
       83
 96
       79
 40
0.0
 40
0.0
 40
0.0
 40
0.0
 40
1.0
 40
1.0
 40
1.0
 40
2.0
 40
2.0
 40
2.0
 40
3.0
 40
3.0
 40
3.0
 40
4.0
 40
4.0
 40
4.0
 40
5.0
 40
5.0
 40
5.0
 40
6.0
 40
6.0
 40
6.0
 40
7.0
 40
7.0
 40
7.0
 40
8.0
 40
8.0
 40
8.0
 40
9.0
 40
9.0
 40
9.0
 40
10.0
 40
10.0
 40
10.0
 40
11.0
 40
11.0
 40
11.0
 40
12.0
 40
12.0
 40
12.0
 40
13.0
 40
13.0
 40
13.0
 40
14.0
 40
14.0
 40
14.0
 40
15.0
 40
15.0
 40
15.0
 40
16.0
 40
16.0
 40
16.0
 40
17.0
 40
17.0
 40
17.0
 40
18.0
 40
18.0
 40
18.0
 40
19.0
 40
19.0
 40
19.0
 40
20.0
 40
20.0
 40
20.0
 40
21.0
 40
21.0
 40
21.0
 40
22.0
 40
22.0
 40
22.0
 40
23.0
 40
23.0
 40
23.0
 40
24.0
 40
24.0
 40
24.0
 40
25.0
 40
25.0
 40
25.0
 40
26.0
 40
26.0
 40
26.0
 40
26.0
 10
111.6341850849387
 20
-130.7425794486512
 10
111.6341850849387
 20
-130.7425794486512
 10
111.5366888827061
 20
-130.7425794486512
 10
111.5366888827061
 20
-130.7425794486512
 10
111.5366888827061
 20
-130.7425794486512
 10
111.5366888827061
 20
-130.9899373044921
 10
111.5366888827061
 20
-130.9899373044921
 10
111.5366888827061
 20
-130.9899373044921
 10
111.6193711743521
 20
-130.9899373044921
 10
111.6193711743521
 20
-130.9899373044921
 10
111.6848279885719
 20
-130.9899373044921
 10
111.8243543557245
 20
-130.9858031899098
 10
111.9239176152482
 20
-130.9771904511967
 10
111.9239176152482
 20
-130.9771904511967
 10
111.9239176152482
 20
-131.1570244355267
 10
111.9239176152482
 20
-131.1570244355267
 10
111.8309000371464
 20
-131.1487562063621
 10
111.6806938739896
 20
-131.1442775822313
 10
111.6193711743521
 20
-131.1442775822313
 10
111.6193711743521
 20
-131.1442775822313
 10
111.3144802239075
 20
-131.1442775822313
 10
111.3144802239075
 20
-131.1442775822313
 10
111.2617702629832
 20
-131.1442775822313
 10
111.1156982144086
 20
-131.1487562063621
 10
111.0099337830114
 20
-131.1570244355267
 10
111.0099337830114
 20
-131.1570244355267
 10
111.0099337830114
 20
-130.9771904511967
 10
111.0099337830114
 20
-130.9771904511967
 10
111.1094970425351
 20
-130.9858031899098
 10
111.2490234096878
 20
-130.9899373044921
 10
111.3144802239075
 20
-130.9899373044921
 10
111.3144802239075
 20
-130.9899373044921
 10
111.3589219556672
 20
-130.9899373044921
 10
111.3589219556672
 20
-130.9899373044921
 10
111.3589219556672
 20
-130.9899373044921
 10
111.3589219556672
 20
-130.7425794486512
 10
111.3589219556672
 20
-130.7425794486512
 10
111.3589219556672
 20
-130.7425794486512
 10
111.2851969122829
 20
-130.7425794486512
 10
111.2851969122829
 20
-130.7425794486512
 10
111.2235297030969
 20
-130.7425794486512
 10
111.0564425720623
 20
-130.7467135632335
 10
110.9358642300785
 20
-130.7549817923981
 10
110.9358642300785
 20
-130.7549817923981
 10
110.9358642300785
 20
-130.5775593749077
 10
110.9358642300785
 20
-130.5775593749077
 10
111.0502414001888
 20
-130.5837605467811
 10
111.2087157925103
 20
-130.5878946613634
 10
111.2851969122829
 20
-130.5878946613634
 10
111.2851969122829
 20
-130.5878946613634
 10
111.3568548983761
 20
-130.5878946613634
 10
111.3568548983761
 20
-130.5878946613634
 10
111.3527207837938
 20
-130.4356214409154
 10
111.3506537265026
 20
-130.40185950516
 10
111.3441080450806
 20
-130.3088419270582
 10
111.3441080450806
 20
-130.3088419270582
 10
111.5559814174235
 20
-130.3319240668094
 10
111.5559814174235
 20
-130.3319240668094
 10
111.5811306144658
 20
-130.3339911241005
 10
111.6045572637655
 20
-130.3384697482313
 10
111.6045572637655
 20
-130.3615518879825
 10
111.6045572637655
 20
-130.3932467664468
 10
111.5601155320058
 20
-130.4101277343246
 10
111.5366888827061
 20
-130.4187404730377
 10
111.5366888827061
 20
-130.4187404730377
 10
111.5366888827061
 20
-130.5878946613634
 10
111.5366888827061
 20
-130.5878946613634
 10
111.5366888827061
 20
-130.5878946613634
 10
111.6341850849387
 20
-130.5878946613634
 10
111.6341850849387
 20
-130.5878946613634
 10
111.7103216951627
 20
-130.5878946613634
 10
111.8687960874842
 20
-130.5837605467811
 10
111.9852403148856
 20
-130.5775593749077
 10
111.9852403148856
 20
-130.5775593749077
 10
111.9852403148856
 20
-130.7549817923981
 10
111.9852403148856
 20
-130.7549817923981
 10
111.8774088261973
 20
-130.7487806205246
 10
111.7037760137407
 20
-130.7425794486512
 10
111.6341850849387
 20
-130.7425794486512
 97
        0
 97
        0
 92
        1
 93
        1
 72
     4
 94
        3
 73
     0
 74
     1
 95
       17
 96
       13
 40
0.0
 40
0.0
 40
0.0
 40
0.0
 40
1.0
 40
1.0
 40
1.0
 40
2.0
 40
2.0
 40
2.0
 40
3.0
 40
3.0
 40
3.0
 40
4.0
 40
4.0
 40
4.0
 40
4.0
 10
111.3885497768404
 20
-131.5401190534865
 10
111.3885497768404
 20
-131.5401190534865
 10
111.1856336527592
 20
-131.5401190534865
 10
111.1856336527592
 20
-131.5401190534865
 10
111.2131944166411
 20
-131.5993746958328
 10
111.2679714348566
 20
-131.671032681926
 10
111.2955321987386
 20
-131.7006605030992
 10
111.3230929626206
 20
-131.6858465925126
 10
111.4374701327309
 20
-131.622456835584
 10
111.5284206535415
 20
-131.5401190534865
 10
111.5284206535415
 20
-131.5401190534865
 10
111.3885497768404
 20
-131.5401190534865
 10
111.3885497768404
 20
-131.5401190534865
 97
        0
 97
        0
 75
     2
 76
     1
 98
        0
  0
SPLINE
  5
F7
330
E4
100
AcDbEntity
  8
_U+30EC_U+30A4_U+30E4_U+30FC 1
370
     0
100
AcDbSpline
210
0.0
220
0.0
230
1.0
 70
    11
 71
     3
 72
    77
 73
    73
 74
     0
 42
0.0000000001
 43
0.0000000001
 12
1.0
 22
0.0
 32
0.0
 13
1.0
 23
0.0
 33
0.0
 40
0.0
 40
0.0
 40
0.0
 40
0.0
 40
1.0
 40
1.0
 40
1.0
 40
2.0
 40
2.0
 40
2.0
 40
3.0
 40
3.0
 40
3.0
 40
4.0
 40
4.0
 40
4.0
 40
5.0
 40
5.0
 40
5.0
 40
6.0
 40
6.0
 40
6.0
 40
7.0
 40
7.0
 40
7.0
 40
8.0
 40
8.0
 40
8.0
 40
9.0
 40
9.0
 40
9.0
 40
10.0
 40
10.0
 40
10.0
 40
11.0
 40
11.0
 40
11.0
 40
12.0
 40
12.0
 40
12.0
 40
13.0
 40
13.0
 40
13.0
 40
14.0
 40
14.0
 40
14.0
 40
15.0
 40
15.0
 40
15.0
 40
16.0
 40
16.0
 40
16.0
 40
17.0
 40
17.0
 40
17.0
 40
18.0
 40
18.0
 40
18.0
 40
19.0
 40
19.0
 40
19.0
 40
20.0
 40
20.0
 40
20.0
 40
21.0
 40
21.0
 40
21.0
 40
22.0
 40
22.0
 40
22.0
 40
23.0
 40
23.0
 40
23.0
 40
24.0
 40
24.0
 40
24.0
 40
24.0
 10
113.8796983222245
 20
-132.1702270177387
 30
0.0
 10
113.8331895331737
 20
-132.1957207243296
 30
0.0
 10
113.7084770766076
 20
-132.208467577625
 30
0.0
 10
113.6299288995439
 20
-132.208467577625
 30
0.0
 10
113.617526555797
 20
-132.208467577625
 30
0.0
 10
113.5920328492062
 20
-132.208467577625
 30
0.0
 10
113.5582709134507
 20
-132.2043334630427
 30
0.0
 10
113.5582709134507
 20
-132.2043334630427
 30
0.0
 10
113.4607747112181
 20
-131.9779906896618
 30
0.0
 10
113.4607747112181
 20
-131.9779906896618
 30
0.0
 10
113.4904025323913
 20
-131.9841918615352
 30
0.0
 10
113.5475911174464
 20
-131.9928046002483
 30
0.0
 10
113.6640353448479
 20
-131.9928046002483
 30
0.0
 10
113.7422390123631
 20
-131.9928046002483
 30
0.0
 10
113.7443060696542
 20
-131.9504299257798
 30
0.0
 10
113.7443060696542
 20
-131.8932413407246
 30
0.0
 10
113.7443060696542
 20
-131.8932413407246
 30
0.0
 10
113.7443060696542
 20
-131.5442531680688
 30
0.0
 10
113.7443060696542
 20
-131.5442531680688
 30
0.0
 10
113.7443060696542
 20
-131.5442531680688
 30
0.0
 10
113.2850748414704
 20
-131.5442531680688
 30
0.0
 10
113.2850748414704
 20
-131.5442531680688
 30
0.0
 10
113.2874864083101
 20
-131.6817124779303
 30
0.0
 10
113.2895534656012
 20
-131.8804944874292
 30
0.0
 10
113.2957546374747
 20
-132.0138196827083
 30
0.0
 10
113.2978216947658
 20
-132.0413804465904
 30
0.0
 10
113.2978216947658
 20
-132.0858221783501
 30
0.0
 10
113.3105685480613
 20
-132.1471448779875
 30
0.0
 10
113.3105685480613
 20
-132.1471448779875
 30
0.0
 10
113.0694118640938
 20
-132.1471448779875
 30
0.0
 10
113.0694118640938
 20
-132.1471448779875
 30
0.0
 10
113.0949055706846
 20
-132.0224324214215
 30
0.0
 10
113.0949055706846
 20
-131.6817124779303
 30
0.0
 10
113.0949055706846
 20
-131.5442531680688
 30
0.0
 10
113.0949055706846
 20
-131.5442531680688
 30
0.0
 10
112.6525553103785
 20
-131.5442531680688
 30
0.0
 10
112.6525553103785
 20
-131.5442531680688
 30
0.0
 10
112.6294731706274
 20
-131.7516479162808
 30
0.0
 10
112.5640163564076
 20
-132.0200208545818
 30
0.0
 10
112.3669568946513
 20
-132.2043334630427
 30
0.0
 10
112.3669568946513
 20
-132.2043334630427
 30
0.0
 10
112.1788546811567
 20
-132.0816880637678
 30
0.0
 10
112.1788546811567
 20
-132.0816880637678
 30
0.0
 10
112.4327582184196
 20
-131.8615464622603
 30
0.0
 10
112.4644530968839
 20
-131.5294392574822
 30
0.0
 10
112.4644530968839
 20
-131.1973320527042
 30
0.0
 10
112.4644530968839
 20
-131.1973320527042
 30
0.0
 10
112.4644530968839
 20
-130.7615274738201
 30
0.0
 10
112.4644530968839
 20
-130.7615274738201
 30
0.0
 10
112.4644530968839
 20
-130.7253539712249
 30
0.0
 10
112.4623860395927
 20
-130.4928100259706
 30
0.0
 10
112.4537733008796
 20
-130.3911797091557
 30
0.0
 10
112.5932996680322
 20
-130.40185950516
 30
0.0
 10
112.8348008615482
 20
-130.40185950516
 30
0.0
 10
112.9784613432832
 20
-130.40185950516
 30
0.0
 10
112.9784613432832
 20
-130.40185950516
 30
0.0
 10
113.437692571467
 20
-130.40185950516
 30
0.0
 10
113.437692571467
 20
-130.40185950516
 30
0.0
 10
113.4525064820536
 20
-130.40185950516
 30
0.0
 10
113.8014946547094
 20
-130.40185950516
 30
0.0
 10
113.9599690470309
 20
-130.3911797091557
 30
0.0
 10
113.9579019897397
 20
-130.4442341796285
 30
0.0
 10
113.9517008178663
 20
-130.6047756292412
 30
0.0
 10
113.9517008178663
 20
-130.6557630424229
 30
0.0
 10
113.9517008178663
 20
-130.6557630424229
 30
0.0
 10
113.9517008178663
 20
-131.2627888669239
 30
0.0
 10
113.9517008178663
 20
-131.2627888669239
 30
0.0
 10
113.9517008178663
 20
-131.2817368920928
 30
0.0
 10
113.962036104322
 20
-131.8529337235472
 30
0.0
 10
113.962036104322
 20
-131.9652438363663
 30
0.0
 10
113.962036104322
 20
-132.0224324214215
 30
0.0
 10
113.962036104322
 20
-132.1237182286878
 30
0.0
 10
113.8796983222245
 20
-132.1702270177387
 30
0.0
  0
POLYLINE
  5
F8
330
E4
100
AcDbEntity
  8
_U+30EC_U+30A4_U+30E4_U+30FC 1
370
     0
100
AcDb2dPolyline
 66
     1
 10
0.0
 20
0.0
 30
0.0
  0
VERTEX
  5
F9
330
F8
100
AcDbEntity
  8
_U+30EC_U+30A4_U+30E4_U+30FC 1
370
     0
100
AcDbVertex
100
AcDb2dVertex
 10
113.0949055706846
 20
-130.5837605467811
 30
0.0
  0
VERTEX
  5
FA
330
F8
100
AcDbEntity
  8
_U+30EC_U+30A4_U+30E4_U+30FC 1
370
     0
100
AcDbVertex
100
AcDb2dVertex
 10
112.6570339345094
 20
-130.5837605467811
 30
0.0
  0
VERTEX
  5
FB
330
F8
100
AcDbEntity
  8
_U+30EC_U+30A4_U+30E4_U+30FC 1
370
     0
100
AcDbVertex
100
AcDb2dVertex
 10
112.6570339345094
 20
-130.8883069876772
 30
0.0
  0
VERTEX
  5
FC
330
F8
100
AcDbEntity
  8
_U+30EC_U+30A4_U+30E4_U+30FC 1
370
     0
100
AcDbVertex
100
AcDb2dVertex
 10
113.0949055706846
 20
-130.8883069876772
 30
0.0
  0
VERTEX
  5
FD
330
F8
100
AcDbEntity
  8
_U+30EC_U+30A4_U+30E4_U+30FC 1
370
     0
100
AcDbVertex
100
AcDb2dVertex
 10
113.0949055706846
 20
-130.5837605467811
 30
0.0
  0
SEQEND
  5
FE
330
F8
100
AcDbEntity
  8
_U+30EC_U+30A4_U+30E4_U+30FC 1
370
     0
  0
POLYLINE
  5
FF
330
E4
100
AcDbEntity
  8
_U+30EC_U+30A4_U+30E4_U+30FC 1
370
     0
100
AcDb2dPolyline
 66
     1
 10
0.0
 20
0.0
 30
0.0
  0
VERTEX
  5
100
330
FF
100
AcDbEntity
  8
_U+30EC_U+30A4_U+30E4_U+30FC 1
370
     0
100
AcDbVertex
100
AcDb2dVertex
 10
113.0949055706846
 20
-131.0553941187119
 30
0.0
  0
VERTEX
  5
101
330
FF
100
AcDbEntity
  8
_U+30EC_U+30A4_U+30E4_U+30FC 1
370
     0
100
AcDbVertex
100
AcDb2dVertex
 10
112.6570339345094
 20
-131.0553941187119
 30
0.0
  0
VERTEX
  5
102
330
FF
100
AcDbEntity
  8
_U+30EC_U+30A4_U+30E4_U+30FC 1
370
     0
100
AcDbVertex
100
AcDb2dVertex
 10
112.6570339345094
 20
-131.3644191837388
 30
0.0
  0
VERTEX
  5
103
330
FF
100
AcDbEntity
  8
_U+30EC_U+30A4_U+30E4_U+30FC 1
370
     0
100
AcDbVertex
100
AcDb2dVertex
 10
113.0949055706846
 20
-131.3644191837388
 30
0.0
  0
VERTEX
  5
104
330
FF
100
AcDbEntity
  8
_U+30EC_U+30A4_U+30E4_U+30FC 1
370
     0
100
AcDbVertex
100
AcDb2dVertex
 10
113.0949055706846
 20
-131.0553941187119
 30
0.0
  0
SEQEND
  5
105
330
FF
100
AcDbEntity
  8
_U+30EC_U+30A4_U+30E4_U+30FC 1
370
     0
  0
POLYLINE
  5
106
330
E4
100
AcDbEntity
  8
_U+30EC_U+30A4_U+30E4_U+30FC 1
370
     0
100
AcDb2dPolyline
 66
     1
 10
0.0
 20
0.0
 30
0.0
  0
VERTEX
  5
107
330
106
100
AcDbEntity
  8
_U+30EC_U+30A4_U+30E4_U+30FC 1
370
     0
100
AcDbVertex
100
AcDb2dVertex
 10
113.7443060696542
 20
-130.5837605467811
 30
0.0
  0
VERTEX
  5
108
330
106
100
AcDbEntity
  8
_U+30EC_U+30A4_U+30E4_U+30FC 1
370
     0
100
AcDbVertex
100
AcDb2dVertex
 10
113.2850748414704
 20
-130.5837605467811
 30
0.0
  0
VERTEX
  5
109
330
106
100
AcDbEntity
  8
_U+30EC_U+30A4_U+30E4_U+30FC 1
370
     0
100
AcDbVertex
100
AcDb2dVertex
 10
113.2850748414704
 20
-130.8883069876772
 30
0.0
  0
VERTEX
  5
10A
330
106
100
AcDbEntity
  8
_U+30EC_U+30A4_U+30E4_U+30FC 1
370
     0
100
AcDbVertex
100
AcDb2dVertex
 10
113.7443060696542
 20
-130.8883069876772
 30
0.0
  0
VERTEX
  5
10B
330
106
100
AcDbEntity
  8
_U+30EC_U+30A4_U+30E4_U+30FC 1
370
     0
100
AcDbVertex
100
AcDb2dVertex
 10
113.7443060696542
 20
-130.5837605467811
 30
0.0
  0
SEQEND
  5
10C
330
106
100
AcDbEntity
  8
_U+30EC_U+30A4_U+30E4_U+30FC 1
370
     0
  0
POLYLINE
  5
10D
330
E4
100
AcDbEntity
  8
_U+30EC_U+30A4_U+30E4_U+30FC 1
370
     0
100
AcDb2dPolyline
 66
     1
 10
0.0
 20
0.0
 30
0.0
  0
VERTEX
  5
10E
330
10D
100
AcDbEntity
  8
_U+30EC_U+30A4_U+30E4_U+30FC 1
370
     0
100
AcDbVertex
100
AcDb2dVertex
 10
113.7443060696542
 20
-131.0553941187119
 30
0.0
  0
VERTEX
  5
10F
330
10D
100
AcDbEntity
  8
_U+30EC_U+30A4_U+30E4_U+30FC 1
370
     0
100
AcDbVertex
100
AcDb2dVertex
 10
113.2850748414704
 20
-131.0553941187119
 30
0.0
  0
VERTEX
  5
110
330
10D
100
AcDbEntity
  8
_U+30EC_U+30A4_U+30E4_U+30FC 1
370
     0
100
AcDbVertex
100
AcDb2dVertex
 10
113.2850748414704
 20
-131.3644191837388
 30
0.0
  0
VERTEX
  5
111
330
10D
100
AcDbEntity
  8
_U+30EC_U+30A4_U+30E4_U+30FC 1
370
     0
100
AcDbVertex
100
AcDb2dVertex
 10
113.7443060696542
 20
-131.3644191837388
 30
0.0
  0
VERTEX
  5
112
330
10D
100
AcDbEntity
  8
_U+30EC_U+30A4_U+30E4_U+30FC 1
370
     0
100
AcDbVertex
100
AcDb2dVertex
 10
113.7443060696542
 20
-131.0553941187119
 30
0.0
  0
SEQEND
  5
113
330
10D
100
AcDbEntity
  8
_U+30EC_U+30A4_U+30E4_U+30FC 1
370
     0
  0
HATCH
  5
114
330
E4
100
AcDbEntity
  8
_U+30EC_U+30A4_U+30E4_U+30FC 1
 62
   179
420
  2234388
100
AcDbHatch
 10
0.0
 20
0.0
 30
0.0
210
0.0
220
0.0
230
1.0
  2
SOLID
 70
     1
 71
     0
 91
        5
 92
        1
 93
        1
 72
     4
 94
        3
 73
     0
 74
     1
 95
       77
 96
       73
 40
0.0
 40
0.0
 40
0.0
 40
0.0
 40
1.0
 40
1.0
 40
1.0
 40
2.0
 40
2.0
 40
2.0
 40
3.0
 40
3.0
 40
3.0
 40
4.0
 40
4.0
 40
4.0
 40
5.0
 40
5.0
 40
5.0
 40
6.0
 40
6.0
 40
6.0
 40
7.0
 40
7.0
 40
7.0
 40
8.0
 40
8.0
 40
8.0
 40
9.0
 40
9.0
 40
9.0
 40
10.0
 40
10.0
 40
10.0
 40
11.0
 40
11.0
 40
11.0
 40
12.0
 40
12.0
 40
12.0
 40
13.0
 40
13.0
 40
13.0
 40
14.0
 40
14.0
 40
14.0
 40
15.0
 40
15.0
 40
15.0
 40
16.0
 40
16.0
 40
16.0
 40
17.0
 40
17.0
 40
17.0
 40
18.0
 40
18.0
 40
18.0
 40
19.0
 40
19.0
 40
19.0
 40
20.0
 40
20.0
 40
20.0
 40
21.0
 40
21.0
 40
21.0
 40
22.0
 40
22.0
 40
22.0
 40
23.0
 40
23.0
 40
23.0
 40
24.0
 40
24.0
 40
24.0
 40
24.0
 10
113.8796983222245
 20
-132.1702270177387
 10
113.8331895331737
 20
-132.1957207243296
 10
113.7084770766076
 20
-132.208467577625
 10
113.6299288995439
 20
-132.208467577625
 10
113.617526555797
 20
-132.208467577625
 10
113.5920328492062
 20
-132.208467577625
 10
113.5582709134507
 20
-132.2043334630427
 10
113.5582709134507
 20
-132.2043334630427
 10
113.4607747112181
 20
-131.9779906896618
 10
113.4607747112181
 20
-131.9779906896618
 10
113.4904025323913
 20
-131.9841918615352
 10
113.5475911174464
 20
-131.9928046002483
 10
113.6640353448479
 20
-131.9928046002483
 10
113.7422390123631
 20
-131.9928046002483
 10
113.7443060696542
 20
-131.9504299257798
 10
113.7443060696542
 20
-131.8932413407246
 10
113.7443060696542
 20
-131.8932413407246
 10
113.7443060696542
 20
-131.5442531680688
 10
113.7443060696542
 20
-131.5442531680688
 10
113.7443060696542
 20
-131.5442531680688
 10
113.2850748414704
 20
-131.5442531680688
 10
113.2850748414704
 20
-131.5442531680688
 10
113.2874864083101
 20
-131.6817124779303
 10
113.2895534656012
 20
-131.8804944874292
 10
113.2957546374747
 20
-132.0138196827083
 10
113.2978216947658
 20
-132.0413804465904
 10
113.2978216947658
 20
-132.0858221783501
 10
113.3105685480613
 20
-132.1471448779875
 10
113.3105685480613
 20
-132.1471448779875
 10
113.0694118640938
 20
-132.1471448779875
 10
113.0694118640938
 20
-132.1471448779875
 10
113.0949055706846
 20
-132.0224324214215
 10
113.0949055706846
 20
-131.6817124779303
 10
113.0949055706846
 20
-131.5442531680688
 10
113.0949055706846
 20
-131.5442531680688
 10
112.6525553103785
 20
-131.5442531680688
 10
112.6525553103785
 20
-131.5442531680688
 10
112.6294731706274
 20
-131.7516479162808
 10
112.5640163564076
 20
-132.0200208545818
 10
112.3669568946513
 20
-132.2043334630427
 10
112.3669568946513
 20
-132.2043334630427
 10
112.1788546811567
 20
-132.0816880637678
 10
112.1788546811567
 20
-132.0816880637678
 10
112.4327582184196
 20
-131.8615464622603
 10
112.4644530968839
 20
-131.5294392574822
 10
112.4644530968839
 20
-131.1973320527042
 10
112.4644530968839
 20
-131.1973320527042
 10
112.4644530968839
 20
-130.7615274738201
 10
112.4644530968839
 20
-130.7615274738201
 10
112.4644530968839
 20
-130.7253539712249
 10
112.4623860395927
 20
-130.4928100259706
 10
112.4537733008796
 20
-130.3911797091557
 10
112.5932996680322
 20
-130.40185950516
 10
112.8348008615482
 20
-130.40185950516
 10
112.9784613432832
 20
-130.40185950516
 10
112.9784613432832
 20
-130.40185950516
 10
113.437692571467
 20
-130.40185950516
 10
113.437692571467
 20
-130.40185950516
 10
113.4525064820536
 20
-130.40185950516
 10
113.8014946547094
 20
-130.40185950516
 10
113.9599690470309
 20
-130.3911797091557
 10
113.9579019897397
 20
-130.4442341796285
 10
113.9517008178663
 20
-130.6047756292412
 10
113.9517008178663
 20
-130.6557630424229
 10
113.9517008178663
 20
-130.6557630424229
 10
113.9517008178663
 20
-131.2627888669239
 10
113.9517008178663
 20
-131.2627888669239
 10
113.9517008178663
 20
-131.2817368920928
 10
113.962036104322
 20
-131.8529337235472
 10
113.962036104322
 20
-131.9652438363663
 10
113.962036104322
 20
-132.0224324214215
 10
113.962036104322
 20
-132.1237182286878
 10
113.8796983222245
 20
-132.1702270177387
 97
        0
 97
        0
 92
        1
 93
        4
 72
     1
 10
113.0949055706846
 20
-130.5837605467811
 11
112.6570339345094
 21
-130.5837605467811
 72
     1
 10
112.6570339345094
 20
-130.5837605467811
 11
112.6570339345094
 21
-130.8883069876772
 72
     1
 10
112.6570339345094
 20
-130.8883069876772
 11
113.0949055706846
 21
-130.8883069876772
 72
     1
 10
113.0949055706846
 20
-130.8883069876772
 11
113.0949055706846
 21
-130.5837605467811
 97
        0
 92
        1
 93
        4
 72
     1
 10
113.0949055706846
 20
-131.0553941187119
 11
112.6570339345094
 21
-131.0553941187119
 72
     1
 10
112.6570339345094
 20
-131.0553941187119
 11
112.6570339345094
 21
-131.3644191837388
 72
     1
 10
112.6570339345094
 20
-131.3644191837388
 11
113.0949055706846
 21
-131.3644191837388
 72
     1
 10
113.0949055706846
 20
-131.3644191837388
 11
113.0949055706846
 21
-131.0553941187119
 97
        0
 92
        1
 93
        4
 72
     1
 10
113.7443060696542
 20
-130.5837605467811
 11
113.2850748414704
 21
-130.5837605467811
 72
     1
 10
113.2850748414704
 20
-130.5837605467811
 11
113.2850748414704
 21
-130.8883069876772
 72
     1
 10
113.2850748414704
 20
-130.8883069876772
 11
113.7443060696542
 21
-130.8883069876772
 72
     1
 10
113.7443060696542
 20
-130.8883069876772
 11
113.7443060696542
 21
-130.5837605467811
 97
        0
 92
        1
 93
        4
 72
     1
 10
113.7443060696542
 20
-131.0553941187119
 11
113.2850748414704
 21
-131.0553941187119
 72
     1
 10
113.2850748414704
 20
-131.0553941187119
 11
113.2850748414704
 21
-131.3644191837388
 72
     1
 10
113.2850748414704
 20
-131.3644191837388
 11
113.7443060696542
 21
-131.3644191837388
 72
     1
 10
113.7443060696542
 20
-131.3644191837388
 11
113.7443060696542
 21
-131.0553941187119
 97
        0
 75
     2
 76
     1
 98
        0
  0
SPLINE
  5
115
330
E4
100
AcDbEntity
  8
_U+30EC_U+30A4_U+30E4_U+30FC 1
370
     0
100
AcDbSpline
210
0.0
220
0.0
230
1.0
 70
    11
 71
     3
 72
    44
 73
    40
 74
     0
 42
0.0000000001
 43
0.0000000001
 12
1.0
 22
0.0
 32
0.0
 13
1.0
 23
0.0
 33
0.0
 40
0.0
 40
0.0
 40
0.0
 40
0.0
 40
1.0
 40
1.0
 40
1.0
 40
2.0
 40
2.0
 40
2.0
 40
3.0
 40
3.0
 40
3.0
 40
4.0
 40
4.0
 40
4.0
 40
5.0
 40
5.0
 40
5.0
 40
6.0
 40
6.0
 40
6.0
 40
7.0
 40
7.0
 40
7.0
 40
8.0
 40
8.0
 40
8.0
 40
9.0
 40
9.0
 40
9.0
 40
10.0
 40
10.0
 40
10.0
 40
11.0
 40
11.0
 40
11.0
 40
12.0
 40
12.0
 40
12.0
 40
13.0
 40
13.0
 40
13.0
 40
13.0
 10
115.7572753616857
 20
-130.9200018661415
 30
0.0
 10
115.6453097584151
 20
-131.2882825735147
 30
0.0
 10
115.5946668547819
 20
-131.4467569658362
 30
0.0
 10
115.3979519025741
 20
-131.6965263885168
 30
0.0
 10
115.2136392941133
 20
-131.9270032764801
 30
0.0
 10
114.9769612342766
 20
-132.1133829422321
 30
0.0
 10
114.6975639904228
 20
-132.2064005203338
 30
0.0
 10
114.6975639904228
 20
-132.2064005203338
 30
0.0
 10
114.5049831527974
 20
-132.0265665360038
 30
0.0
 10
114.5049831527974
 20
-132.0265665360038
 30
0.0
 10
115.1461154226024
 20
-131.8742933155557
 30
0.0
 10
115.4761555700893
 20
-131.3179103946879
 30
0.0
 10
115.5395453270179
 20
-130.8779717012215
 30
0.0
 10
115.5395453270179
 20
-130.8779717012215
 30
0.0
 10
114.7737006006469
 20
-130.8779717012215
 30
0.0
 10
114.7737006006469
 20
-130.8779717012215
 30
0.0
 10
114.6806830225451
 20
-130.8779717012215
 30
0.0
 10
114.4967149236328
 20
-130.8821058158038
 30
0.0
 10
114.3399630790539
 20
-130.9010538409727
 30
0.0
 10
114.3399630790539
 20
-130.9010538409727
 30
0.0
 10
114.3399630790539
 20
-130.6809122394652
 30
0.0
 10
114.3399630790539
 20
-130.6809122394652
 30
0.0
 10
114.4267794852822
 20
-130.7022718314738
 30
0.0
 10
114.678615965254
 20
-130.7022718314738
 30
0.0
 10
114.7778347152292
 20
-130.7022718314738
 30
0.0
 10
114.7778347152292
 20
-130.7022718314738
 30
0.0
 10
115.209505179531
 20
-130.7022718314738
 30
0.0
 10
115.209505179531
 20
-130.7022718314738
 30
0.0
 10
115.2518798539995
 20
-130.7022718314738
 30
0.0
 10
115.486490856545
 20
-130.7002047741826
 30
0.0
 10
115.5247314164313
 20
-130.6936590927606
 30
0.0
 10
115.5671060908999
 20
-130.6874579208872
 30
0.0
 10
115.569173148191
 20
-130.685390863596
 30
0.0
 10
115.6304958478285
 20
-130.6450832464186
 30
0.0
 10
115.6304958478285
 20
-130.6450832464186
 30
0.0
 10
115.8185980613231
 20
-130.7994235241578
 30
0.0
 10
115.8185980613231
 20
-130.7994235241578
 30
0.0
 10
115.7893147496985
 20
-130.8290513453309
 30
0.0
 10
115.7745008391119
 20
-130.8607462237952
 30
0.0
 10
115.7572753616857
 20
-130.9200018661415
 30
0.0
  0
SPLINE
  5
116
330
E4
100
AcDbEntity
  8
_U+30EC_U+30A4_U+30E4_U+30FC 1
370
     0
100
AcDbSpline
210
0.0
220
0.0
230
1.0
 70
    11
 71
     3
 72
    17
 73
    13
 74
     0
 42
0.0000000001
 43
0.0000000001
 12
1.0
 22
0.0
 32
0.0
 13
1.0
 23
0.0
 33
0.0
 40
0.0
 40
0.0
 40
0.0
 40
0.0
 40
1.0
 40
1.0
 40
1.0
 40
2.0
 40
2.0
 40
2.0
 40
3.0
 40
3.0
 40
3.0
 40
4.0
 40
4.0
 40
4.0
 40
4.0
 10
115.9667371671889
 20
-130.7212198566426
 30
0.0
 10
115.8399576533317
 20
-130.7212198566426
 30
0.0
 10
115.7383273365168
 20
-130.6195895398278
 30
0.0
 10
115.7383273365168
 20
-130.4928100259706
 30
0.0
 10
115.7383273365168
 20
-130.3660305121134
 30
0.0
 10
115.8399576533317
 20
-130.2623331380073
 30
0.0
 10
115.9667371671889
 20
-130.2623331380073
 30
0.0
 10
116.0938611905946
 20
-130.2623331380073
 30
0.0
 10
116.1975585647006
 20
-130.3660305121134
 30
0.0
 10
116.1975585647006
 20
-130.4928100259706
 30
0.0
 10
116.1975585647006
 20
-130.6195895398278
 30
0.0
 10
116.0938611905946
 20
-130.7212198566426
 30
0.0
 10
115.9667371671889
 20
-130.7212198566426
 30
0.0
  0
SPLINE
  5
117
330
E4
100
AcDbEntity
  8
_U+30EC_U+30A4_U+30E4_U+30FC 1
370
     0
100
AcDbSpline
210
0.0
220
0.0
230
1.0
 70
    11
 71
     3
 72
    17
 73
    13
 74
     0
 42
0.0000000001
 43
0.0000000001
 12
1.0
 22
0.0
 32
0.0
 13
1.0
 23
0.0
 33
0.0
 40
0.0
 40
0.0
 40
0.0
 40
0.0
 40
1.0
 40
1.0
 40
1.0
 40
2.0
 40
2.0
 40
2.0
 40
3.0
 40
3.0
 40
3.0
 40
4.0
 40
4.0
 40
4.0
 40
4.0
 10
115.9646701098977
 20
-130.3911797091557
 30
0.0
 10
115.9098930916822
 20
-130.3911797091557
 30
0.0
 10
115.8654513599225
 20
-130.4356214409154
 30
0.0
 10
115.8654513599225
 20
-130.4907429686794
 30
0.0
 10
115.8654513599225
 20
-130.5479315537345
 30
0.0
 10
115.9098930916822
 20
-130.5965074000766
 30
0.0
 10
115.96880422448
 20
-130.5965074000766
 30
0.0
 10
116.0280598668263
 20
-130.5965074000766
 30
0.0
 10
116.0683674840037
 20
-130.5455199868949
 30
0.0
 10
116.0683674840037
 20
-130.4928100259706
 30
0.0
 10
116.0683674840037
 20
-130.4356214409154
 30
0.0
 10
116.0218586949529
 20
-130.3911797091557
 30
0.0
 10
115.9646701098977
 20
-130.3911797091557
 30
0.0
  0
HATCH
  5
118
330
E4
100
AcDbEntity
  8
_U+30EC_U+30A4_U+30E4_U+30FC 1
 62
   179
420
  2234388
100
AcDbHatch
 10
0.0
 20
0.0
 30
0.0
210
0.0
220
0.0
230
1.0
  2
SOLID
 70
     1
 71
     0
 91
        3
 92
        1
 93
        1
 72
     4
 94
        3
 73
     0
 74
     1
 95
       44
 96
       40
 40
0.0
 40
0.0
 40
0.0
 40
0.0
 40
1.0
 40
1.0
 40
1.0
 40
2.0
 40
2.0
 40
2.0
 40
3.0
 40
3.0
 40
3.0
 40
4.0
 40
4.0
 40
4.0
 40
5.0
 40
5.0
 40
5.0
 40
6.0
 40
6.0
 40
6.0
 40
7.0
 40
7.0
 40
7.0
 40
8.0
 40
8.0
 40
8.0
 40
9.0
 40
9.0
 40
9.0
 40
10.0
 40
10.0
 40
10.0
 40
11.0
 40
11.0
 40
11.0
 40
12.0
 40
12.0
 40
12.0
 40
13.0
 40
13.0
 40
13.0
 40
13.0
 10
115.7572753616857
 20
-130.9200018661415
 10
115.6453097584151
 20
-131.2882825735147
 10
115.5946668547819
 20
-131.4467569658362
 10
115.3979519025741
 20
-131.6965263885168
 10
115.2136392941133
 20
-131.9270032764801
 10
114.9769612342766
 20
-132.1133829422321
 10
114.6975639904228
 20
-132.2064005203338
 10
114.6975639904228
 20
-132.2064005203338
 10
114.5049831527974
 20
-132.0265665360038
 10
114.5049831527974
 20
-132.0265665360038
 10
115.1461154226024
 20
-131.8742933155557
 10
115.4761555700893
 20
-131.3179103946879
 10
115.5395453270179
 20
-130.8779717012215
 10
115.5395453270179
 20
-130.8779717012215
 10
114.7737006006469
 20
-130.8779717012215
 10
114.7737006006469
 20
-130.8779717012215
 10
114.6806830225451
 20
-130.8779717012215
 10
114.4967149236328
 20
-130.8821058158038
 10
114.3399630790539
 20
-130.9010538409727
 10
114.3399630790539
 20
-130.9010538409727
 10
114.3399630790539
 20
-130.6809122394652
 10
114.3399630790539
 20
-130.6809122394652
 10
114.4267794852822
 20
-130.7022718314738
 10
114.678615965254
 20
-130.7022718314738
 10
114.7778347152292
 20
-130.7022718314738
 10
114.7778347152292
 20
-130.7022718314738
 10
115.209505179531
 20
-130.7022718314738
 10
115.209505179531
 20
-130.7022718314738
 10
115.2518798539995
 20
-130.7022718314738
 10
115.486490856545
 20
-130.7002047741826
 10
115.5247314164313
 20
-130.6936590927606
 10
115.5671060908999
 20
-130.6874579208872
 10
115.569173148191
 20
-130.685390863596
 10
115.6304958478285
 20
-130.6450832464186
 10
115.6304958478285
 20
-130.6450832464186
 10
115.8185980613231
 20
-130.7994235241578
 10
115.8185980613231
 20
-130.7994235241578
 10
115.7893147496985
 20
-130.8290513453309
 10
115.7745008391119
 20
-130.8607462237952
 10
115.7572753616857
 20
-130.9200018661415
 97
        0
 97
        0
 92
        1
 93
        1
 72
     4
 94
        3
 73
     0
 74
     1
 95
       17
 96
       13
 40
0.0
 40
0.0
 40
0.0
 40
0.0
 40
1.0
 40
1.0
 40
1.0
 40
2.0
 40
2.0
 40
2.0
 40
3.0
 40
3.0
 40
3.0
 40
4.0
 40
4.0
 40
4.0
 40
4.0
 10
115.9667371671889
 20
-130.7212198566426
 10
115.8399576533317
 20
-130.7212198566426
 10
115.7383273365168
 20
-130.6195895398278
 10
115.7383273365168
 20
-130.4928100259706
 10
115.7383273365168
 20
-130.3660305121134
 10
115.8399576533317
 20
-130.2623331380073
 10
115.9667371671889
 20
-130.2623331380073
 10
116.0938611905946
 20
-130.2623331380073
 10
116.1975585647006
 20
-130.3660305121134
 10
116.1975585647006
 20
-130.4928100259706
 10
116.1975585647006
 20
-130.6195895398278
 10
116.0938611905946
 20
-130.7212198566426
 10
115.9667371671889
 20
-130.7212198566426
 97
        0
 97
        0
 92
        1
 93
        1
 72
     4
 94
        3
 73
     0
 74
     1
 95
       17
 96
       13
 40
0.0
 40
0.0
 40
0.0
 40
0.0
 40
1.0
 40
1.0
 40
1.0
 40
2.0
 40
2.0
 40
2.0
 40
3.0
 40
3.0
 40
3.0
 40
4.0
 40
4.0
 40
4.0
 40
4.0
 10
115.9646701098977
 20
-130.3911797091557
 10
115.9098930916822
 20
-130.3911797091557
 10
115.8654513599225
 20
-130.4356214409154
 10
115.8654513599225
 20
-130.4907429686794
 10
115.8654513599225
 20
-130.5479315537345
 10
115.9098930916822
 20
-130.5965074000766
 10
115.96880422448
 20
-130.5965074000766
 10
116.0280598668263
 20
-130.5965074000766
 10
116.0683674840037
 20
-130.5455199868949
 10
116.0683674840037
 20
-130.4928100259706
 10
116.0683674840037
 20
-130.4356214409154
 10
116.0218586949529
 20
-130.3911797091557
 10
115.9646701098977
 20
-130.3911797091557
 97
        0
 97
        0
 75
     2
 76
     1
 98
        0
  0
SPLINE
  5
119
330
E4
100
AcDbEntity
  8
_U+30EC_U+30A4_U+30E4_U+30FC 1
370
     0
100
AcDbSpline
210
0.0
220
0.0
230
1.0
 70
    11
 71
     3
 72
    50
 73
    46
 74
     0
 42
0.0000000001
 43
0.0000000001
 12
1.0
 22
0.0
 32
0.0
 13
1.0
 23
0.0
 33
0.0
 40
0.0
 40
0.0
 40
0.0
 40
0.0
 40
1.0
 40
1.0
 40
1.0
 40
2.0
 40
2.0
 40
2.0
 40
3.0
 40
3.0
 40
3.0
 40
4.0
 40
4.0
 40
4.0
 40
5.0
 40
5.0
 40
5.0
 40
6.0
 40
6.0
 40
6.0
 40
7.0
 40
7.0
 40
7.0
 40
8.0
 40
8.0
 40
8.0
 40
9.0
 40
9.0
 40
9.0
 40
10.0
 40
10.0
 40
10.0
 40
11.0
 40
11.0
 40
11.0
 40
12.0
 40
12.0
 40
12.0
 40
13.0
 40
13.0
 40
13.0
 40
14.0
 40
14.0
 40
14.0
 40
15.0
 40
15.0
 40
15.0
 40
15.0
 10
117.7619764245526
 20
-131.2290269311684
 30
0.0
 10
117.6834282474889
 20
-131.4067938582073
 30
0.0
 10
117.5480359949185
 20
-131.6138440968708
 30
0.0
 10
117.4105766850571
 20
-131.753714973572
 30
0.0
 10
117.2414224967313
 20
-131.9249362191889
 30
0.0
 10
117.078469480279
 20
-132.0138196827083
 30
0.0
 10
116.7591091287963
 20
-132.1554131071521
 30
0.0
 10
116.7591091287963
 20
-132.1554131071521
 30
0.0
 10
116.5899549404706
 20
-131.9673108936575
 30
0.0
 10
116.5899549404706
 20
-131.9673108936575
 30
0.0
 10
116.7759900966741
 20
-131.9438842443578
 30
0.0
 10
116.947211342291
 20
-131.857412347678
 30
0.0
 10
117.0998290722875
 20
-131.7516479162808
 30
0.0
 10
117.3620008387151
 20
-131.5697468746596
 30
0.0
 10
117.5525146190494
 20
-131.2565876950505
 30
0.0
 10
117.6010904653914
 20
-131.0746866534292
 30
0.0
 10
117.6010904653914
 20
-131.0746866534292
 30
0.0
 10
116.9303303744133
 20
-131.0746866534292
 30
0.0
 10
116.9303303744133
 20
-131.0746866534292
 30
0.0
 10
116.7718559820918
 20
-131.0746866534292
 30
0.0
 10
116.4797118849426
 20
-131.0829548825938
 30
0.0
 10
116.3274386644945
 20
-131.0998358504716
 30
0.0
 10
116.3274386644945
 20
-131.0998358504716
 30
0.0
 10
116.3274386644945
 20
-130.8714260197995
 30
0.0
 10
116.3274386644945
 20
-130.8714260197995
 30
0.0
 10
116.3615451097985
 20
-130.8779717012215
 30
0.0
 10
116.3866943068408
 20
-130.8841728730949
 30
0.0
 10
116.4397487773137
 20
-130.8883069876772
 30
0.0
 10
116.54103458458
 20
-130.8948526690992
 30
0.0
 10
116.7380940463363
 20
-130.8969197263904
 30
0.0
 10
116.8224988857249
 20
-130.8969197263904
 30
0.0
 10
116.8224988857249
 20
-130.8969197263904
 30
0.0
 10
117.3282389029596
 20
-130.8969197263904
 30
0.0
 10
117.3282389029596
 20
-130.8969197263904
 30
0.0
 10
117.3957627744705
 20
-130.8969197263904
 30
0.0
 10
117.5418348230451
 20
-130.8927856118081
 30
0.0
 10
117.6031575226826
 20
-130.8862399303861
 30
0.0
 10
117.6751600183243
 20
-130.8779717012215
 30
0.0
 10
117.7027207822063
 20
-130.8631577906349
 30
0.0
 10
117.7364827179617
 20
-130.8397311413352
 30
0.0
 10
117.7364827179617
 20
-130.8397311413352
 30
0.0
 10
117.9015027917052
 20
-131.0068182723698
 30
0.0
 10
117.9015027917052
 20
-131.0068182723698
 30
0.0
 10
117.8315673533546
 20
-131.0746866534292
 30
0.0
 10
117.7850585643037
 20
-131.1783840275353
 30
0.0
 10
117.7619764245526
 20
-131.2290269311684
 30
0.0
  0
SPLINE
  5
11A
330
E4
100
AcDbEntity
  8
_U+30EC_U+30A4_U+30E4_U+30FC 1
370
     0
100
AcDbSpline
210
0.0
220
0.0
230
1.0
 70
    11
 71
     3
 72
    29
 73
    25
 74
     0
 42
0.0000000001
 43
0.0000000001
 12
1.0
 22
0.0
 32
0.0
 13
1.0
 23
0.0
 33
0.0
 40
0.0
 40
0.0
 40
0.0
 40
0.0
 40
1.0
 40
1.0
 40
1.0
 40
2.0
 40
2.0
 40
2.0
 40
3.0
 40
3.0
 40
3.0
 40
4.0
 40
4.0
 40
4.0
 40
5.0
 40
5.0
 40
5.0
 40
6.0
 40
6.0
 40
6.0
 40
7.0
 40
7.0
 40
7.0
 40
8.0
 40
8.0
 40
8.0
 40
8.0
 10
117.2689832606133
 20
-130.60270857195
 30
0.0
 10
117.2689832606133
 20
-130.60270857195
 30
0.0
 10
116.9282633171221
 20
-130.60270857195
 30
0.0
 10
116.9282633171221
 20
-130.60270857195
 30
0.0
 10
116.8142306565603
 20
-130.60270857195
 30
0.0
 10
116.6977864291589
 20
-130.6071871960808
 30
0.0
 10
116.5834092590486
 20
-130.6220011066674
 30
0.0
 10
116.5834092590486
 20
-130.6220011066674
 30
0.0
 10
116.5834092590486
 20
-130.4125393011642
 30
0.0
 10
116.5834092590486
 20
-130.4125393011642
 30
0.0
 10
116.7019205437412
 20
-130.4273532117508
 30
0.0
 10
116.8755533561978
 20
-130.4314873263331
 30
0.0
 10
116.9282633171221
 20
-130.4314873263331
 30
0.0
 10
116.9282633171221
 20
-130.4314873263331
 30
0.0
 10
117.2689832606133
 20
-130.4314873263331
 30
0.0
 10
117.2689832606133
 20
-130.4314873263331
 30
0.0
 10
117.3854274880148
 20
-130.4314873263331
 30
0.0
 10
117.5015272058677
 20
-130.4273532117508
 30
0.0
 10
117.6179714332691
 20
-130.4125393011642
 30
0.0
 10
117.6179714332691
 20
-130.4125393011642
 30
0.0
 10
117.6179714332691
 20
-130.6220011066674
 30
0.0
 10
117.6179714332691
 20
-130.6220011066674
 30
0.0
 10
117.4677652701122
 20
-130.60270857195
 30
0.0
 10
117.2837971711999
 20
-130.60270857195
 30
0.0
 10
117.2689832606133
 20
-130.60270857195
 30
0.0
  0
HATCH
  5
11B
330
E4
100
AcDbEntity
  8
_U+30EC_U+30A4_U+30E4_U+30FC 1
 62
   179
420
  2234388
100
AcDbHatch
 10
0.0
 20
0.0
 30
0.0
210
0.0
220
0.0
230
1.0
  2
SOLID
 70
     1
 71
     0
 91
        2
 92
        1
 93
        1
 72
     4
 94
        3
 73
     0
 74
     1
 95
       50
 96
       46
 40
0.0
 40
0.0
 40
0.0
 40
0.0
 40
1.0
 40
1.0
 40
1.0
 40
2.0
 40
2.0
 40
2.0
 40
3.0
 40
3.0
 40
3.0
 40
4.0
 40
4.0
 40
4.0
 40
5.0
 40
5.0
 40
5.0
 40
6.0
 40
6.0
 40
6.0
 40
7.0
 40
7.0
 40
7.0
 40
8.0
 40
8.0
 40
8.0
 40
9.0
 40
9.0
 40
9.0
 40
10.0
 40
10.0
 40
10.0
 40
11.0
 40
11.0
 40
11.0
 40
12.0
 40
12.0
 40
12.0
 40
13.0
 40
13.0
 40
13.0
 40
14.0
 40
14.0
 40
14.0
 40
15.0
 40
15.0
 40
15.0
 40
15.0
 10
117.7619764245526
 20
-131.2290269311684
 10
117.6834282474889
 20
-131.4067938582073
 10
117.5480359949185
 20
-131.6138440968708
 10
117.4105766850571
 20
-131.753714973572
 10
117.2414224967313
 20
-131.9249362191889
 10
117.078469480279
 20
-132.0138196827083
 10
116.7591091287963
 20
-132.1554131071521
 10
116.7591091287963
 20
-132.1554131071521
 10
116.5899549404706
 20
-131.9673108936575
 10
116.5899549404706
 20
-131.9673108936575
 10
116.7759900966741
 20
-131.9438842443578
 10
116.947211342291
 20
-131.857412347678
 10
117.0998290722875
 20
-131.7516479162808
 10
117.3620008387151
 20
-131.5697468746596
 10
117.5525146190494
 20
-131.2565876950505
 10
117.6010904653914
 20
-131.0746866534292
 10
117.6010904653914
 20
-131.0746866534292
 10
116.9303303744133
 20
-131.0746866534292
 10
116.9303303744133
 20
-131.0746866534292
 10
116.7718559820918
 20
-131.0746866534292
 10
116.4797118849426
 20
-131.0829548825938
 10
116.3274386644945
 20
-131.0998358504716
 10
116.3274386644945
 20
-131.0998358504716
 10
116.3274386644945
 20
-130.8714260197995
 10
116.3274386644945
 20
-130.8714260197995
 10
116.3615451097985
 20
-130.8779717012215
 10
116.3866943068408
 20
-130.8841728730949
 10
116.4397487773137
 20
-130.8883069876772
 10
116.54103458458
 20
-130.8948526690992
 10
116.7380940463363
 20
-130.8969197263904
 10
116.8224988857249
 20
-130.8969197263904
 10
116.8224988857249
 20
-130.8969197263904
 10
117.3282389029596
 20
-130.8969197263904
 10
117.3282389029596
 20
-130.8969197263904
 10
117.3957627744705
 20
-130.8969197263904
 10
117.5418348230451
 20
-130.8927856118081
 10
117.6031575226826
 20
-130.8862399303861
 10
117.6751600183243
 20
-130.8779717012215
 10
117.7027207822063
 20
-130.8631577906349
 10
117.7364827179617
 20
-130.8397311413352
 10
117.7364827179617
 20
-130.8397311413352
 10
117.9015027917052
 20
-131.0068182723698
 10
117.9015027917052
 20
-131.0068182723698
 10
117.8315673533546
 20
-131.0746866534292
 10
117.7850585643037
 20
-131.1783840275353
 10
117.7619764245526
 20
-131.2290269311684
 97
        0
 97
        0
 92
        1
 93
        1
 72
     4
 94
        3
 73
     0
 74
     1
 95
       29
 96
       25
 40
0.0
 40
0.0
 40
0.0
 40
0.0
 40
1.0
 40
1.0
 40
1.0
 40
2.0
 40
2.0
 40
2.0
 40
3.0
 40
3.0
 40
3.0
 40
4.0
 40
4.0
 40
4.0
 40
5.0
 40
5.0
 40
5.0
 40
6.0
 40
6.0
 40
6.0
 40
7.0
 40
7.0
 40
7.0
 40
8.0
 40
8.0
 40
8.0
 40
8.0
 10
117.2689832606133
 20
-130.60270857195
 10
117.2689832606133
 20
-130.60270857195
 10
116.9282633171221
 20
-130.60270857195
 10
116.9282633171221
 20
-130.60270857195
 10
116.8142306565603
 20
-130.60270857195
 10
116.6977864291589
 20
-130.6071871960808
 10
116.5834092590486
 20
-130.6220011066674
 10
116.5834092590486
 20
-130.6220011066674
 10
116.5834092590486
 20
-130.4125393011642
 10
116.5834092590486
 20
-130.4125393011642
 10
116.7019205437412
 20
-130.4273532117508
 10
116.8755533561978
 20
-130.4314873263331
 10
116.9282633171221
 20
-130.4314873263331
 10
116.9282633171221
 20
-130.4314873263331
 10
117.2689832606133
 20
-130.4314873263331
 10
117.2689832606133
 20
-130.4314873263331
 10
117.3854274880148
 20
-130.4314873263331
 10
117.5015272058677
 20
-130.4273532117508
 10
117.6179714332691
 20
-130.4125393011642
 10
117.6179714332691
 20
-130.4125393011642
 10
117.6179714332691
 20
-130.6220011066674
 10
117.6179714332691
 20
-130.6220011066674
 10
117.4677652701122
 20
-130.60270857195
 10
117.2837971711999
 20
-130.60270857195
 10
117.2689832606133
 20
-130.60270857195
 97
        0
 97
        0
 75
     2
 76
     1
 98
        0
  0
SPLINE
  5
11C
330
E4
100
AcDbEntity
  8
_U+30EC_U+30A4_U+30E4_U+30FC 1
370
     0
100
AcDbSpline
210
0.0
220
0.0
230
1.0
 70
    11
 71
     3
 72
    50
 73
    46
 74
     0
 42
0.0000000001
 43
0.0000000001
 12
1.0
 22
0.0
 32
0.0
 13
1.0
 23
0.0
 33
0.0
 40
0.0
 40
0.0
 40
0.0
 40
0.0
 40
1.0
 40
1.0
 40
1.0
 40
2.0
 40
2.0
 40
2.0
 40
3.0
 40
3.0
 40
3.0
 40
4.0
 40
4.0
 40
4.0
 40
5.0
 40
5.0
 40
5.0
 40
6.0
 40
6.0
 40
6.0
 40
7.0
 40
7.0
 40
7.0
 40
8.0
 40
8.0
 40
8.0
 40
9.0
 40
9.0
 40
9.0
 40
10.0
 40
10.0
 40
10.0
 40
11.0
 40
11.0
 40
11.0
 40
12.0
 40
12.0
 40
12.0
 40
13.0
 40
13.0
 40
13.0
 40
14.0
 40
14.0
 40
14.0
 40
15.0
 40
15.0
 40
15.0
 40
15.0
 10
119.4721218234306
 20
-130.5878946613634
 30
0.0
 10
119.2626600179274
 20
-130.8014905814489
 30
0.0
 10
119.1910020318342
 20
-130.8734930770907
 30
0.0
 10
119.0490640978419
 20
-130.9920043617832
 30
0.0
 10
119.0490640978419
 20
-130.9920043617832
 30
0.0
 10
119.0490640978419
 20
-131.5590670786554
 30
0.0
 10
119.0490640978419
 20
-131.5590670786554
 30
0.0
 10
119.0490640978419
 20
-131.7092732418123
 30
0.0
 10
119.0556097792639
 20
-131.7282212669811
 30
0.0
 10
119.0597438938462
 20
-131.90598819402
 30
0.0
 10
119.0618109511373
 20
-132.0372463320081
 30
0.0
 10
119.0680121230108
 20
-132.0858221783501
 30
0.0
 10
119.0745578044328
 20
-132.1450778206964
 30
0.0
 10
119.0745578044328
 20
-132.1450778206964
 30
0.0
 10
118.8482150310518
 20
-132.1450778206964
 30
0.0
 10
118.8482150310518
 20
-132.1450778206964
 30
0.0
 10
118.8523491456341
 20
-132.1006360889367
 30
0.0
 10
118.8564832602164
 20
-132.0541272998858
 30
0.0
 10
118.8564832602164
 20
-132.0455145611727
 30
0.0
 10
118.8564832602164
 20
-131.9652438363663
 30
0.0
 10
118.8609618843473
 20
-131.6138440968708
 30
0.0
 10
118.8609618843473
 20
-131.5421861107777
 30
0.0
 10
118.8609618843473
 20
-131.5421861107777
 30
0.0
 10
118.8609618843473
 20
-131.1360093530667
 30
0.0
 10
118.8609618843473
 20
-131.1360093530667
 30
0.0
 10
118.6790608427261
 20
-131.2607218096327
 30
0.0
 10
118.4844129478095
 20
-131.3706203556122
 30
0.0
 10
118.2811523141797
 20
-131.4574367618405
 30
0.0
 10
118.2811523141797
 20
-131.4574367618405
 30
0.0
 10
118.0782361900985
 20
-131.2944837453882
 30
0.0
 10
118.0782361900985
 20
-131.2944837453882
 30
0.0
 10
118.2008815893734
 20
-131.2586547523416
 30
0.0
 10
118.4568521839275
 20
-131.1845851994087
 30
0.0
 10
118.801706242001
 20
-130.9286146048547
 30
0.0
 10
119.0173692193776
 20
-130.7697957029847
 30
0.0
 10
119.2099500570031
 20
-130.58169348949
 30
0.0
 10
119.3622232774511
 20
-130.3615518879825
 30
0.0
 10
119.3622232774511
 20
-130.3615518879825
 30
0.0
 10
119.5548041150766
 20
-130.505556879266
 30
0.0
 10
119.5548041150766
 20
-130.505556879266
 30
0.0
 10
119.567550968372
 20
-130.5162366752702
 30
0.0
 10
119.5758191975366
 20
-130.5307060763083
 30
0.0
 10
119.5758191975366
 20
-130.5434529296037
 30
0.0
 10
119.5758191975366
 20
-130.5837605467811
 30
0.0
 10
119.5379231471989
 20
-130.5837605467811
 30
0.0
 10
119.4721218234306
 20
-130.5878946613634
 30
0.0
  0
HATCH
  5
11D
330
E4
100
AcDbEntity
  8
_U+30EC_U+30A4_U+30E4_U+30FC 1
 62
   179
420
  2234388
100
AcDbHatch
 10
0.0
 20
0.0
 30
0.0
210
0.0
220
0.0
230
1.0
  2
SOLID
 70
     1
 71
     0
 91
        1
 92
        1
 93
        1
 72
     4
 94
        3
 73
     0
 74
     1
 95
       50
 96
       46
 40
0.0
 40
0.0
 40
0.0
 40
0.0
 40
1.0
 40
1.0
 40
1.0
 40
2.0
 40
2.0
 40
2.0
 40
3.0
 40
3.0
 40
3.0
 40
4.0
 40
4.0
 40
4.0
 40
5.0
 40
5.0
 40
5.0
 40
6.0
 40
6.0
 40
6.0
 40
7.0
 40
7.0
 40
7.0
 40
8.0
 40
8.0
 40
8.0
 40
9.0
 40
9.0
 40
9.0
 40
10.0
 40
10.0
 40
10.0
 40
11.0
 40
11.0
 40
11.0
 40
12.0
 40
12.0
 40
12.0
 40
13.0
 40
13.0
 40
13.0
 40
14.0
 40
14.0
 40
14.0
 40
15.0
 40
15.0
 40
15.0
 40
15.0
 10
119.4721218234306
 20
-130.5878946613634
 10
119.2626600179274
 20
-130.8014905814489
 10
119.1910020318342
 20
-130.8734930770907
 10
119.0490640978419
 20
-130.9920043617832
 10
119.0490640978419
 20
-130.9920043617832
 10
119.0490640978419
 20
-131.5590670786554
 10
119.0490640978419
 20
-131.5590670786554
 10
119.0490640978419
 20
-131.7092732418123
 10
119.0556097792639
 20
-131.7282212669811
 10
119.0597438938462
 20
-131.90598819402
 10
119.0618109511373
 20
-132.0372463320081
 10
119.0680121230108
 20
-132.0858221783501
 10
119.0745578044328
 20
-132.1450778206964
 10
119.0745578044328
 20
-132.1450778206964
 10
118.8482150310518
 20
-132.1450778206964
 10
118.8482150310518
 20
-132.1450778206964
 10
118.8523491456341
 20
-132.1006360889367
 10
118.8564832602164
 20
-132.0541272998858
 10
118.8564832602164
 20
-132.0455145611727
 10
118.8564832602164
 20
-131.9652438363663
 10
118.8609618843473
 20
-131.6138440968708
 10
118.8609618843473
 20
-131.5421861107777
 10
118.8609618843473
 20
-131.5421861107777
 10
118.8609618843473
 20
-131.1360093530667
 10
118.8609618843473
 20
-131.1360093530667
 10
118.6790608427261
 20
-131.2607218096327
 10
118.4844129478095
 20
-131.3706203556122
 10
118.2811523141797
 20
-131.4574367618405
 10
118.2811523141797
 20
-131.4574367618405
 10
118.0782361900985
 20
-131.2944837453882
 10
118.0782361900985
 20
-131.2944837453882
 10
118.2008815893734
 20
-131.2586547523416
 10
118.4568521839275
 20
-131.1845851994087
 10
118.801706242001
 20
-130.9286146048547
 10
119.0173692193776
 20
-130.7697957029847
 10
119.2099500570031
 20
-130.58169348949
 10
119.3622232774511
 20
-130.3615518879825
 10
119.3622232774511
 20
-130.3615518879825
 10
119.5548041150766
 20
-130.505556879266
 10
119.5548041150766
 20
-130.505556879266
 10
119.567550968372
 20
-130.5162366752702
 10
119.5758191975366
 20
-130.5307060763083
 10
119.5758191975366
 20
-130.5434529296037
 10
119.5758191975366
 20
-130.5837605467811
 10
119.5379231471989
 20
-130.5837605467811
 10
119.4721218234306
 20
-130.5878946613634
 97
        0
 97
        0
 75
     2
 76
     1
 98
        0
  0
SPLINE
  5
11E
330
E4
100
AcDbEntity
  8
_U+30EC_U+30A4_U+30E4_U+30FC 1
370
     0
100
AcDbSpline
210
0.0
220
0.0
230
1.0
 70
    11
 71
     3
 72
    50
 73
    46
 74
     0
 42
0.0000000001
 43
0.0000000001
 12
1.0
 22
0.0
 32
0.0
 13
1.0
 23
0.0
 33
0.0
 40
0.0
 40
0.0
 40
0.0
 40
0.0
 40
1.0
 40
1.0
 40
1.0
 40
2.0
 40
2.0
 40
2.0
 40
3.0
 40
3.0
 40
3.0
 40
4.0
 40
4.0
 40
4.0
 40
5.0
 40
5.0
 40
5.0
 40
6.0
 40
6.0
 40
6.0
 40
7.0
 40
7.0
 40
7.0
 40
8.0
 40
8.0
 40
8.0
 40
9.0
 40
9.0
 40
9.0
 40
10.0
 40
10.0
 40
10.0
 40
11.0
 40
11.0
 40
11.0
 40
12.0
 40
12.0
 40
12.0
 40
13.0
 40
13.0
 40
13.0
 40
14.0
 40
14.0
 40
14.0
 40
15.0
 40
15.0
 40
15.0
 40
15.0
 10
121.1802001650175
 20
-131.1146497610582
 30
0.0
 10
121.11887746538
 20
-131.1866522566999
 30
0.0
 10
120.8584282466951
 20
-131.5039455508914
 30
0.0
 10
120.8015841711885
 20
-131.56733530782
 30
0.0
 10
120.8859890105771
 20
-131.6648315100526
 30
0.0
 10
120.9369764237588
 20
-131.7282212669811
 30
0.0
 10
121.0024332379786
 20
-131.8191717877917
 30
0.0
 10
121.0024332379786
 20
-131.8191717877917
 30
0.0
 10
120.8184651390662
 20
-131.9566310976532
 30
0.0
 10
120.8184651390662
 20
-131.9566310976532
 30
0.0
 10
120.6830728864959
 20
-131.7451022348589
 30
0.0
 10
120.5115071313305
 20
-131.5208265187691
 30
0.0
 10
120.2176404864387
 20
-131.3220445092702
 30
0.0
 10
120.2176404864387
 20
-131.3220445092702
 30
0.0
 10
120.3657795923044
 20
-131.167704231531
 30
0.0
 10
120.3657795923044
 20
-131.167704231531
 30
0.0
 10
120.4756781382839
 20
-131.2479749563373
 30
0.0
 10
120.5793755123899
 20
-131.3368584198568
 30
0.0
 10
120.6765272050739
 20
-131.4319430552497
 30
0.0
 10
120.7443955861334
 20
-131.3558064450256
 30
0.0
 10
120.9473117102146
 20
-131.112582703767
 30
0.0
 10
121.0806369054937
 20
-130.8841728730949
 30
0.0
 10
121.0806369054937
 20
-130.8841728730949
 30
0.0
 10
120.4078097572244
 20
-130.8841728730949
 30
0.0
 10
120.4078097572244
 20
-130.8841728730949
 30
0.0
 10
120.2830973006584
 20
-130.8841728730949
 30
0.0
 10
120.0312608206866
 20
-130.8927856118081
 30
0.0
 10
119.8217990151834
 20
-130.9031208982638
 30
0.0
 10
119.8217990151834
 20
-130.9031208982638
 30
0.0
 10
119.8217990151834
 20
-130.6833238063049
 30
0.0
 10
119.8217990151834
 20
-130.6833238063049
 30
0.0
 10
120.0061116236443
 20
-130.7022718314738
 30
0.0
 10
120.2110948050167
 20
-130.706405946056
 30
0.0
 10
120.3995415280598
 20
-130.706405946056
 30
0.0
 10
120.3995415280598
 20
-130.706405946056
 30
0.0
 10
120.9028699784548
 20
-130.706405946056
 30
0.0
 10
120.9028699784548
 20
-130.706405946056
 30
0.0
 10
121.2415228646549
 20
-130.706405946056
 30
0.0
 10
121.2859645964146
 20
-130.6915920354695
 30
0.0
 10
121.3683023785121
 20
-130.6512844182921
 30
0.0
 10
121.3683023785121
 20
-130.6512844182921
 30
0.0
 10
121.5353895095467
 20
-130.8101033201621
 30
0.0
 10
121.5353895095467
 20
-130.8101033201621
 30
0.0
 10
121.3831162890987
 20
-130.8821058158038
 30
0.0
 10
121.2394558073638
 20
-131.0450588322561
 30
0.0
 10
121.1802001650175
 20
-131.1146497610582
 30
0.0
  0
HATCH
  5
11F
330
E4
100
AcDbEntity
  8
_U+30EC_U+30A4_U+30E4_U+30FC 1
 62
   179
420
  2234388
100
AcDbHatch
 10
0.0
 20
0.0
 30
0.0
210
0.0
220
0.0
230
1.0
  2
SOLID
 70
     1
 71
     0
 91
        1
 92
        1
 93
        1
 72
     4
 94
        3
 73
     0
 74
     1
 95
       50
 96
       46
 40
0.0
 40
0.0
 40
0.0
 40
0.0
 40
1.0
 40
1.0
 40
1.0
 40
2.0
 40
2.0
 40
2.0
 40
3.0
 40
3.0
 40
3.0
 40
4.0
 40
4.0
 40
4.0
 40
5.0
 40
5.0
 40
5.0
 40
6.0
 40
6.0
 40
6.0
 40
7.0
 40
7.0
 40
7.0
 40
8.0
 40
8.0
 40
8.0
 40
9.0
 40
9.0
 40
9.0
 40
10.0
 40
10.0
 40
10.0
 40
11.0
 40
11.0
 40
11.0
 40
12.0
 40
12.0
 40
12.0
 40
13.0
 40
13.0
 40
13.0
 40
14.0
 40
14.0
 40
14.0
 40
15.0
 40
15.0
 40
15.0
 40
15.0
 10
121.1802001650175
 20
-131.1146497610582
 10
121.11887746538
 20
-131.1866522566999
 10
120.8584282466951
 20
-131.5039455508914
 10
120.8015841711885
 20
-131.56733530782
 10
120.8859890105771
 20
-131.6648315100526
 10
120.9369764237588
 20
-131.7282212669811
 10
121.0024332379786
 20
-131.8191717877917
 10
121.0024332379786
 20
-131.8191717877917
 10
120.8184651390662
 20
-131.9566310976532
 10
120.8184651390662
 20
-131.9566310976532
 10
120.6830728864959
 20
-131.7451022348589
 10
120.5115071313305
 20
-131.5208265187691
 10
120.2176404864387
 20
-131.3220445092702
 10
120.2176404864387
 20
-131.3220445092702
 10
120.3657795923044
 20
-131.167704231531
 10
120.3657795923044
 20
-131.167704231531
 10
120.4756781382839
 20
-131.2479749563373
 10
120.5793755123899
 20
-131.3368584198568
 10
120.6765272050739
 20
-131.4319430552497
 10
120.7443955861334
 20
-131.3558064450256
 10
120.9473117102146
 20
-131.112582703767
 10
121.0806369054937
 20
-130.8841728730949
 10
121.0806369054937
 20
-130.8841728730949
 10
120.4078097572244
 20
-130.8841728730949
 10
120.4078097572244
 20
-130.8841728730949
 10
120.2830973006584
 20
-130.8841728730949
 10
120.0312608206866
 20
-130.8927856118081
 10
119.8217990151834
 20
-130.9031208982638
 10
119.8217990151834
 20
-130.9031208982638
 10
119.8217990151834
 20
-130.6833238063049
 10
119.8217990151834
 20
-130.6833238063049
 10
120.0061116236443
 20
-130.7022718314738
 10
120.2110948050167
 20
-130.706405946056
 10
120.3995415280598
 20
-130.706405946056
 10
120.3995415280598
 20
-130.706405946056
 10
120.9028699784548
 20
-130.706405946056
 10
120.9028699784548
 20
-130.706405946056
 10
121.2415228646549
 20
-130.706405946056
 10
121.2859645964146
 20
-130.6915920354695
 10
121.3683023785121
 20
-130.6512844182921
 10
121.3683023785121
 20
-130.6512844182921
 10
121.5353895095467
 20
-130.8101033201621
 10
121.5353895095467
 20
-130.8101033201621
 10
121.3831162890987
 20
-130.8821058158038
 10
121.2394558073638
 20
-131.0450588322561
 10
121.1802001650175
 20
-131.1146497610582
 97
        0
 97
        0
 75
     2
 76
     1
 98
        0
  0
SPLINE
  5
120
330
E4
100
AcDbEntity
  8
_U+30EC_U+30A4_U+30E4_U+30FC 1
370
     0
100
AcDbSpline
210
0.0
220
0.0
230
1.0
 70
    11
 71
     3
 72
    29
 73
    25
 74
     0
 42
0.0000000001
 43
0.0000000001
 12
1.0
 22
0.0
 32
0.0
 13
1.0
 23
0.0
 33
0.0
 40
0.0
 40
0.0
 40
0.0
 40
0.0
 40
1.0
 40
1.0
 40
1.0
 40
2.0
 40
2.0
 40
2.0
 40
3.0
 40
3.0
 40
3.0
 40
4.0
 40
4.0
 40
4.0
 40
5.0
 40
5.0
 40
5.0
 40
6.0
 40
6.0
 40
6.0
 40
7.0
 40
7.0
 40
7.0
 40
8.0
 40
8.0
 40
8.0
 40
8.0
 10
122.8059407245069
 20
-131.3578735023168
 30
0.0
 10
122.8059407245069
 20
-131.3578735023168
 30
0.0
 10
122.3215602992807
 20
-131.3578735023168
 30
0.0
 10
122.3215602992807
 20
-131.3578735023168
 30
0.0
 10
122.2939995353987
 20
-131.3578735023168
 30
0.0
 10
121.9767062412072
 20
-131.3578735023168
 30
0.0
 10
121.7651773784129
 20
-131.3833672089076
 30
0.0
 10
121.7651773784129
 20
-131.3833672089076
 30
0.0
 10
121.7651773784129
 20
-131.1528903209444
 30
0.0
 10
121.7651773784129
 20
-131.1528903209444
 30
0.0
 10
121.9236517707344
 20
-131.1759724606956
 30
0.0
 10
122.1141655510687
 20
-131.1783840275353
 30
0.0
 10
122.3215602992807
 20
-131.1783840275353
 30
0.0
 10
122.3215602992807
 20
-131.1783840275353
 30
0.0
 10
122.8059407245069
 20
-131.1783840275353
 30
0.0
 10
122.8059407245069
 20
-131.1783840275353
 30
0.0
 10
122.9919758807103
 20
-131.1783840275353
 30
0.0
 10
123.1783555464624
 20
-131.1759724606956
 30
0.0
 10
123.3623236453747
 20
-131.1528903209444
 30
0.0
 10
123.3623236453747
 20
-131.1528903209444
 30
0.0
 10
123.3623236453747
 20
-131.3833672089076
 30
0.0
 10
123.3623236453747
 20
-131.3833672089076
 30
0.0
 10
123.1783555464624
 20
-131.3602850691565
 30
0.0
 10
122.9306531810729
 20
-131.3578735023168
 30
0.0
 10
122.8059407245069
 20
-131.3578735023168
 30
0.0
  0
HATCH
  5
121
330
E4
100
AcDbEntity
  8
_U+30EC_U+30A4_U+30E4_U+30FC 1
 62
   179
420
  2234388
100
AcDbHatch
 10
0.0
 20
0.0
 30
0.0
210
0.0
220
0.0
230
1.0
  2
SOLID
 70
     1
 71
     0
 91
        1
 92
        1
 93
        1
 72
     4
 94
        3
 73
     0
 74
     1
 95
       29
 96
       25
 40
0.0
 40
0.0
 40
0.0
 40
0.0
 40
1.0
 40
1.0
 40
1.0
 40
2.0
 40
2.0
 40
2.0
 40
3.0
 40
3.0
 40
3.0
 40
4.0
 40
4.0
 40
4.0
 40
5.0
 40
5.0
 40
5.0
 40
6.0
 40
6.0
 40
6.0
 40
7.0
 40
7.0
 40
7.0
 40
8.0
 40
8.0
 40
8.0
 40
8.0
 10
122.8059407245069
 20
-131.3578735023168
 10
122.8059407245069
 20
-131.3578735023168
 10
122.3215602992807
 20
-131.3578735023168
 10
122.3215602992807
 20
-131.3578735023168
 10
122.2939995353987
 20
-131.3578735023168
 10
121.9767062412072
 20
-131.3578735023168
 10
121.7651773784129
 20
-131.3833672089076
 10
121.7651773784129
 20
-131.3833672089076
 10
121.7651773784129
 20
-131.1528903209444
 10
121.7651773784129
 20
-131.1528903209444
 10
121.9236517707344
 20
-131.1759724606956
 10
122.1141655510687
 20
-131.1783840275353
 10
122.3215602992807
 20
-131.1783840275353
 10
122.3215602992807
 20
-131.1783840275353
 10
122.8059407245069
 20
-131.1783840275353
 10
122.8059407245069
 20
-131.1783840275353
 10
122.9919758807103
 20
-131.1783840275353
 10
123.1783555464624
 20
-131.1759724606956
 10
123.3623236453747
 20
-131.1528903209444
 10
123.3623236453747
 20
-131.1528903209444
 10
123.3623236453747
 20
-131.3833672089076
 10
123.3623236453747
 20
-131.3833672089076
 10
123.1783555464624
 20
-131.3602850691565
 10
122.9306531810729
 20
-131.3578735023168
 10
122.8059407245069
 20
-131.3578735023168
 97
        0
 97
        0
 75
     2
 76
     1
 98
        0
  0
ENDBLK
  5
E7
330
E4
100
AcDbEntity
  8
0
100
AcDbBlockEnd
  0
ENDSEC
  0
SECTION
  2
ENTITIES
  0
POLYLINE
  5
41
330
1F
100
AcDbEntity
  8
_U+30EC_U+30A4_U+30E4_U+30FC 1
  6
AI-Linetype-1
 62
   154
420
    23468
370
    25
100
AcDb2dPolyline
 66
     1
 10
0.0
 20
0.0
 30
0.0
  0
VERTEX
  5
42
330
41
100
AcDbEntity
  8
_U+30EC_U+30A4_U+30E4_U+30FC 1
  6
AI-Linetype-1
 62
   154
420
    23468
370
    25
100
AcDbVertex
100
AcDb2dVertex
 10
90.82182496237485
 20
-140.0074209075166
 30
0.0
  0
VERTEX
  5
43
330
41
100
AcDbEntity
  8
_U+30EC_U+30A4_U+30E4_U+30FC 1
  6
AI-Linetype-1
 62
   154
420
    23468
370
    25
100
AcDbVertex
100
AcDb2dVertex
 10
90.82182496237485
 20
-138.4199209079135
 30
0.0
  0
VERTEX
  5
44
330
41
100
AcDbEntity
  8
_U+30EC_U+30A4_U+30E4_U+30FC 1
  6
AI-Linetype-1
 62
   154
420
    23468
370
    25
100
AcDbVertex
100
AcDb2dVertex
 10
104.0213422727146
 20
-138.4199209079135
 30
0.0
  0
VERTEX
  5
45
330
41
100
AcDbEntity
  8
_U+30EC_U+30A4_U+30E4_U+30FC 1
  6
AI-Linetype-1
 62
   154
420
    23468
370
    25
100
AcDbVertex
100
AcDb2dVertex
 10
104.0213422727146
 20
-140.0074209075166
 30
0.0
  0
SEQEND
  5
47
330
41
100
AcDbEntity
  8
_U+30EC_U+30A4_U+30E4_U+30FC 1
  6
AI-Linetype-1
 62
   154
420
    23468
370
    25
  0
POLYLINE
  5
48
330
1F
100
AcDbEntity
  8
_U+30EC_U+30A4_U+30E4_U+30FC 1
 62
   179
420
  2234388
370
    25
100
AcDb2dPolyline
 66
     1
 10
0.0
 20
0.0
 30
0.0
  0
VERTEX
  5
49
330
48
100
AcDbEntity
  8
_U+30EC_U+30A4_U+30E4_U+30FC 1
 62
   179
420
  2234388
370
    25
100
AcDbVertex
100
AcDb2dVertex
 10
91.78576267914775
 20
-161.5860994570807
 30
0.0
  0
VERTEX
  5
4A
330
48
100
AcDbEntity
  8
_U+30EC_U+30A4_U+30E4_U+30FC 1
 62
   179
420
  2234388
370
    25
100
AcDbVertex
100
AcDb2dVertex
 10
96.92185098556229
 20
-161.5860994570807
 30
0.0
  0
SEQEND
  5
4B
330
48
100
AcDbEntity
  8
_U+30EC_U+30A4_U+30E4_U+30FC 1
 62
   179
420
  2234388
370
    25
  0
POLYLINE
  5
4C
330
1F
100
AcDbEntity
  8
_U+30EC_U+30A4_U+30E4_U+30FC 1
 62
   179
420
  2234388
370
    25
100
AcDb2dPolyline
 66
     1
 10
0.0
 20
0.0
 30
0.0
  0
VERTEX
  5
4D
330
4C
100
AcDbEntity
  8
_U+30EC_U+30A4_U+30E4_U+30FC 1
 62
   179
420
  2234388
370
    25
100
AcDbVertex
100
AcDb2dVertex
 10
91.4219390640589
 20
-140.0122117434258
 30
0.0
  0
VERTEX
  5
4E
330
4C
100
AcDbEntity
  8
_U+30EC_U+30A4_U+30E4_U+30FC 1
 62
   179
420
  2234388
370
    25
100
AcDbVertex
100
AcDb2dVertex
 10
96.92174332632838
 20
-140.0122117434258
 30
0.0
  0
SEQEND
  5
4F
330
4C
100
AcDbEntity
  8
_U+30EC_U+30A4_U+30E4_U+30FC 1
 62
   179
420
  2234388
370
    25
  0
POLYLINE
  5
50
330
1F
100
AcDbEntity
  8
_U+30EC_U+30A4_U+30E4_U+30FC 1
 62
   179
420
  2234388
370
    25
100
AcDb2dPolyline
 66
     1
 10
0.0
 20
0.0
 30
0.0
  0
VERTEX
  5
51
330
50
100
AcDbEntity
  8
_U+30EC_U+30A4_U+30E4_U+30FC 1
 62
   179
420
  2234388
370
    25
100
AcDbVertex
100
AcDb2dVertex
 10
91.78576267914775
 20
-139.0124450336063
 30
0.0
  0
VERTEX
  5
52
330
50
100
AcDbEntity
  8
_U+30EC_U+30A4_U+30E4_U+30FC 1
 62
   179
420
  2234388
370
    25
100
AcDbVertex
100
AcDb2dVertex
 10
103.0573614922478
 20
-139.0124450336063
 30
0.0
  0
SEQEND
  5
53
330
50
100
AcDbEntity
  8
_U+30EC_U+30A4_U+30E4_U+30FC 1
 62
   179
420
  2234388
370
    25
  0
POLYLINE
  5
54
330
1F
100
AcDbEntity
  8
_U+30EC_U+30A4_U+30E4_U+30FC 1
 62
   179
420
  2234388
370
    25
100
AcDb2dPolyline
 66
     1
 10
0.0
 20
0.0
 30
0.0
  0
VERTEX
  5
55
330
54
100
AcDbEntity
  8
_U+30EC_U+30A4_U+30E4_U+30FC 1
 62
   179
420
  2234388
370
    25
100
AcDbVertex
100
AcDb2dVertex
 10
91.4219390640589
 20
-162.5858661669002
 30
0.0
  0
VERTEX
  5
56
330
54
100
AcDbEntity
  8
_U+30EC_U+30A4_U+30E4_U+30FC 1
 62
   179
420
  2234388
370
    25
100
AcDbVertex
100
AcDb2dVertex
 10
114.4216333739011
 20
-162.5858661669002
 30
0.0
  0
SEQEND
  5
57
330
54
100
AcDbEntity
  8
_U+30EC_U+30A4_U+30E4_U+30FC 1
 62
   179
420
  2234388
370
    25
  0
POLYLINE
  5
58
330
1F
100
AcDbEntity
  8
_U+30EC_U+30A4_U+30E4_U+30FC 1
 62
   179
420
  2234388
370
    25
100
AcDb2dPolyline
 66
     1
 10
0.0
 20
0.0
 30
0.0
  0
VERTEX
  5
59
330
58
100
AcDbEntity
  8
_U+30EC_U+30A4_U+30E4_U+30FC 1
 62
   179
420
  2234388
370
    25
100
AcDbVertex
100
AcDb2dVertex
 10
107.7210518461709
 20
-161.885811998374
 30
0.0
  0
VERTEX
  5
5A
330
58
100
AcDbEntity
  8
_U+30EC_U+30A4_U+30E4_U+30FC 1
 62
   179
420
  2234388
370
    25
100
AcDbVertex
100
AcDb2dVertex
 10
114.1666532442991
 20
-161.885811998374
 30
0.0
  0
SEQEND
  5
5B
330
58
100
AcDbEntity
  8
_U+30EC_U+30A4_U+30E4_U+30FC 1
 62
   179
420
  2234388
370
    25
  0
POLYLINE
  5
5C
330
1F
100
AcDbEntity
  8
_U+30EC_U+30A4_U+30E4_U+30FC 1
 62
   179
420
  2234388
370
    25
100
AcDb2dPolyline
 66
     1
 10
0.0
 20
0.0
 30
0.0
  0
VERTEX
  5
5D
330
5C
100
AcDbEntity
  8
_U+30EC_U+30A4_U+30E4_U+30FC 1
 62
   179
420
  2234388
370
    25
100
AcDbVertex
100
AcDb2dVertex
 10
103.0574045559417
 20
-139.0124450336063
 30
0.0
  0
VERTEX
  5
5E
330
5C
100
AcDbEntity
  8
_U+30EC_U+30A4_U+30E4_U+30FC 1
 62
   179
420
  2234388
370
    25
100
AcDbVertex
100
AcDb2dVertex
 10
103.421809530894
 20
-140.0122225093492
 30
0.0
  0
SEQEND
  5
5F
330
5C
100
AcDbEntity
  8
_U+30EC_U+30A4_U+30E4_U+30FC 1
 62
   179
420
  2234388
370
    25
  0
POLYLINE
  5
60
330
1F
100
AcDbEntity
  8
_U+30EC_U+30A4_U+30E4_U+30FC 1
 62
   179
420
  2234388
370
    25
100
AcDb2dPolyline
 66
     1
 10
0.0
 20
0.0
 30
0.0
  0
VERTEX
  5
61
330
60
100
AcDbEntity
  8
_U+30EC_U+30A4_U+30E4_U+30FC 1
 62
   179
420
  2234388
370
    25
100
AcDbVertex
100
AcDb2dVertex
 10
114.1667824353797
 20
-161.885811998374
 30
0.0
  0
VERTEX
  5
62
330
60
100
AcDbEntity
  8
_U+30EC_U+30A4_U+30E4_U+30FC 1
 62
   179
420
  2234388
370
    25
100
AcDbVertex
100
AcDb2dVertex
 10
114.4218271605222
 20
-162.5857262098961
 30
0.0
  0
SEQEND
  5
63
330
60
100
AcDbEntity
  8
_U+30EC_U+30A4_U+30E4_U+30FC 1
 62
   179
420
  2234388
370
    25
  0
POLYLINE
  5
64
330
1F
100
AcDbEntity
  8
_U+30EC_U+30A4_U+30E4_U+30FC 1
 62
   179
420
  2234388
370
    25
100
AcDb2dPolyline
 66
     1
 10
0.0
 20
0.0
 30
0.0
  0
VERTEX
  5
65
330
64
100
AcDbEntity
  8
_U+30EC_U+30A4_U+30E4_U+30FC 1
 62
   179
420
  2234388
370
    25
100
AcDbVertex
100
AcDb2dVertex
 10
107.4216515166559
 20
-161.5860994570807
 30
0.0
  0
VERTEX
  5
66
330
64
100
AcDbEntity
  8
_U+30EC_U+30A4_U+30E4_U+30FC 1
 62
   179
420
  2234388
370
    25
100
AcDbVertex
100
AcDb2dVertex
 10
107.7211595054048
 20
-161.8859627213015
 30
0.0
  0
SEQEND
  5
67
330
64
100
AcDbEntity
  8
_U+30EC_U+30A4_U+30E4_U+30FC 1
 62
   179
420
  2234388
370
    25
  0
POLYLINE
  5
68
330
1F
100
AcDbEntity
  8
_U+30EC_U+30A4_U+30E4_U+30FC 1
 62
   179
420
  2234388
370
    25
100
AcDb2dPolyline
 66
     1
 10
0.0
 20
0.0
 30
0.0
  0
VERTEX
  5
69
330
68
100
AcDbEntity
  8
_U+30EC_U+30A4_U+30E4_U+30FC 1
 62
   179
420
  2234388
370
    25
100
AcDbVertex
100
AcDb2dVertex
 10
91.4219390640589
 20
-140.0122117434258
 30
0.0
  0
VERTEX
  5
6A
330
68
100
AcDbEntity
  8
_U+30EC_U+30A4_U+30E4_U+30FC 1
 62
   179
420
  2234388
370
    25
100
AcDbVertex
100
AcDb2dVertex
 10
91.78564425399044
 20
-139.0124450336063
 30
0.0
  0
SEQEND
  5
6B
330
68
100
AcDbEntity
  8
_U+30EC_U+30A4_U+30E4_U+30FC 1
 62
   179
420
  2234388
370
    25
  0
POLYLINE
  5
6C
330
1F
100
AcDbEntity
  8
_U+30EC_U+30A4_U+30E4_U+30FC 1
 62
   179
420
  2234388
370
    25
100
AcDb2dPolyline
 66
     1
 10
0.0
 20
0.0
 30
0.0
  0
VERTEX
  5
6D
330
6C
100
AcDbEntity
  8
_U+30EC_U+30A4_U+30E4_U+30FC 1
 62
   179
420
  2234388
370
    25
100
AcDbVertex
100
AcDb2dVertex
 10
91.4219390640589
 20
-162.5858661669002
 30
0.0
  0
VERTEX
  5
6E
330
6C
100
AcDbEntity
  8
_U+30EC_U+30A4_U+30E4_U+30FC 1
 62
   179
420
  2234388
370
    25
100
AcDbVertex
100
AcDb2dVertex
 10
91.78564425399044
 20
-161.5860994570807
 30
0.0
  0
SEQEND
  5
6F
330
6C
100
AcDbEntity
  8
_U+30EC_U+30A4_U+30E4_U+30FC 1
 62
   179
420
  2234388
370
    25
  0
POLYLINE
  5
70
330
1F
100
AcDbEntity
  8
_U+30EC_U+30A4_U+30E4_U+30FC 1
 62
   179
420
  2234388
370
    25
100
AcDb2dPolyline
 66
     1
 10
0.0
 20
0.0
 30
0.0
  0
VERTEX
  5
71
330
70
100
AcDbEntity
  8
_U+30EC_U+30A4_U+30E4_U+30FC 1
 62
   179
420
  2234388
370
    25
100
AcDbVertex
100
AcDb2dVertex
 10
96.9217110285582
 20
-140.0859475527335
 30
0.0
  0
VERTEX
  5
72
330
70
100
AcDbEntity
  8
_U+30EC_U+30A4_U+30E4_U+30FC 1
 62
   179
420
  2234388
370
    25
100
AcDbVertex
100
AcDb2dVertex
 10
96.9217110285582
 20
-161.5859917978468
 30
0.0
  0
SEQEND
  5
73
330
70
100
AcDbEntity
  8
_U+30EC_U+30A4_U+30E4_U+30FC 1
 62
   179
420
  2234388
370
    25
  0
POLYLINE
  5
74
330
1F
100
AcDbEntity
  8
_U+30EC_U+30A4_U+30E4_U+30FC 1
 62
   179
420
  2234388
370
    25
100
AcDb2dPolyline
 66
     1
 10
0.0
 20
0.0
 30
0.0
  0
VERTEX
  5
75
330
74
100
AcDbEntity
  8
_U+30EC_U+30A4_U+30E4_U+30FC 1
 62
   179
420
  2234388
370
    25
100
AcDbVertex
100
AcDb2dVertex
 10
97.9214777383777
 20
-140.0859475527335
 30
0.0
  0
VERTEX
  5
76
330
74
100
AcDbEntity
  8
_U+30EC_U+30A4_U+30E4_U+30FC 1
 62
   179
420
  2234388
370
    25
100
AcDbVertex
100
AcDb2dVertex
 10
97.9214777383777
 20
-161.5859917978468
 30
0.0
  0
SEQEND
  5
77
330
74
100
AcDbEntity
  8
_U+30EC_U+30A4_U+30E4_U+30FC 1
 62
   179
420
  2234388
370
    25
  0
POLYLINE
  5
78
330
1F
100
AcDbEntity
  8
_U+30EC_U+30A4_U+30E4_U+30FC 1
 62
   179
420
  2234388
370
    25
100
AcDb2dPolyline
 66
     1
 10
0.0
 20
0.0
 30
0.0
  0
VERTEX
  5
79
330
78
100
AcDbEntity
  8
_U+30EC_U+30A4_U+30E4_U+30FC 1
 62
   179
420
  2234388
370
    25
100
AcDbVertex
100
AcDb2dVertex
 10
97.9214777383777
 20
-140.0122117434258
 30
0.0
  0
VERTEX
  5
7A
330
78
100
AcDbEntity
  8
_U+30EC_U+30A4_U+30E4_U+30FC 1
 62
   179
420
  2234388
370
    25
100
AcDbVertex
100
AcDb2dVertex
 10
103.4219817856683
 20
-140.0122117434258
 30
0.0
  0
SEQEND
  5
7B
330
78
100
AcDbEntity
  8
_U+30EC_U+30A4_U+30E4_U+30FC 1
 62
   179
420
  2234388
370
    25
  0
POLYLINE
  5
7C
330
1F
100
AcDbEntity
  8
_U+30EC_U+30A4_U+30E4_U+30FC 1
 62
   179
420
  2234388
370
    25
100
AcDb2dPolyline
 66
     1
 10
0.0
 20
0.0
 30
0.0
  0
VERTEX
  5
7D
330
7C
100
AcDbEntity
  8
_U+30EC_U+30A4_U+30E4_U+30FC 1
 62
   179
420
  2234388
370
    25
100
AcDbVertex
100
AcDb2dVertex
 10
97.9214777383777
 20
-161.5860994570807
 30
0.0
  0
VERTEX
  5
7E
330
7C
100
AcDbEntity
  8
_U+30EC_U+30A4_U+30E4_U+30FC 1
 62
   179
420
  2234388
370
    25
100
AcDbVertex
100
AcDb2dVertex
 10
107.4217807077366
 20
-161.5860994570807
 30
0.0
  0
SEQEND
  5
7F
330
7C
100
AcDbEntity
  8
_U+30EC_U+30A4_U+30E4_U+30FC 1
 62
   179
420
  2234388
370
    25
  0
SPLINE
  5
80
330
1F
100
AcDbEntity
  8
_U+30EC_U+30A4_U+30E4_U+30FC 1
 62
   179
420
  2234388
370
     9
100
AcDbSpline
210
0.0
220
0.0
230
1.0
 70
    11
 71
     3
 72
    17
 73
    13
 74
     0
 42
0.0000000001
 43
0.0000000001
 12
1.0
 22
0.0
 32
0.0
 13
1.0
 23
0.0
 33
0.0
 40
0.0
 40
0.0
 40
0.0
 40
0.0
 40
1.0
 40
1.0
 40
1.0
 40
2.0
 40
2.0
 40
2.0
 40
3.0
 40
3.0
 40
3.0
 40
4.0
 40
4.0
 40
4.0
 40
4.0
 10
114.5216488022073
 20
-166.5863002784489
 30
0.0
 10
114.5216488022073
 20
-166.5312756439955
 30
0.0
 10
114.4768410290522
 20
-166.4864678708404
 30
0.0
 10
114.4218056286754
 20
-166.4864678708404
 30
0.0
 10
114.3667702282985
 20
-166.4864678708404
 30
0.0
 10
114.3219624551435
 20
-166.5312756439955
 30
0.0
 10
114.3219624551435
 20
-166.5863002784489
 30
0.0
 10
114.3219624551435
 20
-166.6413356788258
 30
0.0
 10
114.3667702282985
 20
-166.6861434519808
 30
0.0
 10
114.4218056286754
 20
-166.6861434519808
 30
0.0
 10
114.4768410290522
 20
-166.6861434519808
 30
0.0
 10
114.5216488022073
 20
-166.6413356788258
 30
0.0
 10
114.5216488022073
 20
-166.5863002784489
 30
0.0
  0
SPLINE
  5
81
330
1F
100
AcDbEntity
  8
_U+30EC_U+30A4_U+30E4_U+30FC 1
 62
   179
420
  2234388
370
     9
100
AcDbSpline
210
0.0
220
0.0
230
1.0
 70
    11
 71
     3
 72
    17
 73
    13
 74
     0
 42
0.0000000001
 43
0.0000000001
 12
1.0
 22
0.0
 32
0.0
 13
1.0
 23
0.0
 33
0.0
 40
0.0
 40
0.0
 40
0.0
 40
0.0
 40
1.0
 40
1.0
 40
1.0
 40
2.0
 40
2.0
 40
2.0
 40
3.0
 40
3.0
 40
3.0
 40
4.0
 40
4.0
 40
4.0
 40
4.0
 10
87.52141272158211
 20
-139.9681145212146
 30
0.0
 10
87.52141272158211
 20
-139.9130898867611
 30
0.0
 10
87.47660494842708
 20
-139.8682821136061
 30
0.0
 10
87.42156954805021
 20
-139.8682821136061
 30
0.0
 10
87.36653414767335
 20
-139.8682821136061
 30
0.0
 10
87.32173714044171
 20
-139.9130898867611
 30
0.0
 10
87.32173714044171
 20
-139.9681145212146
 30
0.0
 10
87.32173714044171
 20
-140.0231499215915
 30
0.0
 10
87.36653414767335
 20
-140.0679576947465
 30
0.0
 10
87.42156954805021
 20
-140.0679576947465
 30
0.0
 10
87.47660494842708
 20
-140.0679576947465
 30
0.0
 10
87.52141272158211
 20
-140.0231499215915
 30
0.0
 10
87.52141272158211
 20
-139.9681145212146
 30
0.0
  0
SPLINE
  5
82
330
1F
100
AcDbEntity
  8
_U+30EC_U+30A4_U+30E4_U+30FC 1
 62
   179
420
  2234388
370
     9
100
AcDbSpline
210
0.0
220
0.0
230
1.0
 70
    11
 71
     3
 72
    17
 73
    13
 74
     0
 42
0.0000000001
 43
0.0000000001
 12
1.0
 22
0.0
 32
0.0
 13
1.0
 23
0.0
 33
0.0
 40
0.0
 40
0.0
 40
0.0
 40
0.0
 40
1.0
 40
1.0
 40
1.0
 40
2.0
 40
2.0
 40
2.0
 40
3.0
 40
3.0
 40
3.0
 40
4.0
 40
4.0
 40
4.0
 40
4.0
 10
87.52141272158211
 20
-161.5860994570807
 30
0.0
 10
87.52141272158211
 20
-161.5310748226272
 30
0.0
 10
87.47660494842708
 20
-161.4862670494722
 30
0.0
 10
87.42156954805021
 20
-161.4862670494722
 30
0.0
 10
87.36653414767335
 20
-161.4862670494722
 30
0.0
 10
87.32173714044171
 20
-161.5310748226272
 30
0.0
 10
87.32173714044171
 20
-161.5860994570807
 30
0.0
 10
87.32173714044171
 20
-161.6411348574576
 30
0.0
 10
87.36653414767335
 20
-161.6859426306126
 30
0.0
 10
87.42156954805021
 20
-161.6859426306126
 30
0.0
 10
87.47660494842708
 20
-161.6859426306126
 30
0.0
 10
87.52141272158211
 20
-161.6411348574576
 30
0.0
 10
87.52141272158211
 20
-161.5860994570807
 30
0.0
  0
SPLINE
  5
83
330
1F
100
AcDbEntity
  8
_U+30EC_U+30A4_U+30E4_U+30FC 1
 62
   179
420
  2234388
370
     9
100
AcDbSpline
210
0.0
220
0.0
230
1.0
 70
    11
 71
     3
 72
    17
 73
    13
 74
     0
 42
0.0000000001
 43
0.0000000001
 12
1.0
 22
0.0
 32
0.0
 13
1.0
 23
0.0
 33
0.0
 40
0.0
 40
0.0
 40
0.0
 40
0.0
 40
1.0
 40
1.0
 40
1.0
 40
2.0
 40
2.0
 40
2.0
 40
3.0
 40
3.0
 40
3.0
 40
4.0
 40
4.0
 40
4.0
 40
4.0
 10
87.52141272158211
 20
-162.5858661669002
 30
0.0
 10
87.52141272158211
 20
-162.5308415324467
 30
0.0
 10
87.47660494842708
 20
-162.4860337592917
 30
0.0
 10
87.42156954805021
 20
-162.4860337592917
 30
0.0
 10
87.36653414767335
 20
-162.4860337592917
 30
0.0
 10
87.32173714044171
 20
-162.5308415324467
 30
0.0
 10
87.32173714044171
 20
-162.5858661669002
 30
0.0
 10
87.32173714044171
 20
-162.6409015672771
 30
0.0
 10
87.36653414767335
 20
-162.6857093404321
 30
0.0
 10
87.42156954805021
 20
-162.6857093404321
 30
0.0
 10
87.47660494842708
 20
-162.6857093404321
 30
0.0
 10
87.52141272158211
 20
-162.6409015672771
 30
0.0
 10
87.52141272158211
 20
-162.5858661669002
 30
0.0
  0
SPLINE
  5
84
330
1F
100
AcDbEntity
  8
_U+30EC_U+30A4_U+30E4_U+30FC 1
 62
   179
420
  2234388
370
     9
100
AcDbSpline
210
0.0
220
0.0
230
1.0
 70
    11
 71
     3
 72
    17
 73
    13
 74
     0
 42
0.0000000001
 43
0.0000000001
 12
1.0
 22
0.0
 32
0.0
 13
1.0
 23
0.0
 33
0.0
 40
0.0
 40
0.0
 40
0.0
 40
0.0
 40
1.0
 40
1.0
 40
1.0
 40
2.0
 40
2.0
 40
2.0
 40
3.0
 40
3.0
 40
3.0
 40
4.0
 40
4.0
 40
4.0
 40
4.0
 10
91.52184683313115
 20
-166.5863002784489
 30
0.0
 10
91.52184683313115
 20
-166.5312756439955
 30
0.0
 10
91.4770390599758
 20
-166.4864678708404
 30
0.0
 10
91.42200365959893
 20
-166.4864678708404
 30
0.0
 10
91.36626847420162
 20
-166.4864678708404
 30
0.0
 10
91.32146070104659
 20
-166.5312756439955
 30
0.0
 10
91.32146070104659
 20
-166.5863002784489
 30
0.0
 10
91.32146070104659
 20
-166.6413356788258
 30
0.0
 10
91.36626847420162
 20
-166.6861434519808
 30
0.0
 10
91.42200365959893
 20
-166.6861434519808
 30
0.0
 10
91.4770390599758
 20
-166.6861434519808
 30
0.0
 10
91.52184683313115
 20
-166.6413356788258
 30
0.0
 10
91.52184683313115
 20
-166.5863002784489
 30
0.0
  0
SPLINE
  5
85
330
1F
100
AcDbEntity
  8
_U+30EC_U+30A4_U+30E4_U+30FC 1
 62
   179
420
  2234388
370
     9
100
AcDbSpline
210
0.0
220
0.0
230
1.0
 70
    11
 71
     3
 72
    17
 73
    13
 74
     0
 42
0.0000000001
 43
0.0000000001
 12
1.0
 22
0.0
 32
0.0
 13
1.0
 23
0.0
 33
0.0
 40
0.0
 40
0.0
 40
0.0
 40
0.0
 40
1.0
 40
1.0
 40
1.0
 40
2.0
 40
2.0
 40
2.0
 40
3.0
 40
3.0
 40
3.0
 40
4.0
 40
4.0
 40
4.0
 40
4.0
 10
103.5218249591998
 20
-135.0123661975295
 30
0.0
 10
103.5218249591998
 20
-134.957341563076
 30
0.0
 10
103.4770171860451
 20
-134.912533789921
 30
0.0
 10
103.4219817856683
 20
-134.912533789921
 30
0.0
 10
103.3662358343473
 20
-134.912533789921
 30
0.0
 10
103.3214280611922
 20
-134.957341563076
 30
0.0
 10
103.3214280611922
 20
-135.0123661975295
 30
0.0
 10
103.3214280611922
 20
-135.0681121488505
 30
0.0
 10
103.3662358343473
 20
-135.1129091560818
 30
0.0
 10
103.4219817856683
 20
-135.1129091560818
 30
0.0
 10
103.4770171860451
 20
-135.1129091560818
 30
0.0
 10
103.5218249591998
 20
-135.0681121488505
 30
0.0
 10
103.5218249591998
 20
-135.0123661975295
 30
0.0
  0
SPLINE
  5
86
330
1F
100
AcDbEntity
  8
_U+30EC_U+30A4_U+30E4_U+30FC 1
 62
   179
420
  2234388
370
     9
100
AcDbSpline
210
0.0
220
0.0
230
1.0
 70
    11
 71
     3
 72
    17
 73
    13
 74
     0
 42
0.0000000001
 43
0.0000000001
 12
1.0
 22
0.0
 32
0.0
 13
1.0
 23
0.0
 33
0.0
 40
0.0
 40
0.0
 40
0.0
 40
0.0
 40
1.0
 40
1.0
 40
1.0
 40
2.0
 40
2.0
 40
2.0
 40
3.0
 40
3.0
 40
3.0
 40
4.0
 40
4.0
 40
4.0
 40
4.0
 10
91.52184683313115
 20
-135.0123661975295
 30
0.0
 10
91.52184683313115
 20
-134.957341563076
 30
0.0
 10
91.4770390599758
 20
-134.912533789921
 30
0.0
 10
91.42200365959893
 20
-134.912533789921
 30
0.0
 10
91.36626847420162
 20
-134.912533789921
 30
0.0
 10
91.32146070104659
 20
-134.957341563076
 30
0.0
 10
91.32146070104659
 20
-135.0123661975295
 30
0.0
 10
91.32146070104659
 20
-135.0681121488505
 30
0.0
 10
91.36626847420162
 20
-135.1129091560818
 30
0.0
 10
91.42200365959893
 20
-135.1129091560818
 30
0.0
 10
91.4770390599758
 20
-135.1129091560818
 30
0.0
 10
91.52184683313115
 20
-135.0681121488505
 30
0.0
 10
91.52184683313115
 20
-135.0123661975295
 30
0.0
  0
POLYLINE
  5
87
330
1F
100
AcDbEntity
  8
_U+30EC_U+30A4_U+30E4_U+30FC 1
 62
   179
420
  2234388
370
     9
100
AcDb2dPolyline
 66
     1
 10
0.0
 20
0.0
 30
0.0
  0
VERTEX
  5
88
330
87
100
AcDbEntity
  8
_U+30EC_U+30A4_U+30E4_U+30FC 1
 62
   179
420
  2234388
370
     9
100
AcDbVertex
100
AcDb2dVertex
 10
91.4219390640589
 20
-166.5863002784489
 30
0.0
  0
VERTEX
  5
89
330
87
100
AcDbEntity
  8
_U+30EC_U+30A4_U+30E4_U+30FC 1
 62
   179
420
  2234388
370
     9
100
AcDbVertex
100
AcDb2dVertex
 10
114.4216333739011
 20
-166.5863002784489
 30
0.0
  0
SEQEND
  5
8A
330
87
100
AcDbEntity
  8
_U+30EC_U+30A4_U+30E4_U+30FC 1
 62
   179
420
  2234388
370
     9
  0
POLYLINE
  5
8B
330
1F
100
AcDbEntity
  8
_U+30EC_U+30A4_U+30E4_U+30FC 1
 62
   179
420
  2234388
370
     9
100
AcDb2dPolyline
 66
     1
 10
0.0
 20
0.0
 30
0.0
  0
VERTEX
  5
8C
330
8B
100
AcDbEntity
  8
_U+30EC_U+30A4_U+30E4_U+30FC 1
 62
   179
420
  2234388
370
     9
100
AcDbVertex
100
AcDb2dVertex
 10
91.4219390640589
 20
-165.1262903436468
 30
0.0
  0
VERTEX
  5
8D
330
8B
100
AcDbEntity
  8
_U+30EC_U+30A4_U+30E4_U+30FC 1
 62
   179
420
  2234388
370
     9
100
AcDbVertex
100
AcDb2dVertex
 10
91.4219390640589
 20
-167.5862177111959
 30
0.0
  0
SEQEND
  5
8E
330
8B
100
AcDbEntity
  8
_U+30EC_U+30A4_U+30E4_U+30FC 1
 62
   179
420
  2234388
370
     9
  0
POLYLINE
  5
8F
330
1F
100
AcDbEntity
  8
_U+30EC_U+30A4_U+30E4_U+30FC 1
 62
   179
420
  2234388
370
     9
100
AcDb2dPolyline
 66
     1
 10
0.0
 20
0.0
 30
0.0
  0
VERTEX
  5
90
330
8F
100
AcDbEntity
  8
_U+30EC_U+30A4_U+30E4_U+30FC 1
 62
   179
420
  2234388
370
     9
100
AcDbVertex
100
AcDb2dVertex
 10
114.421741033135
 20
-165.1262903436468
 30
0.0
  0
VERTEX
  5
91
330
8F
100
AcDbEntity
  8
_U+30EC_U+30A4_U+30E4_U+30FC 1
 62
   179
420
  2234388
370
     9
100
AcDbVertex
100
AcDb2dVertex
 10
114.421741033135
 20
-167.5862177111959
 30
0.0
  0
SEQEND
  5
92
330
8F
100
AcDbEntity
  8
_U+30EC_U+30A4_U+30E4_U+30FC 1
 62
   179
420
  2234388
370
     9
  0
INSERT
  5
94
330
1F
100
AcDbEntity
  8
_U+30EC_U+30A4_U+30E4_U+30FC 1
100
AcDbBlockReference
  2
block 2
 10
0.0
 20
0.0
 30
0.0
  0
POLYLINE
  5
9B
330
1F
100
AcDbEntity
  8
_U+30EC_U+30A4_U+30E4_U+30FC 1
 62
   179
420
  2234388
370
     9
100
AcDb2dPolyline
 66
     1
 10
0.0
 20
0.0
 30
0.0
  0
VERTEX
  5
9C
330
9B
100
AcDbEntity
  8
_U+30EC_U+30A4_U+30E4_U+30FC 1
 62
   179
420
  2234388
370
     9
100
AcDbVertex
100
AcDb2dVertex
 10
103.4218956582811
 20
-135.0123661975295
 30
0.0
  0
VERTEX
  5
9D
330
9B
100
AcDbEntity
  8
_U+30EC_U+30A4_U+30E4_U+30FC 1
 62
   179
420
  2234388
370
     9
100
AcDbVertex
100
AcDb2dVertex
 10
91.4217991070545
 20
-135.0123661975295
 30
0.0
  0
SEQEND
  5
9E
330
9B
100
AcDbEntity
  8
_U+30EC_U+30A4_U+30E4_U+30FC 1
 62
   179
420
  2234388
370
     9
  0
POLYLINE
  5
9F
330
1F
100
AcDbEntity
  8
_U+30EC_U+30A4_U+30E4_U+30FC 1
 62
   179
420
  2234388
370
     9
100
AcDb2dPolyline
 66
     1
 10
0.0
 20
0.0
 30
0.0
  0
VERTEX
  5
A0
330
9F
100
AcDbEntity
  8
_U+30EC_U+30A4_U+30E4_U+30FC 1
 62
   179
420
  2234388
370
     9
100
AcDbVertex
100
AcDb2dVertex
 10
103.4218956582811
 20
-137.4728533930949
 30
0.0
  0
VERTEX
  5
A1
330
9F
100
AcDbEntity
  8
_U+30EC_U+30A4_U+30E4_U+30FC 1
 62
   179
420
  2234388
370
     9
100
AcDbVertex
100
AcDb2dVertex
 10
103.4218956582811
 20
-134.0124595307059
 30
0.0
  0
SEQEND
  5
A2
330
9F
100
AcDbEntity
  8
_U+30EC_U+30A4_U+30E4_U+30FC 1
 62
   179
420
  2234388
370
     9
  0
POLYLINE
  5
A3
330
1F
100
AcDbEntity
  8
_U+30EC_U+30A4_U+30E4_U+30FC 1
 62
   179
420
  2234388
370
     9
100
AcDb2dPolyline
 66
     1
 10
0.0
 20
0.0
 30
0.0
  0
VERTEX
  5
A4
330
A3
100
AcDbEntity
  8
_U+30EC_U+30A4_U+30E4_U+30FC 1
 62
   179
420
  2234388
370
     9
100
AcDbVertex
100
AcDb2dVertex
 10
91.4219390640589
 20
-137.4728533930949
 30
0.0
  0
VERTEX
  5
A5
330
A3
100
AcDbEntity
  8
_U+30EC_U+30A4_U+30E4_U+30FC 1
 62
   179
420
  2234388
370
     9
100
AcDbVertex
100
AcDb2dVertex
 10
91.4219390640589
 20
-134.0124595307059
 30
0.0
  0
SEQEND
  5
A6
330
A3
100
AcDbEntity
  8
_U+30EC_U+30A4_U+30E4_U+30FC 1
 62
   179
420
  2234388
370
     9
  0
INSERT
  5
A8
330
1F
100
AcDbEntity
  8
_U+30EC_U+30A4_U+30E4_U+30FC 1
100
AcDbBlockReference
  2
block 3
 10
0.0
 20
0.0
 30
0.0
  0
POLYLINE
  5
AF
330
1F
100
AcDbEntity
  8
_U+30EC_U+30A4_U+30E4_U+30FC 1
 62
   179
420
  2234388
370
     9
100
AcDb2dPolyline
 66
     1
 10
0.0
 20
0.0
 30
0.0
  0
VERTEX
  5
B0
330
AF
100
AcDbEntity
  8
_U+30EC_U+30A4_U+30E4_U+30FC 1
 62
   179
420
  2234388
370
     9
100
AcDbVertex
100
AcDb2dVertex
 10
87.42150495250986
 20
-140.0859475527335
 30
0.0
  0
VERTEX
  5
B1
330
AF
100
AcDbEntity
  8
_U+30EC_U+30A4_U+30E4_U+30FC 1
 62
   179
420
  2234388
370
     9
100
AcDbVertex
100
AcDb2dVertex
 10
87.42150495250986
 20
-161.5859917978468
 30
0.0
  0
SEQEND
  5
B2
330
AF
100
AcDbEntity
  8
_U+30EC_U+30A4_U+30E4_U+30FC 1
 62
   179
420
  2234388
370
     9
  0
POLYLINE
  5
B3
330
1F
100
AcDbEntity
  8
_U+30EC_U+30A4_U+30E4_U+30FC 1
 62
   179
420
  2234388
370
     9
100
AcDb2dPolyline
 66
     1
 10
0.0
 20
0.0
 30
0.0
  0
VERTEX
  5
B4
330
B3
100
AcDbEntity
  8
_U+30EC_U+30A4_U+30E4_U+30FC 1
 62
   179
420
  2234388
370
     9
100
AcDbVertex
100
AcDb2dVertex
 10
88.88154718508214
 20
-139.9681145212146
 30
0.0
  0
VERTEX
  5
B5
330
B3
100
AcDbEntity
  8
_U+30EC_U+30A4_U+30E4_U+30FC 1
 62
   179
420
  2234388
370
     9
100
AcDbVertex
100
AcDb2dVertex
 10
86.42161981753306
 20
-139.9681145212146
 30
0.0
  0
SEQEND
  5
B6
330
B3
100
AcDbEntity
  8
_U+30EC_U+30A4_U+30E4_U+30FC 1
 62
   179
420
  2234388
370
     9
  0
POLYLINE
  5
B7
330
1F
100
AcDbEntity
  8
_U+30EC_U+30A4_U+30E4_U+30FC 1
 62
   179
420
  2234388
370
     9
100
AcDb2dPolyline
 66
     1
 10
0.0
 20
0.0
 30
0.0
  0
VERTEX
  5
B8
330
B7
100
AcDbEntity
  8
_U+30EC_U+30A4_U+30E4_U+30FC 1
 62
   179
420
  2234388
370
     9
100
AcDbVertex
100
AcDb2dVertex
 10
89.24533850240113
 20
-161.5860994570807
 30
0.0
  0
VERTEX
  5
B9
330
B7
100
AcDbEntity
  8
_U+30EC_U+30A4_U+30E4_U+30FC 1
 62
   179
420
  2234388
370
     9
100
AcDbVertex
100
AcDb2dVertex
 10
86.4216951789968
 20
-161.5860994570807
 30
0.0
  0
SEQEND
  5
BA
330
B7
100
AcDbEntity
  8
_U+30EC_U+30A4_U+30E4_U+30FC 1
 62
   179
420
  2234388
370
     9
  0
INSERT
  5
BC
330
1F
100
AcDbEntity
  8
_U+30EC_U+30A4_U+30E4_U+30FC 1
100
AcDbBlockReference
  2
block 4
 10
0.0
 20
0.0
 30
0.0
  0
POLYLINE
  5
CD
330
1F
100
AcDbEntity
  8
_U+30EC_U+30A4_U+30E4_U+30FC 1
 62
   179
420
  2234388
370
     9
100
AcDb2dPolyline
 66
     1
 10
0.0
 20
0.0
 30
0.0
  0
VERTEX
  5
CE
330
CD
100
AcDbEntity
  8
_U+30EC_U+30A4_U+30E4_U+30FC 1
 62
   179
420
  2234388
370
     9
100
AcDbVertex
100
AcDb2dVertex
 10
87.42150495250986
 20
-162.5858661669002
 30
0.0
  0
VERTEX
  5
CF
330
CD
100
AcDbEntity
  8
_U+30EC_U+30A4_U+30E4_U+30FC 1
 62
   179
420
  2234388
370
     9
100
AcDbVertex
100
AcDb2dVertex
 10
87.42150495250986
 20
-166.3563616866553
 30
0.0
  0
SEQEND
  5
D0
330
CD
100
AcDbEntity
  8
_U+30EC_U+30A4_U+30E4_U+30FC 1
 62
   179
420
  2234388
370
     9
  0
POLYLINE
  5
D1
330
1F
100
AcDbEntity
  8
_U+30EC_U+30A4_U+30E4_U+30FC 1
 62
   179
420
  2234388
370
     9
100
AcDb2dPolyline
 66
     1
 10
0.0
 20
0.0
 30
0.0
  0
VERTEX
  5
D2
330
D1
100
AcDbEntity
  8
_U+30EC_U+30A4_U+30E4_U+30FC 1
 62
   179
420
  2234388
370
     9
100
AcDbVertex
100
AcDb2dVertex
 10
87.42150495250986
 20
-161.5860994570807
 30
0.0
  0
VERTEX
  5
D3
330
D1
100
AcDbEntity
  8
_U+30EC_U+30A4_U+30E4_U+30FC 1
 62
   179
420
  2234388
370
     9
100
AcDbVertex
100
AcDb2dVertex
 10
87.42150495250986
 20
-162.5858769328236
 30
0.0
  0
SEQEND
  5
D4
330
D1
100
AcDbEntity
  8
_U+30EC_U+30A4_U+30E4_U+30FC 1
 62
   179
420
  2234388
370
     9
  0
POLYLINE
  5
D5
330
1F
100
AcDbEntity
  8
_U+30EC_U+30A4_U+30E4_U+30FC 1
 62
   179
420
  2234388
370
     9
100
AcDb2dPolyline
 66
     1
 10
0.0
 20
0.0
 30
0.0
  0
VERTEX
  5
D6
330
D5
100
AcDbEntity
  8
_U+30EC_U+30A4_U+30E4_U+30FC 1
 62
   179
420
  2234388
370
     9
100
AcDbVertex
100
AcDb2dVertex
 10
88.88154718508214
 20
-162.5858661669002
 30
0.0
  0
VERTEX
  5
D7
330
D5
100
AcDbEntity
  8
_U+30EC_U+30A4_U+30E4_U+30FC 1
 62
   179
420
  2234388
370
     9
100
AcDbVertex
100
AcDb2dVertex
 10
86.42161981753306
 20
-162.5858661669002
 30
0.0
  0
SEQEND
  5
D8
330
D5
100
AcDbEntity
  8
_U+30EC_U+30A4_U+30E4_U+30FC 1
 62
   179
420
  2234388
370
     9
  0
INSERT
  5
DA
330
1F
100
AcDbEntity
  8
_U+30EC_U+30A4_U+30E4_U+30FC 1
100
AcDbBlockReference
  2
block 5
 10
0.0
 20
0.0
 30
0.0
  0
POLYLINE
  5
DF
330
1F
100
AcDbEntity
  8
_U+30EC_U+30A4_U+30E4_U+30FC 1
 62
   179
420
  2234388
370
     9
100
AcDb2dPolyline
 66
     1
 10
0.0
 20
0.0
 30
0.0
  0
VERTEX
  5
E0
330
DF
100
AcDbEntity
  8
_U+30EC_U+30A4_U+30E4_U+30FC 1
 62
   179
420
  2234388
370
     9
100
AcDbVertex
100
AcDb2dVertex
 10
103.6030646171114
 20
-138.2948639417989
 30
0.0
  0
VERTEX
  5
E1
330
DF
100
AcDbEntity
  8
_U+30EC_U+30A4_U+30E4_U+30FC 1
 62
   179
420
  2234388
370
     9
100
AcDbVertex
100
AcDb2dVertex
 10
107.4839646812453
 20
-132.6423127584519
 30
0.0
  0
VERTEX
  5
E2
330
DF
100
AcDbEntity
  8
_U+30EC_U+30A4_U+30E4_U+30FC 1
 62
   179
420
  2234388
370
     9
100
AcDbVertex
100
AcDb2dVertex
 10
123.8440341215998
 20
-132.6423127584519
 30
0.0
  0
SEQEND
  5
E3
330
DF
100
AcDbEntity
  8
_U+30EC_U+30A4_U+30E4_U+30FC 1
 62
   179
420
  2234388
370
     9
  0
INSERT
  5
E5
330
1F
100
AcDbEntity
  8
_U+30EC_U+30A4_U+30E4_U+30FC 1
100
AcDbBlockReference
  2
block 6
 10
0.0
 20
0.0
 30
0.0
  0
ENDSEC
  0
SECTION
  2
OBJECTS
  0
DICTIONARY
  5
C
330
0
100
AcDbDictionary
281
     1
  3
ACAD_GROUP
350
D
  3
ACAD_LAYOUT
350
1A
  3
ACAD_MATERIAL
350
3B
  3
ACAD_MLEADERSTYLE
350
123
  3
ACAD_MLINESTYLE
350
17
  3
ACAD_PLOTSETTINGS
350
19
  3
ACAD_PLOTSTYLENAME
350
E
  3
ACAD_TABLESTYLE
350
122
  3
ACAD_VISUALSTYLE
350
2A
  0
SUN
  5
3F
330
29
100
AcDbSun
 90
        1
290
     0
 63
     7
421
 16777215
 40
1.0
291
     1
 91
  2455826
 92
 54000000
292
     0
 70
     2
 71
   256
280
     1
  0
DICTIONARY
  5
D
102
{ACAD_REACTORS
330
C
102
}
330
C
100
AcDbDictionary
281
     1
  0
DICTIONARY
  5
1A
102
{ACAD_REACTORS
330
C
102
}
330
C
100
AcDbDictionary
281
     1
  3
Layout1
350
1E
  3
Layout2
350
26
  3
Model
350
22
  0
DICTIONARY
  5
3B
102
{ACAD_REACTORS
330
C
102
}
330
C
100
AcDbDictionary
281
     1
  3
ByBlock
350
3D
  3
ByLayer
350
3C
  3
Global
350
3E
  0
DICTIONARY
  5
123
102
{ACAD_REACTORS
330
C
102
}
330
C
100
AcDbDictionary
281
     1
  0
DICTIONARY
  5
17
102
{ACAD_REACTORS
330
C
102
}
330
C
100
AcDbDictionary
281
     1
  3
Standard
350
18
  0
DICTIONARY
  5
19
102
{ACAD_REACTORS
330
C
102
}
330
C
100
AcDbDictionary
281
     1
  0
ACDBDICTIONARYWDFLT
  5
E
102
{ACAD_REACTORS
330
C
102
}
330
C
100
AcDbDictionary
281
     1
  3
Normal
350
F
100
AcDbDictionaryWithDefault
340
F
  0
DICTIONARY
  5
122
102
{ACAD_REACTORS
330
C
102
}
330
C
100
AcDbDictionary
281
     1
  0
DICTIONARY
  5
2A
102
{ACAD_REACTORS
330
C
102
}
330
C
100
AcDbDictionary
281
     1
  3
2dWireframe
350
2F
  3
3D Hidden
350
31
  3
3dWireframe
350
30
  3
Basic
350
32
  3
Brighten
350
36
  3
ColorChange
350
3A
  3
Conceptual
350
34
  3
Dim
350
35
  3
Facepattern
350
39
  3
Flat
350
2B
  3
FlatWithEdges
350
2C
  3
Gouraud
350
2D
  3
GouraudWithEdges
350
2E
  3
Linepattern
350
38
  3
Realistic
350
33
  3
Thicken
350
37
  0
LAYOUT
  5
1E
102
{ACAD_REACTORS
330
1A
102
}
330
1A
100
AcDbPlotSettings
  1

  2
none_device
  4

  6

 40
0.0
 41
0.0
 42
0.0
 43
0.0
 44
0.0
 45
0.0
 46
0.0
 47
0.0
 48
0.0
 49
0.0
140
0.0
141
0.0
142
1.0
143
1.0
 70
   688
 72
     0
 73
     0
 74
     5
  7

 75
    16
 76
     0
 77
     2
 78
   300
147
1.0
148
0.0
149
0.0
100
AcDbLayout
  1
Layout1
 70
     1
 71
     1
 10
0.0
 20
0.0
 11
12.0
 21
9.0
 12
0.0
 22
0.0
 32
0.0
 14
1.000000000000000E+20
 24
1.000000000000000E+20
 34
1.000000000000000E+20
 15
-1.000000000000000E+20
 25
-1.000000000000000E+20
 35
-1.000000000000000E+20
146
0.0
 13
0.0
 23
0.0
 33
0.0
 16
1.0
 26
0.0
 36
0.0
 17
0.0
 27
1.0
 37
0.0
 76
     0
330
1B
  0
LAYOUT
  5
26
102
{ACAD_REACTORS
330
1A
102
}
330
1A
100
AcDbPlotSettings
  1

  2
none_device
  4

  6

 40
0.0
 41
0.0
 42
0.0
 43
0.0
 44
0.0
 45
0.0
 46
0.0
 47
0.0
 48
0.0
 49
0.0
140
0.0
141
0.0
142
1.0
143
1.0
 70
   688
 72
     0
 73
     0
 74
     5
  7

 75
    16
 76
     0
 77
     2
 78
   300
147
1.0
148
0.0
149
0.0
100
AcDbLayout
  1
Layout2
 70
     1
 71
     2
 10
0.0
 20
0.0
 11
0.0
 21
0.0
 12
0.0
 22
0.0
 32
0.0
 14
0.0
 24
0.0
 34
0.0
 15
0.0
 25
0.0
 35
0.0
146
0.0
 13
0.0
 23
0.0
 33
0.0
 16
1.0
 26
0.0
 36
0.0
 17
0.0
 27
1.0
 37
0.0
 76
     0
330
23
  0
LAYOUT
  5
22
102
{ACAD_REACTORS
330
1A
102
}
330
1A
100
AcDbPlotSettings
  1

  2
none_device
  4

  6

 40
0.0
 41
0.0
 42
0.0
 43
0.0
 44
0.0
 45
0.0
 46
0.0
 47
0.0
 48
0.0
 49
0.0
140
0.0
141
0.0
142
1.0
143
1.0
 70
  1712
 72
     0
 73
     0
 74
     0
  7

 75
     0
 76
     0
 77
     2
 78
   300
147
1.0
148
0.0
149
0.0
100
AcDbLayout
  1
Model
 70
     1
 71
     0
 10
0.0
 20
0.0
 11
12.0
 21
9.0
 12
0.0
 22
0.0
 32
0.0
 14
1.000000000000000E+20
 24
1.000000000000000E+20
 34
1.000000000000000E+20
 15
-1.000000000000000E+20
 25
-1.000000000000000E+20
 35
-1.000000000000000E+20
146
0.0
 13
0.0
 23
0.0
 33
0.0
 16
1.0
 26
0.0
 36
0.0
 17
0.0
 27
1.0
 37
0.0
 76
     0
330
1F
331
29
  0
MATERIAL
  5
3D
102
{ACAD_REACTORS
330
3B
102
}
330
3B
100
AcDbMaterial
  1
ByBlock
 72
     1
 94
      127
  0
MATERIAL
  5
3C
102
{ACAD_REACTORS
330
3B
102
}
330
3B
100
AcDbMaterial
  1
ByLayer
 72
     1
 94
      127
  0
MATERIAL
  5
3E
102
{ACAD_REACTORS
330
3B
102
}
330
3B
100
AcDbMaterial
  1
Global
 72
     1
 94
      127
  0
MLINESTYLE
  5
18
102
{ACAD_REACTORS
330
17
102
}
330
17
100
AcDbMlineStyle
  2
Standard
 70
     0
  3

 62
   256
 51
90.0
 52
90.0
 71
     2
 49
0.5
 62
   256
  6
BYLAYER
 49
-0.5
 62
   256
  6
BYLAYER
  0
ACDBPLACEHOLDER
  5
F
102
{ACAD_REACTORS
330
E
102
}
330
E
  0
VISUALSTYLE
  5
2F
102
{ACAD_REACTORS
330
2A
102
}
330
2A
100
AcDbVisualStyle
  2
2dWireframe
 70
     4
177
     2
291
     0
 71
     0
176
     1
 72
     2
176
     1
 73
     0
176
     1
 90
        0
176
     1
 40
-0.6
176
     1
 41
-30.0
176
     1
 62
     5
 63
     7
421
 16777215
176
     1
 74
     1
176
     1
 91
        4
176
     1
 64
     7
176
     1
 65
   257
176
     1
 75
     1
176
     1
175
     1
176
     1
 42
1.0
176
     1
 92
        0
176
     1
 66
   257
176
     1
 43
1.0
176
     1
 76
     1
176
     1
 77
     6
176
     1
 78
     2
176
     1
 67
     7
176
     1
 79
     5
176
     1
170
     0
176
     1
171
     0
176
     1
290
     0
176
     1
 93
        1
176
     1
 44
0.0
176
     1
173
     0
176
     1
  0
VISUALSTYLE
  5
31
102
{ACAD_REACTORS
330
2A
102
}
330
2A
100
AcDbVisualStyle
  2
3D Hidden
 70
     6
177
     2
291
     0
 71
     1
176
     1
 72
     2
176
     1
 73
     2
176
     1
 90
        0
176
     1
 40
-0.6
176
     1
 41
-30.0
176
     1
 62
     5
 63
     7
421
 16777215
176
     1
 74
     2
176
     1
 91
        2
176
     1
 64
     7
176
     1
 65
   257
176
     1
 75
     2
176
     1
175
     1
176
     1
 42
40.0
176
     1
 92
        0
176
     1
 66
   257
176
     1
 43
1.0
176
     1
 76
     1
176
     1
 77
     6
176
     1
 78
     2
176
     1
 67
     7
176
     1
 79
     3
176
     1
170
     0
176
     1
171
     0
176
     1
290
     0
176
     1
 93
        1
176
     1
 44
0.0
176
     1
173
     0
176
     1
  0
VISUALSTYLE
  5
30
102
{ACAD_REACTORS
330
2A
102
}
330
2A
100
AcDbVisualStyle
  2
3dWireframe
 70
     5
177
     2
291
     0
 71
     0
176
     1
 72
     2
176
     1
 73
     0
176
     1
 90
        0
176
     1
 40
-0.6
176
     1
 41
-30.0
176
     1
 62
     5
 63
     7
421
 16777215
176
     1
 74
     1
176
     1
 91
        4
176
     1
 64
     7
176
     1
 65
   257
176
     1
 75
     1
176
     1
175
     1
176
     1
 42
1.0
176
     1
 92
        0
176
     1
 66
   257
176
     1
 43
1.0
176
     1
 76
     1
176
     1
 77
     6
176
     1
 78
     2
176
     1
 67
     7
176
     1
 79
     5
176
     1
170
     0
176
     1
171
     0
176
     1
290
     0
176
     1
 93
        1
176
     1
 44
0.0
176
     1
173
     0
176
     1
  0
VISUALSTYLE
  5
32
102
{ACAD_REACTORS
330
2A
102
}
330
2A
100
AcDbVisualStyle
  2
Basic
 70
     7
177
     2
291
     1
 71
     1
176
     1
 72
     0
176
     1
 73
     1
176
     1
 90
        0
176
     1
 40
-0.6
176
     1
 41
-30.0
176
     1
 62
     5
 63
     7
421
 16777215
176
     1
 74
     0
176
     1
 91
        4
176
     1
 64
     7
176
     1
 65
   257
176
     1
 75
     1
176
     1
175
     1
176
     1
 42
1.0
176
     1
 92
        8
176
     1
 66
     7
176
     1
 43
1.0
176
     1
 76
     1
176
     1
 77
     6
176
     1
 78
     2
176
     1
 67
     7
176
     1
 79
     5
176
     1
170
     0
176
     1
171
     0
176
     1
290
     0
176
     1
 93
        1
176
     1
 44
0.0
176
     1
173
     0
176
     1
  0
VISUALSTYLE
  5
36
102
{ACAD_REACTORS
330
2A
102
}
330
2A
100
AcDbVisualStyle
  2
Brighten
 70
    12
177
     2
291
     1
 71
     2
176
     1
 72
     2
176
     1
 73
     0
176
     1
 90
        0
176
     1
 40
-0.6
176
     1
 41
-30.0
176
     1
 62
     5
 63
     7
421
 16777215
176
     1
 74
     1
176
     1
 91
        4
176
     1
 64
     7
176
     1
 65
   257
176
     1
 75
     1
176
     1
175
     1
176
     1
 42
1.0
176
     1
 92
        8
176
     1
 66
     7
176
     1
 43
1.0
176
     1
 76
     1
176
     1
 77
     6
176
     1
 78
     2
176
     1
 67
     7
176
     1
 79
     5
176
     1
170
     0
176
     1
171
     0
176
     1
290
     0
176
     1
 93
        1
176
     1
 44
50.0
176
     1
173
     0
176
     1
  0
VISUALSTYLE
  5
3A
102
{ACAD_REACTORS
330
2A
102
}
330
2A
100
AcDbVisualStyle
  2
ColorChange
 70
    16
177
     2
291
     1
 71
     2
176
     1
 72
     2
176
     1
 73
     3
176
     1
 90
        0
176
     1
 40
-0.6
176
     1
 41
-30.0
176
     1
 62
     5
 63
     8
421
  8421504
176
     1
 74
     1
176
     1
 91
        4
176
     1
 64
     7
176
     1
 65
   257
176
     1
 75
     1
176
     1
175
     1
176
     1
 42
1.0
176
     1
 92
        8
176
     1
 66
     8
424
  8421504
176
     1
 43
1.0
176
     1
 76
     1
176
     1
 77
     6
176
     1
 78
     2
176
     1
 67
     7
176
     1
 79
     5
176
     1
170
     0
176
     1
171
     0
176
     1
290
     0
176
     1
 93
        1
176
     1
 44
0.0
176
     1
173
     0
176
     1
  0
VISUALSTYLE
  5
34
102
{ACAD_REACTORS
330
2A
102
}
330
2A
100
AcDbVisualStyle
  2
Conceptual
 70
     9
177
     2
291
     0
 71
     3
176
     1
 72
     2
176
     1
 73
     0
176
     1
 90
        0
176
     1
 40
-0.6
176
     1
 41
-30.0
176
     1
 62
     5
 63
     7
421
 16777215
176
     1
 74
     2
176
     1
 91
        2
176
     1
 64
     7
176
     1
 65
   257
176
     1
 75
     1
176
     1
175
     1
176
     1
 42
40.0
176
     1
 92
        8
176
     1
 66
     7
176
     1
 43
1.0
176
     1
 76
     1
176
     1
 77
     6
176
     1
 78
     2
176
     1
 67
     7
176
     1
 79
     3
176
     1
170
     0
176
     1
171
     0
176
     1
290
     0
176
     1
 93
        1
176
     1
 44
0.0
176
     1
173
     0
176
     1
  0
VISUALSTYLE
  5
35
102
{ACAD_REACTORS
330
2A
102
}
330
2A
100
AcDbVisualStyle
  2
Dim
 70
    11
177
     2
291
     1
 71
     2
176
     1
 72
     2
176
     1
 73
     0
176
     1
 90
        0
176
     1
 40
-0.6
176
     1
 41
-30.0
176
     1
 62
     5
 63
     7
421
 16777215
176
     1
 74
     1
176
     1
 91
        4
176
     1
 64
     7
176
     1
 65
   257
176
     1
 75
     1
176
     1
175
     1
176
     1
 42
1.0
176
     1
 92
        8
176
     1
 66
     7
176
     1
 43
1.0
176
     1
 76
     1
176
     1
 77
     6
176
     1
 78
     2
176
     1
 67
     7
176
     1
 79
     5
176
     1
170
     0
176
     1
171
     0
176
     1
290
     0
176
     1
 93
        1
176
     1
 44
-50.0
176
     1
173
     0
176
     1
  0
VISUALSTYLE
  5
39
102
{ACAD_REACTORS
330
2A
102
}
330
2A
100
AcDbVisualStyle
  2
Facepattern
 70
    15
177
     2
291
     1
 71
     2
176
     1
 72
     2
176
     1
 73
     0
176
     1
 90
        0
176
     1
 40
-0.6
176
     1
 41
-30.0
176
     1
 62
     5
 63
     7
421
 16777215
176
     1
 74
     1
176
     1
 91
        4
176
     1
 64
     7
176
     1
 65
   257
176
     1
 75
     1
176
     1
175
     1
176
     1
 42
1.0
176
     1
 92
        8
176
     1
 66
     7
176
     1
 43
1.0
176
     1
 76
     1
176
     1
 77
     6
176
     1
 78
     2
176
     1
 67
     7
176
     1
 79
     5
176
     1
170
     0
176
     1
171
     0
176
     1
290
     0
176
     1
 93
        1
176
     1
 44
0.0
176
     1
173
     0
176
     1
  0
VISUALSTYLE
  5
2B
102
{ACAD_REACTORS
330
2A
102
}
330
2A
100
AcDbVisualStyle
  2
Flat
 70
     0
177
     2
291
     1
 71
     2
176
     1
 72
     1
176
     1
 73
     1
176
     1
 90
        2
176
     1
 40
-0.6
176
     1
 41
30.0
176
     1
 62
     5
 63
     7
421
 16777215
176
     1
 74
     0
176
     1
 91
        4
176
     1
 64
     7
176
     1
 65
   257
176
     1
 75
     1
176
     1
175
     1
176
     1
 42
1.0
176
     1
 92
        8
176
     1
 66
     7
176
     1
 43
1.0
176
     1
 76
     1
176
     1
 77
     6
176
     1
 78
     2
176
     1
 67
     7
176
     1
 79
     5
176
     1
170
     0
176
     1
171
     0
176
     1
290
     0
176
     1
 93
       13
176
     1
 44
0.0
176
     1
173
     0
176
     1
  0
VISUALSTYLE
  5
2C
102
{ACAD_REACTORS
330
2A
102
}
330
2A
100
AcDbVisualStyle
  2
FlatWithEdges
 70
     1
177
     2
291
     1
 71
     2
176
     1
 72
     1
176
     1
 73
     1
176
     1
 90
        2
176
     1
 40
-0.6
176
     1
 41
30.0
176
     1
 62
     5
 63
     7
421
 16777215
176
     1
 74
     1
176
     1
 91
        4
176
     1
 64
     7
176
     1
 65
   257
176
     1
 75
     1
176
     1
175
     1
176
     1
 42
1.0
176
     1
 92
        0
176
     1
 66
   257
176
     1
 43
1.0
176
     1
 76
     1
176
     1
 77
     6
176
     1
 78
     2
176
     1
 67
     7
176
     1
 79
     5
176
     1
170
     0
176
     1
171
     0
176
     1
290
     0
176
     1
 93
       13
176
     1
 44
0.0
176
     1
173
     0
176
     1
  0
VISUALSTYLE
  5
2D
102
{ACAD_REACTORS
330
2A
102
}
330
2A
100
AcDbVisualStyle
  2
Gouraud
 70
     2
177
     2
291
     1
 71
     2
176
     1
 72
     2
176
     1
 73
     1
176
     1
 90
        2
176
     1
 40
-0.6
176
     1
 41
30.0
176
     1
 62
     5
 63
     7
421
 16777215
176
     1
 74
     0
176
     1
 91
        4
176
     1
 64
     7
176
     1
 65
   257
176
     1
 75
     1
176
     1
175
     1
176
     1
 42
1.0
176
     1
 92
        0
176
     1
 66
     7
176
     1
 43
1.0
176
     1
 76
     1
176
     1
 77
     6
176
     1
 78
     2
176
     1
 67
     7
176
     1
 79
     5
176
     1
170
     0
176
     1
171
     0
176
     1
290
     0
176
     1
 93
       13
176
     1
 44
0.0
176
     1
173
     0
176
     1
  0
VISUALSTYLE
  5
2E
102
{ACAD_REACTORS
330
2A
102
}
330
2A
100
AcDbVisualStyle
  2
GouraudWithEdges
 70
     3
177
     2
291
     1
 71
     2
176
     1
 72
     2
176
     1
 73
     1
176
     1
 90
        2
176
     1
 40
-0.6
176
     1
 41
30.0
176
     1
 62
     5
 63
     7
421
 16777215
176
     1
 74
     1
176
     1
 91
        4
176
     1
 64
     7
176
     1
 65
   257
176
     1
 75
     1
176
     1
175
     1
176
     1
 42
1.0
176
     1
 92
        0
176
     1
 66
   257
176
     1
 43
1.0
176
     1
 76
     1
176
     1
 77
     6
176
     1
 78
     2
176
     1
 67
     7
176
     1
 79
     5
176
     1
170
     0
176
     1
171
     0
176
     1
290
     0
176
     1
 93
       13
176
     1
 44
0.0
176
     1
173
     0
176
     1
  0
VISUALSTYLE
  5
38
102
{ACAD_REACTORS
330
2A
102
}
330
2A
100
AcDbVisualStyle
  2
Linepattern
 70
    14
177
     2
291
     1
 71
     2
176
     1
 72
     2
176
     1
 73
     0
176
     1
 90
        0
176
     1
 40
-0.6
176
     1
 41
-30.0
176
     1
 62
     5
 63
     7
421
 16777215
176
     1
 74
     1
176
     1
 91
        4
176
     1
 64
     7
176
     1
 65
   257
176
     1
 75
     7
176
     1
175
     7
176
     1
 42
1.0
176
     1
 92
        8
176
     1
 66
     7
176
     1
 43
1.0
176
     1
 76
     1
176
     1
 77
     6
176
     1
 78
     2
176
     1
 67
     7
176
     1
 79
     5
176
     1
170
     0
176
     1
171
     0
176
     1
290
     0
176
     1
 93
        1
176
     1
 44
0.0
176
     1
173
     0
176
     1
  0
VISUALSTYLE
  5
33
102
{ACAD_REACTORS
330
2A
102
}
330
2A
100
AcDbVisualStyle
  2
Realistic
 70
     8
177
     2
291
     0
 71
     2
176
     1
 72
     2
176
     1
 73
     0
176
     1
 90
        0
176
     1
 40
-0.6
176
     1
 41
-30.0
176
     1
 62
     5
 63
     7
421
 16777215
176
     1
 74
     1
176
     1
 91
        0
176
     1
 64
     7
176
     1
 65
   257
176
     1
 75
     1
176
     1
175
     1
176
     1
 42
1.0
176
     1
 92
        8
176
     1
 66
     8
424
  7895160
176
     1
 43
1.0
176
     1
 76
     1
176
     1
 77
     6
176
     1
 78
     2
176
     1
 67
     7
176
     1
 79
     5
176
     1
170
     0
176
     1
171
     0
176
     1
290
     0
176
     1
 93
       13
176
     1
 44
0.0
176
     1
173
     0
176
     1
  0
VISUALSTYLE
  5
37
102
{ACAD_REACTORS
330
2A
102
}
330
2A
100
AcDbVisualStyle
  2
Thicken
 70
    13
177
     2
291
     1
 71
     2
176
     1
 72
     2
176
     1
 73
     0
176
     1
 90
        0
176
     1
 40
-0.6
176
     1
 41
-30.0
176
     1
 62
     5
 63
     7
421
 16777215
176
     1
 74
     1
176
     1
 91
        4
176
     1
 64
     7
176
     1
 65
   257
176
     1
 75
     1
176
     1
175
     1
176
     1
 42
1.0
176
     1
 92
       12
176
     1
 66
     7
176
     1
 43
1.0
176
     1
 76
     1
176
     1
 77
     6
176
     1
 78
     2
176
     1
 67
     7
176
     1
 79
     5
176
     1
170
     0
176
     1
171
     0
176
     1
290
     0
176
     1
 93
        1
176
     1
 44
0.0
176
     1
173
     0
176
     1
  0
ENDSEC
  0
EOF
