  0
SECTION
  2
HEADER
  9
$ACADVER
  1
AC1024
  9
$ACADMAINTVER
 70
     6
  9
$DWGCODEPAGE
  3
UNDEFINED
  9
$INSBASE
 10
0.0
 20
0.0
 30
0.0
  9
$EXTMIN
 10
1.000000000000000E+20
 20
1.000000000000000E+20
 30
1.000000000000000E+20
  9
$EXTMAX
 10
-1.000000000000000E+20
 20
-1.000000000000000E+20
 30
-1.000000000000000E+20
  9
$LIMMIN
 10
0.0
 20
0.0
  9
$LIMMAX
 10
12.0
 20
9.0
  9
$ORTHOMODE
 70
     0
  9
$REGENMODE
 70
     1
  9
$FILLMODE
 70
     1
  9
$QTEXTMODE
 70
     0
  9
$MIRRTEXT
 70
     1
  9
$LTSCALE
 40
1.0
  9
$ATTMODE
 70
     1
  9
$TEXTSIZE
 40
0.2
  9
$TRACEWID
 40
0.05
  9
$TEXTSTYLE
  7
Standard
  9
$CLAYER
  8
0
  9
$CELTYPE
  6
ByLayer
  9
$CECOLOR
 62
   256
  9
$CELTSCALE
 40
1.0
  9
$DISPSILH
 70
     0
  9
$DIMSCALE
 40
1.0
  9
$DIMASZ
 40
0.18
  9
$DIMEXO
 40
0.0625
  9
$DIMDLI
 40
0.38
  9
$DIMRND
 40
0.0
  9
$DIMDLE
 40
0.0
  9
$DIMEXE
 40
0.18
  9
$DIMTP
 40
0.0
  9
$DIMTM
 40
0.0
  9
$DIMTXT
 40
0.18
  9
$DIMCEN
 40
0.09
  9
$DIMTSZ
 40
0.0
  9
$DIMTOL
 70
     0
  9
$DIMLIM
 70
     0
  9
$DIMTIH
 70
     1
  9
$DIMTOH
 70
     1
  9
$DIMSE1
 70
     0
  9
$DIMSE2
 70
     0
  9
$DIMTAD
 70
     0
  9
$DIMZIN
 70
     0
  9
$DIMBLK
  1

  9
$DIMASO
 70
     1
  9
$DIMSHO
 70
     1
  9
$DIMPOST
  1

  9
$DIMAPOST
  1

  9
$DIMALT
 70
     0
  9
$DIMALTD
 70
     2
  9
$DIMALTF
 40
25.4
  9
$DIMLFAC
 40
1.0
  9
$DIMTOFL
 70
     0
  9
$DIMTVP
 40
0.0
  9
$DIMTIX
 70
     0
  9
$DIMSOXD
 70
     0
  9
$DIMSAH
 70
     0
  9
$DIMBLK1
  1

  9
$DIMBLK2
  1

  9
$DIMSTYLE
  2
Standard
  9
$DIMCLRD
 70
     0
  9
$DIMCLRE
 70
     0
  9
$DIMCLRT
 70
     0
  9
$DIMTFAC
 40
1.0
  9
$DIMGAP
 40
0.09
  9
$DIMJUST
 70
     0
  9
$DIMSD1
 70
     0
  9
$DIMSD2
 70
     0
  9
$DIMTOLJ
 70
     1
  9
$DIMTZIN
 70
     0
  9
$DIMALTZ
 70
     0
  9
$DIMALTTZ
 70
     0
  9
$DIMUPT
 70
     0
  9
$DIMDEC
 70
     4
  9
$DIMTDEC
 70
     4
  9
$DIMALTU
 70
     2
  9
$DIMALTTD
 70
     2
  9
$DIMTXSTY
  7
Standard
  9
$DIMAUNIT
 70
     0
  9
$DIMADEC
 70
     0
  9
$DIMALTRND
 40
0.0
  9
$DIMAZIN
 70
     0
  9
$DIMDSEP
 70
    46
  9
$DIMATFIT
 70
     3
  9
$DIMFRAC
 70
     0
  9
$DIMLDRBLK
  1

  9
$DIMLUNIT
 70
     2
  9
$DIMLWD
 70
    -2
  9
$DIMLWE
 70
    -2
  9
$DIMTMOVE
 70
     0
  9
$DIMFXL
 40
1.0
  9
$DIMFXLON
 70
     0
  9
$DIMJOGANG
 40
0.7853981633974483
  9
$DIMTFILL
 70
     0
  9
$DIMTFILLCLR
 70
     0
  9
$DIMARCSYM
 70
     0
  9
$DIMLTYPE
  6

  9
$DIMLTEX1
  6

  9
$DIMLTEX2
  6

  9
$DIMTXTDIRECTION
 70
     0
  9
$LUNITS
 70
     2
  9
$LUPREC
 70
     4
  9
$SKETCHINC
 40
0.1
  9
$FILLETRAD
 40
0.5
  9
$AUNITS
 70
     0
  9
$AUPREC
 70
     0
  9
$MENU
  1
.
  9
$ELEVATION
 40
0.0
  9
$PELEVATION
 40
0.0
  9
$THICKNESS
 40
0.0
  9
$LIMCHECK
 70
     0
  9
$CHAMFERA
 40
0.5
  9
$CHAMFERB
 40
0.5
  9
$CHAMFERC
 40
1.0
  9
$CHAMFERD
 40
0.0
  9
$SKPOLY
 70
     0
  9
$TDCREATE
 40
2457917.599513877
  9
$TDUCREATE
 40
2457917.224513889
  9
$TDUPDATE
 40
2457917.599513877
  9
$TDUUPDATE
 40
2457917.224513889
  9
$TDINDWG
 40
0.0000000116
  9
$TDUSRTIMER
 40
0.0000000116
  9
$USRTIMER
 70
     1
  9
$ANGBASE
 50
0.0
  9
$ANGDIR
 70
     0
  9
$PDMODE
 70
     0
  9
$PDSIZE
 40
0.0
  9
$PLINEWID
 40
0.0
  9
$SPLFRAME
 70
     0
  9
$SPLINETYPE
 70
     6
  9
$SPLINESEGS
 70
     8
  9
$HANDSEED
  5
10F
  9
$SURFTAB1
 70
     6
  9
$SURFTAB2
 70
     6
  9
$SURFTYPE
 70
     6
  9
$SURFU
 70
     6
  9
$SURFV
 70
     6
  9
$UCSBASE
  2

  9
$UCSNAME
  2

  9
$UCSORG
 10
0.0
 20
0.0
 30
0.0
  9
$UCSXDIR
 10
1.0
 20
0.0
 30
0.0
  9
$UCSYDIR
 10
0.0
 20
1.0
 30
0.0
  9
$UCSORTHOREF
  2

  9
$UCSORTHOVIEW
 70
     0
  9
$UCSORGTOP
 10
0.0
 20
0.0
 30
0.0
  9
$UCSORGBOTTOM
 10
0.0
 20
0.0
 30
0.0
  9
$UCSORGLEFT
 10
0.0
 20
0.0
 30
0.0
  9
$UCSORGRIGHT
 10
0.0
 20
0.0
 30
0.0
  9
$UCSORGFRONT
 10
0.0
 20
0.0
 30
0.0
  9
$UCSORGBACK
 10
0.0
 20
0.0
 30
0.0
  9
$PUCSBASE
  2

  9
$PUCSNAME
  2

  9
$PUCSORG
 10
0.0
 20
0.0
 30
0.0
  9
$PUCSXDIR
 10
1.0
 20
0.0
 30
0.0
  9
$PUCSYDIR
 10
0.0
 20
1.0
 30
0.0
  9
$PUCSORTHOREF
  2

  9
$PUCSORTHOVIEW
 70
     0
  9
$PUCSORGTOP
 10
0.0
 20
0.0
 30
0.0
  9
$PUCSORGBOTTOM
 10
0.0
 20
0.0
 30
0.0
  9
$PUCSORGLEFT
 10
0.0
 20
0.0
 30
0.0
  9
$PUCSORGRIGHT
 10
0.0
 20
0.0
 30
0.0
  9
$PUCSORGFRONT
 10
0.0
 20
0.0
 30
0.0
  9
$PUCSORGBACK
 10
0.0
 20
0.0
 30
0.0
  9
$USERI1
 70
     0
  9
$USERI2
 70
     0
  9
$USERI3
 70
     0
  9
$USERI4
 70
     0
  9
$USERI5
 70
     0
  9
$USERR1
 40
0.0
  9
$USERR2
 40
0.0
  9
$USERR3
 40
0.0
  9
$USERR4
 40
0.0
  9
$USERR5
 40
0.0
  9
$WORLDVIEW
 70
     1
  9
$SHADEDGE
 70
     3
  9
$SHADEDIF
 70
    70
  9
$TILEMODE
 70
     1
  9
$MAXACTVP
 70
    64
  9
$PINSBASE
 10
0.0
 20
0.0
 30
0.0
  9
$PLIMCHECK
 70
     0
  9
$PEXTMIN
 10
1.000000000000000E+20
 20
1.000000000000000E+20
 30
1.000000000000000E+20
  9
$PEXTMAX
 10
-1.000000000000000E+20
 20
-1.000000000000000E+20
 30
-1.000000000000000E+20
  9
$PLIMMIN
 10
0.0
 20
0.0
  9
$PLIMMAX
 10
12.0
 20
9.0
  9
$UNITMODE
 70
     0
  9
$VISRETAIN
 70
     1
  9
$PLINEGEN
 70
     0
  9
$PSLTSCALE
 70
     1
  9
$TREEDEPTH
 70
  3020
  9
$CMLSTYLE
  2
Standard
  9
$CMLJUST
 70
     0
  9
$CMLSCALE
 40
1.0
  9
$PROXYGRAPHICS
 70
     1
  9
$MEASUREMENT
 70
     0
  9
$CELWEIGHT
370
    -1
  9
$ENDCAPS
280
     0
  9
$JOINSTYLE
280
     0
  9
$LWDISPLAY
290
     1
  9
$INSUNITS
 70
     1
  9
$HYPERLINKBASE
  1

  9
$STYLESHEET
  1

  9
$XEDIT
290
     1
  9
$CEPSNTYPE
380
     0
  9
$PSTYLEMODE
290
     1
  9
$FINGERPRINTGUID
  2
{BE6DD15E-2104-D70E-12B3-FD83A6530201}
  9
$VERSIONGUID
  2
{FAEB1C32-E019-11D5-929B-00C0DF256EC4}
  9
$EXTNAMES
290
     1
  9
$PSVPSCALE
 40
0.0
  9
$OLESTARTUP
290
     0
  9
$SORTENTS
280
   127
  9
$INDEXCTL
280
     0
  9
$HIDETEXT
280
     1
  9
$XCLIPFRAME
280
     2
  9
$HALOGAP
280
     0
  9
$OBSCOLOR
 70
   257
  9
$OBSLTYPE
280
     0
  9
$INTERSECTIONDISPLAY
280
     0
  9
$INTERSECTIONCOLOR
 70
   257
  9
$DIMASSOC
280
     2
  9
$PROJECTNAME
  1

  9
$CAMERADISPLAY
290
     0
  9
$LENSLENGTH
 40
50.0
  9
$CAMERAHEIGHT
 40
0.0
  9
$STEPSPERSEC
 40
2.0
  9
$STEPSIZE
 40
6.0
  9
$3DDWFPREC
 40
2.0
  9
$PSOLWIDTH
 40
0.25
  9
$PSOLHEIGHT
 40
4.0
  9
$LOFTANG1
 40
1.570796326794897
  9
$LOFTANG2
 40
1.570796326794897
  9
$LOFTMAG1
 40
0.0
  9
$LOFTMAG2
 40
0.0
  9
$LOFTPARAM
 70
     7
  9
$LOFTNORMALS
280
     1
  9
$LATITUDE
 40
37.795
  9
$LONGITUDE
 40
-122.394
  9
$NORTHDIRECTION
 40
0.0
  9
$TIMEZONE
 70
 -8000
  9
$LIGHTGLYPHDISPLAY
280
     1
  9
$TILEMODELIGHTSYNCH
280
     1
  9
$CMATERIAL
347
3C
  9
$SOLIDHIST
280
     1
  9
$SHOWHIST
280
     1
  9
$DWFFRAME
280
     2
  9
$DGNFRAME
280
     2
  9
$REALWORLDSCALE
290
     1
  9
$INTERFERECOLOR
 62
   256
  9
$CSHADOW
280
     0
  9
$SHADOWPLANELOCATION
 40
0.0
  0
ENDSEC
  0
SECTION
  2
CLASSES
  0
CLASS
  1
ACDBDICTIONARYWDFLT
  2
AcDbDictionaryWithDefault
  3
ObjectDBX Classes
 90
        0
 91
        4
280
     0
281
     0
  0
CLASS
  1
VISUALSTYLE
  2
AcDbVisualStyle
  3
ObjectDBX Classes
 90
     4095
 91
        4
280
     0
281
     0
  0
CLASS
  1
MATERIAL
  2
AcDbMaterial
  3
ObjectDBX Classes
 90
     1153
 91
        4
280
     0
281
     0
  0
CLASS
  1
SUN
  2
AcDbSun
  3
SCENEOE
 90
     1024
 91
        4
280
     0
281
     0
  0
ENDSEC
  0
SECTION
  2
TABLES
  0
TABLE
  2
VPORT
  5
8
330
0
100
AcDbSymbolTable
 70
     1
  0
VPORT
  5
29
330
8
100
AcDbSymbolTableRecord
100
AcDbViewportTableRecord
  2
*Active
 70
     0
 10
0.0
 20
0.0
 11
1.0
 21
1.0
 12
0.0
 22
0.0
 13
0.0
 23
0.0
 14
0.5
 24
0.5
 15
0.5
 25
0.5
 16
0.0
 26
0.0
 36
1.0
 17
91.00082462281999
 27
-128.4993055234307
 37
0.0
 40
256.9986110468615
 41
0.7081814508812795
 42
50.0
 43
0.0
 44
0.0
 50
0.0
 51
0.0
 71
     0
 72
   100
 73
     1
 74
     3
 75
     0
 76
     0
 77
     0
 78
     0
281
     0
 65
     1
110
0.0
120
0.0
130
0.0
111
1.0
121
0.0
131
0.0
112
0.0
122
1.0
132
0.0
 79
     0
146
0.0
 60
     3
 61
     5
292
     1
282
     1
141
0.0
142
0.0
 63
   250
361
3F
  0
ENDTAB
  0
TABLE
  2
LTYPE
  5
5
330
0
100
AcDbSymbolTable
 70
     1
  0
LTYPE
  5
14
330
5
100
AcDbSymbolTableRecord
100
AcDbLinetypeTableRecord
  2
ByBlock
 70
     0
  3

 72
    65
 73
     0
 40
0.0
  0
LTYPE
  5
15
330
5
100
AcDbSymbolTableRecord
100
AcDbLinetypeTableRecord
  2
ByLayer
 70
     0
  3

 72
    65
 73
     0
 40
0.0
  0
LTYPE
  5
16
330
5
100
AcDbSymbolTableRecord
100
AcDbLinetypeTableRecord
  2
Continuous
 70
     0
  3
Solid line
 72
    65
 73
     0
 40
0.0
  0
ENDTAB
  0
TABLE
  2
LAYER
  5
2
330
0
100
AcDbSymbolTable
 70
     2
  0
LAYER
  5
10
330
2
100
AcDbSymbolTableRecord
100
AcDbLayerTableRecord
  2
0
 70
     0
 62
     7
  6
Continuous
370
    -3
390
F
347
3E
  0
LAYER
  5
40
330
2
100
AcDbSymbolTableRecord
100
AcDbLayerTableRecord
  2
_U+30EC_U+30A4_U+30E4_U+30FC 1
 70
     0
 62
     7
  6
Continuous
370
    -3
390
F
347
3E
  0
ENDTAB
  0
TABLE
  2
STYLE
  5
3
330
0
100
AcDbSymbolTable
 70
     1
  0
STYLE
  5
11
330
3
100
AcDbSymbolTableRecord
100
AcDbTextStyleTableRecord
  2
Standard
 70
     0
 40
0.0
 41
1.0
 50
0.0
 71
     0
 42
0.2
  3
txt
  4

  0
ENDTAB
  0
TABLE
  2
VIEW
  5
6
330
0
100
AcDbSymbolTable
 70
     0
  0
ENDTAB
  0
TABLE
  2
UCS
  5
7
330
0
100
AcDbSymbolTable
 70
     0
  0
ENDTAB
  0
TABLE
  2
APPID
  5
9
330
0
100
AcDbSymbolTable
 70
     1
  0
APPID
  5
12
330
9
100
AcDbSymbolTableRecord
100
AcDbRegAppTableRecord
  2
ACAD
 70
     0
  0
ENDTAB
  0
TABLE
  2
DIMSTYLE
  5
A
330
0
100
AcDbSymbolTable
 70
     1
100
AcDbDimStyleTable
  0
DIMSTYLE
105
27
330
A
100
AcDbSymbolTableRecord
100
AcDbDimStyleTableRecord
  2
Standard
 70
     0
178
     0
340
11
  0
ENDTAB
  0
TABLE
  2
BLOCK_RECORD
  5
1
330
0
100
AcDbSymbolTable
 70
     7
  0
BLOCK_RECORD
  5
1F
330
1
100
AcDbSymbolTableRecord
100
AcDbBlockTableRecord
  2
*Model_Space
340
22
 70
     0
280
     1
281
     0
  0
BLOCK_RECORD
  5
1B
330
1
100
AcDbSymbolTableRecord
100
AcDbBlockTableRecord
  2
*Paper_Space
340
1E
 70
     0
280
     1
281
     0
  0
BLOCK_RECORD
  5
23
330
1
100
AcDbSymbolTableRecord
100
AcDbBlockTableRecord
  2
*Paper_Space0
340
26
 70
     0
280
     1
281
     0
  0
BLOCK_RECORD
  5
A7
330
1
100
AcDbSymbolTableRecord
100
AcDbBlockTableRecord
  2
block 2
340
0
102
{BLKREFS
331
A8
102
}
 70
     0
280
     1
281
     0
  0
BLOCK_RECORD
  5
B5
330
1
100
AcDbSymbolTableRecord
100
AcDbBlockTableRecord
  2
block 3
340
0
102
{BLKREFS
331
B6
102
}
 70
     0
280
     1
281
     0
  0
BLOCK_RECORD
  5
C3
330
1
100
AcDbSymbolTableRecord
100
AcDbBlockTableRecord
  2
block 4
340
0
102
{BLKREFS
331
C4
102
}
 70
     0
280
     1
281
     0
  0
BLOCK_RECORD
  5
D5
330
1
100
AcDbSymbolTableRecord
100
AcDbBlockTableRecord
  2
block 5
340
0
102
{BLKREFS
331
D6
102
}
 70
     0
280
     1
281
     0
  0
BLOCK_RECORD
  5
ED
330
1
100
AcDbSymbolTableRecord
100
AcDbBlockTableRecord
  2
block 6
340
0
102
{BLKREFS
331
EE
102
}
 70
     0
280
     1
281
     0
  0
BLOCK_RECORD
  5
105
330
1
100
AcDbSymbolTableRecord
100
AcDbBlockTableRecord
  2
block 7
340
0
102
{BLKREFS
331
106
102
}
 70
     0
280
     1
281
     0
  0
ENDTAB
  0
ENDSEC
  0
SECTION
  2
BLOCKS
  0
BLOCK
  5
20
330
1F
100
AcDbEntity
  8
0
100
AcDbBlockBegin
  2
*Model_Space
 70
     0
 10
0.0
 20
0.0
 30
0.0
  3
*Model_Space
  1

  0
ENDBLK
  5
21
330
1F
100
AcDbEntity
  8
0
100
AcDbBlockEnd
  0
BLOCK
  5
1C
330
1B
100
AcDbEntity
 67
     1
  8
0
100
AcDbBlockBegin
  2
*Paper_Space
 70
     0
 10
0.0
 20
0.0
 30
0.0
  3
*Paper_Space
  1

  0
ENDBLK
  5
1D
330
1B
100
AcDbEntity
 67
     1
  8
0
100
AcDbBlockEnd
  0
BLOCK
  5
24
330
23
100
AcDbEntity
  8
0
100
AcDbBlockBegin
  2
*Paper_Space0
 70
     0
 10
0.0
 20
0.0
 30
0.0
  3
*Paper_Space0
  1

  0
ENDBLK
  5
25
330
23
100
AcDbEntity
  8
0
100
AcDbBlockEnd
  0
BLOCK
  5
A9
330
A7
100
AcDbEntity
  8
0
100
AcDbBlockBegin
  2
block 2
 70
     0
 10
0.0
 20
0.0
 30
0.0
  3
block 2
  1

  0
SPLINE
  5
AB
330
A7
100
AcDbEntity
  8
_U+30EC_U+30A4_U+30E4_U+30FC 1
370
     0
100
AcDbSpline
210
0.0
220
0.0
230
1.0
 70
    11
 71
     3
 72
    53
 73
    49
 74
     0
 42
0.0000000001
 43
0.0000000001
 12
1.0
 22
0.0
 32
0.0
 13
1.0
 23
0.0
 33
0.0
 40
0.0
 40
0.0
 40
0.0
 40
0.0
 40
1.0
 40
1.0
 40
1.0
 40
2.0
 40
2.0
 40
2.0
 40
3.0
 40
3.0
 40
3.0
 40
4.0
 40
4.0
 40
4.0
 40
5.0
 40
5.0
 40
5.0
 40
6.0
 40
6.0
 40
6.0
 40
7.0
 40
7.0
 40
7.0
 40
8.0
 40
8.0
 40
8.0
 40
9.0
 40
9.0
 40
9.0
 40
10.0
 40
10.0
 40
10.0
 40
11.0
 40
11.0
 40
11.0
 40
12.0
 40
12.0
 40
12.0
 40
13.0
 40
13.0
 40
13.0
 40
14.0
 40
14.0
 40
14.0
 40
15.0
 40
15.0
 40
15.0
 40
16.0
 40
16.0
 40
16.0
 40
16.0
 10
89.83775496886001
 20
-139.3847737281747
 30
0.0
 10
89.83775496886001
 20
-139.4629773956898
 30
0.0
 10
89.82087400098229
 20
-139.5646077125047
 30
0.0
 10
89.75748424405369
 20
-139.6662380293195
 30
0.0
 10
89.64758569807422
 20
-139.8395263322276
 30
0.0
 10
89.5163275600862
 20
-139.8608859242362
 30
0.0
 10
89.40849607139788
 20
-139.8798339494051
 30
0.0
 10
89.40849607139788
 20
-139.8798339494051
 30
0.0
 10
89.40849607139788
 20
-139.6576252906064
 30
0.0
 10
89.40849607139788
 20
-139.6576252906064
 30
0.0
 10
89.60727808089679
 20
-139.602848272391
 30
0.0
 10
89.63690590206994
 20
-139.4757242489852
 30
0.0
 10
89.63690590206994
 20
-139.3827066708835
 30
0.0
 10
89.63690590206994
 20
-139.2431803037309
 30
0.0
 10
89.53734264254622
 20
-139.0909070832828
 30
0.0
 10
89.30479869729186
 20
-139.0909070832828
 30
0.0
 10
89.0488281027378
 20
-139.0909070832828
 30
0.0
 10
88.97889266438723
 20
-139.2707410676129
 30
0.0
 10
88.97889266438723
 20
-139.3913194095966
 30
0.0
 10
88.97889266438723
 20
-139.4230142880609
 30
0.0
 10
88.97889266438723
 20
-139.5646077125047
 30
0.0
 10
89.10808374508409
 20
-139.6534911760241
 30
0.0
 10
89.10808374508409
 20
-139.6534911760241
 30
0.0
 10
89.08913571991522
 20
-139.8291910457719
 30
0.0
 10
89.08913571991522
 20
-139.8291910457719
 30
0.0
 10
89.08913571991522
 20
-139.8291910457719
 30
0.0
 10
88.24267575918934
 20
-139.7086127037881
 30
0.0
 10
88.24267575918934
 20
-139.7086127037881
 30
0.0
 10
88.24267575918934
 20
-139.7086127037881
 30
0.0
 10
88.24267575918934
 20
-138.9300211241217
 30
0.0
 10
88.24267575918934
 20
-138.9300211241217
 30
0.0
 10
88.24267575918934
 20
-138.9300211241217
 30
0.0
 10
88.43732365410595
 20
-138.9300211241217
 30
0.0
 10
88.43732365410595
 20
-138.9300211241217
 30
0.0
 10
88.43732365410595
 20
-138.9300211241217
 30
0.0
 10
88.43732365410595
 20
-139.5456596873358
 30
0.0
 10
88.43732365410595
 20
-139.5456596873358
 30
0.0
 10
88.43732365410595
 20
-139.5456596873358
 30
0.0
 10
88.86038137969463
 20
-139.6111165015556
 30
0.0
 10
88.86038137969463
 20
-139.6111165015556
 30
0.0
 10
88.82661944393918
 20
-139.5497938019181
 30
0.0
 10
88.78631182676176
 20
-139.4674560198206
 30
0.0
 10
88.78631182676176
 20
-139.348944735128
 30
0.0
 10
88.78631182676176
 20
-139.0950411978651
 30
0.0
 10
88.97269149251377
 20
-138.85801862848
 30
0.0
 10
89.28585067212299
 20
-138.85801862848
 30
0.0
 10
89.60314396631449
 20
-138.85801862848
 30
0.0
 10
89.83775496886001
 20
-139.0822943445697
 30
0.0
 10
89.83775496886001
 20
-139.3847737281747
 30
0.0
  0
HATCH
  5
AC
330
A7
100
AcDbEntity
  8
_U+30EC_U+30A4_U+30E4_U+30FC 1
 62
   179
420
  2234388
100
AcDbHatch
 10
0.0
 20
0.0
 30
0.0
210
0.0
220
0.0
230
1.0
  2
SOLID
 70
     1
 71
     0
 91
        1
 92
        1
 93
        1
 72
     4
 94
        3
 73
     0
 74
     1
 95
       53
 96
       49
 40
0.0
 40
0.0
 40
0.0
 40
0.0
 40
1.0
 40
1.0
 40
1.0
 40
2.0
 40
2.0
 40
2.0
 40
3.0
 40
3.0
 40
3.0
 40
4.0
 40
4.0
 40
4.0
 40
5.0
 40
5.0
 40
5.0
 40
6.0
 40
6.0
 40
6.0
 40
7.0
 40
7.0
 40
7.0
 40
8.0
 40
8.0
 40
8.0
 40
9.0
 40
9.0
 40
9.0
 40
10.0
 40
10.0
 40
10.0
 40
11.0
 40
11.0
 40
11.0
 40
12.0
 40
12.0
 40
12.0
 40
13.0
 40
13.0
 40
13.0
 40
14.0
 40
14.0
 40
14.0
 40
15.0
 40
15.0
 40
15.0
 40
16.0
 40
16.0
 40
16.0
 40
16.0
 10
89.83775496886001
 20
-139.3847737281747
 10
89.83775496886001
 20
-139.4629773956898
 10
89.82087400098229
 20
-139.5646077125047
 10
89.75748424405369
 20
-139.6662380293195
 10
89.64758569807422
 20
-139.8395263322276
 10
89.5163275600862
 20
-139.8608859242362
 10
89.40849607139788
 20
-139.8798339494051
 10
89.40849607139788
 20
-139.8798339494051
 10
89.40849607139788
 20
-139.6576252906064
 10
89.40849607139788
 20
-139.6576252906064
 10
89.60727808089679
 20
-139.602848272391
 10
89.63690590206994
 20
-139.4757242489852
 10
89.63690590206994
 20
-139.3827066708835
 10
89.63690590206994
 20
-139.2431803037309
 10
89.53734264254622
 20
-139.0909070832828
 10
89.30479869729186
 20
-139.0909070832828
 10
89.0488281027378
 20
-139.0909070832828
 10
88.97889266438723
 20
-139.2707410676129
 10
88.97889266438723
 20
-139.3913194095966
 10
88.97889266438723
 20
-139.4230142880609
 10
88.97889266438723
 20
-139.5646077125047
 10
89.10808374508409
 20
-139.6534911760241
 10
89.10808374508409
 20
-139.6534911760241
 10
89.08913571991522
 20
-139.8291910457719
 10
89.08913571991522
 20
-139.8291910457719
 10
89.08913571991522
 20
-139.8291910457719
 10
88.24267575918934
 20
-139.7086127037881
 10
88.24267575918934
 20
-139.7086127037881
 10
88.24267575918934
 20
-139.7086127037881
 10
88.24267575918934
 20
-138.9300211241217
 10
88.24267575918934
 20
-138.9300211241217
 10
88.24267575918934
 20
-138.9300211241217
 10
88.43732365410595
 20
-138.9300211241217
 10
88.43732365410595
 20
-138.9300211241217
 10
88.43732365410595
 20
-138.9300211241217
 10
88.43732365410595
 20
-139.5456596873358
 10
88.43732365410595
 20
-139.5456596873358
 10
88.43732365410595
 20
-139.5456596873358
 10
88.86038137969463
 20
-139.6111165015556
 10
88.86038137969463
 20
-139.6111165015556
 10
88.82661944393918
 20
-139.5497938019181
 10
88.78631182676176
 20
-139.4674560198206
 10
88.78631182676176
 20
-139.348944735128
 10
88.78631182676176
 20
-139.0950411978651
 10
88.97269149251377
 20
-138.85801862848
 10
89.28585067212299
 20
-138.85801862848
 10
89.60314396631449
 20
-138.85801862848
 10
89.83775496886001
 20
-139.0822943445697
 10
89.83775496886001
 20
-139.3847737281747
 97
        0
 97
        0
 75
     2
 76
     1
 98
        0
  0
ENDBLK
  5
AA
330
A7
100
AcDbEntity
  8
0
100
AcDbBlockEnd
  0
BLOCK
  5
B7
330
B5
100
AcDbEntity
  8
0
100
AcDbBlockBegin
  2
block 3
 70
     0
 10
0.0
 20
0.0
 30
0.0
  3
block 3
  1

  0
SPLINE
  5
B9
330
B5
100
AcDbEntity
  8
_U+30EC_U+30A4_U+30E4_U+30FC 1
370
     0
100
AcDbSpline
210
0.0
220
0.0
230
1.0
 70
    11
 71
     3
 72
    53
 73
    49
 74
     0
 42
0.0000000001
 43
0.0000000001
 12
1.0
 22
0.0
 32
0.0
 13
1.0
 23
0.0
 33
0.0
 40
0.0
 40
0.0
 40
0.0
 40
0.0
 40
1.0
 40
1.0
 40
1.0
 40
2.0
 40
2.0
 40
2.0
 40
3.0
 40
3.0
 40
3.0
 40
4.0
 40
4.0
 40
4.0
 40
5.0
 40
5.0
 40
5.0
 40
6.0
 40
6.0
 40
6.0
 40
7.0
 40
7.0
 40
7.0
 40
8.0
 40
8.0
 40
8.0
 40
9.0
 40
9.0
 40
9.0
 40
10.0
 40
10.0
 40
10.0
 40
11.0
 40
11.0
 40
11.0
 40
12.0
 40
12.0
 40
12.0
 40
13.0
 40
13.0
 40
13.0
 40
14.0
 40
14.0
 40
14.0
 40
15.0
 40
15.0
 40
15.0
 40
16.0
 40
16.0
 40
16.0
 40
16.0
 10
89.83775496886001
 20
-134.384562140883
 30
0.0
 10
89.83775496886001
 20
-134.4627658083982
 30
0.0
 10
89.82087400098229
 20
-134.5643961252131
 30
0.0
 10
89.75748424405369
 20
-134.6660264420279
 30
0.0
 10
89.64758569807422
 20
-134.839314744936
 30
0.0
 10
89.5163275600862
 20
-134.8606743369446
 30
0.0
 10
89.40849607139788
 20
-134.8796223621134
 30
0.0
 10
89.40849607139788
 20
-134.8796223621134
 30
0.0
 10
89.40849607139788
 20
-134.6574137033148
 30
0.0
 10
89.40849607139788
 20
-134.6574137033148
 30
0.0
 10
89.60727808089679
 20
-134.6026366850994
 30
0.0
 10
89.63690590206994
 20
-134.4755126616936
 30
0.0
 10
89.63690590206994
 20
-134.3824950835919
 30
0.0
 10
89.63690590206994
 20
-134.2429687164393
 30
0.0
 10
89.53734264254622
 20
-134.0906954959912
 30
0.0
 10
89.30479869729186
 20
-134.0906954959912
 30
0.0
 10
89.0488281027378
 20
-134.0906954959912
 30
0.0
 10
88.97889266438723
 20
-134.2705294803213
 30
0.0
 10
88.97889266438723
 20
-134.391107822305
 30
0.0
 10
88.97889266438723
 20
-134.4228027007693
 30
0.0
 10
88.97889266438723
 20
-134.5643961252131
 30
0.0
 10
89.10808374508409
 20
-134.6532795887325
 30
0.0
 10
89.10808374508409
 20
-134.6532795887325
 30
0.0
 10
89.08913571991522
 20
-134.8289794584803
 30
0.0
 10
89.08913571991522
 20
-134.8289794584803
 30
0.0
 10
89.08913571991522
 20
-134.8289794584803
 30
0.0
 10
88.24267575918934
 20
-134.7084011164965
 30
0.0
 10
88.24267575918934
 20
-134.7084011164965
 30
0.0
 10
88.24267575918934
 20
-134.7084011164965
 30
0.0
 10
88.24267575918934
 20
-133.92980953683
 30
0.0
 10
88.24267575918934
 20
-133.92980953683
 30
0.0
 10
88.24267575918934
 20
-133.92980953683
 30
0.0
 10
88.43732365410595
 20
-133.92980953683
 30
0.0
 10
88.43732365410595
 20
-133.92980953683
 30
0.0
 10
88.43732365410595
 20
-133.92980953683
 30
0.0
 10
88.43732365410595
 20
-134.5454481000442
 30
0.0
 10
88.43732365410595
 20
-134.5454481000442
 30
0.0
 10
88.43732365410595
 20
-134.5454481000442
 30
0.0
 10
88.86038137969463
 20
-134.610904914264
 30
0.0
 10
88.86038137969463
 20
-134.610904914264
 30
0.0
 10
88.82661944393918
 20
-134.5495822146265
 30
0.0
 10
88.78631182676176
 20
-134.467244432529
 30
0.0
 10
88.78631182676176
 20
-134.3487331478364
 30
0.0
 10
88.78631182676176
 20
-134.0948296105735
 30
0.0
 10
88.97269149251377
 20
-133.8578070411883
 30
0.0
 10
89.28585067212299
 20
-133.8578070411883
 30
0.0
 10
89.60314396631449
 20
-133.8578070411883
 30
0.0
 10
89.83775496886001
 20
-134.0820827572781
 30
0.0
 10
89.83775496886001
 20
-134.384562140883
 30
0.0
  0
HATCH
  5
BA
330
B5
100
AcDbEntity
  8
_U+30EC_U+30A4_U+30E4_U+30FC 1
 62
   179
420
  2234388
100
AcDbHatch
 10
0.0
 20
0.0
 30
0.0
210
0.0
220
0.0
230
1.0
  2
SOLID
 70
     1
 71
     0
 91
        1
 92
        1
 93
        1
 72
     4
 94
        3
 73
     0
 74
     1
 95
       53
 96
       49
 40
0.0
 40
0.0
 40
0.0
 40
0.0
 40
1.0
 40
1.0
 40
1.0
 40
2.0
 40
2.0
 40
2.0
 40
3.0
 40
3.0
 40
3.0
 40
4.0
 40
4.0
 40
4.0
 40
5.0
 40
5.0
 40
5.0
 40
6.0
 40
6.0
 40
6.0
 40
7.0
 40
7.0
 40
7.0
 40
8.0
 40
8.0
 40
8.0
 40
9.0
 40
9.0
 40
9.0
 40
10.0
 40
10.0
 40
10.0
 40
11.0
 40
11.0
 40
11.0
 40
12.0
 40
12.0
 40
12.0
 40
13.0
 40
13.0
 40
13.0
 40
14.0
 40
14.0
 40
14.0
 40
15.0
 40
15.0
 40
15.0
 40
16.0
 40
16.0
 40
16.0
 40
16.0
 10
89.83775496886001
 20
-134.384562140883
 10
89.83775496886001
 20
-134.4627658083982
 10
89.82087400098229
 20
-134.5643961252131
 10
89.75748424405369
 20
-134.6660264420279
 10
89.64758569807422
 20
-134.839314744936
 10
89.5163275600862
 20
-134.8606743369446
 10
89.40849607139788
 20
-134.8796223621134
 10
89.40849607139788
 20
-134.8796223621134
 10
89.40849607139788
 20
-134.6574137033148
 10
89.40849607139788
 20
-134.6574137033148
 10
89.60727808089679
 20
-134.6026366850994
 10
89.63690590206994
 20
-134.4755126616936
 10
89.63690590206994
 20
-134.3824950835919
 10
89.63690590206994
 20
-134.2429687164393
 10
89.53734264254622
 20
-134.0906954959912
 10
89.30479869729186
 20
-134.0906954959912
 10
89.0488281027378
 20
-134.0906954959912
 10
88.97889266438723
 20
-134.2705294803213
 10
88.97889266438723
 20
-134.391107822305
 10
88.97889266438723
 20
-134.4228027007693
 10
88.97889266438723
 20
-134.5643961252131
 10
89.10808374508409
 20
-134.6532795887325
 10
89.10808374508409
 20
-134.6532795887325
 10
89.08913571991522
 20
-134.8289794584803
 10
89.08913571991522
 20
-134.8289794584803
 10
89.08913571991522
 20
-134.8289794584803
 10
88.24267575918934
 20
-134.7084011164965
 10
88.24267575918934
 20
-134.7084011164965
 10
88.24267575918934
 20
-134.7084011164965
 10
88.24267575918934
 20
-133.92980953683
 10
88.24267575918934
 20
-133.92980953683
 10
88.24267575918934
 20
-133.92980953683
 10
88.43732365410595
 20
-133.92980953683
 10
88.43732365410595
 20
-133.92980953683
 10
88.43732365410595
 20
-133.92980953683
 10
88.43732365410595
 20
-134.5454481000442
 10
88.43732365410595
 20
-134.5454481000442
 10
88.43732365410595
 20
-134.5454481000442
 10
88.86038137969463
 20
-134.610904914264
 10
88.86038137969463
 20
-134.610904914264
 10
88.82661944393918
 20
-134.5495822146265
 10
88.78631182676176
 20
-134.467244432529
 10
88.78631182676176
 20
-134.3487331478364
 10
88.78631182676176
 20
-134.0948296105735
 10
88.97269149251377
 20
-133.8578070411883
 10
89.28585067212299
 20
-133.8578070411883
 10
89.60314396631449
 20
-133.8578070411883
 10
89.83775496886001
 20
-134.0820827572781
 10
89.83775496886001
 20
-134.384562140883
 97
        0
 97
        0
 75
     2
 76
     1
 98
        0
  0
ENDBLK
  5
B8
330
B5
100
AcDbEntity
  8
0
100
AcDbBlockEnd
  0
BLOCK
  5
C5
330
C3
100
AcDbEntity
  8
0
100
AcDbBlockBegin
  2
block 4
 70
     0
 10
0.0
 20
0.0
 30
0.0
  3
block 4
  1

  0
SPLINE
  5
C7
330
C3
100
AcDbEntity
  8
_U+30EC_U+30A4_U+30E4_U+30FC 1
370
     0
100
AcDbSpline
210
0.0
220
0.0
230
1.0
 70
    11
 71
     3
 72
    53
 73
    49
 74
     0
 42
0.0000000001
 43
0.0000000001
 12
1.0
 22
0.0
 32
0.0
 13
1.0
 23
0.0
 33
0.0
 40
0.0
 40
0.0
 40
0.0
 40
0.0
 40
1.0
 40
1.0
 40
1.0
 40
2.0
 40
2.0
 40
2.0
 40
3.0
 40
3.0
 40
3.0
 40
4.0
 40
4.0
 40
4.0
 40
5.0
 40
5.0
 40
5.0
 40
6.0
 40
6.0
 40
6.0
 40
7.0
 40
7.0
 40
7.0
 40
8.0
 40
8.0
 40
8.0
 40
9.0
 40
9.0
 40
9.0
 40
10.0
 40
10.0
 40
10.0
 40
11.0
 40
11.0
 40
11.0
 40
12.0
 40
12.0
 40
12.0
 40
13.0
 40
13.0
 40
13.0
 40
14.0
 40
14.0
 40
14.0
 40
15.0
 40
15.0
 40
15.0
 40
16.0
 40
16.0
 40
16.0
 40
16.0
 10
89.83775496886001
 20
-129.3850395726885
 30
0.0
 10
89.83775496886001
 20
-129.4632432402036
 30
0.0
 10
89.82087400098229
 20
-129.5648735570185
 30
0.0
 10
89.75748424405369
 20
-129.6665038738334
 30
0.0
 10
89.64758569807422
 20
-129.8397921767414
 30
0.0
 10
89.5163275600862
 20
-129.86115176875
 30
0.0
 10
89.40849607139788
 20
-129.8800997939189
 30
0.0
 10
89.40849607139788
 20
-129.8800997939189
 30
0.0
 10
89.40849607139788
 20
-129.6578911351203
 30
0.0
 10
89.40849607139788
 20
-129.6578911351203
 30
0.0
 10
89.60727808089679
 20
-129.6031141169048
 30
0.0
 10
89.63690590206994
 20
-129.4759900934991
 30
0.0
 10
89.63690590206994
 20
-129.3829725153973
 30
0.0
 10
89.63690590206994
 20
-129.2434461482447
 30
0.0
 10
89.53734264254622
 20
-129.0911729277967
 30
0.0
 10
89.30479869729186
 20
-129.0911729277967
 30
0.0
 10
89.0488281027378
 20
-129.0911729277967
 30
0.0
 10
88.97889266438723
 20
-129.2710069121267
 30
0.0
 10
88.97889266438723
 20
-129.3915852541105
 30
0.0
 10
88.97889266438723
 20
-129.4232801325747
 30
0.0
 10
88.97889266438723
 20
-129.5648735570185
 30
0.0
 10
89.10808374508409
 20
-129.653757020538
 30
0.0
 10
89.10808374508409
 20
-129.653757020538
 30
0.0
 10
89.08913571991522
 20
-129.8294568902857
 30
0.0
 10
89.08913571991522
 20
-129.8294568902857
 30
0.0
 10
89.08913571991522
 20
-129.8294568902857
 30
0.0
 10
88.24267575918934
 20
-129.708878548302
 30
0.0
 10
88.24267575918934
 20
-129.708878548302
 30
0.0
 10
88.24267575918934
 20
-129.708878548302
 30
0.0
 10
88.24267575918934
 20
-128.9302869686355
 30
0.0
 10
88.24267575918934
 20
-128.9302869686355
 30
0.0
 10
88.24267575918934
 20
-128.9302869686355
 30
0.0
 10
88.43732365410595
 20
-128.9302869686355
 30
0.0
 10
88.43732365410595
 20
-128.9302869686355
 30
0.0
 10
88.43732365410595
 20
-128.9302869686355
 30
0.0
 10
88.43732365410595
 20
-129.5459255318496
 30
0.0
 10
88.43732365410595
 20
-129.5459255318496
 30
0.0
 10
88.43732365410595
 20
-129.5459255318496
 30
0.0
 10
88.86038137969463
 20
-129.6113823460694
 30
0.0
 10
88.86038137969463
 20
-129.6113823460694
 30
0.0
 10
88.82661944393918
 20
-129.5500596464319
 30
0.0
 10
88.78631182676176
 20
-129.4677218643345
 30
0.0
 10
88.78631182676176
 20
-129.3492105796419
 30
0.0
 10
88.78631182676176
 20
-129.0953070423789
 30
0.0
 10
88.97269149251377
 20
-128.8582844729938
 30
0.0
 10
89.28585067212299
 20
-128.8582844729938
 30
0.0
 10
89.60314396631449
 20
-128.8582844729938
 30
0.0
 10
89.83775496886001
 20
-129.0825601890835
 30
0.0
 10
89.83775496886001
 20
-129.3850395726885
 30
0.0
  0
HATCH
  5
C8
330
C3
100
AcDbEntity
  8
_U+30EC_U+30A4_U+30E4_U+30FC 1
 62
   179
420
  2234388
100
AcDbHatch
 10
0.0
 20
0.0
 30
0.0
210
0.0
220
0.0
230
1.0
  2
SOLID
 70
     1
 71
     0
 91
        1
 92
        1
 93
        1
 72
     4
 94
        3
 73
     0
 74
     1
 95
       53
 96
       49
 40
0.0
 40
0.0
 40
0.0
 40
0.0
 40
1.0
 40
1.0
 40
1.0
 40
2.0
 40
2.0
 40
2.0
 40
3.0
 40
3.0
 40
3.0
 40
4.0
 40
4.0
 40
4.0
 40
5.0
 40
5.0
 40
5.0
 40
6.0
 40
6.0
 40
6.0
 40
7.0
 40
7.0
 40
7.0
 40
8.0
 40
8.0
 40
8.0
 40
9.0
 40
9.0
 40
9.0
 40
10.0
 40
10.0
 40
10.0
 40
11.0
 40
11.0
 40
11.0
 40
12.0
 40
12.0
 40
12.0
 40
13.0
 40
13.0
 40
13.0
 40
14.0
 40
14.0
 40
14.0
 40
15.0
 40
15.0
 40
15.0
 40
16.0
 40
16.0
 40
16.0
 40
16.0
 10
89.83775496886001
 20
-129.3850395726885
 10
89.83775496886001
 20
-129.4632432402036
 10
89.82087400098229
 20
-129.5648735570185
 10
89.75748424405369
 20
-129.6665038738334
 10
89.64758569807422
 20
-129.8397921767414
 10
89.5163275600862
 20
-129.86115176875
 10
89.40849607139788
 20
-129.8800997939189
 10
89.40849607139788
 20
-129.8800997939189
 10
89.40849607139788
 20
-129.6578911351203
 10
89.40849607139788
 20
-129.6578911351203
 10
89.60727808089679
 20
-129.6031141169048
 10
89.63690590206994
 20
-129.4759900934991
 10
89.63690590206994
 20
-129.3829725153973
 10
89.63690590206994
 20
-129.2434461482447
 10
89.53734264254622
 20
-129.0911729277967
 10
89.30479869729186
 20
-129.0911729277967
 10
89.0488281027378
 20
-129.0911729277967
 10
88.97889266438723
 20
-129.2710069121267
 10
88.97889266438723
 20
-129.3915852541105
 10
88.97889266438723
 20
-129.4232801325747
 10
88.97889266438723
 20
-129.5648735570185
 10
89.10808374508409
 20
-129.653757020538
 10
89.10808374508409
 20
-129.653757020538
 10
89.08913571991522
 20
-129.8294568902857
 10
89.08913571991522
 20
-129.8294568902857
 10
89.08913571991522
 20
-129.8294568902857
 10
88.24267575918934
 20
-129.708878548302
 10
88.24267575918934
 20
-129.708878548302
 10
88.24267575918934
 20
-129.708878548302
 10
88.24267575918934
 20
-128.9302869686355
 10
88.24267575918934
 20
-128.9302869686355
 10
88.24267575918934
 20
-128.9302869686355
 10
88.43732365410595
 20
-128.9302869686355
 10
88.43732365410595
 20
-128.9302869686355
 10
88.43732365410595
 20
-128.9302869686355
 10
88.43732365410595
 20
-129.5459255318496
 10
88.43732365410595
 20
-129.5459255318496
 10
88.43732365410595
 20
-129.5459255318496
 10
88.86038137969463
 20
-129.6113823460694
 10
88.86038137969463
 20
-129.6113823460694
 10
88.82661944393918
 20
-129.5500596464319
 10
88.78631182676176
 20
-129.4677218643345
 10
88.78631182676176
 20
-129.3492105796419
 10
88.78631182676176
 20
-129.0953070423789
 10
88.97269149251377
 20
-128.8582844729938
 10
89.28585067212299
 20
-128.8582844729938
 10
89.60314396631449
 20
-128.8582844729938
 10
89.83775496886001
 20
-129.0825601890835
 10
89.83775496886001
 20
-129.3850395726885
 97
        0
 97
        0
 75
     2
 76
     1
 98
        0
  0
ENDBLK
  5
C6
330
C3
100
AcDbEntity
  8
0
100
AcDbBlockEnd
  0
BLOCK
  5
D7
330
D5
100
AcDbEntity
  8
0
100
AcDbBlockBegin
  2
block 5
 70
     0
 10
0.0
 20
0.0
 30
0.0
  3
block 5
  1

  0
SPLINE
  5
D9
330
D5
100
AcDbEntity
  8
_U+30EC_U+30A4_U+30E4_U+30FC 1
370
     0
100
AcDbSpline
210
0.0
220
0.0
230
1.0
 70
    11
 71
     3
 72
    44
 73
    40
 74
     0
 42
0.0000000001
 43
0.0000000001
 12
1.0
 22
0.0
 32
0.0
 13
1.0
 23
0.0
 33
0.0
 40
0.0
 40
0.0
 40
0.0
 40
0.0
 40
1.0
 40
1.0
 40
1.0
 40
2.0
 40
2.0
 40
2.0
 40
3.0
 40
3.0
 40
3.0
 40
4.0
 40
4.0
 40
4.0
 40
5.0
 40
5.0
 40
5.0
 40
6.0
 40
6.0
 40
6.0
 40
7.0
 40
7.0
 40
7.0
 40
8.0
 40
8.0
 40
8.0
 40
9.0
 40
9.0
 40
9.0
 40
10.0
 40
10.0
 40
10.0
 40
11.0
 40
11.0
 40
11.0
 40
12.0
 40
12.0
 40
12.0
 40
13.0
 40
13.0
 40
13.0
 40
13.0
 10
94.7880126716155
 20
-118.4375596492101
 30
0.0
 10
94.57028263694771
 20
-118.5963785510801
 30
0.0
 10
94.47726505884597
 20
-118.6704481040129
 30
0.0
 10
94.42834470295541
 20
-118.8141085857479
 30
0.0
 10
94.42834470295541
 20
-118.8141085857479
 30
0.0
 10
95.20693628262188
 20
-118.8141085857479
 30
0.0
 10
95.20693628262188
 20
-118.8141085857479
 30
0.0
 10
95.20693628262188
 20
-118.8141085857479
 30
0.0
 10
95.20693628262188
 20
-119.0194362766688
 30
0.0
 10
95.20693628262188
 20
-119.0194362766688
 30
0.0
 10
95.20693628262188
 20
-119.0194362766688
 30
0.0
 10
94.17891978982333
 20
-119.0194362766688
 30
0.0
 10
94.17891978982333
 20
-119.0194362766688
 30
0.0
 10
94.21061466828763
 20
-118.6618353652998
 30
0.0
 10
94.27607148250738
 20
-118.5836316977847
 30
0.0
 10
94.6612331577583
 20
-118.285286428762
 30
0.0
 10
94.91720375231237
 20
-118.0865044192631
 30
0.0
 10
94.98266056653212
 20
-118.0186360382037
 30
0.0
 10
94.98266056653212
 20
-117.8811767283422
 30
0.0
 10
94.98266056653212
 20
-117.7626654436496
 30
0.0
 10
94.91065807089039
 20
-117.6317518152101
 30
0.0
 10
94.71394311868264
 20
-117.6317518152101
 30
0.0
 10
94.45383840954626
 20
-117.6317518152101
 30
0.0
 10
94.44557018038167
 20
-117.8622287031733
 30
0.0
 10
94.44109155625084
 20
-117.9786729305748
 30
0.0
 10
94.44109155625084
 20
-117.9786729305748
 30
0.0
 10
94.21681584016108
 20
-117.9786729305748
 30
0.0
 10
94.21681584016108
 20
-117.9786729305748
 30
0.0
 10
94.2254285788742
 20
-117.8515489071691
 30
0.0
 10
94.23610837487848
 20
-117.7395833038984
 30
0.0
 10
94.3163790996848
 20
-117.6210720192059
 30
0.0
 10
94.42627764566427
 20
-117.4601860600447
 30
0.0
 10
94.61265731141629
 20
-117.4264241242892
 30
0.0
 10
94.7287570292692
 20
-117.4264241242892
 30
0.0
 10
95.00608721583181
 20
-117.4264241242892
 30
0.0
 10
95.21348196404385
 20
-117.6103922232016
 30
0.0
 10
95.21348196404385
 20
-117.8832437856334
 30
0.0
 10
95.21348196404385
 20
-118.1119981258539
 30
0.0
 10
95.0970377366424
 20
-118.2112168758292
 30
0.0
 10
94.7880126716155
 20
-118.4375596492101
 30
0.0
  0
HATCH
  5
DA
330
D5
100
AcDbEntity
  8
_U+30EC_U+30A4_U+30E4_U+30FC 1
 62
   179
420
  2234388
100
AcDbHatch
 10
0.0
 20
0.0
 30
0.0
210
0.0
220
0.0
230
1.0
  2
SOLID
 70
     1
 71
     0
 91
        1
 92
        1
 93
        1
 72
     4
 94
        3
 73
     0
 74
     1
 95
       44
 96
       40
 40
0.0
 40
0.0
 40
0.0
 40
0.0
 40
1.0
 40
1.0
 40
1.0
 40
2.0
 40
2.0
 40
2.0
 40
3.0
 40
3.0
 40
3.0
 40
4.0
 40
4.0
 40
4.0
 40
5.0
 40
5.0
 40
5.0
 40
6.0
 40
6.0
 40
6.0
 40
7.0
 40
7.0
 40
7.0
 40
8.0
 40
8.0
 40
8.0
 40
9.0
 40
9.0
 40
9.0
 40
10.0
 40
10.0
 40
10.0
 40
11.0
 40
11.0
 40
11.0
 40
12.0
 40
12.0
 40
12.0
 40
13.0
 40
13.0
 40
13.0
 40
13.0
 10
94.7880126716155
 20
-118.4375596492101
 10
94.57028263694771
 20
-118.5963785510801
 10
94.47726505884597
 20
-118.6704481040129
 10
94.42834470295541
 20
-118.8141085857479
 10
94.42834470295541
 20
-118.8141085857479
 10
95.20693628262188
 20
-118.8141085857479
 10
95.20693628262188
 20
-118.8141085857479
 10
95.20693628262188
 20
-118.8141085857479
 10
95.20693628262188
 20
-119.0194362766688
 10
95.20693628262188
 20
-119.0194362766688
 10
95.20693628262188
 20
-119.0194362766688
 10
94.17891978982333
 20
-119.0194362766688
 10
94.17891978982333
 20
-119.0194362766688
 10
94.21061466828763
 20
-118.6618353652998
 10
94.27607148250738
 20
-118.5836316977847
 10
94.6612331577583
 20
-118.285286428762
 10
94.91720375231237
 20
-118.0865044192631
 10
94.98266056653212
 20
-118.0186360382037
 10
94.98266056653212
 20
-117.8811767283422
 10
94.98266056653212
 20
-117.7626654436496
 10
94.91065807089039
 20
-117.6317518152101
 10
94.71394311868264
 20
-117.6317518152101
 10
94.45383840954626
 20
-117.6317518152101
 10
94.44557018038167
 20
-117.8622287031733
 10
94.44109155625084
 20
-117.9786729305748
 10
94.44109155625084
 20
-117.9786729305748
 10
94.21681584016108
 20
-117.9786729305748
 10
94.21681584016108
 20
-117.9786729305748
 10
94.2254285788742
 20
-117.8515489071691
 10
94.23610837487848
 20
-117.7395833038984
 10
94.3163790996848
 20
-117.6210720192059
 10
94.42627764566427
 20
-117.4601860600447
 10
94.61265731141629
 20
-117.4264241242892
 10
94.7287570292692
 20
-117.4264241242892
 10
95.00608721583181
 20
-117.4264241242892
 10
95.21348196404385
 20
-117.6103922232016
 10
95.21348196404385
 20
-117.8832437856334
 10
95.21348196404385
 20
-118.1119981258539
 10
95.0970377366424
 20
-118.2112168758292
 10
94.7880126716155
 20
-118.4375596492101
 97
        0
 97
        0
 75
     2
 76
     1
 98
        0
  0
SPLINE
  5
DB
330
D5
100
AcDbEntity
  8
_U+30EC_U+30A4_U+30E4_U+30FC 1
370
     0
100
AcDbSpline
210
0.0
220
0.0
230
1.0
 70
    11
 71
     3
 72
    53
 73
    49
 74
     0
 42
0.0000000001
 43
0.0000000001
 12
1.0
 22
0.0
 32
0.0
 13
1.0
 23
0.0
 33
0.0
 40
0.0
 40
0.0
 40
0.0
 40
0.0
 40
1.0
 40
1.0
 40
1.0
 40
2.0
 40
2.0
 40
2.0
 40
3.0
 40
3.0
 40
3.0
 40
4.0
 40
4.0
 40
4.0
 40
5.0
 40
5.0
 40
5.0
 40
6.0
 40
6.0
 40
6.0
 40
7.0
 40
7.0
 40
7.0
 40
8.0
 40
8.0
 40
8.0
 40
9.0
 40
9.0
 40
9.0
 40
10.0
 40
10.0
 40
10.0
 40
11.0
 40
11.0
 40
11.0
 40
12.0
 40
12.0
 40
12.0
 40
13.0
 40
13.0
 40
13.0
 40
14.0
 40
14.0
 40
14.0
 40
15.0
 40
15.0
 40
15.0
 40
16.0
 40
16.0
 40
16.0
 40
16.0
 10
95.85289168610623
 20
-119.0700791803019
 30
0.0
 10
95.77468801859105
 20
-119.0700791803019
 30
0.0
 10
95.67305770177619
 20
-119.0531982124242
 30
0.0
 10
95.57142738496131
 20
-118.9898084554956
 30
0.0
 10
95.39813908205325
 20
-118.8799099095161
 30
0.0
 10
95.3767794900447
 20
-118.7486517715281
 30
0.0
 10
95.35783146487583
 20
-118.6408202828398
 30
0.0
 10
95.35783146487583
 20
-118.6408202828398
 30
0.0
 10
95.58004012367444
 20
-118.6408202828398
 30
0.0
 10
95.58004012367444
 20
-118.6408202828398
 30
0.0
 10
95.63481714188991
 20
-118.8396022923387
 30
0.0
 10
95.76194116529562
 20
-118.8692301135119
 30
0.0
 10
95.85495874339738
 20
-118.8692301135119
 30
0.0
 10
95.99448511054999
 20
-118.8692301135119
 30
0.0
 10
96.14675833099804
 20
-118.7696668539881
 30
0.0
 10
96.14675833099804
 20
-118.5371229087338
 30
0.0
 10
96.14675833099804
 20
-118.2811523141797
 30
0.0
 10
95.966924346668
 20
-118.2112168758292
 30
0.0
 10
95.84634600468425
 20
-118.2112168758292
 30
0.0
 10
95.81465112621996
 20
-118.2112168758292
 30
0.0
 10
95.67305770177619
 20
-118.2112168758292
 30
0.0
 10
95.58417423825674
 20
-118.340407956526
 30
0.0
 10
95.58417423825674
 20
-118.340407956526
 30
0.0
 10
95.40847436850899
 20
-118.3214599313571
 30
0.0
 10
95.40847436850899
 20
-118.3214599313571
 30
0.0
 10
95.40847436850899
 20
-118.3214599313571
 30
0.0
 10
95.52905271049273
 20
-117.4749999706313
 30
0.0
 10
95.52905271049273
 20
-117.4749999706313
 30
0.0
 10
95.52905271049273
 20
-117.4749999706313
 30
0.0
 10
96.3076442901592
 20
-117.4749999706313
 30
0.0
 10
96.3076442901592
 20
-117.4749999706313
 30
0.0
 10
96.3076442901592
 20
-117.4749999706313
 30
0.0
 10
96.3076442901592
 20
-117.6696478655479
 30
0.0
 10
96.3076442901592
 20
-117.6696478655479
 30
0.0
 10
96.3076442901592
 20
-117.6696478655479
 30
0.0
 10
95.69200572694506
 20
-117.6696478655479
 30
0.0
 10
95.69200572694506
 20
-117.6696478655479
 30
0.0
 10
95.69200572694506
 20
-117.6696478655479
 30
0.0
 10
95.62654891272531
 20
-118.0927055911365
 30
0.0
 10
95.62654891272531
 20
-118.0927055911365
 30
0.0
 10
95.68787161236276
 20
-118.0589436553811
 30
0.0
 10
95.77020939446022
 20
-118.0186360382037
 30
0.0
 10
95.88872067915283
 20
-118.0186360382037
 30
0.0
 10
96.14262421641574
 20
-118.0186360382037
 30
0.0
 10
96.37964678580093
 20
-118.2050157039557
 30
0.0
 10
96.37964678580093
 20
-118.5181748835649
 30
0.0
 10
96.37964678580093
 20
-118.8354681777564
 30
0.0
 10
96.15537106971117
 20
-119.0700791803019
 30
0.0
 10
95.85289168610623
 20
-119.0700791803019
 30
0.0
  0
HATCH
  5
DC
330
D5
100
AcDbEntity
  8
_U+30EC_U+30A4_U+30E4_U+30FC 1
 62
   179
420
  2234388
100
AcDbHatch
 10
0.0
 20
0.0
 30
0.0
210
0.0
220
0.0
230
1.0
  2
SOLID
 70
     1
 71
     0
 91
        1
 92
        1
 93
        1
 72
     4
 94
        3
 73
     0
 74
     1
 95
       53
 96
       49
 40
0.0
 40
0.0
 40
0.0
 40
0.0
 40
1.0
 40
1.0
 40
1.0
 40
2.0
 40
2.0
 40
2.0
 40
3.0
 40
3.0
 40
3.0
 40
4.0
 40
4.0
 40
4.0
 40
5.0
 40
5.0
 40
5.0
 40
6.0
 40
6.0
 40
6.0
 40
7.0
 40
7.0
 40
7.0
 40
8.0
 40
8.0
 40
8.0
 40
9.0
 40
9.0
 40
9.0
 40
10.0
 40
10.0
 40
10.0
 40
11.0
 40
11.0
 40
11.0
 40
12.0
 40
12.0
 40
12.0
 40
13.0
 40
13.0
 40
13.0
 40
14.0
 40
14.0
 40
14.0
 40
15.0
 40
15.0
 40
15.0
 40
16.0
 40
16.0
 40
16.0
 40
16.0
 10
95.85289168610623
 20
-119.0700791803019
 10
95.77468801859105
 20
-119.0700791803019
 10
95.67305770177619
 20
-119.0531982124242
 10
95.57142738496131
 20
-118.9898084554956
 10
95.39813908205325
 20
-118.8799099095161
 10
95.3767794900447
 20
-118.7486517715281
 10
95.35783146487583
 20
-118.6408202828398
 10
95.35783146487583
 20
-118.6408202828398
 10
95.58004012367444
 20
-118.6408202828398
 10
95.58004012367444
 20
-118.6408202828398
 10
95.63481714188991
 20
-118.8396022923387
 10
95.76194116529562
 20
-118.8692301135119
 10
95.85495874339738
 20
-118.8692301135119
 10
95.99448511054999
 20
-118.8692301135119
 10
96.14675833099804
 20
-118.7696668539881
 10
96.14675833099804
 20
-118.5371229087338
 10
96.14675833099804
 20
-118.2811523141797
 10
95.966924346668
 20
-118.2112168758292
 10
95.84634600468425
 20
-118.2112168758292
 10
95.81465112621996
 20
-118.2112168758292
 10
95.67305770177619
 20
-118.2112168758292
 10
95.58417423825674
 20
-118.340407956526
 10
95.58417423825674
 20
-118.340407956526
 10
95.40847436850899
 20
-118.3214599313571
 10
95.40847436850899
 20
-118.3214599313571
 10
95.40847436850899
 20
-118.3214599313571
 10
95.52905271049273
 20
-117.4749999706313
 10
95.52905271049273
 20
-117.4749999706313
 10
95.52905271049273
 20
-117.4749999706313
 10
96.3076442901592
 20
-117.4749999706313
 10
96.3076442901592
 20
-117.4749999706313
 10
96.3076442901592
 20
-117.4749999706313
 10
96.3076442901592
 20
-117.6696478655479
 10
96.3076442901592
 20
-117.6696478655479
 10
96.3076442901592
 20
-117.6696478655479
 10
95.69200572694506
 20
-117.6696478655479
 10
95.69200572694506
 20
-117.6696478655479
 10
95.69200572694506
 20
-117.6696478655479
 10
95.62654891272531
 20
-118.0927055911365
 10
95.62654891272531
 20
-118.0927055911365
 10
95.68787161236276
 20
-118.0589436553811
 10
95.77020939446022
 20
-118.0186360382037
 10
95.88872067915283
 20
-118.0186360382037
 10
96.14262421641574
 20
-118.0186360382037
 10
96.37964678580093
 20
-118.2050157039557
 10
96.37964678580093
 20
-118.5181748835649
 10
96.37964678580093
 20
-118.8354681777564
 10
96.15537106971117
 20
-119.0700791803019
 10
95.85289168610623
 20
-119.0700791803019
 97
        0
 97
        0
 75
     2
 76
     1
 98
        0
  0
ENDBLK
  5
D8
330
D5
100
AcDbEntity
  8
0
100
AcDbBlockEnd
  0
BLOCK
  5
EF
330
ED
100
AcDbEntity
  8
0
100
AcDbBlockBegin
  2
block 6
 70
     0
 10
0.0
 20
0.0
 30
0.0
  3
block 6
  1

  0
SPLINE
  5
F1
330
ED
100
AcDbEntity
  8
_U+30EC_U+30A4_U+30E4_U+30FC 1
370
     0
100
AcDbSpline
210
0.0
220
0.0
230
1.0
 70
    11
 71
     3
 72
    26
 73
    22
 74
     0
 42
0.0000000001
 43
0.0000000001
 12
1.0
 22
0.0
 32
0.0
 13
1.0
 23
0.0
 33
0.0
 40
0.0
 40
0.0
 40
0.0
 40
0.0
 40
1.0
 40
1.0
 40
1.0
 40
2.0
 40
2.0
 40
2.0
 40
3.0
 40
3.0
 40
3.0
 40
4.0
 40
4.0
 40
4.0
 40
5.0
 40
5.0
 40
5.0
 40
6.0
 40
6.0
 40
6.0
 40
7.0
 40
7.0
 40
7.0
 40
7.0
 10
77.69689396929105
 20
-125.4097438922587
 30
0.0
 10
77.69689396929105
 20
-125.4097438922587
 30
0.0
 10
76.59274086626849
 20
-125.4097438922587
 30
0.0
 10
76.59274086626849
 20
-125.4097438922587
 30
0.0
 10
76.59274086626849
 20
-125.4097438922587
 30
0.0
 10
76.59274086626849
 20
-125.7397840397456
 30
0.0
 10
76.59274086626849
 20
-125.7397840397456
 30
0.0
 10
76.59274086626849
 20
-125.7397840397456
 30
0.0
 10
76.44460176040275
 20
-125.7397840397456
 30
0.0
 10
76.44460176040275
 20
-125.7397840397456
 30
0.0
 10
76.42978784981617
 20
-125.4076768349675
 30
0.0
 10
76.26683483336384
 20
-125.3611680459167
 30
0.0
 10
76.15245766325356
 20
-125.3315402247435
 30
0.0
 10
76.15245766325356
 20
-125.3315402247435
 30
0.0
 10
76.15245766325356
 20
-125.1854681761689
 30
0.0
 10
76.15245766325356
 20
-125.1854681761689
 30
0.0
 10
76.15245766325356
 20
-125.1854681761689
 30
0.0
 10
77.69689396929105
 20
-125.1854681761689
 30
0.0
 10
77.69689396929105
 20
-125.1854681761689
 30
0.0
 10
77.69689396929105
 20
-125.1854681761689
 30
0.0
 10
77.69689396929105
 20
-125.4097438922587
 30
0.0
 10
77.69689396929105
 20
-125.4097438922587
 30
0.0
  0
HATCH
  5
F2
330
ED
100
AcDbEntity
  8
_U+30EC_U+30A4_U+30E4_U+30FC 1
 62
   179
420
  2234388
100
AcDbHatch
 10
0.0
 20
0.0
 30
0.0
210
0.0
220
0.0
230
1.0
  2
SOLID
 70
     1
 71
     0
 91
        1
 92
        1
 93
        1
 72
     4
 94
        3
 73
     0
 74
     1
 95
       26
 96
       22
 40
0.0
 40
0.0
 40
0.0
 40
0.0
 40
1.0
 40
1.0
 40
1.0
 40
2.0
 40
2.0
 40
2.0
 40
3.0
 40
3.0
 40
3.0
 40
4.0
 40
4.0
 40
4.0
 40
5.0
 40
5.0
 40
5.0
 40
6.0
 40
6.0
 40
6.0
 40
7.0
 40
7.0
 40
7.0
 40
7.0
 10
77.69689396929105
 20
-125.4097438922587
 10
77.69689396929105
 20
-125.4097438922587
 10
76.59274086626849
 20
-125.4097438922587
 10
76.59274086626849
 20
-125.4097438922587
 10
76.59274086626849
 20
-125.4097438922587
 10
76.59274086626849
 20
-125.7397840397456
 10
76.59274086626849
 20
-125.7397840397456
 10
76.59274086626849
 20
-125.7397840397456
 10
76.44460176040275
 20
-125.7397840397456
 10
76.44460176040275
 20
-125.7397840397456
 10
76.42978784981617
 20
-125.4076768349675
 10
76.26683483336384
 20
-125.3611680459167
 10
76.15245766325356
 20
-125.3315402247435
 10
76.15245766325356
 20
-125.3315402247435
 10
76.15245766325356
 20
-125.1854681761689
 10
76.15245766325356
 20
-125.1854681761689
 10
76.15245766325356
 20
-125.1854681761689
 10
77.69689396929105
 20
-125.1854681761689
 10
77.69689396929105
 20
-125.1854681761689
 10
77.69689396929105
 20
-125.1854681761689
 10
77.69689396929105
 20
-125.4097438922587
 10
77.69689396929105
 20
-125.4097438922587
 97
        0
 97
        0
 75
     2
 76
     1
 98
        0
  0
POLYLINE
  5
F3
330
ED
100
AcDbEntity
  8
_U+30EC_U+30A4_U+30E4_U+30FC 1
370
     0
100
AcDb2dPolyline
 66
     1
 10
0.0
 20
0.0
 30
0.0
  0
VERTEX
  5
F4
330
F3
100
AcDbEntity
  8
_U+30EC_U+30A4_U+30E4_U+30FC 1
370
     0
100
AcDbVertex
100
AcDb2dVertex
 10
77.69689396929105
 20
-124.6242621216217
 30
0.0
  0
VERTEX
  5
F5
330
F3
100
AcDbEntity
  8
_U+30EC_U+30A4_U+30E4_U+30FC 1
370
     0
100
AcDbVertex
100
AcDb2dVertex
 10
77.4450574893193
 20
-124.6242621216217
 30
0.0
  0
VERTEX
  5
F6
330
F3
100
AcDbEntity
  8
_U+30EC_U+30A4_U+30E4_U+30FC 1
370
     0
100
AcDbVertex
100
AcDb2dVertex
 10
77.4450574893193
 20
-124.37242564165
 30
0.0
  0
VERTEX
  5
F7
330
F3
100
AcDbEntity
  8
_U+30EC_U+30A4_U+30E4_U+30FC 1
370
     0
100
AcDbVertex
100
AcDb2dVertex
 10
77.69689396929105
 20
-124.37242564165
 30
0.0
  0
VERTEX
  5
F8
330
F3
100
AcDbEntity
  8
_U+30EC_U+30A4_U+30E4_U+30FC 1
370
     0
100
AcDbVertex
100
AcDb2dVertex
 10
77.69689396929105
 20
-124.6242621216217
 30
0.0
  0
SEQEND
  5
F9
330
F3
100
AcDbEntity
  8
_U+30EC_U+30A4_U+30E4_U+30FC 1
370
     0
  0
HATCH
  5
FA
330
ED
100
AcDbEntity
  8
_U+30EC_U+30A4_U+30E4_U+30FC 1
 62
   179
420
  2234388
100
AcDbHatch
 10
0.0
 20
0.0
 30
0.0
210
0.0
220
0.0
230
1.0
  2
SOLID
 70
     1
 71
     0
 91
        1
 92
        1
 93
        4
 72
     1
 10
77.69689396929105
 20
-124.6242621216217
 11
77.4450574893193
 21
-124.6242621216217
 72
     1
 10
77.4450574893193
 20
-124.6242621216217
 11
77.4450574893193
 21
-124.37242564165
 72
     1
 10
77.4450574893193
 20
-124.37242564165
 11
77.69689396929105
 21
-124.37242564165
 72
     1
 10
77.69689396929105
 20
-124.37242564165
 11
77.69689396929105
 21
-124.6242621216217
 97
        0
 75
     2
 76
     1
 98
        0
  0
SPLINE
  5
FB
330
ED
100
AcDbEntity
  8
_U+30EC_U+30A4_U+30E4_U+30FC 1
370
     0
100
AcDbSpline
210
0.0
220
0.0
230
1.0
 70
    11
 71
     3
 72
    44
 73
    40
 74
     0
 42
0.0000000001
 43
0.0000000001
 12
1.0
 22
0.0
 32
0.0
 13
1.0
 23
0.0
 33
0.0
 40
0.0
 40
0.0
 40
0.0
 40
0.0
 40
1.0
 40
1.0
 40
1.0
 40
2.0
 40
2.0
 40
2.0
 40
3.0
 40
3.0
 40
3.0
 40
4.0
 40
4.0
 40
4.0
 40
5.0
 40
5.0
 40
5.0
 40
6.0
 40
6.0
 40
6.0
 40
7.0
 40
7.0
 40
7.0
 40
8.0
 40
8.0
 40
8.0
 40
9.0
 40
9.0
 40
9.0
 40
10.0
 40
10.0
 40
10.0
 40
11.0
 40
11.0
 40
11.0
 40
12.0
 40
12.0
 40
12.0
 40
13.0
 40
13.0
 40
13.0
 40
13.0
 10
77.11501734183236
 20
-123.5431911583503
 30
0.0
 10
77.27383624370238
 20
-123.7609211930181
 30
0.0
 10
77.34790579663525
 20
-123.8539387711199
 30
0.0
 10
77.49156627837017
 20
-123.9028591270104
 30
0.0
 10
77.49156627837017
 20
-123.9028591270104
 30
0.0
 10
77.49156627837017
 20
-123.1242675473439
 30
0.0
 10
77.49156627837017
 20
-123.1242675473439
 30
0.0
 10
77.49156627837017
 20
-123.1242675473439
 30
0.0
 10
77.69689396929105
 20
-123.1242675473439
 30
0.0
 10
77.69689396929105
 20
-123.1242675473439
 30
0.0
 10
77.69689396929105
 20
-123.1242675473439
 30
0.0
 10
77.69689396929105
 20
-124.1522840401425
 30
0.0
 10
77.69689396929105
 20
-124.1522840401425
 30
0.0
 10
77.33929305792212
 20
-124.1205891616782
 30
0.0
 10
77.26108939040695
 20
-124.0551323474584
 30
0.0
 10
76.96274412138432
 20
-123.6699706722075
 30
0.0
 10
76.7639621118854
 20
-123.4140000776535
 30
0.0
 10
76.69609373082598
 20
-123.3485432634337
 30
0.0
 10
76.55863442096451
 20
-123.3485432634337
 30
0.0
 10
76.44012313627192
 20
-123.3485432634337
 30
0.0
 10
76.30920950783242
 20
-123.4205457590754
 30
0.0
 10
76.30920950783242
 20
-123.6172607112832
 30
0.0
 10
76.30920950783242
 20
-123.8773654204196
 30
0.0
 10
76.53968639579564
 20
-123.8856336495842
 30
0.0
 10
76.65613062319709
 20
-123.890112273715
 30
0.0
 10
76.65613062319709
 20
-123.890112273715
 30
0.0
 10
76.65613062319709
 20
-124.1143879898047
 30
0.0
 10
76.65613062319709
 20
-124.1143879898047
 30
0.0
 10
76.52900659979136
 20
-124.1057752510916
 30
0.0
 10
76.41704099652074
 20
-124.0950954550873
 30
0.0
 10
76.29852971182815
 20
-124.014824730281
 30
0.0
 10
76.13764375266697
 20
-123.9049261843016
 30
0.0
 10
76.10388181691154
 20
-123.7185465185495
 30
0.0
 10
76.10388181691154
 20
-123.6024468006966
 30
0.0
 10
76.10388181691154
 20
-123.325116614134
 30
0.0
 10
76.28784991582387
 20
-123.117721865922
 30
0.0
 10
76.56070147825567
 20
-123.117721865922
 30
0.0
 10
76.78945581847626
 20
-123.117721865922
 30
0.0
 10
76.88867456845145
 20
-123.2341660933234
 30
0.0
 10
77.11501734183236
 20
-123.5431911583503
 30
0.0
  0
HATCH
  5
FC
330
ED
100
AcDbEntity
  8
_U+30EC_U+30A4_U+30E4_U+30FC 1
 62
   179
420
  2234388
100
AcDbHatch
 10
0.0
 20
0.0
 30
0.0
210
0.0
220
0.0
230
1.0
  2
SOLID
 70
     1
 71
     0
 91
        1
 92
        1
 93
        1
 72
     4
 94
        3
 73
     0
 74
     1
 95
       44
 96
       40
 40
0.0
 40
0.0
 40
0.0
 40
0.0
 40
1.0
 40
1.0
 40
1.0
 40
2.0
 40
2.0
 40
2.0
 40
3.0
 40
3.0
 40
3.0
 40
4.0
 40
4.0
 40
4.0
 40
5.0
 40
5.0
 40
5.0
 40
6.0
 40
6.0
 40
6.0
 40
7.0
 40
7.0
 40
7.0
 40
8.0
 40
8.0
 40
8.0
 40
9.0
 40
9.0
 40
9.0
 40
10.0
 40
10.0
 40
10.0
 40
11.0
 40
11.0
 40
11.0
 40
12.0
 40
12.0
 40
12.0
 40
13.0
 40
13.0
 40
13.0
 40
13.0
 10
77.11501734183236
 20
-123.5431911583503
 10
77.27383624370238
 20
-123.7609211930181
 10
77.34790579663525
 20
-123.8539387711199
 10
77.49156627837017
 20
-123.9028591270104
 10
77.49156627837017
 20
-123.9028591270104
 10
77.49156627837017
 20
-123.1242675473439
 10
77.49156627837017
 20
-123.1242675473439
 10
77.49156627837017
 20
-123.1242675473439
 10
77.69689396929105
 20
-123.1242675473439
 10
77.69689396929105
 20
-123.1242675473439
 10
77.69689396929105
 20
-123.1242675473439
 10
77.69689396929105
 20
-124.1522840401425
 10
77.69689396929105
 20
-124.1522840401425
 10
77.33929305792212
 20
-124.1205891616782
 10
77.26108939040695
 20
-124.0551323474584
 10
76.96274412138432
 20
-123.6699706722075
 10
76.7639621118854
 20
-123.4140000776535
 10
76.69609373082598
 20
-123.3485432634337
 10
76.55863442096451
 20
-123.3485432634337
 10
76.44012313627192
 20
-123.3485432634337
 10
76.30920950783242
 20
-123.4205457590754
 10
76.30920950783242
 20
-123.6172607112832
 10
76.30920950783242
 20
-123.8773654204196
 10
76.53968639579564
 20
-123.8856336495842
 10
76.65613062319709
 20
-123.890112273715
 10
76.65613062319709
 20
-123.890112273715
 10
76.65613062319709
 20
-124.1143879898047
 10
76.65613062319709
 20
-124.1143879898047
 10
76.52900659979136
 20
-124.1057752510916
 10
76.41704099652074
 20
-124.0950954550873
 10
76.29852971182815
 20
-124.014824730281
 10
76.13764375266697
 20
-123.9049261843016
 10
76.10388181691154
 20
-123.7185465185495
 10
76.10388181691154
 20
-123.6024468006966
 10
76.10388181691154
 20
-123.325116614134
 10
76.28784991582387
 20
-123.117721865922
 10
76.56070147825567
 20
-123.117721865922
 10
76.78945581847626
 20
-123.117721865922
 10
76.88867456845145
 20
-123.2341660933234
 10
77.11501734183236
 20
-123.5431911583503
 97
        0
 97
        0
 75
     2
 76
     1
 98
        0
  0
ENDBLK
  5
F0
330
ED
100
AcDbEntity
  8
0
100
AcDbBlockEnd
  0
BLOCK
  5
107
330
105
100
AcDbEntity
  8
0
100
AcDbBlockBegin
  2
block 7
 70
     0
 10
0.0
 20
0.0
 30
0.0
  3
block 7
  1

  0
SPLINE
  5
109
330
105
100
AcDbEntity
  8
_U+30EC_U+30A4_U+30E4_U+30FC 1
370
     0
100
AcDbSpline
210
0.0
220
0.0
230
1.0
 70
    11
 71
     3
 72
    26
 73
    22
 74
     0
 42
0.0000000001
 43
0.0000000001
 12
1.0
 22
0.0
 32
0.0
 13
1.0
 23
0.0
 33
0.0
 40
0.0
 40
0.0
 40
0.0
 40
0.0
 40
1.0
 40
1.0
 40
1.0
 40
2.0
 40
2.0
 40
2.0
 40
3.0
 40
3.0
 40
3.0
 40
4.0
 40
4.0
 40
4.0
 40
5.0
 40
5.0
 40
5.0
 40
6.0
 40
6.0
 40
6.0
 40
7.0
 40
7.0
 40
7.0
 40
7.0
 10
78.13717717230598
 20
-134.0028455611173
 30
0.0
 10
78.13717717230598
 20
-134.0028455611173
 30
0.0
 10
77.03302406928341
 20
-134.0028455611173
 30
0.0
 10
77.03302406928341
 20
-134.0028455611173
 30
0.0
 10
77.03302406928341
 20
-134.0028455611173
 30
0.0
 10
77.03302406928341
 20
-134.3328857086043
 30
0.0
 10
77.03302406928341
 20
-134.3328857086043
 30
0.0
 10
77.03302406928341
 20
-134.3328857086043
 30
0.0
 10
76.88488496341768
 20
-134.3328857086043
 30
0.0
 10
76.88488496341768
 20
-134.3328857086043
 30
0.0
 10
76.8700710528311
 20
-134.0007785038262
 30
0.0
 10
76.70711803637877
 20
-133.9542697147753
 30
0.0
 10
76.59274086626849
 20
-133.9246418936022
 30
0.0
 10
76.59274086626849
 20
-133.9246418936022
 30
0.0
 10
76.59274086626849
 20
-133.7785698450276
 30
0.0
 10
76.59274086626849
 20
-133.7785698450276
 30
0.0
 10
76.59274086626849
 20
-133.7785698450276
 30
0.0
 10
78.13717717230598
 20
-133.7785698450276
 30
0.0
 10
78.13717717230598
 20
-133.7785698450276
 30
0.0
 10
78.13717717230598
 20
-133.7785698450276
 30
0.0
 10
78.13717717230598
 20
-134.0028455611173
 30
0.0
 10
78.13717717230598
 20
-134.0028455611173
 30
0.0
  0
HATCH
  5
10A
330
105
100
AcDbEntity
  8
_U+30EC_U+30A4_U+30E4_U+30FC 1
 62
   179
420
  2234388
100
AcDbHatch
 10
0.0
 20
0.0
 30
0.0
210
0.0
220
0.0
230
1.0
  2
SOLID
 70
     1
 71
     0
 91
        1
 92
        1
 93
        1
 72
     4
 94
        3
 73
     0
 74
     1
 95
       26
 96
       22
 40
0.0
 40
0.0
 40
0.0
 40
0.0
 40
1.0
 40
1.0
 40
1.0
 40
2.0
 40
2.0
 40
2.0
 40
3.0
 40
3.0
 40
3.0
 40
4.0
 40
4.0
 40
4.0
 40
5.0
 40
5.0
 40
5.0
 40
6.0
 40
6.0
 40
6.0
 40
7.0
 40
7.0
 40
7.0
 40
7.0
 10
78.13717717230598
 20
-134.0028455611173
 10
78.13717717230598
 20
-134.0028455611173
 10
77.03302406928341
 20
-134.0028455611173
 10
77.03302406928341
 20
-134.0028455611173
 10
77.03302406928341
 20
-134.0028455611173
 10
77.03302406928341
 20
-134.3328857086043
 10
77.03302406928341
 20
-134.3328857086043
 10
77.03302406928341
 20
-134.3328857086043
 10
76.88488496341768
 20
-134.3328857086043
 10
76.88488496341768
 20
-134.3328857086043
 10
76.8700710528311
 20
-134.0007785038262
 10
76.70711803637877
 20
-133.9542697147753
 10
76.59274086626849
 20
-133.9246418936022
 10
76.59274086626849
 20
-133.9246418936022
 10
76.59274086626849
 20
-133.7785698450276
 10
76.59274086626849
 20
-133.7785698450276
 10
76.59274086626849
 20
-133.7785698450276
 10
78.13717717230598
 20
-133.7785698450276
 10
78.13717717230598
 20
-133.7785698450276
 10
78.13717717230598
 20
-133.7785698450276
 10
78.13717717230598
 20
-134.0028455611173
 10
78.13717717230598
 20
-134.0028455611173
 97
        0
 97
        0
 75
     2
 76
     1
 98
        0
  0
SPLINE
  5
10B
330
105
100
AcDbEntity
  8
_U+30EC_U+30A4_U+30E4_U+30FC 1
370
     0
100
AcDbSpline
210
0.0
220
0.0
230
1.0
 70
    11
 71
     3
 72
    26
 73
    22
 74
     0
 42
0.0000000001
 43
0.0000000001
 12
1.0
 22
0.0
 32
0.0
 13
1.0
 23
0.0
 33
0.0
 40
0.0
 40
0.0
 40
0.0
 40
0.0
 40
1.0
 40
1.0
 40
1.0
 40
2.0
 40
2.0
 40
2.0
 40
3.0
 40
3.0
 40
3.0
 40
4.0
 40
4.0
 40
4.0
 40
5.0
 40
5.0
 40
5.0
 40
6.0
 40
6.0
 40
6.0
 40
7.0
 40
7.0
 40
7.0
 40
7.0
 10
78.13717717230598
 20
-132.8663085605334
 30
0.0
 10
78.13717717230598
 20
-132.8663085605334
 30
0.0
 10
78.13717717230598
 20
-133.1033311299186
 30
0.0
 10
78.13717717230598
 20
-133.1033311299186
 30
0.0
 10
77.82815210727908
 20
-133.0778374233278
 30
0.0
 10
77.3100097462975
 20
-132.8852565857023
 30
0.0
 10
76.80426972906282
 20
-132.4790798279913
 30
0.0
 10
76.80426972906282
 20
-132.4790798279913
 30
0.0
 10
76.80426972906282
 20
-133.3169270500041
 30
0.0
 10
76.80426972906282
 20
-133.3169270500041
 30
0.0
 10
76.80426972906282
 20
-133.3169270500041
 30
0.0
 10
76.59274086626849
 20
-133.3169270500041
 30
0.0
 10
76.59274086626849
 20
-133.3169270500041
 30
0.0
 10
76.59274086626849
 20
-133.3169270500041
 30
0.0
 10
76.59274086626849
 20
-132.2420572586062
 30
0.0
 10
76.59274086626849
 20
-132.2420572586062
 30
0.0
 10
76.59274086626849
 20
-132.2420572586062
 30
0.0
 10
76.80426972906282
 20
-132.2420572586062
 30
0.0
 10
76.80426972906282
 20
-132.2420572586062
 30
0.0
 10
77.09434676892086
 20
-132.5658962342197
 30
0.0
 10
77.68655868283531
 20
-132.832546624778
 30
0.0
 10
78.13717717230598
 20
-132.8663085605334
 30
0.0
  0
HATCH
  5
10C
330
105
100
AcDbEntity
  8
_U+30EC_U+30A4_U+30E4_U+30FC 1
 62
   179
420
  2234388
100
AcDbHatch
 10
0.0
 20
0.0
 30
0.0
210
0.0
220
0.0
230
1.0
  2
SOLID
 70
     1
 71
     0
 91
        1
 92
        1
 93
        1
 72
     4
 94
        3
 73
     0
 74
     1
 95
       26
 96
       22
 40
0.0
 40
0.0
 40
0.0
 40
0.0
 40
1.0
 40
1.0
 40
1.0
 40
2.0
 40
2.0
 40
2.0
 40
3.0
 40
3.0
 40
3.0
 40
4.0
 40
4.0
 40
4.0
 40
5.0
 40
5.0
 40
5.0
 40
6.0
 40
6.0
 40
6.0
 40
7.0
 40
7.0
 40
7.0
 40
7.0
 10
78.13717717230598
 20
-132.8663085605334
 10
78.13717717230598
 20
-132.8663085605334
 10
78.13717717230598
 20
-133.1033311299186
 10
78.13717717230598
 20
-133.1033311299186
 10
77.82815210727908
 20
-133.0778374233278
 10
77.3100097462975
 20
-132.8852565857023
 10
76.80426972906282
 20
-132.4790798279913
 10
76.80426972906282
 20
-132.4790798279913
 10
76.80426972906282
 20
-133.3169270500041
 10
76.80426972906282
 20
-133.3169270500041
 10
76.80426972906282
 20
-133.3169270500041
 10
76.59274086626849
 20
-133.3169270500041
 10
76.59274086626849
 20
-133.3169270500041
 10
76.59274086626849
 20
-133.3169270500041
 10
76.59274086626849
 20
-132.2420572586062
 10
76.59274086626849
 20
-132.2420572586062
 10
76.59274086626849
 20
-132.2420572586062
 10
76.80426972906282
 20
-132.2420572586062
 10
76.80426972906282
 20
-132.2420572586062
 10
77.09434676892086
 20
-132.5658962342197
 10
77.68655868283531
 20
-132.832546624778
 10
78.13717717230598
 20
-132.8663085605334
 97
        0
 97
        0
 75
     2
 76
     1
 98
        0
  0
ENDBLK
  5
108
330
105
100
AcDbEntity
  8
0
100
AcDbBlockEnd
  0
ENDSEC
  0
SECTION
  2
ENTITIES
  0
POLYLINE
  5
41
330
1F
100
AcDbEntity
  8
_U+30EC_U+30A4_U+30E4_U+30FC 1
 62
   179
420
  2234388
370
    25
100
AcDb2dPolyline
 66
     1
 10
0.0
 20
0.0
 30
0.0
  0
VERTEX
  5
42
330
41
100
AcDbEntity
  8
_U+30EC_U+30A4_U+30E4_U+30FC 1
 62
   179
420
  2234388
370
    25
100
AcDbVertex
100
AcDb2dVertex
 10
84.78346922588238
 20
-141.8655969089779
 30
0.0
  0
VERTEX
  5
43
330
41
100
AcDbEntity
  8
_U+30EC_U+30A4_U+30E4_U+30FC 1
 62
   179
420
  2234388
370
    25
100
AcDbVertex
100
AcDb2dVertex
 10
85.78320831188752
 20
-141.8655969089779
 30
0.0
  0
SEQEND
  5
44
330
41
100
AcDbEntity
  8
_U+30EC_U+30A4_U+30E4_U+30FC 1
 62
   179
420
  2234388
370
    25
  0
POLYLINE
  5
45
330
1F
100
AcDbEntity
  8
_U+30EC_U+30A4_U+30E4_U+30FC 1
 62
   179
420
  2234388
370
    25
100
AcDb2dPolyline
 66
     1
 10
0.0
 20
0.0
 30
0.0
  0
VERTEX
  5
46
330
45
100
AcDbEntity
  8
_U+30EC_U+30A4_U+30E4_U+30FC 1
 62
   179
420
  2234388
370
    25
100
AcDbVertex
100
AcDb2dVertex
 10
107.5862128108026
 20
-124.3238630244746
 30
0.0
  0
VERTEX
  5
47
330
45
100
AcDbEntity
  8
_U+30EC_U+30A4_U+30E4_U+30FC 1
 62
   179
420
  2234388
370
    25
100
AcDbVertex
100
AcDb2dVertex
 10
107.7832391946649
 20
-124.8657649687836
 30
0.0
  0
SEQEND
  5
48
330
45
100
AcDbEntity
  8
_U+30EC_U+30A4_U+30E4_U+30FC 1
 62
   179
420
  2234388
370
    25
  0
POLYLINE
  5
49
330
1F
100
AcDbEntity
  8
_U+30EC_U+30A4_U+30E4_U+30FC 1
 62
   179
420
  2234388
370
    25
100
AcDb2dPolyline
 66
     1
 10
0.0
 20
0.0
 30
0.0
  0
VERTEX
  5
4A
330
49
100
AcDbEntity
  8
_U+30EC_U+30A4_U+30E4_U+30FC 1
 62
   179
420
  2234388
370
    25
100
AcDbVertex
100
AcDb2dVertex
 10
85.78320831188752
 20
-126.865626912728
 30
0.0
  0
VERTEX
  5
4B
330
49
100
AcDbEntity
  8
_U+30EC_U+30A4_U+30E4_U+30FC 1
 62
   179
420
  2234388
370
    25
100
AcDbVertex
100
AcDb2dVertex
 10
86.7833333116375
 20
-126.865626912728
 30
0.0
  0
SEQEND
  5
4C
330
49
100
AcDbEntity
  8
_U+30EC_U+30A4_U+30E4_U+30FC 1
 62
   179
420
  2234388
370
    25
  0
POLYLINE
  5
4D
330
1F
100
AcDbEntity
  8
_U+30EC_U+30A4_U+30E4_U+30FC 1
 62
   179
420
  2234388
370
    25
100
AcDb2dPolyline
 66
     1
 10
0.0
 20
0.0
 30
0.0
  0
VERTEX
  5
4E
330
4D
100
AcDbEntity
  8
_U+30EC_U+30A4_U+30E4_U+30FC 1
 62
   179
420
  2234388
370
    25
100
AcDbVertex
100
AcDb2dVertex
 10
83.78334425139771
 20
-126.865626912728
 30
0.0
  0
VERTEX
  5
4F
330
4D
100
AcDbEntity
  8
_U+30EC_U+30A4_U+30E4_U+30FC 1
 62
   179
420
  2234388
370
    25
100
AcDbVertex
100
AcDb2dVertex
 10
84.78346922588238
 20
-126.865626912728
 30
0.0
  0
SEQEND
  5
50
330
4D
100
AcDbEntity
  8
_U+30EC_U+30A4_U+30E4_U+30FC 1
 62
   179
420
  2234388
370
    25
  0
POLYLINE
  5
51
330
1F
100
AcDbEntity
  8
_U+30EC_U+30A4_U+30E4_U+30FC 1
 62
   179
420
  2234388
370
    25
100
AcDb2dPolyline
 66
     1
 10
0.0
 20
0.0
 30
0.0
  0
VERTEX
  5
52
330
51
100
AcDbEntity
  8
_U+30EC_U+30A4_U+30E4_U+30FC 1
 62
   179
420
  2234388
370
    25
100
AcDbVertex
100
AcDb2dVertex
 10
84.78346922588238
 20
-124.8657649687836
 30
0.0
  0
VERTEX
  5
53
330
51
100
AcDbEntity
  8
_U+30EC_U+30A4_U+30E4_U+30FC 1
 62
   179
420
  2234388
370
    25
100
AcDbVertex
100
AcDb2dVertex
 10
84.78346922588238
 20
-126.865626912728
 30
0.0
  0
SEQEND
  5
54
330
51
100
AcDbEntity
  8
_U+30EC_U+30A4_U+30E4_U+30FC 1
 62
   179
420
  2234388
370
    25
  0
POLYLINE
  5
55
330
1F
100
AcDbEntity
  8
_U+30EC_U+30A4_U+30E4_U+30FC 1
 62
   179
420
  2234388
370
    25
100
AcDb2dPolyline
 66
     1
 10
0.0
 20
0.0
 30
0.0
  0
VERTEX
  5
56
330
55
100
AcDbEntity
  8
_U+30EC_U+30A4_U+30E4_U+30FC 1
 62
   179
420
  2234388
370
    25
100
AcDbVertex
100
AcDb2dVertex
 10
85.78320831188752
 20
-124.8657649687836
 30
0.0
  0
VERTEX
  5
57
330
55
100
AcDbEntity
  8
_U+30EC_U+30A4_U+30E4_U+30FC 1
 62
   179
420
  2234388
370
    25
100
AcDbVertex
100
AcDb2dVertex
 10
85.78320831188752
 20
-126.865626912728
 30
0.0
  0
SEQEND
  5
58
330
55
100
AcDbEntity
  8
_U+30EC_U+30A4_U+30E4_U+30FC 1
 62
   179
420
  2234388
370
    25
  0
POLYLINE
  5
59
330
1F
100
AcDbEntity
  8
_U+30EC_U+30A4_U+30E4_U+30FC 1
 62
   179
420
  2234388
370
    25
100
AcDb2dPolyline
 66
     1
 10
0.0
 20
0.0
 30
0.0
  0
VERTEX
  5
5A
330
59
100
AcDbEntity
  8
_U+30EC_U+30A4_U+30E4_U+30FC 1
 62
   179
420
  2234388
370
    25
100
AcDbVertex
100
AcDb2dVertex
 10
83.78334425139771
 20
-126.865626912728
 30
0.0
  0
VERTEX
  5
5B
330
59
100
AcDbEntity
  8
_U+30EC_U+30A4_U+30E4_U+30FC 1
 62
   179
420
  2234388
370
    25
100
AcDbVertex
100
AcDb2dVertex
 10
84.78346922588238
 20
-131.8658638559223
 30
0.0
  0
SEQEND
  5
5C
330
59
100
AcDbEntity
  8
_U+30EC_U+30A4_U+30E4_U+30FC 1
 62
   179
420
  2234388
370
    25
  0
POLYLINE
  5
5D
330
1F
100
AcDbEntity
  8
_U+30EC_U+30A4_U+30E4_U+30FC 1
 62
   179
420
  2234388
370
    25
100
AcDb2dPolyline
 66
     1
 10
0.0
 20
0.0
 30
0.0
  0
VERTEX
  5
5E
330
5D
100
AcDbEntity
  8
_U+30EC_U+30A4_U+30E4_U+30FC 1
 62
   179
420
  2234388
370
    25
100
AcDbVertex
100
AcDb2dVertex
 10
85.78320831188752
 20
-131.8658638559223
 30
0.0
  0
VERTEX
  5
5F
330
5D
100
AcDbEntity
  8
_U+30EC_U+30A4_U+30E4_U+30FC 1
 62
   179
420
  2234388
370
    25
100
AcDbVertex
100
AcDb2dVertex
 10
86.7833333116375
 20
-126.865626912728
 30
0.0
  0
SEQEND
  5
60
330
5D
100
AcDbEntity
  8
_U+30EC_U+30A4_U+30E4_U+30FC 1
 62
   179
420
  2234388
370
    25
  0
POLYLINE
  5
61
330
1F
100
AcDbEntity
  8
_U+30EC_U+30A4_U+30E4_U+30FC 1
 62
   179
420
  2234388
370
    25
100
AcDb2dPolyline
 66
     1
 10
0.0
 20
0.0
 30
0.0
  0
VERTEX
  5
62
330
61
100
AcDbEntity
  8
_U+30EC_U+30A4_U+30E4_U+30FC 1
 62
   179
420
  2234388
370
    25
100
AcDbVertex
100
AcDb2dVertex
 10
85.78320831188752
 20
-131.8658638559223
 30
0.0
  0
VERTEX
  5
63
330
61
100
AcDbEntity
  8
_U+30EC_U+30A4_U+30E4_U+30FC 1
 62
   179
420
  2234388
370
    25
100
AcDbVertex
100
AcDb2dVertex
 10
86.7833333116375
 20
-131.8658638559223
 30
0.0
  0
SEQEND
  5
64
330
61
100
AcDbEntity
  8
_U+30EC_U+30A4_U+30E4_U+30FC 1
 62
   179
420
  2234388
370
    25
  0
POLYLINE
  5
65
330
1F
100
AcDbEntity
  8
_U+30EC_U+30A4_U+30E4_U+30FC 1
 62
   179
420
  2234388
370
    25
100
AcDb2dPolyline
 66
     1
 10
0.0
 20
0.0
 30
0.0
  0
VERTEX
  5
66
330
65
100
AcDbEntity
  8
_U+30EC_U+30A4_U+30E4_U+30FC 1
 62
   179
420
  2234388
370
    25
100
AcDbVertex
100
AcDb2dVertex
 10
83.78334425139771
 20
-131.8658638559223
 30
0.0
  0
VERTEX
  5
67
330
65
100
AcDbEntity
  8
_U+30EC_U+30A4_U+30E4_U+30FC 1
 62
   179
420
  2234388
370
    25
100
AcDbVertex
100
AcDb2dVertex
 10
84.78346922588238
 20
-131.8658638559223
 30
0.0
  0
SEQEND
  5
68
330
65
100
AcDbEntity
  8
_U+30EC_U+30A4_U+30E4_U+30FC 1
 62
   179
420
  2234388
370
    25
  0
POLYLINE
  5
69
330
1F
100
AcDbEntity
  8
_U+30EC_U+30A4_U+30E4_U+30FC 1
 62
   179
420
  2234388
370
    25
100
AcDb2dPolyline
 66
     1
 10
0.0
 20
0.0
 30
0.0
  0
VERTEX
  5
6A
330
69
100
AcDbEntity
  8
_U+30EC_U+30A4_U+30E4_U+30FC 1
 62
   179
420
  2234388
370
    25
100
AcDbVertex
100
AcDb2dVertex
 10
83.78334425139771
 20
-131.8658638559223
 30
0.0
  0
VERTEX
  5
6B
330
69
100
AcDbEntity
  8
_U+30EC_U+30A4_U+30E4_U+30FC 1
 62
   179
420
  2234388
370
    25
100
AcDbVertex
100
AcDb2dVertex
 10
84.78346922588238
 20
-136.8657127435613
 30
0.0
  0
SEQEND
  5
6C
330
69
100
AcDbEntity
  8
_U+30EC_U+30A4_U+30E4_U+30FC 1
 62
   179
420
  2234388
370
    25
  0
POLYLINE
  5
6D
330
1F
100
AcDbEntity
  8
_U+30EC_U+30A4_U+30E4_U+30FC 1
 62
   179
420
  2234388
370
    25
100
AcDb2dPolyline
 66
     1
 10
0.0
 20
0.0
 30
0.0
  0
VERTEX
  5
6E
330
6D
100
AcDbEntity
  8
_U+30EC_U+30A4_U+30E4_U+30FC 1
 62
   179
420
  2234388
370
    25
100
AcDbVertex
100
AcDb2dVertex
 10
85.78320831188752
 20
-136.8657127435613
 30
0.0
  0
VERTEX
  5
6F
330
6D
100
AcDbEntity
  8
_U+30EC_U+30A4_U+30E4_U+30FC 1
 62
   179
420
  2234388
370
    25
100
AcDbVertex
100
AcDb2dVertex
 10
86.7833333116375
 20
-131.8658638559223
 30
0.0
  0
SEQEND
  5
70
330
6D
100
AcDbEntity
  8
_U+30EC_U+30A4_U+30E4_U+30FC 1
 62
   179
420
  2234388
370
    25
  0
POLYLINE
  5
71
330
1F
100
AcDbEntity
  8
_U+30EC_U+30A4_U+30E4_U+30FC 1
 62
   179
420
  2234388
370
    25
100
AcDb2dPolyline
 66
     1
 10
0.0
 20
0.0
 30
0.0
  0
VERTEX
  5
72
330
71
100
AcDbEntity
  8
_U+30EC_U+30A4_U+30E4_U+30FC 1
 62
   179
420
  2234388
370
    25
100
AcDbVertex
100
AcDb2dVertex
 10
83.78334425139771
 20
-136.8657127435613
 30
0.0
  0
VERTEX
  5
73
330
71
100
AcDbEntity
  8
_U+30EC_U+30A4_U+30E4_U+30FC 1
 62
   179
420
  2234388
370
    25
100
AcDbVertex
100
AcDb2dVertex
 10
84.78346922588238
 20
-141.8655969089779
 30
0.0
  0
SEQEND
  5
74
330
71
100
AcDbEntity
  8
_U+30EC_U+30A4_U+30E4_U+30FC 1
 62
   179
420
  2234388
370
    25
  0
POLYLINE
  5
75
330
1F
100
AcDbEntity
  8
_U+30EC_U+30A4_U+30E4_U+30FC 1
 62
   179
420
  2234388
370
    25
100
AcDb2dPolyline
 66
     1
 10
0.0
 20
0.0
 30
0.0
  0
VERTEX
  5
76
330
75
100
AcDbEntity
  8
_U+30EC_U+30A4_U+30E4_U+30FC 1
 62
   179
420
  2234388
370
    25
100
AcDbVertex
100
AcDb2dVertex
 10
85.78320831188752
 20
-136.8657127435613
 30
0.0
  0
VERTEX
  5
77
330
75
100
AcDbEntity
  8
_U+30EC_U+30A4_U+30E4_U+30FC 1
 62
   179
420
  2234388
370
    25
100
AcDbVertex
100
AcDb2dVertex
 10
86.7833333116375
 20
-136.8657127435613
 30
0.0
  0
SEQEND
  5
78
330
75
100
AcDbEntity
  8
_U+30EC_U+30A4_U+30E4_U+30FC 1
 62
   179
420
  2234388
370
    25
  0
POLYLINE
  5
79
330
1F
100
AcDbEntity
  8
_U+30EC_U+30A4_U+30E4_U+30FC 1
 62
   179
420
  2234388
370
    25
100
AcDb2dPolyline
 66
     1
 10
0.0
 20
0.0
 30
0.0
  0
VERTEX
  5
7A
330
79
100
AcDbEntity
  8
_U+30EC_U+30A4_U+30E4_U+30FC 1
 62
   179
420
  2234388
370
    25
100
AcDbVertex
100
AcDb2dVertex
 10
85.78320831188752
 20
-141.8655969089779
 30
0.0
  0
VERTEX
  5
7B
330
79
100
AcDbEntity
  8
_U+30EC_U+30A4_U+30E4_U+30FC 1
 62
   179
420
  2234388
370
    25
100
AcDbVertex
100
AcDb2dVertex
 10
86.7833333116375
 20
-136.8657127435613
 30
0.0
  0
SEQEND
  5
7C
330
79
100
AcDbEntity
  8
_U+30EC_U+30A4_U+30E4_U+30FC 1
 62
   179
420
  2234388
370
    25
  0
POLYLINE
  5
7D
330
1F
100
AcDbEntity
  8
_U+30EC_U+30A4_U+30E4_U+30FC 1
 62
   179
420
  2234388
370
    25
100
AcDb2dPolyline
 66
     1
 10
0.0
 20
0.0
 30
0.0
  0
VERTEX
  5
7E
330
7D
100
AcDbEntity
  8
_U+30EC_U+30A4_U+30E4_U+30FC 1
 62
   179
420
  2234388
370
    25
100
AcDbVertex
100
AcDb2dVertex
 10
83.78334425139771
 20
-136.8657127435613
 30
0.0
  0
VERTEX
  5
7F
330
7D
100
AcDbEntity
  8
_U+30EC_U+30A4_U+30E4_U+30FC 1
 62
   179
420
  2234388
370
    25
100
AcDbVertex
100
AcDb2dVertex
 10
84.78346922588238
 20
-136.8657127435613
 30
0.0
  0
SEQEND
  5
80
330
7D
100
AcDbEntity
  8
_U+30EC_U+30A4_U+30E4_U+30FC 1
 62
   179
420
  2234388
370
    25
  0
POLYLINE
  5
81
330
1F
100
AcDbEntity
  8
_U+30EC_U+30A4_U+30E4_U+30FC 1
 62
   179
420
  2234388
370
    25
100
AcDb2dPolyline
 66
     1
 10
0.0
 20
0.0
 30
0.0
  0
VERTEX
  5
82
330
81
100
AcDbEntity
  8
_U+30EC_U+30A4_U+30E4_U+30FC 1
 62
   179
420
  2234388
370
    25
100
AcDbVertex
100
AcDb2dVertex
 10
82.78321927691302
 20
-124.8657649687836
 30
0.0
  0
VERTEX
  5
83
330
81
100
AcDbEntity
  8
_U+30EC_U+30A4_U+30E4_U+30FC 1
 62
   179
420
  2234388
370
    25
100
AcDbVertex
100
AcDb2dVertex
 10
84.78346922588238
 20
-124.8657649687836
 30
0.0
  0
SEQEND
  5
84
330
81
100
AcDbEntity
  8
_U+30EC_U+30A4_U+30E4_U+30FC 1
 62
   179
420
  2234388
370
    25
  0
POLYLINE
  5
85
330
1F
100
AcDbEntity
  8
_U+30EC_U+30A4_U+30E4_U+30FC 1
 62
   179
420
  2234388
370
    25
100
AcDb2dPolyline
 66
     1
 10
0.0
 20
0.0
 30
0.0
  0
VERTEX
  5
86
330
85
100
AcDbEntity
  8
_U+30EC_U+30A4_U+30E4_U+30FC 1
 62
   179
420
  2234388
370
    25
100
AcDbVertex
100
AcDb2dVertex
 10
82.78321927691302
 20
-123.6658266357504
 30
0.0
  0
VERTEX
  5
87
330
85
100
AcDbEntity
  8
_U+30EC_U+30A4_U+30E4_U+30FC 1
 62
   179
420
  2234388
370
    25
100
AcDbVertex
100
AcDb2dVertex
 10
82.78321927691302
 20
-124.8657649687836
 30
0.0
  0
SEQEND
  5
88
330
85
100
AcDbEntity
  8
_U+30EC_U+30A4_U+30E4_U+30FC 1
 62
   179
420
  2234388
370
    25
  0
POLYLINE
  5
89
330
1F
100
AcDbEntity
  8
_U+30EC_U+30A4_U+30E4_U+30FC 1
 62
   179
420
  2234388
370
    25
100
AcDb2dPolyline
 66
     1
 10
0.0
 20
0.0
 30
0.0
  0
VERTEX
  5
8A
330
89
100
AcDbEntity
  8
_U+30EC_U+30A4_U+30E4_U+30FC 1
 62
   179
420
  2234388
370
    25
100
AcDbVertex
100
AcDb2dVertex
 10
82.78321927691302
 20
-123.6658266357504
 30
0.0
  0
VERTEX
  5
8B
330
89
100
AcDbEntity
  8
_U+30EC_U+30A4_U+30E4_U+30FC 1
 62
   179
420
  2234388
370
    25
100
AcDbVertex
100
AcDb2dVertex
 10
106.646377557002
 20
-123.6658266357504
 30
0.0
  0
SEQEND
  5
8C
330
89
100
AcDbEntity
  8
_U+30EC_U+30A4_U+30E4_U+30FC 1
 62
   179
420
  2234388
370
    25
  0
POLYLINE
  5
8D
330
1F
100
AcDbEntity
  8
_U+30EC_U+30A4_U+30E4_U+30FC 1
 62
   179
420
  2234388
370
    25
100
AcDb2dPolyline
 66
     1
 10
0.0
 20
0.0
 30
0.0
  0
VERTEX
  5
8E
330
8D
100
AcDbEntity
  8
_U+30EC_U+30A4_U+30E4_U+30FC 1
 62
   179
420
  2234388
370
    25
100
AcDbVertex
100
AcDb2dVertex
 10
85.78320831188752
 20
-124.8657649687836
 30
0.0
  0
VERTEX
  5
8F
330
8D
100
AcDbEntity
  8
_U+30EC_U+30A4_U+30E4_U+30FC 1
 62
   179
420
  2234388
370
    25
100
AcDbVertex
100
AcDb2dVertex
 10
107.7832391946649
 20
-124.8657649687836
 30
0.0
  0
SEQEND
  5
90
330
8D
100
AcDbEntity
  8
_U+30EC_U+30A4_U+30E4_U+30FC 1
 62
   179
420
  2234388
370
    25
  0
SPLINE
  5
91
330
1F
100
AcDbEntity
  8
_U+30EC_U+30A4_U+30E4_U+30FC 1
 62
   179
420
  2234388
370
    25
100
AcDbSpline
210
0.0
220
0.0
230
1.0
 70
     8
 71
     3
 72
     8
 73
     4
 74
     0
 42
0.0000000001
 43
0.0000000001
 12
1.0
 22
0.0
 32
0.0
 13
1.0
 23
0.0
 33
0.0
 40
0.0
 40
0.0
 40
0.0
 40
0.0
 40
1.0
 40
1.0
 40
1.0
 40
1.0
 10
107.5862128108026
 20
-124.3238630244746
 30
0.0
 10
107.4421736478107
 20
-123.9286813579066
 30
0.0
 10
107.0666769907237
 20
-123.6658266357504
 30
0.0
 10
106.646377557002
 20
-123.6658266357504
 30
0.0
  0
SPLINE
  5
92
330
1F
100
AcDbEntity
  8
_U+30EC_U+30A4_U+30E4_U+30FC 1
 62
   179
420
  2234388
370
     9
100
AcDbSpline
210
0.0
220
0.0
230
1.0
 70
    11
 71
     3
 72
    17
 73
    13
 74
     0
 42
0.0000000001
 43
0.0000000001
 12
1.0
 22
0.0
 32
0.0
 13
1.0
 23
0.0
 33
0.0
 40
0.0
 40
0.0
 40
0.0
 40
0.0
 40
1.0
 40
1.0
 40
1.0
 40
2.0
 40
2.0
 40
2.0
 40
3.0
 40
3.0
 40
3.0
 40
4.0
 40
4.0
 40
4.0
 40
4.0
 10
90.53332352363583
 20
-136.8657127435613
 30
0.0
 10
90.53332352363583
 20
-136.8106088546864
 30
0.0
 10
90.48852074700106
 20
-136.7658060769197
 30
0.0
 10
90.43341685951799
 20
-136.7658060769197
 30
0.0
 10
90.37827769425805
 20
-136.7658060769197
 30
0.0
 10
90.33351019540015
 20
-136.8106088546864
 30
0.0
 10
90.33351019540015
 20
-136.8657127435613
 30
0.0
 10
90.33351019540015
 20
-136.9208519102144
 30
0.0
 10
90.37827769425805
 20
-136.965619410203
 30
0.0
 10
90.43341685951799
 20
-136.965619410203
 30
0.0
 10
90.48852074700106
 20
-136.965619410203
 30
0.0
 10
90.53332352363583
 20
-136.9208519102144
 30
0.0
 10
90.53332352363583
 20
-136.8657127435613
 30
0.0
  0
SPLINE
  5
93
330
1F
100
AcDbEntity
  8
_U+30EC_U+30A4_U+30E4_U+30FC 1
 62
   179
420
  2234388
370
     9
100
AcDbSpline
210
0.0
220
0.0
230
1.0
 70
    11
 71
     3
 72
    17
 73
    13
 74
     0
 42
0.0000000001
 43
0.0000000001
 12
1.0
 22
0.0
 32
0.0
 13
1.0
 23
0.0
 33
0.0
 40
0.0
 40
0.0
 40
0.0
 40
0.0
 40
1.0
 40
1.0
 40
1.0
 40
2.0
 40
2.0
 40
2.0
 40
3.0
 40
3.0
 40
3.0
 40
4.0
 40
4.0
 40
4.0
 40
4.0
 10
90.53332352363583
 20
-141.8655969089779
 30
0.0
 10
90.53332352363583
 20
-141.8104577423254
 30
0.0
 10
90.48852074700106
 20
-141.7656902423362
 30
0.0
 10
90.43341685951799
 20
-141.7656902423362
 30
0.0
 10
90.37827769425805
 20
-141.7656902423362
 30
0.0
 10
90.33351019540015
 20
-141.8104577423254
 30
0.0
 10
90.33351019540015
 20
-141.8655969089779
 30
0.0
 10
90.33351019540015
 20
-141.9210535756306
 30
0.0
 10
90.37827769425805
 20
-141.9658563533973
 30
0.0
 10
90.43341685951799
 20
-141.9658563533973
 30
0.0
 10
90.48852074700106
 20
-141.9658563533973
 30
0.0
 10
90.53332352363583
 20
-141.9210535756306
 30
0.0
 10
90.53332352363583
 20
-141.8655969089779
 30
0.0
  0
SPLINE
  5
94
330
1F
100
AcDbEntity
  8
_U+30EC_U+30A4_U+30E4_U+30FC 1
 62
   179
420
  2234388
370
     9
100
AcDbSpline
210
0.0
220
0.0
230
1.0
 70
    11
 71
     3
 72
    17
 73
    13
 74
     0
 42
0.0000000001
 43
0.0000000001
 12
1.0
 22
0.0
 32
0.0
 13
1.0
 23
0.0
 33
0.0
 40
0.0
 40
0.0
 40
0.0
 40
0.0
 40
1.0
 40
1.0
 40
1.0
 40
2.0
 40
2.0
 40
2.0
 40
3.0
 40
3.0
 40
3.0
 40
4.0
 40
4.0
 40
4.0
 40
4.0
 10
90.53332352363583
 20
-131.8658638559223
 30
0.0
 10
90.53332352363583
 20
-131.8103719114921
 30
0.0
 10
90.48852074700106
 20
-131.7656044115029
 30
0.0
 10
90.43341685951799
 20
-131.7656044115029
 30
0.0
 10
90.37827769425805
 20
-131.7656044115029
 30
0.0
 10
90.33351019540015
 20
-131.8103719114921
 30
0.0
 10
90.33351019540015
 20
-131.8658638559223
 30
0.0
 10
90.33351019540015
 20
-131.9209677447972
 30
0.0
 10
90.37827769425805
 20
-131.965770522564
 30
0.0
 10
90.43341685951799
 20
-131.965770522564
 30
0.0
 10
90.48852074700106
 20
-131.965770522564
 30
0.0
 10
90.53332352363583
 20
-131.9209677447972
 30
0.0
 10
90.53332352363583
 20
-131.8658638559223
 30
0.0
  0
SPLINE
  5
95
330
1F
100
AcDbEntity
  8
_U+30EC_U+30A4_U+30E4_U+30FC 1
 62
   179
420
  2234388
370
     9
100
AcDbSpline
210
0.0
220
0.0
230
1.0
 70
    11
 71
     3
 72
    17
 73
    13
 74
     0
 42
0.0000000001
 43
0.0000000001
 12
1.0
 22
0.0
 32
0.0
 13
1.0
 23
0.0
 33
0.0
 40
0.0
 40
0.0
 40
0.0
 40
0.0
 40
1.0
 40
1.0
 40
1.0
 40
2.0
 40
2.0
 40
2.0
 40
3.0
 40
3.0
 40
3.0
 40
4.0
 40
4.0
 40
4.0
 40
4.0
 10
90.53332352363583
 20
-126.865626912728
 30
0.0
 10
90.53332352363583
 20
-126.8105230238531
 30
0.0
 10
90.48852074700106
 20
-126.7657202460864
 30
0.0
 10
90.43341685951799
 20
-126.7657202460864
 30
0.0
 10
90.37827769425805
 20
-126.7657202460864
 30
0.0
 10
90.33351019540015
 20
-126.8105230238531
 30
0.0
 10
90.33351019540015
 20
-126.865626912728
 30
0.0
 10
90.33351019540015
 20
-126.9211188571585
 30
0.0
 10
90.37827769425805
 20
-126.9655335793696
 30
0.0
 10
90.43341685951799
 20
-126.9655335793696
 30
0.0
 10
90.48852074700106
 20
-126.9655335793696
 30
0.0
 10
90.53332352363583
 20
-126.9211188571585
 30
0.0
 10
90.53332352363583
 20
-126.865626912728
 30
0.0
  0
SPLINE
  5
96
330
1F
100
AcDbEntity
  8
_U+30EC_U+30A4_U+30E4_U+30FC 1
 62
   179
420
  2234388
370
     9
100
AcDbSpline
210
0.0
220
0.0
230
1.0
 70
    11
 71
     3
 72
    17
 73
    13
 74
     0
 42
0.0000000001
 43
0.0000000001
 12
1.0
 22
0.0
 32
0.0
 13
1.0
 23
0.0
 33
0.0
 40
0.0
 40
0.0
 40
0.0
 40
0.0
 40
1.0
 40
1.0
 40
1.0
 40
2.0
 40
2.0
 40
2.0
 40
3.0
 40
3.0
 40
3.0
 40
4.0
 40
4.0
 40
4.0
 40
4.0
 10
107.8834986365515
 20
-119.6657499700836
 30
0.0
 10
107.8834986365515
 20
-119.6106108034308
 30
0.0
 10
107.8387311376937
 20
-119.5658433034419
 30
0.0
 10
107.7832391946649
 20
-119.5658433034419
 30
0.0
 10
107.7281353071819
 20
-119.5658433034419
 30
0.0
 10
107.6833325305471
 20
-119.6106108034308
 30
0.0
 10
107.6833325305471
 20
-119.6657499700836
 30
0.0
 10
107.6833325305471
 20
-119.7208538589588
 30
0.0
 10
107.7281353071819
 20
-119.7656566367252
 30
0.0
 10
107.7832391946649
 20
-119.7656566367252
 30
0.0
 10
107.8387311376937
 20
-119.7656566367252
 30
0.0
 10
107.8834986365515
 20
-119.7208538589588
 30
0.0
 10
107.8834986365515
 20
-119.6657499700836
 30
0.0
  0
SPLINE
  5
97
330
1F
100
AcDbEntity
  8
_U+30EC_U+30A4_U+30E4_U+30FC 1
 62
   179
420
  2234388
370
     9
100
AcDbSpline
210
0.0
220
0.0
230
1.0
 70
    11
 71
     3
 72
    17
 73
    13
 74
     0
 42
0.0000000001
 43
0.0000000001
 12
1.0
 22
0.0
 32
0.0
 13
1.0
 23
0.0
 33
0.0
 40
0.0
 40
0.0
 40
0.0
 40
0.0
 40
1.0
 40
1.0
 40
1.0
 40
2.0
 40
2.0
 40
2.0
 40
3.0
 40
3.0
 40
3.0
 40
4.0
 40
4.0
 40
4.0
 40
4.0
 10
82.88312594103085
 20
-119.6657499700836
 30
0.0
 10
82.88312594103085
 20
-119.6106108034308
 30
0.0
 10
82.83835844217296
 20
-119.5658433034419
 30
0.0
 10
82.78321927691302
 20
-119.5658433034419
 30
0.0
 10
82.72811538942995
 20
-119.5658433034419
 30
0.0
 10
82.68331261279518
 20
-119.6106108034308
 30
0.0
 10
82.68331261279518
 20
-119.6657499700836
 30
0.0
 10
82.68331261279518
 20
-119.7208538589588
 30
0.0
 10
82.72811538942995
 20
-119.7656566367252
 30
0.0
 10
82.78321927691302
 20
-119.7656566367252
 30
0.0
 10
82.83835844217296
 20
-119.7656566367252
 30
0.0
 10
82.88312594103085
 20
-119.7208538589588
 30
0.0
 10
82.88312594103085
 20
-119.6657499700836
 30
0.0
  0
SPLINE
  5
98
330
1F
100
AcDbEntity
  8
_U+30EC_U+30A4_U+30E4_U+30FC 1
 62
   179
420
  2234388
370
     9
100
AcDbSpline
210
0.0
220
0.0
230
1.0
 70
    11
 71
     3
 72
    17
 73
    13
 74
     0
 42
0.0000000001
 43
0.0000000001
 12
1.0
 22
0.0
 32
0.0
 13
1.0
 23
0.0
 33
0.0
 40
0.0
 40
0.0
 40
0.0
 40
0.0
 40
1.0
 40
1.0
 40
1.0
 40
2.0
 40
2.0
 40
2.0
 40
3.0
 40
3.0
 40
3.0
 40
4.0
 40
4.0
 40
4.0
 40
4.0
 10
78.88336687640654
 20
-123.6658266357504
 30
0.0
 10
78.88336687640654
 20
-123.6103699690974
 30
0.0
 10
78.83859937754865
 20
-123.565567191331
 30
0.0
 10
78.7834602122887
 20
-123.565567191331
 30
0.0
 10
78.72835831365138
 20
-123.565567191331
 30
0.0
 10
78.68355553588465
 20
-123.6103699690974
 30
0.0
 10
78.68355553588465
 20
-123.6658266357504
 30
0.0
 10
78.68355553588465
 20
-123.7209658024031
 30
0.0
 10
78.72835831365138
 20
-123.765733302392
 30
0.0
 10
78.7834602122887
 20
-123.765733302392
 30
0.0
 10
78.83859937754865
 20
-123.765733302392
 30
0.0
 10
78.88336687640654
 20
-123.7209658024031
 30
0.0
 10
78.88336687640654
 20
-123.6658266357504
 30
0.0
  0
SPLINE
  5
99
330
1F
100
AcDbEntity
  8
_U+30EC_U+30A4_U+30E4_U+30FC 1
 62
   179
420
  2234388
370
     9
100
AcDbSpline
210
0.0
220
0.0
230
1.0
 70
    11
 71
     3
 72
    17
 73
    13
 74
     0
 42
0.0000000001
 43
0.0000000001
 12
1.0
 22
0.0
 32
0.0
 13
1.0
 23
0.0
 33
0.0
 40
0.0
 40
0.0
 40
0.0
 40
0.0
 40
1.0
 40
1.0
 40
1.0
 40
2.0
 40
2.0
 40
2.0
 40
3.0
 40
3.0
 40
3.0
 40
4.0
 40
4.0
 40
4.0
 40
4.0
 10
78.88336687640654
 20
-124.8657649687836
 30
0.0
 10
78.88336687640654
 20
-124.8106258021306
 30
0.0
 10
78.83859937754865
 20
-124.765858302142
 30
0.0
 10
78.7834602122887
 20
-124.765858302142
 30
0.0
 10
78.72835831365138
 20
-124.765858302142
 30
0.0
 10
78.68355553588465
 20
-124.8106258021306
 30
0.0
 10
78.68355553588465
 20
-124.8657649687836
 30
0.0
 10
78.68355553588465
 20
-124.9208688576586
 30
0.0
 10
78.72835831365138
 20
-124.9656716354253
 30
0.0
 10
78.7834602122887
 20
-124.9656716354253
 30
0.0
 10
78.83859937754865
 20
-124.9656716354253
 30
0.0
 10
78.88336687640654
 20
-124.9208688576586
 30
0.0
 10
78.88336687640654
 20
-124.8657649687836
 30
0.0
  0
SPLINE
  5
9A
330
1F
100
AcDbEntity
  8
_U+30EC_U+30A4_U+30E4_U+30FC 1
 62
   179
420
  2234388
370
     9
100
AcDbSpline
210
0.0
220
0.0
230
1.0
 70
    11
 71
     3
 72
    17
 73
    13
 74
     0
 42
0.0000000001
 43
0.0000000001
 12
1.0
 22
0.0
 32
0.0
 13
1.0
 23
0.0
 33
0.0
 40
0.0
 40
0.0
 40
0.0
 40
0.0
 40
1.0
 40
1.0
 40
1.0
 40
2.0
 40
2.0
 40
2.0
 40
3.0
 40
3.0
 40
3.0
 40
4.0
 40
4.0
 40
4.0
 40
4.0
 10
78.88336687640654
 20
-141.8655969089779
 30
0.0
 10
78.88336687640654
 20
-141.8104577423254
 30
0.0
 10
78.83859937754865
 20
-141.7656902423362
 30
0.0
 10
78.7834602122887
 20
-141.7656902423362
 30
0.0
 10
78.72835831365138
 20
-141.7656902423362
 30
0.0
 10
78.68355553588465
 20
-141.8104577423254
 30
0.0
 10
78.68355553588465
 20
-141.8655969089779
 30
0.0
 10
78.68355553588465
 20
-141.9210535756306
 30
0.0
 10
78.72835831365138
 20
-141.9658563533973
 30
0.0
 10
78.7834602122887
 20
-141.9658563533973
 30
0.0
 10
78.83859937754865
 20
-141.9658563533973
 30
0.0
 10
78.88336687640654
 20
-141.9210535756306
 30
0.0
 10
78.88336687640654
 20
-141.8655969089779
 30
0.0
  0
POLYLINE
  5
9B
330
1F
100
AcDbEntity
  8
_U+30EC_U+30A4_U+30E4_U+30FC 1
 62
   179
420
  2234388
370
     9
100
AcDb2dPolyline
 66
     1
 10
0.0
 20
0.0
 30
0.0
  0
VERTEX
  5
9C
330
9B
100
AcDbEntity
  8
_U+30EC_U+30A4_U+30E4_U+30FC 1
 62
   179
420
  2234388
370
     9
100
AcDbVertex
100
AcDb2dVertex
 10
90.43341685951799
 20
-141.8655969089779
 30
0.0
  0
VERTEX
  5
9D
330
9B
100
AcDbEntity
  8
_U+30EC_U+30A4_U+30E4_U+30FC 1
 62
   179
420
  2234388
370
     9
100
AcDbVertex
100
AcDb2dVertex
 10
90.43341685951799
 20
-136.8657127435613
 30
0.0
  0
SEQEND
  5
9E
330
9B
100
AcDbEntity
  8
_U+30EC_U+30A4_U+30E4_U+30FC 1
 62
   179
420
  2234388
370
     9
  0
POLYLINE
  5
9F
330
1F
100
AcDbEntity
  8
_U+30EC_U+30A4_U+30E4_U+30FC 1
 62
   179
420
  2234388
370
     9
100
AcDb2dPolyline
 66
     1
 10
0.0
 20
0.0
 30
0.0
  0
VERTEX
  5
A0
330
9F
100
AcDbEntity
  8
_U+30EC_U+30A4_U+30E4_U+30FC 1
 62
   179
420
  2234388
370
     9
100
AcDbVertex
100
AcDb2dVertex
 10
88.32327663557437
 20
-141.8655969089779
 30
0.0
  0
VERTEX
  5
A1
330
9F
100
AcDbEntity
  8
_U+30EC_U+30A4_U+30E4_U+30FC 1
 62
   179
420
  2234388
370
     9
100
AcDbVertex
100
AcDb2dVertex
 10
91.4335065562258
 20
-141.8655969089779
 30
0.0
  0
SEQEND
  5
A2
330
9F
100
AcDbEntity
  8
_U+30EC_U+30A4_U+30E4_U+30FC 1
 62
   179
420
  2234388
370
     9
  0
POLYLINE
  5
A3
330
1F
100
AcDbEntity
  8
_U+30EC_U+30A4_U+30E4_U+30FC 1
 62
   179
420
  2234388
370
     9
100
AcDb2dPolyline
 66
     1
 10
0.0
 20
0.0
 30
0.0
  0
VERTEX
  5
A4
330
A3
100
AcDbEntity
  8
_U+30EC_U+30A4_U+30E4_U+30FC 1
 62
   179
420
  2234388
370
     9
100
AcDbVertex
100
AcDb2dVertex
 10
88.9733777555343
 20
-136.8657127435613
 30
0.0
  0
VERTEX
  5
A5
330
A3
100
AcDbEntity
  8
_U+30EC_U+30A4_U+30E4_U+30FC 1
 62
   179
420
  2234388
370
     9
100
AcDbVertex
100
AcDb2dVertex
 10
91.4335065562258
 20
-136.8657127435613
 30
0.0
  0
SEQEND
  5
A6
330
A3
100
AcDbEntity
  8
_U+30EC_U+30A4_U+30E4_U+30FC 1
 62
   179
420
  2234388
370
     9
  0
INSERT
  5
A8
330
1F
100
AcDbEntity
  8
_U+30EC_U+30A4_U+30E4_U+30FC 1
100
AcDbBlockReference
  2
block 2
 10
0.0
 20
0.0
 30
0.0
  0
POLYLINE
  5
AD
330
1F
100
AcDbEntity
  8
_U+30EC_U+30A4_U+30E4_U+30FC 1
 62
   179
420
  2234388
370
     9
100
AcDb2dPolyline
 66
     1
 10
0.0
 20
0.0
 30
0.0
  0
VERTEX
  5
AE
330
AD
100
AcDbEntity
  8
_U+30EC_U+30A4_U+30E4_U+30FC 1
 62
   179
420
  2234388
370
     9
100
AcDbVertex
100
AcDb2dVertex
 10
90.43341685951799
 20
-136.8657127435613
 30
0.0
  0
VERTEX
  5
AF
330
AD
100
AcDbEntity
  8
_U+30EC_U+30A4_U+30E4_U+30FC 1
 62
   179
420
  2234388
370
     9
100
AcDbVertex
100
AcDb2dVertex
 10
90.43341685951799
 20
-131.8658638559223
 30
0.0
  0
SEQEND
  5
B0
330
AD
100
AcDbEntity
  8
_U+30EC_U+30A4_U+30E4_U+30FC 1
 62
   179
420
  2234388
370
     9
  0
POLYLINE
  5
B1
330
1F
100
AcDbEntity
  8
_U+30EC_U+30A4_U+30E4_U+30FC 1
 62
   179
420
  2234388
370
     9
100
AcDb2dPolyline
 66
     1
 10
0.0
 20
0.0
 30
0.0
  0
VERTEX
  5
B2
330
B1
100
AcDbEntity
  8
_U+30EC_U+30A4_U+30E4_U+30FC 1
 62
   179
420
  2234388
370
     9
100
AcDbVertex
100
AcDb2dVertex
 10
88.9733777555343
 20
-131.8658638559223
 30
0.0
  0
VERTEX
  5
B3
330
B1
100
AcDbEntity
  8
_U+30EC_U+30A4_U+30E4_U+30FC 1
 62
   179
420
  2234388
370
     9
100
AcDbVertex
100
AcDb2dVertex
 10
91.4335065562258
 20
-131.8658638559223
 30
0.0
  0
SEQEND
  5
B4
330
B1
100
AcDbEntity
  8
_U+30EC_U+30A4_U+30E4_U+30FC 1
 62
   179
420
  2234388
370
     9
  0
INSERT
  5
B6
330
1F
100
AcDbEntity
  8
_U+30EC_U+30A4_U+30E4_U+30FC 1
100
AcDbBlockReference
  2
block 3
 10
0.0
 20
0.0
 30
0.0
  0
POLYLINE
  5
BB
330
1F
100
AcDbEntity
  8
_U+30EC_U+30A4_U+30E4_U+30FC 1
 62
   179
420
  2234388
370
     9
100
AcDb2dPolyline
 66
     1
 10
0.0
 20
0.0
 30
0.0
  0
VERTEX
  5
BC
330
BB
100
AcDbEntity
  8
_U+30EC_U+30A4_U+30E4_U+30FC 1
 62
   179
420
  2234388
370
     9
100
AcDbVertex
100
AcDb2dVertex
 10
90.43341685951799
 20
-131.8658638559223
 30
0.0
  0
VERTEX
  5
BD
330
BB
100
AcDbEntity
  8
_U+30EC_U+30A4_U+30E4_U+30FC 1
 62
   179
420
  2234388
370
     9
100
AcDbVertex
100
AcDb2dVertex
 10
90.43341685951799
 20
-126.865626912728
 30
0.0
  0
SEQEND
  5
BE
330
BB
100
AcDbEntity
  8
_U+30EC_U+30A4_U+30E4_U+30FC 1
 62
   179
420
  2234388
370
     9
  0
POLYLINE
  5
BF
330
1F
100
AcDbEntity
  8
_U+30EC_U+30A4_U+30E4_U+30FC 1
 62
   179
420
  2234388
370
     9
100
AcDb2dPolyline
 66
     1
 10
0.0
 20
0.0
 30
0.0
  0
VERTEX
  5
C0
330
BF
100
AcDbEntity
  8
_U+30EC_U+30A4_U+30E4_U+30FC 1
 62
   179
420
  2234388
370
     9
100
AcDbVertex
100
AcDb2dVertex
 10
88.9733777555343
 20
-126.865626912728
 30
0.0
  0
VERTEX
  5
C1
330
BF
100
AcDbEntity
  8
_U+30EC_U+30A4_U+30E4_U+30FC 1
 62
   179
420
  2234388
370
     9
100
AcDbVertex
100
AcDb2dVertex
 10
91.4335065562258
 20
-126.865626912728
 30
0.0
  0
SEQEND
  5
C2
330
BF
100
AcDbEntity
  8
_U+30EC_U+30A4_U+30E4_U+30FC 1
 62
   179
420
  2234388
370
     9
  0
INSERT
  5
C4
330
1F
100
AcDbEntity
  8
_U+30EC_U+30A4_U+30E4_U+30FC 1
100
AcDbBlockReference
  2
block 4
 10
0.0
 20
0.0
 30
0.0
  0
POLYLINE
  5
C9
330
1F
100
AcDbEntity
  8
_U+30EC_U+30A4_U+30E4_U+30FC 1
 62
   179
420
  2234388
370
     9
100
AcDb2dPolyline
 66
     1
 10
0.0
 20
0.0
 30
0.0
  0
VERTEX
  5
CA
330
C9
100
AcDbEntity
  8
_U+30EC_U+30A4_U+30E4_U+30FC 1
 62
   179
420
  2234388
370
     9
100
AcDbVertex
100
AcDb2dVertex
 10
82.78321927691302
 20
-119.6657499700836
 30
0.0
  0
VERTEX
  5
CB
330
C9
100
AcDbEntity
  8
_U+30EC_U+30A4_U+30E4_U+30FC 1
 62
   179
420
  2234388
370
     9
100
AcDbVertex
100
AcDb2dVertex
 10
107.7832391946649
 20
-119.6657499700836
 30
0.0
  0
SEQEND
  5
CC
330
C9
100
AcDbEntity
  8
_U+30EC_U+30A4_U+30E4_U+30FC 1
 62
   179
420
  2234388
370
     9
  0
POLYLINE
  5
CD
330
1F
100
AcDbEntity
  8
_U+30EC_U+30A4_U+30E4_U+30FC 1
 62
   179
420
  2234388
370
     9
100
AcDb2dPolyline
 66
     1
 10
0.0
 20
0.0
 30
0.0
  0
VERTEX
  5
CE
330
CD
100
AcDbEntity
  8
_U+30EC_U+30A4_U+30E4_U+30FC 1
 62
   179
420
  2234388
370
     9
100
AcDbVertex
100
AcDb2dVertex
 10
82.78321927691302
 20
-121.1257560808298
 30
0.0
  0
VERTEX
  5
CF
330
CD
100
AcDbEntity
  8
_U+30EC_U+30A4_U+30E4_U+30FC 1
 62
   179
420
  2234388
370
     9
100
AcDbVertex
100
AcDb2dVertex
 10
82.78321927691302
 20
-118.6656249703336
 30
0.0
  0
SEQEND
  5
D0
330
CD
100
AcDbEntity
  8
_U+30EC_U+30A4_U+30E4_U+30FC 1
 62
   179
420
  2234388
370
     9
  0
POLYLINE
  5
D1
330
1F
100
AcDbEntity
  8
_U+30EC_U+30A4_U+30E4_U+30FC 1
 62
   179
420
  2234388
370
     9
100
AcDb2dPolyline
 66
     1
 10
0.0
 20
0.0
 30
0.0
  0
VERTEX
  5
D2
330
D1
100
AcDbEntity
  8
_U+30EC_U+30A4_U+30E4_U+30FC 1
 62
   179
420
  2234388
370
     9
100
AcDbVertex
100
AcDb2dVertex
 10
107.7832391946649
 20
-122.325694413863
 30
0.0
  0
VERTEX
  5
D3
330
D1
100
AcDbEntity
  8
_U+30EC_U+30A4_U+30E4_U+30FC 1
 62
   179
420
  2234388
370
     9
100
AcDbVertex
100
AcDb2dVertex
 10
107.7832391946649
 20
-118.6656249703336
 30
0.0
  0
SEQEND
  5
D4
330
D1
100
AcDbEntity
  8
_U+30EC_U+30A4_U+30E4_U+30FC 1
 62
   179
420
  2234388
370
     9
  0
INSERT
  5
D6
330
1F
100
AcDbEntity
  8
_U+30EC_U+30A4_U+30E4_U+30FC 1
100
AcDbBlockReference
  2
block 5
 10
0.0
 20
0.0
 30
0.0
  0
POLYLINE
  5
DD
330
1F
100
AcDbEntity
  8
_U+30EC_U+30A4_U+30E4_U+30FC 1
 62
   179
420
  2234388
370
     9
100
AcDb2dPolyline
 66
     1
 10
0.0
 20
0.0
 30
0.0
  0
VERTEX
  5
DE
330
DD
100
AcDbEntity
  8
_U+30EC_U+30A4_U+30E4_U+30FC 1
 62
   179
420
  2234388
370
     9
100
AcDbVertex
100
AcDb2dVertex
 10
78.7834602122887
 20
-123.6658266357504
 30
0.0
  0
VERTEX
  5
DF
330
DD
100
AcDbEntity
  8
_U+30EC_U+30A4_U+30E4_U+30FC 1
 62
   179
420
  2234388
370
     9
100
AcDbVertex
100
AcDb2dVertex
 10
78.7834602122887
 20
-118.4079208037315
 30
0.0
  0
SEQEND
  5
E0
330
DD
100
AcDbEntity
  8
_U+30EC_U+30A4_U+30E4_U+30FC 1
 62
   179
420
  2234388
370
     9
  0
POLYLINE
  5
E1
330
1F
100
AcDbEntity
  8
_U+30EC_U+30A4_U+30E4_U+30FC 1
 62
   179
420
  2234388
370
     9
100
AcDb2dPolyline
 66
     1
 10
0.0
 20
0.0
 30
0.0
  0
VERTEX
  5
E2
330
E1
100
AcDbEntity
  8
_U+30EC_U+30A4_U+30E4_U+30FC 1
 62
   179
420
  2234388
370
     9
100
AcDbVertex
100
AcDb2dVertex
 10
78.7834602122887
 20
-123.6658266357504
 30
0.0
  0
VERTEX
  5
E3
330
E1
100
AcDbEntity
  8
_U+30EC_U+30A4_U+30E4_U+30FC 1
 62
   179
420
  2234388
370
     9
100
AcDbVertex
100
AcDb2dVertex
 10
78.7834602122887
 20
-124.8657649687836
 30
0.0
  0
SEQEND
  5
E4
330
E1
100
AcDbEntity
  8
_U+30EC_U+30A4_U+30E4_U+30FC 1
 62
   179
420
  2234388
370
     9
  0
POLYLINE
  5
E5
330
1F
100
AcDbEntity
  8
_U+30EC_U+30A4_U+30E4_U+30FC 1
 62
   179
420
  2234388
370
     9
100
AcDb2dPolyline
 66
     1
 10
0.0
 20
0.0
 30
0.0
  0
VERTEX
  5
E6
330
E5
100
AcDbEntity
  8
_U+30EC_U+30A4_U+30E4_U+30FC 1
 62
   179
420
  2234388
370
     9
100
AcDbVertex
100
AcDb2dVertex
 10
80.24350156392883
 20
-123.6658266357504
 30
0.0
  0
VERTEX
  5
E7
330
E5
100
AcDbEntity
  8
_U+30EC_U+30A4_U+30E4_U+30FC 1
 62
   179
420
  2234388
370
     9
100
AcDbVertex
100
AcDb2dVertex
 10
77.7833705155809
 20
-123.6658266357504
 30
0.0
  0
SEQEND
  5
E8
330
E5
100
AcDbEntity
  8
_U+30EC_U+30A4_U+30E4_U+30FC 1
 62
   179
420
  2234388
370
     9
  0
POLYLINE
  5
E9
330
1F
100
AcDbEntity
  8
_U+30EC_U+30A4_U+30E4_U+30FC 1
 62
   179
420
  2234388
370
     9
100
AcDb2dPolyline
 66
     1
 10
0.0
 20
0.0
 30
0.0
  0
VERTEX
  5
EA
330
E9
100
AcDbEntity
  8
_U+30EC_U+30A4_U+30E4_U+30FC 1
 62
   179
420
  2234388
370
     9
100
AcDbVertex
100
AcDb2dVertex
 10
80.24350156392883
 20
-124.8657649687836
 30
0.0
  0
VERTEX
  5
EB
330
E9
100
AcDbEntity
  8
_U+30EC_U+30A4_U+30E4_U+30FC 1
 62
   179
420
  2234388
370
     9
100
AcDbVertex
100
AcDb2dVertex
 10
77.7833705155809
 20
-124.8657649687836
 30
0.0
  0
SEQEND
  5
EC
330
E9
100
AcDbEntity
  8
_U+30EC_U+30A4_U+30E4_U+30FC 1
 62
   179
420
  2234388
370
     9
  0
INSERT
  5
EE
330
1F
100
AcDbEntity
  8
_U+30EC_U+30A4_U+30E4_U+30FC 1
100
AcDbBlockReference
  2
block 6
 10
0.0
 20
0.0
 30
0.0
  0
POLYLINE
  5
FD
330
1F
100
AcDbEntity
  8
_U+30EC_U+30A4_U+30E4_U+30FC 1
 62
   179
420
  2234388
370
     9
100
AcDb2dPolyline
 66
     1
 10
0.0
 20
0.0
 30
0.0
  0
VERTEX
  5
FE
330
FD
100
AcDbEntity
  8
_U+30EC_U+30A4_U+30E4_U+30FC 1
 62
   179
420
  2234388
370
     9
100
AcDbVertex
100
AcDb2dVertex
 10
78.7834602122887
 20
-124.8657649687836
 30
0.0
  0
VERTEX
  5
FF
330
FD
100
AcDbEntity
  8
_U+30EC_U+30A4_U+30E4_U+30FC 1
 62
   179
420
  2234388
370
     9
100
AcDbVertex
100
AcDb2dVertex
 10
78.7834602122887
 20
-141.8655969089779
 30
0.0
  0
SEQEND
  5
100
330
FD
100
AcDbEntity
  8
_U+30EC_U+30A4_U+30E4_U+30FC 1
 62
   179
420
  2234388
370
     9
  0
POLYLINE
  5
101
330
1F
100
AcDbEntity
  8
_U+30EC_U+30A4_U+30E4_U+30FC 1
 62
   179
420
  2234388
370
     9
100
AcDb2dPolyline
 66
     1
 10
0.0
 20
0.0
 30
0.0
  0
VERTEX
  5
102
330
101
100
AcDbEntity
  8
_U+30EC_U+30A4_U+30E4_U+30FC 1
 62
   179
420
  2234388
370
     9
100
AcDbVertex
100
AcDb2dVertex
 10
82.24339873512943
 20
-141.8655969089779
 30
0.0
  0
VERTEX
  5
103
330
101
100
AcDbEntity
  8
_U+30EC_U+30A4_U+30E4_U+30FC 1
 62
   179
420
  2234388
370
     9
100
AcDbVertex
100
AcDb2dVertex
 10
77.7833705155809
 20
-141.8655969089779
 30
0.0
  0
SEQEND
  5
104
330
101
100
AcDbEntity
  8
_U+30EC_U+30A4_U+30E4_U+30FC 1
 62
   179
420
  2234388
370
     9
  0
INSERT
  5
106
330
1F
100
AcDbEntity
  8
_U+30EC_U+30A4_U+30E4_U+30FC 1
100
AcDbBlockReference
  2
block 7
 10
0.0
 20
0.0
 30
0.0
  0
ENDSEC
  0
SECTION
  2
OBJECTS
  0
DICTIONARY
  5
C
330
0
100
AcDbDictionary
281
     1
  3
ACAD_GROUP
350
D
  3
ACAD_LAYOUT
350
1A
  3
ACAD_MATERIAL
350
3B
  3
ACAD_MLEADERSTYLE
350
10E
  3
ACAD_MLINESTYLE
350
17
  3
ACAD_PLOTSETTINGS
350
19
  3
ACAD_PLOTSTYLENAME
350
E
  3
ACAD_TABLESTYLE
350
10D
  3
ACAD_VISUALSTYLE
350
2A
  0
SUN
  5
3F
330
29
100
AcDbSun
 90
        1
290
     0
 63
     7
421
 16777215
 40
1.0
291
     1
 91
  2455826
 92
 54000000
292
     0
 70
     2
 71
   256
280
     1
  0
DICTIONARY
  5
D
102
{ACAD_REACTORS
330
C
102
}
330
C
100
AcDbDictionary
281
     1
  0
DICTIONARY
  5
1A
102
{ACAD_REACTORS
330
C
102
}
330
C
100
AcDbDictionary
281
     1
  3
Layout1
350
1E
  3
Layout2
350
26
  3
Model
350
22
  0
DICTIONARY
  5
3B
102
{ACAD_REACTORS
330
C
102
}
330
C
100
AcDbDictionary
281
     1
  3
ByBlock
350
3D
  3
ByLayer
350
3C
  3
Global
350
3E
  0
DICTIONARY
  5
10E
102
{ACAD_REACTORS
330
C
102
}
330
C
100
AcDbDictionary
281
     1
  0
DICTIONARY
  5
17
102
{ACAD_REACTORS
330
C
102
}
330
C
100
AcDbDictionary
281
     1
  3
Standard
350
18
  0
DICTIONARY
  5
19
102
{ACAD_REACTORS
330
C
102
}
330
C
100
AcDbDictionary
281
     1
  0
ACDBDICTIONARYWDFLT
  5
E
102
{ACAD_REACTORS
330
C
102
}
330
C
100
AcDbDictionary
281
     1
  3
Normal
350
F
100
AcDbDictionaryWithDefault
340
F
  0
DICTIONARY
  5
10D
102
{ACAD_REACTORS
330
C
102
}
330
C
100
AcDbDictionary
281
     1
  0
DICTIONARY
  5
2A
102
{ACAD_REACTORS
330
C
102
}
330
C
100
AcDbDictionary
281
     1
  3
2dWireframe
350
2F
  3
3D Hidden
350
31
  3
3dWireframe
350
30
  3
Basic
350
32
  3
Brighten
350
36
  3
ColorChange
350
3A
  3
Conceptual
350
34
  3
Dim
350
35
  3
Facepattern
350
39
  3
Flat
350
2B
  3
FlatWithEdges
350
2C
  3
Gouraud
350
2D
  3
GouraudWithEdges
350
2E
  3
Linepattern
350
38
  3
Realistic
350
33
  3
Thicken
350
37
  0
LAYOUT
  5
1E
102
{ACAD_REACTORS
330
1A
102
}
330
1A
100
AcDbPlotSettings
  1

  2
none_device
  4

  6

 40
0.0
 41
0.0
 42
0.0
 43
0.0
 44
0.0
 45
0.0
 46
0.0
 47
0.0
 48
0.0
 49
0.0
140
0.0
141
0.0
142
1.0
143
1.0
 70
   688
 72
     0
 73
     0
 74
     5
  7

 75
    16
 76
     0
 77
     2
 78
   300
147
1.0
148
0.0
149
0.0
100
AcDbLayout
  1
Layout1
 70
     1
 71
     1
 10
0.0
 20
0.0
 11
12.0
 21
9.0
 12
0.0
 22
0.0
 32
0.0
 14
1.000000000000000E+20
 24
1.000000000000000E+20
 34
1.000000000000000E+20
 15
-1.000000000000000E+20
 25
-1.000000000000000E+20
 35
-1.000000000000000E+20
146
0.0
 13
0.0
 23
0.0
 33
0.0
 16
1.0
 26
0.0
 36
0.0
 17
0.0
 27
1.0
 37
0.0
 76
     0
330
1B
  0
LAYOUT
  5
26
102
{ACAD_REACTORS
330
1A
102
}
330
1A
100
AcDbPlotSettings
  1

  2
none_device
  4

  6

 40
0.0
 41
0.0
 42
0.0
 43
0.0
 44
0.0
 45
0.0
 46
0.0
 47
0.0
 48
0.0
 49
0.0
140
0.0
141
0.0
142
1.0
143
1.0
 70
   688
 72
     0
 73
     0
 74
     5
  7

 75
    16
 76
     0
 77
     2
 78
   300
147
1.0
148
0.0
149
0.0
100
AcDbLayout
  1
Layout2
 70
     1
 71
     2
 10
0.0
 20
0.0
 11
0.0
 21
0.0
 12
0.0
 22
0.0
 32
0.0
 14
0.0
 24
0.0
 34
0.0
 15
0.0
 25
0.0
 35
0.0
146
0.0
 13
0.0
 23
0.0
 33
0.0
 16
1.0
 26
0.0
 36
0.0
 17
0.0
 27
1.0
 37
0.0
 76
     0
330
23
  0
LAYOUT
  5
22
102
{ACAD_REACTORS
330
1A
102
}
330
1A
100
AcDbPlotSettings
  1

  2
none_device
  4

  6

 40
0.0
 41
0.0
 42
0.0
 43
0.0
 44
0.0
 45
0.0
 46
0.0
 47
0.0
 48
0.0
 49
0.0
140
0.0
141
0.0
142
1.0
143
1.0
 70
  1712
 72
     0
 73
     0
 74
     0
  7

 75
     0
 76
     0
 77
     2
 78
   300
147
1.0
148
0.0
149
0.0
100
AcDbLayout
  1
Model
 70
     1
 71
     0
 10
0.0
 20
0.0
 11
12.0
 21
9.0
 12
0.0
 22
0.0
 32
0.0
 14
1.000000000000000E+20
 24
1.000000000000000E+20
 34
1.000000000000000E+20
 15
-1.000000000000000E+20
 25
-1.000000000000000E+20
 35
-1.000000000000000E+20
146
0.0
 13
0.0
 23
0.0
 33
0.0
 16
1.0
 26
0.0
 36
0.0
 17
0.0
 27
1.0
 37
0.0
 76
     0
330
1F
331
29
  0
MATERIAL
  5
3D
102
{ACAD_REACTORS
330
3B
102
}
330
3B
100
AcDbMaterial
  1
ByBlock
 72
     1
 94
      127
  0
MATERIAL
  5
3C
102
{ACAD_REACTORS
330
3B
102
}
330
3B
100
AcDbMaterial
  1
ByLayer
 72
     1
 94
      127
  0
MATERIAL
  5
3E
102
{ACAD_REACTORS
330
3B
102
}
330
3B
100
AcDbMaterial
  1
Global
 72
     1
 94
      127
  0
MLINESTYLE
  5
18
102
{ACAD_REACTORS
330
17
102
}
330
17
100
AcDbMlineStyle
  2
Standard
 70
     0
  3

 62
   256
 51
90.0
 52
90.0
 71
     2
 49
0.5
 62
   256
  6
BYLAYER
 49
-0.5
 62
   256
  6
BYLAYER
  0
ACDBPLACEHOLDER
  5
F
102
{ACAD_REACTORS
330
E
102
}
330
E
  0
VISUALSTYLE
  5
2F
102
{ACAD_REACTORS
330
2A
102
}
330
2A
100
AcDbVisualStyle
  2
2dWireframe
 70
     4
177
     2
291
     0
 71
     0
176
     1
 72
     2
176
     1
 73
     0
176
     1
 90
        0
176
     1
 40
-0.6
176
     1
 41
-30.0
176
     1
 62
     5
 63
     7
421
 16777215
176
     1
 74
     1
176
     1
 91
        4
176
     1
 64
     7
176
     1
 65
   257
176
     1
 75
     1
176
     1
175
     1
176
     1
 42
1.0
176
     1
 92
        0
176
     1
 66
   257
176
     1
 43
1.0
176
     1
 76
     1
176
     1
 77
     6
176
     1
 78
     2
176
     1
 67
     7
176
     1
 79
     5
176
     1
170
     0
176
     1
171
     0
176
     1
290
     0
176
     1
 93
        1
176
     1
 44
0.0
176
     1
173
     0
176
     1
  0
VISUALSTYLE
  5
31
102
{ACAD_REACTORS
330
2A
102
}
330
2A
100
AcDbVisualStyle
  2
3D Hidden
 70
     6
177
     2
291
     0
 71
     1
176
     1
 72
     2
176
     1
 73
     2
176
     1
 90
        0
176
     1
 40
-0.6
176
     1
 41
-30.0
176
     1
 62
     5
 63
     7
421
 16777215
176
     1
 74
     2
176
     1
 91
        2
176
     1
 64
     7
176
     1
 65
   257
176
     1
 75
     2
176
     1
175
     1
176
     1
 42
40.0
176
     1
 92
        0
176
     1
 66
   257
176
     1
 43
1.0
176
     1
 76
     1
176
     1
 77
     6
176
     1
 78
     2
176
     1
 67
     7
176
     1
 79
     3
176
     1
170
     0
176
     1
171
     0
176
     1
290
     0
176
     1
 93
        1
176
     1
 44
0.0
176
     1
173
     0
176
     1
  0
VISUALSTYLE
  5
30
102
{ACAD_REACTORS
330
2A
102
}
330
2A
100
AcDbVisualStyle
  2
3dWireframe
 70
     5
177
     2
291
     0
 71
     0
176
     1
 72
     2
176
     1
 73
     0
176
     1
 90
        0
176
     1
 40
-0.6
176
     1
 41
-30.0
176
     1
 62
     5
 63
     7
421
 16777215
176
     1
 74
     1
176
     1
 91
        4
176
     1
 64
     7
176
     1
 65
   257
176
     1
 75
     1
176
     1
175
     1
176
     1
 42
1.0
176
     1
 92
        0
176
     1
 66
   257
176
     1
 43
1.0
176
     1
 76
     1
176
     1
 77
     6
176
     1
 78
     2
176
     1
 67
     7
176
     1
 79
     5
176
     1
170
     0
176
     1
171
     0
176
     1
290
     0
176
     1
 93
        1
176
     1
 44
0.0
176
     1
173
     0
176
     1
  0
VISUALSTYLE
  5
32
102
{ACAD_REACTORS
330
2A
102
}
330
2A
100
AcDbVisualStyle
  2
Basic
 70
     7
177
     2
291
     1
 71
     1
176
     1
 72
     0
176
     1
 73
     1
176
     1
 90
        0
176
     1
 40
-0.6
176
     1
 41
-30.0
176
     1
 62
     5
 63
     7
421
 16777215
176
     1
 74
     0
176
     1
 91
        4
176
     1
 64
     7
176
     1
 65
   257
176
     1
 75
     1
176
     1
175
     1
176
     1
 42
1.0
176
     1
 92
        8
176
     1
 66
     7
176
     1
 43
1.0
176
     1
 76
     1
176
     1
 77
     6
176
     1
 78
     2
176
     1
 67
     7
176
     1
 79
     5
176
     1
170
     0
176
     1
171
     0
176
     1
290
     0
176
     1
 93
        1
176
     1
 44
0.0
176
     1
173
     0
176
     1
  0
VISUALSTYLE
  5
36
102
{ACAD_REACTORS
330
2A
102
}
330
2A
100
AcDbVisualStyle
  2
Brighten
 70
    12
177
     2
291
     1
 71
     2
176
     1
 72
     2
176
     1
 73
     0
176
     1
 90
        0
176
     1
 40
-0.6
176
     1
 41
-30.0
176
     1
 62
     5
 63
     7
421
 16777215
176
     1
 74
     1
176
     1
 91
        4
176
     1
 64
     7
176
     1
 65
   257
176
     1
 75
     1
176
     1
175
     1
176
     1
 42
1.0
176
     1
 92
        8
176
     1
 66
     7
176
     1
 43
1.0
176
     1
 76
     1
176
     1
 77
     6
176
     1
 78
     2
176
     1
 67
     7
176
     1
 79
     5
176
     1
170
     0
176
     1
171
     0
176
     1
290
     0
176
     1
 93
        1
176
     1
 44
50.0
176
     1
173
     0
176
     1
  0
VISUALSTYLE
  5
3A
102
{ACAD_REACTORS
330
2A
102
}
330
2A
100
AcDbVisualStyle
  2
ColorChange
 70
    16
177
     2
291
     1
 71
     2
176
     1
 72
     2
176
     1
 73
     3
176
     1
 90
        0
176
     1
 40
-0.6
176
     1
 41
-30.0
176
     1
 62
     5
 63
     8
421
  8421504
176
     1
 74
     1
176
     1
 91
        4
176
     1
 64
     7
176
     1
 65
   257
176
     1
 75
     1
176
     1
175
     1
176
     1
 42
1.0
176
     1
 92
        8
176
     1
 66
     8
424
  8421504
176
     1
 43
1.0
176
     1
 76
     1
176
     1
 77
     6
176
     1
 78
     2
176
     1
 67
     7
176
     1
 79
     5
176
     1
170
     0
176
     1
171
     0
176
     1
290
     0
176
     1
 93
        1
176
     1
 44
0.0
176
     1
173
     0
176
     1
  0
VISUALSTYLE
  5
34
102
{ACAD_REACTORS
330
2A
102
}
330
2A
100
AcDbVisualStyle
  2
Conceptual
 70
     9
177
     2
291
     0
 71
     3
176
     1
 72
     2
176
     1
 73
     0
176
     1
 90
        0
176
     1
 40
-0.6
176
     1
 41
-30.0
176
     1
 62
     5
 63
     7
421
 16777215
176
     1
 74
     2
176
     1
 91
        2
176
     1
 64
     7
176
     1
 65
   257
176
     1
 75
     1
176
     1
175
     1
176
     1
 42
40.0
176
     1
 92
        8
176
     1
 66
     7
176
     1
 43
1.0
176
     1
 76
     1
176
     1
 77
     6
176
     1
 78
     2
176
     1
 67
     7
176
     1
 79
     3
176
     1
170
     0
176
     1
171
     0
176
     1
290
     0
176
     1
 93
        1
176
     1
 44
0.0
176
     1
173
     0
176
     1
  0
VISUALSTYLE
  5
35
102
{ACAD_REACTORS
330
2A
102
}
330
2A
100
AcDbVisualStyle
  2
Dim
 70
    11
177
     2
291
     1
 71
     2
176
     1
 72
     2
176
     1
 73
     0
176
     1
 90
        0
176
     1
 40
-0.6
176
     1
 41
-30.0
176
     1
 62
     5
 63
     7
421
 16777215
176
     1
 74
     1
176
     1
 91
        4
176
     1
 64
     7
176
     1
 65
   257
176
     1
 75
     1
176
     1
175
     1
176
     1
 42
1.0
176
     1
 92
        8
176
     1
 66
     7
176
     1
 43
1.0
176
     1
 76
     1
176
     1
 77
     6
176
     1
 78
     2
176
     1
 67
     7
176
     1
 79
     5
176
     1
170
     0
176
     1
171
     0
176
     1
290
     0
176
     1
 93
        1
176
     1
 44
-50.0
176
     1
173
     0
176
     1
  0
VISUALSTYLE
  5
39
102
{ACAD_REACTORS
330
2A
102
}
330
2A
100
AcDbVisualStyle
  2
Facepattern
 70
    15
177
     2
291
     1
 71
     2
176
     1
 72
     2
176
     1
 73
     0
176
     1
 90
        0
176
     1
 40
-0.6
176
     1
 41
-30.0
176
     1
 62
     5
 63
     7
421
 16777215
176
     1
 74
     1
176
     1
 91
        4
176
     1
 64
     7
176
     1
 65
   257
176
     1
 75
     1
176
     1
175
     1
176
     1
 42
1.0
176
     1
 92
        8
176
     1
 66
     7
176
     1
 43
1.0
176
     1
 76
     1
176
     1
 77
     6
176
     1
 78
     2
176
     1
 67
     7
176
     1
 79
     5
176
     1
170
     0
176
     1
171
     0
176
     1
290
     0
176
     1
 93
        1
176
     1
 44
0.0
176
     1
173
     0
176
     1
  0
VISUALSTYLE
  5
2B
102
{ACAD_REACTORS
330
2A
102
}
330
2A
100
AcDbVisualStyle
  2
Flat
 70
     0
177
     2
291
     1
 71
     2
176
     1
 72
     1
176
     1
 73
     1
176
     1
 90
        2
176
     1
 40
-0.6
176
     1
 41
30.0
176
     1
 62
     5
 63
     7
421
 16777215
176
     1
 74
     0
176
     1
 91
        4
176
     1
 64
     7
176
     1
 65
   257
176
     1
 75
     1
176
     1
175
     1
176
     1
 42
1.0
176
     1
 92
        8
176
     1
 66
     7
176
     1
 43
1.0
176
     1
 76
     1
176
     1
 77
     6
176
     1
 78
     2
176
     1
 67
     7
176
     1
 79
     5
176
     1
170
     0
176
     1
171
     0
176
     1
290
     0
176
     1
 93
       13
176
     1
 44
0.0
176
     1
173
     0
176
     1
  0
VISUALSTYLE
  5
2C
102
{ACAD_REACTORS
330
2A
102
}
330
2A
100
AcDbVisualStyle
  2
FlatWithEdges
 70
     1
177
     2
291
     1
 71
     2
176
     1
 72
     1
176
     1
 73
     1
176
     1
 90
        2
176
     1
 40
-0.6
176
     1
 41
30.0
176
     1
 62
     5
 63
     7
421
 16777215
176
     1
 74
     1
176
     1
 91
        4
176
     1
 64
     7
176
     1
 65
   257
176
     1
 75
     1
176
     1
175
     1
176
     1
 42
1.0
176
     1
 92
        0
176
     1
 66
   257
176
     1
 43
1.0
176
     1
 76
     1
176
     1
 77
     6
176
     1
 78
     2
176
     1
 67
     7
176
     1
 79
     5
176
     1
170
     0
176
     1
171
     0
176
     1
290
     0
176
     1
 93
       13
176
     1
 44
0.0
176
     1
173
     0
176
     1
  0
VISUALSTYLE
  5
2D
102
{ACAD_REACTORS
330
2A
102
}
330
2A
100
AcDbVisualStyle
  2
Gouraud
 70
     2
177
     2
291
     1
 71
     2
176
     1
 72
     2
176
     1
 73
     1
176
     1
 90
        2
176
     1
 40
-0.6
176
     1
 41
30.0
176
     1
 62
     5
 63
     7
421
 16777215
176
     1
 74
     0
176
     1
 91
        4
176
     1
 64
     7
176
     1
 65
   257
176
     1
 75
     1
176
     1
175
     1
176
     1
 42
1.0
176
     1
 92
        0
176
     1
 66
     7
176
     1
 43
1.0
176
     1
 76
     1
176
     1
 77
     6
176
     1
 78
     2
176
     1
 67
     7
176
     1
 79
     5
176
     1
170
     0
176
     1
171
     0
176
     1
290
     0
176
     1
 93
       13
176
     1
 44
0.0
176
     1
173
     0
176
     1
  0
VISUALSTYLE
  5
2E
102
{ACAD_REACTORS
330
2A
102
}
330
2A
100
AcDbVisualStyle
  2
GouraudWithEdges
 70
     3
177
     2
291
     1
 71
     2
176
     1
 72
     2
176
     1
 73
     1
176
     1
 90
        2
176
     1
 40
-0.6
176
     1
 41
30.0
176
     1
 62
     5
 63
     7
421
 16777215
176
     1
 74
     1
176
     1
 91
        4
176
     1
 64
     7
176
     1
 65
   257
176
     1
 75
     1
176
     1
175
     1
176
     1
 42
1.0
176
     1
 92
        0
176
     1
 66
   257
176
     1
 43
1.0
176
     1
 76
     1
176
     1
 77
     6
176
     1
 78
     2
176
     1
 67
     7
176
     1
 79
     5
176
     1
170
     0
176
     1
171
     0
176
     1
290
     0
176
     1
 93
       13
176
     1
 44
0.0
176
     1
173
     0
176
     1
  0
VISUALSTYLE
  5
38
102
{ACAD_REACTORS
330
2A
102
}
330
2A
100
AcDbVisualStyle
  2
Linepattern
 70
    14
177
     2
291
     1
 71
     2
176
     1
 72
     2
176
     1
 73
     0
176
     1
 90
        0
176
     1
 40
-0.6
176
     1
 41
-30.0
176
     1
 62
     5
 63
     7
421
 16777215
176
     1
 74
     1
176
     1
 91
        4
176
     1
 64
     7
176
     1
 65
   257
176
     1
 75
     7
176
     1
175
     7
176
     1
 42
1.0
176
     1
 92
        8
176
     1
 66
     7
176
     1
 43
1.0
176
     1
 76
     1
176
     1
 77
     6
176
     1
 78
     2
176
     1
 67
     7
176
     1
 79
     5
176
     1
170
     0
176
     1
171
     0
176
     1
290
     0
176
     1
 93
        1
176
     1
 44
0.0
176
     1
173
     0
176
     1
  0
VISUALSTYLE
  5
33
102
{ACAD_REACTORS
330
2A
102
}
330
2A
100
AcDbVisualStyle
  2
Realistic
 70
     8
177
     2
291
     0
 71
     2
176
     1
 72
     2
176
     1
 73
     0
176
     1
 90
        0
176
     1
 40
-0.6
176
     1
 41
-30.0
176
     1
 62
     5
 63
     7
421
 16777215
176
     1
 74
     1
176
     1
 91
        0
176
     1
 64
     7
176
     1
 65
   257
176
     1
 75
     1
176
     1
175
     1
176
     1
 42
1.0
176
     1
 92
        8
176
     1
 66
     8
424
  7895160
176
     1
 43
1.0
176
     1
 76
     1
176
     1
 77
     6
176
     1
 78
     2
176
     1
 67
     7
176
     1
 79
     5
176
     1
170
     0
176
     1
171
     0
176
     1
290
     0
176
     1
 93
       13
176
     1
 44
0.0
176
     1
173
     0
176
     1
  0
VISUALSTYLE
  5
37
102
{ACAD_REACTORS
330
2A
102
}
330
2A
100
AcDbVisualStyle
  2
Thicken
 70
    13
177
     2
291
     1
 71
     2
176
     1
 72
     2
176
     1
 73
     0
176
     1
 90
        0
176
     1
 40
-0.6
176
     1
 41
-30.0
176
     1
 62
     5
 63
     7
421
 16777215
176
     1
 74
     1
176
     1
 91
        4
176
     1
 64
     7
176
     1
 65
   257
176
     1
 75
     1
176
     1
175
     1
176
     1
 42
1.0
176
     1
 92
       12
176
     1
 66
     7
176
     1
 43
1.0
176
     1
 76
     1
176
     1
 77
     6
176
     1
 78
     2
176
     1
 67
     7
176
     1
 79
     5
176
     1
170
     0
176
     1
171
     0
176
     1
290
     0
176
     1
 93
        1
176
     1
 44
0.0
176
     1
173
     0
176
     1
  0
ENDSEC
  0
EOF
