  0
SECTION
  2
HEADER
  9
$ACADVER
  1
AC1024
  9
$ACADMAINTVER
 70
     6
  9
$DWGCODEPAGE
  3
UNDEFINED
  9
$INSBASE
 10
0.0
 20
0.0
 30
0.0
  9
$EXTMIN
 10
1.000000000000000E+20
 20
1.000000000000000E+20
 30
1.000000000000000E+20
  9
$EXTMAX
 10
-1.000000000000000E+20
 20
-1.000000000000000E+20
 30
-1.000000000000000E+20
  9
$LIMMIN
 10
0.0
 20
0.0
  9
$LIMMAX
 10
12.0
 20
9.0
  9
$ORTHOMODE
 70
     0
  9
$REGENMODE
 70
     1
  9
$FILLMODE
 70
     1
  9
$QTEXTMODE
 70
     0
  9
$MIRRTEXT
 70
     1
  9
$LTSCALE
 40
1.0
  9
$ATTMODE
 70
     1
  9
$TEXTSIZE
 40
0.2
  9
$TRACEWID
 40
0.05
  9
$TEXTSTYLE
  7
Standard
  9
$CLAYER
  8
0
  9
$CELTYPE
  6
ByLayer
  9
$CECOLOR
 62
   256
  9
$CELTSCALE
 40
1.0
  9
$DISPSILH
 70
     0
  9
$DIMSCALE
 40
1.0
  9
$DIMASZ
 40
0.18
  9
$DIMEXO
 40
0.0625
  9
$DIMDLI
 40
0.38
  9
$DIMRND
 40
0.0
  9
$DIMDLE
 40
0.0
  9
$DIMEXE
 40
0.18
  9
$DIMTP
 40
0.0
  9
$DIMTM
 40
0.0
  9
$DIMTXT
 40
0.18
  9
$DIMCEN
 40
0.09
  9
$DIMTSZ
 40
0.0
  9
$DIMTOL
 70
     0
  9
$DIMLIM
 70
     0
  9
$DIMTIH
 70
     1
  9
$DIMTOH
 70
     1
  9
$DIMSE1
 70
     0
  9
$DIMSE2
 70
     0
  9
$DIMTAD
 70
     0
  9
$DIMZIN
 70
     0
  9
$DIMBLK
  1

  9
$DIMASO
 70
     1
  9
$DIMSHO
 70
     1
  9
$DIMPOST
  1

  9
$DIMAPOST
  1

  9
$DIMALT
 70
     0
  9
$DIMALTD
 70
     2
  9
$DIMALTF
 40
25.4
  9
$DIMLFAC
 40
1.0
  9
$DIMTOFL
 70
     0
  9
$DIMTVP
 40
0.0
  9
$DIMTIX
 70
     0
  9
$DIMSOXD
 70
     0
  9
$DIMSAH
 70
     0
  9
$DIMBLK1
  1

  9
$DIMBLK2
  1

  9
$DIMSTYLE
  2
Standard
  9
$DIMCLRD
 70
     0
  9
$DIMCLRE
 70
     0
  9
$DIMCLRT
 70
     0
  9
$DIMTFAC
 40
1.0
  9
$DIMGAP
 40
0.09
  9
$DIMJUST
 70
     0
  9
$DIMSD1
 70
     0
  9
$DIMSD2
 70
     0
  9
$DIMTOLJ
 70
     1
  9
$DIMTZIN
 70
     0
  9
$DIMALTZ
 70
     0
  9
$DIMALTTZ
 70
     0
  9
$DIMUPT
 70
     0
  9
$DIMDEC
 70
     4
  9
$DIMTDEC
 70
     4
  9
$DIMALTU
 70
     2
  9
$DIMALTTD
 70
     2
  9
$DIMTXSTY
  7
Standard
  9
$DIMAUNIT
 70
     0
  9
$DIMADEC
 70
     0
  9
$DIMALTRND
 40
0.0
  9
$DIMAZIN
 70
     0
  9
$DIMDSEP
 70
    46
  9
$DIMATFIT
 70
     3
  9
$DIMFRAC
 70
     0
  9
$DIMLDRBLK
  1

  9
$DIMLUNIT
 70
     2
  9
$DIMLWD
 70
    -2
  9
$DIMLWE
 70
    -2
  9
$DIMTMOVE
 70
     0
  9
$DIMFXL
 40
1.0
  9
$DIMFXLON
 70
     0
  9
$DIMJOGANG
 40
0.7853981633974483
  9
$DIMTFILL
 70
     0
  9
$DIMTFILLCLR
 70
     0
  9
$DIMARCSYM
 70
     0
  9
$DIMLTYPE
  6

  9
$DIMLTEX1
  6

  9
$DIMLTEX2
  6

  9
$DIMTXTDIRECTION
 70
     0
  9
$LUNITS
 70
     2
  9
$LUPREC
 70
     4
  9
$SKETCHINC
 40
0.1
  9
$FILLETRAD
 40
0.5
  9
$AUNITS
 70
     0
  9
$AUPREC
 70
     0
  9
$MENU
  1
.
  9
$ELEVATION
 40
0.0
  9
$PELEVATION
 40
0.0
  9
$THICKNESS
 40
0.0
  9
$LIMCHECK
 70
     0
  9
$CHAMFERA
 40
0.5
  9
$CHAMFERB
 40
0.5
  9
$CHAMFERC
 40
1.0
  9
$CHAMFERD
 40
0.0
  9
$SKPOLY
 70
     0
  9
$TDCREATE
 40
2457917.599421285
  9
$TDUCREATE
 40
2457917.224421296
  9
$TDUPDATE
 40
2457917.599421285
  9
$TDUUPDATE
 40
2457917.224421296
  9
$TDINDWG
 40
0.0000000116
  9
$TDUSRTIMER
 40
0.0000000116
  9
$USRTIMER
 70
     1
  9
$ANGBASE
 50
0.0
  9
$ANGDIR
 70
     0
  9
$PDMODE
 70
     0
  9
$PDSIZE
 40
0.0
  9
$PLINEWID
 40
0.0
  9
$SPLFRAME
 70
     0
  9
$SPLINETYPE
 70
     6
  9
$SPLINESEGS
 70
     8
  9
$HANDSEED
  5
E2
  9
$SURFTAB1
 70
     6
  9
$SURFTAB2
 70
     6
  9
$SURFTYPE
 70
     6
  9
$SURFU
 70
     6
  9
$SURFV
 70
     6
  9
$UCSBASE
  2

  9
$UCSNAME
  2

  9
$UCSORG
 10
0.0
 20
0.0
 30
0.0
  9
$UCSXDIR
 10
1.0
 20
0.0
 30
0.0
  9
$UCSYDIR
 10
0.0
 20
1.0
 30
0.0
  9
$UCSORTHOREF
  2

  9
$UCSORTHOVIEW
 70
     0
  9
$UCSORGTOP
 10
0.0
 20
0.0
 30
0.0
  9
$UCSORGBOTTOM
 10
0.0
 20
0.0
 30
0.0
  9
$UCSORGLEFT
 10
0.0
 20
0.0
 30
0.0
  9
$UCSORGRIGHT
 10
0.0
 20
0.0
 30
0.0
  9
$UCSORGFRONT
 10
0.0
 20
0.0
 30
0.0
  9
$UCSORGBACK
 10
0.0
 20
0.0
 30
0.0
  9
$PUCSBASE
  2

  9
$PUCSNAME
  2

  9
$PUCSORG
 10
0.0
 20
0.0
 30
0.0
  9
$PUCSXDIR
 10
1.0
 20
0.0
 30
0.0
  9
$PUCSYDIR
 10
0.0
 20
1.0
 30
0.0
  9
$PUCSORTHOREF
  2

  9
$PUCSORTHOVIEW
 70
     0
  9
$PUCSORGTOP
 10
0.0
 20
0.0
 30
0.0
  9
$PUCSORGBOTTOM
 10
0.0
 20
0.0
 30
0.0
  9
$PUCSORGLEFT
 10
0.0
 20
0.0
 30
0.0
  9
$PUCSORGRIGHT
 10
0.0
 20
0.0
 30
0.0
  9
$PUCSORGFRONT
 10
0.0
 20
0.0
 30
0.0
  9
$PUCSORGBACK
 10
0.0
 20
0.0
 30
0.0
  9
$USERI1
 70
     0
  9
$USERI2
 70
     0
  9
$USERI3
 70
     0
  9
$USERI4
 70
     0
  9
$USERI5
 70
     0
  9
$USERR1
 40
0.0
  9
$USERR2
 40
0.0
  9
$USERR3
 40
0.0
  9
$USERR4
 40
0.0
  9
$USERR5
 40
0.0
  9
$WORLDVIEW
 70
     1
  9
$SHADEDGE
 70
     3
  9
$SHADEDIF
 70
    70
  9
$TILEMODE
 70
     1
  9
$MAXACTVP
 70
    64
  9
$PINSBASE
 10
0.0
 20
0.0
 30
0.0
  9
$PLIMCHECK
 70
     0
  9
$PEXTMIN
 10
1.000000000000000E+20
 20
1.000000000000000E+20
 30
1.000000000000000E+20
  9
$PEXTMAX
 10
-1.000000000000000E+20
 20
-1.000000000000000E+20
 30
-1.000000000000000E+20
  9
$PLIMMIN
 10
0.0
 20
0.0
  9
$PLIMMAX
 10
12.0
 20
9.0
  9
$UNITMODE
 70
     0
  9
$VISRETAIN
 70
     1
  9
$PLINEGEN
 70
     0
  9
$PSLTSCALE
 70
     1
  9
$TREEDEPTH
 70
  3020
  9
$CMLSTYLE
  2
Standard
  9
$CMLJUST
 70
     0
  9
$CMLSCALE
 40
1.0
  9
$PROXYGRAPHICS
 70
     1
  9
$MEASUREMENT
 70
     0
  9
$CELWEIGHT
370
    -1
  9
$ENDCAPS
280
     0
  9
$JOINSTYLE
280
     0
  9
$LWDISPLAY
290
     1
  9
$INSUNITS
 70
     1
  9
$HYPERLINKBASE
  1

  9
$STYLESHEET
  1

  9
$XEDIT
290
     1
  9
$CEPSNTYPE
380
     0
  9
$PSTYLEMODE
290
     1
  9
$FINGERPRINTGUID
  2
{7A08DE40-789D-2A69-E932-EDA0E3AA7B7A}
  9
$VERSIONGUID
  2
{FAEB1C32-E019-11D5-929B-00C0DF256EC4}
  9
$EXTNAMES
290
     1
  9
$PSVPSCALE
 40
0.0
  9
$OLESTARTUP
290
     0
  9
$SORTENTS
280
   127
  9
$INDEXCTL
280
     0
  9
$HIDETEXT
280
     1
  9
$XCLIPFRAME
280
     2
  9
$HALOGAP
280
     0
  9
$OBSCOLOR
 70
   257
  9
$OBSLTYPE
280
     0
  9
$INTERSECTIONDISPLAY
280
     0
  9
$INTERSECTIONCOLOR
 70
   257
  9
$DIMASSOC
280
     2
  9
$PROJECTNAME
  1

  9
$CAMERADISPLAY
290
     0
  9
$LENSLENGTH
 40
50.0
  9
$CAMERAHEIGHT
 40
0.0
  9
$STEPSPERSEC
 40
2.0
  9
$STEPSIZE
 40
6.0
  9
$3DDWFPREC
 40
2.0
  9
$PSOLWIDTH
 40
0.25
  9
$PSOLHEIGHT
 40
4.0
  9
$LOFTANG1
 40
1.570796326794897
  9
$LOFTANG2
 40
1.570796326794897
  9
$LOFTMAG1
 40
0.0
  9
$LOFTMAG2
 40
0.0
  9
$LOFTPARAM
 70
     7
  9
$LOFTNORMALS
280
     1
  9
$LATITUDE
 40
37.795
  9
$LONGITUDE
 40
-122.394
  9
$NORTHDIRECTION
 40
0.0
  9
$TIMEZONE
 70
 -8000
  9
$LIGHTGLYPHDISPLAY
280
     1
  9
$TILEMODELIGHTSYNCH
280
     1
  9
$CMATERIAL
347
3C
  9
$SOLIDHIST
280
     1
  9
$SHOWHIST
280
     1
  9
$DWFFRAME
280
     2
  9
$DGNFRAME
280
     2
  9
$REALWORLDSCALE
290
     1
  9
$INTERFERECOLOR
 62
   256
  9
$CSHADOW
280
     0
  9
$SHADOWPLANELOCATION
 40
0.0
  0
ENDSEC
  0
SECTION
  2
CLASSES
  0
CLASS
  1
ACDBDICTIONARYWDFLT
  2
AcDbDictionaryWithDefault
  3
ObjectDBX Classes
 90
        0
 91
        4
280
     0
281
     0
  0
CLASS
  1
VISUALSTYLE
  2
AcDbVisualStyle
  3
ObjectDBX Classes
 90
     4095
 91
        4
280
     0
281
     0
  0
CLASS
  1
MATERIAL
  2
AcDbMaterial
  3
ObjectDBX Classes
 90
     1153
 91
        4
280
     0
281
     0
  0
CLASS
  1
SUN
  2
AcDbSun
  3
SCENEOE
 90
     1024
 91
        4
280
     0
281
     0
  0
ENDSEC
  0
SECTION
  2
TABLES
  0
TABLE
  2
VPORT
  5
8
330
0
100
AcDbSymbolTable
 70
     1
  0
VPORT
  5
29
330
8
100
AcDbSymbolTableRecord
100
AcDbViewportTableRecord
  2
*Active
 70
     0
 10
0.0
 20
0.0
 11
1.0
 21
1.0
 12
0.0
 22
0.0
 13
0.0
 23
0.0
 14
0.5
 24
0.5
 15
0.5
 25
0.5
 16
0.0
 26
0.0
 36
1.0
 17
91.00082462281999
 27
-128.4993055234307
 37
0.0
 40
256.9986110468615
 41
0.7081814508812795
 42
50.0
 43
0.0
 44
0.0
 50
0.0
 51
0.0
 71
     0
 72
   100
 73
     1
 74
     3
 75
     0
 76
     0
 77
     0
 78
     0
281
     0
 65
     1
110
0.0
120
0.0
130
0.0
111
1.0
121
0.0
131
0.0
112
0.0
122
1.0
132
0.0
 79
     0
146
0.0
 60
     3
 61
     5
292
     1
282
     1
141
0.0
142
0.0
 63
   250
361
3F
  0
ENDTAB
  0
TABLE
  2
LTYPE
  5
5
330
0
100
AcDbSymbolTable
 70
     1
  0
LTYPE
  5
14
330
5
100
AcDbSymbolTableRecord
100
AcDbLinetypeTableRecord
  2
ByBlock
 70
     0
  3

 72
    65
 73
     0
 40
0.0
  0
LTYPE
  5
15
330
5
100
AcDbSymbolTableRecord
100
AcDbLinetypeTableRecord
  2
ByLayer
 70
     0
  3

 72
    65
 73
     0
 40
0.0
  0
LTYPE
  5
16
330
5
100
AcDbSymbolTableRecord
100
AcDbLinetypeTableRecord
  2
Continuous
 70
     0
  3
Solid line
 72
    65
 73
     0
 40
0.0
  0
ENDTAB
  0
TABLE
  2
LAYER
  5
2
330
0
100
AcDbSymbolTable
 70
     2
  0
LAYER
  5
10
330
2
100
AcDbSymbolTableRecord
100
AcDbLayerTableRecord
  2
0
 70
     0
 62
     7
  6
Continuous
370
    -3
390
F
347
3E
  0
LAYER
  5
40
330
2
100
AcDbSymbolTableRecord
100
AcDbLayerTableRecord
  2
_U+30EC_U+30A4_U+30E4_U+30FC 1
 70
     0
 62
     7
  6
Continuous
370
    -3
390
F
347
3E
  0
ENDTAB
  0
TABLE
  2
STYLE
  5
3
330
0
100
AcDbSymbolTable
 70
     1
  0
STYLE
  5
11
330
3
100
AcDbSymbolTableRecord
100
AcDbTextStyleTableRecord
  2
Standard
 70
     0
 40
0.0
 41
1.0
 50
0.0
 71
     0
 42
0.2
  3
txt
  4

  0
ENDTAB
  0
TABLE
  2
VIEW
  5
6
330
0
100
AcDbSymbolTable
 70
     0
  0
ENDTAB
  0
TABLE
  2
UCS
  5
7
330
0
100
AcDbSymbolTable
 70
     0
  0
ENDTAB
  0
TABLE
  2
APPID
  5
9
330
0
100
AcDbSymbolTable
 70
     1
  0
APPID
  5
12
330
9
100
AcDbSymbolTableRecord
100
AcDbRegAppTableRecord
  2
ACAD
 70
     0
  0
ENDTAB
  0
TABLE
  2
DIMSTYLE
  5
A
330
0
100
AcDbSymbolTable
 70
     1
100
AcDbDimStyleTable
  0
DIMSTYLE
105
27
330
A
100
AcDbSymbolTableRecord
100
AcDbDimStyleTableRecord
  2
Standard
 70
     0
178
     0
340
11
  0
ENDTAB
  0
TABLE
  2
BLOCK_RECORD
  5
1
330
0
100
AcDbSymbolTable
 70
     7
  0
BLOCK_RECORD
  5
1F
330
1
100
AcDbSymbolTableRecord
100
AcDbBlockTableRecord
  2
*Model_Space
340
22
 70
     0
280
     1
281
     0
  0
BLOCK_RECORD
  5
1B
330
1
100
AcDbSymbolTableRecord
100
AcDbBlockTableRecord
  2
*Paper_Space
340
1E
 70
     0
280
     1
281
     0
  0
BLOCK_RECORD
  5
23
330
1
100
AcDbSymbolTableRecord
100
AcDbBlockTableRecord
  2
*Paper_Space0
340
26
 70
     0
280
     1
281
     0
  0
BLOCK_RECORD
  5
57
330
1
100
AcDbSymbolTableRecord
100
AcDbBlockTableRecord
  2
block 2
340
0
102
{BLKREFS
331
58
102
}
 70
     0
280
     1
281
     0
  0
BLOCK_RECORD
  5
65
330
1
100
AcDbSymbolTableRecord
100
AcDbBlockTableRecord
  2
block 3
340
0
102
{BLKREFS
331
66
102
}
 70
     0
280
     1
281
     0
  0
BLOCK_RECORD
  5
86
330
1
100
AcDbSymbolTableRecord
100
AcDbBlockTableRecord
  2
block 4
340
0
102
{BLKREFS
331
87
102
}
 70
     0
280
     1
281
     0
  0
BLOCK_RECORD
  5
A7
330
1
100
AcDbSymbolTableRecord
100
AcDbBlockTableRecord
  2
block 5
340
0
102
{BLKREFS
331
A8
102
}
 70
     0
280
     1
281
     0
  0
BLOCK_RECORD
  5
BF
330
1
100
AcDbSymbolTableRecord
100
AcDbBlockTableRecord
  2
block 6
340
0
102
{BLKREFS
331
C0
102
}
 70
     0
280
     1
281
     0
  0
BLOCK_RECORD
  5
D7
330
1
100
AcDbSymbolTableRecord
100
AcDbBlockTableRecord
  2
block 7
340
0
102
{BLKREFS
331
D8
102
}
 70
     0
280
     1
281
     0
  0
ENDTAB
  0
ENDSEC
  0
SECTION
  2
BLOCKS
  0
BLOCK
  5
20
330
1F
100
AcDbEntity
  8
0
100
AcDbBlockBegin
  2
*Model_Space
 70
     0
 10
0.0
 20
0.0
 30
0.0
  3
*Model_Space
  1

  0
ENDBLK
  5
21
330
1F
100
AcDbEntity
  8
0
100
AcDbBlockEnd
  0
BLOCK
  5
1C
330
1B
100
AcDbEntity
 67
     1
  8
0
100
AcDbBlockBegin
  2
*Paper_Space
 70
     0
 10
0.0
 20
0.0
 30
0.0
  3
*Paper_Space
  1

  0
ENDBLK
  5
1D
330
1B
100
AcDbEntity
 67
     1
  8
0
100
AcDbBlockEnd
  0
BLOCK
  5
24
330
23
100
AcDbEntity
  8
0
100
AcDbBlockBegin
  2
*Paper_Space0
 70
     0
 10
0.0
 20
0.0
 30
0.0
  3
*Paper_Space0
  1

  0
ENDBLK
  5
25
330
23
100
AcDbEntity
  8
0
100
AcDbBlockEnd
  0
BLOCK
  5
59
330
57
100
AcDbEntity
  8
0
100
AcDbBlockBegin
  2
block 2
 70
     0
 10
0.0
 20
0.0
 30
0.0
  3
block 2
  1

  0
SPLINE
  5
5B
330
57
100
AcDbEntity
  8
_U+30EC_U+30A4_U+30E4_U+30FC 1
370
     0
100
AcDbSpline
210
0.0
220
0.0
230
1.0
 70
    11
 71
     3
 72
    53
 73
    49
 74
     0
 42
0.0000000001
 43
0.0000000001
 12
1.0
 22
0.0
 32
0.0
 13
1.0
 23
0.0
 33
0.0
 40
0.0
 40
0.0
 40
0.0
 40
0.0
 40
1.0
 40
1.0
 40
1.0
 40
2.0
 40
2.0
 40
2.0
 40
3.0
 40
3.0
 40
3.0
 40
4.0
 40
4.0
 40
4.0
 40
5.0
 40
5.0
 40
5.0
 40
6.0
 40
6.0
 40
6.0
 40
7.0
 40
7.0
 40
7.0
 40
8.0
 40
8.0
 40
8.0
 40
9.0
 40
9.0
 40
9.0
 40
10.0
 40
10.0
 40
10.0
 40
11.0
 40
11.0
 40
11.0
 40
12.0
 40
12.0
 40
12.0
 40
13.0
 40
13.0
 40
13.0
 40
14.0
 40
14.0
 40
14.0
 40
15.0
 40
15.0
 40
15.0
 40
16.0
 40
16.0
 40
16.0
 40
16.0
 10
90.0072536667343
 20
-155.5936034767266
 30
0.0
 10
90.0072536667343
 20
-155.6718071442418
 30
0.0
 10
89.99037269885658
 20
-155.7734374610567
 30
0.0
 10
89.92698294192797
 20
-155.8750677778715
 30
0.0
 10
89.81708439594851
 20
-156.0483560807796
 30
0.0
 10
89.68582625796049
 20
-156.0697156727881
 30
0.0
 10
89.57799476927217
 20
-156.088663697957
 30
0.0
 10
89.57799476927217
 20
-156.088663697957
 30
0.0
 10
89.57799476927217
 20
-155.8664550391584
 30
0.0
 10
89.57799476927217
 20
-155.8664550391584
 30
0.0
 10
89.7767767787711
 20
-155.8116780209429
 30
0.0
 10
89.80640459994423
 20
-155.6845539975372
 30
0.0
 10
89.80640459994423
 20
-155.5915364194354
 30
0.0
 10
89.80640459994423
 20
-155.4520100522828
 30
0.0
 10
89.70684134042051
 20
-155.2997368318348
 30
0.0
 10
89.47429739516615
 20
-155.2997368318348
 30
0.0
 10
89.21832680061209
 20
-155.2997368318348
 30
0.0
 10
89.14839136226152
 20
-155.4795708161648
 30
0.0
 10
89.14839136226152
 20
-155.6001491581486
 30
0.0
 10
89.14839136226152
 20
-155.6318440366129
 30
0.0
 10
89.14839136226152
 20
-155.7734374610567
 30
0.0
 10
89.27758244295839
 20
-155.8623209245761
 30
0.0
 10
89.27758244295839
 20
-155.8623209245761
 30
0.0
 10
89.25863441778951
 20
-156.0380207943238
 30
0.0
 10
89.25863441778951
 20
-156.0380207943238
 30
0.0
 10
89.25863441778951
 20
-156.0380207943238
 30
0.0
 10
88.41217445706363
 20
-155.9174424523401
 30
0.0
 10
88.41217445706363
 20
-155.9174424523401
 30
0.0
 10
88.41217445706363
 20
-155.9174424523401
 30
0.0
 10
88.41217445706363
 20
-155.1388508726736
 30
0.0
 10
88.41217445706363
 20
-155.1388508726736
 30
0.0
 10
88.41217445706363
 20
-155.1388508726736
 30
0.0
 10
88.60682235198024
 20
-155.1388508726736
 30
0.0
 10
88.60682235198024
 20
-155.1388508726736
 30
0.0
 10
88.60682235198024
 20
-155.1388508726736
 30
0.0
 10
88.60682235198024
 20
-155.7544894358878
 30
0.0
 10
88.60682235198024
 20
-155.7544894358878
 30
0.0
 10
88.60682235198024
 20
-155.7544894358878
 30
0.0
 10
89.02988007756892
 20
-155.8199462501075
 30
0.0
 10
89.02988007756892
 20
-155.8199462501075
 30
0.0
 10
88.99611814181347
 20
-155.7586235504701
 30
0.0
 10
88.95581052463605
 20
-155.6762857683726
 30
0.0
 10
88.95581052463605
 20
-155.55777448368
 30
0.0
 10
88.95581052463605
 20
-155.3038709464171
 30
0.0
 10
89.14219019038806
 20
-155.0668483770319
 30
0.0
 10
89.45534936999728
 20
-155.0668483770319
 30
0.0
 10
89.7726426641888
 20
-155.0668483770319
 30
0.0
 10
90.0072536667343
 20
-155.2911240931217
 30
0.0
 10
90.0072536667343
 20
-155.5936034767266
 30
0.0
  0
HATCH
  5
5C
330
57
100
AcDbEntity
  8
_U+30EC_U+30A4_U+30E4_U+30FC 1
 62
   179
420
  2234388
100
AcDbHatch
 10
0.0
 20
0.0
 30
0.0
210
0.0
220
0.0
230
1.0
  2
SOLID
 70
     1
 71
     0
 91
        1
 92
        1
 93
        1
 72
     4
 94
        3
 73
     0
 74
     1
 95
       53
 96
       49
 40
0.0
 40
0.0
 40
0.0
 40
0.0
 40
1.0
 40
1.0
 40
1.0
 40
2.0
 40
2.0
 40
2.0
 40
3.0
 40
3.0
 40
3.0
 40
4.0
 40
4.0
 40
4.0
 40
5.0
 40
5.0
 40
5.0
 40
6.0
 40
6.0
 40
6.0
 40
7.0
 40
7.0
 40
7.0
 40
8.0
 40
8.0
 40
8.0
 40
9.0
 40
9.0
 40
9.0
 40
10.0
 40
10.0
 40
10.0
 40
11.0
 40
11.0
 40
11.0
 40
12.0
 40
12.0
 40
12.0
 40
13.0
 40
13.0
 40
13.0
 40
14.0
 40
14.0
 40
14.0
 40
15.0
 40
15.0
 40
15.0
 40
16.0
 40
16.0
 40
16.0
 40
16.0
 10
90.0072536667343
 20
-155.5936034767266
 10
90.0072536667343
 20
-155.6718071442418
 10
89.99037269885658
 20
-155.7734374610567
 10
89.92698294192797
 20
-155.8750677778715
 10
89.81708439594851
 20
-156.0483560807796
 10
89.68582625796049
 20
-156.0697156727881
 10
89.57799476927217
 20
-156.088663697957
 10
89.57799476927217
 20
-156.088663697957
 10
89.57799476927217
 20
-155.8664550391584
 10
89.57799476927217
 20
-155.8664550391584
 10
89.7767767787711
 20
-155.8116780209429
 10
89.80640459994423
 20
-155.6845539975372
 10
89.80640459994423
 20
-155.5915364194354
 10
89.80640459994423
 20
-155.4520100522828
 10
89.70684134042051
 20
-155.2997368318348
 10
89.47429739516615
 20
-155.2997368318348
 10
89.21832680061209
 20
-155.2997368318348
 10
89.14839136226152
 20
-155.4795708161648
 10
89.14839136226152
 20
-155.6001491581486
 10
89.14839136226152
 20
-155.6318440366129
 10
89.14839136226152
 20
-155.7734374610567
 10
89.27758244295839
 20
-155.8623209245761
 10
89.27758244295839
 20
-155.8623209245761
 10
89.25863441778951
 20
-156.0380207943238
 10
89.25863441778951
 20
-156.0380207943238
 10
89.25863441778951
 20
-156.0380207943238
 10
88.41217445706363
 20
-155.9174424523401
 10
88.41217445706363
 20
-155.9174424523401
 10
88.41217445706363
 20
-155.9174424523401
 10
88.41217445706363
 20
-155.1388508726736
 10
88.41217445706363
 20
-155.1388508726736
 10
88.41217445706363
 20
-155.1388508726736
 10
88.60682235198024
 20
-155.1388508726736
 10
88.60682235198024
 20
-155.1388508726736
 10
88.60682235198024
 20
-155.1388508726736
 10
88.60682235198024
 20
-155.7544894358878
 10
88.60682235198024
 20
-155.7544894358878
 10
88.60682235198024
 20
-155.7544894358878
 10
89.02988007756892
 20
-155.8199462501075
 10
89.02988007756892
 20
-155.8199462501075
 10
88.99611814181347
 20
-155.7586235504701
 10
88.95581052463605
 20
-155.6762857683726
 10
88.95581052463605
 20
-155.55777448368
 10
88.95581052463605
 20
-155.3038709464171
 10
89.14219019038806
 20
-155.0668483770319
 10
89.45534936999728
 20
-155.0668483770319
 10
89.7726426641888
 20
-155.0668483770319
 10
90.0072536667343
 20
-155.2911240931217
 10
90.0072536667343
 20
-155.5936034767266
 97
        0
 97
        0
 75
     2
 76
     1
 98
        0
  0
ENDBLK
  5
5A
330
57
100
AcDbEntity
  8
0
100
AcDbBlockEnd
  0
BLOCK
  5
67
330
65
100
AcDbEntity
  8
0
100
AcDbBlockBegin
  2
block 3
 70
     0
 10
0.0
 20
0.0
 30
0.0
  3
block 3
  1

  0
POLYLINE
  5
69
330
65
100
AcDbEntity
  8
_U+30EC_U+30A4_U+30E4_U+30FC 1
370
     0
100
AcDb2dPolyline
 66
     1
 10
0.0
 20
0.0
 30
0.0
  0
VERTEX
  5
6A
330
69
100
AcDbEntity
  8
_U+30EC_U+30A4_U+30E4_U+30FC 1
370
     0
100
AcDbVertex
100
AcDb2dVertex
 10
89.60968964773647
 20
-150.7425645239463
 30
0.0
  0
VERTEX
  5
6B
330
69
100
AcDbEntity
  8
_U+30EC_U+30A4_U+30E4_U+30FC 1
370
     0
100
AcDbVertex
100
AcDb2dVertex
 10
89.95661076310112
 20
-150.7425645239463
 30
0.0
  0
VERTEX
  5
6C
330
69
100
AcDbEntity
  8
_U+30EC_U+30A4_U+30E4_U+30FC 1
370
     0
100
AcDbVertex
100
AcDb2dVertex
 10
89.95661076310112
 20
-150.9602945586141
 30
0.0
  0
VERTEX
  5
6D
330
69
100
AcDbEntity
  8
_U+30EC_U+30A4_U+30E4_U+30FC 1
370
     0
100
AcDbVertex
100
AcDb2dVertex
 10
89.60968964773647
 20
-150.9602945586141
 30
0.0
  0
VERTEX
  5
6E
330
69
100
AcDbEntity
  8
_U+30EC_U+30A4_U+30E4_U+30FC 1
370
     0
100
AcDbVertex
100
AcDb2dVertex
 10
89.60968964773647
 20
-151.6162407390057
 30
0.0
  0
VERTEX
  5
6F
330
69
100
AcDbEntity
  8
_U+30EC_U+30A4_U+30E4_U+30FC 1
370
     0
100
AcDbVertex
100
AcDb2dVertex
 10
89.38541393164671
 20
-151.6162407390057
 30
0.0
  0
VERTEX
  5
70
330
69
100
AcDbEntity
  8
_U+30EC_U+30A4_U+30E4_U+30FC 1
370
     0
100
AcDbVertex
100
AcDb2dVertex
 10
88.41217445706363
 20
-150.9372124188629
 30
0.0
  0
VERTEX
  5
71
330
69
100
AcDbEntity
  8
_U+30EC_U+30A4_U+30E4_U+30FC 1
370
     0
100
AcDbVertex
100
AcDb2dVertex
 10
88.41217445706363
 20
-150.7425645239463
 30
0.0
  0
VERTEX
  5
72
330
69
100
AcDbEntity
  8
_U+30EC_U+30A4_U+30E4_U+30FC 1
370
     0
100
AcDbVertex
100
AcDb2dVertex
 10
89.41090763823756
 20
-150.7425645239463
 30
0.0
  0
VERTEX
  5
73
330
69
100
AcDbEntity
  8
_U+30EC_U+30A4_U+30E4_U+30FC 1
370
     0
100
AcDbVertex
100
AcDb2dVertex
 10
89.41090763823756
 20
-150.5351697757343
 30
0.0
  0
VERTEX
  5
74
330
69
100
AcDbEntity
  8
_U+30EC_U+30A4_U+30E4_U+30FC 1
370
     0
100
AcDbVertex
100
AcDb2dVertex
 10
89.60968964773647
 20
-150.5351697757343
 30
0.0
  0
VERTEX
  5
75
330
69
100
AcDbEntity
  8
_U+30EC_U+30A4_U+30E4_U+30FC 1
370
     0
100
AcDbVertex
100
AcDb2dVertex
 10
89.60968964773647
 20
-150.7425645239463
 30
0.0
  0
SEQEND
  5
76
330
69
100
AcDbEntity
  8
_U+30EC_U+30A4_U+30E4_U+30FC 1
370
     0
  0
POLYLINE
  5
77
330
65
100
AcDbEntity
  8
_U+30EC_U+30A4_U+30E4_U+30FC 1
370
     0
100
AcDb2dPolyline
 66
     1
 10
0.0
 20
0.0
 30
0.0
  0
VERTEX
  5
78
330
77
100
AcDbEntity
  8
_U+30EC_U+30A4_U+30E4_U+30FC 1
370
     0
100
AcDbVertex
100
AcDb2dVertex
 10
88.75496145784598
 20
-150.9602945586141
 30
0.0
  0
VERTEX
  5
79
330
77
100
AcDbEntity
  8
_U+30EC_U+30A4_U+30E4_U+30FC 1
370
     0
100
AcDbVertex
100
AcDb2dVertex
 10
89.41090763823756
 20
-151.4174587295068
 30
0.0
  0
VERTEX
  5
7A
330
77
100
AcDbEntity
  8
_U+30EC_U+30A4_U+30E4_U+30FC 1
370
     0
100
AcDbVertex
100
AcDb2dVertex
 10
89.41090763823756
 20
-150.9602945586141
 30
0.0
  0
VERTEX
  5
7B
330
77
100
AcDbEntity
  8
_U+30EC_U+30A4_U+30E4_U+30FC 1
370
     0
100
AcDbVertex
100
AcDb2dVertex
 10
88.75496145784598
 20
-150.9602945586141
 30
0.0
  0
SEQEND
  5
7C
330
77
100
AcDbEntity
  8
_U+30EC_U+30A4_U+30E4_U+30FC 1
370
     0
  0
HATCH
  5
7D
330
65
100
AcDbEntity
  8
_U+30EC_U+30A4_U+30E4_U+30FC 1
 62
   179
420
  2234388
100
AcDbHatch
 10
0.0
 20
0.0
 30
0.0
210
0.0
220
0.0
230
1.0
  2
SOLID
 70
     1
 71
     0
 91
        2
 92
        1
 93
       11
 72
     1
 10
89.60968964773647
 20
-150.7425645239463
 11
89.95661076310112
 21
-150.7425645239463
 72
     1
 10
89.95661076310112
 20
-150.7425645239463
 11
89.95661076310112
 21
-150.9602945586141
 72
     1
 10
89.95661076310112
 20
-150.9602945586141
 11
89.60968964773647
 21
-150.9602945586141
 72
     1
 10
89.60968964773647
 20
-150.9602945586141
 11
89.60968964773647
 21
-151.6162407390057
 72
     1
 10
89.60968964773647
 20
-151.6162407390057
 11
89.38541393164671
 21
-151.6162407390057
 72
     1
 10
89.38541393164671
 20
-151.6162407390057
 11
88.41217445706363
 21
-150.9372124188629
 72
     1
 10
88.41217445706363
 20
-150.9372124188629
 11
88.41217445706363
 21
-150.7425645239463
 72
     1
 10
88.41217445706363
 20
-150.7425645239463
 11
89.41090763823756
 21
-150.7425645239463
 72
     1
 10
89.41090763823756
 20
-150.7425645239463
 11
89.41090763823756
 21
-150.5351697757343
 72
     1
 10
89.41090763823756
 20
-150.5351697757343
 11
89.60968964773647
 21
-150.5351697757343
 72
     1
 10
89.60968964773647
 20
-150.5351697757343
 11
89.60968964773647
 21
-150.7425645239463
 97
        0
 92
        1
 93
        3
 72
     1
 10
88.75496145784598
 20
-150.9602945586141
 11
89.41090763823756
 21
-151.4174587295068
 72
     1
 10
89.41090763823756
 20
-151.4174587295068
 11
89.41090763823756
 21
-150.9602945586141
 72
     1
 10
89.41090763823756
 20
-150.9602945586141
 11
88.75496145784598
 21
-150.9602945586141
 97
        0
 75
     2
 76
     1
 98
        0
  0
ENDBLK
  5
68
330
65
100
AcDbEntity
  8
0
100
AcDbBlockEnd
  0
BLOCK
  5
88
330
86
100
AcDbEntity
  8
0
100
AcDbBlockBegin
  2
block 4
 70
     0
 10
0.0
 20
0.0
 30
0.0
  3
block 4
  1

  0
POLYLINE
  5
8A
330
86
100
AcDbEntity
  8
_U+30EC_U+30A4_U+30E4_U+30FC 1
370
     0
100
AcDb2dPolyline
 66
     1
 10
0.0
 20
0.0
 30
0.0
  0
VERTEX
  5
8B
330
8A
100
AcDbEntity
  8
_U+30EC_U+30A4_U+30E4_U+30FC 1
370
     0
100
AcDbVertex
100
AcDb2dVertex
 10
89.60968964773647
 20
-146.7424641560227
 30
0.0
  0
VERTEX
  5
8C
330
8A
100
AcDbEntity
  8
_U+30EC_U+30A4_U+30E4_U+30FC 1
370
     0
100
AcDbVertex
100
AcDb2dVertex
 10
89.95661076310112
 20
-146.7424641560227
 30
0.0
  0
VERTEX
  5
8D
330
8A
100
AcDbEntity
  8
_U+30EC_U+30A4_U+30E4_U+30FC 1
370
     0
100
AcDbVertex
100
AcDb2dVertex
 10
89.95661076310112
 20
-146.9601941906905
 30
0.0
  0
VERTEX
  5
8E
330
8A
100
AcDbEntity
  8
_U+30EC_U+30A4_U+30E4_U+30FC 1
370
     0
100
AcDbVertex
100
AcDb2dVertex
 10
89.60968964773647
 20
-146.9601941906905
 30
0.0
  0
VERTEX
  5
8F
330
8A
100
AcDbEntity
  8
_U+30EC_U+30A4_U+30E4_U+30FC 1
370
     0
100
AcDbVertex
100
AcDb2dVertex
 10
89.60968964773647
 20
-147.6161403710821
 30
0.0
  0
VERTEX
  5
90
330
8A
100
AcDbEntity
  8
_U+30EC_U+30A4_U+30E4_U+30FC 1
370
     0
100
AcDbVertex
100
AcDb2dVertex
 10
89.38541393164671
 20
-147.6161403710821
 30
0.0
  0
VERTEX
  5
91
330
8A
100
AcDbEntity
  8
_U+30EC_U+30A4_U+30E4_U+30FC 1
370
     0
100
AcDbVertex
100
AcDb2dVertex
 10
88.41217445706363
 20
-146.9371120509393
 30
0.0
  0
VERTEX
  5
92
330
8A
100
AcDbEntity
  8
_U+30EC_U+30A4_U+30E4_U+30FC 1
370
     0
100
AcDbVertex
100
AcDb2dVertex
 10
88.41217445706363
 20
-146.7424641560227
 30
0.0
  0
VERTEX
  5
93
330
8A
100
AcDbEntity
  8
_U+30EC_U+30A4_U+30E4_U+30FC 1
370
     0
100
AcDbVertex
100
AcDb2dVertex
 10
89.41090763823756
 20
-146.7424641560227
 30
0.0
  0
VERTEX
  5
94
330
8A
100
AcDbEntity
  8
_U+30EC_U+30A4_U+30E4_U+30FC 1
370
     0
100
AcDbVertex
100
AcDb2dVertex
 10
89.41090763823756
 20
-146.5350694078107
 30
0.0
  0
VERTEX
  5
95
330
8A
100
AcDbEntity
  8
_U+30EC_U+30A4_U+30E4_U+30FC 1
370
     0
100
AcDbVertex
100
AcDb2dVertex
 10
89.60968964773647
 20
-146.5350694078107
 30
0.0
  0
VERTEX
  5
96
330
8A
100
AcDbEntity
  8
_U+30EC_U+30A4_U+30E4_U+30FC 1
370
     0
100
AcDbVertex
100
AcDb2dVertex
 10
89.60968964773647
 20
-146.7424641560227
 30
0.0
  0
SEQEND
  5
97
330
8A
100
AcDbEntity
  8
_U+30EC_U+30A4_U+30E4_U+30FC 1
370
     0
  0
POLYLINE
  5
98
330
86
100
AcDbEntity
  8
_U+30EC_U+30A4_U+30E4_U+30FC 1
370
     0
100
AcDb2dPolyline
 66
     1
 10
0.0
 20
0.0
 30
0.0
  0
VERTEX
  5
99
330
98
100
AcDbEntity
  8
_U+30EC_U+30A4_U+30E4_U+30FC 1
370
     0
100
AcDbVertex
100
AcDb2dVertex
 10
88.75496145784598
 20
-146.9601941906905
 30
0.0
  0
VERTEX
  5
9A
330
98
100
AcDbEntity
  8
_U+30EC_U+30A4_U+30E4_U+30FC 1
370
     0
100
AcDbVertex
100
AcDb2dVertex
 10
89.41090763823756
 20
-147.4173583615832
 30
0.0
  0
VERTEX
  5
9B
330
98
100
AcDbEntity
  8
_U+30EC_U+30A4_U+30E4_U+30FC 1
370
     0
100
AcDbVertex
100
AcDb2dVertex
 10
89.41090763823756
 20
-146.9601941906905
 30
0.0
  0
VERTEX
  5
9C
330
98
100
AcDbEntity
  8
_U+30EC_U+30A4_U+30E4_U+30FC 1
370
     0
100
AcDbVertex
100
AcDb2dVertex
 10
88.75496145784598
 20
-146.9601941906905
 30
0.0
  0
SEQEND
  5
9D
330
98
100
AcDbEntity
  8
_U+30EC_U+30A4_U+30E4_U+30FC 1
370
     0
  0
HATCH
  5
9E
330
86
100
AcDbEntity
  8
_U+30EC_U+30A4_U+30E4_U+30FC 1
 62
   179
420
  2234388
100
AcDbHatch
 10
0.0
 20
0.0
 30
0.0
210
0.0
220
0.0
230
1.0
  2
SOLID
 70
     1
 71
     0
 91
        2
 92
        1
 93
       11
 72
     1
 10
89.60968964773647
 20
-146.7424641560227
 11
89.95661076310112
 21
-146.7424641560227
 72
     1
 10
89.95661076310112
 20
-146.7424641560227
 11
89.95661076310112
 21
-146.9601941906905
 72
     1
 10
89.95661076310112
 20
-146.9601941906905
 11
89.60968964773647
 21
-146.9601941906905
 72
     1
 10
89.60968964773647
 20
-146.9601941906905
 11
89.60968964773647
 21
-147.6161403710821
 72
     1
 10
89.60968964773647
 20
-147.6161403710821
 11
89.38541393164671
 21
-147.6161403710821
 72
     1
 10
89.38541393164671
 20
-147.6161403710821
 11
88.41217445706363
 21
-146.9371120509393
 72
     1
 10
88.41217445706363
 20
-146.9371120509393
 11
88.41217445706363
 21
-146.7424641560227
 72
     1
 10
88.41217445706363
 20
-146.7424641560227
 11
89.41090763823756
 21
-146.7424641560227
 72
     1
 10
89.41090763823756
 20
-146.7424641560227
 11
89.41090763823756
 21
-146.5350694078107
 72
     1
 10
89.41090763823756
 20
-146.5350694078107
 11
89.60968964773647
 21
-146.5350694078107
 72
     1
 10
89.60968964773647
 20
-146.5350694078107
 11
89.60968964773647
 21
-146.7424641560227
 97
        0
 92
        1
 93
        3
 72
     1
 10
88.75496145784598
 20
-146.9601941906905
 11
89.41090763823756
 21
-147.4173583615832
 72
     1
 10
89.41090763823756
 20
-147.4173583615832
 11
89.41090763823756
 21
-146.9601941906905
 72
     1
 10
89.41090763823756
 20
-146.9601941906905
 11
88.75496145784598
 21
-146.9601941906905
 97
        0
 75
     2
 76
     1
 98
        0
  0
ENDBLK
  5
89
330
86
100
AcDbEntity
  8
0
100
AcDbBlockEnd
  0
BLOCK
  5
A9
330
A7
100
AcDbEntity
  8
0
100
AcDbBlockBegin
  2
block 5
 70
     0
 10
0.0
 20
0.0
 30
0.0
  3
block 5
  1

  0
SPLINE
  5
AB
330
A7
100
AcDbEntity
  8
_U+30EC_U+30A4_U+30E4_U+30FC 1
370
     0
100
AcDbSpline
210
0.0
220
0.0
230
1.0
 70
    11
 71
     3
 72
    62
 73
    58
 74
     0
 42
0.0000000001
 43
0.0000000001
 12
1.0
 22
0.0
 32
0.0
 13
1.0
 23
0.0
 33
0.0
 40
0.0
 40
0.0
 40
0.0
 40
0.0
 40
1.0
 40
1.0
 40
1.0
 40
2.0
 40
2.0
 40
2.0
 40
3.0
 40
3.0
 40
3.0
 40
4.0
 40
4.0
 40
4.0
 40
5.0
 40
5.0
 40
5.0
 40
6.0
 40
6.0
 40
6.0
 40
7.0
 40
7.0
 40
7.0
 40
8.0
 40
8.0
 40
8.0
 40
9.0
 40
9.0
 40
9.0
 40
10.0
 40
10.0
 40
10.0
 40
11.0
 40
11.0
 40
11.0
 40
12.0
 40
12.0
 40
12.0
 40
13.0
 40
13.0
 40
13.0
 40
14.0
 40
14.0
 40
14.0
 40
15.0
 40
15.0
 40
15.0
 40
16.0
 40
16.0
 40
16.0
 40
17.0
 40
17.0
 40
17.0
 40
18.0
 40
18.0
 40
18.0
 40
19.0
 40
19.0
 40
19.0
 40
19.0
 10
94.95027666897077
 20
-102.2804063329368
 30
0.0
 10
94.85519203357788
 20
-102.2804063329368
 30
0.0
 10
94.63711748936156
 20
-102.2592189957026
 30
0.0
 10
94.51240503279551
 20
-102.0730115847248
 30
0.0
 10
94.43833547986264
 20
-101.9608737266799
 30
0.0
 10
94.43420136528034
 20
-101.8614827219305
 30
0.0
 10
94.43006725069804
 20
-101.7769056277676
 30
0.0
 10
94.43006725069804
 20
-101.7769056277676
 30
0.0
 10
94.64986434265698
 20
-101.7769056277676
 30
0.0
 10
94.64986434265698
 20
-101.7769056277676
 30
0.0
 10
94.65193139994813
 20
-101.8509751807005
 30
0.0
 10
94.66261119595241
 20
-102.0857584380202
 30
0.0
 10
94.94614255438847
 20
-102.0857584380202
 30
0.0
 10
95.08360186424994
 20
-102.0857584380202
 30
0.0
 10
95.23587508469798
 20
-102.0159952544439
 30
0.0
 10
95.23587508469798
 20
-101.7874131689976
 30
0.0
 10
95.23587508469798
 20
-101.6711411963704
 30
0.0
 10
95.19797903436023
 20
-101.6223930952541
 30
0.0
 10
95.16628415589594
 20
-101.5906982167898
 30
0.0
 10
95.09221460296307
 20
-101.516628663857
 30
0.0
 10
94.97577037556162
 20
-101.5040540653358
 30
0.0
 10
94.92064884779762
 20
-101.5040540653358
 30
0.0
 10
94.90170082262874
 20
-101.5040540653358
 30
0.0
 10
94.86587182958215
 20
-101.506121122627
 30
0.0
 10
94.83831106570015
 20
-101.5102552372093
 30
0.0
 10
94.83831106570015
 20
-101.5102552372093
 30
0.0
 10
94.83831106570015
 20
-101.3156073422926
 30
0.0
 10
94.83831106570015
 20
-101.3156073422926
 30
0.0
 10
94.8762071160379
 20
-101.3219807689403
 30
0.0
 10
94.91858179050647
 20
-101.3242200810057
 30
0.0
 10
94.92512747192845
 20
-101.3242200810057
 30
0.0
 10
94.99058428614819
 20
-101.3242200810057
 30
0.0
 10
95.1893662956471
 20
-101.3030327437715
 30
0.0
 10
95.1893662956471
 20
-101.0660101743863
 30
0.0
 10
95.1893662956471
 20
-100.8884155021216
 30
0.0
 10
95.05810815765909
 20
-100.8332939743577
 30
0.0
 10
94.94820961167962
 20
-100.8332939743577
 30
0.0
 10
94.68397078796096
 20
-100.8332939743577
 30
0.0
 10
94.67535804924783
 20
-101.0660101743863
 30
0.0
 10
94.67122393466553
 20
-101.138012670028
 30
0.0
 10
94.67122393466553
 20
-101.138012670028
 30
0.0
 10
94.4679633010358
 20
-101.138012670028
 30
0.0
 10
94.4679633010358
 20
-101.138012670028
 30
0.0
 10
94.47657603974892
 20
-101.0131279586877
 30
0.0
 10
94.50413680363091
 20
-100.6365790221499
 30
0.0
 10
94.96095646497504
 20
-100.6365790221499
 30
0.0
 10
95.1852321810648
 20
-100.6365790221499
 30
0.0
 10
95.4263888650323
 20
-100.7635307907813
 30
0.0
 10
95.4263888650323
 20
-101.0596367477386
 30
0.0
 10
95.4263888650323
 20
-101.2458441587163
 30
0.0
 10
95.3313042296394
 20
-101.328354195588
 30
0.0
 10
95.23174097011568
 20
-101.3896768952255
 30
0.0
 10
95.29306366975312
 20
-101.4172376591075
 30
0.0
 10
95.47496471137431
 20
-101.4976806386881
 30
0.0
 10
95.47496471137431
 20
-101.7748385704764
 30
0.0
 10
95.47496471137431
 20
-102.1133192019022
 30
0.0
 10
95.22760685553338
 20
-102.2804063329368
 30
0.0
 10
94.95027666897077
 20
-102.2804063329368
 30
0.0
  0
HATCH
  5
AC
330
A7
100
AcDbEntity
  8
_U+30EC_U+30A4_U+30E4_U+30FC 1
 62
   179
420
  2234388
100
AcDbHatch
 10
0.0
 20
0.0
 30
0.0
210
0.0
220
0.0
230
1.0
  2
SOLID
 70
     1
 71
     0
 91
        1
 92
        1
 93
        1
 72
     4
 94
        3
 73
     0
 74
     1
 95
       62
 96
       58
 40
0.0
 40
0.0
 40
0.0
 40
0.0
 40
1.0
 40
1.0
 40
1.0
 40
2.0
 40
2.0
 40
2.0
 40
3.0
 40
3.0
 40
3.0
 40
4.0
 40
4.0
 40
4.0
 40
5.0
 40
5.0
 40
5.0
 40
6.0
 40
6.0
 40
6.0
 40
7.0
 40
7.0
 40
7.0
 40
8.0
 40
8.0
 40
8.0
 40
9.0
 40
9.0
 40
9.0
 40
10.0
 40
10.0
 40
10.0
 40
11.0
 40
11.0
 40
11.0
 40
12.0
 40
12.0
 40
12.0
 40
13.0
 40
13.0
 40
13.0
 40
14.0
 40
14.0
 40
14.0
 40
15.0
 40
15.0
 40
15.0
 40
16.0
 40
16.0
 40
16.0
 40
17.0
 40
17.0
 40
17.0
 40
18.0
 40
18.0
 40
18.0
 40
19.0
 40
19.0
 40
19.0
 40
19.0
 10
94.95027666897077
 20
-102.2804063329368
 10
94.85519203357788
 20
-102.2804063329368
 10
94.63711748936156
 20
-102.2592189957026
 10
94.51240503279551
 20
-102.0730115847248
 10
94.43833547986264
 20
-101.9608737266799
 10
94.43420136528034
 20
-101.8614827219305
 10
94.43006725069804
 20
-101.7769056277676
 10
94.43006725069804
 20
-101.7769056277676
 10
94.64986434265698
 20
-101.7769056277676
 10
94.64986434265698
 20
-101.7769056277676
 10
94.65193139994813
 20
-101.8509751807005
 10
94.66261119595241
 20
-102.0857584380202
 10
94.94614255438847
 20
-102.0857584380202
 10
95.08360186424994
 20
-102.0857584380202
 10
95.23587508469798
 20
-102.0159952544439
 10
95.23587508469798
 20
-101.7874131689976
 10
95.23587508469798
 20
-101.6711411963704
 10
95.19797903436023
 20
-101.6223930952541
 10
95.16628415589594
 20
-101.5906982167898
 10
95.09221460296307
 20
-101.516628663857
 10
94.97577037556162
 20
-101.5040540653358
 10
94.92064884779762
 20
-101.5040540653358
 10
94.90170082262874
 20
-101.5040540653358
 10
94.86587182958215
 20
-101.506121122627
 10
94.83831106570015
 20
-101.5102552372093
 10
94.83831106570015
 20
-101.5102552372093
 10
94.83831106570015
 20
-101.3156073422926
 10
94.83831106570015
 20
-101.3156073422926
 10
94.8762071160379
 20
-101.3219807689403
 10
94.91858179050647
 20
-101.3242200810057
 10
94.92512747192845
 20
-101.3242200810057
 10
94.99058428614819
 20
-101.3242200810057
 10
95.1893662956471
 20
-101.3030327437715
 10
95.1893662956471
 20
-101.0660101743863
 10
95.1893662956471
 20
-100.8884155021216
 10
95.05810815765909
 20
-100.8332939743577
 10
94.94820961167962
 20
-100.8332939743577
 10
94.68397078796096
 20
-100.8332939743577
 10
94.67535804924783
 20
-101.0660101743863
 10
94.67122393466553
 20
-101.138012670028
 10
94.67122393466553
 20
-101.138012670028
 10
94.4679633010358
 20
-101.138012670028
 10
94.4679633010358
 20
-101.138012670028
 10
94.47657603974892
 20
-101.0131279586877
 10
94.50413680363091
 20
-100.6365790221499
 10
94.96095646497504
 20
-100.6365790221499
 10
95.1852321810648
 20
-100.6365790221499
 10
95.4263888650323
 20
-100.7635307907813
 10
95.4263888650323
 20
-101.0596367477386
 10
95.4263888650323
 20
-101.2458441587163
 10
95.3313042296394
 20
-101.328354195588
 10
95.23174097011568
 20
-101.3896768952255
 10
95.29306366975312
 20
-101.4172376591075
 10
95.47496471137431
 20
-101.4976806386881
 10
95.47496471137431
 20
-101.7748385704764
 10
95.47496471137431
 20
-102.1133192019022
 10
95.22760685553338
 20
-102.2804063329368
 10
94.95027666897077
 20
-102.2804063329368
 97
        0
 97
        0
 75
     2
 76
     1
 98
        0
  0
SPLINE
  5
AD
330
A7
100
AcDbEntity
  8
_U+30EC_U+30A4_U+30E4_U+30FC 1
370
     0
100
AcDbSpline
210
0.0
220
0.0
230
1.0
 70
    11
 71
     3
 72
    53
 73
    49
 74
     0
 42
0.0000000001
 43
0.0000000001
 12
1.0
 22
0.0
 32
0.0
 13
1.0
 23
0.0
 33
0.0
 40
0.0
 40
0.0
 40
0.0
 40
0.0
 40
1.0
 40
1.0
 40
1.0
 40
2.0
 40
2.0
 40
2.0
 40
3.0
 40
3.0
 40
3.0
 40
4.0
 40
4.0
 40
4.0
 40
5.0
 40
5.0
 40
5.0
 40
6.0
 40
6.0
 40
6.0
 40
7.0
 40
7.0
 40
7.0
 40
8.0
 40
8.0
 40
8.0
 40
9.0
 40
9.0
 40
9.0
 40
10.0
 40
10.0
 40
10.0
 40
11.0
 40
11.0
 40
11.0
 40
12.0
 40
12.0
 40
12.0
 40
13.0
 40
13.0
 40
13.0
 40
14.0
 40
14.0
 40
14.0
 40
15.0
 40
15.0
 40
15.0
 40
16.0
 40
16.0
 40
16.0
 40
16.0
 10
96.11678600027636
 20
-102.2804063329368
 30
0.0
 10
96.0385823327612
 20
-102.2804063329368
 30
0.0
 10
95.93695201594632
 20
-102.2633531102849
 30
0.0
 10
95.83532169913146
 20
-102.1999633533563
 30
0.0
 10
95.66168888667487
 20
-102.0898925526025
 30
0.0
 10
95.64067380421484
 20
-101.9588066693888
 30
0.0
 10
95.62172577904596
 20
-101.8509751807005
 30
0.0
 10
95.62172577904596
 20
-101.8509751807005
 30
0.0
 10
95.84393443784458
 20
-101.8509751807005
 30
0.0
 10
95.84393443784458
 20
-101.8509751807005
 30
0.0
 10
95.89871145606004
 20
-102.0497571901994
 30
0.0
 10
96.02583547946577
 20
-102.0793850113725
 30
0.0
 10
96.11885305756752
 20
-102.0793850113725
 30
0.0
 10
96.25837942472013
 20
-102.0793850113725
 30
0.0
 10
96.41065264516817
 20
-101.9799940066231
 30
0.0
 10
96.41065264516817
 20
-101.7472778065944
 30
0.0
 10
96.41065264516817
 20
-101.4913072120404
 30
0.0
 10
96.23081866083814
 20
-101.4215440284641
 30
0.0
 10
96.1102403188544
 20
-101.4215440284641
 30
0.0
 10
96.07854544039009
 20
-101.4215440284641
 30
0.0
 10
95.93695201594632
 20
-101.4215440284641
 30
0.0
 10
95.84806855242688
 20
-101.5505628543867
 30
0.0
 10
95.84806855242688
 20
-101.5505628543867
 30
0.0
 10
95.67236868267914
 20
-101.5314425744435
 30
0.0
 10
95.67236868267914
 20
-101.5314425744435
 30
0.0
 10
95.67236868267914
 20
-101.5314425744435
 30
0.0
 10
95.79294702466288
 20
-100.6853271232662
 30
0.0
 10
95.79294702466288
 20
-100.6853271232662
 30
0.0
 10
95.79294702466288
 20
-100.6853271232662
 30
0.0
 10
96.57153860432935
 20
-100.6853271232662
 30
0.0
 10
96.57153860432935
 20
-100.6853271232662
 30
0.0
 10
96.57153860432935
 20
-100.6853271232662
 30
0.0
 10
96.57153860432935
 20
-100.8799750181828
 30
0.0
 10
96.57153860432935
 20
-100.8799750181828
 30
0.0
 10
96.57153860432935
 20
-100.8799750181828
 30
0.0
 10
95.9559000411152
 20
-100.8799750181828
 30
0.0
 10
95.9559000411152
 20
-100.8799750181828
 30
0.0
 10
95.9559000411152
 20
-100.8799750181828
 30
0.0
 10
95.89044322689544
 20
-101.3030327437715
 30
0.0
 10
95.89044322689544
 20
-101.3030327437715
 30
0.0
 10
95.9517659265329
 20
-101.2690985532418
 30
0.0
 10
96.03410370863037
 20
-101.2289631908386
 30
0.0
 10
96.15261499332296
 20
-101.2289631908386
 30
0.0
 10
96.40651853058587
 20
-101.2289631908386
 30
0.0
 10
96.64354109997106
 20
-101.4151706018164
 30
0.0
 10
96.64354109997106
 20
-101.7281575266513
 30
0.0
 10
96.64354109997106
 20
-102.0456230756171
 30
0.0
 10
96.4192653838813
 20
-102.2804063329368
 30
0.0
 10
96.11678600027636
 20
-102.2804063329368
 30
0.0
  0
HATCH
  5
AE
330
A7
100
AcDbEntity
  8
_U+30EC_U+30A4_U+30E4_U+30FC 1
 62
   179
420
  2234388
100
AcDbHatch
 10
0.0
 20
0.0
 30
0.0
210
0.0
220
0.0
230
1.0
  2
SOLID
 70
     1
 71
     0
 91
        1
 92
        1
 93
        1
 72
     4
 94
        3
 73
     0
 74
     1
 95
       53
 96
       49
 40
0.0
 40
0.0
 40
0.0
 40
0.0
 40
1.0
 40
1.0
 40
1.0
 40
2.0
 40
2.0
 40
2.0
 40
3.0
 40
3.0
 40
3.0
 40
4.0
 40
4.0
 40
4.0
 40
5.0
 40
5.0
 40
5.0
 40
6.0
 40
6.0
 40
6.0
 40
7.0
 40
7.0
 40
7.0
 40
8.0
 40
8.0
 40
8.0
 40
9.0
 40
9.0
 40
9.0
 40
10.0
 40
10.0
 40
10.0
 40
11.0
 40
11.0
 40
11.0
 40
12.0
 40
12.0
 40
12.0
 40
13.0
 40
13.0
 40
13.0
 40
14.0
 40
14.0
 40
14.0
 40
15.0
 40
15.0
 40
15.0
 40
16.0
 40
16.0
 40
16.0
 40
16.0
 10
96.11678600027636
 20
-102.2804063329368
 10
96.0385823327612
 20
-102.2804063329368
 10
95.93695201594632
 20
-102.2633531102849
 10
95.83532169913146
 20
-102.1999633533563
 10
95.66168888667487
 20
-102.0898925526025
 10
95.64067380421484
 20
-101.9588066693888
 10
95.62172577904596
 20
-101.8509751807005
 10
95.62172577904596
 20
-101.8509751807005
 10
95.84393443784458
 20
-101.8509751807005
 10
95.84393443784458
 20
-101.8509751807005
 10
95.89871145606004
 20
-102.0497571901994
 10
96.02583547946577
 20
-102.0793850113725
 10
96.11885305756752
 20
-102.0793850113725
 10
96.25837942472013
 20
-102.0793850113725
 10
96.41065264516817
 20
-101.9799940066231
 10
96.41065264516817
 20
-101.7472778065944
 10
96.41065264516817
 20
-101.4913072120404
 10
96.23081866083814
 20
-101.4215440284641
 10
96.1102403188544
 20
-101.4215440284641
 10
96.07854544039009
 20
-101.4215440284641
 10
95.93695201594632
 20
-101.4215440284641
 10
95.84806855242688
 20
-101.5505628543867
 10
95.84806855242688
 20
-101.5505628543867
 10
95.67236868267914
 20
-101.5314425744435
 10
95.67236868267914
 20
-101.5314425744435
 10
95.67236868267914
 20
-101.5314425744435
 10
95.79294702466288
 20
-100.6853271232662
 10
95.79294702466288
 20
-100.6853271232662
 10
95.79294702466288
 20
-100.6853271232662
 10
96.57153860432935
 20
-100.6853271232662
 10
96.57153860432935
 20
-100.6853271232662
 10
96.57153860432935
 20
-100.6853271232662
 10
96.57153860432935
 20
-100.8799750181828
 10
96.57153860432935
 20
-100.8799750181828
 10
96.57153860432935
 20
-100.8799750181828
 10
95.9559000411152
 20
-100.8799750181828
 10
95.9559000411152
 20
-100.8799750181828
 10
95.9559000411152
 20
-100.8799750181828
 10
95.89044322689544
 20
-101.3030327437715
 10
95.89044322689544
 20
-101.3030327437715
 10
95.9517659265329
 20
-101.2690985532418
 10
96.03410370863037
 20
-101.2289631908386
 10
96.15261499332296
 20
-101.2289631908386
 10
96.40651853058587
 20
-101.2289631908386
 10
96.64354109997106
 20
-101.4151706018164
 10
96.64354109997106
 20
-101.7281575266513
 10
96.64354109997106
 20
-102.0456230756171
 10
96.4192653838813
 20
-102.2804063329368
 10
96.11678600027636
 20
-102.2804063329368
 97
        0
 97
        0
 75
     2
 76
     1
 98
        0
  0
ENDBLK
  5
AA
330
A7
100
AcDbEntity
  8
0
100
AcDbBlockEnd
  0
BLOCK
  5
C1
330
BF
100
AcDbEntity
  8
0
100
AcDbBlockBegin
  2
block 6
 70
     0
 10
0.0
 20
0.0
 30
0.0
  3
block 6
  1

  0
SPLINE
  5
C3
330
BF
100
AcDbEntity
  8
_U+30EC_U+30A4_U+30E4_U+30FC 1
370
     0
100
AcDbSpline
210
0.0
220
0.0
230
1.0
 70
    11
 71
     3
 72
    26
 73
    22
 74
     0
 42
0.0000000001
 43
0.0000000001
 12
1.0
 22
0.0
 32
0.0
 13
1.0
 23
0.0
 33
0.0
 40
0.0
 40
0.0
 40
0.0
 40
0.0
 40
1.0
 40
1.0
 40
1.0
 40
2.0
 40
2.0
 40
2.0
 40
3.0
 40
3.0
 40
3.0
 40
4.0
 40
4.0
 40
4.0
 40
5.0
 40
5.0
 40
5.0
 40
6.0
 40
6.0
 40
6.0
 40
7.0
 40
7.0
 40
7.0
 40
7.0
 10
72.43175453918373
 20
-109.4572292478093
 30
0.0
 10
72.43175453918373
 20
-109.4572292478093
 30
0.0
 10
71.32760143616116
 20
-109.4572292478093
 30
0.0
 10
71.32760143616116
 20
-109.4572292478093
 30
0.0
 10
71.32760143616116
 20
-109.4572292478093
 30
0.0
 10
71.32760143616116
 20
-109.7872693952962
 30
0.0
 10
71.32760143616116
 20
-109.7872693952962
 30
0.0
 10
71.32760143616116
 20
-109.7872693952962
 30
0.0
 10
71.17946233029542
 20
-109.7872693952962
 30
0.0
 10
71.17946233029542
 20
-109.7872693952962
 30
0.0
 10
71.16464841970884
 20
-109.4551621905182
 30
0.0
 10
71.00169540325652
 20
-109.4086534014673
 30
0.0
 10
70.88731823314623
 20
-109.3790255802941
 30
0.0
 10
70.88731823314623
 20
-109.3790255802941
 30
0.0
 10
70.88731823314623
 20
-109.2329535317195
 30
0.0
 10
70.88731823314623
 20
-109.2329535317195
 30
0.0
 10
70.88731823314623
 20
-109.2329535317195
 30
0.0
 10
72.43175453918373
 20
-109.2329535317195
 30
0.0
 10
72.43175453918373
 20
-109.2329535317195
 30
0.0
 10
72.43175453918373
 20
-109.2329535317195
 30
0.0
 10
72.43175453918373
 20
-109.4572292478093
 30
0.0
 10
72.43175453918373
 20
-109.4572292478093
 30
0.0
  0
HATCH
  5
C4
330
BF
100
AcDbEntity
  8
_U+30EC_U+30A4_U+30E4_U+30FC 1
 62
   179
420
  2234388
100
AcDbHatch
 10
0.0
 20
0.0
 30
0.0
210
0.0
220
0.0
230
1.0
  2
SOLID
 70
     1
 71
     0
 91
        1
 92
        1
 93
        1
 72
     4
 94
        3
 73
     0
 74
     1
 95
       26
 96
       22
 40
0.0
 40
0.0
 40
0.0
 40
0.0
 40
1.0
 40
1.0
 40
1.0
 40
2.0
 40
2.0
 40
2.0
 40
3.0
 40
3.0
 40
3.0
 40
4.0
 40
4.0
 40
4.0
 40
5.0
 40
5.0
 40
5.0
 40
6.0
 40
6.0
 40
6.0
 40
7.0
 40
7.0
 40
7.0
 40
7.0
 10
72.43175453918373
 20
-109.4572292478093
 10
72.43175453918373
 20
-109.4572292478093
 10
71.32760143616116
 20
-109.4572292478093
 10
71.32760143616116
 20
-109.4572292478093
 10
71.32760143616116
 20
-109.4572292478093
 10
71.32760143616116
 20
-109.7872693952962
 10
71.32760143616116
 20
-109.7872693952962
 10
71.32760143616116
 20
-109.7872693952962
 10
71.17946233029542
 20
-109.7872693952962
 10
71.17946233029542
 20
-109.7872693952962
 10
71.16464841970884
 20
-109.4551621905182
 10
71.00169540325652
 20
-109.4086534014673
 10
70.88731823314623
 20
-109.3790255802941
 10
70.88731823314623
 20
-109.3790255802941
 10
70.88731823314623
 20
-109.2329535317195
 10
70.88731823314623
 20
-109.2329535317195
 10
70.88731823314623
 20
-109.2329535317195
 10
72.43175453918373
 20
-109.2329535317195
 10
72.43175453918373
 20
-109.2329535317195
 10
72.43175453918373
 20
-109.2329535317195
 10
72.43175453918373
 20
-109.4572292478093
 10
72.43175453918373
 20
-109.4572292478093
 97
        0
 97
        0
 75
     2
 76
     1
 98
        0
  0
POLYLINE
  5
C5
330
BF
100
AcDbEntity
  8
_U+30EC_U+30A4_U+30E4_U+30FC 1
370
     0
100
AcDb2dPolyline
 66
     1
 10
0.0
 20
0.0
 30
0.0
  0
VERTEX
  5
C6
330
C5
100
AcDbEntity
  8
_U+30EC_U+30A4_U+30E4_U+30FC 1
370
     0
100
AcDbVertex
100
AcDb2dVertex
 10
72.43175453918373
 20
-108.6717474771723
 30
0.0
  0
VERTEX
  5
C7
330
C5
100
AcDbEntity
  8
_U+30EC_U+30A4_U+30E4_U+30FC 1
370
     0
100
AcDbVertex
100
AcDb2dVertex
 10
72.17991805921197
 20
-108.6717474771723
 30
0.0
  0
VERTEX
  5
C8
330
C5
100
AcDbEntity
  8
_U+30EC_U+30A4_U+30E4_U+30FC 1
370
     0
100
AcDbVertex
100
AcDb2dVertex
 10
72.17991805921197
 20
-108.4199109972006
 30
0.0
  0
VERTEX
  5
C9
330
C5
100
AcDbEntity
  8
_U+30EC_U+30A4_U+30E4_U+30FC 1
370
     0
100
AcDbVertex
100
AcDb2dVertex
 10
72.43175453918373
 20
-108.4199109972006
 30
0.0
  0
VERTEX
  5
CA
330
C5
100
AcDbEntity
  8
_U+30EC_U+30A4_U+30E4_U+30FC 1
370
     0
100
AcDbVertex
100
AcDb2dVertex
 10
72.43175453918373
 20
-108.6717474771723
 30
0.0
  0
SEQEND
  5
CB
330
C5
100
AcDbEntity
  8
_U+30EC_U+30A4_U+30E4_U+30FC 1
370
     0
  0
HATCH
  5
CC
330
BF
100
AcDbEntity
  8
_U+30EC_U+30A4_U+30E4_U+30FC 1
 62
   179
420
  2234388
100
AcDbHatch
 10
0.0
 20
0.0
 30
0.0
210
0.0
220
0.0
230
1.0
  2
SOLID
 70
     1
 71
     0
 91
        1
 92
        1
 93
        4
 72
     1
 10
72.43175453918373
 20
-108.6717474771723
 11
72.17991805921197
 21
-108.6717474771723
 72
     1
 10
72.17991805921197
 20
-108.6717474771723
 11
72.17991805921197
 21
-108.4199109972006
 72
     1
 10
72.17991805921197
 20
-108.4199109972006
 11
72.43175453918373
 21
-108.4199109972006
 72
     1
 10
72.43175453918373
 20
-108.4199109972006
 11
72.43175453918373
 21
-108.6717474771723
 97
        0
 75
     2
 76
     1
 98
        0
  0
SPLINE
  5
CD
330
BF
100
AcDbEntity
  8
_U+30EC_U+30A4_U+30E4_U+30FC 1
370
     0
100
AcDbSpline
210
0.0
220
0.0
230
1.0
 70
    11
 71
     3
 72
    44
 73
    40
 74
     0
 42
0.0000000001
 43
0.0000000001
 12
1.0
 22
0.0
 32
0.0
 13
1.0
 23
0.0
 33
0.0
 40
0.0
 40
0.0
 40
0.0
 40
0.0
 40
1.0
 40
1.0
 40
1.0
 40
2.0
 40
2.0
 40
2.0
 40
3.0
 40
3.0
 40
3.0
 40
4.0
 40
4.0
 40
4.0
 40
5.0
 40
5.0
 40
5.0
 40
6.0
 40
6.0
 40
6.0
 40
7.0
 40
7.0
 40
7.0
 40
8.0
 40
8.0
 40
8.0
 40
9.0
 40
9.0
 40
9.0
 40
10.0
 40
10.0
 40
10.0
 40
11.0
 40
11.0
 40
11.0
 40
12.0
 40
12.0
 40
12.0
 40
13.0
 40
13.0
 40
13.0
 40
13.0
 10
71.84987791172503
 20
-107.5906765139009
 30
0.0
 10
72.00869681359505
 20
-107.8084065485687
 30
0.0
 10
72.08276636652792
 20
-107.9014241266705
 30
0.0
 10
72.22642684826285
 20
-107.950344482561
 30
0.0
 10
72.22642684826285
 20
-107.950344482561
 30
0.0
 10
72.22642684826285
 20
-107.1717529028946
 30
0.0
 10
72.22642684826285
 20
-107.1717529028946
 30
0.0
 10
72.22642684826285
 20
-107.1717529028946
 30
0.0
 10
72.43175453918373
 20
-107.1717529028946
 30
0.0
 10
72.43175453918373
 20
-107.1717529028946
 30
0.0
 10
72.43175453918373
 20
-107.1717529028946
 30
0.0
 10
72.43175453918373
 20
-108.1997693956931
 30
0.0
 10
72.43175453918373
 20
-108.1997693956931
 30
0.0
 10
72.0741536278148
 20
-108.1680745172288
 30
0.0
 10
71.99594996029963
 20
-108.1026177030091
 30
0.0
 10
71.697604691277
 20
-107.7174560277581
 30
0.0
 10
71.49882268177808
 20
-107.4614854332041
 30
0.0
 10
71.43095430071865
 20
-107.3960286189843
 30
0.0
 10
71.29349499085718
 20
-107.3960286189843
 30
0.0
 10
71.1749837061646
 20
-107.3960286189843
 30
0.0
 10
71.0440700777251
 20
-107.4680311146261
 30
0.0
 10
71.0440700777251
 20
-107.6647460668338
 30
0.0
 10
71.0440700777251
 20
-107.9248507759702
 30
0.0
 10
71.27454696568832
 20
-107.9334635146833
 30
0.0
 10
71.39099119308976
 20
-107.9375976292656
 30
0.0
 10
71.39099119308976
 20
-107.9375976292656
 30
0.0
 10
71.39099119308976
 20
-108.1618733453554
 30
0.0
 10
71.39099119308976
 20
-108.1618733453554
 30
0.0
 10
71.26386716968403
 20
-108.1532606066422
 30
0.0
 10
71.15190156641341
 20
-108.142580810638
 30
0.0
 10
71.03339028172083
 20
-108.0623100858317
 30
0.0
 10
70.87250432255965
 20
-107.9524115398522
 30
0.0
 10
70.83874238680421
 20
-107.7660318741002
 30
0.0
 10
70.83874238680421
 20
-107.6499321562472
 30
0.0
 10
70.83874238680421
 20
-107.3726019696846
 30
0.0
 10
71.02271048571654
 20
-107.1652072214726
 30
0.0
 10
71.29556204814834
 20
-107.1652072214726
 30
0.0
 10
71.52431638836893
 20
-107.1652072214726
 30
0.0
 10
71.62353513834412
 20
-107.281651448874
 30
0.0
 10
71.84987791172503
 20
-107.5906765139009
 30
0.0
  0
HATCH
  5
CE
330
BF
100
AcDbEntity
  8
_U+30EC_U+30A4_U+30E4_U+30FC 1
 62
   179
420
  2234388
100
AcDbHatch
 10
0.0
 20
0.0
 30
0.0
210
0.0
220
0.0
230
1.0
  2
SOLID
 70
     1
 71
     0
 91
        1
 92
        1
 93
        1
 72
     4
 94
        3
 73
     0
 74
     1
 95
       44
 96
       40
 40
0.0
 40
0.0
 40
0.0
 40
0.0
 40
1.0
 40
1.0
 40
1.0
 40
2.0
 40
2.0
 40
2.0
 40
3.0
 40
3.0
 40
3.0
 40
4.0
 40
4.0
 40
4.0
 40
5.0
 40
5.0
 40
5.0
 40
6.0
 40
6.0
 40
6.0
 40
7.0
 40
7.0
 40
7.0
 40
8.0
 40
8.0
 40
8.0
 40
9.0
 40
9.0
 40
9.0
 40
10.0
 40
10.0
 40
10.0
 40
11.0
 40
11.0
 40
11.0
 40
12.0
 40
12.0
 40
12.0
 40
13.0
 40
13.0
 40
13.0
 40
13.0
 10
71.84987791172503
 20
-107.5906765139009
 10
72.00869681359505
 20
-107.8084065485687
 10
72.08276636652792
 20
-107.9014241266705
 10
72.22642684826285
 20
-107.950344482561
 10
72.22642684826285
 20
-107.950344482561
 10
72.22642684826285
 20
-107.1717529028946
 10
72.22642684826285
 20
-107.1717529028946
 10
72.22642684826285
 20
-107.1717529028946
 10
72.43175453918373
 20
-107.1717529028946
 10
72.43175453918373
 20
-107.1717529028946
 10
72.43175453918373
 20
-107.1717529028946
 10
72.43175453918373
 20
-108.1997693956931
 10
72.43175453918373
 20
-108.1997693956931
 10
72.0741536278148
 20
-108.1680745172288
 10
71.99594996029963
 20
-108.1026177030091
 10
71.697604691277
 20
-107.7174560277581
 10
71.49882268177808
 20
-107.4614854332041
 10
71.43095430071865
 20
-107.3960286189843
 10
71.29349499085718
 20
-107.3960286189843
 10
71.1749837061646
 20
-107.3960286189843
 10
71.0440700777251
 20
-107.4680311146261
 10
71.0440700777251
 20
-107.6647460668338
 10
71.0440700777251
 20
-107.9248507759702
 10
71.27454696568832
 20
-107.9334635146833
 10
71.39099119308976
 20
-107.9375976292656
 10
71.39099119308976
 20
-107.9375976292656
 10
71.39099119308976
 20
-108.1618733453554
 10
71.39099119308976
 20
-108.1618733453554
 10
71.26386716968403
 20
-108.1532606066422
 10
71.15190156641341
 20
-108.142580810638
 10
71.03339028172083
 20
-108.0623100858317
 10
70.87250432255965
 20
-107.9524115398522
 10
70.83874238680421
 20
-107.7660318741002
 10
70.83874238680421
 20
-107.6499321562472
 10
70.83874238680421
 20
-107.3726019696846
 10
71.02271048571654
 20
-107.1652072214726
 10
71.29556204814834
 20
-107.1652072214726
 10
71.52431638836893
 20
-107.1652072214726
 10
71.62353513834412
 20
-107.281651448874
 10
71.84987791172503
 20
-107.5906765139009
 97
        0
 97
        0
 75
     2
 76
     1
 98
        0
  0
ENDBLK
  5
C2
330
BF
100
AcDbEntity
  8
0
100
AcDbBlockEnd
  0
BLOCK
  5
D9
330
D7
100
AcDbEntity
  8
0
100
AcDbBlockBegin
  2
block 7
 70
     0
 10
0.0
 20
0.0
 30
0.0
  3
block 7
  1

  0
SPLINE
  5
DB
330
D7
100
AcDbEntity
  8
_U+30EC_U+30A4_U+30E4_U+30FC 1
370
     0
100
AcDbSpline
210
0.0
220
0.0
230
1.0
 70
    11
 71
     3
 72
    53
 73
    49
 74
     0
 42
0.0000000001
 43
0.0000000001
 12
1.0
 22
0.0
 32
0.0
 13
1.0
 23
0.0
 33
0.0
 40
0.0
 40
0.0
 40
0.0
 40
0.0
 40
1.0
 40
1.0
 40
1.0
 40
2.0
 40
2.0
 40
2.0
 40
3.0
 40
3.0
 40
3.0
 40
4.0
 40
4.0
 40
4.0
 40
5.0
 40
5.0
 40
5.0
 40
6.0
 40
6.0
 40
6.0
 40
7.0
 40
7.0
 40
7.0
 40
8.0
 40
8.0
 40
8.0
 40
9.0
 40
9.0
 40
9.0
 40
10.0
 40
10.0
 40
10.0
 40
11.0
 40
11.0
 40
11.0
 40
12.0
 40
12.0
 40
12.0
 40
13.0
 40
13.0
 40
13.0
 40
14.0
 40
14.0
 40
14.0
 40
15.0
 40
15.0
 40
15.0
 40
16.0
 40
16.0
 40
16.0
 40
16.0
 10
73.21689180027217
 20
-133.6817626618921
 30
0.0
 10
73.21689180027217
 20
-133.7599663294072
 30
0.0
 10
73.20001083239444
 20
-133.8615966462221
 30
0.0
 10
73.13662107546585
 20
-133.963226963037
 30
0.0
 10
73.02672252948638
 20
-134.136515265945
 30
0.0
 10
72.89546439149836
 20
-134.1578748579536
 30
0.0
 10
72.78763290281005
 20
-134.1768228831225
 30
0.0
 10
72.78763290281005
 20
-134.1768228831225
 30
0.0
 10
72.78763290281005
 20
-133.9546142243238
 30
0.0
 10
72.78763290281005
 20
-133.9546142243238
 30
0.0
 10
72.98641491230896
 20
-133.8998372061084
 30
0.0
 10
73.01604273348211
 20
-133.7727131827027
 30
0.0
 10
73.01604273348211
 20
-133.6796956046009
 30
0.0
 10
73.01604273348211
 20
-133.5401692374483
 30
0.0
 10
72.91647947395839
 20
-133.3878960170003
 30
0.0
 10
72.68393552870403
 20
-133.3878960170003
 30
0.0
 10
72.42796493414995
 20
-133.3878960170003
 30
0.0
 10
72.35802949579939
 20
-133.5677300013303
 30
0.0
 10
72.35802949579939
 20
-133.688308343314
 30
0.0
 10
72.35802949579939
 20
-133.7200032217783
 30
0.0
 10
72.35802949579939
 20
-133.8615966462221
 30
0.0
 10
72.48722057649626
 20
-133.9504801097416
 30
0.0
 10
72.48722057649626
 20
-133.9504801097416
 30
0.0
 10
72.46827255132737
 20
-134.1261799794893
 30
0.0
 10
72.46827255132737
 20
-134.1261799794893
 30
0.0
 10
72.46827255132737
 20
-134.1261799794893
 30
0.0
 10
71.6218125906015
 20
-134.0056016375055
 30
0.0
 10
71.6218125906015
 20
-134.0056016375055
 30
0.0
 10
71.6218125906015
 20
-134.0056016375055
 30
0.0
 10
71.6218125906015
 20
-133.2270100578391
 30
0.0
 10
71.6218125906015
 20
-133.2270100578391
 30
0.0
 10
71.6218125906015
 20
-133.2270100578391
 30
0.0
 10
71.8164604855181
 20
-133.2270100578391
 30
0.0
 10
71.8164604855181
 20
-133.2270100578391
 30
0.0
 10
71.8164604855181
 20
-133.2270100578391
 30
0.0
 10
71.8164604855181
 20
-133.8426486210532
 30
0.0
 10
71.8164604855181
 20
-133.8426486210532
 30
0.0
 10
71.8164604855181
 20
-133.8426486210532
 30
0.0
 10
72.23951821110678
 20
-133.908105435273
 30
0.0
 10
72.23951821110678
 20
-133.908105435273
 30
0.0
 10
72.20575627535135
 20
-133.8467827356355
 30
0.0
 10
72.16544865817391
 20
-133.7644449535381
 30
0.0
 10
72.16544865817391
 20
-133.6459336688455
 30
0.0
 10
72.16544865817391
 20
-133.3920301315825
 30
0.0
 10
72.35182832392593
 20
-133.1550075621974
 30
0.0
 10
72.66498750353514
 20
-133.1550075621974
 30
0.0
 10
72.98228079772666
 20
-133.1550075621974
 30
0.0
 10
73.21689180027217
 20
-133.3792832782871
 30
0.0
 10
73.21689180027217
 20
-133.6817626618921
 30
0.0
  0
HATCH
  5
DC
330
D7
100
AcDbEntity
  8
_U+30EC_U+30A4_U+30E4_U+30FC 1
 62
   179
420
  2234388
100
AcDbHatch
 10
0.0
 20
0.0
 30
0.0
210
0.0
220
0.0
230
1.0
  2
SOLID
 70
     1
 71
     0
 91
        1
 92
        1
 93
        1
 72
     4
 94
        3
 73
     0
 74
     1
 95
       53
 96
       49
 40
0.0
 40
0.0
 40
0.0
 40
0.0
 40
1.0
 40
1.0
 40
1.0
 40
2.0
 40
2.0
 40
2.0
 40
3.0
 40
3.0
 40
3.0
 40
4.0
 40
4.0
 40
4.0
 40
5.0
 40
5.0
 40
5.0
 40
6.0
 40
6.0
 40
6.0
 40
7.0
 40
7.0
 40
7.0
 40
8.0
 40
8.0
 40
8.0
 40
9.0
 40
9.0
 40
9.0
 40
10.0
 40
10.0
 40
10.0
 40
11.0
 40
11.0
 40
11.0
 40
12.0
 40
12.0
 40
12.0
 40
13.0
 40
13.0
 40
13.0
 40
14.0
 40
14.0
 40
14.0
 40
15.0
 40
15.0
 40
15.0
 40
16.0
 40
16.0
 40
16.0
 40
16.0
 10
73.21689180027217
 20
-133.6817626618921
 10
73.21689180027217
 20
-133.7599663294072
 10
73.20001083239444
 20
-133.8615966462221
 10
73.13662107546585
 20
-133.963226963037
 10
73.02672252948638
 20
-134.136515265945
 10
72.89546439149836
 20
-134.1578748579536
 10
72.78763290281005
 20
-134.1768228831225
 10
72.78763290281005
 20
-134.1768228831225
 10
72.78763290281005
 20
-133.9546142243238
 10
72.78763290281005
 20
-133.9546142243238
 10
72.98641491230896
 20
-133.8998372061084
 10
73.01604273348211
 20
-133.7727131827027
 10
73.01604273348211
 20
-133.6796956046009
 10
73.01604273348211
 20
-133.5401692374483
 10
72.91647947395839
 20
-133.3878960170003
 10
72.68393552870403
 20
-133.3878960170003
 10
72.42796493414995
 20
-133.3878960170003
 10
72.35802949579939
 20
-133.5677300013303
 10
72.35802949579939
 20
-133.688308343314
 10
72.35802949579939
 20
-133.7200032217783
 10
72.35802949579939
 20
-133.8615966462221
 10
72.48722057649626
 20
-133.9504801097416
 10
72.48722057649626
 20
-133.9504801097416
 10
72.46827255132737
 20
-134.1261799794893
 10
72.46827255132737
 20
-134.1261799794893
 10
72.46827255132737
 20
-134.1261799794893
 10
71.6218125906015
 20
-134.0056016375055
 10
71.6218125906015
 20
-134.0056016375055
 10
71.6218125906015
 20
-134.0056016375055
 10
71.6218125906015
 20
-133.2270100578391
 10
71.6218125906015
 20
-133.2270100578391
 10
71.6218125906015
 20
-133.2270100578391
 10
71.8164604855181
 20
-133.2270100578391
 10
71.8164604855181
 20
-133.2270100578391
 10
71.8164604855181
 20
-133.2270100578391
 10
71.8164604855181
 20
-133.8426486210532
 10
71.8164604855181
 20
-133.8426486210532
 10
71.8164604855181
 20
-133.8426486210532
 10
72.23951821110678
 20
-133.908105435273
 10
72.23951821110678
 20
-133.908105435273
 10
72.20575627535135
 20
-133.8467827356355
 10
72.16544865817391
 20
-133.7644449535381
 10
72.16544865817391
 20
-133.6459336688455
 10
72.16544865817391
 20
-133.3920301315825
 10
72.35182832392593
 20
-133.1550075621974
 10
72.66498750353514
 20
-133.1550075621974
 10
72.98228079772666
 20
-133.1550075621974
 10
73.21689180027217
 20
-133.3792832782871
 10
73.21689180027217
 20
-133.6817626618921
 97
        0
 97
        0
 75
     2
 76
     1
 98
        0
  0
SPLINE
  5
DD
330
D7
100
AcDbEntity
  8
_U+30EC_U+30A4_U+30E4_U+30FC 1
370
     0
100
AcDbSpline
210
0.0
220
0.0
230
1.0
 70
    11
 71
     3
 72
    29
 73
    25
 74
     0
 42
0.0000000001
 43
0.0000000001
 12
1.0
 22
0.0
 32
0.0
 13
1.0
 23
0.0
 33
0.0
 40
0.0
 40
0.0
 40
0.0
 40
0.0
 40
1.0
 40
1.0
 40
1.0
 40
2.0
 40
2.0
 40
2.0
 40
3.0
 40
3.0
 40
3.0
 40
4.0
 40
4.0
 40
4.0
 40
5.0
 40
5.0
 40
5.0
 40
6.0
 40
6.0
 40
6.0
 40
7.0
 40
7.0
 40
7.0
 40
8.0
 40
8.0
 40
8.0
 40
8.0
 10
72.9884819696001
 20
-132.0880614904155
 30
0.0
 10
73.1979437751033
 20
-132.1962374886523
 30
0.0
 10
73.21689180027217
 20
-132.3695257915604
 30
0.0
 10
73.21689180027217
 20
-132.4859700189618
 30
0.0
 10
73.21689180027217
 20
-132.646855978123
 30
0.0
 10
73.17038301122129
 20
-132.7884494025668
 30
0.0
 10
72.9884819696001
 20
-132.8835340379597
 30
0.0
 10
72.79383407468349
 20
-132.9872314120657
 30
0.0
 10
72.5568115052983
 20
-133.0061794372346
 30
0.0
 10
72.3942029983945
 20
-133.0061794372346
 30
0.0
 10
72.25019800711107
 20
-133.0061794372346
 30
0.0
 10
71.9983615271393
 20
-132.9892984693568
 30
0.0
 10
71.79957951764038
 20
-132.8835340379597
 30
0.0
 10
71.59666339355917
 20
-132.7757025492714
 30
0.0
 10
71.57323674425948
 20
-132.6148165901102
 30
0.0
 10
71.57323674425948
 20
-132.4859700189618
 30
0.0
 10
71.57323674425948
 20
-132.3271511170918
 30
0.0
 10
71.6176784760192
 20
-132.1834906353569
 30
0.0
 10
71.79957951764038
 20
-132.0880614904155
 30
0.0
 10
71.99216035526585
 20
-131.9888427404403
 30
0.0
 10
72.22057018593792
 20
-131.9654160911406
 30
0.0
 10
72.3942029983945
 20
-131.9654160911406
 30
0.0
 10
72.56542424401142
 20
-131.9654160911406
 30
0.0
 10
72.79590113197465
 20
-131.9867756831491
 30
0.0
 10
72.9884819696001
 20
-132.0880614904155
 30
0.0
  0
SPLINE
  5
DE
330
D7
100
AcDbEntity
  8
_U+30EC_U+30A4_U+30E4_U+30FC 1
370
     0
100
AcDbSpline
210
0.0
220
0.0
230
1.0
 70
    11
 71
     3
 72
    17
 73
    13
 74
     0
 42
0.0000000001
 43
0.0000000001
 12
1.0
 22
0.0
 32
0.0
 13
1.0
 23
0.0
 33
0.0
 40
0.0
 40
0.0
 40
0.0
 40
0.0
 40
1.0
 40
1.0
 40
1.0
 40
2.0
 40
2.0
 40
2.0
 40
3.0
 40
3.0
 40
3.0
 40
4.0
 40
4.0
 40
4.0
 40
4.0
 10
71.76581758188493
 20
-132.4859700189618
 30
0.0
 10
71.76581758188493
 20
-132.7353949320939
 30
0.0
 10
72.049348940321
 20
-132.7822482306933
 30
0.0
 10
72.3942029983945
 20
-132.7822482306933
 30
0.0
 10
72.71356334987716
 20
-132.7822482306933
 30
0.0
 10
73.02224390535555
 20
-132.7460747280982
 30
0.0
 10
73.02224390535555
 20
-132.4859700189618
 30
0.0
 10
73.02224390535555
 20
-132.2382676535724
 30
0.0
 10
72.74112411375917
 20
-132.1896918072304
 30
0.0
 10
72.3942029983945
 20
-132.1896918072304
 30
0.0
 10
72.07449813736332
 20
-132.1896918072304
 30
0.0
 10
71.76581758188493
 20
-132.2279323671166
 30
0.0
 10
71.76581758188493
 20
-132.4859700189618
 30
0.0
  0
HATCH
  5
DF
330
D7
100
AcDbEntity
  8
_U+30EC_U+30A4_U+30E4_U+30FC 1
 62
   179
420
  2234388
100
AcDbHatch
 10
0.0
 20
0.0
 30
0.0
210
0.0
220
0.0
230
1.0
  2
SOLID
 70
     1
 71
     0
 91
        2
 92
        1
 93
        1
 72
     4
 94
        3
 73
     0
 74
     1
 95
       29
 96
       25
 40
0.0
 40
0.0
 40
0.0
 40
0.0
 40
1.0
 40
1.0
 40
1.0
 40
2.0
 40
2.0
 40
2.0
 40
3.0
 40
3.0
 40
3.0
 40
4.0
 40
4.0
 40
4.0
 40
5.0
 40
5.0
 40
5.0
 40
6.0
 40
6.0
 40
6.0
 40
7.0
 40
7.0
 40
7.0
 40
8.0
 40
8.0
 40
8.0
 40
8.0
 10
72.9884819696001
 20
-132.0880614904155
 10
73.1979437751033
 20
-132.1962374886523
 10
73.21689180027217
 20
-132.3695257915604
 10
73.21689180027217
 20
-132.4859700189618
 10
73.21689180027217
 20
-132.646855978123
 10
73.17038301122129
 20
-132.7884494025668
 10
72.9884819696001
 20
-132.8835340379597
 10
72.79383407468349
 20
-132.9872314120657
 10
72.5568115052983
 20
-133.0061794372346
 10
72.3942029983945
 20
-133.0061794372346
 10
72.25019800711107
 20
-133.0061794372346
 10
71.9983615271393
 20
-132.9892984693568
 10
71.79957951764038
 20
-132.8835340379597
 10
71.59666339355917
 20
-132.7757025492714
 10
71.57323674425948
 20
-132.6148165901102
 10
71.57323674425948
 20
-132.4859700189618
 10
71.57323674425948
 20
-132.3271511170918
 10
71.6176784760192
 20
-132.1834906353569
 10
71.79957951764038
 20
-132.0880614904155
 10
71.99216035526585
 20
-131.9888427404403
 10
72.22057018593792
 20
-131.9654160911406
 10
72.3942029983945
 20
-131.9654160911406
 10
72.56542424401142
 20
-131.9654160911406
 10
72.79590113197465
 20
-131.9867756831491
 10
72.9884819696001
 20
-132.0880614904155
 97
        0
 97
        0
 92
        1
 93
        1
 72
     4
 94
        3
 73
     0
 74
     1
 95
       17
 96
       13
 40
0.0
 40
0.0
 40
0.0
 40
0.0
 40
1.0
 40
1.0
 40
1.0
 40
2.0
 40
2.0
 40
2.0
 40
3.0
 40
3.0
 40
3.0
 40
4.0
 40
4.0
 40
4.0
 40
4.0
 10
71.76581758188493
 20
-132.4859700189618
 10
71.76581758188493
 20
-132.7353949320939
 10
72.049348940321
 20
-132.7822482306933
 10
72.3942029983945
 20
-132.7822482306933
 10
72.71356334987716
 20
-132.7822482306933
 10
73.02224390535555
 20
-132.7460747280982
 10
73.02224390535555
 20
-132.4859700189618
 10
73.02224390535555
 20
-132.2382676535724
 10
72.74112411375917
 20
-132.1896918072304
 10
72.3942029983945
 20
-132.1896918072304
 10
72.07449813736332
 20
-132.1896918072304
 10
71.76581758188493
 20
-132.2279323671166
 10
71.76581758188493
 20
-132.4859700189618
 97
        0
 97
        0
 75
     2
 76
     1
 98
        0
  0
ENDBLK
  5
DA
330
D7
100
AcDbEntity
  8
0
100
AcDbBlockEnd
  0
ENDSEC
  0
SECTION
  2
ENTITIES
  0
SPLINE
  5
41
330
1F
100
AcDbEntity
  8
_U+30EC_U+30A4_U+30E4_U+30FC 1
 62
   179
420
  2234388
370
    25
100
AcDbSpline
210
0.0
220
0.0
230
1.0
 70
    11
 71
     3
 72
    71
 73
    67
 74
     0
 42
0.0000000001
 43
0.0000000001
 12
1.0
 22
0.0
 32
0.0
 13
1.0
 23
0.0
 33
0.0
 40
0.0
 40
0.0
 40
0.0
 40
0.0
 40
1.0
 40
1.0
 40
1.0
 40
2.0
 40
2.0
 40
2.0
 40
3.0
 40
3.0
 40
3.0
 40
4.0
 40
4.0
 40
4.0
 40
5.0
 40
5.0
 40
5.0
 40
6.0
 40
6.0
 40
6.0
 40
7.0
 40
7.0
 40
7.0
 40
8.0
 40
8.0
 40
8.0
 40
9.0
 40
9.0
 40
9.0
 40
10.0
 40
10.0
 40
10.0
 40
11.0
 40
11.0
 40
11.0
 40
12.0
 40
12.0
 40
12.0
 40
13.0
 40
13.0
 40
13.0
 40
14.0
 40
14.0
 40
14.0
 40
15.0
 40
15.0
 40
15.0
 40
16.0
 40
16.0
 40
16.0
 40
17.0
 40
17.0
 40
17.0
 40
18.0
 40
18.0
 40
18.0
 40
19.0
 40
19.0
 40
19.0
 40
20.0
 40
20.0
 40
20.0
 40
21.0
 40
21.0
 40
21.0
 40
22.0
 40
22.0
 40
22.0
 40
22.0
 10
95.81190200007919
 20
-149.075139962731
 30
0.0
 10
95.81190200007919
 20
-149.075139962731
 30
0.0
 10
96.54948975903953
 20
-145.0753807970647
 30
0.0
 10
96.54948975903953
 20
-145.0753807970647
 30
0.0
 10
96.54948975903953
 20
-145.0753807970647
 30
0.0
 10
95.81190200007919
 20
-145.0753807970647
 30
0.0
 10
95.81190200007919
 20
-145.0753807970647
 30
0.0
 10
95.81190200007919
 20
-145.0753807970647
 30
0.0
 10
95.81190200007919
 20
-108.0747069174258
 30
0.0
 10
95.81190200007919
 20
-108.0747069174258
 30
0.0
 10
95.81190200007919
 20
-108.0747069174258
 30
0.0
 10
112.8995751752474
 20
-108.0747069174258
 30
0.0
 10
112.8995751752474
 20
-108.0747069174258
 30
0.0
 10
112.8995751752474
 20
-108.0747069174258
 30
0.0
 10
112.7021607358395
 20
-107.5331577508945
 30
0.0
 10
112.7021607358395
 20
-107.5331577508945
 30
0.0
 10
112.5585096283932
 20
-107.1376585843266
 30
0.0
 10
112.1829805275097
 20
-106.87512136217
 30
0.0
 10
111.7626782598076
 20
-106.87512136217
 30
0.0
 10
111.7626782598076
 20
-106.87512136217
 30
0.0
 10
78.94884442470737
 20
-106.87512136217
 30
0.0
 10
78.94884442470737
 20
-106.87512136217
 30
0.0
 10
78.52854299656997
 20
-106.87512136217
 30
0.0
 10
78.15301106170614
 20
-107.1376585843266
 30
0.0
 10
78.00935995425986
 20
-107.5331577508945
 30
0.0
 10
78.00935995425986
 20
-107.5331577508945
 30
0.0
 10
77.81194551485189
 20
-108.0747069174258
 30
0.0
 10
77.81194551485189
 20
-108.0747069174258
 30
0.0
 10
77.81194551485189
 20
-108.0747069174258
 30
0.0
 10
94.81212980336328
 20
-108.0747069174258
 30
0.0
 10
94.81212980336328
 20
-108.0747069174258
 30
0.0
 10
94.81212980336328
 20
-108.0747069174258
 30
0.0
 10
94.81212980336328
 20
-145.0753807970647
 30
0.0
 10
94.81212980336328
 20
-145.0753807970647
 30
0.0
 10
94.81212980336328
 20
-145.0753807970647
 30
0.0
 10
94.07454442092569
 20
-145.0753807970647
 30
0.0
 10
94.07454442092569
 20
-145.0753807970647
 30
0.0
 10
94.07454442092569
 20
-145.0753807970647
 30
0.0
 10
94.81212980336328
 20
-149.075139962731
 30
0.0
 10
94.81212980336328
 20
-149.075139962731
 30
0.0
 10
94.81212980336328
 20
-149.075139962731
 30
0.0
 10
94.07454442092569
 20
-149.075139962731
 30
0.0
 10
94.07454442092569
 20
-149.075139962731
 30
0.0
 10
94.07454442092569
 20
-149.075139962731
 30
0.0
 10
94.81212980336328
 20
-153.0755694061759
 30
0.0
 10
94.81212980336328
 20
-153.0755694061759
 30
0.0
 10
94.81212980336328
 20
-153.0755694061759
 30
0.0
 10
94.07454442092569
 20
-153.0755694061759
 30
0.0
 10
94.07454442092569
 20
-153.0755694061759
 30
0.0
 10
94.07454442092569
 20
-153.0755694061759
 30
0.0
 10
94.81212980336328
 20
-158.0751007938146
 30
0.0
 10
94.81212980336328
 20
-158.0751007938146
 30
0.0
 10
94.81212980336328
 20
-158.0751007938146
 30
0.0
 10
95.81190200007919
 20
-158.0751007938146
 30
0.0
 10
95.81190200007919
 20
-158.0751007938146
 30
0.0
 10
95.81190200007919
 20
-158.0751007938146
 30
0.0
 10
96.54948975903953
 20
-153.0755694061759
 30
0.0
 10
96.54948975903953
 20
-153.0755694061759
 30
0.0
 10
96.54948975903953
 20
-153.0755694061759
 30
0.0
 10
95.81190200007919
 20
-153.0755694061759
 30
0.0
 10
95.81190200007919
 20
-153.0755694061759
 30
0.0
 10
95.81190200007919
 20
-153.0755694061759
 30
0.0
 10
96.54948975903953
 20
-149.075139962731
 30
0.0
 10
96.54948975903953
 20
-149.075139962731
 30
0.0
 10
96.54948975903953
 20
-149.075139962731
 30
0.0
 10
95.81190200007919
 20
-149.075139962731
 30
0.0
 10
95.81190200007919
 20
-149.075139962731
 30
0.0
  0
HATCH
  5
42
330
1F
100
AcDbEntity
  8
_U+30EC_U+30A4_U+30E4_U+30FC 1
 62
    41
420
 16705972
100
AcDbHatch
 10
0.0
 20
0.0
 30
0.0
210
0.0
220
0.0
230
1.0
  2
SOLID
 70
     1
 71
     0
 91
        1
 92
        1
 93
        1
 72
     4
 94
        3
 73
     0
 74
     1
 95
       71
 96
       67
 40
0.0
 40
0.0
 40
0.0
 40
0.0
 40
1.0
 40
1.0
 40
1.0
 40
2.0
 40
2.0
 40
2.0
 40
3.0
 40
3.0
 40
3.0
 40
4.0
 40
4.0
 40
4.0
 40
5.0
 40
5.0
 40
5.0
 40
6.0
 40
6.0
 40
6.0
 40
7.0
 40
7.0
 40
7.0
 40
8.0
 40
8.0
 40
8.0
 40
9.0
 40
9.0
 40
9.0
 40
10.0
 40
10.0
 40
10.0
 40
11.0
 40
11.0
 40
11.0
 40
12.0
 40
12.0
 40
12.0
 40
13.0
 40
13.0
 40
13.0
 40
14.0
 40
14.0
 40
14.0
 40
15.0
 40
15.0
 40
15.0
 40
16.0
 40
16.0
 40
16.0
 40
17.0
 40
17.0
 40
17.0
 40
18.0
 40
18.0
 40
18.0
 40
19.0
 40
19.0
 40
19.0
 40
20.0
 40
20.0
 40
20.0
 40
21.0
 40
21.0
 40
21.0
 40
22.0
 40
22.0
 40
22.0
 40
22.0
 10
95.81190200007919
 20
-149.075139962731
 10
95.81190200007919
 20
-149.075139962731
 10
96.54948975903953
 20
-145.0753807970647
 10
96.54948975903953
 20
-145.0753807970647
 10
96.54948975903953
 20
-145.0753807970647
 10
95.81190200007919
 20
-145.0753807970647
 10
95.81190200007919
 20
-145.0753807970647
 10
95.81190200007919
 20
-145.0753807970647
 10
95.81190200007919
 20
-108.0747069174258
 10
95.81190200007919
 20
-108.0747069174258
 10
95.81190200007919
 20
-108.0747069174258
 10
112.8995751752474
 20
-108.0747069174258
 10
112.8995751752474
 20
-108.0747069174258
 10
112.8995751752474
 20
-108.0747069174258
 10
112.7021607358395
 20
-107.5331577508945
 10
112.7021607358395
 20
-107.5331577508945
 10
112.5585096283932
 20
-107.1376585843266
 10
112.1829805275097
 20
-106.87512136217
 10
111.7626782598076
 20
-106.87512136217
 10
111.7626782598076
 20
-106.87512136217
 10
78.94884442470737
 20
-106.87512136217
 10
78.94884442470737
 20
-106.87512136217
 10
78.52854299656997
 20
-106.87512136217
 10
78.15301106170614
 20
-107.1376585843266
 10
78.00935995425986
 20
-107.5331577508945
 10
78.00935995425986
 20
-107.5331577508945
 10
77.81194551485189
 20
-108.0747069174258
 10
77.81194551485189
 20
-108.0747069174258
 10
77.81194551485189
 20
-108.0747069174258
 10
94.81212980336328
 20
-108.0747069174258
 10
94.81212980336328
 20
-108.0747069174258
 10
94.81212980336328
 20
-108.0747069174258
 10
94.81212980336328
 20
-145.0753807970647
 10
94.81212980336328
 20
-145.0753807970647
 10
94.81212980336328
 20
-145.0753807970647
 10
94.07454442092569
 20
-145.0753807970647
 10
94.07454442092569
 20
-145.0753807970647
 10
94.07454442092569
 20
-145.0753807970647
 10
94.81212980336328
 20
-149.075139962731
 10
94.81212980336328
 20
-149.075139962731
 10
94.81212980336328
 20
-149.075139962731
 10
94.07454442092569
 20
-149.075139962731
 10
94.07454442092569
 20
-149.075139962731
 10
94.07454442092569
 20
-149.075139962731
 10
94.81212980336328
 20
-153.0755694061759
 10
94.81212980336328
 20
-153.0755694061759
 10
94.81212980336328
 20
-153.0755694061759
 10
94.07454442092569
 20
-153.0755694061759
 10
94.07454442092569
 20
-153.0755694061759
 10
94.07454442092569
 20
-153.0755694061759
 10
94.81212980336328
 20
-158.0751007938146
 10
94.81212980336328
 20
-158.0751007938146
 10
94.81212980336328
 20
-158.0751007938146
 10
95.81190200007919
 20
-158.0751007938146
 10
95.81190200007919
 20
-158.0751007938146
 10
95.81190200007919
 20
-158.0751007938146
 10
96.54948975903953
 20
-153.0755694061759
 10
96.54948975903953
 20
-153.0755694061759
 10
96.54948975903953
 20
-153.0755694061759
 10
95.81190200007919
 20
-153.0755694061759
 10
95.81190200007919
 20
-153.0755694061759
 10
95.81190200007919
 20
-153.0755694061759
 10
96.54948975903953
 20
-149.075139962731
 10
96.54948975903953
 20
-149.075139962731
 10
96.54948975903953
 20
-149.075139962731
 10
95.81190200007919
 20
-149.075139962731
 10
95.81190200007919
 20
-149.075139962731
 97
        0
 97
        0
 75
     2
 76
     1
 98
        0
  0
SPLINE
  5
43
330
1F
100
AcDbEntity
  8
_U+30EC_U+30A4_U+30E4_U+30FC 1
 62
   179
420
  2234388
370
     9
100
AcDbSpline
210
0.0
220
0.0
230
1.0
 70
    11
 71
     3
 72
    17
 73
    13
 74
     0
 42
0.0000000001
 43
0.0000000001
 12
1.0
 22
0.0
 32
0.0
 13
1.0
 23
0.0
 33
0.0
 40
0.0
 40
0.0
 40
0.0
 40
0.0
 40
1.0
 40
1.0
 40
1.0
 40
2.0
 40
2.0
 40
2.0
 40
3.0
 40
3.0
 40
3.0
 40
4.0
 40
4.0
 40
4.0
 40
4.0
 10
90.70212768599595
 20
-158.0751007938146
 30
0.0
 10
90.70212768599595
 20
-158.0199969049397
 30
0.0
 10
90.65732490936118
 20
-157.975194127173
 30
0.0
 10
90.60222102187811
 20
-157.975194127173
 30
0.0
 10
90.54708185661816
 20
-157.975194127173
 30
0.0
 10
90.50231664404122
 20
-158.0199969049397
 30
0.0
 10
90.50231664404122
 20
-158.0751007938146
 30
0.0
 10
90.50231664404122
 20
-158.1309102382451
 30
0.0
 10
90.54708185661816
 20
-158.1757130160118
 30
0.0
 10
90.60222102187811
 20
-158.1757130160118
 30
0.0
 10
90.65732490936118
 20
-158.1757130160118
 30
0.0
 10
90.70212768599595
 20
-158.1309102382451
 30
0.0
 10
90.70212768599595
 20
-158.0751007938146
 30
0.0
  0
SPLINE
  5
44
330
1F
100
AcDbEntity
  8
_U+30EC_U+30A4_U+30E4_U+30FC 1
 62
   179
420
  2234388
370
     9
100
AcDbSpline
210
0.0
220
0.0
230
1.0
 70
    11
 71
     3
 72
    17
 73
    13
 74
     0
 42
0.0000000001
 43
0.0000000001
 12
1.0
 22
0.0
 32
0.0
 13
1.0
 23
0.0
 33
0.0
 40
0.0
 40
0.0
 40
0.0
 40
0.0
 40
1.0
 40
1.0
 40
1.0
 40
2.0
 40
2.0
 40
2.0
 40
3.0
 40
3.0
 40
3.0
 40
4.0
 40
4.0
 40
4.0
 40
4.0
 10
90.70212768599595
 20
-153.0755694061759
 30
0.0
 10
90.70212768599595
 20
-153.0204655173003
 30
0.0
 10
90.65732490936118
 20
-152.9756627395336
 30
0.0
 10
90.60222102187811
 20
-152.9756627395336
 30
0.0
 10
90.54708185661816
 20
-152.9756627395336
 30
0.0
 10
90.50231664404122
 20
-153.0204655173003
 30
0.0
 10
90.50231664404122
 20
-153.0755694061759
 30
0.0
 10
90.50231664404122
 20
-153.1307085728283
 30
0.0
 10
90.54708185661816
 20
-153.1754760728175
 30
0.0
 10
90.60222102187811
 20
-153.1754760728175
 30
0.0
 10
90.65732490936118
 20
-153.1754760728175
 30
0.0
 10
90.70212768599595
 20
-153.1307085728283
 30
0.0
 10
90.70212768599595
 20
-153.0755694061759
 30
0.0
  0
SPLINE
  5
45
330
1F
100
AcDbEntity
  8
_U+30EC_U+30A4_U+30E4_U+30FC 1
 62
   179
420
  2234388
370
     9
100
AcDbSpline
210
0.0
220
0.0
230
1.0
 70
    11
 71
     3
 72
    17
 73
    13
 74
     0
 42
0.0000000001
 43
0.0000000001
 12
1.0
 22
0.0
 32
0.0
 13
1.0
 23
0.0
 33
0.0
 40
0.0
 40
0.0
 40
0.0
 40
0.0
 40
1.0
 40
1.0
 40
1.0
 40
2.0
 40
2.0
 40
2.0
 40
3.0
 40
3.0
 40
3.0
 40
4.0
 40
4.0
 40
4.0
 40
4.0
 10
90.70212768599595
 20
-149.075139962731
 30
0.0
 10
90.70212768599595
 20
-149.0200007960785
 30
0.0
 10
90.65732490936118
 20
-148.9752332960893
 30
0.0
 10
90.60222102187811
 20
-148.9752332960893
 30
0.0
 10
90.54708185661816
 20
-148.9752332960893
 30
0.0
 10
90.50231664404122
 20
-149.0200007960785
 30
0.0
 10
90.50231664404122
 20
-149.075139962731
 30
0.0
 10
90.50231664404122
 20
-149.1309494071614
 30
0.0
 10
90.54708185661816
 20
-149.1757521849281
 30
0.0
 10
90.60222102187811
 20
-149.1757521849281
 30
0.0
 10
90.65732490936118
 20
-149.1757521849281
 30
0.0
 10
90.70212768599595
 20
-149.1309494071614
 30
0.0
 10
90.70212768599595
 20
-149.075139962731
 30
0.0
  0
SPLINE
  5
46
330
1F
100
AcDbEntity
  8
_U+30EC_U+30A4_U+30E4_U+30FC 1
 62
   179
420
  2234388
370
     9
100
AcDbSpline
210
0.0
220
0.0
230
1.0
 70
    11
 71
     3
 72
    17
 73
    13
 74
     0
 42
0.0000000001
 43
0.0000000001
 12
1.0
 22
0.0
 32
0.0
 13
1.0
 23
0.0
 33
0.0
 40
0.0
 40
0.0
 40
0.0
 40
0.0
 40
1.0
 40
1.0
 40
1.0
 40
2.0
 40
2.0
 40
2.0
 40
3.0
 40
3.0
 40
3.0
 40
4.0
 40
4.0
 40
4.0
 40
4.0
 10
90.70212768599595
 20
-145.0753807970647
 30
0.0
 10
90.70212768599595
 20
-145.0202769081892
 30
0.0
 10
90.65732490936118
 20
-144.9754741304231
 30
0.0
 10
90.60222102187811
 20
-144.9754741304231
 30
0.0
 10
90.54708185661816
 20
-144.9754741304231
 30
0.0
 10
90.50231664404122
 20
-145.0202769081892
 30
0.0
 10
90.50231664404122
 20
-145.0753807970647
 30
0.0
 10
90.50231664404122
 20
-145.1305199637172
 30
0.0
 10
90.54708185661816
 20
-145.1752874637064
 30
0.0
 10
90.60222102187811
 20
-145.1752874637064
 30
0.0
 10
90.65732490936118
 20
-145.1752874637064
 30
0.0
 10
90.70212768599595
 20
-145.1305199637172
 30
0.0
 10
90.70212768599595
 20
-145.0753807970647
 30
0.0
  0
SPLINE
  5
47
330
1F
100
AcDbEntity
  8
_U+30EC_U+30A4_U+30E4_U+30FC 1
 62
   179
420
  2234388
370
     9
100
AcDbSpline
210
0.0
220
0.0
230
1.0
 70
    11
 71
     3
 72
    17
 73
    13
 74
     0
 42
0.0000000001
 43
0.0000000001
 12
1.0
 22
0.0
 32
0.0
 13
1.0
 23
0.0
 33
0.0
 40
0.0
 40
0.0
 40
0.0
 40
0.0
 40
1.0
 40
1.0
 40
1.0
 40
2.0
 40
2.0
 40
2.0
 40
3.0
 40
3.0
 40
3.0
 40
4.0
 40
4.0
 40
4.0
 40
4.0
 10
77.91185217896972
 20
-102.8753621965034
 30
0.0
 10
77.91185217896972
 20
-102.8202583076282
 30
0.0
 10
77.86708468011183
 20
-102.7754555298618
 30
0.0
 10
77.81194551485189
 20
-102.7754555298618
 30
0.0
 10
77.75684162736881
 20
-102.7754555298618
 30
0.0
 10
77.71203885073405
 20
-102.8202583076282
 30
0.0
 10
77.71203885073405
 20
-102.8753621965034
 30
0.0
 10
77.71203885073405
 20
-102.9305013631562
 30
0.0
 10
77.75684162736881
 20
-102.9752688631451
 30
0.0
 10
77.81194551485189
 20
-102.9752688631451
 30
0.0
 10
77.86708468011183
 20
-102.9752688631451
 30
0.0
 10
77.91185217896972
 20
-102.9305013631562
 30
0.0
 10
77.91185217896972
 20
-102.8753621965034
 30
0.0
  0
SPLINE
  5
48
330
1F
100
AcDbEntity
  8
_U+30EC_U+30A4_U+30E4_U+30FC 1
 62
   179
420
  2234388
370
     9
100
AcDbSpline
210
0.0
220
0.0
230
1.0
 70
    11
 71
     3
 72
    17
 73
    13
 74
     0
 42
0.0000000001
 43
0.0000000001
 12
1.0
 22
0.0
 32
0.0
 13
1.0
 23
0.0
 33
0.0
 40
0.0
 40
0.0
 40
0.0
 40
0.0
 40
1.0
 40
1.0
 40
1.0
 40
2.0
 40
2.0
 40
2.0
 40
3.0
 40
3.0
 40
3.0
 40
4.0
 40
4.0
 40
4.0
 40
4.0
 10
73.91209311434541
 20
-106.87512136217
 30
0.0
 10
73.91209311434541
 20
-106.8200174732951
 30
0.0
 10
73.86732561548753
 20
-106.7752146955284
 30
0.0
 10
73.81218645022757
 20
-106.7752146955284
 30
0.0
 10
73.75672978497572
 20
-106.7752146955284
 30
0.0
 10
73.71227978610973
 20
-106.8200174732951
 30
0.0
 10
73.71227978610973
 20
-106.87512136217
 30
0.0
 10
73.71227978610973
 20
-106.9302605288231
 30
0.0
 10
73.75672978497572
 20
-106.975028028812
 30
0.0
 10
73.81218645022757
 20
-106.975028028812
 30
0.0
 10
73.86732561548753
 20
-106.975028028812
 30
0.0
 10
73.91209311434541
 20
-106.9302605288231
 30
0.0
 10
73.91209311434541
 20
-106.87512136217
 30
0.0
  0
SPLINE
  5
49
330
1F
100
AcDbEntity
  8
_U+30EC_U+30A4_U+30E4_U+30FC 1
 62
   179
420
  2234388
370
     9
100
AcDbSpline
210
0.0
220
0.0
230
1.0
 70
    11
 71
     3
 72
    17
 73
    13
 74
     0
 42
0.0000000001
 43
0.0000000001
 12
1.0
 22
0.0
 32
0.0
 13
1.0
 23
0.0
 33
0.0
 40
0.0
 40
0.0
 40
0.0
 40
0.0
 40
1.0
 40
1.0
 40
1.0
 40
2.0
 40
2.0
 40
2.0
 40
3.0
 40
3.0
 40
3.0
 40
4.0
 40
4.0
 40
4.0
 40
4.0
 10
73.91209311434541
 20
-108.0747069174258
 30
0.0
 10
73.91209311434541
 20
-108.0196030285506
 30
0.0
 10
73.86732561548753
 20
-107.9748002507842
 30
0.0
 10
73.81218645022757
 20
-107.9748002507842
 30
0.0
 10
73.75672978497572
 20
-107.9748002507842
 30
0.0
 10
73.71227978610973
 20
-108.0196030285506
 30
0.0
 10
73.71227978610973
 20
-108.0747069174258
 30
0.0
 10
73.71227978610973
 20
-108.1305163618563
 30
0.0
 10
73.75672978497572
 20
-108.175319139623
 30
0.0
 10
73.81218645022757
 20
-108.175319139623
 30
0.0
 10
73.86732561548753
 20
-108.175319139623
 30
0.0
 10
73.91209311434541
 20
-108.1305163618563
 30
0.0
 10
73.91209311434541
 20
-108.0747069174258
 30
0.0
  0
SPLINE
  5
4A
330
1F
100
AcDbEntity
  8
_U+30EC_U+30A4_U+30E4_U+30FC 1
 62
   179
420
  2234388
370
     9
100
AcDbSpline
210
0.0
220
0.0
230
1.0
 70
    11
 71
     3
 72
    17
 73
    13
 74
     0
 42
0.0000000001
 43
0.0000000001
 12
1.0
 22
0.0
 32
0.0
 13
1.0
 23
0.0
 33
0.0
 40
0.0
 40
0.0
 40
0.0
 40
0.0
 40
1.0
 40
1.0
 40
1.0
 40
2.0
 40
2.0
 40
2.0
 40
3.0
 40
3.0
 40
3.0
 40
4.0
 40
4.0
 40
4.0
 40
4.0
 10
73.94655950235499
 20
-158.0751007938146
 30
0.0
 10
73.94655950235499
 20
-158.0199969049397
 30
0.0
 10
73.9017920034971
 20
-157.975194127173
 30
0.0
 10
73.84665283823715
 20
-157.975194127173
 30
0.0
 10
73.79119617298531
 20
-157.975194127173
 30
0.0
 10
73.74674617411932
 20
-158.0199969049397
 30
0.0
 10
73.74674617411932
 20
-158.0751007938146
 30
0.0
 10
73.74674617411932
 20
-158.1309102382451
 30
0.0
 10
73.79119617298531
 20
-158.1757130160118
 30
0.0
 10
73.84665283823715
 20
-158.1757130160118
 30
0.0
 10
73.9017920034971
 20
-158.1757130160118
 30
0.0
 10
73.94655950235499
 20
-158.1309102382451
 30
0.0
 10
73.94655950235499
 20
-158.0751007938146
 30
0.0
  0
POLYLINE
  5
4B
330
1F
100
AcDbEntity
  8
_U+30EC_U+30A4_U+30E4_U+30FC 1
 62
   179
420
  2234388
370
     9
100
AcDb2dPolyline
 66
     1
 10
0.0
 20
0.0
 30
0.0
  0
VERTEX
  5
4C
330
4B
100
AcDbEntity
  8
_U+30EC_U+30A4_U+30E4_U+30FC 1
 62
   179
420
  2234388
370
     9
100
AcDbVertex
100
AcDb2dVertex
 10
90.60222102187811
 20
-158.0751007938146
 30
0.0
  0
VERTEX
  5
4D
330
4B
100
AcDbEntity
  8
_U+30EC_U+30A4_U+30E4_U+30FC 1
 62
   179
420
  2234388
370
     9
100
AcDbVertex
100
AcDb2dVertex
 10
90.60222102187811
 20
-153.0755694061759
 30
0.0
  0
SEQEND
  5
4E
330
4B
100
AcDbEntity
  8
_U+30EC_U+30A4_U+30E4_U+30FC 1
 62
   179
420
  2234388
370
     9
  0
POLYLINE
  5
4F
330
1F
100
AcDbEntity
  8
_U+30EC_U+30A4_U+30E4_U+30FC 1
 62
   179
420
  2234388
370
     9
100
AcDb2dPolyline
 66
     1
 10
0.0
 20
0.0
 30
0.0
  0
VERTEX
  5
50
330
4F
100
AcDbEntity
  8
_U+30EC_U+30A4_U+30E4_U+30FC 1
 62
   179
420
  2234388
370
     9
100
AcDbVertex
100
AcDb2dVertex
 10
92.71232596804484
 20
-158.0751007938146
 30
0.0
  0
VERTEX
  5
51
330
4F
100
AcDbEntity
  8
_U+30EC_U+30A4_U+30E4_U+30FC 1
 62
   179
420
  2234388
370
     9
100
AcDbVertex
100
AcDb2dVertex
 10
89.6024488251622
 20
-158.0751007938146
 30
0.0
  0
SEQEND
  5
52
330
4F
100
AcDbEntity
  8
_U+30EC_U+30A4_U+30E4_U+30FC 1
 62
   179
420
  2234388
370
     9
  0
POLYLINE
  5
53
330
1F
100
AcDbEntity
  8
_U+30EC_U+30A4_U+30E4_U+30FC 1
 62
   179
420
  2234388
370
     9
100
AcDb2dPolyline
 66
     1
 10
0.0
 20
0.0
 30
0.0
  0
VERTEX
  5
54
330
53
100
AcDbEntity
  8
_U+30EC_U+30A4_U+30E4_U+30FC 1
 62
   179
420
  2234388
370
     9
100
AcDbVertex
100
AcDb2dVertex
 10
92.06226237351824
 20
-153.0755694061759
 30
0.0
  0
VERTEX
  5
55
330
53
100
AcDbEntity
  8
_U+30EC_U+30A4_U+30E4_U+30FC 1
 62
   179
420
  2234388
370
     9
100
AcDbVertex
100
AcDb2dVertex
 10
89.6024488251622
 20
-153.0755694061759
 30
0.0
  0
SEQEND
  5
56
330
53
100
AcDbEntity
  8
_U+30EC_U+30A4_U+30E4_U+30FC 1
 62
   179
420
  2234388
370
     9
  0
INSERT
  5
58
330
1F
100
AcDbEntity
  8
_U+30EC_U+30A4_U+30E4_U+30FC 1
100
AcDbBlockReference
  2
block 2
 10
0.0
 20
0.0
 30
0.0
  0
POLYLINE
  5
5D
330
1F
100
AcDbEntity
  8
_U+30EC_U+30A4_U+30E4_U+30FC 1
 62
   179
420
  2234388
370
     9
100
AcDb2dPolyline
 66
     1
 10
0.0
 20
0.0
 30
0.0
  0
VERTEX
  5
5E
330
5D
100
AcDbEntity
  8
_U+30EC_U+30A4_U+30E4_U+30FC 1
 62
   179
420
  2234388
370
     9
100
AcDbVertex
100
AcDb2dVertex
 10
90.60222102187811
 20
-153.0755694061759
 30
0.0
  0
VERTEX
  5
5F
330
5D
100
AcDbEntity
  8
_U+30EC_U+30A4_U+30E4_U+30FC 1
 62
   179
420
  2234388
370
     9
100
AcDbVertex
100
AcDb2dVertex
 10
90.60222102187811
 20
-149.075139962731
 30
0.0
  0
SEQEND
  5
60
330
5D
100
AcDbEntity
  8
_U+30EC_U+30A4_U+30E4_U+30FC 1
 62
   179
420
  2234388
370
     9
  0
POLYLINE
  5
61
330
1F
100
AcDbEntity
  8
_U+30EC_U+30A4_U+30E4_U+30FC 1
 62
   179
420
  2234388
370
     9
100
AcDb2dPolyline
 66
     1
 10
0.0
 20
0.0
 30
0.0
  0
VERTEX
  5
62
330
61
100
AcDbEntity
  8
_U+30EC_U+30A4_U+30E4_U+30FC 1
 62
   179
420
  2234388
370
     9
100
AcDbVertex
100
AcDb2dVertex
 10
92.06226237351824
 20
-149.075139962731
 30
0.0
  0
VERTEX
  5
63
330
61
100
AcDbEntity
  8
_U+30EC_U+30A4_U+30E4_U+30FC 1
 62
   179
420
  2234388
370
     9
100
AcDbVertex
100
AcDb2dVertex
 10
89.6024488251622
 20
-149.075139962731
 30
0.0
  0
SEQEND
  5
64
330
61
100
AcDbEntity
  8
_U+30EC_U+30A4_U+30E4_U+30FC 1
 62
   179
420
  2234388
370
     9
  0
INSERT
  5
66
330
1F
100
AcDbEntity
  8
_U+30EC_U+30A4_U+30E4_U+30FC 1
100
AcDbBlockReference
  2
block 3
 10
0.0
 20
0.0
 30
0.0
  0
POLYLINE
  5
7E
330
1F
100
AcDbEntity
  8
_U+30EC_U+30A4_U+30E4_U+30FC 1
 62
   179
420
  2234388
370
     9
100
AcDb2dPolyline
 66
     1
 10
0.0
 20
0.0
 30
0.0
  0
VERTEX
  5
7F
330
7E
100
AcDbEntity
  8
_U+30EC_U+30A4_U+30E4_U+30FC 1
 62
   179
420
  2234388
370
     9
100
AcDbVertex
100
AcDb2dVertex
 10
90.60222102187811
 20
-149.075139962731
 30
0.0
  0
VERTEX
  5
80
330
7E
100
AcDbEntity
  8
_U+30EC_U+30A4_U+30E4_U+30FC 1
 62
   179
420
  2234388
370
     9
100
AcDbVertex
100
AcDb2dVertex
 10
90.60222102187811
 20
-145.0753807970647
 30
0.0
  0
SEQEND
  5
81
330
7E
100
AcDbEntity
  8
_U+30EC_U+30A4_U+30E4_U+30FC 1
 62
   179
420
  2234388
370
     9
  0
POLYLINE
  5
82
330
1F
100
AcDbEntity
  8
_U+30EC_U+30A4_U+30E4_U+30FC 1
 62
   179
420
  2234388
370
     9
100
AcDb2dPolyline
 66
     1
 10
0.0
 20
0.0
 30
0.0
  0
VERTEX
  5
83
330
82
100
AcDbEntity
  8
_U+30EC_U+30A4_U+30E4_U+30FC 1
 62
   179
420
  2234388
370
     9
100
AcDbVertex
100
AcDb2dVertex
 10
92.06226237351824
 20
-145.0753807970647
 30
0.0
  0
VERTEX
  5
84
330
82
100
AcDbEntity
  8
_U+30EC_U+30A4_U+30E4_U+30FC 1
 62
   179
420
  2234388
370
     9
100
AcDbVertex
100
AcDb2dVertex
 10
89.6024488251622
 20
-145.0753807970647
 30
0.0
  0
SEQEND
  5
85
330
82
100
AcDbEntity
  8
_U+30EC_U+30A4_U+30E4_U+30FC 1
 62
   179
420
  2234388
370
     9
  0
INSERT
  5
87
330
1F
100
AcDbEntity
  8
_U+30EC_U+30A4_U+30E4_U+30FC 1
100
AcDbBlockReference
  2
block 4
 10
0.0
 20
0.0
 30
0.0
  0
POLYLINE
  5
9F
330
1F
100
AcDbEntity
  8
_U+30EC_U+30A4_U+30E4_U+30FC 1
 62
   179
420
  2234388
370
     9
100
AcDb2dPolyline
 66
     1
 10
0.0
 20
0.0
 30
0.0
  0
VERTEX
  5
A0
330
9F
100
AcDbEntity
  8
_U+30EC_U+30A4_U+30E4_U+30FC 1
 62
   179
420
  2234388
370
     9
100
AcDbVertex
100
AcDb2dVertex
 10
112.8120510108137
 20
-102.8753621965034
 30
0.0
  0
VERTEX
  5
A1
330
9F
100
AcDbEntity
  8
_U+30EC_U+30A4_U+30E4_U+30FC 1
 62
   179
420
  2234388
370
     9
100
AcDbVertex
100
AcDb2dVertex
 10
77.81194551485189
 20
-102.8753621965034
 30
0.0
  0
SEQEND
  5
A2
330
9F
100
AcDbEntity
  8
_U+30EC_U+30A4_U+30E4_U+30FC 1
 62
   179
420
  2234388
370
     9
  0
POLYLINE
  5
A3
330
1F
100
AcDbEntity
  8
_U+30EC_U+30A4_U+30E4_U+30FC 1
 62
   179
420
  2234388
370
     9
100
AcDb2dPolyline
 66
     1
 10
0.0
 20
0.0
 30
0.0
  0
VERTEX
  5
A4
330
A3
100
AcDbEntity
  8
_U+30EC_U+30A4_U+30E4_U+30FC 1
 62
   179
420
  2234388
370
     9
100
AcDbVertex
100
AcDb2dVertex
 10
77.81194551485189
 20
-105.534989140283
 30
0.0
  0
VERTEX
  5
A5
330
A3
100
AcDbEntity
  8
_U+30EC_U+30A4_U+30E4_U+30FC 1
 62
   179
420
  2234388
370
     9
100
AcDbVertex
100
AcDb2dVertex
 10
77.81194551485189
 20
-101.8752724745313
 30
0.0
  0
SEQEND
  5
A6
330
A3
100
AcDbEntity
  8
_U+30EC_U+30A4_U+30E4_U+30FC 1
 62
   179
420
  2234388
370
     9
  0
INSERT
  5
A8
330
1F
100
AcDbEntity
  8
_U+30EC_U+30A4_U+30E4_U+30FC 1
100
AcDbBlockReference
  2
block 5
 10
0.0
 20
0.0
 30
0.0
  0
POLYLINE
  5
AF
330
1F
100
AcDbEntity
  8
_U+30EC_U+30A4_U+30E4_U+30FC 1
 62
   179
420
  2234388
370
     9
100
AcDb2dPolyline
 66
     1
 10
0.0
 20
0.0
 30
0.0
  0
VERTEX
  5
B0
330
AF
100
AcDbEntity
  8
_U+30EC_U+30A4_U+30E4_U+30FC 1
 62
   179
420
  2234388
370
     9
100
AcDbVertex
100
AcDb2dVertex
 10
73.81218645022757
 20
-106.87512136217
 30
0.0
  0
VERTEX
  5
B1
330
AF
100
AcDbEntity
  8
_U+30EC_U+30A4_U+30E4_U+30FC 1
 62
   179
420
  2234388
370
     9
100
AcDbVertex
100
AcDb2dVertex
 10
73.81218645022757
 20
-101.6172155301514
 30
0.0
  0
SEQEND
  5
B2
330
AF
100
AcDbEntity
  8
_U+30EC_U+30A4_U+30E4_U+30FC 1
 62
   179
420
  2234388
370
     9
  0
POLYLINE
  5
B3
330
1F
100
AcDbEntity
  8
_U+30EC_U+30A4_U+30E4_U+30FC 1
 62
   179
420
  2234388
370
     9
100
AcDb2dPolyline
 66
     1
 10
0.0
 20
0.0
 30
0.0
  0
VERTEX
  5
B4
330
B3
100
AcDbEntity
  8
_U+30EC_U+30A4_U+30E4_U+30FC 1
 62
   179
420
  2234388
370
     9
100
AcDbVertex
100
AcDb2dVertex
 10
73.81218645022757
 20
-106.87512136217
 30
0.0
  0
VERTEX
  5
B5
330
B3
100
AcDbEntity
  8
_U+30EC_U+30A4_U+30E4_U+30FC 1
 62
   179
420
  2234388
370
     9
100
AcDbVertex
100
AcDb2dVertex
 10
73.81218645022757
 20
-108.0747069174258
 30
0.0
  0
SEQEND
  5
B6
330
B3
100
AcDbEntity
  8
_U+30EC_U+30A4_U+30E4_U+30FC 1
 62
   179
420
  2234388
370
     9
  0
POLYLINE
  5
B7
330
1F
100
AcDbEntity
  8
_U+30EC_U+30A4_U+30E4_U+30FC 1
 62
   179
420
  2234388
370
     9
100
AcDb2dPolyline
 66
     1
 10
0.0
 20
0.0
 30
0.0
  0
VERTEX
  5
B8
330
B7
100
AcDbEntity
  8
_U+30EC_U+30A4_U+30E4_U+30FC 1
 62
   179
420
  2234388
370
     9
100
AcDbVertex
100
AcDb2dVertex
 10
76.40912471730749
 20
-106.87512136217
 30
0.0
  0
VERTEX
  5
B9
330
B7
100
AcDbEntity
  8
_U+30EC_U+30A4_U+30E4_U+30FC 1
 62
   179
420
  2234388
370
     9
100
AcDbVertex
100
AcDb2dVertex
 10
72.81209675351977
 20
-106.87512136217
 30
0.0
  0
SEQEND
  5
BA
330
B7
100
AcDbEntity
  8
_U+30EC_U+30A4_U+30E4_U+30FC 1
 62
   179
420
  2234388
370
     9
  0
POLYLINE
  5
BB
330
1F
100
AcDbEntity
  8
_U+30EC_U+30A4_U+30E4_U+30FC 1
 62
   179
420
  2234388
370
     9
100
AcDb2dPolyline
 66
     1
 10
0.0
 20
0.0
 30
0.0
  0
VERTEX
  5
BC
330
BB
100
AcDbEntity
  8
_U+30EC_U+30A4_U+30E4_U+30FC 1
 62
   179
420
  2234388
370
     9
100
AcDbVertex
100
AcDb2dVertex
 10
75.2722278018677
 20
-108.0747069174258
 30
0.0
  0
VERTEX
  5
BD
330
BB
100
AcDbEntity
  8
_U+30EC_U+30A4_U+30E4_U+30FC 1
 62
   179
420
  2234388
370
     9
100
AcDbVertex
100
AcDb2dVertex
 10
72.81209675351977
 20
-108.0747069174258
 30
0.0
  0
SEQEND
  5
BE
330
BB
100
AcDbEntity
  8
_U+30EC_U+30A4_U+30E4_U+30FC 1
 62
   179
420
  2234388
370
     9
  0
INSERT
  5
C0
330
1F
100
AcDbEntity
  8
_U+30EC_U+30A4_U+30E4_U+30FC 1
100
AcDbBlockReference
  2
block 6
 10
0.0
 20
0.0
 30
0.0
  0
POLYLINE
  5
CF
330
1F
100
AcDbEntity
  8
_U+30EC_U+30A4_U+30E4_U+30FC 1
 62
   179
420
  2234388
370
     9
100
AcDb2dPolyline
 66
     1
 10
0.0
 20
0.0
 30
0.0
  0
VERTEX
  5
D0
330
CF
100
AcDbEntity
  8
_U+30EC_U+30A4_U+30E4_U+30FC 1
 62
   179
420
  2234388
370
     9
100
AcDbVertex
100
AcDb2dVertex
 10
73.81218645022757
 20
-108.0747069174258
 30
0.0
  0
VERTEX
  5
D1
330
CF
100
AcDbEntity
  8
_U+30EC_U+30A4_U+30E4_U+30FC 1
 62
   179
420
  2234388
370
     9
100
AcDbVertex
100
AcDb2dVertex
 10
73.81218645022757
 20
-158.0751007938146
 30
0.0
  0
SEQEND
  5
D2
330
CF
100
AcDbEntity
  8
_U+30EC_U+30A4_U+30E4_U+30FC 1
 62
   179
420
  2234388
370
     9
  0
POLYLINE
  5
D3
330
1F
100
AcDbEntity
  8
_U+30EC_U+30A4_U+30E4_U+30FC 1
 62
   179
420
  2234388
370
     9
100
AcDb2dPolyline
 66
     1
 10
0.0
 20
0.0
 30
0.0
  0
VERTEX
  5
D4
330
D3
100
AcDbEntity
  8
_U+30EC_U+30A4_U+30E4_U+30FC 1
 62
   179
420
  2234388
370
     9
100
AcDbVertex
100
AcDb2dVertex
 10
92.71232596804484
 20
-158.0751007938146
 30
0.0
  0
VERTEX
  5
D5
330
D3
100
AcDbEntity
  8
_U+30EC_U+30A4_U+30E4_U+30FC 1
 62
   179
420
  2234388
370
     9
100
AcDbVertex
100
AcDb2dVertex
 10
73.2523634089543
 20
-158.0751007938146
 30
0.0
  0
SEQEND
  5
D6
330
D3
100
AcDbEntity
  8
_U+30EC_U+30A4_U+30E4_U+30FC 1
 62
   179
420
  2234388
370
     9
  0
INSERT
  5
D8
330
1F
100
AcDbEntity
  8
_U+30EC_U+30A4_U+30E4_U+30FC 1
100
AcDbBlockReference
  2
block 7
 10
0.0
 20
0.0
 30
0.0
  0
ENDSEC
  0
SECTION
  2
OBJECTS
  0
DICTIONARY
  5
C
330
0
100
AcDbDictionary
281
     1
  3
ACAD_GROUP
350
D
  3
ACAD_LAYOUT
350
1A
  3
ACAD_MATERIAL
350
3B
  3
ACAD_MLEADERSTYLE
350
E1
  3
ACAD_MLINESTYLE
350
17
  3
ACAD_PLOTSETTINGS
350
19
  3
ACAD_PLOTSTYLENAME
350
E
  3
ACAD_TABLESTYLE
350
E0
  3
ACAD_VISUALSTYLE
350
2A
  0
SUN
  5
3F
330
29
100
AcDbSun
 90
        1
290
     0
 63
     7
421
 16777215
 40
1.0
291
     1
 91
  2455826
 92
 54000000
292
     0
 70
     2
 71
   256
280
     1
  0
DICTIONARY
  5
D
102
{ACAD_REACTORS
330
C
102
}
330
C
100
AcDbDictionary
281
     1
  0
DICTIONARY
  5
1A
102
{ACAD_REACTORS
330
C
102
}
330
C
100
AcDbDictionary
281
     1
  3
Layout1
350
1E
  3
Layout2
350
26
  3
Model
350
22
  0
DICTIONARY
  5
3B
102
{ACAD_REACTORS
330
C
102
}
330
C
100
AcDbDictionary
281
     1
  3
ByBlock
350
3D
  3
ByLayer
350
3C
  3
Global
350
3E
  0
DICTIONARY
  5
E1
102
{ACAD_REACTORS
330
C
102
}
330
C
100
AcDbDictionary
281
     1
  0
DICTIONARY
  5
17
102
{ACAD_REACTORS
330
C
102
}
330
C
100
AcDbDictionary
281
     1
  3
Standard
350
18
  0
DICTIONARY
  5
19
102
{ACAD_REACTORS
330
C
102
}
330
C
100
AcDbDictionary
281
     1
  0
ACDBDICTIONARYWDFLT
  5
E
102
{ACAD_REACTORS
330
C
102
}
330
C
100
AcDbDictionary
281
     1
  3
Normal
350
F
100
AcDbDictionaryWithDefault
340
F
  0
DICTIONARY
  5
E0
102
{ACAD_REACTORS
330
C
102
}
330
C
100
AcDbDictionary
281
     1
  0
DICTIONARY
  5
2A
102
{ACAD_REACTORS
330
C
102
}
330
C
100
AcDbDictionary
281
     1
  3
2dWireframe
350
2F
  3
3D Hidden
350
31
  3
3dWireframe
350
30
  3
Basic
350
32
  3
Brighten
350
36
  3
ColorChange
350
3A
  3
Conceptual
350
34
  3
Dim
350
35
  3
Facepattern
350
39
  3
Flat
350
2B
  3
FlatWithEdges
350
2C
  3
Gouraud
350
2D
  3
GouraudWithEdges
350
2E
  3
Linepattern
350
38
  3
Realistic
350
33
  3
Thicken
350
37
  0
LAYOUT
  5
1E
102
{ACAD_REACTORS
330
1A
102
}
330
1A
100
AcDbPlotSettings
  1

  2
none_device
  4

  6

 40
0.0
 41
0.0
 42
0.0
 43
0.0
 44
0.0
 45
0.0
 46
0.0
 47
0.0
 48
0.0
 49
0.0
140
0.0
141
0.0
142
1.0
143
1.0
 70
   688
 72
     0
 73
     0
 74
     5
  7

 75
    16
 76
     0
 77
     2
 78
   300
147
1.0
148
0.0
149
0.0
100
AcDbLayout
  1
Layout1
 70
     1
 71
     1
 10
0.0
 20
0.0
 11
12.0
 21
9.0
 12
0.0
 22
0.0
 32
0.0
 14
1.000000000000000E+20
 24
1.000000000000000E+20
 34
1.000000000000000E+20
 15
-1.000000000000000E+20
 25
-1.000000000000000E+20
 35
-1.000000000000000E+20
146
0.0
 13
0.0
 23
0.0
 33
0.0
 16
1.0
 26
0.0
 36
0.0
 17
0.0
 27
1.0
 37
0.0
 76
     0
330
1B
  0
LAYOUT
  5
26
102
{ACAD_REACTORS
330
1A
102
}
330
1A
100
AcDbPlotSettings
  1

  2
none_device
  4

  6

 40
0.0
 41
0.0
 42
0.0
 43
0.0
 44
0.0
 45
0.0
 46
0.0
 47
0.0
 48
0.0
 49
0.0
140
0.0
141
0.0
142
1.0
143
1.0
 70
   688
 72
     0
 73
     0
 74
     5
  7

 75
    16
 76
     0
 77
     2
 78
   300
147
1.0
148
0.0
149
0.0
100
AcDbLayout
  1
Layout2
 70
     1
 71
     2
 10
0.0
 20
0.0
 11
0.0
 21
0.0
 12
0.0
 22
0.0
 32
0.0
 14
0.0
 24
0.0
 34
0.0
 15
0.0
 25
0.0
 35
0.0
146
0.0
 13
0.0
 23
0.0
 33
0.0
 16
1.0
 26
0.0
 36
0.0
 17
0.0
 27
1.0
 37
0.0
 76
     0
330
23
  0
LAYOUT
  5
22
102
{ACAD_REACTORS
330
1A
102
}
330
1A
100
AcDbPlotSettings
  1

  2
none_device
  4

  6

 40
0.0
 41
0.0
 42
0.0
 43
0.0
 44
0.0
 45
0.0
 46
0.0
 47
0.0
 48
0.0
 49
0.0
140
0.0
141
0.0
142
1.0
143
1.0
 70
  1712
 72
     0
 73
     0
 74
     0
  7

 75
     0
 76
     0
 77
     2
 78
   300
147
1.0
148
0.0
149
0.0
100
AcDbLayout
  1
Model
 70
     1
 71
     0
 10
0.0
 20
0.0
 11
12.0
 21
9.0
 12
0.0
 22
0.0
 32
0.0
 14
1.000000000000000E+20
 24
1.000000000000000E+20
 34
1.000000000000000E+20
 15
-1.000000000000000E+20
 25
-1.000000000000000E+20
 35
-1.000000000000000E+20
146
0.0
 13
0.0
 23
0.0
 33
0.0
 16
1.0
 26
0.0
 36
0.0
 17
0.0
 27
1.0
 37
0.0
 76
     0
330
1F
331
29
  0
MATERIAL
  5
3D
102
{ACAD_REACTORS
330
3B
102
}
330
3B
100
AcDbMaterial
  1
ByBlock
 72
     1
 94
      127
  0
MATERIAL
  5
3C
102
{ACAD_REACTORS
330
3B
102
}
330
3B
100
AcDbMaterial
  1
ByLayer
 72
     1
 94
      127
  0
MATERIAL
  5
3E
102
{ACAD_REACTORS
330
3B
102
}
330
3B
100
AcDbMaterial
  1
Global
 72
     1
 94
      127
  0
MLINESTYLE
  5
18
102
{ACAD_REACTORS
330
17
102
}
330
17
100
AcDbMlineStyle
  2
Standard
 70
     0
  3

 62
   256
 51
90.0
 52
90.0
 71
     2
 49
0.5
 62
   256
  6
BYLAYER
 49
-0.5
 62
   256
  6
BYLAYER
  0
ACDBPLACEHOLDER
  5
F
102
{ACAD_REACTORS
330
E
102
}
330
E
  0
VISUALSTYLE
  5
2F
102
{ACAD_REACTORS
330
2A
102
}
330
2A
100
AcDbVisualStyle
  2
2dWireframe
 70
     4
177
     2
291
     0
 71
     0
176
     1
 72
     2
176
     1
 73
     0
176
     1
 90
        0
176
     1
 40
-0.6
176
     1
 41
-30.0
176
     1
 62
     5
 63
     7
421
 16777215
176
     1
 74
     1
176
     1
 91
        4
176
     1
 64
     7
176
     1
 65
   257
176
     1
 75
     1
176
     1
175
     1
176
     1
 42
1.0
176
     1
 92
        0
176
     1
 66
   257
176
     1
 43
1.0
176
     1
 76
     1
176
     1
 77
     6
176
     1
 78
     2
176
     1
 67
     7
176
     1
 79
     5
176
     1
170
     0
176
     1
171
     0
176
     1
290
     0
176
     1
 93
        1
176
     1
 44
0.0
176
     1
173
     0
176
     1
  0
VISUALSTYLE
  5
31
102
{ACAD_REACTORS
330
2A
102
}
330
2A
100
AcDbVisualStyle
  2
3D Hidden
 70
     6
177
     2
291
     0
 71
     1
176
     1
 72
     2
176
     1
 73
     2
176
     1
 90
        0
176
     1
 40
-0.6
176
     1
 41
-30.0
176
     1
 62
     5
 63
     7
421
 16777215
176
     1
 74
     2
176
     1
 91
        2
176
     1
 64
     7
176
     1
 65
   257
176
     1
 75
     2
176
     1
175
     1
176
     1
 42
40.0
176
     1
 92
        0
176
     1
 66
   257
176
     1
 43
1.0
176
     1
 76
     1
176
     1
 77
     6
176
     1
 78
     2
176
     1
 67
     7
176
     1
 79
     3
176
     1
170
     0
176
     1
171
     0
176
     1
290
     0
176
     1
 93
        1
176
     1
 44
0.0
176
     1
173
     0
176
     1
  0
VISUALSTYLE
  5
30
102
{ACAD_REACTORS
330
2A
102
}
330
2A
100
AcDbVisualStyle
  2
3dWireframe
 70
     5
177
     2
291
     0
 71
     0
176
     1
 72
     2
176
     1
 73
     0
176
     1
 90
        0
176
     1
 40
-0.6
176
     1
 41
-30.0
176
     1
 62
     5
 63
     7
421
 16777215
176
     1
 74
     1
176
     1
 91
        4
176
     1
 64
     7
176
     1
 65
   257
176
     1
 75
     1
176
     1
175
     1
176
     1
 42
1.0
176
     1
 92
        0
176
     1
 66
   257
176
     1
 43
1.0
176
     1
 76
     1
176
     1
 77
     6
176
     1
 78
     2
176
     1
 67
     7
176
     1
 79
     5
176
     1
170
     0
176
     1
171
     0
176
     1
290
     0
176
     1
 93
        1
176
     1
 44
0.0
176
     1
173
     0
176
     1
  0
VISUALSTYLE
  5
32
102
{ACAD_REACTORS
330
2A
102
}
330
2A
100
AcDbVisualStyle
  2
Basic
 70
     7
177
     2
291
     1
 71
     1
176
     1
 72
     0
176
     1
 73
     1
176
     1
 90
        0
176
     1
 40
-0.6
176
     1
 41
-30.0
176
     1
 62
     5
 63
     7
421
 16777215
176
     1
 74
     0
176
     1
 91
        4
176
     1
 64
     7
176
     1
 65
   257
176
     1
 75
     1
176
     1
175
     1
176
     1
 42
1.0
176
     1
 92
        8
176
     1
 66
     7
176
     1
 43
1.0
176
     1
 76
     1
176
     1
 77
     6
176
     1
 78
     2
176
     1
 67
     7
176
     1
 79
     5
176
     1
170
     0
176
     1
171
     0
176
     1
290
     0
176
     1
 93
        1
176
     1
 44
0.0
176
     1
173
     0
176
     1
  0
VISUALSTYLE
  5
36
102
{ACAD_REACTORS
330
2A
102
}
330
2A
100
AcDbVisualStyle
  2
Brighten
 70
    12
177
     2
291
     1
 71
     2
176
     1
 72
     2
176
     1
 73
     0
176
     1
 90
        0
176
     1
 40
-0.6
176
     1
 41
-30.0
176
     1
 62
     5
 63
     7
421
 16777215
176
     1
 74
     1
176
     1
 91
        4
176
     1
 64
     7
176
     1
 65
   257
176
     1
 75
     1
176
     1
175
     1
176
     1
 42
1.0
176
     1
 92
        8
176
     1
 66
     7
176
     1
 43
1.0
176
     1
 76
     1
176
     1
 77
     6
176
     1
 78
     2
176
     1
 67
     7
176
     1
 79
     5
176
     1
170
     0
176
     1
171
     0
176
     1
290
     0
176
     1
 93
        1
176
     1
 44
50.0
176
     1
173
     0
176
     1
  0
VISUALSTYLE
  5
3A
102
{ACAD_REACTORS
330
2A
102
}
330
2A
100
AcDbVisualStyle
  2
ColorChange
 70
    16
177
     2
291
     1
 71
     2
176
     1
 72
     2
176
     1
 73
     3
176
     1
 90
        0
176
     1
 40
-0.6
176
     1
 41
-30.0
176
     1
 62
     5
 63
     8
421
  8421504
176
     1
 74
     1
176
     1
 91
        4
176
     1
 64
     7
176
     1
 65
   257
176
     1
 75
     1
176
     1
175
     1
176
     1
 42
1.0
176
     1
 92
        8
176
     1
 66
     8
424
  8421504
176
     1
 43
1.0
176
     1
 76
     1
176
     1
 77
     6
176
     1
 78
     2
176
     1
 67
     7
176
     1
 79
     5
176
     1
170
     0
176
     1
171
     0
176
     1
290
     0
176
     1
 93
        1
176
     1
 44
0.0
176
     1
173
     0
176
     1
  0
VISUALSTYLE
  5
34
102
{ACAD_REACTORS
330
2A
102
}
330
2A
100
AcDbVisualStyle
  2
Conceptual
 70
     9
177
     2
291
     0
 71
     3
176
     1
 72
     2
176
     1
 73
     0
176
     1
 90
        0
176
     1
 40
-0.6
176
     1
 41
-30.0
176
     1
 62
     5
 63
     7
421
 16777215
176
     1
 74
     2
176
     1
 91
        2
176
     1
 64
     7
176
     1
 65
   257
176
     1
 75
     1
176
     1
175
     1
176
     1
 42
40.0
176
     1
 92
        8
176
     1
 66
     7
176
     1
 43
1.0
176
     1
 76
     1
176
     1
 77
     6
176
     1
 78
     2
176
     1
 67
     7
176
     1
 79
     3
176
     1
170
     0
176
     1
171
     0
176
     1
290
     0
176
     1
 93
        1
176
     1
 44
0.0
176
     1
173
     0
176
     1
  0
VISUALSTYLE
  5
35
102
{ACAD_REACTORS
330
2A
102
}
330
2A
100
AcDbVisualStyle
  2
Dim
 70
    11
177
     2
291
     1
 71
     2
176
     1
 72
     2
176
     1
 73
     0
176
     1
 90
        0
176
     1
 40
-0.6
176
     1
 41
-30.0
176
     1
 62
     5
 63
     7
421
 16777215
176
     1
 74
     1
176
     1
 91
        4
176
     1
 64
     7
176
     1
 65
   257
176
     1
 75
     1
176
     1
175
     1
176
     1
 42
1.0
176
     1
 92
        8
176
     1
 66
     7
176
     1
 43
1.0
176
     1
 76
     1
176
     1
 77
     6
176
     1
 78
     2
176
     1
 67
     7
176
     1
 79
     5
176
     1
170
     0
176
     1
171
     0
176
     1
290
     0
176
     1
 93
        1
176
     1
 44
-50.0
176
     1
173
     0
176
     1
  0
VISUALSTYLE
  5
39
102
{ACAD_REACTORS
330
2A
102
}
330
2A
100
AcDbVisualStyle
  2
Facepattern
 70
    15
177
     2
291
     1
 71
     2
176
     1
 72
     2
176
     1
 73
     0
176
     1
 90
        0
176
     1
 40
-0.6
176
     1
 41
-30.0
176
     1
 62
     5
 63
     7
421
 16777215
176
     1
 74
     1
176
     1
 91
        4
176
     1
 64
     7
176
     1
 65
   257
176
     1
 75
     1
176
     1
175
     1
176
     1
 42
1.0
176
     1
 92
        8
176
     1
 66
     7
176
     1
 43
1.0
176
     1
 76
     1
176
     1
 77
     6
176
     1
 78
     2
176
     1
 67
     7
176
     1
 79
     5
176
     1
170
     0
176
     1
171
     0
176
     1
290
     0
176
     1
 93
        1
176
     1
 44
0.0
176
     1
173
     0
176
     1
  0
VISUALSTYLE
  5
2B
102
{ACAD_REACTORS
330
2A
102
}
330
2A
100
AcDbVisualStyle
  2
Flat
 70
     0
177
     2
291
     1
 71
     2
176
     1
 72
     1
176
     1
 73
     1
176
     1
 90
        2
176
     1
 40
-0.6
176
     1
 41
30.0
176
     1
 62
     5
 63
     7
421
 16777215
176
     1
 74
     0
176
     1
 91
        4
176
     1
 64
     7
176
     1
 65
   257
176
     1
 75
     1
176
     1
175
     1
176
     1
 42
1.0
176
     1
 92
        8
176
     1
 66
     7
176
     1
 43
1.0
176
     1
 76
     1
176
     1
 77
     6
176
     1
 78
     2
176
     1
 67
     7
176
     1
 79
     5
176
     1
170
     0
176
     1
171
     0
176
     1
290
     0
176
     1
 93
       13
176
     1
 44
0.0
176
     1
173
     0
176
     1
  0
VISUALSTYLE
  5
2C
102
{ACAD_REACTORS
330
2A
102
}
330
2A
100
AcDbVisualStyle
  2
FlatWithEdges
 70
     1
177
     2
291
     1
 71
     2
176
     1
 72
     1
176
     1
 73
     1
176
     1
 90
        2
176
     1
 40
-0.6
176
     1
 41
30.0
176
     1
 62
     5
 63
     7
421
 16777215
176
     1
 74
     1
176
     1
 91
        4
176
     1
 64
     7
176
     1
 65
   257
176
     1
 75
     1
176
     1
175
     1
176
     1
 42
1.0
176
     1
 92
        0
176
     1
 66
   257
176
     1
 43
1.0
176
     1
 76
     1
176
     1
 77
     6
176
     1
 78
     2
176
     1
 67
     7
176
     1
 79
     5
176
     1
170
     0
176
     1
171
     0
176
     1
290
     0
176
     1
 93
       13
176
     1
 44
0.0
176
     1
173
     0
176
     1
  0
VISUALSTYLE
  5
2D
102
{ACAD_REACTORS
330
2A
102
}
330
2A
100
AcDbVisualStyle
  2
Gouraud
 70
     2
177
     2
291
     1
 71
     2
176
     1
 72
     2
176
     1
 73
     1
176
     1
 90
        2
176
     1
 40
-0.6
176
     1
 41
30.0
176
     1
 62
     5
 63
     7
421
 16777215
176
     1
 74
     0
176
     1
 91
        4
176
     1
 64
     7
176
     1
 65
   257
176
     1
 75
     1
176
     1
175
     1
176
     1
 42
1.0
176
     1
 92
        0
176
     1
 66
     7
176
     1
 43
1.0
176
     1
 76
     1
176
     1
 77
     6
176
     1
 78
     2
176
     1
 67
     7
176
     1
 79
     5
176
     1
170
     0
176
     1
171
     0
176
     1
290
     0
176
     1
 93
       13
176
     1
 44
0.0
176
     1
173
     0
176
     1
  0
VISUALSTYLE
  5
2E
102
{ACAD_REACTORS
330
2A
102
}
330
2A
100
AcDbVisualStyle
  2
GouraudWithEdges
 70
     3
177
     2
291
     1
 71
     2
176
     1
 72
     2
176
     1
 73
     1
176
     1
 90
        2
176
     1
 40
-0.6
176
     1
 41
30.0
176
     1
 62
     5
 63
     7
421
 16777215
176
     1
 74
     1
176
     1
 91
        4
176
     1
 64
     7
176
     1
 65
   257
176
     1
 75
     1
176
     1
175
     1
176
     1
 42
1.0
176
     1
 92
        0
176
     1
 66
   257
176
     1
 43
1.0
176
     1
 76
     1
176
     1
 77
     6
176
     1
 78
     2
176
     1
 67
     7
176
     1
 79
     5
176
     1
170
     0
176
     1
171
     0
176
     1
290
     0
176
     1
 93
       13
176
     1
 44
0.0
176
     1
173
     0
176
     1
  0
VISUALSTYLE
  5
38
102
{ACAD_REACTORS
330
2A
102
}
330
2A
100
AcDbVisualStyle
  2
Linepattern
 70
    14
177
     2
291
     1
 71
     2
176
     1
 72
     2
176
     1
 73
     0
176
     1
 90
        0
176
     1
 40
-0.6
176
     1
 41
-30.0
176
     1
 62
     5
 63
     7
421
 16777215
176
     1
 74
     1
176
     1
 91
        4
176
     1
 64
     7
176
     1
 65
   257
176
     1
 75
     7
176
     1
175
     7
176
     1
 42
1.0
176
     1
 92
        8
176
     1
 66
     7
176
     1
 43
1.0
176
     1
 76
     1
176
     1
 77
     6
176
     1
 78
     2
176
     1
 67
     7
176
     1
 79
     5
176
     1
170
     0
176
     1
171
     0
176
     1
290
     0
176
     1
 93
        1
176
     1
 44
0.0
176
     1
173
     0
176
     1
  0
VISUALSTYLE
  5
33
102
{ACAD_REACTORS
330
2A
102
}
330
2A
100
AcDbVisualStyle
  2
Realistic
 70
     8
177
     2
291
     0
 71
     2
176
     1
 72
     2
176
     1
 73
     0
176
     1
 90
        0
176
     1
 40
-0.6
176
     1
 41
-30.0
176
     1
 62
     5
 63
     7
421
 16777215
176
     1
 74
     1
176
     1
 91
        0
176
     1
 64
     7
176
     1
 65
   257
176
     1
 75
     1
176
     1
175
     1
176
     1
 42
1.0
176
     1
 92
        8
176
     1
 66
     8
424
  7895160
176
     1
 43
1.0
176
     1
 76
     1
176
     1
 77
     6
176
     1
 78
     2
176
     1
 67
     7
176
     1
 79
     5
176
     1
170
     0
176
     1
171
     0
176
     1
290
     0
176
     1
 93
       13
176
     1
 44
0.0
176
     1
173
     0
176
     1
  0
VISUALSTYLE
  5
37
102
{ACAD_REACTORS
330
2A
102
}
330
2A
100
AcDbVisualStyle
  2
Thicken
 70
    13
177
     2
291
     1
 71
     2
176
     1
 72
     2
176
     1
 73
     0
176
     1
 90
        0
176
     1
 40
-0.6
176
     1
 41
-30.0
176
     1
 62
     5
 63
     7
421
 16777215
176
     1
 74
     1
176
     1
 91
        4
176
     1
 64
     7
176
     1
 65
   257
176
     1
 75
     1
176
     1
175
     1
176
     1
 42
1.0
176
     1
 92
       12
176
     1
 66
     7
176
     1
 43
1.0
176
     1
 76
     1
176
     1
 77
     6
176
     1
 78
     2
176
     1
 67
     7
176
     1
 79
     5
176
     1
170
     0
176
     1
171
     0
176
     1
290
     0
176
     1
 93
        1
176
     1
 44
0.0
176
     1
173
     0
176
     1
  0
ENDSEC
  0
EOF
