  0
SECTION
  2
HEADER
  9
$ACADVER
  1
AC1024
  9
$ACADMAINTVER
 70
     6
  9
$DWGCODEPAGE
  3
UNDEFINED
  9
$INSBASE
 10
0.0
 20
0.0
 30
0.0
  9
$EXTMIN
 10
1.000000000000000E+20
 20
1.000000000000000E+20
 30
1.000000000000000E+20
  9
$EXTMAX
 10
-1.000000000000000E+20
 20
-1.000000000000000E+20
 30
-1.000000000000000E+20
  9
$LIMMIN
 10
0.0
 20
0.0
  9
$LIMMAX
 10
12.0
 20
9.0
  9
$ORTHOMODE
 70
     0
  9
$REGENMODE
 70
     1
  9
$FILLMODE
 70
     1
  9
$QTEXTMODE
 70
     0
  9
$MIRRTEXT
 70
     1
  9
$LTSCALE
 40
1.0
  9
$ATTMODE
 70
     1
  9
$TEXTSIZE
 40
0.2
  9
$TRACEWID
 40
0.05
  9
$TEXTSTYLE
  7
Standard
  9
$CLAYER
  8
0
  9
$CELTYPE
  6
ByLayer
  9
$CECOLOR
 62
   256
  9
$CELTSCALE
 40
1.0
  9
$DISPSILH
 70
     0
  9
$DIMSCALE
 40
1.0
  9
$DIMASZ
 40
0.18
  9
$DIMEXO
 40
0.0625
  9
$DIMDLI
 40
0.38
  9
$DIMRND
 40
0.0
  9
$DIMDLE
 40
0.0
  9
$DIMEXE
 40
0.18
  9
$DIMTP
 40
0.0
  9
$DIMTM
 40
0.0
  9
$DIMTXT
 40
0.18
  9
$DIMCEN
 40
0.09
  9
$DIMTSZ
 40
0.0
  9
$DIMTOL
 70
     0
  9
$DIMLIM
 70
     0
  9
$DIMTIH
 70
     1
  9
$DIMTOH
 70
     1
  9
$DIMSE1
 70
     0
  9
$DIMSE2
 70
     0
  9
$DIMTAD
 70
     0
  9
$DIMZIN
 70
     0
  9
$DIMBLK
  1

  9
$DIMASO
 70
     1
  9
$DIMSHO
 70
     1
  9
$DIMPOST
  1

  9
$DIMAPOST
  1

  9
$DIMALT
 70
     0
  9
$DIMALTD
 70
     2
  9
$DIMALTF
 40
25.4
  9
$DIMLFAC
 40
1.0
  9
$DIMTOFL
 70
     0
  9
$DIMTVP
 40
0.0
  9
$DIMTIX
 70
     0
  9
$DIMSOXD
 70
     0
  9
$DIMSAH
 70
     0
  9
$DIMBLK1
  1

  9
$DIMBLK2
  1

  9
$DIMSTYLE
  2
Standard
  9
$DIMCLRD
 70
     0
  9
$DIMCLRE
 70
     0
  9
$DIMCLRT
 70
     0
  9
$DIMTFAC
 40
1.0
  9
$DIMGAP
 40
0.09
  9
$DIMJUST
 70
     0
  9
$DIMSD1
 70
     0
  9
$DIMSD2
 70
     0
  9
$DIMTOLJ
 70
     1
  9
$DIMTZIN
 70
     0
  9
$DIMALTZ
 70
     0
  9
$DIMALTTZ
 70
     0
  9
$DIMUPT
 70
     0
  9
$DIMDEC
 70
     4
  9
$DIMTDEC
 70
     4
  9
$DIMALTU
 70
     2
  9
$DIMALTTD
 70
     2
  9
$DIMTXSTY
  7
Standard
  9
$DIMAUNIT
 70
     0
  9
$DIMADEC
 70
     0
  9
$DIMALTRND
 40
0.0
  9
$DIMAZIN
 70
     0
  9
$DIMDSEP
 70
    46
  9
$DIMATFIT
 70
     3
  9
$DIMFRAC
 70
     0
  9
$DIMLDRBLK
  1

  9
$DIMLUNIT
 70
     2
  9
$DIMLWD
 70
    -2
  9
$DIMLWE
 70
    -2
  9
$DIMTMOVE
 70
     0
  9
$DIMFXL
 40
1.0
  9
$DIMFXLON
 70
     0
  9
$DIMJOGANG
 40
0.7853981633974483
  9
$DIMTFILL
 70
     0
  9
$DIMTFILLCLR
 70
     0
  9
$DIMARCSYM
 70
     0
  9
$DIMLTYPE
  6

  9
$DIMLTEX1
  6

  9
$DIMLTEX2
  6

  9
$DIMTXTDIRECTION
 70
     0
  9
$LUNITS
 70
     2
  9
$LUPREC
 70
     4
  9
$SKETCHINC
 40
0.1
  9
$FILLETRAD
 40
0.5
  9
$AUNITS
 70
     0
  9
$AUPREC
 70
     0
  9
$MENU
  1
.
  9
$ELEVATION
 40
0.0
  9
$PELEVATION
 40
0.0
  9
$THICKNESS
 40
0.0
  9
$LIMCHECK
 70
     0
  9
$CHAMFERA
 40
0.5
  9
$CHAMFERB
 40
0.5
  9
$CHAMFERC
 40
1.0
  9
$CHAMFERD
 40
0.0
  9
$SKPOLY
 70
     0
  9
$TDCREATE
 40
2457917.599375
  9
$TDUCREATE
 40
2457917.224375
  9
$TDUPDATE
 40
2457917.599375
  9
$TDUUPDATE
 40
2457917.224375
  9
$TDINDWG
 40
0.0000000116
  9
$TDUSRTIMER
 40
0.0000000116
  9
$USRTIMER
 70
     1
  9
$ANGBASE
 50
0.0
  9
$ANGDIR
 70
     0
  9
$PDMODE
 70
     0
  9
$PDSIZE
 40
0.0
  9
$PLINEWID
 40
0.0
  9
$SPLFRAME
 70
     0
  9
$SPLINETYPE
 70
     6
  9
$SPLINESEGS
 70
     8
  9
$HANDSEED
  5
EA
  9
$SURFTAB1
 70
     6
  9
$SURFTAB2
 70
     6
  9
$SURFTYPE
 70
     6
  9
$SURFU
 70
     6
  9
$SURFV
 70
     6
  9
$UCSBASE
  2

  9
$UCSNAME
  2

  9
$UCSORG
 10
0.0
 20
0.0
 30
0.0
  9
$UCSXDIR
 10
1.0
 20
0.0
 30
0.0
  9
$UCSYDIR
 10
0.0
 20
1.0
 30
0.0
  9
$UCSORTHOREF
  2

  9
$UCSORTHOVIEW
 70
     0
  9
$UCSORGTOP
 10
0.0
 20
0.0
 30
0.0
  9
$UCSORGBOTTOM
 10
0.0
 20
0.0
 30
0.0
  9
$UCSORGLEFT
 10
0.0
 20
0.0
 30
0.0
  9
$UCSORGRIGHT
 10
0.0
 20
0.0
 30
0.0
  9
$UCSORGFRONT
 10
0.0
 20
0.0
 30
0.0
  9
$UCSORGBACK
 10
0.0
 20
0.0
 30
0.0
  9
$PUCSBASE
  2

  9
$PUCSNAME
  2

  9
$PUCSORG
 10
0.0
 20
0.0
 30
0.0
  9
$PUCSXDIR
 10
1.0
 20
0.0
 30
0.0
  9
$PUCSYDIR
 10
0.0
 20
1.0
 30
0.0
  9
$PUCSORTHOREF
  2

  9
$PUCSORTHOVIEW
 70
     0
  9
$PUCSORGTOP
 10
0.0
 20
0.0
 30
0.0
  9
$PUCSORGBOTTOM
 10
0.0
 20
0.0
 30
0.0
  9
$PUCSORGLEFT
 10
0.0
 20
0.0
 30
0.0
  9
$PUCSORGRIGHT
 10
0.0
 20
0.0
 30
0.0
  9
$PUCSORGFRONT
 10
0.0
 20
0.0
 30
0.0
  9
$PUCSORGBACK
 10
0.0
 20
0.0
 30
0.0
  9
$USERI1
 70
     0
  9
$USERI2
 70
     0
  9
$USERI3
 70
     0
  9
$USERI4
 70
     0
  9
$USERI5
 70
     0
  9
$USERR1
 40
0.0
  9
$USERR2
 40
0.0
  9
$USERR3
 40
0.0
  9
$USERR4
 40
0.0
  9
$USERR5
 40
0.0
  9
$WORLDVIEW
 70
     1
  9
$SHADEDGE
 70
     3
  9
$SHADEDIF
 70
    70
  9
$TILEMODE
 70
     1
  9
$MAXACTVP
 70
    64
  9
$PINSBASE
 10
0.0
 20
0.0
 30
0.0
  9
$PLIMCHECK
 70
     0
  9
$PEXTMIN
 10
1.000000000000000E+20
 20
1.000000000000000E+20
 30
1.000000000000000E+20
  9
$PEXTMAX
 10
-1.000000000000000E+20
 20
-1.000000000000000E+20
 30
-1.000000000000000E+20
  9
$PLIMMIN
 10
0.0
 20
0.0
  9
$PLIMMAX
 10
12.0
 20
9.0
  9
$UNITMODE
 70
     0
  9
$VISRETAIN
 70
     1
  9
$PLINEGEN
 70
     0
  9
$PSLTSCALE
 70
     1
  9
$TREEDEPTH
 70
  3020
  9
$CMLSTYLE
  2
Standard
  9
$CMLJUST
 70
     0
  9
$CMLSCALE
 40
1.0
  9
$PROXYGRAPHICS
 70
     1
  9
$MEASUREMENT
 70
     0
  9
$CELWEIGHT
370
    -1
  9
$ENDCAPS
280
     0
  9
$JOINSTYLE
280
     0
  9
$LWDISPLAY
290
     1
  9
$INSUNITS
 70
     1
  9
$HYPERLINKBASE
  1

  9
$STYLESHEET
  1

  9
$XEDIT
290
     1
  9
$CEPSNTYPE
380
     0
  9
$PSTYLEMODE
290
     1
  9
$FINGERPRINTGUID
  2
{01F9D46F-628B-9D55-52E2-F5DFDAE8CE72}
  9
$VERSIONGUID
  2
{FAEB1C32-E019-11D5-929B-00C0DF256EC4}
  9
$EXTNAMES
290
     1
  9
$PSVPSCALE
 40
0.0
  9
$OLESTARTUP
290
     0
  9
$SORTENTS
280
   127
  9
$INDEXCTL
280
     0
  9
$HIDETEXT
280
     1
  9
$XCLIPFRAME
280
     2
  9
$HALOGAP
280
     0
  9
$OBSCOLOR
 70
   257
  9
$OBSLTYPE
280
     0
  9
$INTERSECTIONDISPLAY
280
     0
  9
$INTERSECTIONCOLOR
 70
   257
  9
$DIMASSOC
280
     2
  9
$PROJECTNAME
  1

  9
$CAMERADISPLAY
290
     0
  9
$LENSLENGTH
 40
50.0
  9
$CAMERAHEIGHT
 40
0.0
  9
$STEPSPERSEC
 40
2.0
  9
$STEPSIZE
 40
6.0
  9
$3DDWFPREC
 40
2.0
  9
$PSOLWIDTH
 40
0.25
  9
$PSOLHEIGHT
 40
4.0
  9
$LOFTANG1
 40
1.570796326794897
  9
$LOFTANG2
 40
1.570796326794897
  9
$LOFTMAG1
 40
0.0
  9
$LOFTMAG2
 40
0.0
  9
$LOFTPARAM
 70
     7
  9
$LOFTNORMALS
280
     1
  9
$LATITUDE
 40
37.795
  9
$LONGITUDE
 40
-122.394
  9
$NORTHDIRECTION
 40
0.0
  9
$TIMEZONE
 70
 -8000
  9
$LIGHTGLYPHDISPLAY
280
     1
  9
$TILEMODELIGHTSYNCH
280
     1
  9
$CMATERIAL
347
3C
  9
$SOLIDHIST
280
     1
  9
$SHOWHIST
280
     1
  9
$DWFFRAME
280
     2
  9
$DGNFRAME
280
     2
  9
$REALWORLDSCALE
290
     1
  9
$INTERFERECOLOR
 62
   256
  9
$CSHADOW
280
     0
  9
$SHADOWPLANELOCATION
 40
0.0
  0
ENDSEC
  0
SECTION
  2
CLASSES
  0
CLASS
  1
ACDBDICTIONARYWDFLT
  2
AcDbDictionaryWithDefault
  3
ObjectDBX Classes
 90
        0
 91
        4
280
     0
281
     0
  0
CLASS
  1
VISUALSTYLE
  2
AcDbVisualStyle
  3
ObjectDBX Classes
 90
     4095
 91
        4
280
     0
281
     0
  0
CLASS
  1
MATERIAL
  2
AcDbMaterial
  3
ObjectDBX Classes
 90
     1153
 91
        4
280
     0
281
     0
  0
CLASS
  1
SUN
  2
AcDbSun
  3
SCENEOE
 90
     1024
 91
        4
280
     0
281
     0
  0
ENDSEC
  0
SECTION
  2
TABLES
  0
TABLE
  2
VPORT
  5
8
330
0
100
AcDbSymbolTable
 70
     1
  0
VPORT
  5
29
330
8
100
AcDbSymbolTableRecord
100
AcDbViewportTableRecord
  2
*Active
 70
     0
 10
0.0
 20
0.0
 11
1.0
 21
1.0
 12
0.0
 22
0.0
 13
0.0
 23
0.0
 14
0.5
 24
0.5
 15
0.5
 25
0.5
 16
0.0
 26
0.0
 36
1.0
 17
91.00082462281999
 27
-128.4993055234307
 37
0.0
 40
256.9986110468615
 41
0.7081814508812795
 42
50.0
 43
0.0
 44
0.0
 50
0.0
 51
0.0
 71
     0
 72
   100
 73
     1
 74
     3
 75
     0
 76
     0
 77
     0
 78
     0
281
     0
 65
     1
110
0.0
120
0.0
130
0.0
111
1.0
121
0.0
131
0.0
112
0.0
122
1.0
132
0.0
 79
     0
146
0.0
 60
     3
 61
     5
292
     1
282
     1
141
0.0
142
0.0
 63
   250
361
3F
  0
ENDTAB
  0
TABLE
  2
LTYPE
  5
5
330
0
100
AcDbSymbolTable
 70
     1
  0
LTYPE
  5
14
330
5
100
AcDbSymbolTableRecord
100
AcDbLinetypeTableRecord
  2
ByBlock
 70
     0
  3

 72
    65
 73
     0
 40
0.0
  0
LTYPE
  5
15
330
5
100
AcDbSymbolTableRecord
100
AcDbLinetypeTableRecord
  2
ByLayer
 70
     0
  3

 72
    65
 73
     0
 40
0.0
  0
LTYPE
  5
16
330
5
100
AcDbSymbolTableRecord
100
AcDbLinetypeTableRecord
  2
Continuous
 70
     0
  3
Solid line
 72
    65
 73
     0
 40
0.0
  0
ENDTAB
  0
TABLE
  2
LAYER
  5
2
330
0
100
AcDbSymbolTable
 70
     2
  0
LAYER
  5
10
330
2
100
AcDbSymbolTableRecord
100
AcDbLayerTableRecord
  2
0
 70
     0
 62
     7
  6
Continuous
370
    -3
390
F
347
3E
  0
LAYER
  5
40
330
2
100
AcDbSymbolTableRecord
100
AcDbLayerTableRecord
  2
_U+30EC_U+30A4_U+30E4_U+30FC 1
 70
     0
 62
     7
  6
Continuous
370
    -3
390
F
347
3E
  0
ENDTAB
  0
TABLE
  2
STYLE
  5
3
330
0
100
AcDbSymbolTable
 70
     1
  0
STYLE
  5
11
330
3
100
AcDbSymbolTableRecord
100
AcDbTextStyleTableRecord
  2
Standard
 70
     0
 40
0.0
 41
1.0
 50
0.0
 71
     0
 42
0.2
  3
txt
  4

  0
ENDTAB
  0
TABLE
  2
VIEW
  5
6
330
0
100
AcDbSymbolTable
 70
     0
  0
ENDTAB
  0
TABLE
  2
UCS
  5
7
330
0
100
AcDbSymbolTable
 70
     0
  0
ENDTAB
  0
TABLE
  2
APPID
  5
9
330
0
100
AcDbSymbolTable
 70
     1
  0
APPID
  5
12
330
9
100
AcDbSymbolTableRecord
100
AcDbRegAppTableRecord
  2
ACAD
 70
     0
  0
ENDTAB
  0
TABLE
  2
DIMSTYLE
  5
A
330
0
100
AcDbSymbolTable
 70
     1
100
AcDbDimStyleTable
  0
DIMSTYLE
105
27
330
A
100
AcDbSymbolTableRecord
100
AcDbDimStyleTableRecord
  2
Standard
 70
     0
178
     0
340
11
  0
ENDTAB
  0
TABLE
  2
BLOCK_RECORD
  5
1
330
0
100
AcDbSymbolTable
 70
     7
  0
BLOCK_RECORD
  5
1F
330
1
100
AcDbSymbolTableRecord
100
AcDbBlockTableRecord
  2
*Model_Space
340
22
 70
     0
280
     1
281
     0
  0
BLOCK_RECORD
  5
1B
330
1
100
AcDbSymbolTableRecord
100
AcDbBlockTableRecord
  2
*Paper_Space
340
1E
 70
     0
280
     1
281
     0
  0
BLOCK_RECORD
  5
23
330
1
100
AcDbSymbolTableRecord
100
AcDbBlockTableRecord
  2
*Paper_Space0
340
26
 70
     0
280
     1
281
     0
  0
BLOCK_RECORD
  5
4A
330
1
100
AcDbSymbolTableRecord
100
AcDbBlockTableRecord
  2
block 2
340
0
102
{BLKREFS
331
4B
102
}
 70
     0
280
     1
281
     0
  0
BLOCK_RECORD
  5
6A
330
1
100
AcDbSymbolTableRecord
100
AcDbBlockTableRecord
  2
block 3
340
0
102
{BLKREFS
331
6B
102
}
 70
     0
280
     1
281
     0
  0
BLOCK_RECORD
  5
7F
330
1
100
AcDbSymbolTableRecord
100
AcDbBlockTableRecord
  2
block 4
340
0
102
{BLKREFS
331
80
102
}
 70
     0
280
     1
281
     0
  0
BLOCK_RECORD
  5
90
330
1
100
AcDbSymbolTableRecord
100
AcDbBlockTableRecord
  2
block 5
340
0
102
{BLKREFS
331
91
102
}
 70
     0
280
     1
281
     0
  0
BLOCK_RECORD
  5
AC
330
1
100
AcDbSymbolTableRecord
100
AcDbBlockTableRecord
  2
block 6
340
0
102
{BLKREFS
331
AD
102
}
 70
     0
280
     1
281
     0
  0
BLOCK_RECORD
  5
C8
330
1
100
AcDbSymbolTableRecord
100
AcDbBlockTableRecord
  2
block 7
340
0
102
{BLKREFS
331
C9
102
}
 70
     0
280
     1
281
     0
  0
ENDTAB
  0
ENDSEC
  0
SECTION
  2
BLOCKS
  0
BLOCK
  5
20
330
1F
100
AcDbEntity
  8
0
100
AcDbBlockBegin
  2
*Model_Space
 70
     0
 10
0.0
 20
0.0
 30
0.0
  3
*Model_Space
  1

  0
ENDBLK
  5
21
330
1F
100
AcDbEntity
  8
0
100
AcDbBlockEnd
  0
BLOCK
  5
1C
330
1B
100
AcDbEntity
 67
     1
  8
0
100
AcDbBlockBegin
  2
*Paper_Space
 70
     0
 10
0.0
 20
0.0
 30
0.0
  3
*Paper_Space
  1

  0
ENDBLK
  5
1D
330
1B
100
AcDbEntity
 67
     1
  8
0
100
AcDbBlockEnd
  0
BLOCK
  5
24
330
23
100
AcDbEntity
  8
0
100
AcDbBlockBegin
  2
*Paper_Space0
 70
     0
 10
0.0
 20
0.0
 30
0.0
  3
*Paper_Space0
  1

  0
ENDBLK
  5
25
330
23
100
AcDbEntity
  8
0
100
AcDbBlockEnd
  0
BLOCK
  5
4C
330
4A
100
AcDbEntity
  8
0
100
AcDbBlockBegin
  2
block 2
 70
     0
 10
0.0
 20
0.0
 30
0.0
  3
block 2
  1

  0
SPLINE
  5
4E
330
4A
100
AcDbEntity
  8
_U+30EC_U+30A4_U+30E4_U+30FC 1
370
     0
100
AcDbSpline
210
0.0
220
0.0
230
1.0
 70
    11
 71
     3
 72
    47
 73
    43
 74
     0
 42
0.0000000001
 43
0.0000000001
 12
1.0
 22
0.0
 32
0.0
 13
1.0
 23
0.0
 33
0.0
 40
0.0
 40
0.0
 40
0.0
 40
0.0
 40
1.0
 40
1.0
 40
1.0
 40
2.0
 40
2.0
 40
2.0
 40
3.0
 40
3.0
 40
3.0
 40
4.0
 40
4.0
 40
4.0
 40
5.0
 40
5.0
 40
5.0
 40
6.0
 40
6.0
 40
6.0
 40
7.0
 40
7.0
 40
7.0
 40
8.0
 40
8.0
 40
8.0
 40
9.0
 40
9.0
 40
9.0
 40
10.0
 40
10.0
 40
10.0
 40
11.0
 40
11.0
 40
11.0
 40
12.0
 40
12.0
 40
12.0
 40
13.0
 40
13.0
 40
13.0
 40
14.0
 40
14.0
 40
14.0
 40
14.0
 10
78.29978567920978
 20
-111.655372422173
 30
0.0
 10
78.29978567920978
 20
-111.655372422173
 30
0.0
 10
78.19832761716917
 20
-111.655372422173
 30
0.0
 10
78.19832761716917
 20
-111.655372422173
 30
0.0
 10
78.19832761716917
 20
-111.7418443188527
 30
0.0
 10
78.17714027993489
 20
-112.131140108686
 30
0.0
 10
77.98042532772712
 20
-112.3512817101934
 30
0.0
 10
77.82815210727908
 20
-112.5204358985192
 30
0.0
 10
77.62075735906704
 20
-112.5903713368698
 30
0.0
 10
77.53618026490415
 20
-112.6179321007518
 30
0.0
 10
77.53618026490415
 20
-112.6179321007518
 30
0.0
 10
77.34153236998753
 20
-112.4508449697172
 30
0.0
 10
77.34153236998753
 20
-112.4508449697172
 30
0.0
 10
77.43885631744584
 20
-112.4380981164217
 30
0.0
 10
77.61438393241933
 20
-112.414671467122
 30
0.0
 10
77.80265840068823
 20
-112.2265692536274
 30
0.0
 10
77.8767279536211
 20
-112.1545667579857
 30
0.0
 10
77.98042532772712
 20
-112.0150403908331
 30
0.0
 10
77.98042532772712
 20
-111.655372422173
 30
0.0
 10
77.98042532772712
 20
-111.655372422173
 30
0.0
 10
77.74977618498964
 20
-111.655372422173
 30
0.0
 10
77.74977618498964
 20
-111.655372422173
 30
0.0
 10
77.56374102878615
 20
-111.655372422173
 30
0.0
 10
77.3775336178084
 20
-111.6595065367553
 30
0.0
 10
77.19132620683064
 20
-111.6743204473418
 30
0.0
 10
77.19132620683064
 20
-111.6743204473418
 30
0.0
 10
77.19132620683064
 20
-111.4541788458344
 30
0.0
 10
77.19132620683064
 20
-111.4541788458344
 30
0.0
 10
77.37960067509955
 20
-111.4689927564209
 30
0.0
 10
77.66519909082676
 20
-111.4734713805518
 30
0.0
 10
77.74977618498964
 20
-111.4734713805518
 30
0.0
 10
77.74977618498964
 20
-111.4734713805518
 30
0.0
 10
78.29978567920978
 20
-111.4734713805518
 30
0.0
 10
78.29978567920978
 20
-111.4734713805518
 30
0.0
 10
78.31890595915291
 20
-111.4734713805518
 30
0.0
 10
78.63619925334443
 20
-111.4734713805518
 30
0.0
 10
78.86478133879075
 20
-111.4541788458344
 30
0.0
 10
78.86478133879075
 20
-111.4541788458344
 30
0.0
 10
78.86478133879075
 20
-111.6743204473418
 30
0.0
 10
78.86478133879075
 20
-111.6743204473418
 30
0.0
 10
78.67650687052185
 20
-111.6595065367553
 30
0.0
 10
78.48806014747868
 20
-111.655372422173
 30
0.0
 10
78.29978567920978
 20
-111.655372422173
 30
0.0
  0
SPLINE
  5
4F
330
4A
100
AcDbEntity
  8
_U+30EC_U+30A4_U+30E4_U+30FC 1
370
     0
100
AcDbSpline
210
0.0
220
0.0
230
1.0
 70
    11
 71
     3
 72
    29
 73
    25
 74
     0
 42
0.0000000001
 43
0.0000000001
 12
1.0
 22
0.0
 32
0.0
 13
1.0
 23
0.0
 33
0.0
 40
0.0
 40
0.0
 40
0.0
 40
0.0
 40
1.0
 40
1.0
 40
1.0
 40
2.0
 40
2.0
 40
2.0
 40
3.0
 40
3.0
 40
3.0
 40
4.0
 40
4.0
 40
4.0
 40
5.0
 40
5.0
 40
5.0
 40
6.0
 40
6.0
 40
6.0
 40
7.0
 40
7.0
 40
7.0
 40
8.0
 40
8.0
 40
8.0
 40
8.0
 10
78.19832761716917
 20
-111.1262057556386
 30
0.0
 10
78.19832761716917
 20
-111.1262057556386
 30
0.0
 10
77.8450330751568
 20
-111.1262057556386
 30
0.0
 10
77.8450330751568
 20
-111.1262057556386
 30
0.0
 10
77.73289521711192
 20
-111.1262057556386
 30
0.0
 10
77.5933688499593
 20
-111.1327514370606
 30
0.0
 10
77.48536510649672
 20
-111.145498290356
 30
0.0
 10
77.48536510649672
 20
-111.145498290356
 30
0.0
 10
77.48536510649672
 20
-110.910542778262
 30
0.0
 10
77.48536510649672
 20
-110.910542778262
 30
0.0
 10
77.60387639118932
 20
-110.9253566888485
 30
0.0
 10
77.78784449010165
 20
-110.9294908034308
 30
0.0
 10
77.8450330751568
 20
-110.9294908034308
 30
0.0
 10
77.8450330751568
 20
-110.9294908034308
 30
0.0
 10
78.19832761716917
 20
-110.9294908034308
 30
0.0
 10
78.19832761716917
 20
-110.9294908034308
 30
0.0
 10
78.21727564233805
 20
-110.9294908034308
 30
0.0
 10
78.42053627596779
 20
-110.9294908034308
 30
0.0
 10
78.56212970041156
 20
-110.910542778262
 30
0.0
 10
78.56212970041156
 20
-110.910542778262
 30
0.0
 10
78.56212970041156
 20
-111.145498290356
 30
0.0
 10
78.56212970041156
 20
-111.145498290356
 30
0.0
 10
78.40572236538121
 20
-111.1262057556386
 30
0.0
 10
78.2152085850469
 20
-111.1262057556386
 30
0.0
 10
78.19832761716917
 20
-111.1262057556386
 30
0.0
  0
HATCH
  5
50
330
4A
100
AcDbEntity
  8
_U+30EC_U+30A4_U+30E4_U+30FC 1
 62
   179
420
  2234388
100
AcDbHatch
 10
0.0
 20
0.0
 30
0.0
210
0.0
220
0.0
230
1.0
  2
SOLID
 70
     1
 71
     0
 91
        2
 92
        1
 93
        1
 72
     4
 94
        3
 73
     0
 74
     1
 95
       47
 96
       43
 40
0.0
 40
0.0
 40
0.0
 40
0.0
 40
1.0
 40
1.0
 40
1.0
 40
2.0
 40
2.0
 40
2.0
 40
3.0
 40
3.0
 40
3.0
 40
4.0
 40
4.0
 40
4.0
 40
5.0
 40
5.0
 40
5.0
 40
6.0
 40
6.0
 40
6.0
 40
7.0
 40
7.0
 40
7.0
 40
8.0
 40
8.0
 40
8.0
 40
9.0
 40
9.0
 40
9.0
 40
10.0
 40
10.0
 40
10.0
 40
11.0
 40
11.0
 40
11.0
 40
12.0
 40
12.0
 40
12.0
 40
13.0
 40
13.0
 40
13.0
 40
14.0
 40
14.0
 40
14.0
 40
14.0
 10
78.29978567920978
 20
-111.655372422173
 10
78.29978567920978
 20
-111.655372422173
 10
78.19832761716917
 20
-111.655372422173
 10
78.19832761716917
 20
-111.655372422173
 10
78.19832761716917
 20
-111.7418443188527
 10
78.17714027993489
 20
-112.131140108686
 10
77.98042532772712
 20
-112.3512817101934
 10
77.82815210727908
 20
-112.5204358985192
 10
77.62075735906704
 20
-112.5903713368698
 10
77.53618026490415
 20
-112.6179321007518
 10
77.53618026490415
 20
-112.6179321007518
 10
77.34153236998753
 20
-112.4508449697172
 10
77.34153236998753
 20
-112.4508449697172
 10
77.43885631744584
 20
-112.4380981164217
 10
77.61438393241933
 20
-112.414671467122
 10
77.80265840068823
 20
-112.2265692536274
 10
77.8767279536211
 20
-112.1545667579857
 10
77.98042532772712
 20
-112.0150403908331
 10
77.98042532772712
 20
-111.655372422173
 10
77.98042532772712
 20
-111.655372422173
 10
77.74977618498964
 20
-111.655372422173
 10
77.74977618498964
 20
-111.655372422173
 10
77.56374102878615
 20
-111.655372422173
 10
77.3775336178084
 20
-111.6595065367553
 10
77.19132620683064
 20
-111.6743204473418
 10
77.19132620683064
 20
-111.6743204473418
 10
77.19132620683064
 20
-111.4541788458344
 10
77.19132620683064
 20
-111.4541788458344
 10
77.37960067509955
 20
-111.4689927564209
 10
77.66519909082676
 20
-111.4734713805518
 10
77.74977618498964
 20
-111.4734713805518
 10
77.74977618498964
 20
-111.4734713805518
 10
78.29978567920978
 20
-111.4734713805518
 10
78.29978567920978
 20
-111.4734713805518
 10
78.31890595915291
 20
-111.4734713805518
 10
78.63619925334443
 20
-111.4734713805518
 10
78.86478133879075
 20
-111.4541788458344
 10
78.86478133879075
 20
-111.4541788458344
 10
78.86478133879075
 20
-111.6743204473418
 10
78.86478133879075
 20
-111.6743204473418
 10
78.67650687052185
 20
-111.6595065367553
 10
78.48806014747868
 20
-111.655372422173
 10
78.29978567920978
 20
-111.655372422173
 97
        0
 97
        0
 92
        1
 93
        1
 72
     4
 94
        3
 73
     0
 74
     1
 95
       29
 96
       25
 40
0.0
 40
0.0
 40
0.0
 40
0.0
 40
1.0
 40
1.0
 40
1.0
 40
2.0
 40
2.0
 40
2.0
 40
3.0
 40
3.0
 40
3.0
 40
4.0
 40
4.0
 40
4.0
 40
5.0
 40
5.0
 40
5.0
 40
6.0
 40
6.0
 40
6.0
 40
7.0
 40
7.0
 40
7.0
 40
8.0
 40
8.0
 40
8.0
 40
8.0
 10
78.19832761716917
 20
-111.1262057556386
 10
78.19832761716917
 20
-111.1262057556386
 10
77.8450330751568
 20
-111.1262057556386
 10
77.8450330751568
 20
-111.1262057556386
 10
77.73289521711192
 20
-111.1262057556386
 10
77.5933688499593
 20
-111.1327514370606
 10
77.48536510649672
 20
-111.145498290356
 10
77.48536510649672
 20
-111.145498290356
 10
77.48536510649672
 20
-110.910542778262
 10
77.48536510649672
 20
-110.910542778262
 10
77.60387639118932
 20
-110.9253566888485
 10
77.78784449010165
 20
-110.9294908034308
 10
77.8450330751568
 20
-110.9294908034308
 10
77.8450330751568
 20
-110.9294908034308
 10
78.19832761716917
 20
-110.9294908034308
 10
78.19832761716917
 20
-110.9294908034308
 10
78.21727564233805
 20
-110.9294908034308
 10
78.42053627596779
 20
-110.9294908034308
 10
78.56212970041156
 20
-110.910542778262
 10
78.56212970041156
 20
-110.910542778262
 10
78.56212970041156
 20
-111.145498290356
 10
78.56212970041156
 20
-111.145498290356
 10
78.40572236538121
 20
-111.1262057556386
 10
78.2152085850469
 20
-111.1262057556386
 10
78.19832761716917
 20
-111.1262057556386
 97
        0
 97
        0
 75
     2
 76
     1
 98
        0
  0
SPLINE
  5
51
330
4A
100
AcDbEntity
  8
_U+30EC_U+30A4_U+30E4_U+30FC 1
370
     0
100
AcDbSpline
210
0.0
220
0.0
230
1.0
 70
    11
 71
     3
 72
    29
 73
    25
 74
     0
 42
0.0000000001
 43
0.0000000001
 12
1.0
 22
0.0
 32
0.0
 13
1.0
 23
0.0
 33
0.0
 40
0.0
 40
0.0
 40
0.0
 40
0.0
 40
1.0
 40
1.0
 40
1.0
 40
2.0
 40
2.0
 40
2.0
 40
3.0
 40
3.0
 40
3.0
 40
4.0
 40
4.0
 40
4.0
 40
5.0
 40
5.0
 40
5.0
 40
6.0
 40
6.0
 40
6.0
 40
7.0
 40
7.0
 40
7.0
 40
8.0
 40
8.0
 40
8.0
 40
8.0
 10
80.14566784020664
 20
-111.8179809290768
 30
0.0
 10
80.14566784020664
 20
-111.8179809290768
 30
0.0
 10
79.66128741498052
 20
-111.8179809290768
 30
0.0
 10
79.66128741498052
 20
-111.8179809290768
 30
0.0
 10
79.63372665109851
 20
-111.8179809290768
 30
0.0
 10
79.31643335690701
 20
-111.8179809290768
 30
0.0
 10
79.10490449411266
 20
-111.8434746356676
 30
0.0
 10
79.10490449411266
 20
-111.8434746356676
 30
0.0
 10
79.10490449411266
 20
-111.6129977477044
 30
0.0
 10
79.10490449411266
 20
-111.6129977477044
 30
0.0
 10
79.26355114120842
 20
-111.6360798874556
 30
0.0
 10
79.45389266676848
 20
-111.6384914542952
 30
0.0
 10
79.66128741498052
 20
-111.6384914542952
 30
0.0
 10
79.66128741498052
 20
-111.6384914542952
 30
0.0
 10
80.14566784020664
 20
-111.6384914542952
 30
0.0
 10
80.14566784020664
 20
-111.6384914542952
 30
0.0
 10
80.3318752511844
 20
-111.6384914542952
 30
0.0
 10
80.51791040738789
 20
-111.6360798874556
 30
0.0
 10
80.70222301584876
 20
-111.6129977477044
 30
0.0
 10
80.70222301584876
 20
-111.6129977477044
 30
0.0
 10
80.70222301584876
 20
-111.8434746356676
 30
0.0
 10
80.70222301584876
 20
-111.8434746356676
 30
0.0
 10
80.51791040738789
 20
-111.8203924959164
 30
0.0
 10
80.27055255154694
 20
-111.8179809290768
 30
0.0
 10
80.14566784020664
 20
-111.8179809290768
 30
0.0
  0
HATCH
  5
52
330
4A
100
AcDbEntity
  8
_U+30EC_U+30A4_U+30E4_U+30FC 1
 62
   179
420
  2234388
100
AcDbHatch
 10
0.0
 20
0.0
 30
0.0
210
0.0
220
0.0
230
1.0
  2
SOLID
 70
     1
 71
     0
 91
        1
 92
        1
 93
        1
 72
     4
 94
        3
 73
     0
 74
     1
 95
       29
 96
       25
 40
0.0
 40
0.0
 40
0.0
 40
0.0
 40
1.0
 40
1.0
 40
1.0
 40
2.0
 40
2.0
 40
2.0
 40
3.0
 40
3.0
 40
3.0
 40
4.0
 40
4.0
 40
4.0
 40
5.0
 40
5.0
 40
5.0
 40
6.0
 40
6.0
 40
6.0
 40
7.0
 40
7.0
 40
7.0
 40
8.0
 40
8.0
 40
8.0
 40
8.0
 10
80.14566784020664
 20
-111.8179809290768
 10
80.14566784020664
 20
-111.8179809290768
 10
79.66128741498052
 20
-111.8179809290768
 10
79.66128741498052
 20
-111.8179809290768
 10
79.63372665109851
 20
-111.8179809290768
 10
79.31643335690701
 20
-111.8179809290768
 10
79.10490449411266
 20
-111.8434746356676
 10
79.10490449411266
 20
-111.8434746356676
 10
79.10490449411266
 20
-111.6129977477044
 10
79.10490449411266
 20
-111.6129977477044
 10
79.26355114120842
 20
-111.6360798874556
 10
79.45389266676848
 20
-111.6384914542952
 10
79.66128741498052
 20
-111.6384914542952
 10
79.66128741498052
 20
-111.6384914542952
 10
80.14566784020664
 20
-111.6384914542952
 10
80.14566784020664
 20
-111.6384914542952
 10
80.3318752511844
 20
-111.6384914542952
 10
80.51791040738789
 20
-111.6360798874556
 10
80.70222301584876
 20
-111.6129977477044
 10
80.70222301584876
 20
-111.6129977477044
 10
80.70222301584876
 20
-111.8434746356676
 10
80.70222301584876
 20
-111.8434746356676
 10
80.51791040738789
 20
-111.8203924959164
 10
80.27055255154694
 20
-111.8179809290768
 10
80.14566784020664
 20
-111.8179809290768
 97
        0
 97
        0
 75
     2
 76
     1
 98
        0
  0
SPLINE
  5
53
330
4A
100
AcDbEntity
  8
_U+30EC_U+30A4_U+30E4_U+30FC 1
370
     0
100
AcDbSpline
210
0.0
220
0.0
230
1.0
 70
    11
 71
     3
 72
    29
 73
    25
 74
     0
 42
0.0000000001
 43
0.0000000001
 12
1.0
 22
0.0
 32
0.0
 13
1.0
 23
0.0
 33
0.0
 40
0.0
 40
0.0
 40
0.0
 40
0.0
 40
1.0
 40
1.0
 40
1.0
 40
2.0
 40
2.0
 40
2.0
 40
3.0
 40
3.0
 40
3.0
 40
4.0
 40
4.0
 40
4.0
 40
5.0
 40
5.0
 40
5.0
 40
6.0
 40
6.0
 40
6.0
 40
7.0
 40
7.0
 40
7.0
 40
8.0
 40
8.0
 40
8.0
 40
8.0
 10
81.62344154860456
 20
-111.2615980082089
 30
0.0
 10
81.60449352343569
 20
-111.3125854213906
 30
0.0
 10
81.54937199567169
 20
-111.5179131123115
 30
0.0
 10
81.53042397050281
 20
-111.5875040411135
 30
0.0
 10
81.46048853215224
 20
-111.8520873743807
 30
0.0
 10
81.31889510770847
 20
-112.1652465539899
 30
0.0
 10
81.10529918762299
 20
-112.4084702952486
 30
0.0
 10
81.10529918762299
 20
-112.4084702952486
 30
0.0
 10
80.88929170069783
 20
-112.3068399784337
 30
0.0
 10
80.88929170069783
 20
-112.3068399784337
 30
0.0
 10
81.0184827813947
 20
-112.1714477258634
 30
0.0
 10
81.12838132737416
 20
-112.0274427345799
 30
0.0
 10
81.23207870148018
 20
-111.7907646747433
 30
0.0
 10
81.3275078464216
 20
-111.5706230732358
 30
0.0
 10
81.39296466064134
 20
-111.3380791279815
 30
0.0
 10
81.40984562851907
 20
-111.096922444014
 30
0.0
 10
81.40984562851907
 20
-111.096922444014
 30
0.0
 10
81.65306936977771
 20
-111.1623792582337
 30
0.0
 10
81.65306936977771
 20
-111.1623792582337
 30
0.0
 10
81.66581622307314
 20
-111.166513372816
 30
0.0
 10
81.70612384025056
 20
-111.1792602261114
 30
0.0
 10
81.70612384025056
 20
-111.2026868754111
 30
0.0
 10
81.70612384025056
 20
-111.2299031297446
 30
0.0
 10
81.67442896178626
 20
-111.24264998304
 30
0.0
 10
81.62344154860456
 20
-111.2615980082089
 30
0.0
  0
SPLINE
  5
54
330
4A
100
AcDbEntity
  8
_U+30EC_U+30A4_U+30E4_U+30FC 1
370
     0
100
AcDbSpline
210
0.0
220
0.0
230
1.0
 70
    11
 71
     3
 72
    23
 73
    19
 74
     0
 42
0.0000000001
 43
0.0000000001
 12
1.0
 22
0.0
 32
0.0
 13
1.0
 23
0.0
 33
0.0
 40
0.0
 40
0.0
 40
0.0
 40
0.0
 40
1.0
 40
1.0
 40
1.0
 40
2.0
 40
2.0
 40
2.0
 40
3.0
 40
3.0
 40
3.0
 40
4.0
 40
4.0
 40
4.0
 40
5.0
 40
5.0
 40
5.0
 40
6.0
 40
6.0
 40
6.0
 40
6.0
 10
82.51847735567247
 20
-112.3302666277334
 30
0.0
 10
82.49505070637277
 20
-112.18626163645
 30
0.0
 10
82.45922171332617
 20
-111.9854125696599
 30
0.0
 10
82.34484454321587
 20
-111.7442558856924
 30
0.0
 10
82.32382946075585
 20
-111.6998141539327
 30
0.0
 10
82.17569035489011
 20
-111.4056029994924
 30
0.0
 10
82.02341713444207
 20
-111.2175007859977
 30
0.0
 10
82.02341713444207
 20
-111.2175007859977
 30
0.0
 10
82.1991170041898
 20
-111.1051906731786
 30
0.0
 10
82.1991170041898
 20
-111.1051906731786
 30
0.0
 10
82.32382946075585
 20
-111.2615980082089
 30
0.0
 10
82.40616724285333
 20
-111.3907890889058
 30
0.0
 10
82.52674558483707
 20
-111.6257446009998
 30
0.0
 10
82.65800372282509
 20
-111.8817151955539
 30
0.0
 10
82.7024454545848
 20
-112.0126288239934
 30
0.0
 10
82.75102130092684
 20
-112.2517184506697
 30
0.0
 10
82.75102130092684
 20
-112.2517184506697
 30
0.0
 10
82.51847735567247
 20
-112.3302666277334
 30
0.0
 10
82.51847735567247
 20
-112.3302666277334
 30
0.0
  0
SPLINE
  5
55
330
4A
100
AcDbEntity
  8
_U+30EC_U+30A4_U+30E4_U+30FC 1
370
     0
100
AcDbSpline
210
0.0
220
0.0
230
1.0
 70
    11
 71
     3
 72
    17
 73
    13
 74
     0
 42
0.0000000001
 43
0.0000000001
 12
1.0
 22
0.0
 32
0.0
 13
1.0
 23
0.0
 33
0.0
 40
0.0
 40
0.0
 40
0.0
 40
0.0
 40
1.0
 40
1.0
 40
1.0
 40
2.0
 40
2.0
 40
2.0
 40
3.0
 40
3.0
 40
3.0
 40
4.0
 40
4.0
 40
4.0
 40
4.0
 10
82.64318981223852
 20
-111.2068209899934
 30
0.0
 10
82.51641029838132
 20
-111.2068209899934
 30
0.0
 10
82.41477998156645
 20
-111.1051906731786
 30
0.0
 10
82.41477998156645
 20
-110.9784111593214
 30
0.0
 10
82.41477998156645
 20
-110.8512871359157
 30
0.0
 10
82.51641029838132
 20
-110.7475897618096
 30
0.0
 10
82.64318981223852
 20
-110.7475897618096
 30
0.0
 10
82.7699693260957
 20
-110.7475897618096
 30
0.0
 10
82.87366670020172
 20
-110.8512871359157
 30
0.0
 10
82.87366670020172
 20
-110.9784111593214
 30
0.0
 10
82.87366670020172
 20
-111.1051906731786
 30
0.0
 10
82.7699693260957
 20
-111.2068209899934
 30
0.0
 10
82.64318981223852
 20
-111.2068209899934
 30
0.0
  0
SPLINE
  5
56
330
4A
100
AcDbEntity
  8
_U+30EC_U+30A4_U+30E4_U+30FC 1
370
     0
100
AcDbSpline
210
0.0
220
0.0
230
1.0
 70
    11
 71
     3
 72
    17
 73
    13
 74
     0
 42
0.0000000001
 43
0.0000000001
 12
1.0
 22
0.0
 32
0.0
 13
1.0
 23
0.0
 33
0.0
 40
0.0
 40
0.0
 40
0.0
 40
0.0
 40
1.0
 40
1.0
 40
1.0
 40
2.0
 40
2.0
 40
2.0
 40
3.0
 40
3.0
 40
3.0
 40
4.0
 40
4.0
 40
4.0
 40
4.0
 10
82.64525686952966
 20
-110.8747137852153
 30
0.0
 10
82.59047985131419
 20
-110.8747137852153
 30
0.0
 10
82.5436265527148
 20
-110.9191555169751
 30
0.0
 10
82.5436265527148
 20
-110.9763441020302
 30
0.0
 10
82.5436265527148
 20
-111.0311211202457
 30
0.0
 10
82.58806828447452
 20
-111.0821085334274
 30
0.0
 10
82.64525686952966
 20
-111.0821085334274
 30
0.0
 10
82.70451251187596
 20
-111.0821085334274
 30
0.0
 10
82.74688718634454
 20
-111.0290540629545
 30
0.0
 10
82.74688718634454
 20
-110.9739325351906
 30
0.0
 10
82.74688718634454
 20
-110.9170884596839
 30
0.0
 10
82.70037839729366
 20
-110.8747137852153
 30
0.0
 10
82.64525686952966
 20
-110.8747137852153
 30
0.0
  0
HATCH
  5
57
330
4A
100
AcDbEntity
  8
_U+30EC_U+30A4_U+30E4_U+30FC 1
 62
   179
420
  2234388
100
AcDbHatch
 10
0.0
 20
0.0
 30
0.0
210
0.0
220
0.0
230
1.0
  2
SOLID
 70
     1
 71
     0
 91
        4
 92
        1
 93
        1
 72
     4
 94
        3
 73
     0
 74
     1
 95
       29
 96
       25
 40
0.0
 40
0.0
 40
0.0
 40
0.0
 40
1.0
 40
1.0
 40
1.0
 40
2.0
 40
2.0
 40
2.0
 40
3.0
 40
3.0
 40
3.0
 40
4.0
 40
4.0
 40
4.0
 40
5.0
 40
5.0
 40
5.0
 40
6.0
 40
6.0
 40
6.0
 40
7.0
 40
7.0
 40
7.0
 40
8.0
 40
8.0
 40
8.0
 40
8.0
 10
81.62344154860456
 20
-111.2615980082089
 10
81.60449352343569
 20
-111.3125854213906
 10
81.54937199567169
 20
-111.5179131123115
 10
81.53042397050281
 20
-111.5875040411135
 10
81.46048853215224
 20
-111.8520873743807
 10
81.31889510770847
 20
-112.1652465539899
 10
81.10529918762299
 20
-112.4084702952486
 10
81.10529918762299
 20
-112.4084702952486
 10
80.88929170069783
 20
-112.3068399784337
 10
80.88929170069783
 20
-112.3068399784337
 10
81.0184827813947
 20
-112.1714477258634
 10
81.12838132737416
 20
-112.0274427345799
 10
81.23207870148018
 20
-111.7907646747433
 10
81.3275078464216
 20
-111.5706230732358
 10
81.39296466064134
 20
-111.3380791279815
 10
81.40984562851907
 20
-111.096922444014
 10
81.40984562851907
 20
-111.096922444014
 10
81.65306936977771
 20
-111.1623792582337
 10
81.65306936977771
 20
-111.1623792582337
 10
81.66581622307314
 20
-111.166513372816
 10
81.70612384025056
 20
-111.1792602261114
 10
81.70612384025056
 20
-111.2026868754111
 10
81.70612384025056
 20
-111.2299031297446
 10
81.67442896178626
 20
-111.24264998304
 10
81.62344154860456
 20
-111.2615980082089
 97
        0
 97
        0
 92
        1
 93
        1
 72
     4
 94
        3
 73
     0
 74
     1
 95
       23
 96
       19
 40
0.0
 40
0.0
 40
0.0
 40
0.0
 40
1.0
 40
1.0
 40
1.0
 40
2.0
 40
2.0
 40
2.0
 40
3.0
 40
3.0
 40
3.0
 40
4.0
 40
4.0
 40
4.0
 40
5.0
 40
5.0
 40
5.0
 40
6.0
 40
6.0
 40
6.0
 40
6.0
 10
82.51847735567247
 20
-112.3302666277334
 10
82.49505070637277
 20
-112.18626163645
 10
82.45922171332617
 20
-111.9854125696599
 10
82.34484454321587
 20
-111.7442558856924
 10
82.32382946075585
 20
-111.6998141539327
 10
82.17569035489011
 20
-111.4056029994924
 10
82.02341713444207
 20
-111.2175007859977
 10
82.02341713444207
 20
-111.2175007859977
 10
82.1991170041898
 20
-111.1051906731786
 10
82.1991170041898
 20
-111.1051906731786
 10
82.32382946075585
 20
-111.2615980082089
 10
82.40616724285333
 20
-111.3907890889058
 10
82.52674558483707
 20
-111.6257446009998
 10
82.65800372282509
 20
-111.8817151955539
 10
82.7024454545848
 20
-112.0126288239934
 10
82.75102130092684
 20
-112.2517184506697
 10
82.75102130092684
 20
-112.2517184506697
 10
82.51847735567247
 20
-112.3302666277334
 10
82.51847735567247
 20
-112.3302666277334
 97
        0
 97
        0
 92
        1
 93
        1
 72
     4
 94
        3
 73
     0
 74
     1
 95
       17
 96
       13
 40
0.0
 40
0.0
 40
0.0
 40
0.0
 40
1.0
 40
1.0
 40
1.0
 40
2.0
 40
2.0
 40
2.0
 40
3.0
 40
3.0
 40
3.0
 40
4.0
 40
4.0
 40
4.0
 40
4.0
 10
82.64318981223852
 20
-111.2068209899934
 10
82.51641029838132
 20
-111.2068209899934
 10
82.41477998156645
 20
-111.1051906731786
 10
82.41477998156645
 20
-110.9784111593214
 10
82.41477998156645
 20
-110.8512871359157
 10
82.51641029838132
 20
-110.7475897618096
 10
82.64318981223852
 20
-110.7475897618096
 10
82.7699693260957
 20
-110.7475897618096
 10
82.87366670020172
 20
-110.8512871359157
 10
82.87366670020172
 20
-110.9784111593214
 10
82.87366670020172
 20
-111.1051906731786
 10
82.7699693260957
 20
-111.2068209899934
 10
82.64318981223852
 20
-111.2068209899934
 97
        0
 97
        0
 92
        1
 93
        1
 72
     4
 94
        3
 73
     0
 74
     1
 95
       17
 96
       13
 40
0.0
 40
0.0
 40
0.0
 40
0.0
 40
1.0
 40
1.0
 40
1.0
 40
2.0
 40
2.0
 40
2.0
 40
3.0
 40
3.0
 40
3.0
 40
4.0
 40
4.0
 40
4.0
 40
4.0
 10
82.64525686952966
 20
-110.8747137852153
 10
82.59047985131419
 20
-110.8747137852153
 10
82.5436265527148
 20
-110.9191555169751
 10
82.5436265527148
 20
-110.9763441020302
 10
82.5436265527148
 20
-111.0311211202457
 10
82.58806828447452
 20
-111.0821085334274
 10
82.64525686952966
 20
-111.0821085334274
 10
82.70451251187596
 20
-111.0821085334274
 10
82.74688718634454
 20
-111.0290540629545
 10
82.74688718634454
 20
-110.9739325351906
 10
82.74688718634454
 20
-110.9170884596839
 10
82.70037839729366
 20
-110.8747137852153
 10
82.64525686952966
 20
-110.8747137852153
 97
        0
 97
        0
 75
     2
 76
     1
 98
        0
  0
SPLINE
  5
58
330
4A
100
AcDbEntity
  8
_U+30EC_U+30A4_U+30E4_U+30FC 1
370
     0
100
AcDbSpline
210
0.0
220
0.0
230
1.0
 70
    11
 71
     3
 72
    29
 73
    25
 74
     0
 42
0.0000000001
 43
0.0000000001
 12
1.0
 22
0.0
 32
0.0
 13
1.0
 23
0.0
 33
0.0
 40
0.0
 40
0.0
 40
0.0
 40
0.0
 40
1.0
 40
1.0
 40
1.0
 40
2.0
 40
2.0
 40
2.0
 40
3.0
 40
3.0
 40
3.0
 40
4.0
 40
4.0
 40
4.0
 40
5.0
 40
5.0
 40
5.0
 40
6.0
 40
6.0
 40
6.0
 40
7.0
 40
7.0
 40
7.0
 40
8.0
 40
8.0
 40
8.0
 40
8.0
 10
84.03397485963387
 20
-111.8179809290768
 30
0.0
 10
84.03397485963387
 20
-111.8179809290768
 30
0.0
 10
83.54959443440774
 20
-111.8179809290768
 30
0.0
 10
83.54959443440774
 20
-111.8179809290768
 30
0.0
 10
83.52203367052574
 20
-111.8179809290768
 30
0.0
 10
83.20474037633423
 20
-111.8179809290768
 30
0.0
 10
82.99321151353989
 20
-111.8434746356676
 30
0.0
 10
82.99321151353989
 20
-111.8434746356676
 30
0.0
 10
82.99321151353989
 20
-111.6129977477044
 30
0.0
 10
82.99321151353989
 20
-111.6129977477044
 30
0.0
 10
83.15168590586138
 20
-111.6360798874556
 30
0.0
 10
83.3421996861957
 20
-111.6384914542952
 30
0.0
 10
83.54959443440774
 20
-111.6384914542952
 30
0.0
 10
83.54959443440774
 20
-111.6384914542952
 30
0.0
 10
84.03397485963387
 20
-111.6384914542952
 30
0.0
 10
84.03397485963387
 20
-111.6384914542952
 30
0.0
 10
84.22001001583736
 20
-111.6384914542952
 30
0.0
 10
84.40638968158937
 20
-111.6360798874556
 30
0.0
 10
84.59035778050172
 20
-111.6129977477044
 30
0.0
 10
84.59035778050172
 20
-111.6129977477044
 30
0.0
 10
84.59035778050172
 20
-111.8434746356676
 30
0.0
 10
84.59035778050172
 20
-111.8434746356676
 30
0.0
 10
84.40638968158937
 20
-111.8203924959164
 30
0.0
 10
84.15868731619992
 20
-111.8179809290768
 30
0.0
 10
84.03397485963387
 20
-111.8179809290768
 30
0.0
  0
HATCH
  5
59
330
4A
100
AcDbEntity
  8
_U+30EC_U+30A4_U+30E4_U+30FC 1
 62
   179
420
  2234388
100
AcDbHatch
 10
0.0
 20
0.0
 30
0.0
210
0.0
220
0.0
230
1.0
  2
SOLID
 70
     1
 71
     0
 91
        1
 92
        1
 93
        1
 72
     4
 94
        3
 73
     0
 74
     1
 95
       29
 96
       25
 40
0.0
 40
0.0
 40
0.0
 40
0.0
 40
1.0
 40
1.0
 40
1.0
 40
2.0
 40
2.0
 40
2.0
 40
3.0
 40
3.0
 40
3.0
 40
4.0
 40
4.0
 40
4.0
 40
5.0
 40
5.0
 40
5.0
 40
6.0
 40
6.0
 40
6.0
 40
7.0
 40
7.0
 40
7.0
 40
8.0
 40
8.0
 40
8.0
 40
8.0
 10
84.03397485963387
 20
-111.8179809290768
 10
84.03397485963387
 20
-111.8179809290768
 10
83.54959443440774
 20
-111.8179809290768
 10
83.54959443440774
 20
-111.8179809290768
 10
83.52203367052574
 20
-111.8179809290768
 10
83.20474037633423
 20
-111.8179809290768
 10
82.99321151353989
 20
-111.8434746356676
 10
82.99321151353989
 20
-111.8434746356676
 10
82.99321151353989
 20
-111.6129977477044
 10
82.99321151353989
 20
-111.6129977477044
 10
83.15168590586138
 20
-111.6360798874556
 10
83.3421996861957
 20
-111.6384914542952
 10
83.54959443440774
 20
-111.6384914542952
 10
83.54959443440774
 20
-111.6384914542952
 10
84.03397485963387
 20
-111.6384914542952
 10
84.03397485963387
 20
-111.6384914542952
 10
84.22001001583736
 20
-111.6384914542952
 10
84.40638968158937
 20
-111.6360798874556
 10
84.59035778050172
 20
-111.6129977477044
 10
84.59035778050172
 20
-111.6129977477044
 10
84.59035778050172
 20
-111.8434746356676
 10
84.59035778050172
 20
-111.8434746356676
 10
84.40638968158937
 20
-111.8203924959164
 10
84.15868731619992
 20
-111.8179809290768
 10
84.03397485963387
 20
-111.8179809290768
 97
        0
 97
        0
 75
     2
 76
     1
 98
        0
  0
SPLINE
  5
5A
330
4A
100
AcDbEntity
  8
_U+30EC_U+30A4_U+30E4_U+30FC 1
370
     0
100
AcDbSpline
210
0.0
220
0.0
230
1.0
 70
    11
 71
     3
 72
    53
 73
    49
 74
     0
 42
0.0000000001
 43
0.0000000001
 12
1.0
 22
0.0
 32
0.0
 13
1.0
 23
0.0
 33
0.0
 40
0.0
 40
0.0
 40
0.0
 40
0.0
 40
1.0
 40
1.0
 40
1.0
 40
2.0
 40
2.0
 40
2.0
 40
3.0
 40
3.0
 40
3.0
 40
4.0
 40
4.0
 40
4.0
 40
5.0
 40
5.0
 40
5.0
 40
6.0
 40
6.0
 40
6.0
 40
7.0
 40
7.0
 40
7.0
 40
8.0
 40
8.0
 40
8.0
 40
9.0
 40
9.0
 40
9.0
 40
10.0
 40
10.0
 40
10.0
 40
11.0
 40
11.0
 40
11.0
 40
12.0
 40
12.0
 40
12.0
 40
13.0
 40
13.0
 40
13.0
 40
14.0
 40
14.0
 40
14.0
 40
15.0
 40
15.0
 40
15.0
 40
16.0
 40
16.0
 40
16.0
 40
16.0
 10
85.45266518045976
 20
-110.9443047140174
 30
0.0
 10
85.38514130894886
 20
-111.096922444014
 30
0.0
 10
85.34276663448028
 20
-111.1751261115291
 30
0.0
 10
85.30452607459401
 20
-111.24264998304
 30
0.0
 10
85.34690074906258
 20
-111.2640095750486
 30
0.0
 10
85.35103486364488
 20
-111.2660766323397
 30
0.0
 10
85.35103486364488
 20
-111.2808905429263
 30
0.0
 10
85.35103486364488
 20
-111.2936373962217
 30
0.0
 10
85.31727292788943
 20
-111.3273993319772
 30
0.0
 10
85.30659313188517
 20
-111.3356675611418
 30
0.0
 10
85.30452607459401
 20
-111.5323825133495
 30
0.0
 10
85.30452607459401
 20
-111.5537421053581
 30
0.0
 10
85.30452607459401
 20
-111.6870673006373
 30
0.0
 10
85.30245901730287
 20
-111.6998141539327
 30
0.0
 10
85.30245901730287
 20
-111.7146280645193
 30
0.0
 10
85.30245901730287
 20
-111.7294419751058
 30
0.0
 10
85.30245901730287
 20
-111.7294419751058
 30
0.0
 10
85.30245901730287
 20
-112.2644653039651
 30
0.0
 10
85.30245901730287
 20
-112.2644653039651
 30
0.0
 10
85.30245901730287
 20
-112.3364677996069
 30
0.0
 10
85.30659313188517
 20
-112.5714233117009
 30
0.0
 10
85.31520587059829
 20
-112.6813218576804
 30
0.0
 10
85.31520587059829
 20
-112.6813218576804
 30
0.0
 10
85.07198212933964
 20
-112.6813218576804
 30
0.0
 10
85.07198212933964
 20
-112.6813218576804
 30
0.0
 10
85.09506426909083
 20
-112.5225029558104
 30
0.0
 10
85.1016099505128
 20
-112.2813462718429
 30
0.0
 10
85.1016099505128
 20
-112.2603311893828
 30
0.0
 10
85.1016099505128
 20
-112.2603311893828
 30
0.0
 10
85.1016099505128
 20
-111.5430623093538
 30
0.0
 10
85.1016099505128
 20
-111.5430623093538
 30
0.0
 10
85.0106594297022
 20
-111.6574394794641
 30
0.0
 10
84.94933673006476
 20
-111.7166951218104
 30
0.0
 10
84.90696205559618
 20
-111.759069796279
 30
0.0
 10
84.90696205559618
 20
-111.759069796279
 30
0.0
 10
84.71644827526187
 20
-111.621265976869
 30
0.0
 10
84.71644827526187
 20
-111.621265976869
 30
0.0
 10
84.99791257640678
 20
-111.4056029994924
 30
0.0
 10
85.19049341403225
 20
-111.096922444014
 30
0.0
 10
85.30245901730287
 20
-110.7603366151051
 30
0.0
 10
85.30245901730287
 20
-110.7603366151051
 30
0.0
 10
85.52260061881033
 20
-110.8747137852153
 30
0.0
 10
85.52260061881033
 20
-110.8747137852153
 30
0.0
 10
85.53534747210576
 20
-110.8809149570888
 30
0.0
 10
85.54361570127035
 20
-110.8850490716711
 30
0.0
 10
85.54361570127035
 20
-110.8998629822577
 30
0.0
 10
85.54361570127035
 20
-110.9253566888485
 30
0.0
 10
85.52673473339263
 20
-110.9294908034308
 30
0.0
 10
85.45266518045976
 20
-110.9443047140174
 30
0.0
  0
SPLINE
  5
5B
330
4A
100
AcDbEntity
  8
_U+30EC_U+30A4_U+30E4_U+30FC 1
370
     0
100
AcDbSpline
210
0.0
220
0.0
230
1.0
 70
    11
 71
     3
 72
    77
 73
    73
 74
     0
 42
0.0000000001
 43
0.0000000001
 12
1.0
 22
0.0
 32
0.0
 13
1.0
 23
0.0
 33
0.0
 40
0.0
 40
0.0
 40
0.0
 40
0.0
 40
1.0
 40
1.0
 40
1.0
 40
2.0
 40
2.0
 40
2.0
 40
3.0
 40
3.0
 40
3.0
 40
4.0
 40
4.0
 40
4.0
 40
5.0
 40
5.0
 40
5.0
 40
6.0
 40
6.0
 40
6.0
 40
7.0
 40
7.0
 40
7.0
 40
8.0
 40
8.0
 40
8.0
 40
9.0
 40
9.0
 40
9.0
 40
10.0
 40
10.0
 40
10.0
 40
11.0
 40
11.0
 40
11.0
 40
12.0
 40
12.0
 40
12.0
 40
13.0
 40
13.0
 40
13.0
 40
14.0
 40
14.0
 40
14.0
 40
15.0
 40
15.0
 40
15.0
 40
16.0
 40
16.0
 40
16.0
 40
17.0
 40
17.0
 40
17.0
 40
18.0
 40
18.0
 40
18.0
 40
19.0
 40
19.0
 40
19.0
 40
20.0
 40
20.0
 40
20.0
 40
21.0
 40
21.0
 40
21.0
 40
22.0
 40
22.0
 40
22.0
 40
23.0
 40
23.0
 40
23.0
 40
24.0
 40
24.0
 40
24.0
 40
24.0
 10
86.60367158208173
 20
-111.4438435593786
 30
0.0
 10
86.53373614373115
 20
-111.4393649352478
 30
0.0
 10
86.46586776267173
 20
-111.4393649352478
 30
0.0
 10
86.39834389116083
 20
-111.4393649352478
 30
0.0
 10
86.39834389116083
 20
-111.4393649352478
 30
0.0
 10
86.39834389116083
 20
-112.213822400332
 30
0.0
 10
86.39834389116083
 20
-112.213822400332
 30
0.0
 10
86.39834389116083
 20
-112.4780612240506
 30
0.0
 10
86.39627683386969
 20
-112.5076890452238
 30
0.0
 10
86.38973115244771
 20
-112.5373168663969
 30
0.0
 10
86.35596921669226
 20
-112.6706420616761
 30
0.0
 10
86.2543388998774
 20
-112.6792548003892
 30
0.0
 10
86.07898353967818
 20
-112.6792548003892
 30
0.0
 10
86.03867592250076
 20
-112.6792548003892
 30
0.0
 10
86.02179495462303
 20
-112.6792548003892
 30
0.0
 10
85.9814873374456
 20
-112.6747761762584
 30
0.0
 10
85.9814873374456
 20
-112.6747761762584
 30
0.0
 10
85.85677488087956
 20
-112.4336194922909
 30
0.0
 10
85.85677488087956
 20
-112.4336194922909
 30
0.0
 10
85.973219108281
 20
-112.4653143707552
 30
0.0
 10
86.05555689037847
 20
-112.4653143707552
 30
0.0
 10
86.07898353967818
 20
-112.4653143707552
 30
0.0
 10
86.14857446848022
 20
-112.4653143707552
 30
0.0
 10
86.1826809137842
 20
-112.4484334028775
 30
0.0
 10
86.1868150283665
 20
-112.3915893273709
 30
0.0
 10
86.1868150283665
 20
-112.3788424740754
 30
0.0
 10
86.18888208565764
 20
-112.2813462718429
 30
0.0
 10
86.18888208565764
 20
-112.2241576867877
 30
0.0
 10
86.18888208565764
 20
-112.2241576867877
 30
0.0
 10
86.18888208565764
 20
-111.4372978779567
 30
0.0
 10
86.18888208565764
 20
-111.4372978779567
 30
0.0
 10
86.18888208565764
 20
-111.4372978779567
 30
0.0
 10
85.8946709312173
 20
-111.4372978779567
 30
0.0
 10
85.8946709312173
 20
-111.4372978779567
 30
0.0
 10
85.74894339219124
 20
-111.4372978779567
 30
0.0
 10
85.60287134361664
 20
-111.4438435593786
 30
0.0
 10
85.4588663523332
 20
-111.4562459031255
 30
0.0
 10
85.4588663523332
 20
-111.4562459031255
 30
0.0
 10
85.4588663523332
 20
-111.249195664462
 30
0.0
 10
85.4588663523332
 20
-111.249195664462
 30
0.0
 10
85.6090725154901
 20
-111.2615980082089
 30
0.0
 10
85.8271470597064
 20
-111.2660766323397
 30
0.0
 10
85.8946709312173
 20
-111.2660766323397
 30
0.0
 10
85.8946709312173
 20
-111.2660766323397
 30
0.0
 10
86.18888208565764
 20
-111.2660766323397
 30
0.0
 10
86.18888208565764
 20
-111.2660766323397
 30
0.0
 10
86.1868150283665
 20
-110.9973591844903
 30
0.0
 10
86.1868150283665
 20
-110.9212225742662
 30
0.0
 10
86.17820228965337
 20
-110.7730834684005
 30
0.0
 10
86.17820228965337
 20
-110.7730834684005
 30
0.0
 10
86.43623994149858
 20
-110.8113240282868
 30
0.0
 10
86.43623994149858
 20
-110.8113240282868
 30
0.0
 10
86.45105385208515
 20
-110.8133910855779
 30
0.0
 10
86.46586776267173
 20
-110.8195922574514
 30
0.0
 10
86.46586776267173
 20
-110.8406073399114
 30
0.0
 10
86.46586776267173
 20
-110.8598998746288
 30
0.0
 10
86.45966659079828
 20
-110.8619669319199
 30
0.0
 10
86.40247800574313
 20
-110.8957288676754
 30
0.0
 10
86.39834389116083
 20
-110.9739325351906
 30
0.0
 10
86.39834389116083
 20
-110.9887464457771
 30
0.0
 10
86.39834389116083
 20
-111.2660766323397
 30
0.0
 10
86.57611081819972
 20
-111.2615980082089
 30
0.0
 10
86.5950588433686
 20
-111.2615980082089
 30
0.0
 10
86.62882077912406
 20
-111.2574638936266
 30
0.0
 10
86.67980819230574
 20
-111.2533297790443
 30
0.0
 10
86.68394230688804
 20
-111.2512627217532
 30
0.0
 10
86.72838403864777
 20
-111.249195664462
 30
0.0
 10
86.72838403864777
 20
-111.249195664462
 30
0.0
 10
86.72838403864777
 20
-111.4562459031255
 30
0.0
 10
86.72838403864777
 20
-111.4562459031255
 30
0.0
 10
86.69875621747462
 20
-111.4541788458344
 30
0.0
 10
86.64363468971062
 20
-111.4459106166698
 30
0.0
 10
86.60367158208173
 20
-111.4438435593786
 30
0.0
  0
SPLINE
  5
5C
330
4A
100
AcDbEntity
  8
_U+30EC_U+30A4_U+30E4_U+30FC 1
370
     0
100
AcDbSpline
210
0.0
220
0.0
230
1.0
 70
    11
 71
     3
 72
    20
 73
    16
 74
     0
 42
0.0000000001
 43
0.0000000001
 12
1.0
 22
0.0
 32
0.0
 13
1.0
 23
0.0
 33
0.0
 40
0.0
 40
0.0
 40
0.0
 40
0.0
 40
1.0
 40
1.0
 40
1.0
 40
2.0
 40
2.0
 40
2.0
 40
3.0
 40
3.0
 40
3.0
 40
4.0
 40
4.0
 40
4.0
 40
5.0
 40
5.0
 40
5.0
 40
5.0
 10
85.83334823157986
 20
-112.1693806685722
 30
0.0
 10
85.78683944252899
 20
-111.9916137415334
 30
0.0
 10
85.68968774984495
 20
-111.8500203170896
 30
0.0
 10
85.55016138269232
 20
-111.7397772615616
 30
0.0
 10
85.55016138269232
 20
-111.7397772615616
 30
0.0
 10
85.71070283230496
 20
-111.6257446009998
 30
0.0
 10
85.71070283230496
 20
-111.6257446009998
 30
0.0
 10
85.77202553194242
 20
-111.6677747659199
 30
0.0
 10
85.81233314911984
 20
-111.7018812112238
 30
0.0
 10
85.88846975934386
 20
-111.8097126999122
 30
0.0
 10
85.96874048415017
 20
-111.9261569273136
 30
0.0
 10
85.99010007615873
 20
-111.9788668882379
 30
0.0
 10
86.01524927320105
 20
-112.0446682120062
 30
0.0
 10
86.01524927320105
 20
-112.0446682120062
 30
0.0
 10
85.83334823157986
 20
-112.1693806685722
 30
0.0
 10
85.83334823157986
 20
-112.1693806685722
 30
0.0
  0
HATCH
  5
5D
330
4A
100
AcDbEntity
  8
_U+30EC_U+30A4_U+30E4_U+30FC 1
 62
   179
420
  2234388
100
AcDbHatch
 10
0.0
 20
0.0
 30
0.0
210
0.0
220
0.0
230
1.0
  2
SOLID
 70
     1
 71
     0
 91
        3
 92
        1
 93
        1
 72
     4
 94
        3
 73
     0
 74
     1
 95
       53
 96
       49
 40
0.0
 40
0.0
 40
0.0
 40
0.0
 40
1.0
 40
1.0
 40
1.0
 40
2.0
 40
2.0
 40
2.0
 40
3.0
 40
3.0
 40
3.0
 40
4.0
 40
4.0
 40
4.0
 40
5.0
 40
5.0
 40
5.0
 40
6.0
 40
6.0
 40
6.0
 40
7.0
 40
7.0
 40
7.0
 40
8.0
 40
8.0
 40
8.0
 40
9.0
 40
9.0
 40
9.0
 40
10.0
 40
10.0
 40
10.0
 40
11.0
 40
11.0
 40
11.0
 40
12.0
 40
12.0
 40
12.0
 40
13.0
 40
13.0
 40
13.0
 40
14.0
 40
14.0
 40
14.0
 40
15.0
 40
15.0
 40
15.0
 40
16.0
 40
16.0
 40
16.0
 40
16.0
 10
85.45266518045976
 20
-110.9443047140174
 10
85.38514130894886
 20
-111.096922444014
 10
85.34276663448028
 20
-111.1751261115291
 10
85.30452607459401
 20
-111.24264998304
 10
85.34690074906258
 20
-111.2640095750486
 10
85.35103486364488
 20
-111.2660766323397
 10
85.35103486364488
 20
-111.2808905429263
 10
85.35103486364488
 20
-111.2936373962217
 10
85.31727292788943
 20
-111.3273993319772
 10
85.30659313188517
 20
-111.3356675611418
 10
85.30452607459401
 20
-111.5323825133495
 10
85.30452607459401
 20
-111.5537421053581
 10
85.30452607459401
 20
-111.6870673006373
 10
85.30245901730287
 20
-111.6998141539327
 10
85.30245901730287
 20
-111.7146280645193
 10
85.30245901730287
 20
-111.7294419751058
 10
85.30245901730287
 20
-111.7294419751058
 10
85.30245901730287
 20
-112.2644653039651
 10
85.30245901730287
 20
-112.2644653039651
 10
85.30245901730287
 20
-112.3364677996069
 10
85.30659313188517
 20
-112.5714233117009
 10
85.31520587059829
 20
-112.6813218576804
 10
85.31520587059829
 20
-112.6813218576804
 10
85.07198212933964
 20
-112.6813218576804
 10
85.07198212933964
 20
-112.6813218576804
 10
85.09506426909083
 20
-112.5225029558104
 10
85.1016099505128
 20
-112.2813462718429
 10
85.1016099505128
 20
-112.2603311893828
 10
85.1016099505128
 20
-112.2603311893828
 10
85.1016099505128
 20
-111.5430623093538
 10
85.1016099505128
 20
-111.5430623093538
 10
85.0106594297022
 20
-111.6574394794641
 10
84.94933673006476
 20
-111.7166951218104
 10
84.90696205559618
 20
-111.759069796279
 10
84.90696205559618
 20
-111.759069796279
 10
84.71644827526187
 20
-111.621265976869
 10
84.71644827526187
 20
-111.621265976869
 10
84.99791257640678
 20
-111.4056029994924
 10
85.19049341403225
 20
-111.096922444014
 10
85.30245901730287
 20
-110.7603366151051
 10
85.30245901730287
 20
-110.7603366151051
 10
85.52260061881033
 20
-110.8747137852153
 10
85.52260061881033
 20
-110.8747137852153
 10
85.53534747210576
 20
-110.8809149570888
 10
85.54361570127035
 20
-110.8850490716711
 10
85.54361570127035
 20
-110.8998629822577
 10
85.54361570127035
 20
-110.9253566888485
 10
85.52673473339263
 20
-110.9294908034308
 10
85.45266518045976
 20
-110.9443047140174
 97
        0
 97
        0
 92
        1
 93
        1
 72
     4
 94
        3
 73
     0
 74
     1
 95
       77
 96
       73
 40
0.0
 40
0.0
 40
0.0
 40
0.0
 40
1.0
 40
1.0
 40
1.0
 40
2.0
 40
2.0
 40
2.0
 40
3.0
 40
3.0
 40
3.0
 40
4.0
 40
4.0
 40
4.0
 40
5.0
 40
5.0
 40
5.0
 40
6.0
 40
6.0
 40
6.0
 40
7.0
 40
7.0
 40
7.0
 40
8.0
 40
8.0
 40
8.0
 40
9.0
 40
9.0
 40
9.0
 40
10.0
 40
10.0
 40
10.0
 40
11.0
 40
11.0
 40
11.0
 40
12.0
 40
12.0
 40
12.0
 40
13.0
 40
13.0
 40
13.0
 40
14.0
 40
14.0
 40
14.0
 40
15.0
 40
15.0
 40
15.0
 40
16.0
 40
16.0
 40
16.0
 40
17.0
 40
17.0
 40
17.0
 40
18.0
 40
18.0
 40
18.0
 40
19.0
 40
19.0
 40
19.0
 40
20.0
 40
20.0
 40
20.0
 40
21.0
 40
21.0
 40
21.0
 40
22.0
 40
22.0
 40
22.0
 40
23.0
 40
23.0
 40
23.0
 40
24.0
 40
24.0
 40
24.0
 40
24.0
 10
86.60367158208173
 20
-111.4438435593786
 10
86.53373614373115
 20
-111.4393649352478
 10
86.46586776267173
 20
-111.4393649352478
 10
86.39834389116083
 20
-111.4393649352478
 10
86.39834389116083
 20
-111.4393649352478
 10
86.39834389116083
 20
-112.213822400332
 10
86.39834389116083
 20
-112.213822400332
 10
86.39834389116083
 20
-112.4780612240506
 10
86.39627683386969
 20
-112.5076890452238
 10
86.38973115244771
 20
-112.5373168663969
 10
86.35596921669226
 20
-112.6706420616761
 10
86.2543388998774
 20
-112.6792548003892
 10
86.07898353967818
 20
-112.6792548003892
 10
86.03867592250076
 20
-112.6792548003892
 10
86.02179495462303
 20
-112.6792548003892
 10
85.9814873374456
 20
-112.6747761762584
 10
85.9814873374456
 20
-112.6747761762584
 10
85.85677488087956
 20
-112.4336194922909
 10
85.85677488087956
 20
-112.4336194922909
 10
85.973219108281
 20
-112.4653143707552
 10
86.05555689037847
 20
-112.4653143707552
 10
86.07898353967818
 20
-112.4653143707552
 10
86.14857446848022
 20
-112.4653143707552
 10
86.1826809137842
 20
-112.4484334028775
 10
86.1868150283665
 20
-112.3915893273709
 10
86.1868150283665
 20
-112.3788424740754
 10
86.18888208565764
 20
-112.2813462718429
 10
86.18888208565764
 20
-112.2241576867877
 10
86.18888208565764
 20
-112.2241576867877
 10
86.18888208565764
 20
-111.4372978779567
 10
86.18888208565764
 20
-111.4372978779567
 10
86.18888208565764
 20
-111.4372978779567
 10
85.8946709312173
 20
-111.4372978779567
 10
85.8946709312173
 20
-111.4372978779567
 10
85.74894339219124
 20
-111.4372978779567
 10
85.60287134361664
 20
-111.4438435593786
 10
85.4588663523332
 20
-111.4562459031255
 10
85.4588663523332
 20
-111.4562459031255
 10
85.4588663523332
 20
-111.249195664462
 10
85.4588663523332
 20
-111.249195664462
 10
85.6090725154901
 20
-111.2615980082089
 10
85.8271470597064
 20
-111.2660766323397
 10
85.8946709312173
 20
-111.2660766323397
 10
85.8946709312173
 20
-111.2660766323397
 10
86.18888208565764
 20
-111.2660766323397
 10
86.18888208565764
 20
-111.2660766323397
 10
86.1868150283665
 20
-110.9973591844903
 10
86.1868150283665
 20
-110.9212225742662
 10
86.17820228965337
 20
-110.7730834684005
 10
86.17820228965337
 20
-110.7730834684005
 10
86.43623994149858
 20
-110.8113240282868
 10
86.43623994149858
 20
-110.8113240282868
 10
86.45105385208515
 20
-110.8133910855779
 10
86.46586776267173
 20
-110.8195922574514
 10
86.46586776267173
 20
-110.8406073399114
 10
86.46586776267173
 20
-110.8598998746288
 10
86.45966659079828
 20
-110.8619669319199
 10
86.40247800574313
 20
-110.8957288676754
 10
86.39834389116083
 20
-110.9739325351906
 10
86.39834389116083
 20
-110.9887464457771
 10
86.39834389116083
 20
-111.2660766323397
 10
86.57611081819972
 20
-111.2615980082089
 10
86.5950588433686
 20
-111.2615980082089
 10
86.62882077912406
 20
-111.2574638936266
 10
86.67980819230574
 20
-111.2533297790443
 10
86.68394230688804
 20
-111.2512627217532
 10
86.72838403864777
 20
-111.249195664462
 10
86.72838403864777
 20
-111.249195664462
 10
86.72838403864777
 20
-111.4562459031255
 10
86.72838403864777
 20
-111.4562459031255
 10
86.69875621747462
 20
-111.4541788458344
 10
86.64363468971062
 20
-111.4459106166698
 10
86.60367158208173
 20
-111.4438435593786
 97
        0
 97
        0
 92
        1
 93
        1
 72
     4
 94
        3
 73
     0
 74
     1
 95
       20
 96
       16
 40
0.0
 40
0.0
 40
0.0
 40
0.0
 40
1.0
 40
1.0
 40
1.0
 40
2.0
 40
2.0
 40
2.0
 40
3.0
 40
3.0
 40
3.0
 40
4.0
 40
4.0
 40
4.0
 40
5.0
 40
5.0
 40
5.0
 40
5.0
 10
85.83334823157986
 20
-112.1693806685722
 10
85.78683944252899
 20
-111.9916137415334
 10
85.68968774984495
 20
-111.8500203170896
 10
85.55016138269232
 20
-111.7397772615616
 10
85.55016138269232
 20
-111.7397772615616
 10
85.71070283230496
 20
-111.6257446009998
 10
85.71070283230496
 20
-111.6257446009998
 10
85.77202553194242
 20
-111.6677747659199
 10
85.81233314911984
 20
-111.7018812112238
 10
85.88846975934386
 20
-111.8097126999122
 10
85.96874048415017
 20
-111.9261569273136
 10
85.99010007615873
 20
-111.9788668882379
 10
86.01524927320105
 20
-112.0446682120062
 10
86.01524927320105
 20
-112.0446682120062
 10
85.83334823157986
 20
-112.1693806685722
 10
85.83334823157986
 20
-112.1693806685722
 97
        0
 97
        0
 75
     2
 76
     1
 98
        0
  0
ENDBLK
  5
4D
330
4A
100
AcDbEntity
  8
0
100
AcDbBlockEnd
  0
BLOCK
  5
6C
330
6A
100
AcDbEntity
  8
0
100
AcDbBlockBegin
  2
block 3
 70
     0
 10
0.0
 20
0.0
 30
0.0
  3
block 3
  1

  0
SPLINE
  5
6E
330
6A
100
AcDbEntity
  8
_U+30EC_U+30A4_U+30E4_U+30FC 1
370
     0
100
AcDbSpline
210
0.0
220
0.0
230
1.0
 70
    11
 71
     3
 72
    44
 73
    40
 74
     0
 42
0.0000000001
 43
0.0000000001
 12
1.0
 22
0.0
 32
0.0
 13
1.0
 23
0.0
 33
0.0
 40
0.0
 40
0.0
 40
0.0
 40
0.0
 40
1.0
 40
1.0
 40
1.0
 40
2.0
 40
2.0
 40
2.0
 40
3.0
 40
3.0
 40
3.0
 40
4.0
 40
4.0
 40
4.0
 40
5.0
 40
5.0
 40
5.0
 40
6.0
 40
6.0
 40
6.0
 40
7.0
 40
7.0
 40
7.0
 40
8.0
 40
8.0
 40
8.0
 40
9.0
 40
9.0
 40
9.0
 40
10.0
 40
10.0
 40
10.0
 40
11.0
 40
11.0
 40
11.0
 40
12.0
 40
12.0
 40
12.0
 40
13.0
 40
13.0
 40
13.0
 40
13.0
 10
72.04297551367328
 20
-98.32870955658102
 30
0.0
 10
71.82507322423123
 20
-98.48752845845104
 30
0.0
 10
71.73188339135523
 20
-98.56159801138391
 30
0.0
 10
71.68330754501321
 20
-98.70525849311883
 30
0.0
 10
71.68330754501321
 20
-98.70525849311883
 30
0.0
 10
72.4617268699054
 20
-98.70525849311883
 30
0.0
 10
72.4617268699054
 20
-98.70525849311883
 30
0.0
 10
72.4617268699054
 20
-98.70525849311883
 30
0.0
 10
72.4617268699054
 20
-98.91058618403972
 30
0.0
 10
72.4617268699054
 20
-98.91058618403972
 30
0.0
 10
72.4617268699054
 20
-98.91058618403972
 30
0.0
 10
71.43371037710685
 20
-98.91058618403972
 30
0.0
 10
71.43371037710685
 20
-98.91058618403972
 30
0.0
 10
71.46540525557116
 20
-98.55298527267078
 30
0.0
 10
71.53103432456516
 20
-98.47478160515561
 30
0.0
 10
71.91602374504183
 20
-98.17643633613298
 30
0.0
 10
72.1719943395959
 20
-97.97765432663407
 30
0.0
 10
72.23745115381564
 20
-97.90978594557464
 30
0.0
 10
72.23745115381564
 20
-97.77232663571317
 30
0.0
 10
72.23745115381564
 20
-97.65381535102058
 30
0.0
 10
72.16562091294819
 20
-97.52290172258108
 30
0.0
 10
71.96890596074041
 20
-97.52290172258108
 30
0.0
 10
71.70862899682979
 20
-97.52290172258108
 30
0.0
 10
71.70018851289093
 20
-97.7533786105443
 30
0.0
 10
71.69588214353436
 20
-97.86982283794575
 30
0.0
 10
71.69588214353436
 20
-97.86982283794575
 30
0.0
 10
71.47177868221887
 20
-97.86982283794575
 30
0.0
 10
71.47177868221887
 20
-97.86982283794575
 30
0.0
 10
71.48021916615772
 20
-97.74269881454002
 30
0.0
 10
71.49072670738774
 20
-97.6307332112694
 30
0.0
 10
71.57116968696832
 20
-97.51222192657681
 30
0.0
 10
71.6810682329478
 20
-97.35133596741564
 30
0.0
 10
71.86727564392555
 20
-97.3175740316602
 30
0.0
 10
71.983719871327
 20
-97.3175740316602
 30
0.0
 10
72.26087780311533
 20
-97.3175740316602
 30
0.0
 10
72.46810029655312
 20
-97.50154213057253
 30
0.0
 10
72.46810029655312
 20
-97.77439369300433
 30
0.0
 10
72.46810029655312
 20
-98.00314803322492
 30
0.0
 10
72.35182832392593
 20
-98.10236678320011
 30
0.0
 10
72.04297551367328
 20
-98.32870955658102
 30
0.0
  0
HATCH
  5
6F
330
6A
100
AcDbEntity
  8
_U+30EC_U+30A4_U+30E4_U+30FC 1
 62
   179
420
  2234388
100
AcDbHatch
 10
0.0
 20
0.0
 30
0.0
210
0.0
220
0.0
230
1.0
  2
SOLID
 70
     1
 71
     0
 91
        1
 92
        1
 93
        1
 72
     4
 94
        3
 73
     0
 74
     1
 95
       44
 96
       40
 40
0.0
 40
0.0
 40
0.0
 40
0.0
 40
1.0
 40
1.0
 40
1.0
 40
2.0
 40
2.0
 40
2.0
 40
3.0
 40
3.0
 40
3.0
 40
4.0
 40
4.0
 40
4.0
 40
5.0
 40
5.0
 40
5.0
 40
6.0
 40
6.0
 40
6.0
 40
7.0
 40
7.0
 40
7.0
 40
8.0
 40
8.0
 40
8.0
 40
9.0
 40
9.0
 40
9.0
 40
10.0
 40
10.0
 40
10.0
 40
11.0
 40
11.0
 40
11.0
 40
12.0
 40
12.0
 40
12.0
 40
13.0
 40
13.0
 40
13.0
 40
13.0
 10
72.04297551367328
 20
-98.32870955658102
 10
71.82507322423123
 20
-98.48752845845104
 10
71.73188339135523
 20
-98.56159801138391
 10
71.68330754501321
 20
-98.70525849311883
 10
71.68330754501321
 20
-98.70525849311883
 10
72.4617268699054
 20
-98.70525849311883
 10
72.4617268699054
 20
-98.70525849311883
 10
72.4617268699054
 20
-98.70525849311883
 10
72.4617268699054
 20
-98.91058618403972
 10
72.4617268699054
 20
-98.91058618403972
 10
72.4617268699054
 20
-98.91058618403972
 10
71.43371037710685
 20
-98.91058618403972
 10
71.43371037710685
 20
-98.91058618403972
 10
71.46540525557116
 20
-98.55298527267078
 10
71.53103432456516
 20
-98.47478160515561
 10
71.91602374504183
 20
-98.17643633613298
 10
72.1719943395959
 20
-97.97765432663407
 10
72.23745115381564
 20
-97.90978594557464
 10
72.23745115381564
 20
-97.77232663571317
 10
72.23745115381564
 20
-97.65381535102058
 10
72.16562091294819
 20
-97.52290172258108
 10
71.96890596074041
 20
-97.52290172258108
 10
71.70862899682979
 20
-97.52290172258108
 10
71.70018851289093
 20
-97.7533786105443
 10
71.69588214353436
 20
-97.86982283794575
 10
71.69588214353436
 20
-97.86982283794575
 10
71.47177868221887
 20
-97.86982283794575
 10
71.47177868221887
 20
-97.86982283794575
 10
71.48021916615772
 20
-97.74269881454002
 10
71.49072670738774
 20
-97.6307332112694
 10
71.57116968696832
 20
-97.51222192657681
 10
71.6810682329478
 20
-97.35133596741564
 10
71.86727564392555
 20
-97.3175740316602
 10
71.983719871327
 20
-97.3175740316602
 10
72.26087780311533
 20
-97.3175740316602
 10
72.46810029655312
 20
-97.50154213057253
 10
72.46810029655312
 20
-97.77439369300433
 10
72.46810029655312
 20
-98.00314803322492
 10
72.35182832392593
 20
-98.10236678320011
 10
72.04297551367328
 20
-98.32870955658102
 97
        0
 97
        0
 75
     2
 76
     1
 98
        0
  0
SPLINE
  5
70
330
6A
100
AcDbEntity
  8
_U+30EC_U+30A4_U+30E4_U+30FC 1
370
     0
100
AcDbSpline
210
0.0
220
0.0
230
1.0
 70
    11
 71
     3
 72
    29
 73
    25
 74
     0
 42
0.0000000001
 43
0.0000000001
 12
1.0
 22
0.0
 32
0.0
 13
1.0
 23
0.0
 33
0.0
 40
0.0
 40
0.0
 40
0.0
 40
0.0
 40
1.0
 40
1.0
 40
1.0
 40
2.0
 40
2.0
 40
2.0
 40
3.0
 40
3.0
 40
3.0
 40
4.0
 40
4.0
 40
4.0
 40
5.0
 40
5.0
 40
5.0
 40
6.0
 40
6.0
 40
6.0
 40
7.0
 40
7.0
 40
7.0
 40
8.0
 40
8.0
 40
8.0
 40
8.0
 10
73.52436657233072
 20
-98.73281925700083
 30
0.0
 10
73.4165350836424
 20
-98.94228106250402
 30
0.0
 10
73.24307452596007
 20
-98.96122908767289
 30
0.0
 10
73.12663029855862
 20
-98.96122908767289
 30
0.0
 10
72.96591659417172
 20
-98.96122908767289
 30
0.0
 10
72.82415091495369
 20
-98.91472029862202
 30
0.0
 10
72.72889402478653
 20
-98.73281925700083
 30
0.0
 10
72.62536890545478
 20
-98.53817136208421
 30
0.0
 10
72.60624862551164
 20
-98.30114879269902
 30
0.0
 10
72.60624862551164
 20
-98.13854028579523
 30
0.0
 10
72.60624862551164
 20
-97.99453529451179
 30
0.0
 10
72.62312959338936
 20
-97.74269881454002
 30
0.0
 10
72.72889402478653
 20
-97.5439168050411
 30
0.0
 10
72.83689776824912
 20
-97.3410006809599
 30
0.0
 10
72.99761147263602
 20
-97.3175740316602
 30
0.0
 10
73.12663029855862
 20
-97.3175740316602
 30
0.0
 10
73.28527694565437
 20
-97.3175740316602
 30
0.0
 10
73.42910968216356
 20
-97.36201576341992
 30
0.0
 10
73.52436657233072
 20
-97.5439168050411
 30
0.0
 10
73.62375757708017
 20
-97.73649764266658
 30
0.0
 10
73.64701197160561
 20
-97.96490747333864
 30
0.0
 10
73.64701197160561
 20
-98.13854028579523
 30
0.0
 10
73.64701197160561
 20
-98.30976153141215
 30
0.0
 10
73.62599688914558
 20
-98.54023841937536
 30
0.0
 10
73.52436657233072
 20
-98.73281925700083
 30
0.0
  0
SPLINE
  5
71
330
6A
100
AcDbEntity
  8
_U+30EC_U+30A4_U+30E4_U+30FC 1
370
     0
100
AcDbSpline
210
0.0
220
0.0
230
1.0
 70
    11
 71
     3
 72
    17
 73
    13
 74
     0
 42
0.0000000001
 43
0.0000000001
 12
1.0
 22
0.0
 32
0.0
 13
1.0
 23
0.0
 33
0.0
 40
0.0
 40
0.0
 40
0.0
 40
0.0
 40
1.0
 40
1.0
 40
1.0
 40
2.0
 40
2.0
 40
2.0
 40
3.0
 40
3.0
 40
3.0
 40
4.0
 40
4.0
 40
4.0
 40
4.0
 10
73.12663029855862
 20
-97.51015486928566
 30
0.0
 10
72.87703313065228
 20
-97.51015486928566
 30
0.0
 10
72.8305243416014
 20
-97.79368622772172
 30
0.0
 10
72.8305243416014
 20
-98.13854028579523
 30
0.0
 10
72.8305243416014
 20
-98.45790063727789
 30
0.0
 10
72.86652558942227
 20
-98.76658119275628
 30
0.0
 10
73.12663029855862
 20
-98.76658119275628
 30
0.0
 10
73.37416040917383
 20
-98.76658119275628
 30
0.0
 10
73.42290851029011
 20
-98.4854614011599
 30
0.0
 10
73.42290851029011
 20
-98.13854028579523
 30
0.0
 10
73.42290851029011
 20
-97.81883542476405
 30
0.0
 10
73.3848402051781
 20
-97.51015486928566
 30
0.0
 10
73.12663029855862
 20
-97.51015486928566
 30
0.0
  0
HATCH
  5
72
330
6A
100
AcDbEntity
  8
_U+30EC_U+30A4_U+30E4_U+30FC 1
 62
   179
420
  2234388
100
AcDbHatch
 10
0.0
 20
0.0
 30
0.0
210
0.0
220
0.0
230
1.0
  2
SOLID
 70
     1
 71
     0
 91
        2
 92
        1
 93
        1
 72
     4
 94
        3
 73
     0
 74
     1
 95
       29
 96
       25
 40
0.0
 40
0.0
 40
0.0
 40
0.0
 40
1.0
 40
1.0
 40
1.0
 40
2.0
 40
2.0
 40
2.0
 40
3.0
 40
3.0
 40
3.0
 40
4.0
 40
4.0
 40
4.0
 40
5.0
 40
5.0
 40
5.0
 40
6.0
 40
6.0
 40
6.0
 40
7.0
 40
7.0
 40
7.0
 40
8.0
 40
8.0
 40
8.0
 40
8.0
 10
73.52436657233072
 20
-98.73281925700083
 10
73.4165350836424
 20
-98.94228106250402
 10
73.24307452596007
 20
-98.96122908767289
 10
73.12663029855862
 20
-98.96122908767289
 10
72.96591659417172
 20
-98.96122908767289
 10
72.82415091495369
 20
-98.91472029862202
 10
72.72889402478653
 20
-98.73281925700083
 10
72.62536890545478
 20
-98.53817136208421
 10
72.60624862551164
 20
-98.30114879269902
 10
72.60624862551164
 20
-98.13854028579523
 10
72.60624862551164
 20
-97.99453529451179
 10
72.62312959338936
 20
-97.74269881454002
 10
72.72889402478653
 20
-97.5439168050411
 10
72.83689776824912
 20
-97.3410006809599
 10
72.99761147263602
 20
-97.3175740316602
 10
73.12663029855862
 20
-97.3175740316602
 10
73.28527694565437
 20
-97.3175740316602
 10
73.42910968216356
 20
-97.36201576341992
 10
73.52436657233072
 20
-97.5439168050411
 10
73.62375757708017
 20
-97.73649764266658
 10
73.64701197160561
 20
-97.96490747333864
 10
73.64701197160561
 20
-98.13854028579523
 10
73.64701197160561
 20
-98.30976153141215
 10
73.62599688914558
 20
-98.54023841937536
 10
73.52436657233072
 20
-98.73281925700083
 97
        0
 97
        0
 92
        1
 93
        1
 72
     4
 94
        3
 73
     0
 74
     1
 95
       17
 96
       13
 40
0.0
 40
0.0
 40
0.0
 40
0.0
 40
1.0
 40
1.0
 40
1.0
 40
2.0
 40
2.0
 40
2.0
 40
3.0
 40
3.0
 40
3.0
 40
4.0
 40
4.0
 40
4.0
 40
4.0
 10
73.12663029855862
 20
-97.51015486928566
 10
72.87703313065228
 20
-97.51015486928566
 10
72.8305243416014
 20
-97.79368622772172
 10
72.8305243416014
 20
-98.13854028579523
 10
72.8305243416014
 20
-98.45790063727789
 10
72.86652558942227
 20
-98.76658119275628
 10
73.12663029855862
 20
-98.76658119275628
 10
73.37416040917383
 20
-98.76658119275628
 10
73.42290851029011
 20
-98.4854614011599
 10
73.42290851029011
 20
-98.13854028579523
 10
73.42290851029011
 20
-97.81883542476405
 10
73.3848402051781
 20
-97.51015486928566
 10
73.12663029855862
 20
-97.51015486928566
 97
        0
 97
        0
 75
     2
 76
     1
 98
        0
  0
ENDBLK
  5
6D
330
6A
100
AcDbEntity
  8
0
100
AcDbBlockEnd
  0
BLOCK
  5
81
330
7F
100
AcDbEntity
  8
0
100
AcDbBlockBegin
  2
block 4
 70
     0
 10
0.0
 20
0.0
 30
0.0
  3
block 4
  1

  0
SPLINE
  5
83
330
7F
100
AcDbEntity
  8
_U+30EC_U+30A4_U+30E4_U+30FC 1
370
     0
100
AcDbSpline
210
0.0
220
0.0
230
1.0
 70
    11
 71
     3
 72
    53
 73
    49
 74
     0
 42
0.0000000001
 43
0.0000000001
 12
1.0
 22
0.0
 32
0.0
 13
1.0
 23
0.0
 33
0.0
 40
0.0
 40
0.0
 40
0.0
 40
0.0
 40
1.0
 40
1.0
 40
1.0
 40
2.0
 40
2.0
 40
2.0
 40
3.0
 40
3.0
 40
3.0
 40
4.0
 40
4.0
 40
4.0
 40
5.0
 40
5.0
 40
5.0
 40
6.0
 40
6.0
 40
6.0
 40
7.0
 40
7.0
 40
7.0
 40
8.0
 40
8.0
 40
8.0
 40
9.0
 40
9.0
 40
9.0
 40
10.0
 40
10.0
 40
10.0
 40
11.0
 40
11.0
 40
11.0
 40
12.0
 40
12.0
 40
12.0
 40
13.0
 40
13.0
 40
13.0
 40
14.0
 40
14.0
 40
14.0
 40
15.0
 40
15.0
 40
15.0
 40
16.0
 40
16.0
 40
16.0
 40
16.0
 10
120.9424885765352
 20
-130.6638590168132
 30
0.0
 10
120.9424885765352
 20
-130.7420626843284
 30
0.0
 10
120.9256076086575
 20
-130.8436930011432
 30
0.0
 10
120.8622178517289
 20
-130.9453233179581
 30
0.0
 10
120.7523193057494
 20
-131.1186116208662
 30
0.0
 10
120.6210611677614
 20
-131.1399712128747
 30
0.0
 10
120.5132296790731
 20
-131.1589192380436
 30
0.0
 10
120.5132296790731
 20
-131.1589192380436
 30
0.0
 10
120.5132296790731
 20
-130.936710579245
 30
0.0
 10
120.5132296790731
 20
-130.936710579245
 30
0.0
 10
120.712011688572
 20
-130.8819335610295
 30
0.0
 10
120.7416395097452
 20
-130.7548095376238
 30
0.0
 10
120.7416395097452
 20
-130.661791959522
 30
0.0
 10
120.7416395097452
 20
-130.5222655923695
 30
0.0
 10
120.6420762502214
 20
-130.3699923719214
 30
0.0
 10
120.4095323049671
 20
-130.3699923719214
 30
0.0
 10
120.153561710413
 20
-130.3699923719214
 30
0.0
 10
120.0836262720624
 20
-130.5498263562514
 30
0.0
 10
120.0836262720624
 20
-130.6704046982352
 30
0.0
 10
120.0836262720624
 20
-130.7020995766995
 30
0.0
 10
120.0836262720624
 20
-130.8436930011432
 30
0.0
 10
120.2128173527593
 20
-130.9325764646627
 30
0.0
 10
120.2128173527593
 20
-130.9325764646627
 30
0.0
 10
120.1938693275904
 20
-131.1082763344104
 30
0.0
 10
120.1938693275904
 20
-131.1082763344104
 30
0.0
 10
120.1938693275904
 20
-131.1082763344104
 30
0.0
 10
119.3474093668645
 20
-130.9876979924267
 30
0.0
 10
119.3474093668645
 20
-130.9876979924267
 30
0.0
 10
119.3474093668645
 20
-130.9876979924267
 30
0.0
 10
119.3474093668645
 20
-130.2091064127602
 30
0.0
 10
119.3474093668645
 20
-130.2091064127602
 30
0.0
 10
119.3474093668645
 20
-130.2091064127602
 30
0.0
 10
119.5420572617812
 20
-130.2091064127602
 30
0.0
 10
119.5420572617812
 20
-130.2091064127602
 30
0.0
 10
119.5420572617812
 20
-130.2091064127602
 30
0.0
 10
119.5420572617812
 20
-130.8247449759744
 30
0.0
 10
119.5420572617812
 20
-130.8247449759744
 30
0.0
 10
119.5420572617812
 20
-130.8247449759744
 30
0.0
 10
119.9651149873698
 20
-130.8902017901941
 30
0.0
 10
119.9651149873698
 20
-130.8902017901941
 30
0.0
 10
119.9313530516144
 20
-130.8288790905567
 30
0.0
 10
119.891045434437
 20
-130.7465413084592
 30
0.0
 10
119.891045434437
 20
-130.6280300237666
 30
0.0
 10
119.891045434437
 20
-130.3741264865037
 30
0.0
 10
120.077425100189
 20
-130.1371039171185
 30
0.0
 10
120.3905842797982
 20
-130.1371039171185
 30
0.0
 10
120.7078775739897
 20
-130.1371039171185
 30
0.0
 10
120.9424885765352
 20
-130.3613796332083
 30
0.0
 10
120.9424885765352
 20
-130.6638590168132
 30
0.0
  0
HATCH
  5
84
330
7F
100
AcDbEntity
  8
_U+30EC_U+30A4_U+30E4_U+30FC 1
 62
   179
420
  2234388
100
AcDbHatch
 10
0.0
 20
0.0
 30
0.0
210
0.0
220
0.0
230
1.0
  2
SOLID
 70
     1
 71
     0
 91
        1
 92
        1
 93
        1
 72
     4
 94
        3
 73
     0
 74
     1
 95
       53
 96
       49
 40
0.0
 40
0.0
 40
0.0
 40
0.0
 40
1.0
 40
1.0
 40
1.0
 40
2.0
 40
2.0
 40
2.0
 40
3.0
 40
3.0
 40
3.0
 40
4.0
 40
4.0
 40
4.0
 40
5.0
 40
5.0
 40
5.0
 40
6.0
 40
6.0
 40
6.0
 40
7.0
 40
7.0
 40
7.0
 40
8.0
 40
8.0
 40
8.0
 40
9.0
 40
9.0
 40
9.0
 40
10.0
 40
10.0
 40
10.0
 40
11.0
 40
11.0
 40
11.0
 40
12.0
 40
12.0
 40
12.0
 40
13.0
 40
13.0
 40
13.0
 40
14.0
 40
14.0
 40
14.0
 40
15.0
 40
15.0
 40
15.0
 40
16.0
 40
16.0
 40
16.0
 40
16.0
 10
120.9424885765352
 20
-130.6638590168132
 10
120.9424885765352
 20
-130.7420626843284
 10
120.9256076086575
 20
-130.8436930011432
 10
120.8622178517289
 20
-130.9453233179581
 10
120.7523193057494
 20
-131.1186116208662
 10
120.6210611677614
 20
-131.1399712128747
 10
120.5132296790731
 20
-131.1589192380436
 10
120.5132296790731
 20
-131.1589192380436
 10
120.5132296790731
 20
-130.936710579245
 10
120.5132296790731
 20
-130.936710579245
 10
120.712011688572
 20
-130.8819335610295
 10
120.7416395097452
 20
-130.7548095376238
 10
120.7416395097452
 20
-130.661791959522
 10
120.7416395097452
 20
-130.5222655923695
 10
120.6420762502214
 20
-130.3699923719214
 10
120.4095323049671
 20
-130.3699923719214
 10
120.153561710413
 20
-130.3699923719214
 10
120.0836262720624
 20
-130.5498263562514
 10
120.0836262720624
 20
-130.6704046982352
 10
120.0836262720624
 20
-130.7020995766995
 10
120.0836262720624
 20
-130.8436930011432
 10
120.2128173527593
 20
-130.9325764646627
 10
120.2128173527593
 20
-130.9325764646627
 10
120.1938693275904
 20
-131.1082763344104
 10
120.1938693275904
 20
-131.1082763344104
 10
120.1938693275904
 20
-131.1082763344104
 10
119.3474093668645
 20
-130.9876979924267
 10
119.3474093668645
 20
-130.9876979924267
 10
119.3474093668645
 20
-130.9876979924267
 10
119.3474093668645
 20
-130.2091064127602
 10
119.3474093668645
 20
-130.2091064127602
 10
119.3474093668645
 20
-130.2091064127602
 10
119.5420572617812
 20
-130.2091064127602
 10
119.5420572617812
 20
-130.2091064127602
 10
119.5420572617812
 20
-130.2091064127602
 10
119.5420572617812
 20
-130.8247449759744
 10
119.5420572617812
 20
-130.8247449759744
 10
119.5420572617812
 20
-130.8247449759744
 10
119.9651149873698
 20
-130.8902017901941
 10
119.9651149873698
 20
-130.8902017901941
 10
119.9313530516144
 20
-130.8288790905567
 10
119.891045434437
 20
-130.7465413084592
 10
119.891045434437
 20
-130.6280300237666
 10
119.891045434437
 20
-130.3741264865037
 10
120.077425100189
 20
-130.1371039171185
 10
120.3905842797982
 20
-130.1371039171185
 10
120.7078775739897
 20
-130.1371039171185
 10
120.9424885765352
 20
-130.3613796332083
 10
120.9424885765352
 20
-130.6638590168132
 97
        0
 97
        0
 75
     2
 76
     1
 98
        0
  0
SPLINE
  5
85
330
7F
100
AcDbEntity
  8
_U+30EC_U+30A4_U+30E4_U+30FC 1
370
     0
100
AcDbSpline
210
0.0
220
0.0
230
1.0
 70
    11
 71
     3
 72
    29
 73
    25
 74
     0
 42
0.0000000001
 43
0.0000000001
 12
1.0
 22
0.0
 32
0.0
 13
1.0
 23
0.0
 33
0.0
 40
0.0
 40
0.0
 40
0.0
 40
0.0
 40
1.0
 40
1.0
 40
1.0
 40
2.0
 40
2.0
 40
2.0
 40
3.0
 40
3.0
 40
3.0
 40
4.0
 40
4.0
 40
4.0
 40
5.0
 40
5.0
 40
5.0
 40
6.0
 40
6.0
 40
6.0
 40
7.0
 40
7.0
 40
7.0
 40
8.0
 40
8.0
 40
8.0
 40
8.0
 10
120.7140787458631
 20
-129.0701578453366
 30
0.0
 10
120.9235405513663
 20
-129.1783338435735
 30
0.0
 10
120.9424885765352
 20
-129.3516221464815
 30
0.0
 10
120.9424885765352
 20
-129.468066373883
 30
0.0
 10
120.9424885765352
 20
-129.6289523330442
 30
0.0
 10
120.8959797874844
 20
-129.7705457574879
 30
0.0
 10
120.7140787458631
 20
-129.8656303928808
 30
0.0
 10
120.5194308509465
 20
-129.9693277669869
 30
0.0
 10
120.2824082815613
 20
-129.9882757921557
 30
0.0
 10
120.1197997746576
 20
-129.9882757921557
 30
0.0
 10
119.9757947833741
 20
-129.9882757921557
 30
0.0
 10
119.7239583034024
 20
-129.971394824278
 30
0.0
 10
119.5251762939034
 20
-129.8656303928808
 30
0.0
 10
119.3222601698222
 20
-129.7577989041925
 30
0.0
 10
119.2988335205225
 20
-129.5969129450313
 30
0.0
 10
119.2988335205225
 20
-129.468066373883
 30
0.0
 10
119.2988335205225
 20
-129.309247472013
 30
0.0
 10
119.3432752522822
 20
-129.1655869902781
 30
0.0
 10
119.5251762939034
 20
-129.0701578453366
 30
0.0
 10
119.7177571315289
 20
-128.9709390953614
 30
0.0
 10
119.946166962201
 20
-128.9475124460618
 30
0.0
 10
120.1197997746576
 20
-128.9475124460618
 30
0.0
 10
120.2910210202745
 20
-128.9475124460618
 30
0.0
 10
120.5214979082377
 20
-128.9688720380703
 30
0.0
 10
120.7140787458631
 20
-129.0701578453366
 30
0.0
  0
SPLINE
  5
86
330
7F
100
AcDbEntity
  8
_U+30EC_U+30A4_U+30E4_U+30FC 1
370
     0
100
AcDbSpline
210
0.0
220
0.0
230
1.0
 70
    11
 71
     3
 72
    17
 73
    13
 74
     0
 42
0.0000000001
 43
0.0000000001
 12
1.0
 22
0.0
 32
0.0
 13
1.0
 23
0.0
 33
0.0
 40
0.0
 40
0.0
 40
0.0
 40
0.0
 40
1.0
 40
1.0
 40
1.0
 40
2.0
 40
2.0
 40
2.0
 40
3.0
 40
3.0
 40
3.0
 40
4.0
 40
4.0
 40
4.0
 40
4.0
 10
119.491414358148
 20
-129.468066373883
 30
0.0
 10
119.491414358148
 20
-129.7174912870151
 30
0.0
 10
119.774945716584
 20
-129.7643445856145
 30
0.0
 10
120.1197997746576
 20
-129.7643445856145
 30
0.0
 10
120.4391601261402
 20
-129.7643445856145
 30
0.0
 10
120.7478406816186
 20
-129.7281710830194
 30
0.0
 10
120.7478406816186
 20
-129.468066373883
 30
0.0
 10
120.7478406816186
 20
-129.2203640084935
 30
0.0
 10
120.4667208900222
 20
-129.1717881621515
 30
0.0
 10
120.1197997746576
 20
-129.1717881621515
 30
0.0
 10
119.8000949136264
 20
-129.1717881621515
 30
0.0
 10
119.491414358148
 20
-129.2100287220378
 30
0.0
 10
119.491414358148
 20
-129.468066373883
 30
0.0
  0
HATCH
  5
87
330
7F
100
AcDbEntity
  8
_U+30EC_U+30A4_U+30E4_U+30FC 1
 62
   179
420
  2234388
100
AcDbHatch
 10
0.0
 20
0.0
 30
0.0
210
0.0
220
0.0
230
1.0
  2
SOLID
 70
     1
 71
     0
 91
        2
 92
        1
 93
        1
 72
     4
 94
        3
 73
     0
 74
     1
 95
       29
 96
       25
 40
0.0
 40
0.0
 40
0.0
 40
0.0
 40
1.0
 40
1.0
 40
1.0
 40
2.0
 40
2.0
 40
2.0
 40
3.0
 40
3.0
 40
3.0
 40
4.0
 40
4.0
 40
4.0
 40
5.0
 40
5.0
 40
5.0
 40
6.0
 40
6.0
 40
6.0
 40
7.0
 40
7.0
 40
7.0
 40
8.0
 40
8.0
 40
8.0
 40
8.0
 10
120.7140787458631
 20
-129.0701578453366
 10
120.9235405513663
 20
-129.1783338435735
 10
120.9424885765352
 20
-129.3516221464815
 10
120.9424885765352
 20
-129.468066373883
 10
120.9424885765352
 20
-129.6289523330442
 10
120.8959797874844
 20
-129.7705457574879
 10
120.7140787458631
 20
-129.8656303928808
 10
120.5194308509465
 20
-129.9693277669869
 10
120.2824082815613
 20
-129.9882757921557
 10
120.1197997746576
 20
-129.9882757921557
 10
119.9757947833741
 20
-129.9882757921557
 10
119.7239583034024
 20
-129.971394824278
 10
119.5251762939034
 20
-129.8656303928808
 10
119.3222601698222
 20
-129.7577989041925
 10
119.2988335205225
 20
-129.5969129450313
 10
119.2988335205225
 20
-129.468066373883
 10
119.2988335205225
 20
-129.309247472013
 10
119.3432752522822
 20
-129.1655869902781
 10
119.5251762939034
 20
-129.0701578453366
 10
119.7177571315289
 20
-128.9709390953614
 10
119.946166962201
 20
-128.9475124460618
 10
120.1197997746576
 20
-128.9475124460618
 10
120.2910210202745
 20
-128.9475124460618
 10
120.5214979082377
 20
-128.9688720380703
 10
120.7140787458631
 20
-129.0701578453366
 97
        0
 97
        0
 92
        1
 93
        1
 72
     4
 94
        3
 73
     0
 74
     1
 95
       17
 96
       13
 40
0.0
 40
0.0
 40
0.0
 40
0.0
 40
1.0
 40
1.0
 40
1.0
 40
2.0
 40
2.0
 40
2.0
 40
3.0
 40
3.0
 40
3.0
 40
4.0
 40
4.0
 40
4.0
 40
4.0
 10
119.491414358148
 20
-129.468066373883
 10
119.491414358148
 20
-129.7174912870151
 10
119.774945716584
 20
-129.7643445856145
 10
120.1197997746576
 20
-129.7643445856145
 10
120.4391601261402
 20
-129.7643445856145
 10
120.7478406816186
 20
-129.7281710830194
 10
120.7478406816186
 20
-129.468066373883
 10
120.7478406816186
 20
-129.2203640084935
 10
120.4667208900222
 20
-129.1717881621515
 10
120.1197997746576
 20
-129.1717881621515
 10
119.8000949136264
 20
-129.1717881621515
 10
119.491414358148
 20
-129.2100287220378
 10
119.491414358148
 20
-129.468066373883
 97
        0
 97
        0
 75
     2
 76
     1
 98
        0
  0
ENDBLK
  5
82
330
7F
100
AcDbEntity
  8
0
100
AcDbBlockEnd
  0
BLOCK
  5
92
330
90
100
AcDbEntity
  8
0
100
AcDbBlockBegin
  2
block 5
 70
     0
 10
0.0
 20
0.0
 30
0.0
  3
block 5
  1

  0
SPLINE
  5
94
330
90
100
AcDbEntity
  8
_U+30EC_U+30A4_U+30E4_U+30FC 1
370
     0
100
AcDbSpline
210
0.0
220
0.0
230
1.0
 70
    11
 71
     3
 72
    26
 73
    22
 74
     0
 42
0.0000000001
 43
0.0000000001
 12
1.0
 22
0.0
 32
0.0
 13
1.0
 23
0.0
 33
0.0
 40
0.0
 40
0.0
 40
0.0
 40
0.0
 40
1.0
 40
1.0
 40
1.0
 40
2.0
 40
2.0
 40
2.0
 40
3.0
 40
3.0
 40
3.0
 40
4.0
 40
4.0
 40
4.0
 40
5.0
 40
5.0
 40
5.0
 40
6.0
 40
6.0
 40
6.0
 40
7.0
 40
7.0
 40
7.0
 40
7.0
 10
125.2423122516755
 20
-105.3854708937925
 30
0.0
 10
125.2423122516755
 20
-105.3854708937925
 30
0.0
 10
124.138159148653
 20
-105.3854708937925
 30
0.0
 10
124.138159148653
 20
-105.3854708937925
 30
0.0
 10
124.138159148653
 20
-105.3854708937925
 30
0.0
 10
124.138159148653
 20
-105.7155110412795
 30
0.0
 10
124.138159148653
 20
-105.7155110412795
 30
0.0
 10
124.138159148653
 20
-105.7155110412795
 30
0.0
 10
123.9900200427872
 20
-105.7155110412795
 30
0.0
 10
123.9900200427872
 20
-105.7155110412795
 30
0.0
 10
123.9752061322007
 20
-105.3834038365014
 30
0.0
 10
123.8122531157483
 20
-105.3368950474505
 30
0.0
 10
123.697875945638
 20
-105.3072672262774
 30
0.0
 10
123.697875945638
 20
-105.3072672262774
 30
0.0
 10
123.697875945638
 20
-105.1611951777028
 30
0.0
 10
123.697875945638
 20
-105.1611951777028
 30
0.0
 10
123.697875945638
 20
-105.1611951777028
 30
0.0
 10
125.2423122516755
 20
-105.1611951777028
 30
0.0
 10
125.2423122516755
 20
-105.1611951777028
 30
0.0
 10
125.2423122516755
 20
-105.1611951777028
 30
0.0
 10
125.2423122516755
 20
-105.3854708937925
 30
0.0
 10
125.2423122516755
 20
-105.3854708937925
 30
0.0
  0
HATCH
  5
95
330
90
100
AcDbEntity
  8
_U+30EC_U+30A4_U+30E4_U+30FC 1
 62
   179
420
  2234388
100
AcDbHatch
 10
0.0
 20
0.0
 30
0.0
210
0.0
220
0.0
230
1.0
  2
SOLID
 70
     1
 71
     0
 91
        1
 92
        1
 93
        1
 72
     4
 94
        3
 73
     0
 74
     1
 95
       26
 96
       22
 40
0.0
 40
0.0
 40
0.0
 40
0.0
 40
1.0
 40
1.0
 40
1.0
 40
2.0
 40
2.0
 40
2.0
 40
3.0
 40
3.0
 40
3.0
 40
4.0
 40
4.0
 40
4.0
 40
5.0
 40
5.0
 40
5.0
 40
6.0
 40
6.0
 40
6.0
 40
7.0
 40
7.0
 40
7.0
 40
7.0
 10
125.2423122516755
 20
-105.3854708937925
 10
125.2423122516755
 20
-105.3854708937925
 10
124.138159148653
 20
-105.3854708937925
 10
124.138159148653
 20
-105.3854708937925
 10
124.138159148653
 20
-105.3854708937925
 10
124.138159148653
 20
-105.7155110412795
 10
124.138159148653
 20
-105.7155110412795
 10
124.138159148653
 20
-105.7155110412795
 10
123.9900200427872
 20
-105.7155110412795
 10
123.9900200427872
 20
-105.7155110412795
 10
123.9752061322007
 20
-105.3834038365014
 10
123.8122531157483
 20
-105.3368950474505
 10
123.697875945638
 20
-105.3072672262774
 10
123.697875945638
 20
-105.3072672262774
 10
123.697875945638
 20
-105.1611951777028
 10
123.697875945638
 20
-105.1611951777028
 10
123.697875945638
 20
-105.1611951777028
 10
125.2423122516755
 20
-105.1611951777028
 10
125.2423122516755
 20
-105.1611951777028
 10
125.2423122516755
 20
-105.1611951777028
 10
125.2423122516755
 20
-105.3854708937925
 10
125.2423122516755
 20
-105.3854708937925
 97
        0
 97
        0
 75
     2
 76
     1
 98
        0
  0
POLYLINE
  5
96
330
90
100
AcDbEntity
  8
_U+30EC_U+30A4_U+30E4_U+30FC 1
370
     0
100
AcDb2dPolyline
 66
     1
 10
0.0
 20
0.0
 30
0.0
  0
VERTEX
  5
97
330
96
100
AcDbEntity
  8
_U+30EC_U+30A4_U+30E4_U+30FC 1
370
     0
100
AcDbVertex
100
AcDb2dVertex
 10
125.2423122516755
 20
-104.5999891231556
 30
0.0
  0
VERTEX
  5
98
330
96
100
AcDbEntity
  8
_U+30EC_U+30A4_U+30E4_U+30FC 1
370
     0
100
AcDbVertex
100
AcDb2dVertex
 10
124.9904757717038
 20
-104.5999891231556
 30
0.0
  0
VERTEX
  5
99
330
96
100
AcDbEntity
  8
_U+30EC_U+30A4_U+30E4_U+30FC 1
370
     0
100
AcDbVertex
100
AcDb2dVertex
 10
124.9904757717038
 20
-104.3481526431838
 30
0.0
  0
VERTEX
  5
9A
330
96
100
AcDbEntity
  8
_U+30EC_U+30A4_U+30E4_U+30FC 1
370
     0
100
AcDbVertex
100
AcDb2dVertex
 10
125.2423122516755
 20
-104.3481526431838
 30
0.0
  0
VERTEX
  5
9B
330
96
100
AcDbEntity
  8
_U+30EC_U+30A4_U+30E4_U+30FC 1
370
     0
100
AcDbVertex
100
AcDb2dVertex
 10
125.2423122516755
 20
-104.5999891231556
 30
0.0
  0
SEQEND
  5
9C
330
96
100
AcDbEntity
  8
_U+30EC_U+30A4_U+30E4_U+30FC 1
370
     0
  0
HATCH
  5
9D
330
90
100
AcDbEntity
  8
_U+30EC_U+30A4_U+30E4_U+30FC 1
 62
   179
420
  2234388
100
AcDbHatch
 10
0.0
 20
0.0
 30
0.0
210
0.0
220
0.0
230
1.0
  2
SOLID
 70
     1
 71
     0
 91
        1
 92
        1
 93
        4
 72
     1
 10
125.2423122516755
 20
-104.5999891231556
 11
124.9904757717038
 21
-104.5999891231556
 72
     1
 10
124.9904757717038
 20
-104.5999891231556
 11
124.9904757717038
 21
-104.3481526431838
 72
     1
 10
124.9904757717038
 20
-104.3481526431838
 11
125.2423122516755
 21
-104.3481526431838
 72
     1
 10
125.2423122516755
 20
-104.3481526431838
 11
125.2423122516755
 21
-104.5999891231556
 97
        0
 75
     2
 76
     1
 98
        0
  0
SPLINE
  5
9E
330
90
100
AcDbEntity
  8
_U+30EC_U+30A4_U+30E4_U+30FC 1
370
     0
100
AcDbSpline
210
0.0
220
0.0
230
1.0
 70
    11
 71
     3
 72
    53
 73
    49
 74
     0
 42
0.0000000001
 43
0.0000000001
 12
1.0
 22
0.0
 32
0.0
 13
1.0
 23
0.0
 33
0.0
 40
0.0
 40
0.0
 40
0.0
 40
0.0
 40
1.0
 40
1.0
 40
1.0
 40
2.0
 40
2.0
 40
2.0
 40
3.0
 40
3.0
 40
3.0
 40
4.0
 40
4.0
 40
4.0
 40
5.0
 40
5.0
 40
5.0
 40
6.0
 40
6.0
 40
6.0
 40
7.0
 40
7.0
 40
7.0
 40
8.0
 40
8.0
 40
8.0
 40
9.0
 40
9.0
 40
9.0
 40
10.0
 40
10.0
 40
10.0
 40
11.0
 40
11.0
 40
11.0
 40
12.0
 40
12.0
 40
12.0
 40
13.0
 40
13.0
 40
13.0
 40
14.0
 40
14.0
 40
14.0
 40
15.0
 40
15.0
 40
15.0
 40
16.0
 40
16.0
 40
16.0
 40
16.0
 10
125.2929551553087
 20
-103.6308837631548
 30
0.0
 10
125.2929551553087
 20
-103.70908743067
 30
0.0
 10
125.276074187431
 20
-103.8107177474848
 30
0.0
 10
125.2126844305024
 20
-103.9123480642997
 30
0.0
 10
125.1027858845229
 20
-104.0856363672078
 30
0.0
 10
124.9715277465349
 20
-104.1069959592163
 30
0.0
 10
124.8636962578466
 20
-104.1259439843852
 30
0.0
 10
124.8636962578466
 20
-104.1259439843852
 30
0.0
 10
124.8636962578466
 20
-103.9037353255866
 30
0.0
 10
124.8636962578466
 20
-103.9037353255866
 30
0.0
 10
125.0624782673455
 20
-103.8489583073711
 30
0.0
 10
125.0921060885186
 20
-103.7218342839654
 30
0.0
 10
125.0921060885186
 20
-103.6288167058636
 30
0.0
 10
125.0921060885186
 20
-103.489290338711
 30
0.0
 10
124.9925428289949
 20
-103.337017118263
 30
0.0
 10
124.7599988837406
 20
-103.337017118263
 30
0.0
 10
124.5040282891865
 20
-103.337017118263
 30
0.0
 10
124.4340928508359
 20
-103.516851102593
 30
0.0
 10
124.4340928508359
 20
-103.6374294445768
 30
0.0
 10
124.4340928508359
 20
-103.6691243230411
 30
0.0
 10
124.4340928508359
 20
-103.8107177474848
 30
0.0
 10
124.5632839315328
 20
-103.8996012110043
 30
0.0
 10
124.5632839315328
 20
-103.8996012110043
 30
0.0
 10
124.5443359063639
 20
-104.075301080752
 30
0.0
 10
124.5443359063639
 20
-104.075301080752
 30
0.0
 10
124.5443359063639
 20
-104.075301080752
 30
0.0
 10
123.697875945638
 20
-103.9547227387683
 30
0.0
 10
123.697875945638
 20
-103.9547227387683
 30
0.0
 10
123.697875945638
 20
-103.9547227387683
 30
0.0
 10
123.697875945638
 20
-103.1761311591018
 30
0.0
 10
123.697875945638
 20
-103.1761311591018
 30
0.0
 10
123.697875945638
 20
-103.1761311591018
 30
0.0
 10
123.8925238405547
 20
-103.1761311591018
 30
0.0
 10
123.8925238405547
 20
-103.1761311591018
 30
0.0
 10
123.8925238405547
 20
-103.1761311591018
 30
0.0
 10
123.8925238405547
 20
-103.7917697223159
 30
0.0
 10
123.8925238405547
 20
-103.7917697223159
 30
0.0
 10
123.8925238405547
 20
-103.7917697223159
 30
0.0
 10
124.3155815661433
 20
-103.8572265365357
 30
0.0
 10
124.3155815661433
 20
-103.8572265365357
 30
0.0
 10
124.2818196303879
 20
-103.7959038368982
 30
0.0
 10
124.2415120132105
 20
-103.7135660548008
 30
0.0
 10
124.2415120132105
 20
-103.5950547701082
 30
0.0
 10
124.2415120132105
 20
-103.3411512328453
 30
0.0
 10
124.4278916789625
 20
-103.1041286634601
 30
0.0
 10
124.7410508585717
 20
-103.1041286634601
 30
0.0
 10
125.0583441527632
 20
-103.1041286634601
 30
0.0
 10
125.2929551553087
 20
-103.3284043795499
 30
0.0
 10
125.2929551553087
 20
-103.6308837631548
 30
0.0
  0
HATCH
  5
9F
330
90
100
AcDbEntity
  8
_U+30EC_U+30A4_U+30E4_U+30FC 1
 62
   179
420
  2234388
100
AcDbHatch
 10
0.0
 20
0.0
 30
0.0
210
0.0
220
0.0
230
1.0
  2
SOLID
 70
     1
 71
     0
 91
        1
 92
        1
 93
        1
 72
     4
 94
        3
 73
     0
 74
     1
 95
       53
 96
       49
 40
0.0
 40
0.0
 40
0.0
 40
0.0
 40
1.0
 40
1.0
 40
1.0
 40
2.0
 40
2.0
 40
2.0
 40
3.0
 40
3.0
 40
3.0
 40
4.0
 40
4.0
 40
4.0
 40
5.0
 40
5.0
 40
5.0
 40
6.0
 40
6.0
 40
6.0
 40
7.0
 40
7.0
 40
7.0
 40
8.0
 40
8.0
 40
8.0
 40
9.0
 40
9.0
 40
9.0
 40
10.0
 40
10.0
 40
10.0
 40
11.0
 40
11.0
 40
11.0
 40
12.0
 40
12.0
 40
12.0
 40
13.0
 40
13.0
 40
13.0
 40
14.0
 40
14.0
 40
14.0
 40
15.0
 40
15.0
 40
15.0
 40
16.0
 40
16.0
 40
16.0
 40
16.0
 10
125.2929551553087
 20
-103.6308837631548
 10
125.2929551553087
 20
-103.70908743067
 10
125.276074187431
 20
-103.8107177474848
 10
125.2126844305024
 20
-103.9123480642997
 10
125.1027858845229
 20
-104.0856363672078
 10
124.9715277465349
 20
-104.1069959592163
 10
124.8636962578466
 20
-104.1259439843852
 10
124.8636962578466
 20
-104.1259439843852
 10
124.8636962578466
 20
-103.9037353255866
 10
124.8636962578466
 20
-103.9037353255866
 10
125.0624782673455
 20
-103.8489583073711
 10
125.0921060885186
 20
-103.7218342839654
 10
125.0921060885186
 20
-103.6288167058636
 10
125.0921060885186
 20
-103.489290338711
 10
124.9925428289949
 20
-103.337017118263
 10
124.7599988837406
 20
-103.337017118263
 10
124.5040282891865
 20
-103.337017118263
 10
124.4340928508359
 20
-103.516851102593
 10
124.4340928508359
 20
-103.6374294445768
 10
124.4340928508359
 20
-103.6691243230411
 10
124.4340928508359
 20
-103.8107177474848
 10
124.5632839315328
 20
-103.8996012110043
 10
124.5632839315328
 20
-103.8996012110043
 10
124.5443359063639
 20
-104.075301080752
 10
124.5443359063639
 20
-104.075301080752
 10
124.5443359063639
 20
-104.075301080752
 10
123.697875945638
 20
-103.9547227387683
 10
123.697875945638
 20
-103.9547227387683
 10
123.697875945638
 20
-103.9547227387683
 10
123.697875945638
 20
-103.1761311591018
 10
123.697875945638
 20
-103.1761311591018
 10
123.697875945638
 20
-103.1761311591018
 10
123.8925238405547
 20
-103.1761311591018
 10
123.8925238405547
 20
-103.1761311591018
 10
123.8925238405547
 20
-103.1761311591018
 10
123.8925238405547
 20
-103.7917697223159
 10
123.8925238405547
 20
-103.7917697223159
 10
123.8925238405547
 20
-103.7917697223159
 10
124.3155815661433
 20
-103.8572265365357
 10
124.3155815661433
 20
-103.8572265365357
 10
124.2818196303879
 20
-103.7959038368982
 10
124.2415120132105
 20
-103.7135660548008
 10
124.2415120132105
 20
-103.5950547701082
 10
124.2415120132105
 20
-103.3411512328453
 10
124.4278916789625
 20
-103.1041286634601
 10
124.7410508585717
 20
-103.1041286634601
 10
125.0583441527632
 20
-103.1041286634601
 10
125.2929551553087
 20
-103.3284043795499
 10
125.2929551553087
 20
-103.6308837631548
 97
        0
 97
        0
 75
     2
 76
     1
 98
        0
  0
ENDBLK
  5
93
330
90
100
AcDbEntity
  8
0
100
AcDbBlockEnd
  0
BLOCK
  5
AE
330
AC
100
AcDbEntity
  8
0
100
AcDbBlockBegin
  2
block 6
 70
     0
 10
0.0
 20
0.0
 30
0.0
  3
block 6
  1

  0
SPLINE
  5
B0
330
AC
100
AcDbEntity
  8
_U+30EC_U+30A4_U+30E4_U+30FC 1
370
     0
100
AcDbSpline
210
0.0
220
0.0
230
1.0
 70
    11
 71
     3
 72
    53
 73
    49
 74
     0
 42
0.0000000001
 43
0.0000000001
 12
1.0
 22
0.0
 32
0.0
 13
1.0
 23
0.0
 33
0.0
 40
0.0
 40
0.0
 40
0.0
 40
0.0
 40
1.0
 40
1.0
 40
1.0
 40
2.0
 40
2.0
 40
2.0
 40
3.0
 40
3.0
 40
3.0
 40
4.0
 40
4.0
 40
4.0
 40
5.0
 40
5.0
 40
5.0
 40
6.0
 40
6.0
 40
6.0
 40
7.0
 40
7.0
 40
7.0
 40
8.0
 40
8.0
 40
8.0
 40
9.0
 40
9.0
 40
9.0
 40
10.0
 40
10.0
 40
10.0
 40
11.0
 40
11.0
 40
11.0
 40
12.0
 40
12.0
 40
12.0
 40
13.0
 40
13.0
 40
13.0
 40
14.0
 40
14.0
 40
14.0
 40
15.0
 40
15.0
 40
15.0
 40
16.0
 40
16.0
 40
16.0
 40
16.0
 10
57.94271645686849
 20
-130.6638590168132
 30
0.0
 10
57.94271645686849
 20
-130.7420626843284
 30
0.0
 10
57.92583548899076
 20
-130.8436930011432
 30
0.0
 10
57.86244573206217
 20
-130.9453233179581
 30
0.0
 10
57.7525471860827
 20
-131.1186116208662
 30
0.0
 10
57.62128904809468
 20
-131.1399712128747
 30
0.0
 10
57.51345755940636
 20
-131.1589192380436
 30
0.0
 10
57.51345755940636
 20
-131.1589192380436
 30
0.0
 10
57.51345755940636
 20
-130.936710579245
 30
0.0
 10
57.51345755940636
 20
-130.936710579245
 30
0.0
 10
57.71223956890528
 20
-130.8819335610295
 30
0.0
 10
57.74186739007843
 20
-130.7548095376238
 30
0.0
 10
57.74186739007843
 20
-130.661791959522
 30
0.0
 10
57.74186739007843
 20
-130.5222655923695
 30
0.0
 10
57.64230413055471
 20
-130.3699923719214
 30
0.0
 10
57.40976018530034
 20
-130.3699923719214
 30
0.0
 10
57.15378959074628
 20
-130.3699923719214
 30
0.0
 10
57.08385415239571
 20
-130.5498263562514
 30
0.0
 10
57.08385415239571
 20
-130.6704046982352
 30
0.0
 10
57.08385415239571
 20
-130.7020995766995
 30
0.0
 10
57.08385415239571
 20
-130.8436930011432
 30
0.0
 10
57.21304523309257
 20
-130.9325764646627
 30
0.0
 10
57.21304523309257
 20
-130.9325764646627
 30
0.0
 10
57.1940972079237
 20
-131.1082763344104
 30
0.0
 10
57.1940972079237
 20
-131.1082763344104
 30
0.0
 10
57.1940972079237
 20
-131.1082763344104
 30
0.0
 10
56.34763724719782
 20
-130.9876979924267
 30
0.0
 10
56.34763724719782
 20
-130.9876979924267
 30
0.0
 10
56.34763724719782
 20
-130.9876979924267
 30
0.0
 10
56.34763724719782
 20
-130.2091064127602
 30
0.0
 10
56.34763724719782
 20
-130.2091064127602
 30
0.0
 10
56.34763724719782
 20
-130.2091064127602
 30
0.0
 10
56.54228514211443
 20
-130.2091064127602
 30
0.0
 10
56.54228514211443
 20
-130.2091064127602
 30
0.0
 10
56.54228514211443
 20
-130.2091064127602
 30
0.0
 10
56.54228514211443
 20
-130.8247449759744
 30
0.0
 10
56.54228514211443
 20
-130.8247449759744
 30
0.0
 10
56.54228514211443
 20
-130.8247449759744
 30
0.0
 10
56.96534286770311
 20
-130.8902017901941
 30
0.0
 10
56.96534286770311
 20
-130.8902017901941
 30
0.0
 10
56.93158093194766
 20
-130.8288790905567
 30
0.0
 10
56.89127331477024
 20
-130.7465413084592
 30
0.0
 10
56.89127331477024
 20
-130.6280300237666
 30
0.0
 10
56.89127331477024
 20
-130.3741264865037
 30
0.0
 10
57.07765298052226
 20
-130.1371039171185
 30
0.0
 10
57.39081216013147
 20
-130.1371039171185
 30
0.0
 10
57.70810545432298
 20
-130.1371039171185
 30
0.0
 10
57.94271645686849
 20
-130.3613796332083
 30
0.0
 10
57.94271645686849
 20
-130.6638590168132
 30
0.0
  0
HATCH
  5
B1
330
AC
100
AcDbEntity
  8
_U+30EC_U+30A4_U+30E4_U+30FC 1
 62
   179
420
  2234388
100
AcDbHatch
 10
0.0
 20
0.0
 30
0.0
210
0.0
220
0.0
230
1.0
  2
SOLID
 70
     1
 71
     0
 91
        1
 92
        1
 93
        1
 72
     4
 94
        3
 73
     0
 74
     1
 95
       53
 96
       49
 40
0.0
 40
0.0
 40
0.0
 40
0.0
 40
1.0
 40
1.0
 40
1.0
 40
2.0
 40
2.0
 40
2.0
 40
3.0
 40
3.0
 40
3.0
 40
4.0
 40
4.0
 40
4.0
 40
5.0
 40
5.0
 40
5.0
 40
6.0
 40
6.0
 40
6.0
 40
7.0
 40
7.0
 40
7.0
 40
8.0
 40
8.0
 40
8.0
 40
9.0
 40
9.0
 40
9.0
 40
10.0
 40
10.0
 40
10.0
 40
11.0
 40
11.0
 40
11.0
 40
12.0
 40
12.0
 40
12.0
 40
13.0
 40
13.0
 40
13.0
 40
14.0
 40
14.0
 40
14.0
 40
15.0
 40
15.0
 40
15.0
 40
16.0
 40
16.0
 40
16.0
 40
16.0
 10
57.94271645686849
 20
-130.6638590168132
 10
57.94271645686849
 20
-130.7420626843284
 10
57.92583548899076
 20
-130.8436930011432
 10
57.86244573206217
 20
-130.9453233179581
 10
57.7525471860827
 20
-131.1186116208662
 10
57.62128904809468
 20
-131.1399712128747
 10
57.51345755940636
 20
-131.1589192380436
 10
57.51345755940636
 20
-131.1589192380436
 10
57.51345755940636
 20
-130.936710579245
 10
57.51345755940636
 20
-130.936710579245
 10
57.71223956890528
 20
-130.8819335610295
 10
57.74186739007843
 20
-130.7548095376238
 10
57.74186739007843
 20
-130.661791959522
 10
57.74186739007843
 20
-130.5222655923695
 10
57.64230413055471
 20
-130.3699923719214
 10
57.40976018530034
 20
-130.3699923719214
 10
57.15378959074628
 20
-130.3699923719214
 10
57.08385415239571
 20
-130.5498263562514
 10
57.08385415239571
 20
-130.6704046982352
 10
57.08385415239571
 20
-130.7020995766995
 10
57.08385415239571
 20
-130.8436930011432
 10
57.21304523309257
 20
-130.9325764646627
 10
57.21304523309257
 20
-130.9325764646627
 10
57.1940972079237
 20
-131.1082763344104
 10
57.1940972079237
 20
-131.1082763344104
 10
57.1940972079237
 20
-131.1082763344104
 10
56.34763724719782
 20
-130.9876979924267
 10
56.34763724719782
 20
-130.9876979924267
 10
56.34763724719782
 20
-130.9876979924267
 10
56.34763724719782
 20
-130.2091064127602
 10
56.34763724719782
 20
-130.2091064127602
 10
56.34763724719782
 20
-130.2091064127602
 10
56.54228514211443
 20
-130.2091064127602
 10
56.54228514211443
 20
-130.2091064127602
 10
56.54228514211443
 20
-130.2091064127602
 10
56.54228514211443
 20
-130.8247449759744
 10
56.54228514211443
 20
-130.8247449759744
 10
56.54228514211443
 20
-130.8247449759744
 10
56.96534286770311
 20
-130.8902017901941
 10
56.96534286770311
 20
-130.8902017901941
 10
56.93158093194766
 20
-130.8288790905567
 10
56.89127331477024
 20
-130.7465413084592
 10
56.89127331477024
 20
-130.6280300237666
 10
56.89127331477024
 20
-130.3741264865037
 10
57.07765298052226
 20
-130.1371039171185
 10
57.39081216013147
 20
-130.1371039171185
 10
57.70810545432298
 20
-130.1371039171185
 10
57.94271645686849
 20
-130.3613796332083
 10
57.94271645686849
 20
-130.6638590168132
 97
        0
 97
        0
 75
     2
 76
     1
 98
        0
  0
SPLINE
  5
B2
330
AC
100
AcDbEntity
  8
_U+30EC_U+30A4_U+30E4_U+30FC 1
370
     0
100
AcDbSpline
210
0.0
220
0.0
230
1.0
 70
    11
 71
     3
 72
    62
 73
    58
 74
     0
 42
0.0000000001
 43
0.0000000001
 12
1.0
 22
0.0
 32
0.0
 13
1.0
 23
0.0
 33
0.0
 40
0.0
 40
0.0
 40
0.0
 40
0.0
 40
1.0
 40
1.0
 40
1.0
 40
2.0
 40
2.0
 40
2.0
 40
3.0
 40
3.0
 40
3.0
 40
4.0
 40
4.0
 40
4.0
 40
5.0
 40
5.0
 40
5.0
 40
6.0
 40
6.0
 40
6.0
 40
7.0
 40
7.0
 40
7.0
 40
8.0
 40
8.0
 40
8.0
 40
9.0
 40
9.0
 40
9.0
 40
10.0
 40
10.0
 40
10.0
 40
11.0
 40
11.0
 40
11.0
 40
12.0
 40
12.0
 40
12.0
 40
13.0
 40
13.0
 40
13.0
 40
14.0
 40
14.0
 40
14.0
 40
15.0
 40
15.0
 40
15.0
 40
16.0
 40
16.0
 40
16.0
 40
17.0
 40
17.0
 40
17.0
 40
18.0
 40
18.0
 40
18.0
 40
19.0
 40
19.0
 40
19.0
 40
19.0
 10
57.94271645686849
 20
-129.4763346030476
 30
0.0
 10
57.94271645686849
 20
-129.571763747989
 30
0.0
 10
57.92170137440846
 20
-129.7894937826568
 30
0.0
 10
57.73566621820498
 20
-129.9145507487714
 30
0.0
 10
57.62335610538583
 20
-129.9882757921557
 30
0.0
 10
57.52413735541064
 20
-129.9927544162865
 30
0.0
 10
57.43938800647349
 20
-129.9968885308688
 30
0.0
 10
57.43938800647349
 20
-129.9968885308688
 30
0.0
 10
57.43938800647349
 20
-129.7767469293614
 30
0.0
 10
57.43938800647349
 20
-129.7767469293614
 30
0.0
 10
57.51345755940636
 20
-129.7746798720702
 30
0.0
 10
57.74806856195188
 20
-129.7643445856145
 30
0.0
 10
57.74806856195188
 20
-129.4808132271784
 30
0.0
 10
57.74806856195188
 20
-129.3433539173169
 30
0.0
 10
57.67847763314983
 20
-129.1907361873204
 30
0.0
 10
57.45006780247776
 20
-129.1907361873204
 30
0.0
 10
57.33362357507632
 20
-129.1907361873204
 30
0.0
 10
57.2850477287343
 20
-129.2289767472066
 30
0.0
 10
57.25335285027
 20
-129.2606716256709
 30
0.0
 10
57.17928329733713
 20
-129.3347411786038
 30
0.0
 10
57.1665364440417
 20
-129.4511854060053
 30
0.0
 10
57.1665364440417
 20
-129.5059624242207
 30
0.0
 10
57.1665364440417
 20
-129.5252549589381
 30
0.0
 10
57.16860350133285
 20
-129.5610839519847
 30
0.0
 10
57.17273761591515
 20
-129.5886447158667
 30
0.0
 10
57.17273761591515
 20
-129.5886447158667
 30
0.0
 10
56.97808972099853
 20
-129.5886447158667
 30
0.0
 10
56.97808972099853
 20
-129.5886447158667
 30
0.0
 10
56.98463540242051
 20
-129.5504041559805
 30
0.0
 10
56.98670245971166
 20
-129.5083739910604
 30
0.0
 10
56.98670245971166
 20
-129.5018283096384
 30
0.0
 10
56.98670245971166
 20
-129.4363714954187
 30
0.0
 10
56.96534286770311
 20
-129.2375894859198
 30
0.0
 10
56.72866480786644
 20
-129.2375894859198
 30
0.0
 10
56.55089788082756
 20
-129.2375894859198
 30
0.0
 10
56.49577635306356
 20
-129.3685031143593
 30
0.0
 10
56.49577635306356
 20
-129.4787461698873
 30
0.0
 10
56.49577635306356
 20
-129.7429849936059
 30
0.0
 10
56.72866480786644
 20
-129.7515977323191
 30
0.0
 10
56.80032279395964
 20
-129.7557318469013
 30
0.0
 10
56.80032279395964
 20
-129.7557318469013
 30
0.0
 10
56.80032279395964
 20
-129.9589924805311
 30
0.0
 10
56.80032279395964
 20
-129.9589924805311
 30
0.0
 10
56.6756103373936
 20
-129.950379741818
 30
0.0
 10
56.29906140085579
 20
-129.922818977936
 30
0.0
 10
56.29906140085579
 20
-129.4659993165918
 30
0.0
 10
56.29906140085579
 20
-129.2417236005021
 30
0.0
 10
56.42618542426151
 20
-129.0005669165346
 30
0.0
 10
56.72211912644448
 20
-129.0005669165346
 30
0.0
 10
56.90849879219649
 20
-129.0005669165346
 30
0.0
 10
56.99083657429396
 20
-129.0956515519275
 30
0.0
 10
57.05215927393141
 20
-129.1952148114512
 30
0.0
 10
57.07972003781341
 20
-129.1338921118138
 30
0.0
 10
57.15999076261973
 20
-128.9519910701926
 30
0.0
 10
57.43732094918234
 20
-128.9519910701926
 30
0.0
 10
57.77562932583388
 20
-128.9519910701926
 30
0.0
 10
57.94271645686849
 20
-129.1993489260335
 30
0.0
 10
57.94271645686849
 20
-129.4763346030476
 30
0.0
  0
HATCH
  5
B3
330
AC
100
AcDbEntity
  8
_U+30EC_U+30A4_U+30E4_U+30FC 1
 62
   179
420
  2234388
100
AcDbHatch
 10
0.0
 20
0.0
 30
0.0
210
0.0
220
0.0
230
1.0
  2
SOLID
 70
     1
 71
     0
 91
        1
 92
        1
 93
        1
 72
     4
 94
        3
 73
     0
 74
     1
 95
       62
 96
       58
 40
0.0
 40
0.0
 40
0.0
 40
0.0
 40
1.0
 40
1.0
 40
1.0
 40
2.0
 40
2.0
 40
2.0
 40
3.0
 40
3.0
 40
3.0
 40
4.0
 40
4.0
 40
4.0
 40
5.0
 40
5.0
 40
5.0
 40
6.0
 40
6.0
 40
6.0
 40
7.0
 40
7.0
 40
7.0
 40
8.0
 40
8.0
 40
8.0
 40
9.0
 40
9.0
 40
9.0
 40
10.0
 40
10.0
 40
10.0
 40
11.0
 40
11.0
 40
11.0
 40
12.0
 40
12.0
 40
12.0
 40
13.0
 40
13.0
 40
13.0
 40
14.0
 40
14.0
 40
14.0
 40
15.0
 40
15.0
 40
15.0
 40
16.0
 40
16.0
 40
16.0
 40
17.0
 40
17.0
 40
17.0
 40
18.0
 40
18.0
 40
18.0
 40
19.0
 40
19.0
 40
19.0
 40
19.0
 10
57.94271645686849
 20
-129.4763346030476
 10
57.94271645686849
 20
-129.571763747989
 10
57.92170137440846
 20
-129.7894937826568
 10
57.73566621820498
 20
-129.9145507487714
 10
57.62335610538583
 20
-129.9882757921557
 10
57.52413735541064
 20
-129.9927544162865
 10
57.43938800647349
 20
-129.9968885308688
 10
57.43938800647349
 20
-129.9968885308688
 10
57.43938800647349
 20
-129.7767469293614
 10
57.43938800647349
 20
-129.7767469293614
 10
57.51345755940636
 20
-129.7746798720702
 10
57.74806856195188
 20
-129.7643445856145
 10
57.74806856195188
 20
-129.4808132271784
 10
57.74806856195188
 20
-129.3433539173169
 10
57.67847763314983
 20
-129.1907361873204
 10
57.45006780247776
 20
-129.1907361873204
 10
57.33362357507632
 20
-129.1907361873204
 10
57.2850477287343
 20
-129.2289767472066
 10
57.25335285027
 20
-129.2606716256709
 10
57.17928329733713
 20
-129.3347411786038
 10
57.1665364440417
 20
-129.4511854060053
 10
57.1665364440417
 20
-129.5059624242207
 10
57.1665364440417
 20
-129.5252549589381
 10
57.16860350133285
 20
-129.5610839519847
 10
57.17273761591515
 20
-129.5886447158667
 10
57.17273761591515
 20
-129.5886447158667
 10
56.97808972099853
 20
-129.5886447158667
 10
56.97808972099853
 20
-129.5886447158667
 10
56.98463540242051
 20
-129.5504041559805
 10
56.98670245971166
 20
-129.5083739910604
 10
56.98670245971166
 20
-129.5018283096384
 10
56.98670245971166
 20
-129.4363714954187
 10
56.96534286770311
 20
-129.2375894859198
 10
56.72866480786644
 20
-129.2375894859198
 10
56.55089788082756
 20
-129.2375894859198
 10
56.49577635306356
 20
-129.3685031143593
 10
56.49577635306356
 20
-129.4787461698873
 10
56.49577635306356
 20
-129.7429849936059
 10
56.72866480786644
 20
-129.7515977323191
 10
56.80032279395964
 20
-129.7557318469013
 10
56.80032279395964
 20
-129.7557318469013
 10
56.80032279395964
 20
-129.9589924805311
 10
56.80032279395964
 20
-129.9589924805311
 10
56.6756103373936
 20
-129.950379741818
 10
56.29906140085579
 20
-129.922818977936
 10
56.29906140085579
 20
-129.4659993165918
 10
56.29906140085579
 20
-129.2417236005021
 10
56.42618542426151
 20
-129.0005669165346
 10
56.72211912644448
 20
-129.0005669165346
 10
56.90849879219649
 20
-129.0005669165346
 10
56.99083657429396
 20
-129.0956515519275
 10
57.05215927393141
 20
-129.1952148114512
 10
57.07972003781341
 20
-129.1338921118138
 10
57.15999076261973
 20
-128.9519910701926
 10
57.43732094918234
 20
-128.9519910701926
 10
57.77562932583388
 20
-128.9519910701926
 10
57.94271645686849
 20
-129.1993489260335
 10
57.94271645686849
 20
-129.4763346030476
 97
        0
 97
        0
 75
     2
 76
     1
 98
        0
  0
ENDBLK
  5
AF
330
AC
100
AcDbEntity
  8
0
100
AcDbBlockEnd
  0
BLOCK
  5
CA
330
C8
100
AcDbEntity
  8
0
100
AcDbBlockBegin
  2
block 7
 70
     0
 10
0.0
 20
0.0
 30
0.0
  3
block 7
  1

  0
SPLINE
  5
CC
330
C8
100
AcDbEntity
  8
_U+30EC_U+30A4_U+30E4_U+30FC 1
370
     0
100
AcDbSpline
210
0.0
220
0.0
230
1.0
 70
    11
 71
     3
 72
    53
 73
    49
 74
     0
 42
0.0000000001
 43
0.0000000001
 12
1.0
 22
0.0
 32
0.0
 13
1.0
 23
0.0
 33
0.0
 40
0.0
 40
0.0
 40
0.0
 40
0.0
 40
1.0
 40
1.0
 40
1.0
 40
2.0
 40
2.0
 40
2.0
 40
3.0
 40
3.0
 40
3.0
 40
4.0
 40
4.0
 40
4.0
 40
5.0
 40
5.0
 40
5.0
 40
6.0
 40
6.0
 40
6.0
 40
7.0
 40
7.0
 40
7.0
 40
8.0
 40
8.0
 40
8.0
 40
9.0
 40
9.0
 40
9.0
 40
10.0
 40
10.0
 40
10.0
 40
11.0
 40
11.0
 40
11.0
 40
12.0
 40
12.0
 40
12.0
 40
13.0
 40
13.0
 40
13.0
 40
14.0
 40
14.0
 40
14.0
 40
15.0
 40
15.0
 40
15.0
 40
16.0
 40
16.0
 40
16.0
 40
16.0
 10
89.43071693727774
 20
-159.6612277161611
 30
0.0
 10
89.35251326976257
 20
-159.6612277161611
 30
0.0
 10
89.2508829529477
 20
-159.6443467482834
 30
0.0
 10
89.14925263613283
 20
-159.5809569913548
 30
0.0
 10
88.97596433322477
 20
-159.4707139358268
 30
0.0
 10
88.95460474121622
 20
-159.3398003073873
 30
0.0
 10
88.93565671604733
 20
-159.2316243091504
 30
0.0
 10
88.93565671604733
 20
-159.2316243091504
 30
0.0
 10
89.15786537484595
 20
-159.2316243091504
 30
0.0
 10
89.15786537484595
 20
-159.2316243091504
 30
0.0
 10
89.21264239306143
 20
-159.4307508281979
 30
0.0
 10
89.33976641646714
 20
-159.460378649371
 30
0.0
 10
89.4327839945689
 20
-159.460378649371
 30
0.0
 10
89.5723103617215
 20
-159.460378649371
 30
0.0
 10
89.72458358216956
 20
-159.3608153898473
 30
0.0
 10
89.72458358216956
 20
-159.1282714445929
 30
0.0
 10
89.72458358216956
 20
-158.8719563404904
 30
0.0
 10
89.54474959783951
 20
-158.8023654116883
 30
0.0
 10
89.42417125585577
 20
-158.8023654116883
 30
0.0
 10
89.39247637739147
 20
-158.8023654116883
 30
0.0
 10
89.2508829529477
 20
-158.8023654116883
 30
0.0
 10
89.16199948942825
 20
-158.9312119828367
 30
0.0
 10
89.16199948942825
 20
-158.9312119828367
 30
0.0
 10
88.98629961968051
 20
-158.9122639576678
 30
0.0
 10
88.98629961968051
 20
-158.9122639576678
 30
0.0
 10
88.98629961968051
 20
-158.9122639576678
 30
0.0
 10
89.10687796166425
 20
-158.0661485064904
 30
0.0
 10
89.10687796166425
 20
-158.0661485064904
 30
0.0
 10
89.10687796166425
 20
-158.0661485064904
 30
0.0
 10
89.88546954133072
 20
-158.0661485064904
 30
0.0
 10
89.88546954133072
 20
-158.0661485064904
 30
0.0
 10
89.88546954133072
 20
-158.0661485064904
 30
0.0
 10
89.88546954133072
 20
-158.260796401407
 30
0.0
 10
89.88546954133072
 20
-158.260796401407
 30
0.0
 10
89.88546954133072
 20
-158.260796401407
 30
0.0
 10
89.26983097811657
 20
-158.260796401407
 30
0.0
 10
89.26983097811657
 20
-158.260796401407
 30
0.0
 10
89.26983097811657
 20
-158.260796401407
 30
0.0
 10
89.20437416389683
 20
-158.6838541269957
 30
0.0
 10
89.20437416389683
 20
-158.6838541269957
 30
0.0
 10
89.26569686353427
 20
-158.6500921912403
 30
0.0
 10
89.34803464563174
 20
-158.6097845740628
 30
0.0
 10
89.46654593032434
 20
-158.6097845740628
 30
0.0
 10
89.72044946758726
 20
-158.6097845740628
 30
0.0
 10
89.95747203697245
 20
-158.7961642398149
 30
0.0
 10
89.95747203697245
 20
-159.1089789098755
 30
0.0
 10
89.95747203697245
 20
-159.4266167136156
 30
0.0
 10
89.73319632088268
 20
-159.6612277161611
 30
0.0
 10
89.43071693727774
 20
-159.6612277161611
 30
0.0
  0
HATCH
  5
CD
330
C8
100
AcDbEntity
  8
_U+30EC_U+30A4_U+30E4_U+30FC 1
 62
   179
420
  2234388
100
AcDbHatch
 10
0.0
 20
0.0
 30
0.0
210
0.0
220
0.0
230
1.0
  2
SOLID
 70
     1
 71
     0
 91
        1
 92
        1
 93
        1
 72
     4
 94
        3
 73
     0
 74
     1
 95
       53
 96
       49
 40
0.0
 40
0.0
 40
0.0
 40
0.0
 40
1.0
 40
1.0
 40
1.0
 40
2.0
 40
2.0
 40
2.0
 40
3.0
 40
3.0
 40
3.0
 40
4.0
 40
4.0
 40
4.0
 40
5.0
 40
5.0
 40
5.0
 40
6.0
 40
6.0
 40
6.0
 40
7.0
 40
7.0
 40
7.0
 40
8.0
 40
8.0
 40
8.0
 40
9.0
 40
9.0
 40
9.0
 40
10.0
 40
10.0
 40
10.0
 40
11.0
 40
11.0
 40
11.0
 40
12.0
 40
12.0
 40
12.0
 40
13.0
 40
13.0
 40
13.0
 40
14.0
 40
14.0
 40
14.0
 40
15.0
 40
15.0
 40
15.0
 40
16.0
 40
16.0
 40
16.0
 40
16.0
 10
89.43071693727774
 20
-159.6612277161611
 10
89.35251326976257
 20
-159.6612277161611
 10
89.2508829529477
 20
-159.6443467482834
 10
89.14925263613283
 20
-159.5809569913548
 10
88.97596433322477
 20
-159.4707139358268
 10
88.95460474121622
 20
-159.3398003073873
 10
88.93565671604733
 20
-159.2316243091504
 10
88.93565671604733
 20
-159.2316243091504
 10
89.15786537484595
 20
-159.2316243091504
 10
89.15786537484595
 20
-159.2316243091504
 10
89.21264239306143
 20
-159.4307508281979
 10
89.33976641646714
 20
-159.460378649371
 10
89.4327839945689
 20
-159.460378649371
 10
89.5723103617215
 20
-159.460378649371
 10
89.72458358216956
 20
-159.3608153898473
 10
89.72458358216956
 20
-159.1282714445929
 10
89.72458358216956
 20
-158.8719563404904
 10
89.54474959783951
 20
-158.8023654116883
 10
89.42417125585577
 20
-158.8023654116883
 10
89.39247637739147
 20
-158.8023654116883
 10
89.2508829529477
 20
-158.8023654116883
 10
89.16199948942825
 20
-158.9312119828367
 10
89.16199948942825
 20
-158.9312119828367
 10
88.98629961968051
 20
-158.9122639576678
 10
88.98629961968051
 20
-158.9122639576678
 10
88.98629961968051
 20
-158.9122639576678
 10
89.10687796166425
 20
-158.0661485064904
 10
89.10687796166425
 20
-158.0661485064904
 10
89.10687796166425
 20
-158.0661485064904
 10
89.88546954133072
 20
-158.0661485064904
 10
89.88546954133072
 20
-158.0661485064904
 10
89.88546954133072
 20
-158.0661485064904
 10
89.88546954133072
 20
-158.260796401407
 10
89.88546954133072
 20
-158.260796401407
 10
89.88546954133072
 20
-158.260796401407
 10
89.26983097811657
 20
-158.260796401407
 10
89.26983097811657
 20
-158.260796401407
 10
89.26983097811657
 20
-158.260796401407
 10
89.20437416389683
 20
-158.6838541269957
 10
89.20437416389683
 20
-158.6838541269957
 10
89.26569686353427
 20
-158.6500921912403
 10
89.34803464563174
 20
-158.6097845740628
 10
89.46654593032434
 20
-158.6097845740628
 10
89.72044946758726
 20
-158.6097845740628
 10
89.95747203697245
 20
-158.7961642398149
 10
89.95747203697245
 20
-159.1089789098755
 10
89.95747203697245
 20
-159.4266167136156
 10
89.73319632088268
 20
-159.6612277161611
 10
89.43071693727774
 20
-159.6612277161611
 97
        0
 97
        0
 75
     2
 76
     1
 98
        0
  0
SPLINE
  5
CE
330
C8
100
AcDbEntity
  8
_U+30EC_U+30A4_U+30E4_U+30FC 1
370
     0
100
AcDbSpline
210
0.0
220
0.0
230
1.0
 70
    11
 71
     3
 72
    53
 73
    49
 74
     0
 42
0.0000000001
 43
0.0000000001
 12
1.0
 22
0.0
 32
0.0
 13
1.0
 23
0.0
 33
0.0
 40
0.0
 40
0.0
 40
0.0
 40
0.0
 40
1.0
 40
1.0
 40
1.0
 40
2.0
 40
2.0
 40
2.0
 40
3.0
 40
3.0
 40
3.0
 40
4.0
 40
4.0
 40
4.0
 40
5.0
 40
5.0
 40
5.0
 40
6.0
 40
6.0
 40
6.0
 40
7.0
 40
7.0
 40
7.0
 40
8.0
 40
8.0
 40
8.0
 40
9.0
 40
9.0
 40
9.0
 40
10.0
 40
10.0
 40
10.0
 40
11.0
 40
11.0
 40
11.0
 40
12.0
 40
12.0
 40
12.0
 40
13.0
 40
13.0
 40
13.0
 40
14.0
 40
14.0
 40
14.0
 40
15.0
 40
15.0
 40
15.0
 40
16.0
 40
16.0
 40
16.0
 40
16.0
 10
90.60756155503908
 20
-159.6612277161611
 30
0.0
 10
90.52935788752391
 20
-159.6612277161611
 30
0.0
 10
90.42772757070904
 20
-159.6443467482834
 30
0.0
 10
90.32609725389418
 20
-159.5809569913548
 30
0.0
 10
90.15280895098611
 20
-159.4707139358268
 30
0.0
 10
90.13144935897756
 20
-159.3398003073873
 30
0.0
 10
90.11250133380868
 20
-159.2316243091504
 30
0.0
 10
90.11250133380868
 20
-159.2316243091504
 30
0.0
 10
90.3347099926073
 20
-159.2316243091504
 30
0.0
 10
90.3347099926073
 20
-159.2316243091504
 30
0.0
 10
90.38948701082278
 20
-159.4307508281979
 30
0.0
 10
90.51661103422849
 20
-159.460378649371
 30
0.0
 10
90.60962861233024
 20
-159.460378649371
 30
0.0
 10
90.74915497948285
 20
-159.460378649371
 30
0.0
 10
90.90142819993089
 20
-159.3608153898473
 30
0.0
 10
90.90142819993089
 20
-159.1282714445929
 30
0.0
 10
90.90142819993089
 20
-158.8719563404904
 30
0.0
 10
90.72159421560086
 20
-158.8023654116883
 30
0.0
 10
90.60101587361711
 20
-158.8023654116883
 30
0.0
 10
90.56932099515281
 20
-158.8023654116883
 30
0.0
 10
90.42772757070904
 20
-158.8023654116883
 30
0.0
 10
90.3388441071896
 20
-158.9312119828367
 30
0.0
 10
90.3388441071896
 20
-158.9312119828367
 30
0.0
 10
90.16314423744186
 20
-158.9122639576678
 30
0.0
 10
90.16314423744186
 20
-158.9122639576678
 30
0.0
 10
90.16314423744186
 20
-158.9122639576678
 30
0.0
 10
90.2837225794256
 20
-158.0661485064904
 30
0.0
 10
90.2837225794256
 20
-158.0661485064904
 30
0.0
 10
90.2837225794256
 20
-158.0661485064904
 30
0.0
 10
91.06231415909207
 20
-158.0661485064904
 30
0.0
 10
91.06231415909207
 20
-158.0661485064904
 30
0.0
 10
91.06231415909207
 20
-158.0661485064904
 30
0.0
 10
91.06231415909207
 20
-158.260796401407
 30
0.0
 10
91.06231415909207
 20
-158.260796401407
 30
0.0
 10
91.06231415909207
 20
-158.260796401407
 30
0.0
 10
90.44667559587792
 20
-158.260796401407
 30
0.0
 10
90.44667559587792
 20
-158.260796401407
 30
0.0
 10
90.44667559587792
 20
-158.260796401407
 30
0.0
 10
90.38121878165818
 20
-158.6838541269957
 30
0.0
 10
90.38121878165818
 20
-158.6838541269957
 30
0.0
 10
90.44254148129562
 20
-158.6500921912403
 30
0.0
 10
90.52487926339309
 20
-158.6097845740628
 30
0.0
 10
90.64339054808569
 20
-158.6097845740628
 30
0.0
 10
90.89729408534859
 20
-158.6097845740628
 30
0.0
 10
91.13431665473378
 20
-158.7961642398149
 30
0.0
 10
91.13431665473378
 20
-159.1089789098755
 30
0.0
 10
91.13431665473378
 20
-159.4266167136156
 30
0.0
 10
90.91004093864402
 20
-159.6612277161611
 30
0.0
 10
90.60756155503908
 20
-159.6612277161611
 30
0.0
  0
HATCH
  5
CF
330
C8
100
AcDbEntity
  8
_U+30EC_U+30A4_U+30E4_U+30FC 1
 62
   179
420
  2234388
100
AcDbHatch
 10
0.0
 20
0.0
 30
0.0
210
0.0
220
0.0
230
1.0
  2
SOLID
 70
     1
 71
     0
 91
        1
 92
        1
 93
        1
 72
     4
 94
        3
 73
     0
 74
     1
 95
       53
 96
       49
 40
0.0
 40
0.0
 40
0.0
 40
0.0
 40
1.0
 40
1.0
 40
1.0
 40
2.0
 40
2.0
 40
2.0
 40
3.0
 40
3.0
 40
3.0
 40
4.0
 40
4.0
 40
4.0
 40
5.0
 40
5.0
 40
5.0
 40
6.0
 40
6.0
 40
6.0
 40
7.0
 40
7.0
 40
7.0
 40
8.0
 40
8.0
 40
8.0
 40
9.0
 40
9.0
 40
9.0
 40
10.0
 40
10.0
 40
10.0
 40
11.0
 40
11.0
 40
11.0
 40
12.0
 40
12.0
 40
12.0
 40
13.0
 40
13.0
 40
13.0
 40
14.0
 40
14.0
 40
14.0
 40
15.0
 40
15.0
 40
15.0
 40
16.0
 40
16.0
 40
16.0
 40
16.0
 10
90.60756155503908
 20
-159.6612277161611
 10
90.52935788752391
 20
-159.6612277161611
 10
90.42772757070904
 20
-159.6443467482834
 10
90.32609725389418
 20
-159.5809569913548
 10
90.15280895098611
 20
-159.4707139358268
 10
90.13144935897756
 20
-159.3398003073873
 10
90.11250133380868
 20
-159.2316243091504
 10
90.11250133380868
 20
-159.2316243091504
 10
90.3347099926073
 20
-159.2316243091504
 10
90.3347099926073
 20
-159.2316243091504
 10
90.38948701082278
 20
-159.4307508281979
 10
90.51661103422849
 20
-159.460378649371
 10
90.60962861233024
 20
-159.460378649371
 10
90.74915497948285
 20
-159.460378649371
 10
90.90142819993089
 20
-159.3608153898473
 10
90.90142819993089
 20
-159.1282714445929
 10
90.90142819993089
 20
-158.8719563404904
 10
90.72159421560086
 20
-158.8023654116883
 10
90.60101587361711
 20
-158.8023654116883
 10
90.56932099515281
 20
-158.8023654116883
 10
90.42772757070904
 20
-158.8023654116883
 10
90.3388441071896
 20
-158.9312119828367
 10
90.3388441071896
 20
-158.9312119828367
 10
90.16314423744186
 20
-158.9122639576678
 10
90.16314423744186
 20
-158.9122639576678
 10
90.16314423744186
 20
-158.9122639576678
 10
90.2837225794256
 20
-158.0661485064904
 10
90.2837225794256
 20
-158.0661485064904
 10
90.2837225794256
 20
-158.0661485064904
 10
91.06231415909207
 20
-158.0661485064904
 10
91.06231415909207
 20
-158.0661485064904
 10
91.06231415909207
 20
-158.0661485064904
 10
91.06231415909207
 20
-158.260796401407
 10
91.06231415909207
 20
-158.260796401407
 10
91.06231415909207
 20
-158.260796401407
 10
90.44667559587792
 20
-158.260796401407
 10
90.44667559587792
 20
-158.260796401407
 10
90.44667559587792
 20
-158.260796401407
 10
90.38121878165818
 20
-158.6838541269957
 10
90.38121878165818
 20
-158.6838541269957
 10
90.44254148129562
 20
-158.6500921912403
 10
90.52487926339309
 20
-158.6097845740628
 10
90.64339054808569
 20
-158.6097845740628
 10
90.89729408534859
 20
-158.6097845740628
 10
91.13431665473378
 20
-158.7961642398149
 10
91.13431665473378
 20
-159.1089789098755
 10
91.13431665473378
 20
-159.4266167136156
 10
90.91004093864402
 20
-159.6612277161611
 10
90.60756155503908
 20
-159.6612277161611
 97
        0
 97
        0
 75
     2
 76
     1
 98
        0
  0
ENDBLK
  5
CB
330
C8
100
AcDbEntity
  8
0
100
AcDbBlockEnd
  0
ENDSEC
  0
SECTION
  2
ENTITIES
  0
SPLINE
  5
41
330
1F
100
AcDbEntity
  8
_U+30EC_U+30A4_U+30E4_U+30FC 1
 62
   179
420
  2234388
370
     9
100
AcDbSpline
210
0.0
220
0.0
230
1.0
 70
    11
 71
     3
 72
    17
 73
    13
 74
     0
 42
0.0000000001
 43
0.0000000001
 12
1.0
 22
0.0
 32
0.0
 13
1.0
 23
0.0
 33
0.0
 40
0.0
 40
0.0
 40
0.0
 40
0.0
 40
1.0
 40
1.0
 40
1.0
 40
2.0
 40
2.0
 40
2.0
 40
3.0
 40
3.0
 40
3.0
 40
4.0
 40
4.0
 40
4.0
 40
4.0
 10
82.6383687250529
 20
-99.55604080844445
 30
0.0
 10
82.6383687250529
 20
-99.50023136401369
 30
0.0
 10
82.59356594841815
 20
-99.4561341418025
 30
0.0
 10
82.53846206093507
 20
-99.4561341418025
 30
0.0
 10
82.48265261791444
 20
-99.4561341418025
 30
0.0
 10
82.43855539681724
 20
-99.50023136401369
 30
0.0
 10
82.43855539681724
 20
-99.55604080844445
 30
0.0
 10
82.43855539681724
 20
-99.61114469731936
 30
0.0
 10
82.48265261791444
 20
-99.65594747508608
 30
0.0
 10
82.53846206093507
 20
-99.65594747508608
 30
0.0
 10
82.59356594841815
 20
-99.65594747508608
 30
0.0
 10
82.6383687250529
 20
-99.61114469731936
 30
0.0
 10
82.6383687250529
 20
-99.55604080844445
 30
0.0
  0
SPLINE
  5
42
330
1F
100
AcDbEntity
  8
_U+30EC_U+30A4_U+30E4_U+30FC 1
 62
   179
420
  2234388
370
     9
100
AcDbSpline
210
0.0
220
0.0
230
1.0
 70
    11
 71
     3
 72
    17
 73
    13
 74
     0
 42
0.0000000001
 43
0.0000000001
 12
1.0
 22
0.0
 32
0.0
 13
1.0
 23
0.0
 33
0.0
 40
0.0
 40
0.0
 40
0.0
 40
0.0
 40
1.0
 40
1.0
 40
1.0
 40
2.0
 40
2.0
 40
2.0
 40
3.0
 40
3.0
 40
3.0
 40
4.0
 40
4.0
 40
4.0
 40
4.0
 10
62.63819756863311
 20
-99.55604080844445
 30
0.0
 10
62.63819756863311
 20
-99.50023136401369
 30
0.0
 10
62.59343006977523
 20
-99.4561341418025
 30
0.0
 10
62.53829090451528
 20
-99.4561341418025
 30
0.0
 10
62.48318701703221
 20
-99.4561341418025
 30
0.0
 10
62.43838424039744
 20
-99.50023136401369
 30
0.0
 10
62.43838424039744
 20
-99.55604080844445
 30
0.0
 10
62.43838424039744
 20
-99.61114469731936
 30
0.0
 10
62.48318701703221
 20
-99.65594747508608
 30
0.0
 10
62.53829090451528
 20
-99.65594747508608
 30
0.0
 10
62.59343006977523
 20
-99.65594747508608
 30
0.0
 10
62.63819756863311
 20
-99.61114469731936
 30
0.0
 10
62.63819756863311
 20
-99.55604080844445
 30
0.0
  0
SPLINE
  5
43
330
1F
100
AcDbEntity
  8
_U+30EC_U+30A4_U+30E4_U+30FC 1
 62
   179
420
  2234388
370
     9
100
AcDbSpline
210
0.0
220
0.0
230
1.0
 70
    11
 71
     3
 72
    17
 73
    13
 74
     0
 42
0.0000000001
 43
0.0000000001
 12
1.0
 22
0.0
 32
0.0
 13
1.0
 23
0.0
 33
0.0
 40
0.0
 40
0.0
 40
0.0
 40
0.0
 40
1.0
 40
1.0
 40
1.0
 40
2.0
 40
2.0
 40
2.0
 40
3.0
 40
3.0
 40
3.0
 40
4.0
 40
4.0
 40
4.0
 40
4.0
 10
62.63819756863311
 20
-160.2565374599361
 30
0.0
 10
62.63819756863311
 20
-160.2014335710605
 30
0.0
 10
62.59343006977523
 20
-160.1566307932944
 30
0.0
 10
62.53829090451528
 20
-160.1566307932944
 30
0.0
 10
62.48318701703221
 20
-160.1566307932944
 30
0.0
 10
62.43838424039744
 20
-160.2014335710605
 30
0.0
 10
62.43838424039744
 20
-160.2565374599361
 30
0.0
 10
62.43838424039744
 20
-160.3116766265885
 30
0.0
 10
62.48318701703221
 20
-160.3564441265777
 30
0.0
 10
62.53829090451528
 20
-160.3564441265777
 30
0.0
 10
62.59343006977523
 20
-160.3564441265777
 30
0.0
 10
62.63819756863311
 20
-160.3116766265885
 30
0.0
 10
62.63819756863311
 20
-160.2565374599361
 30
0.0
  0
SPLINE
  5
44
330
1F
100
AcDbEntity
  8
_U+30EC_U+30A4_U+30E4_U+30FC 1
 62
   179
420
  2234388
370
     9
100
AcDbSpline
210
0.0
220
0.0
230
1.0
 70
    11
 71
     3
 72
    17
 73
    13
 74
     0
 42
0.0000000001
 43
0.0000000001
 12
1.0
 22
0.0
 32
0.0
 13
1.0
 23
0.0
 33
0.0
 40
0.0
 40
0.0
 40
0.0
 40
0.0
 40
1.0
 40
1.0
 40
1.0
 40
2.0
 40
2.0
 40
2.0
 40
3.0
 40
3.0
 40
3.0
 40
4.0
 40
4.0
 40
4.0
 40
4.0
 10
58.6384385040088
 20
-103.5564702518887
 30
0.0
 10
58.6384385040088
 20
-103.5006608074582
 30
0.0
 10
58.59367100515092
 20
-103.4565635852471
 30
0.0
 10
58.53786156213029
 20
-103.4565635852471
 30
0.0
 10
58.48272239687034
 20
-103.4565635852471
 30
0.0
 10
58.43795489801246
 20
-103.5006608074582
 30
0.0
 10
58.43795489801246
 20
-103.5564702518887
 30
0.0
 10
58.43795489801246
 20
-103.6115741407639
 30
0.0
 10
58.48272239687034
 20
-103.6563769185303
 30
0.0
 10
58.53786156213029
 20
-103.6563769185303
 30
0.0
 10
58.59367100515092
 20
-103.6563769185303
 30
0.0
 10
58.6384385040088
 20
-103.6115741407639
 30
0.0
 10
58.6384385040088
 20
-103.5564702518887
 30
0.0
  0
SPLINE
  5
45
330
1F
100
AcDbEntity
  8
_U+30EC_U+30A4_U+30E4_U+30FC 1
 62
   179
420
  2234388
370
     9
100
AcDbSpline
210
0.0
220
0.0
230
1.0
 70
    11
 71
     3
 72
    17
 73
    13
 74
     0
 42
0.0000000001
 43
0.0000000001
 12
1.0
 22
0.0
 32
0.0
 13
1.0
 23
0.0
 33
0.0
 40
0.0
 40
0.0
 40
0.0
 40
0.0
 40
1.0
 40
1.0
 40
1.0
 40
2.0
 40
2.0
 40
2.0
 40
3.0
 40
3.0
 40
3.0
 40
4.0
 40
4.0
 40
4.0
 40
4.0
 10
117.6382978321303
 20
-160.2565374599361
 30
0.0
 10
117.6382978321303
 20
-160.2014335710605
 30
0.0
 10
117.5934950554956
 20
-160.1566307932944
 30
0.0
 10
117.5383911680125
 20
-160.1566307932944
 30
0.0
 10
117.4825817249919
 20
-160.1566307932944
 30
0.0
 10
117.4377789483571
 20
-160.2014335710605
 30
0.0
 10
117.4377789483571
 20
-160.2565374599361
 30
0.0
 10
117.4377789483571
 20
-160.3116766265885
 30
0.0
 10
117.4825817249919
 20
-160.3564441265777
 30
0.0
 10
117.5383911680125
 20
-160.3564441265777
 30
0.0
 10
117.5934950554956
 20
-160.3564441265777
 30
0.0
 10
117.6382978321303
 20
-160.3116766265885
 30
0.0
 10
117.6382978321303
 20
-160.2565374599361
 30
0.0
  0
SPLINE
  5
46
330
1F
100
AcDbEntity
  8
_U+30EC_U+30A4_U+30E4_U+30FC 1
 62
   179
420
  2234388
370
     9
100
AcDbSpline
210
0.0
220
0.0
230
1.0
 70
    11
 71
     3
 72
    17
 73
    13
 74
     0
 42
0.0000000001
 43
0.0000000001
 12
1.0
 22
0.0
 32
0.0
 13
1.0
 23
0.0
 33
0.0
 40
0.0
 40
0.0
 40
0.0
 40
0.0
 40
1.0
 40
1.0
 40
1.0
 40
2.0
 40
2.0
 40
2.0
 40
3.0
 40
3.0
 40
3.0
 40
4.0
 40
4.0
 40
4.0
 40
4.0
 10
121.6380568967546
 20
-155.0571927390134
 30
0.0
 10
121.6380568967546
 20
-155.0020888501384
 30
0.0
 10
121.5932541201199
 20
-154.9572860723717
 30
0.0
 10
121.5381502326368
 20
-154.9572860723717
 30
0.0
 10
121.4830110673769
 20
-154.9572860723717
 30
0.0
 10
121.438243568519
 20
-155.0020888501384
 30
0.0
 10
121.438243568519
 20
-155.0571927390134
 30
0.0
 10
121.438243568519
 20
-155.1123319056665
 30
0.0
 10
121.4830110673769
 20
-155.157099405655
 30
0.0
 10
121.5381502326368
 20
-155.157099405655
 30
0.0
 10
121.5932541201199
 20
-155.157099405655
 30
0.0
 10
121.6380568967546
 20
-155.1123319056665
 30
0.0
 10
121.6380568967546
 20
-155.0571927390134
 30
0.0
  0
SPLINE
  5
47
330
1F
100
AcDbEntity
  8
_U+30EC_U+30A4_U+30E4_U+30FC 1
 62
   179
420
  2234388
370
     9
100
AcDbSpline
210
0.0
220
0.0
230
1.0
 70
    11
 71
     3
 72
    17
 73
    13
 74
     0
 42
0.0000000001
 43
0.0000000001
 12
1.0
 22
0.0
 32
0.0
 13
1.0
 23
0.0
 33
0.0
 40
0.0
 40
0.0
 40
0.0
 40
0.0
 40
1.0
 40
1.0
 40
1.0
 40
2.0
 40
2.0
 40
2.0
 40
3.0
 40
3.0
 40
3.0
 40
4.0
 40
4.0
 40
4.0
 40
4.0
 10
121.6380568967546
 20
-103.5564702518887
 30
0.0
 10
121.6380568967546
 20
-103.5013310852359
 30
0.0
 10
121.5932541201199
 20
-103.4565635852471
 30
0.0
 10
121.5381502326368
 20
-103.4565635852471
 30
0.0
 10
121.4830110673769
 20
-103.4565635852471
 30
0.0
 10
121.438243568519
 20
-103.5013310852359
 30
0.0
 10
121.438243568519
 20
-103.5564702518887
 30
0.0
 10
121.438243568519
 20
-103.6115741407639
 30
0.0
 10
121.4830110673769
 20
-103.6563769185303
 30
0.0
 10
121.5381502326368
 20
-103.6563769185303
 30
0.0
 10
121.5932541201199
 20
-103.6563769185303
 30
0.0
 10
121.6380568967546
 20
-103.6115741407639
 30
0.0
 10
121.6380568967546
 20
-103.5564702518887
 30
0.0
  0
SPLINE
  5
48
330
1F
100
AcDbEntity
  8
_U+30EC_U+30A4_U+30E4_U+30FC 1
 62
   179
420
  2234388
370
     9
100
AcDbSpline
210
0.0
220
0.0
230
1.0
 70
    11
 71
     3
 72
    17
 73
    13
 74
     0
 42
0.0000000001
 43
0.0000000001
 12
1.0
 22
0.0
 32
0.0
 13
1.0
 23
0.0
 33
0.0
 40
0.0
 40
0.0
 40
0.0
 40
0.0
 40
1.0
 40
1.0
 40
1.0
 40
2.0
 40
2.0
 40
2.0
 40
3.0
 40
3.0
 40
3.0
 40
4.0
 40
4.0
 40
4.0
 40
4.0
 10
121.6380568967546
 20
-105.0564813626246
 30
0.0
 10
121.6380568967546
 20
-105.0013421959719
 30
0.0
 10
121.5932541201199
 20
-104.9565394182055
 30
0.0
 10
121.5381502326368
 20
-104.9565394182055
 30
0.0
 10
121.4830110673769
 20
-104.9565394182055
 30
0.0
 10
121.438243568519
 20
-105.0013421959719
 30
0.0
 10
121.438243568519
 20
-105.0564813626246
 30
0.0
 10
121.438243568519
 20
-105.1115852514999
 30
0.0
 10
121.4830110673769
 20
-105.1563880292666
 30
0.0
 10
121.5381502326368
 20
-105.1563880292666
 30
0.0
 10
121.5932541201199
 20
-105.1563880292666
 30
0.0
 10
121.6380568967546
 20
-105.1115852514999
 30
0.0
 10
121.6380568967546
 20
-105.0564813626246
 30
0.0
  0
SPLINE
  5
49
330
1F
100
AcDbEntity
  8
_U+30EC_U+30A4_U+30E4_U+30FC 1
 62
   179
420
  2234388
370
     9
100
AcDbSpline
210
0.0
220
0.0
230
1.0
 70
    11
 71
     3
 72
    17
 73
    13
 74
     0
 42
0.0000000001
 43
0.0000000001
 12
1.0
 22
0.0
 32
0.0
 13
1.0
 23
0.0
 33
0.0
 40
0.0
 40
0.0
 40
0.0
 40
0.0
 40
1.0
 40
1.0
 40
1.0
 40
2.0
 40
2.0
 40
2.0
 40
3.0
 40
3.0
 40
3.0
 40
4.0
 40
4.0
 40
4.0
 40
4.0
 10
58.6384385040088
 20
-156.5564982941941
 30
0.0
 10
58.6384385040088
 20
-156.5013944053192
 30
0.0
 10
58.59367100515092
 20
-156.4565916275525
 30
0.0
 10
58.53786156213029
 20
-156.4565916275525
 30
0.0
 10
58.48272239687034
 20
-156.4565916275525
 30
0.0
 10
58.43795489801246
 20
-156.5013944053192
 30
0.0
 10
58.43795489801246
 20
-156.5564982941941
 30
0.0
 10
58.43795489801246
 20
-156.6116374608472
 30
0.0
 10
58.48272239687034
 20
-156.6564049608357
 30
0.0
 10
58.53786156213029
 20
-156.6564049608357
 30
0.0
 10
58.59367100515092
 20
-156.6564049608357
 30
0.0
 10
58.6384385040088
 20
-156.6116374608472
 30
0.0
 10
58.6384385040088
 20
-156.5564982941941
 30
0.0
  0
INSERT
  5
4B
330
1F
100
AcDbEntity
  8
_U+30EC_U+30A4_U+30E4_U+30FC 1
100
AcDbBlockReference
  2
block 2
 10
0.0
 20
0.0
 30
0.0
  0
POLYLINE
  5
5E
330
1F
100
AcDbEntity
  8
_U+30EC_U+30A4_U+30E4_U+30FC 1
 62
   179
420
  2234388
370
     9
100
AcDb2dPolyline
 66
     1
 10
0.0
 20
0.0
 30
0.0
  0
VERTEX
  5
5F
330
5E
100
AcDbEntity
  8
_U+30EC_U+30A4_U+30E4_U+30FC 1
 62
   179
420
  2234388
370
     9
100
AcDbVertex
100
AcDb2dVertex
 10
62.53829090451528
 20
-99.55604080844445
 30
0.0
  0
VERTEX
  5
60
330
5E
100
AcDbEntity
  8
_U+30EC_U+30A4_U+30E4_U+30FC 1
 62
   179
420
  2234388
370
     9
100
AcDbVertex
100
AcDb2dVertex
 10
82.53846206093507
 20
-99.55604080844445
 30
0.0
  0
SEQEND
  5
61
330
5E
100
AcDbEntity
  8
_U+30EC_U+30A4_U+30E4_U+30FC 1
 62
   179
420
  2234388
370
     9
  0
POLYLINE
  5
62
330
1F
100
AcDbEntity
  8
_U+30EC_U+30A4_U+30E4_U+30FC 1
 62
   179
420
  2234388
370
     9
100
AcDb2dPolyline
 66
     1
 10
0.0
 20
0.0
 30
0.0
  0
VERTEX
  5
63
330
62
100
AcDbEntity
  8
_U+30EC_U+30A4_U+30E4_U+30FC 1
 62
   179
420
  2234388
370
     9
100
AcDbVertex
100
AcDb2dVertex
 10
62.53829090451528
 20
-98.0966696976981
 30
0.0
  0
VERTEX
  5
64
330
62
100
AcDbEntity
  8
_U+30EC_U+30A4_U+30E4_U+30FC 1
 62
   179
420
  2234388
370
     9
100
AcDbVertex
100
AcDb2dVertex
 10
62.53829090451528
 20
-100.5557777526388
 30
0.0
  0
SEQEND
  5
65
330
62
100
AcDbEntity
  8
_U+30EC_U+30A4_U+30E4_U+30FC 1
 62
   179
420
  2234388
370
     9
  0
POLYLINE
  5
66
330
1F
100
AcDbEntity
  8
_U+30EC_U+30A4_U+30E4_U+30FC 1
 62
   179
420
  2234388
370
     9
100
AcDb2dPolyline
 66
     1
 10
0.0
 20
0.0
 30
0.0
  0
VERTEX
  5
67
330
66
100
AcDbEntity
  8
_U+30EC_U+30A4_U+30E4_U+30FC 1
 62
   179
420
  2234388
370
     9
100
AcDbVertex
100
AcDb2dVertex
 10
82.53846206093507
 20
-98.0966696976981
 30
0.0
  0
VERTEX
  5
68
330
66
100
AcDbEntity
  8
_U+30EC_U+30A4_U+30E4_U+30FC 1
 62
   179
420
  2234388
370
     9
100
AcDbVertex
100
AcDb2dVertex
 10
82.53846206093507
 20
-101.7560688634498
 30
0.0
  0
SEQEND
  5
69
330
66
100
AcDbEntity
  8
_U+30EC_U+30A4_U+30E4_U+30FC 1
 62
   179
420
  2234388
370
     9
  0
INSERT
  5
6B
330
1F
100
AcDbEntity
  8
_U+30EC_U+30A4_U+30E4_U+30FC 1
100
AcDbBlockReference
  2
block 3
 10
0.0
 20
0.0
 30
0.0
  0
POLYLINE
  5
73
330
1F
100
AcDbEntity
  8
_U+30EC_U+30A4_U+30E4_U+30FC 1
 62
   179
420
  2234388
370
     9
100
AcDb2dPolyline
 66
     1
 10
0.0
 20
0.0
 30
0.0
  0
VERTEX
  5
74
330
73
100
AcDbEntity
  8
_U+30EC_U+30A4_U+30E4_U+30FC 1
 62
   179
420
  2234388
370
     9
100
AcDbVertex
100
AcDb2dVertex
 10
121.5381502326368
 20
-105.0564813626246
 30
0.0
  0
VERTEX
  5
75
330
73
100
AcDbEntity
  8
_U+30EC_U+30A4_U+30E4_U+30FC 1
 62
   179
420
  2234388
370
     9
100
AcDbVertex
100
AcDb2dVertex
 10
121.5381502326368
 20
-155.056522461236
 30
0.0
  0
SEQEND
  5
76
330
73
100
AcDbEntity
  8
_U+30EC_U+30A4_U+30E4_U+30FC 1
 62
   179
420
  2234388
370
     9
  0
POLYLINE
  5
77
330
1F
100
AcDbEntity
  8
_U+30EC_U+30A4_U+30E4_U+30FC 1
 62
   179
420
  2234388
370
     9
100
AcDb2dPolyline
 66
     1
 10
0.0
 20
0.0
 30
0.0
  0
VERTEX
  5
78
330
77
100
AcDbEntity
  8
_U+30EC_U+30A4_U+30E4_U+30FC 1
 62
   179
420
  2234388
370
     9
100
AcDbVertex
100
AcDb2dVertex
 10
120.0781088809967
 20
-155.0571927390134
 30
0.0
  0
VERTEX
  5
79
330
77
100
AcDbEntity
  8
_U+30EC_U+30A4_U+30E4_U+30FC 1
 62
   179
420
  2234388
370
     9
100
AcDbVertex
100
AcDb2dVertex
 10
122.5379224293527
 20
-155.0571927390134
 30
0.0
  0
SEQEND
  5
7A
330
77
100
AcDbEntity
  8
_U+30EC_U+30A4_U+30E4_U+30FC 1
 62
   179
420
  2234388
370
     9
  0
POLYLINE
  5
7B
330
1F
100
AcDbEntity
  8
_U+30EC_U+30A4_U+30E4_U+30FC 1
 62
   179
420
  2234388
370
     9
100
AcDb2dPolyline
 66
     1
 10
0.0
 20
0.0
 30
0.0
  0
VERTEX
  5
7C
330
7B
100
AcDbEntity
  8
_U+30EC_U+30A4_U+30E4_U+30FC 1
 62
   179
420
  2234388
370
     9
100
AcDbVertex
100
AcDb2dVertex
 10
85.07817977391925
 20
-105.0564813626246
 30
0.0
  0
VERTEX
  5
7D
330
7B
100
AcDbEntity
  8
_U+30EC_U+30A4_U+30E4_U+30FC 1
 62
   179
420
  2234388
370
     9
100
AcDbVertex
100
AcDb2dVertex
 10
122.5379224293527
 20
-105.0564813626246
 30
0.0
  0
SEQEND
  5
7E
330
7B
100
AcDbEntity
  8
_U+30EC_U+30A4_U+30E4_U+30FC 1
 62
   179
420
  2234388
370
     9
  0
INSERT
  5
80
330
1F
100
AcDbEntity
  8
_U+30EC_U+30A4_U+30E4_U+30FC 1
100
AcDbBlockReference
  2
block 4
 10
0.0
 20
0.0
 30
0.0
  0
POLYLINE
  5
88
330
1F
100
AcDbEntity
  8
_U+30EC_U+30A4_U+30E4_U+30FC 1
 62
   179
420
  2234388
370
     9
100
AcDb2dPolyline
 66
     1
 10
0.0
 20
0.0
 30
0.0
  0
VERTEX
  5
89
330
88
100
AcDbEntity
  8
_U+30EC_U+30A4_U+30E4_U+30FC 1
 62
   179
420
  2234388
370
     9
100
AcDbVertex
100
AcDb2dVertex
 10
121.5381502326368
 20
-103.5564702518887
 30
0.0
  0
VERTEX
  5
8A
330
88
100
AcDbEntity
  8
_U+30EC_U+30A4_U+30E4_U+30FC 1
 62
   179
420
  2234388
370
     9
100
AcDbVertex
100
AcDb2dVertex
 10
121.5381502326368
 20
-105.0564813626246
 30
0.0
  0
SEQEND
  5
8B
330
88
100
AcDbEntity
  8
_U+30EC_U+30A4_U+30E4_U+30FC 1
 62
   179
420
  2234388
370
     9
  0
POLYLINE
  5
8C
330
1F
100
AcDbEntity
  8
_U+30EC_U+30A4_U+30E4_U+30FC 1
 62
   179
420
  2234388
370
     9
100
AcDb2dPolyline
 66
     1
 10
0.0
 20
0.0
 30
0.0
  0
VERTEX
  5
8D
330
8C
100
AcDbEntity
  8
_U+30EC_U+30A4_U+30E4_U+30FC 1
 62
   179
420
  2234388
370
     9
100
AcDbVertex
100
AcDb2dVertex
 10
84.53246784339707
 20
-103.5564702518887
 30
0.0
  0
VERTEX
  5
8E
330
8C
100
AcDbEntity
  8
_U+30EC_U+30A4_U+30E4_U+30FC 1
 62
   179
420
  2234388
370
     9
100
AcDbVertex
100
AcDb2dVertex
 10
122.5379224293527
 20
-103.5564702518887
 30
0.0
  0
SEQEND
  5
8F
330
8C
100
AcDbEntity
  8
_U+30EC_U+30A4_U+30E4_U+30FC 1
 62
   179
420
  2234388
370
     9
  0
INSERT
  5
91
330
1F
100
AcDbEntity
  8
_U+30EC_U+30A4_U+30E4_U+30FC 1
100
AcDbBlockReference
  2
block 5
 10
0.0
 20
0.0
 30
0.0
  0
POLYLINE
  5
A0
330
1F
100
AcDbEntity
  8
_U+30EC_U+30A4_U+30E4_U+30FC 1
 62
   179
420
  2234388
370
     9
100
AcDb2dPolyline
 66
     1
 10
0.0
 20
0.0
 30
0.0
  0
VERTEX
  5
A1
330
A0
100
AcDbEntity
  8
_U+30EC_U+30A4_U+30E4_U+30FC 1
 62
   179
420
  2234388
370
     9
100
AcDbVertex
100
AcDb2dVertex
 10
58.53786156213029
 20
-103.5564702518887
 30
0.0
  0
VERTEX
  5
A2
330
A0
100
AcDbEntity
  8
_U+30EC_U+30A4_U+30E4_U+30FC 1
 62
   179
420
  2234388
370
     9
100
AcDbVertex
100
AcDb2dVertex
 10
58.53786156213029
 20
-156.5564982941941
 30
0.0
  0
SEQEND
  5
A3
330
A0
100
AcDbEntity
  8
_U+30EC_U+30A4_U+30E4_U+30FC 1
 62
   179
420
  2234388
370
     9
  0
POLYLINE
  5
A4
330
1F
100
AcDbEntity
  8
_U+30EC_U+30A4_U+30E4_U+30FC 1
 62
   179
420
  2234388
370
     9
100
AcDb2dPolyline
 66
     1
 10
0.0
 20
0.0
 30
0.0
  0
VERTEX
  5
A5
330
A4
100
AcDbEntity
  8
_U+30EC_U+30A4_U+30E4_U+30FC 1
 62
   179
420
  2234388
370
     9
100
AcDbVertex
100
AcDb2dVertex
 10
59.99790291377042
 20
-103.5564702518887
 30
0.0
  0
VERTEX
  5
A6
330
A4
100
AcDbEntity
  8
_U+30EC_U+30A4_U+30E4_U+30FC 1
 62
   179
420
  2234388
370
     9
100
AcDbVertex
100
AcDb2dVertex
 10
57.53808936541438
 20
-103.5564702518887
 30
0.0
  0
SEQEND
  5
A7
330
A4
100
AcDbEntity
  8
_U+30EC_U+30A4_U+30E4_U+30FC 1
 62
   179
420
  2234388
370
     9
  0
POLYLINE
  5
A8
330
1F
100
AcDbEntity
  8
_U+30EC_U+30A4_U+30E4_U+30FC 1
 62
   179
420
  2234388
370
     9
100
AcDb2dPolyline
 66
     1
 10
0.0
 20
0.0
 30
0.0
  0
VERTEX
  5
A9
330
A8
100
AcDbEntity
  8
_U+30EC_U+30A4_U+30E4_U+30FC 1
 62
   179
420
  2234388
370
     9
100
AcDbVertex
100
AcDb2dVertex
 10
59.99790291377042
 20
-156.5564982941941
 30
0.0
  0
VERTEX
  5
AA
330
A8
100
AcDbEntity
  8
_U+30EC_U+30A4_U+30E4_U+30FC 1
 62
   179
420
  2234388
370
     9
100
AcDbVertex
100
AcDb2dVertex
 10
57.53808936541438
 20
-156.5564982941941
 30
0.0
  0
SEQEND
  5
AB
330
A8
100
AcDbEntity
  8
_U+30EC_U+30A4_U+30E4_U+30FC 1
 62
   179
420
  2234388
370
     9
  0
INSERT
  5
AD
330
1F
100
AcDbEntity
  8
_U+30EC_U+30A4_U+30E4_U+30FC 1
100
AcDbBlockReference
  2
block 6
 10
0.0
 20
0.0
 30
0.0
  0
POLYLINE
  5
B4
330
1F
100
AcDbEntity
  8
_U+30EC_U+30A4_U+30E4_U+30FC 1
 62
   179
420
  2234388
370
     9
100
AcDb2dPolyline
 66
     1
 10
0.0
 20
0.0
 30
0.0
  0
VERTEX
  5
B5
330
B4
100
AcDbEntity
  8
_U+30EC_U+30A4_U+30E4_U+30FC 1
 62
   179
420
  2234388
370
     9
100
AcDbVertex
100
AcDb2dVertex
 10
62.53829090451528
 20
-160.2565374599361
 30
0.0
  0
VERTEX
  5
B6
330
B4
100
AcDbEntity
  8
_U+30EC_U+30A4_U+30E4_U+30FC 1
 62
   179
420
  2234388
370
     9
100
AcDbVertex
100
AcDb2dVertex
 10
117.5383911680125
 20
-160.2565374599361
 30
0.0
  0
SEQEND
  5
B7
330
B4
100
AcDbEntity
  8
_U+30EC_U+30A4_U+30E4_U+30FC 1
 62
   179
420
  2234388
370
     9
  0
POLYLINE
  5
B8
330
1F
100
AcDbEntity
  8
_U+30EC_U+30A4_U+30E4_U+30FC 1
 62
   179
420
  2234388
370
     9
100
AcDb2dPolyline
 66
     1
 10
0.0
 20
0.0
 30
0.0
  0
VERTEX
  5
B9
330
B8
100
AcDbEntity
  8
_U+30EC_U+30A4_U+30E4_U+30FC 1
 62
   179
420
  2234388
370
     9
100
AcDbVertex
100
AcDb2dVertex
 10
62.53829090451528
 20
-99.55604080844445
 30
0.0
  0
VERTEX
  5
BA
330
B8
100
AcDbEntity
  8
_U+30EC_U+30A4_U+30E4_U+30FC 1
 62
   179
420
  2234388
370
     9
100
AcDbVertex
100
AcDb2dVertex
 10
82.53846206093507
 20
-99.55604080844445
 30
0.0
  0
SEQEND
  5
BB
330
B8
100
AcDbEntity
  8
_U+30EC_U+30A4_U+30E4_U+30FC 1
 62
   179
420
  2234388
370
     9
  0
POLYLINE
  5
BC
330
1F
100
AcDbEntity
  8
_U+30EC_U+30A4_U+30E4_U+30FC 1
 62
   179
420
  2234388
370
     9
100
AcDb2dPolyline
 66
     1
 10
0.0
 20
0.0
 30
0.0
  0
VERTEX
  5
BD
330
BC
100
AcDbEntity
  8
_U+30EC_U+30A4_U+30E4_U+30FC 1
 62
   179
420
  2234388
370
     9
100
AcDbVertex
100
AcDb2dVertex
 10
62.53829090451528
 20
-160.2565374599361
 30
0.0
  0
VERTEX
  5
BE
330
BC
100
AcDbEntity
  8
_U+30EC_U+30A4_U+30E4_U+30FC 1
 62
   179
420
  2234388
370
     9
100
AcDbVertex
100
AcDb2dVertex
 10
117.5383911680125
 20
-160.2565374599361
 30
0.0
  0
SEQEND
  5
BF
330
BC
100
AcDbEntity
  8
_U+30EC_U+30A4_U+30E4_U+30FC 1
 62
   179
420
  2234388
370
     9
  0
POLYLINE
  5
C0
330
1F
100
AcDbEntity
  8
_U+30EC_U+30A4_U+30E4_U+30FC 1
 62
   179
420
  2234388
370
     9
100
AcDb2dPolyline
 66
     1
 10
0.0
 20
0.0
 30
0.0
  0
VERTEX
  5
C1
330
C0
100
AcDbEntity
  8
_U+30EC_U+30A4_U+30E4_U+30FC 1
 62
   179
420
  2234388
370
     9
100
AcDbVertex
100
AcDb2dVertex
 10
62.53829090451528
 20
-161.7165788484598
 30
0.0
  0
VERTEX
  5
C2
330
C0
100
AcDbEntity
  8
_U+30EC_U+30A4_U+30E4_U+30FC 1
 62
   179
420
  2234388
370
     9
100
AcDbVertex
100
AcDb2dVertex
 10
62.53829090451528
 20
-159.2567652379635
 30
0.0
  0
SEQEND
  5
C3
330
C0
100
AcDbEntity
  8
_U+30EC_U+30A4_U+30E4_U+30FC 1
 62
   179
420
  2234388
370
     9
  0
POLYLINE
  5
C4
330
1F
100
AcDbEntity
  8
_U+30EC_U+30A4_U+30E4_U+30FC 1
 62
   179
420
  2234388
370
     9
100
AcDb2dPolyline
 66
     1
 10
0.0
 20
0.0
 30
0.0
  0
VERTEX
  5
C5
330
C4
100
AcDbEntity
  8
_U+30EC_U+30A4_U+30E4_U+30FC 1
 62
   179
420
  2234388
370
     9
100
AcDbVertex
100
AcDb2dVertex
 10
117.5383911680125
 20
-161.7165788484598
 30
0.0
  0
VERTEX
  5
C6
330
C4
100
AcDbEntity
  8
_U+30EC_U+30A4_U+30E4_U+30FC 1
 62
   179
420
  2234388
370
     9
100
AcDbVertex
100
AcDb2dVertex
 10
117.5383911680125
 20
-159.2567652379635
 30
0.0
  0
SEQEND
  5
C7
330
C4
100
AcDbEntity
  8
_U+30EC_U+30A4_U+30E4_U+30FC 1
 62
   179
420
  2234388
370
     9
  0
INSERT
  5
C9
330
1F
100
AcDbEntity
  8
_U+30EC_U+30A4_U+30E4_U+30FC 1
100
AcDbBlockReference
  2
block 7
 10
0.0
 20
0.0
 30
0.0
  0
POLYLINE
  5
D0
330
1F
100
AcDbEntity
  8
_U+30EC_U+30A4_U+30E4_U+30FC 1
 62
   179
420
  2234388
370
    25
100
AcDb2dPolyline
 66
     1
 10
0.0
 20
0.0
 30
0.0
  0
VERTEX
  5
D1
330
D0
100
AcDbEntity
  8
_U+30EC_U+30A4_U+30E4_U+30FC 1
 62
   179
420
  2234388
370
    25
100
AcDbVertex
100
AcDb2dVertex
 10
62.53829090451528
 20
-156.5572038497496
 30
0.0
  0
VERTEX
  5
D2
330
D0
100
AcDbEntity
  8
_U+30EC_U+30A4_U+30E4_U+30FC 1
 62
   179
420
  2234388
370
    25
100
AcDbVertex
100
AcDb2dVertex
 10
117.5383911680125
 20
-156.5572038497496
 30
0.0
  0
VERTEX
  5
D3
330
D0
100
AcDbEntity
  8
_U+30EC_U+30A4_U+30E4_U+30FC 1
 62
   179
420
  2234388
370
    25
100
AcDbVertex
100
AcDb2dVertex
 10
117.5383911680125
 20
-155.0571927390134
 30
0.0
  0
VERTEX
  5
D4
330
D0
100
AcDbEntity
  8
_U+30EC_U+30A4_U+30E4_U+30FC 1
 62
   179
420
  2234388
370
    25
100
AcDbVertex
100
AcDb2dVertex
 10
64.03830197735792
 20
-155.0571927390134
 30
0.0
  0
VERTEX
  5
D5
330
D0
100
AcDbEntity
  8
_U+30EC_U+30A4_U+30E4_U+30FC 1
 62
   179
420
  2234388
370
    25
100
AcDbVertex
100
AcDb2dVertex
 10
64.03830197735792
 20
-105.0564813626246
 30
0.0
  0
VERTEX
  5
D6
330
D0
100
AcDbEntity
  8
_U+30EC_U+30A4_U+30E4_U+30FC 1
 62
   179
420
  2234388
370
    25
100
AcDbVertex
100
AcDb2dVertex
 10
82.53846206093507
 20
-105.0564813626246
 30
0.0
  0
VERTEX
  5
D7
330
D0
100
AcDbEntity
  8
_U+30EC_U+30A4_U+30E4_U+30FC 1
 62
   179
420
  2234388
370
    25
100
AcDbVertex
100
AcDb2dVertex
 10
81.99207985265222
 20
-103.5564702518887
 30
0.0
  0
VERTEX
  5
D8
330
D0
100
AcDbEntity
  8
_U+30EC_U+30A4_U+30E4_U+30FC 1
 62
   179
420
  2234388
370
    25
100
AcDbVertex
100
AcDb2dVertex
 10
62.53829090451528
 20
-103.5564702518887
 30
0.0
  0
VERTEX
  5
D9
330
D0
100
AcDbEntity
  8
_U+30EC_U+30A4_U+30E4_U+30FC 1
 62
   179
420
  2234388
370
    25
100
AcDbVertex
100
AcDb2dVertex
 10
62.53829090451528
 20
-156.5572038497496
 30
0.0
  0
SEQEND
  5
DB
330
D0
100
AcDbEntity
  8
_U+30EC_U+30A4_U+30E4_U+30FC 1
 62
   179
420
  2234388
370
    25
  0
HATCH
  5
DA
330
1F
100
AcDbEntity
  8
_U+30EC_U+30A4_U+30E4_U+30FC 1
 62
    41
420
 16705972
100
AcDbHatch
 10
0.0
 20
0.0
 30
0.0
210
0.0
220
0.0
230
1.0
  2
SOLID
 70
     1
 71
     0
 91
        1
 92
        1
 93
        8
 72
     1
 10
62.53829090451528
 20
-156.5572038497496
 11
117.5383911680125
 21
-156.5572038497496
 72
     1
 10
117.5383911680125
 20
-156.5572038497496
 11
117.5383911680125
 21
-155.0571927390134
 72
     1
 10
117.5383911680125
 20
-155.0571927390134
 11
64.03830197735792
 21
-155.0571927390134
 72
     1
 10
64.03830197735792
 20
-155.0571927390134
 11
64.03830197735792
 21
-105.0564813626246
 72
     1
 10
64.03830197735792
 20
-105.0564813626246
 11
82.53846206093507
 21
-105.0564813626246
 72
     1
 10
82.53846206093507
 20
-105.0564813626246
 11
81.99207985265222
 21
-103.5564702518887
 72
     1
 10
81.99207985265222
 20
-103.5564702518887
 11
62.53829090451528
 21
-103.5564702518887
 72
     1
 10
62.53829090451528
 20
-103.5564702518887
 11
62.53829090451528
 21
-156.5572038497496
 97
        0
 75
     2
 76
     1
 98
        0
  0
POLYLINE
  5
DC
330
1F
100
AcDbEntity
  8
_U+30EC_U+30A4_U+30E4_U+30FC 1
 62
   179
420
  2234388
370
     9
100
AcDb2dPolyline
 66
     1
 10
0.0
 20
0.0
 30
0.0
  0
VERTEX
  5
DD
330
DC
100
AcDbEntity
  8
_U+30EC_U+30A4_U+30E4_U+30FC 1
 62
   179
420
  2234388
370
     9
100
AcDbVertex
100
AcDb2dVertex
 10
82.53846206093507
 20
-109.9126791391886
 30
0.0
  0
VERTEX
  5
DE
330
DC
100
AcDbEntity
  8
_U+30EC_U+30A4_U+30E4_U+30FC 1
 62
   179
420
  2234388
370
     9
100
AcDbVertex
100
AcDb2dVertex
 10
82.53846206093507
 20
-106.0569238623745
 30
0.0
  0
SEQEND
  5
DF
330
DC
100
AcDbEntity
  8
_U+30EC_U+30A4_U+30E4_U+30FC 1
 62
   179
420
  2234388
370
     9
  0
POLYLINE
  5
E0
330
1F
100
AcDbEntity
  8
_U+30EC_U+30A4_U+30E4_U+30FC 1
 62
   179
420
  2234388
370
     9
100
AcDb2dPolyline
 66
     1
 10
0.0
 20
0.0
 30
0.0
  0
VERTEX
  5
E1
330
E0
100
AcDbEntity
  8
_U+30EC_U+30A4_U+30E4_U+30FC 1
 62
   179
420
  2234388
370
     9
100
AcDbVertex
100
AcDb2dVertex
 10
82.53846206093507
 20
-106.0569238623745
 30
0.0
  0
VERTEX
  5
E2
330
E0
100
AcDbEntity
  8
_U+30EC_U+30A4_U+30E4_U+30FC 1
 62
   179
420
  2234388
370
     9
100
AcDbVertex
100
AcDb2dVertex
 10
82.27938206754474
 20
-107.0229352510219
 30
0.0
  0
SEQEND
  5
E3
330
E0
100
AcDbEntity
  8
_U+30EC_U+30A4_U+30E4_U+30FC 1
 62
   179
420
  2234388
370
     9
  0
POLYLINE
  5
E4
330
1F
100
AcDbEntity
  8
_U+30EC_U+30A4_U+30E4_U+30FC 1
 62
   179
420
  2234388
370
     9
100
AcDb2dPolyline
 66
     1
 10
0.0
 20
0.0
 30
0.0
  0
VERTEX
  5
E5
330
E4
100
AcDbEntity
  8
_U+30EC_U+30A4_U+30E4_U+30FC 1
 62
   179
420
  2234388
370
     9
100
AcDbVertex
100
AcDb2dVertex
 10
82.53846206093507
 20
-106.0569238623745
 30
0.0
  0
VERTEX
  5
E6
330
E4
100
AcDbEntity
  8
_U+30EC_U+30A4_U+30E4_U+30FC 1
 62
   179
420
  2234388
370
     9
100
AcDbVertex
100
AcDb2dVertex
 10
82.79683649878783
 20
-107.0229352510219
 30
0.0
  0
SEQEND
  5
E7
330
E4
100
AcDbEntity
  8
_U+30EC_U+30A4_U+30E4_U+30FC 1
 62
   179
420
  2234388
370
     9
  0
ENDSEC
  0
SECTION
  2
OBJECTS
  0
DICTIONARY
  5
C
330
0
100
AcDbDictionary
281
     1
  3
ACAD_GROUP
350
D
  3
ACAD_LAYOUT
350
1A
  3
ACAD_MATERIAL
350
3B
  3
ACAD_MLEADERSTYLE
350
E9
  3
ACAD_MLINESTYLE
350
17
  3
ACAD_PLOTSETTINGS
350
19
  3
ACAD_PLOTSTYLENAME
350
E
  3
ACAD_TABLESTYLE
350
E8
  3
ACAD_VISUALSTYLE
350
2A
  0
SUN
  5
3F
330
29
100
AcDbSun
 90
        1
290
     0
 63
     7
421
 16777215
 40
1.0
291
     1
 91
  2455826
 92
 54000000
292
     0
 70
     2
 71
   256
280
     1
  0
DICTIONARY
  5
D
102
{ACAD_REACTORS
330
C
102
}
330
C
100
AcDbDictionary
281
     1
  0
DICTIONARY
  5
1A
102
{ACAD_REACTORS
330
C
102
}
330
C
100
AcDbDictionary
281
     1
  3
Layout1
350
1E
  3
Layout2
350
26
  3
Model
350
22
  0
DICTIONARY
  5
3B
102
{ACAD_REACTORS
330
C
102
}
330
C
100
AcDbDictionary
281
     1
  3
ByBlock
350
3D
  3
ByLayer
350
3C
  3
Global
350
3E
  0
DICTIONARY
  5
E9
102
{ACAD_REACTORS
330
C
102
}
330
C
100
AcDbDictionary
281
     1
  0
DICTIONARY
  5
17
102
{ACAD_REACTORS
330
C
102
}
330
C
100
AcDbDictionary
281
     1
  3
Standard
350
18
  0
DICTIONARY
  5
19
102
{ACAD_REACTORS
330
C
102
}
330
C
100
AcDbDictionary
281
     1
  0
ACDBDICTIONARYWDFLT
  5
E
102
{ACAD_REACTORS
330
C
102
}
330
C
100
AcDbDictionary
281
     1
  3
Normal
350
F
100
AcDbDictionaryWithDefault
340
F
  0
DICTIONARY
  5
E8
102
{ACAD_REACTORS
330
C
102
}
330
C
100
AcDbDictionary
281
     1
  0
DICTIONARY
  5
2A
102
{ACAD_REACTORS
330
C
102
}
330
C
100
AcDbDictionary
281
     1
  3
2dWireframe
350
2F
  3
3D Hidden
350
31
  3
3dWireframe
350
30
  3
Basic
350
32
  3
Brighten
350
36
  3
ColorChange
350
3A
  3
Conceptual
350
34
  3
Dim
350
35
  3
Facepattern
350
39
  3
Flat
350
2B
  3
FlatWithEdges
350
2C
  3
Gouraud
350
2D
  3
GouraudWithEdges
350
2E
  3
Linepattern
350
38
  3
Realistic
350
33
  3
Thicken
350
37
  0
LAYOUT
  5
1E
102
{ACAD_REACTORS
330
1A
102
}
330
1A
100
AcDbPlotSettings
  1

  2
none_device
  4

  6

 40
0.0
 41
0.0
 42
0.0
 43
0.0
 44
0.0
 45
0.0
 46
0.0
 47
0.0
 48
0.0
 49
0.0
140
0.0
141
0.0
142
1.0
143
1.0
 70
   688
 72
     0
 73
     0
 74
     5
  7

 75
    16
 76
     0
 77
     2
 78
   300
147
1.0
148
0.0
149
0.0
100
AcDbLayout
  1
Layout1
 70
     1
 71
     1
 10
0.0
 20
0.0
 11
12.0
 21
9.0
 12
0.0
 22
0.0
 32
0.0
 14
1.000000000000000E+20
 24
1.000000000000000E+20
 34
1.000000000000000E+20
 15
-1.000000000000000E+20
 25
-1.000000000000000E+20
 35
-1.000000000000000E+20
146
0.0
 13
0.0
 23
0.0
 33
0.0
 16
1.0
 26
0.0
 36
0.0
 17
0.0
 27
1.0
 37
0.0
 76
     0
330
1B
  0
LAYOUT
  5
26
102
{ACAD_REACTORS
330
1A
102
}
330
1A
100
AcDbPlotSettings
  1

  2
none_device
  4

  6

 40
0.0
 41
0.0
 42
0.0
 43
0.0
 44
0.0
 45
0.0
 46
0.0
 47
0.0
 48
0.0
 49
0.0
140
0.0
141
0.0
142
1.0
143
1.0
 70
   688
 72
     0
 73
     0
 74
     5
  7

 75
    16
 76
     0
 77
     2
 78
   300
147
1.0
148
0.0
149
0.0
100
AcDbLayout
  1
Layout2
 70
     1
 71
     2
 10
0.0
 20
0.0
 11
0.0
 21
0.0
 12
0.0
 22
0.0
 32
0.0
 14
0.0
 24
0.0
 34
0.0
 15
0.0
 25
0.0
 35
0.0
146
0.0
 13
0.0
 23
0.0
 33
0.0
 16
1.0
 26
0.0
 36
0.0
 17
0.0
 27
1.0
 37
0.0
 76
     0
330
23
  0
LAYOUT
  5
22
102
{ACAD_REACTORS
330
1A
102
}
330
1A
100
AcDbPlotSettings
  1

  2
none_device
  4

  6

 40
0.0
 41
0.0
 42
0.0
 43
0.0
 44
0.0
 45
0.0
 46
0.0
 47
0.0
 48
0.0
 49
0.0
140
0.0
141
0.0
142
1.0
143
1.0
 70
  1712
 72
     0
 73
     0
 74
     0
  7

 75
     0
 76
     0
 77
     2
 78
   300
147
1.0
148
0.0
149
0.0
100
AcDbLayout
  1
Model
 70
     1
 71
     0
 10
0.0
 20
0.0
 11
12.0
 21
9.0
 12
0.0
 22
0.0
 32
0.0
 14
1.000000000000000E+20
 24
1.000000000000000E+20
 34
1.000000000000000E+20
 15
-1.000000000000000E+20
 25
-1.000000000000000E+20
 35
-1.000000000000000E+20
146
0.0
 13
0.0
 23
0.0
 33
0.0
 16
1.0
 26
0.0
 36
0.0
 17
0.0
 27
1.0
 37
0.0
 76
     0
330
1F
331
29
  0
MATERIAL
  5
3D
102
{ACAD_REACTORS
330
3B
102
}
330
3B
100
AcDbMaterial
  1
ByBlock
 72
     1
 94
      127
  0
MATERIAL
  5
3C
102
{ACAD_REACTORS
330
3B
102
}
330
3B
100
AcDbMaterial
  1
ByLayer
 72
     1
 94
      127
  0
MATERIAL
  5
3E
102
{ACAD_REACTORS
330
3B
102
}
330
3B
100
AcDbMaterial
  1
Global
 72
     1
 94
      127
  0
MLINESTYLE
  5
18
102
{ACAD_REACTORS
330
17
102
}
330
17
100
AcDbMlineStyle
  2
Standard
 70
     0
  3

 62
   256
 51
90.0
 52
90.0
 71
     2
 49
0.5
 62
   256
  6
BYLAYER
 49
-0.5
 62
   256
  6
BYLAYER
  0
ACDBPLACEHOLDER
  5
F
102
{ACAD_REACTORS
330
E
102
}
330
E
  0
VISUALSTYLE
  5
2F
102
{ACAD_REACTORS
330
2A
102
}
330
2A
100
AcDbVisualStyle
  2
2dWireframe
 70
     4
177
     2
291
     0
 71
     0
176
     1
 72
     2
176
     1
 73
     0
176
     1
 90
        0
176
     1
 40
-0.6
176
     1
 41
-30.0
176
     1
 62
     5
 63
     7
421
 16777215
176
     1
 74
     1
176
     1
 91
        4
176
     1
 64
     7
176
     1
 65
   257
176
     1
 75
     1
176
     1
175
     1
176
     1
 42
1.0
176
     1
 92
        0
176
     1
 66
   257
176
     1
 43
1.0
176
     1
 76
     1
176
     1
 77
     6
176
     1
 78
     2
176
     1
 67
     7
176
     1
 79
     5
176
     1
170
     0
176
     1
171
     0
176
     1
290
     0
176
     1
 93
        1
176
     1
 44
0.0
176
     1
173
     0
176
     1
  0
VISUALSTYLE
  5
31
102
{ACAD_REACTORS
330
2A
102
}
330
2A
100
AcDbVisualStyle
  2
3D Hidden
 70
     6
177
     2
291
     0
 71
     1
176
     1
 72
     2
176
     1
 73
     2
176
     1
 90
        0
176
     1
 40
-0.6
176
     1
 41
-30.0
176
     1
 62
     5
 63
     7
421
 16777215
176
     1
 74
     2
176
     1
 91
        2
176
     1
 64
     7
176
     1
 65
   257
176
     1
 75
     2
176
     1
175
     1
176
     1
 42
40.0
176
     1
 92
        0
176
     1
 66
   257
176
     1
 43
1.0
176
     1
 76
     1
176
     1
 77
     6
176
     1
 78
     2
176
     1
 67
     7
176
     1
 79
     3
176
     1
170
     0
176
     1
171
     0
176
     1
290
     0
176
     1
 93
        1
176
     1
 44
0.0
176
     1
173
     0
176
     1
  0
VISUALSTYLE
  5
30
102
{ACAD_REACTORS
330
2A
102
}
330
2A
100
AcDbVisualStyle
  2
3dWireframe
 70
     5
177
     2
291
     0
 71
     0
176
     1
 72
     2
176
     1
 73
     0
176
     1
 90
        0
176
     1
 40
-0.6
176
     1
 41
-30.0
176
     1
 62
     5
 63
     7
421
 16777215
176
     1
 74
     1
176
     1
 91
        4
176
     1
 64
     7
176
     1
 65
   257
176
     1
 75
     1
176
     1
175
     1
176
     1
 42
1.0
176
     1
 92
        0
176
     1
 66
   257
176
     1
 43
1.0
176
     1
 76
     1
176
     1
 77
     6
176
     1
 78
     2
176
     1
 67
     7
176
     1
 79
     5
176
     1
170
     0
176
     1
171
     0
176
     1
290
     0
176
     1
 93
        1
176
     1
 44
0.0
176
     1
173
     0
176
     1
  0
VISUALSTYLE
  5
32
102
{ACAD_REACTORS
330
2A
102
}
330
2A
100
AcDbVisualStyle
  2
Basic
 70
     7
177
     2
291
     1
 71
     1
176
     1
 72
     0
176
     1
 73
     1
176
     1
 90
        0
176
     1
 40
-0.6
176
     1
 41
-30.0
176
     1
 62
     5
 63
     7
421
 16777215
176
     1
 74
     0
176
     1
 91
        4
176
     1
 64
     7
176
     1
 65
   257
176
     1
 75
     1
176
     1
175
     1
176
     1
 42
1.0
176
     1
 92
        8
176
     1
 66
     7
176
     1
 43
1.0
176
     1
 76
     1
176
     1
 77
     6
176
     1
 78
     2
176
     1
 67
     7
176
     1
 79
     5
176
     1
170
     0
176
     1
171
     0
176
     1
290
     0
176
     1
 93
        1
176
     1
 44
0.0
176
     1
173
     0
176
     1
  0
VISUALSTYLE
  5
36
102
{ACAD_REACTORS
330
2A
102
}
330
2A
100
AcDbVisualStyle
  2
Brighten
 70
    12
177
     2
291
     1
 71
     2
176
     1
 72
     2
176
     1
 73
     0
176
     1
 90
        0
176
     1
 40
-0.6
176
     1
 41
-30.0
176
     1
 62
     5
 63
     7
421
 16777215
176
     1
 74
     1
176
     1
 91
        4
176
     1
 64
     7
176
     1
 65
   257
176
     1
 75
     1
176
     1
175
     1
176
     1
 42
1.0
176
     1
 92
        8
176
     1
 66
     7
176
     1
 43
1.0
176
     1
 76
     1
176
     1
 77
     6
176
     1
 78
     2
176
     1
 67
     7
176
     1
 79
     5
176
     1
170
     0
176
     1
171
     0
176
     1
290
     0
176
     1
 93
        1
176
     1
 44
50.0
176
     1
173
     0
176
     1
  0
VISUALSTYLE
  5
3A
102
{ACAD_REACTORS
330
2A
102
}
330
2A
100
AcDbVisualStyle
  2
ColorChange
 70
    16
177
     2
291
     1
 71
     2
176
     1
 72
     2
176
     1
 73
     3
176
     1
 90
        0
176
     1
 40
-0.6
176
     1
 41
-30.0
176
     1
 62
     5
 63
     8
421
  8421504
176
     1
 74
     1
176
     1
 91
        4
176
     1
 64
     7
176
     1
 65
   257
176
     1
 75
     1
176
     1
175
     1
176
     1
 42
1.0
176
     1
 92
        8
176
     1
 66
     8
424
  8421504
176
     1
 43
1.0
176
     1
 76
     1
176
     1
 77
     6
176
     1
 78
     2
176
     1
 67
     7
176
     1
 79
     5
176
     1
170
     0
176
     1
171
     0
176
     1
290
     0
176
     1
 93
        1
176
     1
 44
0.0
176
     1
173
     0
176
     1
  0
VISUALSTYLE
  5
34
102
{ACAD_REACTORS
330
2A
102
}
330
2A
100
AcDbVisualStyle
  2
Conceptual
 70
     9
177
     2
291
     0
 71
     3
176
     1
 72
     2
176
     1
 73
     0
176
     1
 90
        0
176
     1
 40
-0.6
176
     1
 41
-30.0
176
     1
 62
     5
 63
     7
421
 16777215
176
     1
 74
     2
176
     1
 91
        2
176
     1
 64
     7
176
     1
 65
   257
176
     1
 75
     1
176
     1
175
     1
176
     1
 42
40.0
176
     1
 92
        8
176
     1
 66
     7
176
     1
 43
1.0
176
     1
 76
     1
176
     1
 77
     6
176
     1
 78
     2
176
     1
 67
     7
176
     1
 79
     3
176
     1
170
     0
176
     1
171
     0
176
     1
290
     0
176
     1
 93
        1
176
     1
 44
0.0
176
     1
173
     0
176
     1
  0
VISUALSTYLE
  5
35
102
{ACAD_REACTORS
330
2A
102
}
330
2A
100
AcDbVisualStyle
  2
Dim
 70
    11
177
     2
291
     1
 71
     2
176
     1
 72
     2
176
     1
 73
     0
176
     1
 90
        0
176
     1
 40
-0.6
176
     1
 41
-30.0
176
     1
 62
     5
 63
     7
421
 16777215
176
     1
 74
     1
176
     1
 91
        4
176
     1
 64
     7
176
     1
 65
   257
176
     1
 75
     1
176
     1
175
     1
176
     1
 42
1.0
176
     1
 92
        8
176
     1
 66
     7
176
     1
 43
1.0
176
     1
 76
     1
176
     1
 77
     6
176
     1
 78
     2
176
     1
 67
     7
176
     1
 79
     5
176
     1
170
     0
176
     1
171
     0
176
     1
290
     0
176
     1
 93
        1
176
     1
 44
-50.0
176
     1
173
     0
176
     1
  0
VISUALSTYLE
  5
39
102
{ACAD_REACTORS
330
2A
102
}
330
2A
100
AcDbVisualStyle
  2
Facepattern
 70
    15
177
     2
291
     1
 71
     2
176
     1
 72
     2
176
     1
 73
     0
176
     1
 90
        0
176
     1
 40
-0.6
176
     1
 41
-30.0
176
     1
 62
     5
 63
     7
421
 16777215
176
     1
 74
     1
176
     1
 91
        4
176
     1
 64
     7
176
     1
 65
   257
176
     1
 75
     1
176
     1
175
     1
176
     1
 42
1.0
176
     1
 92
        8
176
     1
 66
     7
176
     1
 43
1.0
176
     1
 76
     1
176
     1
 77
     6
176
     1
 78
     2
176
     1
 67
     7
176
     1
 79
     5
176
     1
170
     0
176
     1
171
     0
176
     1
290
     0
176
     1
 93
        1
176
     1
 44
0.0
176
     1
173
     0
176
     1
  0
VISUALSTYLE
  5
2B
102
{ACAD_REACTORS
330
2A
102
}
330
2A
100
AcDbVisualStyle
  2
Flat
 70
     0
177
     2
291
     1
 71
     2
176
     1
 72
     1
176
     1
 73
     1
176
     1
 90
        2
176
     1
 40
-0.6
176
     1
 41
30.0
176
     1
 62
     5
 63
     7
421
 16777215
176
     1
 74
     0
176
     1
 91
        4
176
     1
 64
     7
176
     1
 65
   257
176
     1
 75
     1
176
     1
175
     1
176
     1
 42
1.0
176
     1
 92
        8
176
     1
 66
     7
176
     1
 43
1.0
176
     1
 76
     1
176
     1
 77
     6
176
     1
 78
     2
176
     1
 67
     7
176
     1
 79
     5
176
     1
170
     0
176
     1
171
     0
176
     1
290
     0
176
     1
 93
       13
176
     1
 44
0.0
176
     1
173
     0
176
     1
  0
VISUALSTYLE
  5
2C
102
{ACAD_REACTORS
330
2A
102
}
330
2A
100
AcDbVisualStyle
  2
FlatWithEdges
 70
     1
177
     2
291
     1
 71
     2
176
     1
 72
     1
176
     1
 73
     1
176
     1
 90
        2
176
     1
 40
-0.6
176
     1
 41
30.0
176
     1
 62
     5
 63
     7
421
 16777215
176
     1
 74
     1
176
     1
 91
        4
176
     1
 64
     7
176
     1
 65
   257
176
     1
 75
     1
176
     1
175
     1
176
     1
 42
1.0
176
     1
 92
        0
176
     1
 66
   257
176
     1
 43
1.0
176
     1
 76
     1
176
     1
 77
     6
176
     1
 78
     2
176
     1
 67
     7
176
     1
 79
     5
176
     1
170
     0
176
     1
171
     0
176
     1
290
     0
176
     1
 93
       13
176
     1
 44
0.0
176
     1
173
     0
176
     1
  0
VISUALSTYLE
  5
2D
102
{ACAD_REACTORS
330
2A
102
}
330
2A
100
AcDbVisualStyle
  2
Gouraud
 70
     2
177
     2
291
     1
 71
     2
176
     1
 72
     2
176
     1
 73
     1
176
     1
 90
        2
176
     1
 40
-0.6
176
     1
 41
30.0
176
     1
 62
     5
 63
     7
421
 16777215
176
     1
 74
     0
176
     1
 91
        4
176
     1
 64
     7
176
     1
 65
   257
176
     1
 75
     1
176
     1
175
     1
176
     1
 42
1.0
176
     1
 92
        0
176
     1
 66
     7
176
     1
 43
1.0
176
     1
 76
     1
176
     1
 77
     6
176
     1
 78
     2
176
     1
 67
     7
176
     1
 79
     5
176
     1
170
     0
176
     1
171
     0
176
     1
290
     0
176
     1
 93
       13
176
     1
 44
0.0
176
     1
173
     0
176
     1
  0
VISUALSTYLE
  5
2E
102
{ACAD_REACTORS
330
2A
102
}
330
2A
100
AcDbVisualStyle
  2
GouraudWithEdges
 70
     3
177
     2
291
     1
 71
     2
176
     1
 72
     2
176
     1
 73
     1
176
     1
 90
        2
176
     1
 40
-0.6
176
     1
 41
30.0
176
     1
 62
     5
 63
     7
421
 16777215
176
     1
 74
     1
176
     1
 91
        4
176
     1
 64
     7
176
     1
 65
   257
176
     1
 75
     1
176
     1
175
     1
176
     1
 42
1.0
176
     1
 92
        0
176
     1
 66
   257
176
     1
 43
1.0
176
     1
 76
     1
176
     1
 77
     6
176
     1
 78
     2
176
     1
 67
     7
176
     1
 79
     5
176
     1
170
     0
176
     1
171
     0
176
     1
290
     0
176
     1
 93
       13
176
     1
 44
0.0
176
     1
173
     0
176
     1
  0
VISUALSTYLE
  5
38
102
{ACAD_REACTORS
330
2A
102
}
330
2A
100
AcDbVisualStyle
  2
Linepattern
 70
    14
177
     2
291
     1
 71
     2
176
     1
 72
     2
176
     1
 73
     0
176
     1
 90
        0
176
     1
 40
-0.6
176
     1
 41
-30.0
176
     1
 62
     5
 63
     7
421
 16777215
176
     1
 74
     1
176
     1
 91
        4
176
     1
 64
     7
176
     1
 65
   257
176
     1
 75
     7
176
     1
175
     7
176
     1
 42
1.0
176
     1
 92
        8
176
     1
 66
     7
176
     1
 43
1.0
176
     1
 76
     1
176
     1
 77
     6
176
     1
 78
     2
176
     1
 67
     7
176
     1
 79
     5
176
     1
170
     0
176
     1
171
     0
176
     1
290
     0
176
     1
 93
        1
176
     1
 44
0.0
176
     1
173
     0
176
     1
  0
VISUALSTYLE
  5
33
102
{ACAD_REACTORS
330
2A
102
}
330
2A
100
AcDbVisualStyle
  2
Realistic
 70
     8
177
     2
291
     0
 71
     2
176
     1
 72
     2
176
     1
 73
     0
176
     1
 90
        0
176
     1
 40
-0.6
176
     1
 41
-30.0
176
     1
 62
     5
 63
     7
421
 16777215
176
     1
 74
     1
176
     1
 91
        0
176
     1
 64
     7
176
     1
 65
   257
176
     1
 75
     1
176
     1
175
     1
176
     1
 42
1.0
176
     1
 92
        8
176
     1
 66
     8
424
  7895160
176
     1
 43
1.0
176
     1
 76
     1
176
     1
 77
     6
176
     1
 78
     2
176
     1
 67
     7
176
     1
 79
     5
176
     1
170
     0
176
     1
171
     0
176
     1
290
     0
176
     1
 93
       13
176
     1
 44
0.0
176
     1
173
     0
176
     1
  0
VISUALSTYLE
  5
37
102
{ACAD_REACTORS
330
2A
102
}
330
2A
100
AcDbVisualStyle
  2
Thicken
 70
    13
177
     2
291
     1
 71
     2
176
     1
 72
     2
176
     1
 73
     0
176
     1
 90
        0
176
     1
 40
-0.6
176
     1
 41
-30.0
176
     1
 62
     5
 63
     7
421
 16777215
176
     1
 74
     1
176
     1
 91
        4
176
     1
 64
     7
176
     1
 65
   257
176
     1
 75
     1
176
     1
175
     1
176
     1
 42
1.0
176
     1
 92
       12
176
     1
 66
     7
176
     1
 43
1.0
176
     1
 76
     1
176
     1
 77
     6
176
     1
 78
     2
176
     1
 67
     7
176
     1
 79
     5
176
     1
170
     0
176
     1
171
     0
176
     1
290
     0
176
     1
 93
        1
176
     1
 44
0.0
176
     1
173
     0
176
     1
  0
ENDSEC
  0
EOF
