  0
SECTION
  2
HEADER
  9
$ACADVER
  1
AC1024
  9
$ACADMAINTVER
 70
     6
  9
$DWGCODEPAGE
  3
UNDEFINED
  9
$INSBASE
 10
0.0
 20
0.0
 30
0.0
  9
$EXTMIN
 10
1.000000000000000E+20
 20
1.000000000000000E+20
 30
1.000000000000000E+20
  9
$EXTMAX
 10
-1.000000000000000E+20
 20
-1.000000000000000E+20
 30
-1.000000000000000E+20
  9
$LIMMIN
 10
0.0
 20
0.0
  9
$LIMMAX
 10
12.0
 20
9.0
  9
$ORTHOMODE
 70
     0
  9
$REGENMODE
 70
     1
  9
$FILLMODE
 70
     1
  9
$QTEXTMODE
 70
     0
  9
$MIRRTEXT
 70
     1
  9
$LTSCALE
 40
1.0
  9
$ATTMODE
 70
     1
  9
$TEXTSIZE
 40
0.2
  9
$TRACEWID
 40
0.05
  9
$TEXTSTYLE
  7
Standard
  9
$CLAYER
  8
0
  9
$CELTYPE
  6
ByLayer
  9
$CECOLOR
 62
   256
  9
$CELTSCALE
 40
1.0
  9
$DISPSILH
 70
     0
  9
$DIMSCALE
 40
1.0
  9
$DIMASZ
 40
0.18
  9
$DIMEXO
 40
0.0625
  9
$DIMDLI
 40
0.38
  9
$DIMRND
 40
0.0
  9
$DIMDLE
 40
0.0
  9
$DIMEXE
 40
0.18
  9
$DIMTP
 40
0.0
  9
$DIMTM
 40
0.0
  9
$DIMTXT
 40
0.18
  9
$DIMCEN
 40
0.09
  9
$DIMTSZ
 40
0.0
  9
$DIMTOL
 70
     0
  9
$DIMLIM
 70
     0
  9
$DIMTIH
 70
     1
  9
$DIMTOH
 70
     1
  9
$DIMSE1
 70
     0
  9
$DIMSE2
 70
     0
  9
$DIMTAD
 70
     0
  9
$DIMZIN
 70
     0
  9
$DIMBLK
  1

  9
$DIMASO
 70
     1
  9
$DIMSHO
 70
     1
  9
$DIMPOST
  1

  9
$DIMAPOST
  1

  9
$DIMALT
 70
     0
  9
$DIMALTD
 70
     2
  9
$DIMALTF
 40
25.4
  9
$DIMLFAC
 40
1.0
  9
$DIMTOFL
 70
     0
  9
$DIMTVP
 40
0.0
  9
$DIMTIX
 70
     0
  9
$DIMSOXD
 70
     0
  9
$DIMSAH
 70
     0
  9
$DIMBLK1
  1

  9
$DIMBLK2
  1

  9
$DIMSTYLE
  2
Standard
  9
$DIMCLRD
 70
     0
  9
$DIMCLRE
 70
     0
  9
$DIMCLRT
 70
     0
  9
$DIMTFAC
 40
1.0
  9
$DIMGAP
 40
0.09
  9
$DIMJUST
 70
     0
  9
$DIMSD1
 70
     0
  9
$DIMSD2
 70
     0
  9
$DIMTOLJ
 70
     1
  9
$DIMTZIN
 70
     0
  9
$DIMALTZ
 70
     0
  9
$DIMALTTZ
 70
     0
  9
$DIMUPT
 70
     0
  9
$DIMDEC
 70
     4
  9
$DIMTDEC
 70
     4
  9
$DIMALTU
 70
     2
  9
$DIMALTTD
 70
     2
  9
$DIMTXSTY
  7
Standard
  9
$DIMAUNIT
 70
     0
  9
$DIMADEC
 70
     0
  9
$DIMALTRND
 40
0.0
  9
$DIMAZIN
 70
     0
  9
$DIMDSEP
 70
    46
  9
$DIMATFIT
 70
     3
  9
$DIMFRAC
 70
     0
  9
$DIMLDRBLK
  1

  9
$DIMLUNIT
 70
     2
  9
$DIMLWD
 70
    -2
  9
$DIMLWE
 70
    -2
  9
$DIMTMOVE
 70
     0
  9
$DIMFXL
 40
1.0
  9
$DIMFXLON
 70
     0
  9
$DIMJOGANG
 40
0.7853981633974483
  9
$DIMTFILL
 70
     0
  9
$DIMTFILLCLR
 70
     0
  9
$DIMARCSYM
 70
     0
  9
$DIMLTYPE
  6

  9
$DIMLTEX1
  6

  9
$DIMLTEX2
  6

  9
$DIMTXTDIRECTION
 70
     0
  9
$LUNITS
 70
     2
  9
$LUPREC
 70
     4
  9
$SKETCHINC
 40
0.1
  9
$FILLETRAD
 40
0.5
  9
$AUNITS
 70
     0
  9
$AUPREC
 70
     0
  9
$MENU
  1
.
  9
$ELEVATION
 40
0.0
  9
$PELEVATION
 40
0.0
  9
$THICKNESS
 40
0.0
  9
$LIMCHECK
 70
     0
  9
$CHAMFERA
 40
0.5
  9
$CHAMFERB
 40
0.5
  9
$CHAMFERC
 40
1.0
  9
$CHAMFERD
 40
0.0
  9
$SKPOLY
 70
     0
  9
$TDCREATE
 40
2457917.59935184
  9
$TDUCREATE
 40
2457917.224351852
  9
$TDUPDATE
 40
2457917.59935184
  9
$TDUUPDATE
 40
2457917.224351852
  9
$TDINDWG
 40
0.0000000116
  9
$TDUSRTIMER
 40
0.0000000116
  9
$USRTIMER
 70
     1
  9
$ANGBASE
 50
0.0
  9
$ANGDIR
 70
     0
  9
$PDMODE
 70
     0
  9
$PDSIZE
 40
0.0
  9
$PLINEWID
 40
0.0
  9
$SPLFRAME
 70
     0
  9
$SPLINETYPE
 70
     6
  9
$SPLINESEGS
 70
     8
  9
$HANDSEED
  5
FD
  9
$SURFTAB1
 70
     6
  9
$SURFTAB2
 70
     6
  9
$SURFTYPE
 70
     6
  9
$SURFU
 70
     6
  9
$SURFV
 70
     6
  9
$UCSBASE
  2

  9
$UCSNAME
  2

  9
$UCSORG
 10
0.0
 20
0.0
 30
0.0
  9
$UCSXDIR
 10
1.0
 20
0.0
 30
0.0
  9
$UCSYDIR
 10
0.0
 20
1.0
 30
0.0
  9
$UCSORTHOREF
  2

  9
$UCSORTHOVIEW
 70
     0
  9
$UCSORGTOP
 10
0.0
 20
0.0
 30
0.0
  9
$UCSORGBOTTOM
 10
0.0
 20
0.0
 30
0.0
  9
$UCSORGLEFT
 10
0.0
 20
0.0
 30
0.0
  9
$UCSORGRIGHT
 10
0.0
 20
0.0
 30
0.0
  9
$UCSORGFRONT
 10
0.0
 20
0.0
 30
0.0
  9
$UCSORGBACK
 10
0.0
 20
0.0
 30
0.0
  9
$PUCSBASE
  2

  9
$PUCSNAME
  2

  9
$PUCSORG
 10
0.0
 20
0.0
 30
0.0
  9
$PUCSXDIR
 10
1.0
 20
0.0
 30
0.0
  9
$PUCSYDIR
 10
0.0
 20
1.0
 30
0.0
  9
$PUCSORTHOREF
  2

  9
$PUCSORTHOVIEW
 70
     0
  9
$PUCSORGTOP
 10
0.0
 20
0.0
 30
0.0
  9
$PUCSORGBOTTOM
 10
0.0
 20
0.0
 30
0.0
  9
$PUCSORGLEFT
 10
0.0
 20
0.0
 30
0.0
  9
$PUCSORGRIGHT
 10
0.0
 20
0.0
 30
0.0
  9
$PUCSORGFRONT
 10
0.0
 20
0.0
 30
0.0
  9
$PUCSORGBACK
 10
0.0
 20
0.0
 30
0.0
  9
$USERI1
 70
     0
  9
$USERI2
 70
     0
  9
$USERI3
 70
     0
  9
$USERI4
 70
     0
  9
$USERI5
 70
     0
  9
$USERR1
 40
0.0
  9
$USERR2
 40
0.0
  9
$USERR3
 40
0.0
  9
$USERR4
 40
0.0
  9
$USERR5
 40
0.0
  9
$WORLDVIEW
 70
     1
  9
$SHADEDGE
 70
     3
  9
$SHADEDIF
 70
    70
  9
$TILEMODE
 70
     1
  9
$MAXACTVP
 70
    64
  9
$PINSBASE
 10
0.0
 20
0.0
 30
0.0
  9
$PLIMCHECK
 70
     0
  9
$PEXTMIN
 10
1.000000000000000E+20
 20
1.000000000000000E+20
 30
1.000000000000000E+20
  9
$PEXTMAX
 10
-1.000000000000000E+20
 20
-1.000000000000000E+20
 30
-1.000000000000000E+20
  9
$PLIMMIN
 10
0.0
 20
0.0
  9
$PLIMMAX
 10
12.0
 20
9.0
  9
$UNITMODE
 70
     0
  9
$VISRETAIN
 70
     1
  9
$PLINEGEN
 70
     0
  9
$PSLTSCALE
 70
     1
  9
$TREEDEPTH
 70
  3020
  9
$CMLSTYLE
  2
Standard
  9
$CMLJUST
 70
     0
  9
$CMLSCALE
 40
1.0
  9
$PROXYGRAPHICS
 70
     1
  9
$MEASUREMENT
 70
     0
  9
$CELWEIGHT
370
    -1
  9
$ENDCAPS
280
     0
  9
$JOINSTYLE
280
     0
  9
$LWDISPLAY
290
     1
  9
$INSUNITS
 70
     1
  9
$HYPERLINKBASE
  1

  9
$STYLESHEET
  1

  9
$XEDIT
290
     1
  9
$CEPSNTYPE
380
     0
  9
$PSTYLEMODE
290
     1
  9
$FINGERPRINTGUID
  2
{6E043DFF-75FC-3D0A-4902-9CB4E0A4A047}
  9
$VERSIONGUID
  2
{FAEB1C32-E019-11D5-929B-00C0DF256EC4}
  9
$EXTNAMES
290
     1
  9
$PSVPSCALE
 40
0.0
  9
$OLESTARTUP
290
     0
  9
$SORTENTS
280
   127
  9
$INDEXCTL
280
     0
  9
$HIDETEXT
280
     1
  9
$XCLIPFRAME
280
     2
  9
$HALOGAP
280
     0
  9
$OBSCOLOR
 70
   257
  9
$OBSLTYPE
280
     0
  9
$INTERSECTIONDISPLAY
280
     0
  9
$INTERSECTIONCOLOR
 70
   257
  9
$DIMASSOC
280
     2
  9
$PROJECTNAME
  1

  9
$CAMERADISPLAY
290
     0
  9
$LENSLENGTH
 40
50.0
  9
$CAMERAHEIGHT
 40
0.0
  9
$STEPSPERSEC
 40
2.0
  9
$STEPSIZE
 40
6.0
  9
$3DDWFPREC
 40
2.0
  9
$PSOLWIDTH
 40
0.25
  9
$PSOLHEIGHT
 40
4.0
  9
$LOFTANG1
 40
1.570796326794897
  9
$LOFTANG2
 40
1.570796326794897
  9
$LOFTMAG1
 40
0.0
  9
$LOFTMAG2
 40
0.0
  9
$LOFTPARAM
 70
     7
  9
$LOFTNORMALS
280
     1
  9
$LATITUDE
 40
37.795
  9
$LONGITUDE
 40
-122.394
  9
$NORTHDIRECTION
 40
0.0
  9
$TIMEZONE
 70
 -8000
  9
$LIGHTGLYPHDISPLAY
280
     1
  9
$TILEMODELIGHTSYNCH
280
     1
  9
$CMATERIAL
347
3C
  9
$SOLIDHIST
280
     1
  9
$SHOWHIST
280
     1
  9
$DWFFRAME
280
     2
  9
$DGNFRAME
280
     2
  9
$REALWORLDSCALE
290
     1
  9
$INTERFERECOLOR
 62
   256
  9
$CSHADOW
280
     0
  9
$SHADOWPLANELOCATION
 40
0.0
  0
ENDSEC
  0
SECTION
  2
CLASSES
  0
CLASS
  1
ACDBDICTIONARYWDFLT
  2
AcDbDictionaryWithDefault
  3
ObjectDBX Classes
 90
        0
 91
        4
280
     0
281
     0
  0
CLASS
  1
VISUALSTYLE
  2
AcDbVisualStyle
  3
ObjectDBX Classes
 90
     4095
 91
        4
280
     0
281
     0
  0
CLASS
  1
MATERIAL
  2
AcDbMaterial
  3
ObjectDBX Classes
 90
     1153
 91
        4
280
     0
281
     0
  0
CLASS
  1
SUN
  2
AcDbSun
  3
SCENEOE
 90
     1024
 91
        4
280
     0
281
     0
  0
ENDSEC
  0
SECTION
  2
TABLES
  0
TABLE
  2
VPORT
  5
8
330
0
100
AcDbSymbolTable
 70
     1
  0
VPORT
  5
29
330
8
100
AcDbSymbolTableRecord
100
AcDbViewportTableRecord
  2
*Active
 70
     0
 10
0.0
 20
0.0
 11
1.0
 21
1.0
 12
0.0
 22
0.0
 13
0.0
 23
0.0
 14
0.5
 24
0.5
 15
0.5
 25
0.5
 16
0.0
 26
0.0
 36
1.0
 17
91.00082462281999
 27
-128.4993055234307
 37
0.0
 40
256.9986110468615
 41
0.7081814508812795
 42
50.0
 43
0.0
 44
0.0
 50
0.0
 51
0.0
 71
     0
 72
   100
 73
     1
 74
     3
 75
     0
 76
     0
 77
     0
 78
     0
281
     0
 65
     1
110
0.0
120
0.0
130
0.0
111
1.0
121
0.0
131
0.0
112
0.0
122
1.0
132
0.0
 79
     0
146
0.0
 60
     3
 61
     5
292
     1
282
     1
141
0.0
142
0.0
 63
   250
361
3F
  0
ENDTAB
  0
TABLE
  2
LTYPE
  5
5
330
0
100
AcDbSymbolTable
 70
     1
  0
LTYPE
  5
14
330
5
100
AcDbSymbolTableRecord
100
AcDbLinetypeTableRecord
  2
ByBlock
 70
     0
  3

 72
    65
 73
     0
 40
0.0
  0
LTYPE
  5
15
330
5
100
AcDbSymbolTableRecord
100
AcDbLinetypeTableRecord
  2
ByLayer
 70
     0
  3

 72
    65
 73
     0
 40
0.0
  0
LTYPE
  5
16
330
5
100
AcDbSymbolTableRecord
100
AcDbLinetypeTableRecord
  2
Continuous
 70
     0
  3
Solid line
 72
    65
 73
     0
 40
0.0
  0
ENDTAB
  0
TABLE
  2
LAYER
  5
2
330
0
100
AcDbSymbolTable
 70
     2
  0
LAYER
  5
10
330
2
100
AcDbSymbolTableRecord
100
AcDbLayerTableRecord
  2
0
 70
     0
 62
     7
  6
Continuous
370
    -3
390
F
347
3E
  0
LAYER
  5
40
330
2
100
AcDbSymbolTableRecord
100
AcDbLayerTableRecord
  2
_U+30EC_U+30A4_U+30E4_U+30FC 1
 70
     0
 62
     7
  6
Continuous
370
    -3
390
F
347
3E
  0
ENDTAB
  0
TABLE
  2
STYLE
  5
3
330
0
100
AcDbSymbolTable
 70
     1
  0
STYLE
  5
11
330
3
100
AcDbSymbolTableRecord
100
AcDbTextStyleTableRecord
  2
Standard
 70
     0
 40
0.0
 41
1.0
 50
0.0
 71
     0
 42
0.2
  3
txt
  4

  0
ENDTAB
  0
TABLE
  2
VIEW
  5
6
330
0
100
AcDbSymbolTable
 70
     0
  0
ENDTAB
  0
TABLE
  2
UCS
  5
7
330
0
100
AcDbSymbolTable
 70
     0
  0
ENDTAB
  0
TABLE
  2
APPID
  5
9
330
0
100
AcDbSymbolTable
 70
     1
  0
APPID
  5
12
330
9
100
AcDbSymbolTableRecord
100
AcDbRegAppTableRecord
  2
ACAD
 70
     0
  0
ENDTAB
  0
TABLE
  2
DIMSTYLE
  5
A
330
0
100
AcDbSymbolTable
 70
     1
100
AcDbDimStyleTable
  0
DIMSTYLE
105
27
330
A
100
AcDbSymbolTableRecord
100
AcDbDimStyleTableRecord
  2
Standard
 70
     0
178
     0
340
11
  0
ENDTAB
  0
TABLE
  2
BLOCK_RECORD
  5
1
330
0
100
AcDbSymbolTable
 70
     7
  0
BLOCK_RECORD
  5
1F
330
1
100
AcDbSymbolTableRecord
100
AcDbBlockTableRecord
  2
*Model_Space
340
22
 70
     0
280
     1
281
     0
  0
BLOCK_RECORD
  5
1B
330
1
100
AcDbSymbolTableRecord
100
AcDbBlockTableRecord
  2
*Paper_Space
340
1E
 70
     0
280
     1
281
     0
  0
BLOCK_RECORD
  5
23
330
1
100
AcDbSymbolTableRecord
100
AcDbBlockTableRecord
  2
*Paper_Space0
340
26
 70
     0
280
     1
281
     0
  0
BLOCK_RECORD
  5
4A
330
1
100
AcDbSymbolTableRecord
100
AcDbBlockTableRecord
  2
block 2
340
0
102
{BLKREFS
331
4B
102
}
 70
     0
280
     1
281
     0
  0
BLOCK_RECORD
  5
6A
330
1
100
AcDbSymbolTableRecord
100
AcDbBlockTableRecord
  2
block 3
340
0
102
{BLKREFS
331
6B
102
}
 70
     0
280
     1
281
     0
  0
BLOCK_RECORD
  5
7A
330
1
100
AcDbSymbolTableRecord
100
AcDbBlockTableRecord
  2
block 4
340
0
102
{BLKREFS
331
7B
102
}
 70
     0
280
     1
281
     0
  0
BLOCK_RECORD
  5
96
330
1
100
AcDbSymbolTableRecord
100
AcDbBlockTableRecord
  2
block 5
340
0
102
{BLKREFS
331
97
102
}
 70
     0
280
     1
281
     0
  0
BLOCK_RECORD
  5
AA
330
1
100
AcDbSymbolTableRecord
100
AcDbBlockTableRecord
  2
block 6
340
0
102
{BLKREFS
331
AB
102
}
 70
     0
280
     1
281
     0
  0
BLOCK_RECORD
  5
BF
330
1
100
AcDbSymbolTableRecord
100
AcDbBlockTableRecord
  2
block 7
340
0
102
{BLKREFS
331
C0
102
}
 70
     0
280
     1
281
     0
  0
ENDTAB
  0
ENDSEC
  0
SECTION
  2
BLOCKS
  0
BLOCK
  5
20
330
1F
100
AcDbEntity
  8
0
100
AcDbBlockBegin
  2
*Model_Space
 70
     0
 10
0.0
 20
0.0
 30
0.0
  3
*Model_Space
  1

  0
ENDBLK
  5
21
330
1F
100
AcDbEntity
  8
0
100
AcDbBlockEnd
  0
BLOCK
  5
1C
330
1B
100
AcDbEntity
 67
     1
  8
0
100
AcDbBlockBegin
  2
*Paper_Space
 70
     0
 10
0.0
 20
0.0
 30
0.0
  3
*Paper_Space
  1

  0
ENDBLK
  5
1D
330
1B
100
AcDbEntity
 67
     1
  8
0
100
AcDbBlockEnd
  0
BLOCK
  5
24
330
23
100
AcDbEntity
  8
0
100
AcDbBlockBegin
  2
*Paper_Space0
 70
     0
 10
0.0
 20
0.0
 30
0.0
  3
*Paper_Space0
  1

  0
ENDBLK
  5
25
330
23
100
AcDbEntity
  8
0
100
AcDbBlockEnd
  0
BLOCK
  5
4C
330
4A
100
AcDbEntity
  8
0
100
AcDbBlockBegin
  2
block 2
 70
     0
 10
0.0
 20
0.0
 30
0.0
  3
block 2
  1

  0
SPLINE
  5
4E
330
4A
100
AcDbEntity
  8
_U+30EC_U+30A4_U+30E4_U+30FC 1
370
     0
100
AcDbSpline
210
0.0
220
0.0
230
1.0
 70
    11
 71
     3
 72
    47
 73
    43
 74
     0
 42
0.0000000001
 43
0.0000000001
 12
1.0
 22
0.0
 32
0.0
 13
1.0
 23
0.0
 33
0.0
 40
0.0
 40
0.0
 40
0.0
 40
0.0
 40
1.0
 40
1.0
 40
1.0
 40
2.0
 40
2.0
 40
2.0
 40
3.0
 40
3.0
 40
3.0
 40
4.0
 40
4.0
 40
4.0
 40
5.0
 40
5.0
 40
5.0
 40
6.0
 40
6.0
 40
6.0
 40
7.0
 40
7.0
 40
7.0
 40
8.0
 40
8.0
 40
8.0
 40
9.0
 40
9.0
 40
9.0
 40
10.0
 40
10.0
 40
10.0
 40
11.0
 40
11.0
 40
11.0
 40
12.0
 40
12.0
 40
12.0
 40
13.0
 40
13.0
 40
13.0
 40
14.0
 40
14.0
 40
14.0
 40
14.0
 10
88.53016897743343
 20
-124.6673258151873
 30
0.0
 10
88.53016897743343
 20
-124.6673258151873
 30
0.0
 10
88.42871091539283
 20
-124.6673258151873
 30
0.0
 10
88.42871091539283
 20
-124.6673258151873
 30
0.0
 10
88.42871091539283
 20
-124.7537977118671
 30
0.0
 10
88.40752357815855
 20
-125.1430935017003
 30
0.0
 10
88.21080862595078
 20
-125.3632351032078
 30
0.0
 10
88.05853540550274
 20
-125.5323892915336
 30
0.0
 10
87.85114065729068
 20
-125.6023247298841
 30
0.0
 10
87.7665635631278
 20
-125.6298854937661
 30
0.0
 10
87.7665635631278
 20
-125.6298854937661
 30
0.0
 10
87.57191566821119
 20
-125.4627983627315
 30
0.0
 10
87.57191566821119
 20
-125.4627983627315
 30
0.0
 10
87.6692396156695
 20
-125.4500515094361
 30
0.0
 10
87.84476723064297
 20
-125.4266248601364
 30
0.0
 10
88.03304169891189
 20
-125.2385226466418
 30
0.0
 10
88.10711125184476
 20
-125.166520151
 30
0.0
 10
88.21080862595078
 20
-125.0269937838474
 30
0.0
 10
88.21080862595078
 20
-124.6673258151873
 30
0.0
 10
88.21080862595078
 20
-124.6673258151873
 30
0.0
 10
87.9801594832133
 20
-124.6673258151873
 30
0.0
 10
87.9801594832133
 20
-124.6673258151873
 30
0.0
 10
87.79412432700981
 20
-124.6673258151873
 30
0.0
 10
87.60791691603205
 20
-124.6714599297696
 30
0.0
 10
87.4217095050543
 20
-124.6862738403562
 30
0.0
 10
87.4217095050543
 20
-124.6862738403562
 30
0.0
 10
87.4217095050543
 20
-124.4661322388487
 30
0.0
 10
87.4217095050543
 20
-124.4661322388487
 30
0.0
 10
87.6099839733232
 20
-124.4809461494353
 30
0.0
 10
87.89558238905042
 20
-124.4854247735662
 30
0.0
 10
87.9801594832133
 20
-124.4854247735662
 30
0.0
 10
87.9801594832133
 20
-124.4854247735662
 30
0.0
 10
88.53016897743343
 20
-124.4854247735662
 30
0.0
 10
88.53016897743343
 20
-124.4854247735662
 30
0.0
 10
88.54928925737657
 20
-124.4854247735662
 30
0.0
 10
88.86658255156809
 20
-124.4854247735662
 30
0.0
 10
89.0951646370144
 20
-124.4661322388487
 30
0.0
 10
89.0951646370144
 20
-124.4661322388487
 30
0.0
 10
89.0951646370144
 20
-124.6862738403562
 30
0.0
 10
89.0951646370144
 20
-124.6862738403562
 30
0.0
 10
88.9068901687455
 20
-124.6714599297696
 30
0.0
 10
88.7186157004766
 20
-124.6673258151873
 30
0.0
 10
88.53016897743343
 20
-124.6673258151873
 30
0.0
  0
SPLINE
  5
4F
330
4A
100
AcDbEntity
  8
_U+30EC_U+30A4_U+30E4_U+30FC 1
370
     0
100
AcDbSpline
210
0.0
220
0.0
230
1.0
 70
    11
 71
     3
 72
    29
 73
    25
 74
     0
 42
0.0000000001
 43
0.0000000001
 12
1.0
 22
0.0
 32
0.0
 13
1.0
 23
0.0
 33
0.0
 40
0.0
 40
0.0
 40
0.0
 40
0.0
 40
1.0
 40
1.0
 40
1.0
 40
2.0
 40
2.0
 40
2.0
 40
3.0
 40
3.0
 40
3.0
 40
4.0
 40
4.0
 40
4.0
 40
5.0
 40
5.0
 40
5.0
 40
6.0
 40
6.0
 40
6.0
 40
7.0
 40
7.0
 40
7.0
 40
8.0
 40
8.0
 40
8.0
 40
8.0
 10
88.42871091539283
 20
-124.138159148653
 30
0.0
 10
88.42871091539283
 20
-124.138159148653
 30
0.0
 10
88.07541637338045
 20
-124.138159148653
 30
0.0
 10
88.07541637338045
 20
-124.138159148653
 30
0.0
 10
87.96327851533557
 20
-124.138159148653
 30
0.0
 10
87.82375214818296
 20
-124.1447048300749
 30
0.0
 10
87.71574840472037
 20
-124.1574516833704
 30
0.0
 10
87.71574840472037
 20
-124.1574516833704
 30
0.0
 10
87.71574840472037
 20
-123.9224961712763
 30
0.0
 10
87.71574840472037
 20
-123.9224961712763
 30
0.0
 10
87.83425968941296
 20
-123.9373100818629
 30
0.0
 10
88.0182277883253
 20
-123.9414441964452
 30
0.0
 10
88.07541637338045
 20
-123.9414441964452
 30
0.0
 10
88.07541637338045
 20
-123.9414441964452
 30
0.0
 10
88.42871091539283
 20
-123.9414441964452
 30
0.0
 10
88.42871091539283
 20
-123.9414441964452
 30
0.0
 10
88.44783119533597
 20
-123.9414441964452
 30
0.0
 10
88.65074731941718
 20
-123.9414441964452
 30
0.0
 10
88.7925129986352
 20
-123.9224961712763
 30
0.0
 10
88.7925129986352
 20
-123.9224961712763
 30
0.0
 10
88.7925129986352
 20
-124.1574516833704
 30
0.0
 10
88.7925129986352
 20
-124.1574516833704
 30
0.0
 10
88.63610566360487
 20
-124.138159148653
 30
0.0
 10
88.44559188327055
 20
-124.138159148653
 30
0.0
 10
88.42871091539283
 20
-124.138159148653
 30
0.0
  0
HATCH
  5
50
330
4A
100
AcDbEntity
  8
_U+30EC_U+30A4_U+30E4_U+30FC 1
 62
   179
420
  2234388
100
AcDbHatch
 10
0.0
 20
0.0
 30
0.0
210
0.0
220
0.0
230
1.0
  2
SOLID
 70
     1
 71
     0
 91
        2
 92
        1
 93
        1
 72
     4
 94
        3
 73
     0
 74
     1
 95
       47
 96
       43
 40
0.0
 40
0.0
 40
0.0
 40
0.0
 40
1.0
 40
1.0
 40
1.0
 40
2.0
 40
2.0
 40
2.0
 40
3.0
 40
3.0
 40
3.0
 40
4.0
 40
4.0
 40
4.0
 40
5.0
 40
5.0
 40
5.0
 40
6.0
 40
6.0
 40
6.0
 40
7.0
 40
7.0
 40
7.0
 40
8.0
 40
8.0
 40
8.0
 40
9.0
 40
9.0
 40
9.0
 40
10.0
 40
10.0
 40
10.0
 40
11.0
 40
11.0
 40
11.0
 40
12.0
 40
12.0
 40
12.0
 40
13.0
 40
13.0
 40
13.0
 40
14.0
 40
14.0
 40
14.0
 40
14.0
 10
88.53016897743343
 20
-124.6673258151873
 10
88.53016897743343
 20
-124.6673258151873
 10
88.42871091539283
 20
-124.6673258151873
 10
88.42871091539283
 20
-124.6673258151873
 10
88.42871091539283
 20
-124.7537977118671
 10
88.40752357815855
 20
-125.1430935017003
 10
88.21080862595078
 20
-125.3632351032078
 10
88.05853540550274
 20
-125.5323892915336
 10
87.85114065729068
 20
-125.6023247298841
 10
87.7665635631278
 20
-125.6298854937661
 10
87.7665635631278
 20
-125.6298854937661
 10
87.57191566821119
 20
-125.4627983627315
 10
87.57191566821119
 20
-125.4627983627315
 10
87.6692396156695
 20
-125.4500515094361
 10
87.84476723064297
 20
-125.4266248601364
 10
88.03304169891189
 20
-125.2385226466418
 10
88.10711125184476
 20
-125.166520151
 10
88.21080862595078
 20
-125.0269937838474
 10
88.21080862595078
 20
-124.6673258151873
 10
88.21080862595078
 20
-124.6673258151873
 10
87.9801594832133
 20
-124.6673258151873
 10
87.9801594832133
 20
-124.6673258151873
 10
87.79412432700981
 20
-124.6673258151873
 10
87.60791691603205
 20
-124.6714599297696
 10
87.4217095050543
 20
-124.6862738403562
 10
87.4217095050543
 20
-124.6862738403562
 10
87.4217095050543
 20
-124.4661322388487
 10
87.4217095050543
 20
-124.4661322388487
 10
87.6099839733232
 20
-124.4809461494353
 10
87.89558238905042
 20
-124.4854247735662
 10
87.9801594832133
 20
-124.4854247735662
 10
87.9801594832133
 20
-124.4854247735662
 10
88.53016897743343
 20
-124.4854247735662
 10
88.53016897743343
 20
-124.4854247735662
 10
88.54928925737657
 20
-124.4854247735662
 10
88.86658255156809
 20
-124.4854247735662
 10
89.0951646370144
 20
-124.4661322388487
 10
89.0951646370144
 20
-124.4661322388487
 10
89.0951646370144
 20
-124.6862738403562
 10
89.0951646370144
 20
-124.6862738403562
 10
88.9068901687455
 20
-124.6714599297696
 10
88.7186157004766
 20
-124.6673258151873
 10
88.53016897743343
 20
-124.6673258151873
 97
        0
 97
        0
 92
        1
 93
        1
 72
     4
 94
        3
 73
     0
 74
     1
 95
       29
 96
       25
 40
0.0
 40
0.0
 40
0.0
 40
0.0
 40
1.0
 40
1.0
 40
1.0
 40
2.0
 40
2.0
 40
2.0
 40
3.0
 40
3.0
 40
3.0
 40
4.0
 40
4.0
 40
4.0
 40
5.0
 40
5.0
 40
5.0
 40
6.0
 40
6.0
 40
6.0
 40
7.0
 40
7.0
 40
7.0
 40
8.0
 40
8.0
 40
8.0
 40
8.0
 10
88.42871091539283
 20
-124.138159148653
 10
88.42871091539283
 20
-124.138159148653
 10
88.07541637338045
 20
-124.138159148653
 10
88.07541637338045
 20
-124.138159148653
 10
87.96327851533557
 20
-124.138159148653
 10
87.82375214818296
 20
-124.1447048300749
 10
87.71574840472037
 20
-124.1574516833704
 10
87.71574840472037
 20
-124.1574516833704
 10
87.71574840472037
 20
-123.9224961712763
 10
87.71574840472037
 20
-123.9224961712763
 10
87.83425968941296
 20
-123.9373100818629
 10
88.0182277883253
 20
-123.9414441964452
 10
88.07541637338045
 20
-123.9414441964452
 10
88.07541637338045
 20
-123.9414441964452
 10
88.42871091539283
 20
-123.9414441964452
 10
88.42871091539283
 20
-123.9414441964452
 10
88.44783119533597
 20
-123.9414441964452
 10
88.65074731941718
 20
-123.9414441964452
 10
88.7925129986352
 20
-123.9224961712763
 10
88.7925129986352
 20
-123.9224961712763
 10
88.7925129986352
 20
-124.1574516833704
 10
88.7925129986352
 20
-124.1574516833704
 10
88.63610566360487
 20
-124.138159148653
 10
88.44559188327055
 20
-124.138159148653
 10
88.42871091539283
 20
-124.138159148653
 97
        0
 97
        0
 75
     2
 76
     1
 98
        0
  0
SPLINE
  5
51
330
4A
100
AcDbEntity
  8
_U+30EC_U+30A4_U+30E4_U+30FC 1
370
     0
100
AcDbSpline
210
0.0
220
0.0
230
1.0
 70
    11
 71
     3
 72
    29
 73
    25
 74
     0
 42
0.0000000001
 43
0.0000000001
 12
1.0
 22
0.0
 32
0.0
 13
1.0
 23
0.0
 33
0.0
 40
0.0
 40
0.0
 40
0.0
 40
0.0
 40
1.0
 40
1.0
 40
1.0
 40
2.0
 40
2.0
 40
2.0
 40
3.0
 40
3.0
 40
3.0
 40
4.0
 40
4.0
 40
4.0
 40
5.0
 40
5.0
 40
5.0
 40
6.0
 40
6.0
 40
6.0
 40
7.0
 40
7.0
 40
7.0
 40
8.0
 40
8.0
 40
8.0
 40
8.0
 10
90.3760511384303
 20
-124.8299343220911
 30
0.0
 10
90.3760511384303
 20
-124.8299343220911
 30
0.0
 10
89.89167071320416
 20
-124.8299343220911
 30
0.0
 10
89.89167071320416
 20
-124.8299343220911
 30
0.0
 10
89.86410994932217
 20
-124.8299343220911
 30
0.0
 10
89.54681665513066
 20
-124.8299343220911
 30
0.0
 10
89.33528779233632
 20
-124.855428028682
 30
0.0
 10
89.33528779233632
 20
-124.855428028682
 30
0.0
 10
89.33528779233632
 20
-124.6249511407188
 30
0.0
 10
89.33528779233632
 20
-124.6249511407188
 30
0.0
 10
89.49393443943208
 20
-124.6480332804699
 30
0.0
 10
89.68427596499212
 20
-124.6504448473096
 30
0.0
 10
89.89167071320416
 20
-124.6504448473096
 30
0.0
 10
89.89167071320416
 20
-124.6504448473096
 30
0.0
 10
90.3760511384303
 20
-124.6504448473096
 30
0.0
 10
90.3760511384303
 20
-124.6504448473096
 30
0.0
 10
90.56208629463379
 20
-124.6504448473096
 30
0.0
 10
90.7484659603858
 20
-124.6480332804699
 30
0.0
 10
90.93243405929815
 20
-124.6249511407188
 30
0.0
 10
90.93243405929815
 20
-124.6249511407188
 30
0.0
 10
90.93243405929815
 20
-124.855428028682
 30
0.0
 10
90.93243405929815
 20
-124.855428028682
 30
0.0
 10
90.7484659603858
 20
-124.8323458889308
 30
0.0
 10
90.50076359499634
 20
-124.8299343220911
 30
0.0
 10
90.3760511384303
 20
-124.8299343220911
 30
0.0
  0
HATCH
  5
52
330
4A
100
AcDbEntity
  8
_U+30EC_U+30A4_U+30E4_U+30FC 1
 62
   179
420
  2234388
100
AcDbHatch
 10
0.0
 20
0.0
 30
0.0
210
0.0
220
0.0
230
1.0
  2
SOLID
 70
     1
 71
     0
 91
        1
 92
        1
 93
        1
 72
     4
 94
        3
 73
     0
 74
     1
 95
       29
 96
       25
 40
0.0
 40
0.0
 40
0.0
 40
0.0
 40
1.0
 40
1.0
 40
1.0
 40
2.0
 40
2.0
 40
2.0
 40
3.0
 40
3.0
 40
3.0
 40
4.0
 40
4.0
 40
4.0
 40
5.0
 40
5.0
 40
5.0
 40
6.0
 40
6.0
 40
6.0
 40
7.0
 40
7.0
 40
7.0
 40
8.0
 40
8.0
 40
8.0
 40
8.0
 10
90.3760511384303
 20
-124.8299343220911
 10
90.3760511384303
 20
-124.8299343220911
 10
89.89167071320416
 20
-124.8299343220911
 10
89.89167071320416
 20
-124.8299343220911
 10
89.86410994932217
 20
-124.8299343220911
 10
89.54681665513066
 20
-124.8299343220911
 10
89.33528779233632
 20
-124.855428028682
 10
89.33528779233632
 20
-124.855428028682
 10
89.33528779233632
 20
-124.6249511407188
 10
89.33528779233632
 20
-124.6249511407188
 10
89.49393443943208
 20
-124.6480332804699
 10
89.68427596499212
 20
-124.6504448473096
 10
89.89167071320416
 20
-124.6504448473096
 10
89.89167071320416
 20
-124.6504448473096
 10
90.3760511384303
 20
-124.6504448473096
 10
90.3760511384303
 20
-124.6504448473096
 10
90.56208629463379
 20
-124.6504448473096
 10
90.7484659603858
 20
-124.6480332804699
 10
90.93243405929815
 20
-124.6249511407188
 10
90.93243405929815
 20
-124.6249511407188
 10
90.93243405929815
 20
-124.855428028682
 10
90.93243405929815
 20
-124.855428028682
 10
90.7484659603858
 20
-124.8323458889308
 10
90.50076359499634
 20
-124.8299343220911
 10
90.3760511384303
 20
-124.8299343220911
 97
        0
 97
        0
 75
     2
 76
     1
 98
        0
  0
SPLINE
  5
53
330
4A
100
AcDbEntity
  8
_U+30EC_U+30A4_U+30E4_U+30FC 1
370
     0
100
AcDbSpline
210
0.0
220
0.0
230
1.0
 70
    11
 71
     3
 72
    29
 73
    25
 74
     0
 42
0.0000000001
 43
0.0000000001
 12
1.0
 22
0.0
 32
0.0
 13
1.0
 23
0.0
 33
0.0
 40
0.0
 40
0.0
 40
0.0
 40
0.0
 40
1.0
 40
1.0
 40
1.0
 40
2.0
 40
2.0
 40
2.0
 40
3.0
 40
3.0
 40
3.0
 40
4.0
 40
4.0
 40
4.0
 40
5.0
 40
5.0
 40
5.0
 40
6.0
 40
6.0
 40
6.0
 40
7.0
 40
7.0
 40
7.0
 40
8.0
 40
8.0
 40
8.0
 40
8.0
 10
91.85382484682822
 20
-124.2735514012233
 30
0.0
 10
91.83487682165934
 20
-124.324538814405
 30
0.0
 10
91.77975529389535
 20
-124.5295219957773
 30
0.0
 10
91.76080726872647
 20
-124.5994574341279
 30
0.0
 10
91.6908718303759
 20
-124.8640407673951
 30
0.0
 10
91.54927840593213
 20
-125.1771999470043
 30
0.0
 10
91.33551023107238
 20
-125.420423688263
 30
0.0
 10
91.33551023107238
 20
-125.420423688263
 30
0.0
 10
91.11950274414721
 20
-125.3187933714481
 30
0.0
 10
91.11950274414721
 20
-125.3187933714481
 30
0.0
 10
91.24869382484408
 20
-125.1834011188778
 30
0.0
 10
91.35859237082354
 20
-125.0393961275943
 30
0.0
 10
91.46246199970383
 20
-124.8027180677577
 30
0.0
 10
91.55789114464525
 20
-124.5825764662502
 30
0.0
 10
91.623347958865
 20
-124.3500325209958
 30
0.0
 10
91.64022892674272
 20
-124.1088758370283
 30
0.0
 10
91.64022892674272
 20
-124.1088758370283
 30
0.0
 10
91.88345266800137
 20
-124.1743326512481
 30
0.0
 10
91.88345266800137
 20
-124.1743326512481
 30
0.0
 10
91.8961995212968
 20
-124.1784667658304
 30
0.0
 10
91.93650713847421
 20
-124.1912136191258
 30
0.0
 10
91.93650713847421
 20
-124.2146402684255
 30
0.0
 10
91.93650713847421
 20
-124.241856522759
 30
0.0
 10
91.90481226000992
 20
-124.2546033760544
 30
0.0
 10
91.85382484682822
 20
-124.2735514012233
 30
0.0
  0
SPLINE
  5
54
330
4A
100
AcDbEntity
  8
_U+30EC_U+30A4_U+30E4_U+30FC 1
370
     0
100
AcDbSpline
210
0.0
220
0.0
230
1.0
 70
    11
 71
     3
 72
    23
 73
    19
 74
     0
 42
0.0000000001
 43
0.0000000001
 12
1.0
 22
0.0
 32
0.0
 13
1.0
 23
0.0
 33
0.0
 40
0.0
 40
0.0
 40
0.0
 40
0.0
 40
1.0
 40
1.0
 40
1.0
 40
2.0
 40
2.0
 40
2.0
 40
3.0
 40
3.0
 40
3.0
 40
4.0
 40
4.0
 40
4.0
 40
5.0
 40
5.0
 40
5.0
 40
6.0
 40
6.0
 40
6.0
 40
6.0
 10
92.74886065389612
 20
-125.3418755111993
 30
0.0
 10
92.72543400459642
 20
-125.1982150294643
 30
0.0
 10
92.68960501154983
 20
-124.9973659626743
 30
0.0
 10
92.57522784143953
 20
-124.7562092787068
 30
0.0
 10
92.5542127589795
 20
-124.7117675469471
 30
0.0
 10
92.40607365311376
 20
-124.4175563925067
 30
0.0
 10
92.25380043266573
 20
-124.2294541790121
 30
0.0
 10
92.25380043266573
 20
-124.2294541790121
 30
0.0
 10
92.42950030241346
 20
-124.1171440661929
 30
0.0
 10
92.42950030241346
 20
-124.1171440661929
 30
0.0
 10
92.5542127589795
 20
-124.2735514012233
 30
0.0
 10
92.63655054107697
 20
-124.4027424819202
 30
0.0
 10
92.75712888306072
 20
-124.6376979940142
 30
0.0
 10
92.88838702104874
 20
-124.8936685885683
 30
0.0
 10
92.93282875280846
 20
-125.0245822170077
 30
0.0
 10
92.98140459915048
 20
-125.2636718436841
 30
0.0
 10
92.98140459915048
 20
-125.2636718436841
 30
0.0
 10
92.74886065389612
 20
-125.3418755111993
 30
0.0
 10
92.74886065389612
 20
-125.3418755111993
 30
0.0
  0
SPLINE
  5
55
330
4A
100
AcDbEntity
  8
_U+30EC_U+30A4_U+30E4_U+30FC 1
370
     0
100
AcDbSpline
210
0.0
220
0.0
230
1.0
 70
    11
 71
     3
 72
    17
 73
    13
 74
     0
 42
0.0000000001
 43
0.0000000001
 12
1.0
 22
0.0
 32
0.0
 13
1.0
 23
0.0
 33
0.0
 40
0.0
 40
0.0
 40
0.0
 40
0.0
 40
1.0
 40
1.0
 40
1.0
 40
2.0
 40
2.0
 40
2.0
 40
3.0
 40
3.0
 40
3.0
 40
4.0
 40
4.0
 40
4.0
 40
4.0
 10
92.87357311046216
 20
-124.2187743830078
 30
0.0
 10
92.74679359660497
 20
-124.2187743830078
 30
0.0
 10
92.6451632797901
 20
-124.1171440661929
 30
0.0
 10
92.6451632797901
 20
-123.9903645523357
 30
0.0
 10
92.6451632797901
 20
-123.86324052893
 30
0.0
 10
92.74679359660497
 20
-123.759543154824
 30
0.0
 10
92.87357311046216
 20
-123.759543154824
 30
0.0
 10
93.00035262431936
 20
-123.759543154824
 30
0.0
 10
93.10404999842538
 20
-123.86324052893
 30
0.0
 10
93.10404999842538
 20
-123.9903645523357
 30
0.0
 10
93.10404999842538
 20
-124.1171440661929
 30
0.0
 10
93.00035262431936
 20
-124.2187743830078
 30
0.0
 10
92.87357311046216
 20
-124.2187743830078
 30
0.0
  0
SPLINE
  5
56
330
4A
100
AcDbEntity
  8
_U+30EC_U+30A4_U+30E4_U+30FC 1
370
     0
100
AcDbSpline
210
0.0
220
0.0
230
1.0
 70
    11
 71
     3
 72
    17
 73
    13
 74
     0
 42
0.0000000001
 43
0.0000000001
 12
1.0
 22
0.0
 32
0.0
 13
1.0
 23
0.0
 33
0.0
 40
0.0
 40
0.0
 40
0.0
 40
0.0
 40
1.0
 40
1.0
 40
1.0
 40
2.0
 40
2.0
 40
2.0
 40
3.0
 40
3.0
 40
3.0
 40
4.0
 40
4.0
 40
4.0
 40
4.0
 10
92.87564016775332
 20
-123.8866671782297
 30
0.0
 10
92.82086314953784
 20
-123.8866671782297
 30
0.0
 10
92.77400985093844
 20
-123.9311089099894
 30
0.0
 10
92.77400985093844
 20
-123.9879529854961
 30
0.0
 10
92.77400985093844
 20
-124.0430745132601
 30
0.0
 10
92.81845158269817
 20
-124.0940619264418
 30
0.0
 10
92.87564016775332
 20
-124.0940619264418
 30
0.0
 10
92.93489581009962
 20
-124.0940619264418
 30
0.0
 10
92.97727048456818
 20
-124.0410074559689
 30
0.0
 10
92.97727048456818
 20
-123.9858859282049
 30
0.0
 10
92.97727048456818
 20
-123.9290418526983
 30
0.0
 10
92.93076169551732
 20
-123.8866671782297
 30
0.0
 10
92.87564016775332
 20
-123.8866671782297
 30
0.0
  0
HATCH
  5
57
330
4A
100
AcDbEntity
  8
_U+30EC_U+30A4_U+30E4_U+30FC 1
 62
   179
420
  2234388
100
AcDbHatch
 10
0.0
 20
0.0
 30
0.0
210
0.0
220
0.0
230
1.0
  2
SOLID
 70
     1
 71
     0
 91
        4
 92
        1
 93
        1
 72
     4
 94
        3
 73
     0
 74
     1
 95
       29
 96
       25
 40
0.0
 40
0.0
 40
0.0
 40
0.0
 40
1.0
 40
1.0
 40
1.0
 40
2.0
 40
2.0
 40
2.0
 40
3.0
 40
3.0
 40
3.0
 40
4.0
 40
4.0
 40
4.0
 40
5.0
 40
5.0
 40
5.0
 40
6.0
 40
6.0
 40
6.0
 40
7.0
 40
7.0
 40
7.0
 40
8.0
 40
8.0
 40
8.0
 40
8.0
 10
91.85382484682822
 20
-124.2735514012233
 10
91.83487682165934
 20
-124.324538814405
 10
91.77975529389535
 20
-124.5295219957773
 10
91.76080726872647
 20
-124.5994574341279
 10
91.6908718303759
 20
-124.8640407673951
 10
91.54927840593213
 20
-125.1771999470043
 10
91.33551023107238
 20
-125.420423688263
 10
91.33551023107238
 20
-125.420423688263
 10
91.11950274414721
 20
-125.3187933714481
 10
91.11950274414721
 20
-125.3187933714481
 10
91.24869382484408
 20
-125.1834011188778
 10
91.35859237082354
 20
-125.0393961275943
 10
91.46246199970383
 20
-124.8027180677577
 10
91.55789114464525
 20
-124.5825764662502
 10
91.623347958865
 20
-124.3500325209958
 10
91.64022892674272
 20
-124.1088758370283
 10
91.64022892674272
 20
-124.1088758370283
 10
91.88345266800137
 20
-124.1743326512481
 10
91.88345266800137
 20
-124.1743326512481
 10
91.8961995212968
 20
-124.1784667658304
 10
91.93650713847421
 20
-124.1912136191258
 10
91.93650713847421
 20
-124.2146402684255
 10
91.93650713847421
 20
-124.241856522759
 10
91.90481226000992
 20
-124.2546033760544
 10
91.85382484682822
 20
-124.2735514012233
 97
        0
 97
        0
 92
        1
 93
        1
 72
     4
 94
        3
 73
     0
 74
     1
 95
       23
 96
       19
 40
0.0
 40
0.0
 40
0.0
 40
0.0
 40
1.0
 40
1.0
 40
1.0
 40
2.0
 40
2.0
 40
2.0
 40
3.0
 40
3.0
 40
3.0
 40
4.0
 40
4.0
 40
4.0
 40
5.0
 40
5.0
 40
5.0
 40
6.0
 40
6.0
 40
6.0
 40
6.0
 10
92.74886065389612
 20
-125.3418755111993
 10
92.72543400459642
 20
-125.1982150294643
 10
92.68960501154983
 20
-124.9973659626743
 10
92.57522784143953
 20
-124.7562092787068
 10
92.5542127589795
 20
-124.7117675469471
 10
92.40607365311376
 20
-124.4175563925067
 10
92.25380043266573
 20
-124.2294541790121
 10
92.25380043266573
 20
-124.2294541790121
 10
92.42950030241346
 20
-124.1171440661929
 10
92.42950030241346
 20
-124.1171440661929
 10
92.5542127589795
 20
-124.2735514012233
 10
92.63655054107697
 20
-124.4027424819202
 10
92.75712888306072
 20
-124.6376979940142
 10
92.88838702104874
 20
-124.8936685885683
 10
92.93282875280846
 20
-125.0245822170077
 10
92.98140459915048
 20
-125.2636718436841
 10
92.98140459915048
 20
-125.2636718436841
 10
92.74886065389612
 20
-125.3418755111993
 10
92.74886065389612
 20
-125.3418755111993
 97
        0
 97
        0
 92
        1
 93
        1
 72
     4
 94
        3
 73
     0
 74
     1
 95
       17
 96
       13
 40
0.0
 40
0.0
 40
0.0
 40
0.0
 40
1.0
 40
1.0
 40
1.0
 40
2.0
 40
2.0
 40
2.0
 40
3.0
 40
3.0
 40
3.0
 40
4.0
 40
4.0
 40
4.0
 40
4.0
 10
92.87357311046216
 20
-124.2187743830078
 10
92.74679359660497
 20
-124.2187743830078
 10
92.6451632797901
 20
-124.1171440661929
 10
92.6451632797901
 20
-123.9903645523357
 10
92.6451632797901
 20
-123.86324052893
 10
92.74679359660497
 20
-123.759543154824
 10
92.87357311046216
 20
-123.759543154824
 10
93.00035262431936
 20
-123.759543154824
 10
93.10404999842538
 20
-123.86324052893
 10
93.10404999842538
 20
-123.9903645523357
 10
93.10404999842538
 20
-124.1171440661929
 10
93.00035262431936
 20
-124.2187743830078
 10
92.87357311046216
 20
-124.2187743830078
 97
        0
 97
        0
 92
        1
 93
        1
 72
     4
 94
        3
 73
     0
 74
     1
 95
       17
 96
       13
 40
0.0
 40
0.0
 40
0.0
 40
0.0
 40
1.0
 40
1.0
 40
1.0
 40
2.0
 40
2.0
 40
2.0
 40
3.0
 40
3.0
 40
3.0
 40
4.0
 40
4.0
 40
4.0
 40
4.0
 10
92.87564016775332
 20
-123.8866671782297
 10
92.82086314953784
 20
-123.8866671782297
 10
92.77400985093844
 20
-123.9311089099894
 10
92.77400985093844
 20
-123.9879529854961
 10
92.77400985093844
 20
-124.0430745132601
 10
92.81845158269817
 20
-124.0940619264418
 10
92.87564016775332
 20
-124.0940619264418
 10
92.93489581009962
 20
-124.0940619264418
 10
92.97727048456818
 20
-124.0410074559689
 10
92.97727048456818
 20
-123.9858859282049
 10
92.97727048456818
 20
-123.9290418526983
 10
92.93076169551732
 20
-123.8866671782297
 10
92.87564016775332
 20
-123.8866671782297
 97
        0
 97
        0
 75
     2
 76
     1
 98
        0
  0
SPLINE
  5
58
330
4A
100
AcDbEntity
  8
_U+30EC_U+30A4_U+30E4_U+30FC 1
370
     0
100
AcDbSpline
210
0.0
220
0.0
230
1.0
 70
    11
 71
     3
 72
    29
 73
    25
 74
     0
 42
0.0000000001
 43
0.0000000001
 12
1.0
 22
0.0
 32
0.0
 13
1.0
 23
0.0
 33
0.0
 40
0.0
 40
0.0
 40
0.0
 40
0.0
 40
1.0
 40
1.0
 40
1.0
 40
2.0
 40
2.0
 40
2.0
 40
3.0
 40
3.0
 40
3.0
 40
4.0
 40
4.0
 40
4.0
 40
5.0
 40
5.0
 40
5.0
 40
6.0
 40
6.0
 40
6.0
 40
7.0
 40
7.0
 40
7.0
 40
8.0
 40
8.0
 40
8.0
 40
8.0
 10
94.26435815785753
 20
-124.8299343220911
 30
0.0
 10
94.26435815785753
 20
-124.8299343220911
 30
0.0
 10
93.7799777326314
 20
-124.8299343220911
 30
0.0
 10
93.7799777326314
 20
-124.8299343220911
 30
0.0
 10
93.7524169687494
 20
-124.8299343220911
 30
0.0
 10
93.43512367455789
 20
-124.8299343220911
 30
0.0
 10
93.22359481176355
 20
-124.855428028682
 30
0.0
 10
93.22359481176355
 20
-124.855428028682
 30
0.0
 10
93.22359481176355
 20
-124.6249511407188
 30
0.0
 10
93.22359481176355
 20
-124.6249511407188
 30
0.0
 10
93.38206920408504
 20
-124.6480332804699
 30
0.0
 10
93.57258298441936
 20
-124.6504448473096
 30
0.0
 10
93.7799777326314
 20
-124.6504448473096
 30
0.0
 10
93.7799777326314
 20
-124.6504448473096
 30
0.0
 10
94.26435815785753
 20
-124.6504448473096
 30
0.0
 10
94.26435815785753
 20
-124.6504448473096
 30
0.0
 10
94.45039331406102
 20
-124.6504448473096
 30
0.0
 10
94.63677297981303
 20
-124.6480332804699
 30
0.0
 10
94.82074107872538
 20
-124.6249511407188
 30
0.0
 10
94.82074107872538
 20
-124.6249511407188
 30
0.0
 10
94.82074107872538
 20
-124.855428028682
 30
0.0
 10
94.82074107872538
 20
-124.855428028682
 30
0.0
 10
94.63677297981303
 20
-124.8323458889308
 30
0.0
 10
94.38907061442357
 20
-124.8299343220911
 30
0.0
 10
94.26435815785753
 20
-124.8299343220911
 30
0.0
  0
HATCH
  5
59
330
4A
100
AcDbEntity
  8
_U+30EC_U+30A4_U+30E4_U+30FC 1
 62
   179
420
  2234388
100
AcDbHatch
 10
0.0
 20
0.0
 30
0.0
210
0.0
220
0.0
230
1.0
  2
SOLID
 70
     1
 71
     0
 91
        1
 92
        1
 93
        1
 72
     4
 94
        3
 73
     0
 74
     1
 95
       29
 96
       25
 40
0.0
 40
0.0
 40
0.0
 40
0.0
 40
1.0
 40
1.0
 40
1.0
 40
2.0
 40
2.0
 40
2.0
 40
3.0
 40
3.0
 40
3.0
 40
4.0
 40
4.0
 40
4.0
 40
5.0
 40
5.0
 40
5.0
 40
6.0
 40
6.0
 40
6.0
 40
7.0
 40
7.0
 40
7.0
 40
8.0
 40
8.0
 40
8.0
 40
8.0
 10
94.26435815785753
 20
-124.8299343220911
 10
94.26435815785753
 20
-124.8299343220911
 10
93.7799777326314
 20
-124.8299343220911
 10
93.7799777326314
 20
-124.8299343220911
 10
93.7524169687494
 20
-124.8299343220911
 10
93.43512367455789
 20
-124.8299343220911
 10
93.22359481176355
 20
-124.855428028682
 10
93.22359481176355
 20
-124.855428028682
 10
93.22359481176355
 20
-124.6249511407188
 10
93.22359481176355
 20
-124.6249511407188
 10
93.38206920408504
 20
-124.6480332804699
 10
93.57258298441936
 20
-124.6504448473096
 10
93.7799777326314
 20
-124.6504448473096
 10
93.7799777326314
 20
-124.6504448473096
 10
94.26435815785753
 20
-124.6504448473096
 10
94.26435815785753
 20
-124.6504448473096
 10
94.45039331406102
 20
-124.6504448473096
 10
94.63677297981303
 20
-124.6480332804699
 10
94.82074107872538
 20
-124.6249511407188
 10
94.82074107872538
 20
-124.6249511407188
 10
94.82074107872538
 20
-124.855428028682
 10
94.82074107872538
 20
-124.855428028682
 10
94.63677297981303
 20
-124.8323458889308
 10
94.38907061442357
 20
-124.8299343220911
 10
94.26435815785753
 20
-124.8299343220911
 97
        0
 97
        0
 75
     2
 76
     1
 98
        0
  0
SPLINE
  5
5A
330
4A
100
AcDbEntity
  8
_U+30EC_U+30A4_U+30E4_U+30FC 1
370
     0
100
AcDbSpline
210
0.0
220
0.0
230
1.0
 70
    11
 71
     3
 72
    53
 73
    49
 74
     0
 42
0.0000000001
 43
0.0000000001
 12
1.0
 22
0.0
 32
0.0
 13
1.0
 23
0.0
 33
0.0
 40
0.0
 40
0.0
 40
0.0
 40
0.0
 40
1.0
 40
1.0
 40
1.0
 40
2.0
 40
2.0
 40
2.0
 40
3.0
 40
3.0
 40
3.0
 40
4.0
 40
4.0
 40
4.0
 40
5.0
 40
5.0
 40
5.0
 40
6.0
 40
6.0
 40
6.0
 40
7.0
 40
7.0
 40
7.0
 40
8.0
 40
8.0
 40
8.0
 40
9.0
 40
9.0
 40
9.0
 40
10.0
 40
10.0
 40
10.0
 40
11.0
 40
11.0
 40
11.0
 40
12.0
 40
12.0
 40
12.0
 40
13.0
 40
13.0
 40
13.0
 40
14.0
 40
14.0
 40
14.0
 40
15.0
 40
15.0
 40
15.0
 40
16.0
 40
16.0
 40
16.0
 40
16.0
 10
95.6830484786834
 20
-123.9562581070318
 30
0.0
 10
95.61552460717252
 20
-124.1088758370283
 30
0.0
 10
95.57314993270394
 20
-124.1870795045435
 30
0.0
 10
95.53490937281767
 20
-124.2546033760544
 30
0.0
 10
95.57728404728624
 20
-124.275962968063
 30
0.0
 10
95.58141816186854
 20
-124.2780300253541
 30
0.0
 10
95.58141816186854
 20
-124.2928439359407
 30
0.0
 10
95.58141816186854
 20
-124.3055907892361
 30
0.0
 10
95.54765622611309
 20
-124.3393527249916
 30
0.0
 10
95.53697643010882
 20
-124.3476209541562
 30
0.0
 10
95.53490937281767
 20
-124.5443359063639
 30
0.0
 10
95.53490937281767
 20
-124.5656954983725
 30
0.0
 10
95.53490937281767
 20
-124.6990206936516
 30
0.0
 10
95.53284231552652
 20
-124.7117675469471
 30
0.0
 10
95.53284231552652
 20
-124.7265814575336
 30
0.0
 10
95.53284231552652
 20
-124.7413953681202
 30
0.0
 10
95.53284231552652
 20
-124.7413953681202
 30
0.0
 10
95.53284231552652
 20
-125.2764186969795
 30
0.0
 10
95.53284231552652
 20
-125.2764186969795
 30
0.0
 10
95.53284231552652
 20
-125.3484211926212
 30
0.0
 10
95.53697643010882
 20
-125.5833767047153
 30
0.0
 10
95.54558916882193
 20
-125.6932752506947
 30
0.0
 10
95.54558916882193
 20
-125.6932752506947
 30
0.0
 10
95.3023654275633
 20
-125.6932752506947
 30
0.0
 10
95.3023654275633
 20
-125.6932752506947
 30
0.0
 10
95.32544756731447
 20
-125.5344563488247
 30
0.0
 10
95.33199324873645
 20
-125.2932996648572
 30
0.0
 10
95.33199324873645
 20
-125.2722845823972
 30
0.0
 10
95.33199324873645
 20
-125.2722845823972
 30
0.0
 10
95.33199324873645
 20
-124.5550157023682
 30
0.0
 10
95.33199324873645
 20
-124.5550157023682
 30
0.0
 10
95.24104272792586
 20
-124.6693928724785
 30
0.0
 10
95.1797200282884
 20
-124.7286485148248
 30
0.0
 10
95.13734535381984
 20
-124.7710231892934
 30
0.0
 10
95.13734535381984
 20
-124.7710231892934
 30
0.0
 10
94.94683157348553
 20
-124.6332193698834
 30
0.0
 10
94.94683157348553
 20
-124.6332193698834
 30
0.0
 10
95.22829587463043
 20
-124.4175563925067
 30
0.0
 10
95.42087671225589
 20
-124.1088758370283
 30
0.0
 10
95.53284231552652
 20
-123.7722900081194
 30
0.0
 10
95.53284231552652
 20
-123.7722900081194
 30
0.0
 10
95.75298391703399
 20
-123.8866671782297
 30
0.0
 10
95.75298391703399
 20
-123.8866671782297
 30
0.0
 10
95.7657307703294
 20
-123.8928683501032
 30
0.0
 10
95.773998999494
 20
-123.8970024646855
 30
0.0
 10
95.773998999494
 20
-123.9118163752721
 30
0.0
 10
95.773998999494
 20
-123.9373100818629
 30
0.0
 10
95.75711803161629
 20
-123.9414441964452
 30
0.0
 10
95.6830484786834
 20
-123.9562581070318
 30
0.0
  0
SPLINE
  5
5B
330
4A
100
AcDbEntity
  8
_U+30EC_U+30A4_U+30E4_U+30FC 1
370
     0
100
AcDbSpline
210
0.0
220
0.0
230
1.0
 70
    11
 71
     3
 72
    77
 73
    73
 74
     0
 42
0.0000000001
 43
0.0000000001
 12
1.0
 22
0.0
 32
0.0
 13
1.0
 23
0.0
 33
0.0
 40
0.0
 40
0.0
 40
0.0
 40
0.0
 40
1.0
 40
1.0
 40
1.0
 40
2.0
 40
2.0
 40
2.0
 40
3.0
 40
3.0
 40
3.0
 40
4.0
 40
4.0
 40
4.0
 40
5.0
 40
5.0
 40
5.0
 40
6.0
 40
6.0
 40
6.0
 40
7.0
 40
7.0
 40
7.0
 40
8.0
 40
8.0
 40
8.0
 40
9.0
 40
9.0
 40
9.0
 40
10.0
 40
10.0
 40
10.0
 40
11.0
 40
11.0
 40
11.0
 40
12.0
 40
12.0
 40
12.0
 40
13.0
 40
13.0
 40
13.0
 40
14.0
 40
14.0
 40
14.0
 40
15.0
 40
15.0
 40
15.0
 40
16.0
 40
16.0
 40
16.0
 40
17.0
 40
17.0
 40
17.0
 40
18.0
 40
18.0
 40
18.0
 40
19.0
 40
19.0
 40
19.0
 40
20.0
 40
20.0
 40
20.0
 40
21.0
 40
21.0
 40
21.0
 40
22.0
 40
22.0
 40
22.0
 40
23.0
 40
23.0
 40
23.0
 40
24.0
 40
24.0
 40
24.0
 40
24.0
 10
96.83405488030537
 20
-124.455796952393
 30
0.0
 10
96.7641194419548
 20
-124.4513183282622
 30
0.0
 10
96.69625106089539
 20
-124.4513183282622
 30
0.0
 10
96.62872718938449
 20
-124.4513183282622
 30
0.0
 10
96.62872718938449
 20
-124.4513183282622
 30
0.0
 10
96.62872718938449
 20
-125.2257757933463
 30
0.0
 10
96.62872718938449
 20
-125.2257757933463
 30
0.0
 10
96.62872718938449
 20
-125.490014617065
 30
0.0
 10
96.62666013209333
 20
-125.5196424382382
 30
0.0
 10
96.62011445067137
 20
-125.5492702594113
 30
0.0
 10
96.58635251491592
 20
-125.6825954546905
 30
0.0
 10
96.48472219810104
 20
-125.6912081934036
 30
0.0
 10
96.30936683790183
 20
-125.6912081934036
 30
0.0
 10
96.2690592207244
 20
-125.6912081934036
 30
0.0
 10
96.25217825284668
 20
-125.6912081934036
 30
0.0
 10
96.21187063566926
 20
-125.6867295692728
 30
0.0
 10
96.21187063566926
 20
-125.6867295692728
 30
0.0
 10
96.08715817910321
 20
-125.4455728853053
 30
0.0
 10
96.08715817910321
 20
-125.4455728853053
 30
0.0
 10
96.20360240650466
 20
-125.4776122733181
 30
0.0
 10
96.28594018860213
 20
-125.4776122733181
 30
0.0
 10
96.30936683790183
 20
-125.4776122733181
 30
0.0
 10
96.37895776670388
 20
-125.4776122733181
 30
0.0
 10
96.41306421200785
 20
-125.4603867958918
 30
0.0
 10
96.41719832659015
 20
-125.4035427203852
 30
0.0
 10
96.41719832659015
 20
-125.3907958670898
 30
0.0
 10
96.4192653838813
 20
-125.2932996648572
 30
0.0
 10
96.4192653838813
 20
-125.2361110798021
 30
0.0
 10
96.4192653838813
 20
-125.2361110798021
 30
0.0
 10
96.4192653838813
 20
-124.449251270971
 30
0.0
 10
96.4192653838813
 20
-124.449251270971
 30
0.0
 10
96.4192653838813
 20
-124.449251270971
 30
0.0
 10
96.12505422944096
 20
-124.449251270971
 30
0.0
 10
96.12505422944096
 20
-124.449251270971
 30
0.0
 10
95.9793266904149
 20
-124.449251270971
 30
0.0
 10
95.8332546418403
 20
-124.455796952393
 30
0.0
 10
95.68924965055686
 20
-124.4681992961399
 30
0.0
 10
95.68924965055686
 20
-124.4681992961399
 30
0.0
 10
95.68924965055686
 20
-124.2611490574764
 30
0.0
 10
95.68924965055686
 20
-124.2611490574764
 30
0.0
 10
95.83945581371376
 20
-124.2735514012233
 30
0.0
 10
96.05753035793006
 20
-124.2780300253541
 30
0.0
 10
96.12505422944096
 20
-124.2780300253541
 30
0.0
 10
96.12505422944096
 20
-124.2780300253541
 30
0.0
 10
96.4192653838813
 20
-124.2780300253541
 30
0.0
 10
96.4192653838813
 20
-124.2780300253541
 30
0.0
 10
96.41719832659015
 20
-124.0093125775046
 30
0.0
 10
96.41719832659015
 20
-123.9331759672806
 30
0.0
 10
96.40858558787703
 20
-123.7850368614149
 30
0.0
 10
96.40858558787703
 20
-123.7850368614149
 30
0.0
 10
96.66662323972224
 20
-123.8232774213011
 30
0.0
 10
96.66662323972224
 20
-123.8232774213011
 30
0.0
 10
96.68143715030881
 20
-123.8253444785923
 30
0.0
 10
96.69625106089539
 20
-123.8315456504657
 30
0.0
 10
96.69625106089539
 20
-123.8529052424743
 30
0.0
 10
96.69625106089539
 20
-123.8718532676431
 30
0.0
 10
96.69004988902194
 20
-123.8739203249343
 30
0.0
 10
96.63286130396679
 20
-123.9076822606898
 30
0.0
 10
96.62872718938449
 20
-123.9858859282049
 30
0.0
 10
96.62872718938449
 20
-124.0006998387915
 30
0.0
 10
96.62872718938449
 20
-124.2780300253541
 30
0.0
 10
96.80649411642338
 20
-124.2735514012233
 30
0.0
 10
96.82544214159225
 20
-124.2735514012233
 30
0.0
 10
96.8592040773477
 20
-124.269417286641
 30
0.0
 10
96.9101914905294
 20
-124.2652831720587
 30
0.0
 10
96.9143256051117
 20
-124.2632161147675
 30
0.0
 10
96.95876733687142
 20
-124.2611490574764
 30
0.0
 10
96.95876733687142
 20
-124.2611490574764
 30
0.0
 10
96.95876733687142
 20
-124.4681992961399
 30
0.0
 10
96.95876733687142
 20
-124.4681992961399
 30
0.0
 10
96.92913951569828
 20
-124.4661322388487
 30
0.0
 10
96.87401798793428
 20
-124.4578640096841
 30
0.0
 10
96.83405488030537
 20
-124.455796952393
 30
0.0
  0
SPLINE
  5
5C
330
4A
100
AcDbEntity
  8
_U+30EC_U+30A4_U+30E4_U+30FC 1
370
     0
100
AcDbSpline
210
0.0
220
0.0
230
1.0
 70
    11
 71
     3
 72
    20
 73
    16
 74
     0
 42
0.0000000001
 43
0.0000000001
 12
1.0
 22
0.0
 32
0.0
 13
1.0
 23
0.0
 33
0.0
 40
0.0
 40
0.0
 40
0.0
 40
0.0
 40
1.0
 40
1.0
 40
1.0
 40
2.0
 40
2.0
 40
2.0
 40
3.0
 40
3.0
 40
3.0
 40
4.0
 40
4.0
 40
4.0
 40
5.0
 40
5.0
 40
5.0
 40
5.0
 10
96.06373152980352
 20
-125.1813340615866
 30
0.0
 10
96.01722274075264
 20
-125.0035671345477
 30
0.0
 10
95.92007104806859
 20
-124.861973710104
 30
0.0
 10
95.78054468091598
 20
-124.751730654576
 30
0.0
 10
95.78054468091598
 20
-124.751730654576
 30
0.0
 10
95.94108613052862
 20
-124.6376979940142
 30
0.0
 10
95.94108613052862
 20
-124.6376979940142
 30
0.0
 10
96.00240883016608
 20
-124.6797281589342
 30
0.0
 10
96.0427164473435
 20
-124.7138346042382
 30
0.0
 10
96.11885305756752
 20
-124.8216660929265
 30
0.0
 10
96.19912378237383
 20
-124.938110320328
 30
0.0
 10
96.22048337438238
 20
-124.9908202812523
 30
0.0
 10
96.24563257142471
 20
-125.0566216050206
 30
0.0
 10
96.24563257142471
 20
-125.0566216050206
 30
0.0
 10
96.06373152980352
 20
-125.1813340615866
 30
0.0
 10
96.06373152980352
 20
-125.1813340615866
 30
0.0
  0
HATCH
  5
5D
330
4A
100
AcDbEntity
  8
_U+30EC_U+30A4_U+30E4_U+30FC 1
 62
   179
420
  2234388
100
AcDbHatch
 10
0.0
 20
0.0
 30
0.0
210
0.0
220
0.0
230
1.0
  2
SOLID
 70
     1
 71
     0
 91
        3
 92
        1
 93
        1
 72
     4
 94
        3
 73
     0
 74
     1
 95
       53
 96
       49
 40
0.0
 40
0.0
 40
0.0
 40
0.0
 40
1.0
 40
1.0
 40
1.0
 40
2.0
 40
2.0
 40
2.0
 40
3.0
 40
3.0
 40
3.0
 40
4.0
 40
4.0
 40
4.0
 40
5.0
 40
5.0
 40
5.0
 40
6.0
 40
6.0
 40
6.0
 40
7.0
 40
7.0
 40
7.0
 40
8.0
 40
8.0
 40
8.0
 40
9.0
 40
9.0
 40
9.0
 40
10.0
 40
10.0
 40
10.0
 40
11.0
 40
11.0
 40
11.0
 40
12.0
 40
12.0
 40
12.0
 40
13.0
 40
13.0
 40
13.0
 40
14.0
 40
14.0
 40
14.0
 40
15.0
 40
15.0
 40
15.0
 40
16.0
 40
16.0
 40
16.0
 40
16.0
 10
95.6830484786834
 20
-123.9562581070318
 10
95.61552460717252
 20
-124.1088758370283
 10
95.57314993270394
 20
-124.1870795045435
 10
95.53490937281767
 20
-124.2546033760544
 10
95.57728404728624
 20
-124.275962968063
 10
95.58141816186854
 20
-124.2780300253541
 10
95.58141816186854
 20
-124.2928439359407
 10
95.58141816186854
 20
-124.3055907892361
 10
95.54765622611309
 20
-124.3393527249916
 10
95.53697643010882
 20
-124.3476209541562
 10
95.53490937281767
 20
-124.5443359063639
 10
95.53490937281767
 20
-124.5656954983725
 10
95.53490937281767
 20
-124.6990206936516
 10
95.53284231552652
 20
-124.7117675469471
 10
95.53284231552652
 20
-124.7265814575336
 10
95.53284231552652
 20
-124.7413953681202
 10
95.53284231552652
 20
-124.7413953681202
 10
95.53284231552652
 20
-125.2764186969795
 10
95.53284231552652
 20
-125.2764186969795
 10
95.53284231552652
 20
-125.3484211926212
 10
95.53697643010882
 20
-125.5833767047153
 10
95.54558916882193
 20
-125.6932752506947
 10
95.54558916882193
 20
-125.6932752506947
 10
95.3023654275633
 20
-125.6932752506947
 10
95.3023654275633
 20
-125.6932752506947
 10
95.32544756731447
 20
-125.5344563488247
 10
95.33199324873645
 20
-125.2932996648572
 10
95.33199324873645
 20
-125.2722845823972
 10
95.33199324873645
 20
-125.2722845823972
 10
95.33199324873645
 20
-124.5550157023682
 10
95.33199324873645
 20
-124.5550157023682
 10
95.24104272792586
 20
-124.6693928724785
 10
95.1797200282884
 20
-124.7286485148248
 10
95.13734535381984
 20
-124.7710231892934
 10
95.13734535381984
 20
-124.7710231892934
 10
94.94683157348553
 20
-124.6332193698834
 10
94.94683157348553
 20
-124.6332193698834
 10
95.22829587463043
 20
-124.4175563925067
 10
95.42087671225589
 20
-124.1088758370283
 10
95.53284231552652
 20
-123.7722900081194
 10
95.53284231552652
 20
-123.7722900081194
 10
95.75298391703399
 20
-123.8866671782297
 10
95.75298391703399
 20
-123.8866671782297
 10
95.7657307703294
 20
-123.8928683501032
 10
95.773998999494
 20
-123.8970024646855
 10
95.773998999494
 20
-123.9118163752721
 10
95.773998999494
 20
-123.9373100818629
 10
95.75711803161629
 20
-123.9414441964452
 10
95.6830484786834
 20
-123.9562581070318
 97
        0
 97
        0
 92
        1
 93
        1
 72
     4
 94
        3
 73
     0
 74
     1
 95
       77
 96
       73
 40
0.0
 40
0.0
 40
0.0
 40
0.0
 40
1.0
 40
1.0
 40
1.0
 40
2.0
 40
2.0
 40
2.0
 40
3.0
 40
3.0
 40
3.0
 40
4.0
 40
4.0
 40
4.0
 40
5.0
 40
5.0
 40
5.0
 40
6.0
 40
6.0
 40
6.0
 40
7.0
 40
7.0
 40
7.0
 40
8.0
 40
8.0
 40
8.0
 40
9.0
 40
9.0
 40
9.0
 40
10.0
 40
10.0
 40
10.0
 40
11.0
 40
11.0
 40
11.0
 40
12.0
 40
12.0
 40
12.0
 40
13.0
 40
13.0
 40
13.0
 40
14.0
 40
14.0
 40
14.0
 40
15.0
 40
15.0
 40
15.0
 40
16.0
 40
16.0
 40
16.0
 40
17.0
 40
17.0
 40
17.0
 40
18.0
 40
18.0
 40
18.0
 40
19.0
 40
19.0
 40
19.0
 40
20.0
 40
20.0
 40
20.0
 40
21.0
 40
21.0
 40
21.0
 40
22.0
 40
22.0
 40
22.0
 40
23.0
 40
23.0
 40
23.0
 40
24.0
 40
24.0
 40
24.0
 40
24.0
 10
96.83405488030537
 20
-124.455796952393
 10
96.7641194419548
 20
-124.4513183282622
 10
96.69625106089539
 20
-124.4513183282622
 10
96.62872718938449
 20
-124.4513183282622
 10
96.62872718938449
 20
-124.4513183282622
 10
96.62872718938449
 20
-125.2257757933463
 10
96.62872718938449
 20
-125.2257757933463
 10
96.62872718938449
 20
-125.490014617065
 10
96.62666013209333
 20
-125.5196424382382
 10
96.62011445067137
 20
-125.5492702594113
 10
96.58635251491592
 20
-125.6825954546905
 10
96.48472219810104
 20
-125.6912081934036
 10
96.30936683790183
 20
-125.6912081934036
 10
96.2690592207244
 20
-125.6912081934036
 10
96.25217825284668
 20
-125.6912081934036
 10
96.21187063566926
 20
-125.6867295692728
 10
96.21187063566926
 20
-125.6867295692728
 10
96.08715817910321
 20
-125.4455728853053
 10
96.08715817910321
 20
-125.4455728853053
 10
96.20360240650466
 20
-125.4776122733181
 10
96.28594018860213
 20
-125.4776122733181
 10
96.30936683790183
 20
-125.4776122733181
 10
96.37895776670388
 20
-125.4776122733181
 10
96.41306421200785
 20
-125.4603867958918
 10
96.41719832659015
 20
-125.4035427203852
 10
96.41719832659015
 20
-125.3907958670898
 10
96.4192653838813
 20
-125.2932996648572
 10
96.4192653838813
 20
-125.2361110798021
 10
96.4192653838813
 20
-125.2361110798021
 10
96.4192653838813
 20
-124.449251270971
 10
96.4192653838813
 20
-124.449251270971
 10
96.4192653838813
 20
-124.449251270971
 10
96.12505422944096
 20
-124.449251270971
 10
96.12505422944096
 20
-124.449251270971
 10
95.9793266904149
 20
-124.449251270971
 10
95.8332546418403
 20
-124.455796952393
 10
95.68924965055686
 20
-124.4681992961399
 10
95.68924965055686
 20
-124.4681992961399
 10
95.68924965055686
 20
-124.2611490574764
 10
95.68924965055686
 20
-124.2611490574764
 10
95.83945581371376
 20
-124.2735514012233
 10
96.05753035793006
 20
-124.2780300253541
 10
96.12505422944096
 20
-124.2780300253541
 10
96.12505422944096
 20
-124.2780300253541
 10
96.4192653838813
 20
-124.2780300253541
 10
96.4192653838813
 20
-124.2780300253541
 10
96.41719832659015
 20
-124.0093125775046
 10
96.41719832659015
 20
-123.9331759672806
 10
96.40858558787703
 20
-123.7850368614149
 10
96.40858558787703
 20
-123.7850368614149
 10
96.66662323972224
 20
-123.8232774213011
 10
96.66662323972224
 20
-123.8232774213011
 10
96.68143715030881
 20
-123.8253444785923
 10
96.69625106089539
 20
-123.8315456504657
 10
96.69625106089539
 20
-123.8529052424743
 10
96.69625106089539
 20
-123.8718532676431
 10
96.69004988902194
 20
-123.8739203249343
 10
96.63286130396679
 20
-123.9076822606898
 10
96.62872718938449
 20
-123.9858859282049
 10
96.62872718938449
 20
-124.0006998387915
 10
96.62872718938449
 20
-124.2780300253541
 10
96.80649411642338
 20
-124.2735514012233
 10
96.82544214159225
 20
-124.2735514012233
 10
96.8592040773477
 20
-124.269417286641
 10
96.9101914905294
 20
-124.2652831720587
 10
96.9143256051117
 20
-124.2632161147675
 10
96.95876733687142
 20
-124.2611490574764
 10
96.95876733687142
 20
-124.2611490574764
 10
96.95876733687142
 20
-124.4681992961399
 10
96.95876733687142
 20
-124.4681992961399
 10
96.92913951569828
 20
-124.4661322388487
 10
96.87401798793428
 20
-124.4578640096841
 10
96.83405488030537
 20
-124.455796952393
 97
        0
 97
        0
 92
        1
 93
        1
 72
     4
 94
        3
 73
     0
 74
     1
 95
       20
 96
       16
 40
0.0
 40
0.0
 40
0.0
 40
0.0
 40
1.0
 40
1.0
 40
1.0
 40
2.0
 40
2.0
 40
2.0
 40
3.0
 40
3.0
 40
3.0
 40
4.0
 40
4.0
 40
4.0
 40
5.0
 40
5.0
 40
5.0
 40
5.0
 10
96.06373152980352
 20
-125.1813340615866
 10
96.01722274075264
 20
-125.0035671345477
 10
95.92007104806859
 20
-124.861973710104
 10
95.78054468091598
 20
-124.751730654576
 10
95.78054468091598
 20
-124.751730654576
 10
95.94108613052862
 20
-124.6376979940142
 10
95.94108613052862
 20
-124.6376979940142
 10
96.00240883016608
 20
-124.6797281589342
 10
96.0427164473435
 20
-124.7138346042382
 10
96.11885305756752
 20
-124.8216660929265
 10
96.19912378237383
 20
-124.938110320328
 10
96.22048337438238
 20
-124.9908202812523
 10
96.24563257142471
 20
-125.0566216050206
 10
96.24563257142471
 20
-125.0566216050206
 10
96.06373152980352
 20
-125.1813340615866
 10
96.06373152980352
 20
-125.1813340615866
 97
        0
 97
        0
 75
     2
 76
     1
 98
        0
  0
ENDBLK
  5
4D
330
4A
100
AcDbEntity
  8
0
100
AcDbBlockEnd
  0
BLOCK
  5
6C
330
6A
100
AcDbEntity
  8
0
100
AcDbBlockBegin
  2
block 3
 70
     0
 10
0.0
 20
0.0
 30
0.0
  3
block 3
  1

  0
SPLINE
  5
6E
330
6A
100
AcDbEntity
  8
_U+30EC_U+30A4_U+30E4_U+30FC 1
370
     0
100
AcDbSpline
210
0.0
220
0.0
230
1.0
 70
    11
 71
     3
 72
    44
 73
    40
 74
     0
 42
0.0000000001
 43
0.0000000001
 12
1.0
 22
0.0
 32
0.0
 13
1.0
 23
0.0
 33
0.0
 40
0.0
 40
0.0
 40
0.0
 40
0.0
 40
1.0
 40
1.0
 40
1.0
 40
2.0
 40
2.0
 40
2.0
 40
3.0
 40
3.0
 40
3.0
 40
4.0
 40
4.0
 40
4.0
 40
5.0
 40
5.0
 40
5.0
 40
6.0
 40
6.0
 40
6.0
 40
7.0
 40
7.0
 40
7.0
 40
8.0
 40
8.0
 40
8.0
 40
9.0
 40
9.0
 40
9.0
 40
10.0
 40
10.0
 40
10.0
 40
11.0
 40
11.0
 40
11.0
 40
12.0
 40
12.0
 40
12.0
 40
13.0
 40
13.0
 40
13.0
 40
13.0
 10
110.5410562874689
 20
-130.2418348198701
 30
0.0
 10
110.6998751893389
 20
-130.4595648545379
 30
0.0
 10
110.7739447422718
 20
-130.5525824326396
 30
0.0
 10
110.9176052240067
 20
-130.6015027885302
 30
0.0
 10
110.9176052240067
 20
-130.6015027885302
 30
0.0
 10
110.9176052240067
 20
-129.8229112088637
 30
0.0
 10
110.9176052240067
 20
-129.8229112088637
 30
0.0
 10
110.9176052240067
 20
-129.8229112088637
 30
0.0
 10
111.1229329149276
 20
-129.8229112088637
 30
0.0
 10
111.1229329149276
 20
-129.8229112088637
 30
0.0
 10
111.1229329149276
 20
-129.8229112088637
 30
0.0
 10
111.1229329149276
 20
-130.8509277016623
 30
0.0
 10
111.1229329149276
 20
-130.8509277016623
 30
0.0
 10
110.7653320035587
 20
-130.819232823198
 30
0.0
 10
110.6871283360435
 20
-130.7537760089782
 30
0.0
 10
110.3887830670209
 20
-130.3686143337273
 30
0.0
 10
110.190001057522
 20
-130.1126437391732
 30
0.0
 10
110.1221326764625
 20
-130.0471869249535
 30
0.0
 10
109.9846733666011
 20
-130.0471869249535
 30
0.0
 10
109.8661620819085
 20
-130.0471869249535
 30
0.0
 10
109.735248453469
 20
-130.1191894205952
 30
0.0
 10
109.735248453469
 20
-130.315904372803
 30
0.0
 10
109.735248453469
 20
-130.5760090819393
 30
0.0
 10
109.9657253414322
 20
-130.5842773111039
 30
0.0
 10
110.0821695688336
 20
-130.5887559352348
 30
0.0
 10
110.0821695688336
 20
-130.5887559352348
 30
0.0
 10
110.0821695688336
 20
-130.8130316513245
 30
0.0
 10
110.0821695688336
 20
-130.8130316513245
 30
0.0
 10
109.9550455454279
 20
-130.8044189126114
 30
0.0
 10
109.8430799421573
 20
-130.7937391166071
 30
0.0
 10
109.7245686574647
 20
-130.7134683918008
 30
0.0
 10
109.5636826983035
 20
-130.6035698458213
 30
0.0
 10
109.5299207625481
 20
-130.4171901800693
 30
0.0
 10
109.5299207625481
 20
-130.3010904622164
 30
0.0
 10
109.5299207625481
 20
-130.0237602756538
 30
0.0
 10
109.7138888614604
 20
-129.8163655274417
 30
0.0
 10
109.9867404238922
 20
-129.8163655274417
 30
0.0
 10
110.2154947641128
 20
-129.8163655274417
 30
0.0
 10
110.314713514088
 20
-129.9328097548432
 30
0.0
 10
110.5410562874689
 20
-130.2418348198701
 30
0.0
  0
HATCH
  5
6F
330
6A
100
AcDbEntity
  8
_U+30EC_U+30A4_U+30E4_U+30FC 1
 62
   179
420
  2234388
100
AcDbHatch
 10
0.0
 20
0.0
 30
0.0
210
0.0
220
0.0
230
1.0
  2
SOLID
 70
     1
 71
     0
 91
        1
 92
        1
 93
        1
 72
     4
 94
        3
 73
     0
 74
     1
 95
       44
 96
       40
 40
0.0
 40
0.0
 40
0.0
 40
0.0
 40
1.0
 40
1.0
 40
1.0
 40
2.0
 40
2.0
 40
2.0
 40
3.0
 40
3.0
 40
3.0
 40
4.0
 40
4.0
 40
4.0
 40
5.0
 40
5.0
 40
5.0
 40
6.0
 40
6.0
 40
6.0
 40
7.0
 40
7.0
 40
7.0
 40
8.0
 40
8.0
 40
8.0
 40
9.0
 40
9.0
 40
9.0
 40
10.0
 40
10.0
 40
10.0
 40
11.0
 40
11.0
 40
11.0
 40
12.0
 40
12.0
 40
12.0
 40
13.0
 40
13.0
 40
13.0
 40
13.0
 10
110.5410562874689
 20
-130.2418348198701
 10
110.6998751893389
 20
-130.4595648545379
 10
110.7739447422718
 20
-130.5525824326396
 10
110.9176052240067
 20
-130.6015027885302
 10
110.9176052240067
 20
-130.6015027885302
 10
110.9176052240067
 20
-129.8229112088637
 10
110.9176052240067
 20
-129.8229112088637
 10
110.9176052240067
 20
-129.8229112088637
 10
111.1229329149276
 20
-129.8229112088637
 10
111.1229329149276
 20
-129.8229112088637
 10
111.1229329149276
 20
-129.8229112088637
 10
111.1229329149276
 20
-130.8509277016623
 10
111.1229329149276
 20
-130.8509277016623
 10
110.7653320035587
 20
-130.819232823198
 10
110.6871283360435
 20
-130.7537760089782
 10
110.3887830670209
 20
-130.3686143337273
 10
110.190001057522
 20
-130.1126437391732
 10
110.1221326764625
 20
-130.0471869249535
 10
109.9846733666011
 20
-130.0471869249535
 10
109.8661620819085
 20
-130.0471869249535
 10
109.735248453469
 20
-130.1191894205952
 10
109.735248453469
 20
-130.315904372803
 10
109.735248453469
 20
-130.5760090819393
 10
109.9657253414322
 20
-130.5842773111039
 10
110.0821695688336
 20
-130.5887559352348
 10
110.0821695688336
 20
-130.5887559352348
 10
110.0821695688336
 20
-130.8130316513245
 10
110.0821695688336
 20
-130.8130316513245
 10
109.9550455454279
 20
-130.8044189126114
 10
109.8430799421573
 20
-130.7937391166071
 10
109.7245686574647
 20
-130.7134683918008
 10
109.5636826983035
 20
-130.6035698458213
 10
109.5299207625481
 20
-130.4171901800693
 10
109.5299207625481
 20
-130.3010904622164
 10
109.5299207625481
 20
-130.0237602756538
 10
109.7138888614604
 20
-129.8163655274417
 10
109.9867404238922
 20
-129.8163655274417
 10
110.2154947641128
 20
-129.8163655274417
 10
110.314713514088
 20
-129.9328097548432
 10
110.5410562874689
 20
-130.2418348198701
 97
        0
 97
        0
 75
     2
 76
     1
 98
        0
  0
SPLINE
  5
70
330
6A
100
AcDbEntity
  8
_U+30EC_U+30A4_U+30E4_U+30FC 1
370
     0
100
AcDbSpline
210
0.0
220
0.0
230
1.0
 70
    11
 71
     3
 72
    53
 73
    49
 74
     0
 42
0.0000000001
 43
0.0000000001
 12
1.0
 22
0.0
 32
0.0
 13
1.0
 23
0.0
 33
0.0
 40
0.0
 40
0.0
 40
0.0
 40
0.0
 40
1.0
 40
1.0
 40
1.0
 40
2.0
 40
2.0
 40
2.0
 40
3.0
 40
3.0
 40
3.0
 40
4.0
 40
4.0
 40
4.0
 40
5.0
 40
5.0
 40
5.0
 40
6.0
 40
6.0
 40
6.0
 40
7.0
 40
7.0
 40
7.0
 40
8.0
 40
8.0
 40
8.0
 40
9.0
 40
9.0
 40
9.0
 40
10.0
 40
10.0
 40
10.0
 40
11.0
 40
11.0
 40
11.0
 40
12.0
 40
12.0
 40
12.0
 40
13.0
 40
13.0
 40
13.0
 40
14.0
 40
14.0
 40
14.0
 40
15.0
 40
15.0
 40
15.0
 40
16.0
 40
16.0
 40
16.0
 40
16.0
 10
111.1735758185608
 20
-129.1769558053794
 30
0.0
 10
111.1735758185608
 20
-129.2551594728945
 30
0.0
 10
111.1566948506831
 20
-129.3567897897094
 30
0.0
 10
111.0933050937545
 20
-129.4584201065243
 30
0.0
 10
110.983406547775
 20
-129.6317084094323
 30
0.0
 10
110.852148409787
 20
-129.6530680014409
 30
0.0
 10
110.7443169210986
 20
-129.6720160266098
 30
0.0
 10
110.7443169210986
 20
-129.6720160266098
 30
0.0
 10
110.7443169210986
 20
-129.4498073678112
 30
0.0
 10
110.7443169210986
 20
-129.4498073678112
 30
0.0
 10
110.9430989305976
 20
-129.3950303495957
 30
0.0
 10
110.9727267517707
 20
-129.26790632619
 30
0.0
 10
110.9727267517707
 20
-129.1748887480882
 30
0.0
 10
110.9727267517707
 20
-129.0353623809356
 30
0.0
 10
110.873163492247
 20
-128.8830891604876
 30
0.0
 10
110.6406195469926
 20
-128.8830891604876
 30
0.0
 10
110.3846489524386
 20
-128.8830891604876
 30
0.0
 10
110.314713514088
 20
-129.0629231448176
 30
0.0
 10
110.314713514088
 20
-129.1835014868014
 30
0.0
 10
110.314713514088
 20
-129.2151963652657
 30
0.0
 10
110.314713514088
 20
-129.3567897897094
 30
0.0
 10
110.4439045947849
 20
-129.4456732532289
 30
0.0
 10
110.4439045947849
 20
-129.4456732532289
 30
0.0
 10
110.424956569616
 20
-129.6213731229766
 30
0.0
 10
110.424956569616
 20
-129.6213731229766
 30
0.0
 10
110.424956569616
 20
-129.6213731229766
 30
0.0
 10
109.5784966088901
 20
-129.5007947809929
 30
0.0
 10
109.5784966088901
 20
-129.5007947809929
 30
0.0
 10
109.5784966088901
 20
-129.5007947809929
 30
0.0
 10
109.5784966088901
 20
-128.7222032013264
 30
0.0
 10
109.5784966088901
 20
-128.7222032013264
 30
0.0
 10
109.5784966088901
 20
-128.7222032013264
 30
0.0
 10
109.7731445038067
 20
-128.7222032013264
 30
0.0
 10
109.7731445038067
 20
-128.7222032013264
 30
0.0
 10
109.7731445038067
 20
-128.7222032013264
 30
0.0
 10
109.7731445038067
 20
-129.3378417645405
 30
0.0
 10
109.7731445038067
 20
-129.3378417645405
 30
0.0
 10
109.7731445038067
 20
-129.3378417645405
 30
0.0
 10
110.1962022293954
 20
-129.4032985787603
 30
0.0
 10
110.1962022293954
 20
-129.4032985787603
 30
0.0
 10
110.1624402936399
 20
-129.3419758791229
 30
0.0
 10
110.1221326764625
 20
-129.2596380970254
 30
0.0
 10
110.1221326764625
 20
-129.1411268123328
 30
0.0
 10
110.1221326764625
 20
-128.8872232750699
 30
0.0
 10
110.3085123422145
 20
-128.6502007056847
 30
0.0
 10
110.6216715218238
 20
-128.6502007056847
 30
0.0
 10
110.9389648160153
 20
-128.6502007056847
 30
0.0
 10
111.1735758185608
 20
-128.8744764217744
 30
0.0
 10
111.1735758185608
 20
-129.1769558053794
 30
0.0
  0
HATCH
  5
71
330
6A
100
AcDbEntity
  8
_U+30EC_U+30A4_U+30E4_U+30FC 1
 62
   179
420
  2234388
100
AcDbHatch
 10
0.0
 20
0.0
 30
0.0
210
0.0
220
0.0
230
1.0
  2
SOLID
 70
     1
 71
     0
 91
        1
 92
        1
 93
        1
 72
     4
 94
        3
 73
     0
 74
     1
 95
       53
 96
       49
 40
0.0
 40
0.0
 40
0.0
 40
0.0
 40
1.0
 40
1.0
 40
1.0
 40
2.0
 40
2.0
 40
2.0
 40
3.0
 40
3.0
 40
3.0
 40
4.0
 40
4.0
 40
4.0
 40
5.0
 40
5.0
 40
5.0
 40
6.0
 40
6.0
 40
6.0
 40
7.0
 40
7.0
 40
7.0
 40
8.0
 40
8.0
 40
8.0
 40
9.0
 40
9.0
 40
9.0
 40
10.0
 40
10.0
 40
10.0
 40
11.0
 40
11.0
 40
11.0
 40
12.0
 40
12.0
 40
12.0
 40
13.0
 40
13.0
 40
13.0
 40
14.0
 40
14.0
 40
14.0
 40
15.0
 40
15.0
 40
15.0
 40
16.0
 40
16.0
 40
16.0
 40
16.0
 10
111.1735758185608
 20
-129.1769558053794
 10
111.1735758185608
 20
-129.2551594728945
 10
111.1566948506831
 20
-129.3567897897094
 10
111.0933050937545
 20
-129.4584201065243
 10
110.983406547775
 20
-129.6317084094323
 10
110.852148409787
 20
-129.6530680014409
 10
110.7443169210986
 20
-129.6720160266098
 10
110.7443169210986
 20
-129.6720160266098
 10
110.7443169210986
 20
-129.4498073678112
 10
110.7443169210986
 20
-129.4498073678112
 10
110.9430989305976
 20
-129.3950303495957
 10
110.9727267517707
 20
-129.26790632619
 10
110.9727267517707
 20
-129.1748887480882
 10
110.9727267517707
 20
-129.0353623809356
 10
110.873163492247
 20
-128.8830891604876
 10
110.6406195469926
 20
-128.8830891604876
 10
110.3846489524386
 20
-128.8830891604876
 10
110.314713514088
 20
-129.0629231448176
 10
110.314713514088
 20
-129.1835014868014
 10
110.314713514088
 20
-129.2151963652657
 10
110.314713514088
 20
-129.3567897897094
 10
110.4439045947849
 20
-129.4456732532289
 10
110.4439045947849
 20
-129.4456732532289
 10
110.424956569616
 20
-129.6213731229766
 10
110.424956569616
 20
-129.6213731229766
 10
110.424956569616
 20
-129.6213731229766
 10
109.5784966088901
 20
-129.5007947809929
 10
109.5784966088901
 20
-129.5007947809929
 10
109.5784966088901
 20
-129.5007947809929
 10
109.5784966088901
 20
-128.7222032013264
 10
109.5784966088901
 20
-128.7222032013264
 10
109.5784966088901
 20
-128.7222032013264
 10
109.7731445038067
 20
-128.7222032013264
 10
109.7731445038067
 20
-128.7222032013264
 10
109.7731445038067
 20
-128.7222032013264
 10
109.7731445038067
 20
-129.3378417645405
 10
109.7731445038067
 20
-129.3378417645405
 10
109.7731445038067
 20
-129.3378417645405
 10
110.1962022293954
 20
-129.4032985787603
 10
110.1962022293954
 20
-129.4032985787603
 10
110.1624402936399
 20
-129.3419758791229
 10
110.1221326764625
 20
-129.2596380970254
 10
110.1221326764625
 20
-129.1411268123328
 10
110.1221326764625
 20
-128.8872232750699
 10
110.3085123422145
 20
-128.6502007056847
 10
110.6216715218238
 20
-128.6502007056847
 10
110.9389648160153
 20
-128.6502007056847
 10
111.1735758185608
 20
-128.8744764217744
 10
111.1735758185608
 20
-129.1769558053794
 97
        0
 97
        0
 75
     2
 76
     1
 98
        0
  0
ENDBLK
  5
6D
330
6A
100
AcDbEntity
  8
0
100
AcDbBlockEnd
  0
BLOCK
  5
7C
330
7A
100
AcDbEntity
  8
0
100
AcDbBlockBegin
  2
block 4
 70
     0
 10
0.0
 20
0.0
 30
0.0
  3
block 4
  1

  0
SPLINE
  5
7E
330
7A
100
AcDbEntity
  8
_U+30EC_U+30A4_U+30E4_U+30FC 1
370
     0
100
AcDbSpline
210
0.0
220
0.0
230
1.0
 70
    11
 71
     3
 72
    26
 73
    22
 74
     0
 42
0.0000000001
 43
0.0000000001
 12
1.0
 22
0.0
 32
0.0
 13
1.0
 23
0.0
 33
0.0
 40
0.0
 40
0.0
 40
0.0
 40
0.0
 40
1.0
 40
1.0
 40
1.0
 40
2.0
 40
2.0
 40
2.0
 40
3.0
 40
3.0
 40
3.0
 40
4.0
 40
4.0
 40
4.0
 40
5.0
 40
5.0
 40
5.0
 40
6.0
 40
6.0
 40
6.0
 40
7.0
 40
7.0
 40
7.0
 40
7.0
 10
115.0031439599645
 20
-117.8649847795615
 30
0.0
 10
115.0031439599645
 20
-117.8649847795615
 30
0.0
 10
113.8989908569419
 20
-117.8649847795615
 30
0.0
 10
113.8989908569419
 20
-117.8649847795615
 30
0.0
 10
113.8989908569419
 20
-117.8649847795615
 30
0.0
 10
113.8989908569419
 20
-118.1950249270485
 30
0.0
 10
113.8989908569419
 20
-118.1950249270485
 30
0.0
 10
113.8989908569419
 20
-118.1950249270485
 30
0.0
 10
113.7508517510762
 20
-118.1950249270485
 30
0.0
 10
113.7508517510762
 20
-118.1950249270485
 30
0.0
 10
113.7360378404896
 20
-117.8629177222704
 30
0.0
 10
113.5730848240373
 20
-117.8164089332195
 30
0.0
 10
113.458707653927
 20
-117.7867811120464
 30
0.0
 10
113.458707653927
 20
-117.7867811120464
 30
0.0
 10
113.458707653927
 20
-117.6407090634718
 30
0.0
 10
113.458707653927
 20
-117.6407090634718
 30
0.0
 10
113.458707653927
 20
-117.6407090634718
 30
0.0
 10
115.0031439599645
 20
-117.6407090634718
 30
0.0
 10
115.0031439599645
 20
-117.6407090634718
 30
0.0
 10
115.0031439599645
 20
-117.6407090634718
 30
0.0
 10
115.0031439599645
 20
-117.8649847795615
 30
0.0
 10
115.0031439599645
 20
-117.8649847795615
 30
0.0
  0
HATCH
  5
7F
330
7A
100
AcDbEntity
  8
_U+30EC_U+30A4_U+30E4_U+30FC 1
 62
   179
420
  2234388
100
AcDbHatch
 10
0.0
 20
0.0
 30
0.0
210
0.0
220
0.0
230
1.0
  2
SOLID
 70
     1
 71
     0
 91
        1
 92
        1
 93
        1
 72
     4
 94
        3
 73
     0
 74
     1
 95
       26
 96
       22
 40
0.0
 40
0.0
 40
0.0
 40
0.0
 40
1.0
 40
1.0
 40
1.0
 40
2.0
 40
2.0
 40
2.0
 40
3.0
 40
3.0
 40
3.0
 40
4.0
 40
4.0
 40
4.0
 40
5.0
 40
5.0
 40
5.0
 40
6.0
 40
6.0
 40
6.0
 40
7.0
 40
7.0
 40
7.0
 40
7.0
 10
115.0031439599645
 20
-117.8649847795615
 10
115.0031439599645
 20
-117.8649847795615
 10
113.8989908569419
 20
-117.8649847795615
 10
113.8989908569419
 20
-117.8649847795615
 10
113.8989908569419
 20
-117.8649847795615
 10
113.8989908569419
 20
-118.1950249270485
 10
113.8989908569419
 20
-118.1950249270485
 10
113.8989908569419
 20
-118.1950249270485
 10
113.7508517510762
 20
-118.1950249270485
 10
113.7508517510762
 20
-118.1950249270485
 10
113.7360378404896
 20
-117.8629177222704
 10
113.5730848240373
 20
-117.8164089332195
 10
113.458707653927
 20
-117.7867811120464
 10
113.458707653927
 20
-117.7867811120464
 10
113.458707653927
 20
-117.6407090634718
 10
113.458707653927
 20
-117.6407090634718
 10
113.458707653927
 20
-117.6407090634718
 10
115.0031439599645
 20
-117.6407090634718
 10
115.0031439599645
 20
-117.6407090634718
 10
115.0031439599645
 20
-117.6407090634718
 10
115.0031439599645
 20
-117.8649847795615
 10
115.0031439599645
 20
-117.8649847795615
 97
        0
 97
        0
 75
     2
 76
     1
 98
        0
  0
POLYLINE
  5
80
330
7A
100
AcDbEntity
  8
_U+30EC_U+30A4_U+30E4_U+30FC 1
370
     0
100
AcDb2dPolyline
 66
     1
 10
0.0
 20
0.0
 30
0.0
  0
VERTEX
  5
81
330
80
100
AcDbEntity
  8
_U+30EC_U+30A4_U+30E4_U+30FC 1
370
     0
100
AcDbVertex
100
AcDb2dVertex
 10
115.0031439599645
 20
-117.0795030089246
 30
0.0
  0
VERTEX
  5
82
330
80
100
AcDbEntity
  8
_U+30EC_U+30A4_U+30E4_U+30FC 1
370
     0
100
AcDbVertex
100
AcDb2dVertex
 10
114.7513074799927
 20
-117.0795030089246
 30
0.0
  0
VERTEX
  5
83
330
80
100
AcDbEntity
  8
_U+30EC_U+30A4_U+30E4_U+30FC 1
370
     0
100
AcDbVertex
100
AcDb2dVertex
 10
114.7513074799927
 20
-116.8276665289528
 30
0.0
  0
VERTEX
  5
84
330
80
100
AcDbEntity
  8
_U+30EC_U+30A4_U+30E4_U+30FC 1
370
     0
100
AcDbVertex
100
AcDb2dVertex
 10
115.0031439599645
 20
-116.8276665289528
 30
0.0
  0
VERTEX
  5
85
330
80
100
AcDbEntity
  8
_U+30EC_U+30A4_U+30E4_U+30FC 1
370
     0
100
AcDbVertex
100
AcDb2dVertex
 10
115.0031439599645
 20
-117.0795030089246
 30
0.0
  0
SEQEND
  5
86
330
80
100
AcDbEntity
  8
_U+30EC_U+30A4_U+30E4_U+30FC 1
370
     0
  0
HATCH
  5
87
330
7A
100
AcDbEntity
  8
_U+30EC_U+30A4_U+30E4_U+30FC 1
 62
   179
420
  2234388
100
AcDbHatch
 10
0.0
 20
0.0
 30
0.0
210
0.0
220
0.0
230
1.0
  2
SOLID
 70
     1
 71
     0
 91
        1
 92
        1
 93
        4
 72
     1
 10
115.0031439599645
 20
-117.0795030089246
 11
114.7513074799927
 21
-117.0795030089246
 72
     1
 10
114.7513074799927
 20
-117.0795030089246
 11
114.7513074799927
 21
-116.8276665289528
 72
     1
 10
114.7513074799927
 20
-116.8276665289528
 11
115.0031439599645
 21
-116.8276665289528
 72
     1
 10
115.0031439599645
 20
-116.8276665289528
 11
115.0031439599645
 21
-117.0795030089246
 97
        0
 75
     2
 76
     1
 98
        0
  0
SPLINE
  5
88
330
7A
100
AcDbEntity
  8
_U+30EC_U+30A4_U+30E4_U+30FC 1
370
     0
100
AcDbSpline
210
0.0
220
0.0
230
1.0
 70
    11
 71
     3
 72
    44
 73
    40
 74
     0
 42
0.0000000001
 43
0.0000000001
 12
1.0
 22
0.0
 32
0.0
 13
1.0
 23
0.0
 33
0.0
 40
0.0
 40
0.0
 40
0.0
 40
0.0
 40
1.0
 40
1.0
 40
1.0
 40
2.0
 40
2.0
 40
2.0
 40
3.0
 40
3.0
 40
3.0
 40
4.0
 40
4.0
 40
4.0
 40
5.0
 40
5.0
 40
5.0
 40
6.0
 40
6.0
 40
6.0
 40
7.0
 40
7.0
 40
7.0
 40
8.0
 40
8.0
 40
8.0
 40
9.0
 40
9.0
 40
9.0
 40
10.0
 40
10.0
 40
10.0
 40
11.0
 40
11.0
 40
11.0
 40
12.0
 40
12.0
 40
12.0
 40
13.0
 40
13.0
 40
13.0
 40
13.0
 10
114.4212673325058
 20
-115.9984320456532
 30
0.0
 10
114.5800862343758
 20
-116.216162080321
 30
0.0
 10
114.6541557873087
 20
-116.3091796584227
 30
0.0
 10
114.7978162690436
 20
-116.3581000143133
 30
0.0
 10
114.7978162690436
 20
-116.3581000143133
 30
0.0
 10
114.7978162690436
 20
-115.5795084346468
 30
0.0
 10
114.7978162690436
 20
-115.5795084346468
 30
0.0
 10
114.7978162690436
 20
-115.5795084346468
 30
0.0
 10
115.0031439599645
 20
-115.5795084346468
 30
0.0
 10
115.0031439599645
 20
-115.5795084346468
 30
0.0
 10
115.0031439599645
 20
-115.5795084346468
 30
0.0
 10
115.0031439599645
 20
-116.6075249274453
 30
0.0
 10
115.0031439599645
 20
-116.6075249274453
 30
0.0
 10
114.6455430485956
 20
-116.575830048981
 30
0.0
 10
114.5673393810804
 20
-116.5103732347613
 30
0.0
 10
114.2689941120578
 20
-116.1252115595104
 30
0.0
 10
114.0702121025588
 20
-115.8692409649563
 30
0.0
 10
114.0023437214994
 20
-115.8037841507366
 30
0.0
 10
113.8648844116379
 20
-115.8037841507366
 30
0.0
 10
113.7463731269454
 20
-115.8037841507366
 30
0.0
 10
113.6154594985059
 20
-115.8757866463783
 30
0.0
 10
113.6154594985059
 20
-116.072501598586
 30
0.0
 10
113.6154594985059
 20
-116.3326063077224
 30
0.0
 10
113.8459363864691
 20
-116.340874536887
 30
0.0
 10
113.9623806138705
 20
-116.3453531610178
 30
0.0
 10
113.9623806138705
 20
-116.3453531610178
 30
0.0
 10
113.9623806138705
 20
-116.5696288771076
 30
0.0
 10
113.9623806138705
 20
-116.5696288771076
 30
0.0
 10
113.8352565904648
 20
-116.5610161383945
 30
0.0
 10
113.7232909871942
 20
-116.5503363423902
 30
0.0
 10
113.6047797025016
 20
-116.4700656175839
 30
0.0
 10
113.4438937433404
 20
-116.3601670716044
 30
0.0
 10
113.410131807585
 20
-116.1737874058524
 30
0.0
 10
113.410131807585
 20
-116.0576876879995
 30
0.0
 10
113.410131807585
 20
-115.7803575014369
 30
0.0
 10
113.5940999064973
 20
-115.5729627532248
 30
0.0
 10
113.8669514689291
 20
-115.5729627532248
 30
0.0
 10
114.0957058091497
 20
-115.5729627532248
 30
0.0
 10
114.1949245591249
 20
-115.6894069806263
 30
0.0
 10
114.4212673325058
 20
-115.9984320456532
 30
0.0
  0
HATCH
  5
89
330
7A
100
AcDbEntity
  8
_U+30EC_U+30A4_U+30E4_U+30FC 1
 62
   179
420
  2234388
100
AcDbHatch
 10
0.0
 20
0.0
 30
0.0
210
0.0
220
0.0
230
1.0
  2
SOLID
 70
     1
 71
     0
 91
        1
 92
        1
 93
        1
 72
     4
 94
        3
 73
     0
 74
     1
 95
       44
 96
       40
 40
0.0
 40
0.0
 40
0.0
 40
0.0
 40
1.0
 40
1.0
 40
1.0
 40
2.0
 40
2.0
 40
2.0
 40
3.0
 40
3.0
 40
3.0
 40
4.0
 40
4.0
 40
4.0
 40
5.0
 40
5.0
 40
5.0
 40
6.0
 40
6.0
 40
6.0
 40
7.0
 40
7.0
 40
7.0
 40
8.0
 40
8.0
 40
8.0
 40
9.0
 40
9.0
 40
9.0
 40
10.0
 40
10.0
 40
10.0
 40
11.0
 40
11.0
 40
11.0
 40
12.0
 40
12.0
 40
12.0
 40
13.0
 40
13.0
 40
13.0
 40
13.0
 10
114.4212673325058
 20
-115.9984320456532
 10
114.5800862343758
 20
-116.216162080321
 10
114.6541557873087
 20
-116.3091796584227
 10
114.7978162690436
 20
-116.3581000143133
 10
114.7978162690436
 20
-116.3581000143133
 10
114.7978162690436
 20
-115.5795084346468
 10
114.7978162690436
 20
-115.5795084346468
 10
114.7978162690436
 20
-115.5795084346468
 10
115.0031439599645
 20
-115.5795084346468
 10
115.0031439599645
 20
-115.5795084346468
 10
115.0031439599645
 20
-115.5795084346468
 10
115.0031439599645
 20
-116.6075249274453
 10
115.0031439599645
 20
-116.6075249274453
 10
114.6455430485956
 20
-116.575830048981
 10
114.5673393810804
 20
-116.5103732347613
 10
114.2689941120578
 20
-116.1252115595104
 10
114.0702121025588
 20
-115.8692409649563
 10
114.0023437214994
 20
-115.8037841507366
 10
113.8648844116379
 20
-115.8037841507366
 10
113.7463731269454
 20
-115.8037841507366
 10
113.6154594985059
 20
-115.8757866463783
 10
113.6154594985059
 20
-116.072501598586
 10
113.6154594985059
 20
-116.3326063077224
 10
113.8459363864691
 20
-116.340874536887
 10
113.9623806138705
 20
-116.3453531610178
 10
113.9623806138705
 20
-116.3453531610178
 10
113.9623806138705
 20
-116.5696288771076
 10
113.9623806138705
 20
-116.5696288771076
 10
113.8352565904648
 20
-116.5610161383945
 10
113.7232909871942
 20
-116.5503363423902
 10
113.6047797025016
 20
-116.4700656175839
 10
113.4438937433404
 20
-116.3601670716044
 10
113.410131807585
 20
-116.1737874058524
 10
113.410131807585
 20
-116.0576876879995
 10
113.410131807585
 20
-115.7803575014369
 10
113.5940999064973
 20
-115.5729627532248
 10
113.8669514689291
 20
-115.5729627532248
 10
114.0957058091497
 20
-115.5729627532248
 10
114.1949245591249
 20
-115.6894069806263
 10
114.4212673325058
 20
-115.9984320456532
 97
        0
 97
        0
 75
     2
 76
     1
 98
        0
  0
ENDBLK
  5
7D
330
7A
100
AcDbEntity
  8
0
100
AcDbBlockEnd
  0
BLOCK
  5
98
330
96
100
AcDbEntity
  8
0
100
AcDbBlockBegin
  2
block 5
 70
     0
 10
0.0
 20
0.0
 30
0.0
  3
block 5
  1

  0
SPLINE
  5
9A
330
96
100
AcDbEntity
  8
_U+30EC_U+30A4_U+30E4_U+30FC 1
370
     0
100
AcDbSpline
210
0.0
220
0.0
230
1.0
 70
    11
 71
     3
 72
    62
 73
    58
 74
     0
 42
0.0000000001
 43
0.0000000001
 12
1.0
 22
0.0
 32
0.0
 13
1.0
 23
0.0
 33
0.0
 40
0.0
 40
0.0
 40
0.0
 40
0.0
 40
1.0
 40
1.0
 40
1.0
 40
2.0
 40
2.0
 40
2.0
 40
3.0
 40
3.0
 40
3.0
 40
4.0
 40
4.0
 40
4.0
 40
5.0
 40
5.0
 40
5.0
 40
6.0
 40
6.0
 40
6.0
 40
7.0
 40
7.0
 40
7.0
 40
8.0
 40
8.0
 40
8.0
 40
9.0
 40
9.0
 40
9.0
 40
10.0
 40
10.0
 40
10.0
 40
11.0
 40
11.0
 40
11.0
 40
12.0
 40
12.0
 40
12.0
 40
13.0
 40
13.0
 40
13.0
 40
14.0
 40
14.0
 40
14.0
 40
15.0
 40
15.0
 40
15.0
 40
16.0
 40
16.0
 40
16.0
 40
17.0
 40
17.0
 40
17.0
 40
18.0
 40
18.0
 40
18.0
 40
19.0
 40
19.0
 40
19.0
 40
19.0
 10
89.67170136647097
 20
-146.8506401542596
 30
0.0
 10
89.5764444763038
 20
-146.8506401542596
 30
0.0
 10
89.35854218686175
 20
-146.8296250717995
 30
0.0
 10
89.23382973029571
 20
-146.6432454060475
 30
0.0
 10
89.15976017736284
 20
-146.5312798027769
 30
0.0
 10
89.15545380800629
 20
-146.4317165432532
 30
0.0
 10
89.15131969342399
 20
-146.3473117038646
 30
0.0
 10
89.15131969342399
 20
-146.3473117038646
 30
0.0
 10
89.37128904015718
 20
-146.3473117038646
 30
0.0
 10
89.37128904015718
 20
-146.3473117038646
 30
0.0
 10
89.37335609744834
 20
-146.4213812567974
 30
0.0
 10
89.3840358934526
 20
-146.6563367688915
 30
0.0
 10
89.6673949971144
 20
-146.6563367688915
 30
0.0
 10
89.80502656175014
 20
-146.6563367688915
 30
0.0
 10
89.95729978219818
 20
-146.5864013305409
 30
0.0
 10
89.95729978219818
 20
-146.3579914998688
 30
0.0
 10
89.95729978219818
 20
-146.2415472724674
 30
0.0
 10
89.91923147708617
 20
-146.1926269165768
 30
0.0
 10
89.88753659862186
 20
-146.1609320381125
 30
0.0
 10
89.813467045689
 20
-146.0872069947282
 30
0.0
 10
89.69702281828755
 20
-146.0744601414328
 30
0.0
 10
89.64207354529782
 20
-146.0744601414328
 30
0.0
 10
89.62312552012895
 20
-146.0744601414328
 30
0.0
 10
89.58712427230809
 20
-146.0765271987239
 30
0.0
 10
89.55956350842608
 20
-146.0806613133062
 30
0.0
 10
89.55956350842608
 20
-146.0806613133062
 30
0.0
 10
89.55956350842608
 20
-145.8860134183896
 30
0.0
 10
89.55956350842608
 20
-145.8860134183896
 30
0.0
 10
89.5976318135381
 20
-145.8922145902631
 30
0.0
 10
89.64000648800666
 20
-145.8946261571027
 30
0.0
 10
89.64637991465437
 20
-145.8946261571027
 30
0.0
 10
89.71183672887413
 20
-145.8946261571027
 30
0.0
 10
89.9107909931473
 20
-145.8736110746427
 30
0.0
 10
89.9107909931473
 20
-145.6365885052575
 30
0.0
 10
89.9107909931473
 20
-145.4588215782186
 30
0.0
 10
89.77953285515929
 20
-145.4037000504546
 30
0.0
 10
89.66963430917981
 20
-145.4037000504546
 30
0.0
 10
89.40522323068689
 20
-145.4037000504546
 30
0.0
 10
89.39661049197377
 20
-145.6365885052575
 30
0.0
 10
89.39247637739147
 20
-145.7082464913507
 30
0.0
 10
89.39247637739147
 20
-145.7082464913507
 30
0.0
 10
89.18938799853599
 20
-145.7082464913507
 30
0.0
 10
89.18938799853599
 20
-145.7082464913507
 30
0.0
 10
89.19782848247485
 20
-145.5835340347847
 30
0.0
 10
89.22538924635685
 20
-145.2069850982469
 30
0.0
 10
89.68220890770098
 20
-145.2069850982469
 30
0.0
 10
89.90648462379075
 20
-145.2069850982469
 30
0.0
 10
90.14764130775824
 20
-145.3341091216526
 30
0.0
 10
90.14764130775824
 20
-145.6300428238355
 30
0.0
 10
90.14764130775824
 20
-145.8164224895876
 30
0.0
 10
90.05255667236534
 20
-145.898760271685
 30
0.0
 10
89.95299341284162
 20
-145.9600829713225
 30
0.0
 10
90.01448836725332
 20
-145.9876437352045
 30
0.0
 10
90.19638940887452
 20
-146.0679144600108
 30
0.0
 10
90.19638940887452
 20
-146.3452446465734
 30
0.0
 10
90.19638940887452
 20
-146.6838975327735
 30
0.0
 10
89.94885929825932
 20
-146.8506401542596
 30
0.0
 10
89.67170136647097
 20
-146.8506401542596
 30
0.0
  0
HATCH
  5
9B
330
96
100
AcDbEntity
  8
_U+30EC_U+30A4_U+30E4_U+30FC 1
 62
   179
420
  2234388
100
AcDbHatch
 10
0.0
 20
0.0
 30
0.0
210
0.0
220
0.0
230
1.0
  2
SOLID
 70
     1
 71
     0
 91
        1
 92
        1
 93
        1
 72
     4
 94
        3
 73
     0
 74
     1
 95
       62
 96
       58
 40
0.0
 40
0.0
 40
0.0
 40
0.0
 40
1.0
 40
1.0
 40
1.0
 40
2.0
 40
2.0
 40
2.0
 40
3.0
 40
3.0
 40
3.0
 40
4.0
 40
4.0
 40
4.0
 40
5.0
 40
5.0
 40
5.0
 40
6.0
 40
6.0
 40
6.0
 40
7.0
 40
7.0
 40
7.0
 40
8.0
 40
8.0
 40
8.0
 40
9.0
 40
9.0
 40
9.0
 40
10.0
 40
10.0
 40
10.0
 40
11.0
 40
11.0
 40
11.0
 40
12.0
 40
12.0
 40
12.0
 40
13.0
 40
13.0
 40
13.0
 40
14.0
 40
14.0
 40
14.0
 40
15.0
 40
15.0
 40
15.0
 40
16.0
 40
16.0
 40
16.0
 40
17.0
 40
17.0
 40
17.0
 40
18.0
 40
18.0
 40
18.0
 40
19.0
 40
19.0
 40
19.0
 40
19.0
 10
89.67170136647097
 20
-146.8506401542596
 10
89.5764444763038
 20
-146.8506401542596
 10
89.35854218686175
 20
-146.8296250717995
 10
89.23382973029571
 20
-146.6432454060475
 10
89.15976017736284
 20
-146.5312798027769
 10
89.15545380800629
 20
-146.4317165432532
 10
89.15131969342399
 20
-146.3473117038646
 10
89.15131969342399
 20
-146.3473117038646
 10
89.37128904015718
 20
-146.3473117038646
 10
89.37128904015718
 20
-146.3473117038646
 10
89.37335609744834
 20
-146.4213812567974
 10
89.3840358934526
 20
-146.6563367688915
 10
89.6673949971144
 20
-146.6563367688915
 10
89.80502656175014
 20
-146.6563367688915
 10
89.95729978219818
 20
-146.5864013305409
 10
89.95729978219818
 20
-146.3579914998688
 10
89.95729978219818
 20
-146.2415472724674
 10
89.91923147708617
 20
-146.1926269165768
 10
89.88753659862186
 20
-146.1609320381125
 10
89.813467045689
 20
-146.0872069947282
 10
89.69702281828755
 20
-146.0744601414328
 10
89.64207354529782
 20
-146.0744601414328
 10
89.62312552012895
 20
-146.0744601414328
 10
89.58712427230809
 20
-146.0765271987239
 10
89.55956350842608
 20
-146.0806613133062
 10
89.55956350842608
 20
-146.0806613133062
 10
89.55956350842608
 20
-145.8860134183896
 10
89.55956350842608
 20
-145.8860134183896
 10
89.5976318135381
 20
-145.8922145902631
 10
89.64000648800666
 20
-145.8946261571027
 10
89.64637991465437
 20
-145.8946261571027
 10
89.71183672887413
 20
-145.8946261571027
 10
89.9107909931473
 20
-145.8736110746427
 10
89.9107909931473
 20
-145.6365885052575
 10
89.9107909931473
 20
-145.4588215782186
 10
89.77953285515929
 20
-145.4037000504546
 10
89.66963430917981
 20
-145.4037000504546
 10
89.40522323068689
 20
-145.4037000504546
 10
89.39661049197377
 20
-145.6365885052575
 10
89.39247637739147
 20
-145.7082464913507
 10
89.39247637739147
 20
-145.7082464913507
 10
89.18938799853599
 20
-145.7082464913507
 10
89.18938799853599
 20
-145.7082464913507
 10
89.19782848247485
 20
-145.5835340347847
 10
89.22538924635685
 20
-145.2069850982469
 10
89.68220890770098
 20
-145.2069850982469
 10
89.90648462379075
 20
-145.2069850982469
 10
90.14764130775824
 20
-145.3341091216526
 10
90.14764130775824
 20
-145.6300428238355
 10
90.14764130775824
 20
-145.8164224895876
 10
90.05255667236534
 20
-145.898760271685
 10
89.95299341284162
 20
-145.9600829713225
 10
90.01448836725332
 20
-145.9876437352045
 10
90.19638940887452
 20
-146.0679144600108
 10
90.19638940887452
 20
-146.3452446465734
 10
90.19638940887452
 20
-146.6838975327735
 10
89.94885929825932
 20
-146.8506401542596
 10
89.67170136647097
 20
-146.8506401542596
 97
        0
 97
        0
 75
     2
 76
     1
 98
        0
  0
SPLINE
  5
9C
330
96
100
AcDbEntity
  8
_U+30EC_U+30A4_U+30E4_U+30FC 1
370
     0
100
AcDbSpline
210
0.0
220
0.0
230
1.0
 70
    11
 71
     3
 72
    53
 73
    49
 74
     0
 42
0.0000000001
 43
0.0000000001
 12
1.0
 22
0.0
 32
0.0
 13
1.0
 23
0.0
 33
0.0
 40
0.0
 40
0.0
 40
0.0
 40
0.0
 40
1.0
 40
1.0
 40
1.0
 40
2.0
 40
2.0
 40
2.0
 40
3.0
 40
3.0
 40
3.0
 40
4.0
 40
4.0
 40
4.0
 40
5.0
 40
5.0
 40
5.0
 40
6.0
 40
6.0
 40
6.0
 40
7.0
 40
7.0
 40
7.0
 40
8.0
 40
8.0
 40
8.0
 40
9.0
 40
9.0
 40
9.0
 40
10.0
 40
10.0
 40
10.0
 40
11.0
 40
11.0
 40
11.0
 40
12.0
 40
12.0
 40
12.0
 40
13.0
 40
13.0
 40
13.0
 40
14.0
 40
14.0
 40
14.0
 40
15.0
 40
15.0
 40
15.0
 40
16.0
 40
16.0
 40
16.0
 40
16.0
 10
90.8380384430023
 20
-146.8506401542596
 30
0.0
 10
90.75983477548714
 20
-146.8506401542596
 30
0.0
 10
90.65820445867226
 20
-146.8337591863819
 30
0.0
 10
90.55657414185738
 20
-146.7703694294532
 30
0.0
 10
90.38311358417506
 20
-146.6604708834738
 30
0.0
 10
90.36192624694077
 20
-146.5292127454858
 30
0.0
 10
90.3429782217719
 20
-146.4213812567974
 30
0.0
 10
90.3429782217719
 20
-146.4213812567974
 30
0.0
 10
90.56518688057051
 20
-146.4213812567974
 30
0.0
 10
90.56518688057051
 20
-146.4213812567974
 30
0.0
 10
90.61996389878598
 20
-146.6201632662963
 30
0.0
 10
90.74708792219171
 20
-146.6497910874695
 30
0.0
 10
90.84010550029345
 20
-146.6497910874695
 30
0.0
 10
90.97963186744607
 20
-146.6497910874695
 30
0.0
 10
91.13190508789411
 20
-146.5502278279458
 30
0.0
 10
91.13190508789411
 20
-146.3176838826914
 30
0.0
 10
91.13190508789411
 20
-146.0617132881374
 30
0.0
 10
90.95207110356407
 20
-145.9921223593353
 30
0.0
 10
90.83149276158032
 20
-145.9921223593353
 30
0.0
 10
90.79979788311603
 20
-145.9921223593353
 30
0.0
 10
90.65820445867226
 20
-145.9921223593353
 30
0.0
 10
90.56932099515281
 20
-146.1209689304837
 30
0.0
 10
90.56932099515281
 20
-146.1209689304837
 30
0.0
 10
90.39379338017933
 20
-146.1016763957662
 30
0.0
 10
90.39379338017933
 20
-146.1016763957662
 30
0.0
 10
90.39379338017933
 20
-146.1016763957662
 30
0.0
 10
90.51419946738882
 20
-145.2555609445889
 30
0.0
 10
90.51419946738882
 20
-145.2555609445889
 30
0.0
 10
90.51419946738882
 20
-145.2555609445889
 30
0.0
 10
91.29279104705527
 20
-145.2555609445889
 30
0.0
 10
91.29279104705527
 20
-145.2555609445889
 30
0.0
 10
91.29279104705527
 20
-145.2555609445889
 30
0.0
 10
91.29279104705527
 20
-145.450553349054
 30
0.0
 10
91.29279104705527
 20
-145.450553349054
 30
0.0
 10
91.29279104705527
 20
-145.450553349054
 30
0.0
 10
90.67715248384113
 20
-145.450553349054
 30
0.0
 10
90.67715248384113
 20
-145.450553349054
 30
0.0
 10
90.67715248384113
 20
-145.450553349054
 30
0.0
 10
90.61169566962138
 20
-145.8736110746427
 30
0.0
 10
90.61169566962138
 20
-145.8736110746427
 30
0.0
 10
90.67301836925883
 20
-145.8395046293387
 30
0.0
 10
90.75535615135631
 20
-145.7991970121613
 30
0.0
 10
90.8738674360489
 20
-145.7991970121613
 30
0.0
 10
91.12777097331181
 20
-145.7991970121613
 30
0.0
 10
91.364793542697
 20
-145.9855766779133
 30
0.0
 10
91.364793542697
 20
-146.2987358575226
 30
0.0
 10
91.364793542697
 20
-146.6160291517141
 30
0.0
 10
91.14051782660724
 20
-146.8506401542596
 30
0.0
 10
90.8380384430023
 20
-146.8506401542596
 30
0.0
  0
HATCH
  5
9D
330
96
100
AcDbEntity
  8
_U+30EC_U+30A4_U+30E4_U+30FC 1
 62
   179
420
  2234388
100
AcDbHatch
 10
0.0
 20
0.0
 30
0.0
210
0.0
220
0.0
230
1.0
  2
SOLID
 70
     1
 71
     0
 91
        1
 92
        1
 93
        1
 72
     4
 94
        3
 73
     0
 74
     1
 95
       53
 96
       49
 40
0.0
 40
0.0
 40
0.0
 40
0.0
 40
1.0
 40
1.0
 40
1.0
 40
2.0
 40
2.0
 40
2.0
 40
3.0
 40
3.0
 40
3.0
 40
4.0
 40
4.0
 40
4.0
 40
5.0
 40
5.0
 40
5.0
 40
6.0
 40
6.0
 40
6.0
 40
7.0
 40
7.0
 40
7.0
 40
8.0
 40
8.0
 40
8.0
 40
9.0
 40
9.0
 40
9.0
 40
10.0
 40
10.0
 40
10.0
 40
11.0
 40
11.0
 40
11.0
 40
12.0
 40
12.0
 40
12.0
 40
13.0
 40
13.0
 40
13.0
 40
14.0
 40
14.0
 40
14.0
 40
15.0
 40
15.0
 40
15.0
 40
16.0
 40
16.0
 40
16.0
 40
16.0
 10
90.8380384430023
 20
-146.8506401542596
 10
90.75983477548714
 20
-146.8506401542596
 10
90.65820445867226
 20
-146.8337591863819
 10
90.55657414185738
 20
-146.7703694294532
 10
90.38311358417506
 20
-146.6604708834738
 10
90.36192624694077
 20
-146.5292127454858
 10
90.3429782217719
 20
-146.4213812567974
 10
90.3429782217719
 20
-146.4213812567974
 10
90.56518688057051
 20
-146.4213812567974
 10
90.56518688057051
 20
-146.4213812567974
 10
90.61996389878598
 20
-146.6201632662963
 10
90.74708792219171
 20
-146.6497910874695
 10
90.84010550029345
 20
-146.6497910874695
 10
90.97963186744607
 20
-146.6497910874695
 10
91.13190508789411
 20
-146.5502278279458
 10
91.13190508789411
 20
-146.3176838826914
 10
91.13190508789411
 20
-146.0617132881374
 10
90.95207110356407
 20
-145.9921223593353
 10
90.83149276158032
 20
-145.9921223593353
 10
90.79979788311603
 20
-145.9921223593353
 10
90.65820445867226
 20
-145.9921223593353
 10
90.56932099515281
 20
-146.1209689304837
 10
90.56932099515281
 20
-146.1209689304837
 10
90.39379338017933
 20
-146.1016763957662
 10
90.39379338017933
 20
-146.1016763957662
 10
90.39379338017933
 20
-146.1016763957662
 10
90.51419946738882
 20
-145.2555609445889
 10
90.51419946738882
 20
-145.2555609445889
 10
90.51419946738882
 20
-145.2555609445889
 10
91.29279104705527
 20
-145.2555609445889
 10
91.29279104705527
 20
-145.2555609445889
 10
91.29279104705527
 20
-145.2555609445889
 10
91.29279104705527
 20
-145.450553349054
 10
91.29279104705527
 20
-145.450553349054
 10
91.29279104705527
 20
-145.450553349054
 10
90.67715248384113
 20
-145.450553349054
 10
90.67715248384113
 20
-145.450553349054
 10
90.67715248384113
 20
-145.450553349054
 10
90.61169566962138
 20
-145.8736110746427
 10
90.61169566962138
 20
-145.8736110746427
 10
90.67301836925883
 20
-145.8395046293387
 10
90.75535615135631
 20
-145.7991970121613
 10
90.8738674360489
 20
-145.7991970121613
 10
91.12777097331181
 20
-145.7991970121613
 10
91.364793542697
 20
-145.9855766779133
 10
91.364793542697
 20
-146.2987358575226
 10
91.364793542697
 20
-146.6160291517141
 10
91.14051782660724
 20
-146.8506401542596
 10
90.8380384430023
 20
-146.8506401542596
 97
        0
 97
        0
 75
     2
 76
     1
 98
        0
  0
ENDBLK
  5
99
330
96
100
AcDbEntity
  8
0
100
AcDbBlockEnd
  0
BLOCK
  5
AC
330
AA
100
AcDbEntity
  8
0
100
AcDbBlockBegin
  2
block 6
 70
     0
 10
0.0
 20
0.0
 30
0.0
  3
block 6
  1

  0
SPLINE
  5
AE
330
AA
100
AcDbEntity
  8
_U+30EC_U+30A4_U+30E4_U+30FC 1
370
     0
100
AcDbSpline
210
0.0
220
0.0
230
1.0
 70
    11
 71
     3
 72
    44
 73
    40
 74
     0
 42
0.0000000001
 43
0.0000000001
 12
1.0
 22
0.0
 32
0.0
 13
1.0
 23
0.0
 33
0.0
 40
0.0
 40
0.0
 40
0.0
 40
0.0
 40
1.0
 40
1.0
 40
1.0
 40
2.0
 40
2.0
 40
2.0
 40
3.0
 40
3.0
 40
3.0
 40
4.0
 40
4.0
 40
4.0
 40
5.0
 40
5.0
 40
5.0
 40
6.0
 40
6.0
 40
6.0
 40
7.0
 40
7.0
 40
7.0
 40
8.0
 40
8.0
 40
8.0
 40
9.0
 40
9.0
 40
9.0
 40
10.0
 40
10.0
 40
10.0
 40
11.0
 40
11.0
 40
11.0
 40
12.0
 40
12.0
 40
12.0
 40
13.0
 40
13.0
 40
13.0
 40
13.0
 10
82.27335881189694
 20
-110.81873098358
 30
0.0
 10
82.05545652245489
 20
-110.9775498854501
 30
0.0
 10
81.96226668957888
 20
-111.0516194383829
 30
0.0
 10
81.91369084323686
 20
-111.1952799201179
 30
0.0
 10
81.91369084323686
 20
-111.1952799201179
 30
0.0
 10
82.69211016812906
 20
-111.1952799201179
 30
0.0
 10
82.69211016812906
 20
-111.1952799201179
 30
0.0
 10
82.69211016812906
 20
-111.1952799201179
 30
0.0
 10
82.69211016812906
 20
-111.4006076110387
 30
0.0
 10
82.69211016812906
 20
-111.4006076110387
 30
0.0
 10
82.69211016812906
 20
-111.4006076110387
 30
0.0
 10
81.6640936753305
 20
-111.4006076110387
 30
0.0
 10
81.6640936753305
 20
-111.4006076110387
 30
0.0
 10
81.69578855379481
 20
-111.0430066996698
 30
0.0
 10
81.76124536801456
 20
-110.9648030321546
 30
0.0
 10
82.14640704326548
 20
-110.666457763132
 30
0.0
 10
82.40237763781955
 20
-110.4676757536331
 30
0.0
 10
82.4678344520393
 20
-110.3998073725737
 30
0.0
 10
82.4678344520393
 20
-110.2623480627122
 30
0.0
 10
82.4678344520393
 20
-110.1438367780196
 30
0.0
 10
82.39600421117184
 20
-110.0129231495801
 30
0.0
 10
82.19928925896407
 20
-110.0129231495801
 30
0.0
 10
81.93901229505344
 20
-110.0129231495801
 30
0.0
 10
81.93057181111459
 20
-110.2434000375433
 30
0.0
 10
81.92626544175802
 20
-110.3598442649448
 30
0.0
 10
81.92626544175802
 20
-110.3598442649448
 30
0.0
 10
81.70216198044253
 20
-110.3598442649448
 30
0.0
 10
81.70216198044253
 20
-110.3598442649448
 30
0.0
 10
81.71060246438138
 20
-110.232720241539
 30
0.0
 10
81.7211100056114
 20
-110.1207546382684
 30
0.0
 10
81.80155298519198
 20
-110.0022433535758
 30
0.0
 10
81.91145153117145
 20
-109.8413573944147
 30
0.0
 10
82.0976589421492
 20
-109.8075954586592
 30
0.0
 10
82.21410316955064
 20
-109.8075954586592
 30
0.0
 10
82.49126110133899
 20
-109.8075954586592
 30
0.0
 10
82.69848359477677
 20
-109.9915635575716
 30
0.0
 10
82.69848359477677
 20
-110.2644151200033
 30
0.0
 10
82.69848359477677
 20
-110.4931694602239
 30
0.0
 10
82.58221162214959
 20
-110.5923882101991
 30
0.0
 10
82.27335881189694
 20
-110.81873098358
 30
0.0
  0
HATCH
  5
AF
330
AA
100
AcDbEntity
  8
_U+30EC_U+30A4_U+30E4_U+30FC 1
 62
   179
420
  2234388
100
AcDbHatch
 10
0.0
 20
0.0
 30
0.0
210
0.0
220
0.0
230
1.0
  2
SOLID
 70
     1
 71
     0
 91
        1
 92
        1
 93
        1
 72
     4
 94
        3
 73
     0
 74
     1
 95
       44
 96
       40
 40
0.0
 40
0.0
 40
0.0
 40
0.0
 40
1.0
 40
1.0
 40
1.0
 40
2.0
 40
2.0
 40
2.0
 40
3.0
 40
3.0
 40
3.0
 40
4.0
 40
4.0
 40
4.0
 40
5.0
 40
5.0
 40
5.0
 40
6.0
 40
6.0
 40
6.0
 40
7.0
 40
7.0
 40
7.0
 40
8.0
 40
8.0
 40
8.0
 40
9.0
 40
9.0
 40
9.0
 40
10.0
 40
10.0
 40
10.0
 40
11.0
 40
11.0
 40
11.0
 40
12.0
 40
12.0
 40
12.0
 40
13.0
 40
13.0
 40
13.0
 40
13.0
 10
82.27335881189694
 20
-110.81873098358
 10
82.05545652245489
 20
-110.9775498854501
 10
81.96226668957888
 20
-111.0516194383829
 10
81.91369084323686
 20
-111.1952799201179
 10
81.91369084323686
 20
-111.1952799201179
 10
82.69211016812906
 20
-111.1952799201179
 10
82.69211016812906
 20
-111.1952799201179
 10
82.69211016812906
 20
-111.1952799201179
 10
82.69211016812906
 20
-111.4006076110387
 10
82.69211016812906
 20
-111.4006076110387
 10
82.69211016812906
 20
-111.4006076110387
 10
81.6640936753305
 20
-111.4006076110387
 10
81.6640936753305
 20
-111.4006076110387
 10
81.69578855379481
 20
-111.0430066996698
 10
81.76124536801456
 20
-110.9648030321546
 10
82.14640704326548
 20
-110.666457763132
 10
82.40237763781955
 20
-110.4676757536331
 10
82.4678344520393
 20
-110.3998073725737
 10
82.4678344520393
 20
-110.2623480627122
 10
82.4678344520393
 20
-110.1438367780196
 10
82.39600421117184
 20
-110.0129231495801
 10
82.19928925896407
 20
-110.0129231495801
 10
81.93901229505344
 20
-110.0129231495801
 10
81.93057181111459
 20
-110.2434000375433
 10
81.92626544175802
 20
-110.3598442649448
 10
81.92626544175802
 20
-110.3598442649448
 10
81.70216198044253
 20
-110.3598442649448
 10
81.70216198044253
 20
-110.3598442649448
 10
81.71060246438138
 20
-110.232720241539
 10
81.7211100056114
 20
-110.1207546382684
 10
81.80155298519198
 20
-110.0022433535758
 10
81.91145153117145
 20
-109.8413573944147
 10
82.0976589421492
 20
-109.8075954586592
 10
82.21410316955064
 20
-109.8075954586592
 10
82.49126110133899
 20
-109.8075954586592
 10
82.69848359477677
 20
-109.9915635575716
 10
82.69848359477677
 20
-110.2644151200033
 10
82.69848359477677
 20
-110.4931694602239
 10
82.58221162214959
 20
-110.5923882101991
 10
82.27335881189694
 20
-110.81873098358
 97
        0
 97
        0
 75
     2
 76
     1
 98
        0
  0
SPLINE
  5
B0
330
AA
100
AcDbEntity
  8
_U+30EC_U+30A4_U+30E4_U+30FC 1
370
     0
100
AcDbSpline
210
0.0
220
0.0
230
1.0
 70
    11
 71
     3
 72
    29
 73
    25
 74
     0
 42
0.0000000001
 43
0.0000000001
 12
1.0
 22
0.0
 32
0.0
 13
1.0
 23
0.0
 33
0.0
 40
0.0
 40
0.0
 40
0.0
 40
0.0
 40
1.0
 40
1.0
 40
1.0
 40
2.0
 40
2.0
 40
2.0
 40
3.0
 40
3.0
 40
3.0
 40
4.0
 40
4.0
 40
4.0
 40
5.0
 40
5.0
 40
5.0
 40
6.0
 40
6.0
 40
6.0
 40
7.0
 40
7.0
 40
7.0
 40
8.0
 40
8.0
 40
8.0
 40
8.0
 10
83.75474987055438
 20
-111.2228406839998
 30
0.0
 10
83.64691838186606
 20
-111.432302489503
 30
0.0
 10
83.47345782418373
 20
-111.4512505146719
 30
0.0
 10
83.35701359678228
 20
-111.4512505146719
 30
0.0
 10
83.19629989239537
 20
-111.4512505146719
 30
0.0
 10
83.05453421317735
 20
-111.404741725621
 30
0.0
 10
82.95927732301018
 20
-111.2228406839998
 30
0.0
 10
82.85575220367842
 20
-111.0281927890832
 30
0.0
 10
82.8366319237353
 20
-110.7915147292466
 30
0.0
 10
82.8366319237353
 20
-110.6285617127943
 30
0.0
 10
82.8366319237353
 20
-110.4845567215108
 30
0.0
 10
82.85351289161301
 20
-110.232720241539
 30
0.0
 10
82.95927732301018
 20
-110.0339382320401
 30
0.0
 10
83.06728106647277
 20
-109.8310221079589
 30
0.0
 10
83.22799477085967
 20
-109.8075954586592
 30
0.0
 10
83.35701359678228
 20
-109.8075954586592
 30
0.0
 10
83.51566024387803
 20
-109.8075954586592
 30
0.0
 10
83.65949298038721
 20
-109.8520371904189
 30
0.0
 10
83.75474987055438
 20
-110.0339382320401
 30
0.0
 10
83.85414087530383
 20
-110.2265190696656
 30
0.0
 10
83.87739526982926
 20
-110.4549289003377
 30
0.0
 10
83.87739526982926
 20
-110.6285617127943
 30
0.0
 10
83.87739526982926
 20
-110.7997829584112
 30
0.0
 10
83.85638018736924
 20
-111.0302598463744
 30
0.0
 10
83.75474987055438
 20
-111.2228406839998
 30
0.0
  0
SPLINE
  5
B1
330
AA
100
AcDbEntity
  8
_U+30EC_U+30A4_U+30E4_U+30FC 1
370
     0
100
AcDbSpline
210
0.0
220
0.0
230
1.0
 70
    11
 71
     3
 72
    17
 73
    13
 74
     0
 42
0.0000000001
 43
0.0000000001
 12
1.0
 22
0.0
 32
0.0
 13
1.0
 23
0.0
 33
0.0
 40
0.0
 40
0.0
 40
0.0
 40
0.0
 40
1.0
 40
1.0
 40
1.0
 40
2.0
 40
2.0
 40
2.0
 40
3.0
 40
3.0
 40
3.0
 40
4.0
 40
4.0
 40
4.0
 40
4.0
 10
83.35701359678228
 20
-110.0001762962847
 30
0.0
 10
83.10741642887592
 20
-110.0001762962847
 30
0.0
 10
83.06090763982506
 20
-110.2837076547207
 30
0.0
 10
83.06090763982506
 20
-110.6285617127943
 30
0.0
 10
83.06090763982506
 20
-110.9479220642769
 30
0.0
 10
83.09690888764591
 20
-111.2566026197553
 30
0.0
 10
83.35701359678228
 20
-111.2566026197553
 30
0.0
 10
83.60454370739748
 20
-111.2566026197553
 30
0.0
 10
83.65329180851377
 20
-110.9754828281589
 30
0.0
 10
83.65329180851377
 20
-110.6285617127943
 30
0.0
 10
83.65329180851377
 20
-110.3088568517631
 30
0.0
 10
83.6150512486275
 20
-110.0001762962847
 30
0.0
 10
83.35701359678228
 20
-110.0001762962847
 30
0.0
  0
HATCH
  5
B2
330
AA
100
AcDbEntity
  8
_U+30EC_U+30A4_U+30E4_U+30FC 1
 62
   179
420
  2234388
100
AcDbHatch
 10
0.0
 20
0.0
 30
0.0
210
0.0
220
0.0
230
1.0
  2
SOLID
 70
     1
 71
     0
 91
        2
 92
        1
 93
        1
 72
     4
 94
        3
 73
     0
 74
     1
 95
       29
 96
       25
 40
0.0
 40
0.0
 40
0.0
 40
0.0
 40
1.0
 40
1.0
 40
1.0
 40
2.0
 40
2.0
 40
2.0
 40
3.0
 40
3.0
 40
3.0
 40
4.0
 40
4.0
 40
4.0
 40
5.0
 40
5.0
 40
5.0
 40
6.0
 40
6.0
 40
6.0
 40
7.0
 40
7.0
 40
7.0
 40
8.0
 40
8.0
 40
8.0
 40
8.0
 10
83.75474987055438
 20
-111.2228406839998
 10
83.64691838186606
 20
-111.432302489503
 10
83.47345782418373
 20
-111.4512505146719
 10
83.35701359678228
 20
-111.4512505146719
 10
83.19629989239537
 20
-111.4512505146719
 10
83.05453421317735
 20
-111.404741725621
 10
82.95927732301018
 20
-111.2228406839998
 10
82.85575220367842
 20
-111.0281927890832
 10
82.8366319237353
 20
-110.7915147292466
 10
82.8366319237353
 20
-110.6285617127943
 10
82.8366319237353
 20
-110.4845567215108
 10
82.85351289161301
 20
-110.232720241539
 10
82.95927732301018
 20
-110.0339382320401
 10
83.06728106647277
 20
-109.8310221079589
 10
83.22799477085967
 20
-109.8075954586592
 10
83.35701359678228
 20
-109.8075954586592
 10
83.51566024387803
 20
-109.8075954586592
 10
83.65949298038721
 20
-109.8520371904189
 10
83.75474987055438
 20
-110.0339382320401
 10
83.85414087530383
 20
-110.2265190696656
 10
83.87739526982926
 20
-110.4549289003377
 10
83.87739526982926
 20
-110.6285617127943
 10
83.87739526982926
 20
-110.7997829584112
 10
83.85638018736924
 20
-111.0302598463744
 10
83.75474987055438
 20
-111.2228406839998
 97
        0
 97
        0
 92
        1
 93
        1
 72
     4
 94
        3
 73
     0
 74
     1
 95
       17
 96
       13
 40
0.0
 40
0.0
 40
0.0
 40
0.0
 40
1.0
 40
1.0
 40
1.0
 40
2.0
 40
2.0
 40
2.0
 40
3.0
 40
3.0
 40
3.0
 40
4.0
 40
4.0
 40
4.0
 40
4.0
 10
83.35701359678228
 20
-110.0001762962847
 10
83.10741642887592
 20
-110.0001762962847
 10
83.06090763982506
 20
-110.2837076547207
 10
83.06090763982506
 20
-110.6285617127943
 10
83.06090763982506
 20
-110.9479220642769
 10
83.09690888764591
 20
-111.2566026197553
 10
83.35701359678228
 20
-111.2566026197553
 10
83.60454370739748
 20
-111.2566026197553
 10
83.65329180851377
 20
-110.9754828281589
 10
83.65329180851377
 20
-110.6285617127943
 10
83.65329180851377
 20
-110.3088568517631
 10
83.6150512486275
 20
-110.0001762962847
 10
83.35701359678228
 20
-110.0001762962847
 97
        0
 97
        0
 75
     2
 76
     1
 98
        0
  0
ENDBLK
  5
AD
330
AA
100
AcDbEntity
  8
0
100
AcDbBlockEnd
  0
BLOCK
  5
C1
330
BF
100
AcDbEntity
  8
0
100
AcDbBlockBegin
  2
block 7
 70
     0
 10
0.0
 20
0.0
 30
0.0
  3
block 7
  1

  0
SPLINE
  5
C3
330
BF
100
AcDbEntity
  8
_U+30EC_U+30A4_U+30E4_U+30FC 1
370
     0
100
AcDbSpline
210
0.0
220
0.0
230
1.0
 70
    11
 71
     3
 72
    44
 73
    40
 74
     0
 42
0.0000000001
 43
0.0000000001
 12
1.0
 22
0.0
 32
0.0
 13
1.0
 23
0.0
 33
0.0
 40
0.0
 40
0.0
 40
0.0
 40
0.0
 40
1.0
 40
1.0
 40
1.0
 40
2.0
 40
2.0
 40
2.0
 40
3.0
 40
3.0
 40
3.0
 40
4.0
 40
4.0
 40
4.0
 40
5.0
 40
5.0
 40
5.0
 40
6.0
 40
6.0
 40
6.0
 40
7.0
 40
7.0
 40
7.0
 40
8.0
 40
8.0
 40
8.0
 40
9.0
 40
9.0
 40
9.0
 40
10.0
 40
10.0
 40
10.0
 40
11.0
 40
11.0
 40
11.0
 40
12.0
 40
12.0
 40
12.0
 40
13.0
 40
13.0
 40
13.0
 40
13.0
 10
67.54075247877454
 20
-131.1044867293767
 30
0.0
 10
67.69957138064456
 20
-131.3222167640444
 30
0.0
 10
67.77364093357743
 20
-131.4152343421462
 30
0.0
 10
67.91730141531234
 20
-131.4641546980367
 30
0.0
 10
67.91730141531234
 20
-131.4641546980367
 30
0.0
 10
67.91730141531234
 20
-130.6855631183703
 30
0.0
 10
67.91730141531234
 20
-130.6855631183703
 30
0.0
 10
67.91730141531234
 20
-130.6855631183703
 30
0.0
 10
68.12262910623323
 20
-130.6855631183703
 30
0.0
 10
68.12262910623323
 20
-130.6855631183703
 30
0.0
 10
68.12262910623323
 20
-130.6855631183703
 30
0.0
 10
68.12262910623323
 20
-131.7135796111688
 30
0.0
 10
68.12262910623323
 20
-131.7135796111688
 30
0.0
 10
67.7650281948643
 20
-131.6818847327045
 30
0.0
 10
67.68682452734913
 20
-131.6164279184848
 30
0.0
 10
67.3884792583265
 20
-131.2312662432338
 30
0.0
 10
67.18969724882758
 20
-130.9752956486798
 30
0.0
 10
67.12182886776816
 20
-130.90983883446
 30
0.0
 10
66.98436955790669
 20
-130.90983883446
 30
0.0
 10
66.86585827321409
 20
-130.90983883446
 30
0.0
 10
66.7349446447746
 20
-130.9818413301018
 30
0.0
 10
66.7349446447746
 20
-131.1785562823095
 30
0.0
 10
66.7349446447746
 20
-131.4386609914459
 30
0.0
 10
66.96542153273782
 20
-131.4469292206105
 30
0.0
 10
67.08186576013927
 20
-131.4514078447413
 30
0.0
 10
67.08186576013927
 20
-131.4514078447413
 30
0.0
 10
67.08186576013927
 20
-131.6756835608311
 30
0.0
 10
67.08186576013927
 20
-131.6756835608311
 30
0.0
 10
66.95474173673354
 20
-131.6670708221179
 30
0.0
 10
66.84277613346292
 20
-131.6563910261137
 30
0.0
 10
66.72426484877033
 20
-131.5761203013074
 30
0.0
 10
66.56337888960915
 20
-131.4662217553279
 30
0.0
 10
66.5296169538537
 20
-131.2798420895759
 30
0.0
 10
66.5296169538537
 20
-131.1637423717229
 30
0.0
 10
66.5296169538537
 20
-130.8864121851603
 30
0.0
 10
66.71358505276605
 20
-130.6790174369483
 30
0.0
 10
66.98643661519783
 20
-130.6790174369483
 30
0.0
 10
67.21519095541842
 20
-130.6790174369483
 30
0.0
 10
67.31440970539363
 20
-130.7954616643497
 30
0.0
 10
67.54075247877454
 20
-131.1044867293767
 30
0.0
  0
HATCH
  5
C4
330
BF
100
AcDbEntity
  8
_U+30EC_U+30A4_U+30E4_U+30FC 1
 62
   179
420
  2234388
100
AcDbHatch
 10
0.0
 20
0.0
 30
0.0
210
0.0
220
0.0
230
1.0
  2
SOLID
 70
     1
 71
     0
 91
        1
 92
        1
 93
        1
 72
     4
 94
        3
 73
     0
 74
     1
 95
       44
 96
       40
 40
0.0
 40
0.0
 40
0.0
 40
0.0
 40
1.0
 40
1.0
 40
1.0
 40
2.0
 40
2.0
 40
2.0
 40
3.0
 40
3.0
 40
3.0
 40
4.0
 40
4.0
 40
4.0
 40
5.0
 40
5.0
 40
5.0
 40
6.0
 40
6.0
 40
6.0
 40
7.0
 40
7.0
 40
7.0
 40
8.0
 40
8.0
 40
8.0
 40
9.0
 40
9.0
 40
9.0
 40
10.0
 40
10.0
 40
10.0
 40
11.0
 40
11.0
 40
11.0
 40
12.0
 40
12.0
 40
12.0
 40
13.0
 40
13.0
 40
13.0
 40
13.0
 10
67.54075247877454
 20
-131.1044867293767
 10
67.69957138064456
 20
-131.3222167640444
 10
67.77364093357743
 20
-131.4152343421462
 10
67.91730141531234
 20
-131.4641546980367
 10
67.91730141531234
 20
-131.4641546980367
 10
67.91730141531234
 20
-130.6855631183703
 10
67.91730141531234
 20
-130.6855631183703
 10
67.91730141531234
 20
-130.6855631183703
 10
68.12262910623323
 20
-130.6855631183703
 10
68.12262910623323
 20
-130.6855631183703
 10
68.12262910623323
 20
-130.6855631183703
 10
68.12262910623323
 20
-131.7135796111688
 10
68.12262910623323
 20
-131.7135796111688
 10
67.7650281948643
 20
-131.6818847327045
 10
67.68682452734913
 20
-131.6164279184848
 10
67.3884792583265
 20
-131.2312662432338
 10
67.18969724882758
 20
-130.9752956486798
 10
67.12182886776816
 20
-130.90983883446
 10
66.98436955790669
 20
-130.90983883446
 10
66.86585827321409
 20
-130.90983883446
 10
66.7349446447746
 20
-130.9818413301018
 10
66.7349446447746
 20
-131.1785562823095
 10
66.7349446447746
 20
-131.4386609914459
 10
66.96542153273782
 20
-131.4469292206105
 10
67.08186576013927
 20
-131.4514078447413
 10
67.08186576013927
 20
-131.4514078447413
 10
67.08186576013927
 20
-131.6756835608311
 10
67.08186576013927
 20
-131.6756835608311
 10
66.95474173673354
 20
-131.6670708221179
 10
66.84277613346292
 20
-131.6563910261137
 10
66.72426484877033
 20
-131.5761203013074
 10
66.56337888960915
 20
-131.4662217553279
 10
66.5296169538537
 20
-131.2798420895759
 10
66.5296169538537
 20
-131.1637423717229
 10
66.5296169538537
 20
-130.8864121851603
 10
66.71358505276605
 20
-130.6790174369483
 10
66.98643661519783
 20
-130.6790174369483
 10
67.21519095541842
 20
-130.6790174369483
 10
67.31440970539363
 20
-130.7954616643497
 10
67.54075247877454
 20
-131.1044867293767
 97
        0
 97
        0
 75
     2
 76
     1
 98
        0
  0
SPLINE
  5
C5
330
BF
100
AcDbEntity
  8
_U+30EC_U+30A4_U+30E4_U+30FC 1
370
     0
100
AcDbSpline
210
0.0
220
0.0
230
1.0
 70
    11
 71
     3
 72
    26
 73
    22
 74
     0
 42
0.0000000001
 43
0.0000000001
 12
1.0
 22
0.0
 32
0.0
 13
1.0
 23
0.0
 33
0.0
 40
0.0
 40
0.0
 40
0.0
 40
0.0
 40
1.0
 40
1.0
 40
1.0
 40
2.0
 40
2.0
 40
2.0
 40
3.0
 40
3.0
 40
3.0
 40
4.0
 40
4.0
 40
4.0
 40
5.0
 40
5.0
 40
5.0
 40
6.0
 40
6.0
 40
6.0
 40
7.0
 40
7.0
 40
7.0
 40
7.0
 10
68.12262910623323
 20
-130.1095431532365
 30
0.0
 10
68.12262910623323
 20
-130.1095431532365
 30
0.0
 10
68.12262910623323
 20
-130.3465657226217
 30
0.0
 10
68.12262910623323
 20
-130.3465657226217
 30
0.0
 10
67.81360404120632
 20
-130.3210720160309
 30
0.0
 10
67.29546168022475
 20
-130.1284911784054
 30
0.0
 10
66.78972166299008
 20
-129.7223144206944
 30
0.0
 10
66.78972166299008
 20
-129.7223144206944
 30
0.0
 10
66.78972166299008
 20
-130.5601616427072
 30
0.0
 10
66.78972166299008
 20
-130.5601616427072
 30
0.0
 10
66.78972166299008
 20
-130.5601616427072
 30
0.0
 10
66.57819280019574
 20
-130.5601616427072
 30
0.0
 10
66.57819280019574
 20
-130.5601616427072
 30
0.0
 10
66.57819280019574
 20
-130.5601616427072
 30
0.0
 10
66.57819280019574
 20
-129.4852918513092
 30
0.0
 10
66.57819280019574
 20
-129.4852918513092
 30
0.0
 10
66.57819280019574
 20
-129.4852918513092
 30
0.0
 10
66.78972166299008
 20
-129.4852918513092
 30
0.0
 10
66.78972166299008
 20
-129.4852918513092
 30
0.0
 10
67.07979870284811
 20
-129.8091308269227
 30
0.0
 10
67.67201061676256
 20
-130.0757812174811
 30
0.0
 10
68.12262910623323
 20
-130.1095431532365
 30
0.0
  0
HATCH
  5
C6
330
BF
100
AcDbEntity
  8
_U+30EC_U+30A4_U+30E4_U+30FC 1
 62
   179
420
  2234388
100
AcDbHatch
 10
0.0
 20
0.0
 30
0.0
210
0.0
220
0.0
230
1.0
  2
SOLID
 70
     1
 71
     0
 91
        1
 92
        1
 93
        1
 72
     4
 94
        3
 73
     0
 74
     1
 95
       26
 96
       22
 40
0.0
 40
0.0
 40
0.0
 40
0.0
 40
1.0
 40
1.0
 40
1.0
 40
2.0
 40
2.0
 40
2.0
 40
3.0
 40
3.0
 40
3.0
 40
4.0
 40
4.0
 40
4.0
 40
5.0
 40
5.0
 40
5.0
 40
6.0
 40
6.0
 40
6.0
 40
7.0
 40
7.0
 40
7.0
 40
7.0
 10
68.12262910623323
 20
-130.1095431532365
 10
68.12262910623323
 20
-130.1095431532365
 10
68.12262910623323
 20
-130.3465657226217
 10
68.12262910623323
 20
-130.3465657226217
 10
67.81360404120632
 20
-130.3210720160309
 10
67.29546168022475
 20
-130.1284911784054
 10
66.78972166299008
 20
-129.7223144206944
 10
66.78972166299008
 20
-129.7223144206944
 10
66.78972166299008
 20
-130.5601616427072
 10
66.78972166299008
 20
-130.5601616427072
 10
66.78972166299008
 20
-130.5601616427072
 10
66.57819280019574
 20
-130.5601616427072
 10
66.57819280019574
 20
-130.5601616427072
 10
66.57819280019574
 20
-130.5601616427072
 10
66.57819280019574
 20
-129.4852918513092
 10
66.57819280019574
 20
-129.4852918513092
 10
66.57819280019574
 20
-129.4852918513092
 10
66.78972166299008
 20
-129.4852918513092
 10
66.78972166299008
 20
-129.4852918513092
 10
67.07979870284811
 20
-129.8091308269227
 10
67.67201061676256
 20
-130.0757812174811
 10
68.12262910623323
 20
-130.1095431532365
 97
        0
 97
        0
 75
     2
 76
     1
 98
        0
  0
POLYLINE
  5
C7
330
BF
100
AcDbEntity
  8
_U+30EC_U+30A4_U+30E4_U+30FC 1
370
     0
100
AcDb2dPolyline
 66
     1
 10
0.0
 20
0.0
 30
0.0
  0
VERTEX
  5
C8
330
C7
100
AcDbEntity
  8
_U+30EC_U+30A4_U+30E4_U+30FC 1
370
     0
100
AcDbVertex
100
AcDb2dVertex
 10
68.12262910623323
 20
-129.2837537654221
 30
0.0
  0
VERTEX
  5
C9
330
C7
100
AcDbEntity
  8
_U+30EC_U+30A4_U+30E4_U+30FC 1
370
     0
100
AcDbVertex
100
AcDb2dVertex
 10
67.87079262626148
 20
-129.2837537654221
 30
0.0
  0
VERTEX
  5
CA
330
C7
100
AcDbEntity
  8
_U+30EC_U+30A4_U+30E4_U+30FC 1
370
     0
100
AcDbVertex
100
AcDb2dVertex
 10
67.87079262626148
 20
-129.0319172854504
 30
0.0
  0
VERTEX
  5
CB
330
C7
100
AcDbEntity
  8
_U+30EC_U+30A4_U+30E4_U+30FC 1
370
     0
100
AcDbVertex
100
AcDb2dVertex
 10
68.12262910623323
 20
-129.0319172854504
 30
0.0
  0
VERTEX
  5
CC
330
C7
100
AcDbEntity
  8
_U+30EC_U+30A4_U+30E4_U+30FC 1
370
     0
100
AcDbVertex
100
AcDb2dVertex
 10
68.12262910623323
 20
-129.2837537654221
 30
0.0
  0
SEQEND
  5
CD
330
C7
100
AcDbEntity
  8
_U+30EC_U+30A4_U+30E4_U+30FC 1
370
     0
  0
HATCH
  5
CE
330
BF
100
AcDbEntity
  8
_U+30EC_U+30A4_U+30E4_U+30FC 1
 62
   179
420
  2234388
100
AcDbHatch
 10
0.0
 20
0.0
 30
0.0
210
0.0
220
0.0
230
1.0
  2
SOLID
 70
     1
 71
     0
 91
        1
 92
        1
 93
        4
 72
     1
 10
68.12262910623323
 20
-129.2837537654221
 11
67.87079262626148
 21
-129.2837537654221
 72
     1
 10
67.87079262626148
 20
-129.2837537654221
 11
67.87079262626148
 21
-129.0319172854504
 72
     1
 10
67.87079262626148
 20
-129.0319172854504
 11
68.12262910623323
 21
-129.0319172854504
 72
     1
 10
68.12262910623323
 20
-129.0319172854504
 11
68.12262910623323
 21
-129.2837537654221
 97
        0
 75
     2
 76
     1
 98
        0
  0
POLYLINE
  5
CF
330
BF
100
AcDbEntity
  8
_U+30EC_U+30A4_U+30E4_U+30FC 1
370
     0
100
AcDb2dPolyline
 66
     1
 10
0.0
 20
0.0
 30
0.0
  0
VERTEX
  5
D0
330
CF
100
AcDbEntity
  8
_U+30EC_U+30A4_U+30E4_U+30FC 1
370
     0
100
AcDbVertex
100
AcDb2dVertex
 10
67.77570799086858
 20
-127.9635931754744
 30
0.0
  0
VERTEX
  5
D1
330
CF
100
AcDbEntity
  8
_U+30EC_U+30A4_U+30E4_U+30FC 1
370
     0
100
AcDbVertex
100
AcDb2dVertex
 10
68.12262910623323
 20
-127.9635931754744
 30
0.0
  0
VERTEX
  5
D2
330
CF
100
AcDbEntity
  8
_U+30EC_U+30A4_U+30E4_U+30FC 1
370
     0
100
AcDbVertex
100
AcDb2dVertex
 10
68.12262910623323
 20
-128.1813232101422
 30
0.0
  0
VERTEX
  5
D3
330
CF
100
AcDbEntity
  8
_U+30EC_U+30A4_U+30E4_U+30FC 1
370
     0
100
AcDbVertex
100
AcDb2dVertex
 10
67.77570799086858
 20
-128.1813232101422
 30
0.0
  0
VERTEX
  5
D4
330
CF
100
AcDbEntity
  8
_U+30EC_U+30A4_U+30E4_U+30FC 1
370
     0
100
AcDbVertex
100
AcDb2dVertex
 10
67.77570799086858
 20
-128.8372693905337
 30
0.0
  0
VERTEX
  5
D5
330
CF
100
AcDbEntity
  8
_U+30EC_U+30A4_U+30E4_U+30FC 1
370
     0
100
AcDbVertex
100
AcDb2dVertex
 10
67.55143227477882
 20
-128.8372693905337
 30
0.0
  0
VERTEX
  5
D6
330
CF
100
AcDbEntity
  8
_U+30EC_U+30A4_U+30E4_U+30FC 1
370
     0
100
AcDbVertex
100
AcDb2dVertex
 10
66.57819280019574
 20
-128.158241070391
 30
0.0
  0
VERTEX
  5
D7
330
CF
100
AcDbEntity
  8
_U+30EC_U+30A4_U+30E4_U+30FC 1
370
     0
100
AcDbVertex
100
AcDb2dVertex
 10
66.57819280019574
 20
-127.9635931754744
 30
0.0
  0
VERTEX
  5
D8
330
CF
100
AcDbEntity
  8
_U+30EC_U+30A4_U+30E4_U+30FC 1
370
     0
100
AcDbVertex
100
AcDb2dVertex
 10
67.57692598136966
 20
-127.9635931754744
 30
0.0
  0
VERTEX
  5
D9
330
CF
100
AcDbEntity
  8
_U+30EC_U+30A4_U+30E4_U+30FC 1
370
     0
100
AcDbVertex
100
AcDb2dVertex
 10
67.57692598136966
 20
-127.7561984272623
 30
0.0
  0
VERTEX
  5
DA
330
CF
100
AcDbEntity
  8
_U+30EC_U+30A4_U+30E4_U+30FC 1
370
     0
100
AcDbVertex
100
AcDb2dVertex
 10
67.77570799086858
 20
-127.7561984272623
 30
0.0
  0
VERTEX
  5
DB
330
CF
100
AcDbEntity
  8
_U+30EC_U+30A4_U+30E4_U+30FC 1
370
     0
100
AcDbVertex
100
AcDb2dVertex
 10
67.77570799086858
 20
-127.9635931754744
 30
0.0
  0
SEQEND
  5
DC
330
CF
100
AcDbEntity
  8
_U+30EC_U+30A4_U+30E4_U+30FC 1
370
     0
  0
POLYLINE
  5
DD
330
BF
100
AcDbEntity
  8
_U+30EC_U+30A4_U+30E4_U+30FC 1
370
     0
100
AcDb2dPolyline
 66
     1
 10
0.0
 20
0.0
 30
0.0
  0
VERTEX
  5
DE
330
DD
100
AcDbEntity
  8
_U+30EC_U+30A4_U+30E4_U+30FC 1
370
     0
100
AcDbVertex
100
AcDb2dVertex
 10
66.92097980097809
 20
-128.1813232101422
 30
0.0
  0
VERTEX
  5
DF
330
DD
100
AcDbEntity
  8
_U+30EC_U+30A4_U+30E4_U+30FC 1
370
     0
100
AcDbVertex
100
AcDb2dVertex
 10
67.57692598136966
 20
-128.6384873810348
 30
0.0
  0
VERTEX
  5
E0
330
DD
100
AcDbEntity
  8
_U+30EC_U+30A4_U+30E4_U+30FC 1
370
     0
100
AcDbVertex
100
AcDb2dVertex
 10
67.57692598136966
 20
-128.1813232101422
 30
0.0
  0
VERTEX
  5
E1
330
DD
100
AcDbEntity
  8
_U+30EC_U+30A4_U+30E4_U+30FC 1
370
     0
100
AcDbVertex
100
AcDb2dVertex
 10
66.92097980097809
 20
-128.1813232101422
 30
0.0
  0
SEQEND
  5
E2
330
DD
100
AcDbEntity
  8
_U+30EC_U+30A4_U+30E4_U+30FC 1
370
     0
  0
HATCH
  5
E3
330
BF
100
AcDbEntity
  8
_U+30EC_U+30A4_U+30E4_U+30FC 1
 62
   179
420
  2234388
100
AcDbHatch
 10
0.0
 20
0.0
 30
0.0
210
0.0
220
0.0
230
1.0
  2
SOLID
 70
     1
 71
     0
 91
        2
 92
        1
 93
       11
 72
     1
 10
67.77570799086858
 20
-127.9635931754744
 11
68.12262910623323
 21
-127.9635931754744
 72
     1
 10
68.12262910623323
 20
-127.9635931754744
 11
68.12262910623323
 21
-128.1813232101422
 72
     1
 10
68.12262910623323
 20
-128.1813232101422
 11
67.77570799086858
 21
-128.1813232101422
 72
     1
 10
67.77570799086858
 20
-128.1813232101422
 11
67.77570799086858
 21
-128.8372693905337
 72
     1
 10
67.77570799086858
 20
-128.8372693905337
 11
67.55143227477882
 21
-128.8372693905337
 72
     1
 10
67.55143227477882
 20
-128.8372693905337
 11
66.57819280019574
 21
-128.158241070391
 72
     1
 10
66.57819280019574
 20
-128.158241070391
 11
66.57819280019574
 21
-127.9635931754744
 72
     1
 10
66.57819280019574
 20
-127.9635931754744
 11
67.57692598136966
 21
-127.9635931754744
 72
     1
 10
67.57692598136966
 20
-127.9635931754744
 11
67.57692598136966
 21
-127.7561984272623
 72
     1
 10
67.57692598136966
 20
-127.7561984272623
 11
67.77570799086858
 21
-127.7561984272623
 72
     1
 10
67.77570799086858
 20
-127.7561984272623
 11
67.77570799086858
 21
-127.9635931754744
 97
        0
 92
        1
 93
        3
 72
     1
 10
66.92097980097809
 20
-128.1813232101422
 11
67.57692598136966
 21
-128.6384873810348
 72
     1
 10
67.57692598136966
 20
-128.6384873810348
 11
67.57692598136966
 21
-128.1813232101422
 72
     1
 10
67.57692598136966
 20
-128.1813232101422
 11
66.92097980097809
 21
-128.1813232101422
 97
        0
 75
     2
 76
     1
 98
        0
  0
ENDBLK
  5
C2
330
BF
100
AcDbEntity
  8
0
100
AcDbBlockEnd
  0
ENDSEC
  0
SECTION
  2
ENTITIES
  0
SPLINE
  5
41
330
1F
100
AcDbEntity
  8
_U+30EC_U+30A4_U+30E4_U+30FC 1
 62
   179
420
  2234388
370
     9
100
AcDbSpline
210
0.0
220
0.0
230
1.0
 70
    11
 71
     3
 72
    17
 73
    13
 74
     0
 42
0.0000000001
 43
0.0000000001
 12
1.0
 22
0.0
 32
0.0
 13
1.0
 23
0.0
 33
0.0
 40
0.0
 40
0.0
 40
0.0
 40
0.0
 40
1.0
 40
1.0
 40
1.0
 40
2.0
 40
2.0
 40
2.0
 40
3.0
 40
3.0
 40
3.0
 40
4.0
 40
4.0
 40
4.0
 40
4.0
 10
72.86843536319356
 20
-147.4456241298051
 30
0.0
 10
72.86843536319356
 20
-147.3904849631526
 30
0.0
 10
72.8236325865588
 20
-147.3457174631634
 30
0.0
 10
72.76817775958571
 20
-147.3457174631634
 30
0.0
 10
72.713036756047
 20
-147.3457174631634
 30
0.0
 10
72.66826925718911
 20
-147.3904849631526
 30
0.0
 10
72.66826925718911
 20
-147.4456241298051
 30
0.0
 10
72.66826925718911
 20
-147.5010807964584
 30
0.0
 10
72.713036756047
 20
-147.5458482964469
 30
0.0
 10
72.76817775958571
 20
-147.5458482964469
 30
0.0
 10
72.8236325865588
 20
-147.5458482964469
 30
0.0
 10
72.86843536319356
 20
-147.5010807964584
 30
0.0
 10
72.86843536319356
 20
-147.4456241298051
 30
0.0
  0
SPLINE
  5
42
330
1F
100
AcDbEntity
  8
_U+30EC_U+30A4_U+30E4_U+30FC 1
 62
   179
420
  2234388
370
     9
100
AcDbSpline
210
0.0
220
0.0
230
1.0
 70
    11
 71
     3
 72
    17
 73
    13
 74
     0
 42
0.0000000001
 43
0.0000000001
 12
1.0
 22
0.0
 32
0.0
 13
1.0
 23
0.0
 33
0.0
 40
0.0
 40
0.0
 40
0.0
 40
0.0
 40
1.0
 40
1.0
 40
1.0
 40
2.0
 40
2.0
 40
2.0
 40
3.0
 40
3.0
 40
3.0
 40
4.0
 40
4.0
 40
4.0
 40
4.0
 10
107.8680116925022
 20
-147.4456241298051
 30
0.0
 10
107.8680116925022
 20
-147.3904849631526
 30
0.0
 10
107.8232089158674
 20
-147.3457174631634
 30
0.0
 10
107.7681050283844
 20
-147.3457174631634
 30
0.0
 10
107.7129658631244
 20
-147.3457174631634
 30
0.0
 10
107.6681983642665
 20
-147.3904849631526
 30
0.0
 10
107.6681983642665
 20
-147.4456241298051
 30
0.0
 10
107.6681983642665
 20
-147.5010807964584
 30
0.0
 10
107.7129658631244
 20
-147.5458482964469
 30
0.0
 10
107.7681050283844
 20
-147.5458482964469
 30
0.0
 10
107.8232089158674
 20
-147.5458482964469
 30
0.0
 10
107.8680116925022
 20
-147.5010807964584
 30
0.0
 10
107.8680116925022
 20
-147.4456241298051
 30
0.0
  0
SPLINE
  5
43
330
1F
100
AcDbEntity
  8
_U+30EC_U+30A4_U+30E4_U+30FC 1
 62
   179
420
  2234388
370
     9
100
AcDbSpline
210
0.0
220
0.0
230
1.0
 70
    11
 71
     3
 72
    17
 73
    13
 74
     0
 42
0.0000000001
 43
0.0000000001
 12
1.0
 22
0.0
 32
0.0
 13
1.0
 23
0.0
 33
0.0
 40
0.0
 40
0.0
 40
0.0
 40
0.0
 40
1.0
 40
1.0
 40
1.0
 40
2.0
 40
2.0
 40
2.0
 40
3.0
 40
3.0
 40
3.0
 40
4.0
 40
4.0
 40
4.0
 40
4.0
 10
111.8684410348872
 20
-142.2459266311052
 30
0.0
 10
111.8684410348872
 20
-142.1907874644522
 30
0.0
 10
111.8236735360293
 20
-142.1460199644636
 30
0.0
 10
111.7685343707694
 20
-142.1460199644636
 30
0.0
 10
111.7127277498493
 20
-142.1460199644636
 30
0.0
 10
111.6679574288908
 20
-142.1907874644522
 30
0.0
 10
111.6679574288908
 20
-142.2459266311052
 30
0.0
 10
111.6679574288908
 20
-142.3010305199802
 30
0.0
 10
111.7127277498493
 20
-142.3458332977469
 30
0.0
 10
111.7685343707694
 20
-142.3458332977469
 30
0.0
 10
111.8236735360293
 20
-142.3458332977469
 30
0.0
 10
111.8684410348872
 20
-142.3010305199802
 30
0.0
 10
111.8684410348872
 20
-142.2459266311052
 30
0.0
  0
SPLINE
  5
44
330
1F
100
AcDbEntity
  8
_U+30EC_U+30A4_U+30E4_U+30FC 1
 62
   179
420
  2234388
370
     9
100
AcDbSpline
210
0.0
220
0.0
230
1.0
 70
    11
 71
     3
 72
    17
 73
    13
 74
     0
 42
0.0000000001
 43
0.0000000001
 12
1.0
 22
0.0
 32
0.0
 13
1.0
 23
0.0
 33
0.0
 40
0.0
 40
0.0
 40
0.0
 40
0.0
 40
1.0
 40
1.0
 40
1.0
 40
2.0
 40
2.0
 40
2.0
 40
3.0
 40
3.0
 40
3.0
 40
4.0
 40
4.0
 40
4.0
 40
4.0
 10
111.8684410348872
 20
-116.0459677487663
 30
0.0
 10
111.8684410348872
 20
-115.9908638598911
 30
0.0
 10
111.8236735360293
 20
-115.9460610821247
 30
0.0
 10
111.7685343707694
 20
-115.9460610821247
 30
0.0
 10
111.7127277498493
 20
-115.9460610821247
 30
0.0
 10
111.6679574288908
 20
-115.9908638598911
 30
0.0
 10
111.6679574288908
 20
-116.0459677487663
 30
0.0
 10
111.6679574288908
 20
-116.1011069154191
 30
0.0
 10
111.7127277498493
 20
-116.1458744154079
 30
0.0
 10
111.7685343707694
 20
-116.1458744154079
 30
0.0
 10
111.8236735360293
 20
-116.1458744154079
 30
0.0
 10
111.8684410348872
 20
-116.1011069154191
 30
0.0
 10
111.8684410348872
 20
-116.0459677487663
 30
0.0
  0
SPLINE
  5
45
330
1F
100
AcDbEntity
  8
_U+30EC_U+30A4_U+30E4_U+30FC 1
 62
   179
420
  2234388
370
     9
100
AcDbSpline
210
0.0
220
0.0
230
1.0
 70
    11
 71
     3
 72
    17
 73
    13
 74
     0
 42
0.0000000001
 43
0.0000000001
 12
1.0
 22
0.0
 32
0.0
 13
1.0
 23
0.0
 33
0.0
 40
0.0
 40
0.0
 40
0.0
 40
0.0
 40
1.0
 40
1.0
 40
1.0
 40
2.0
 40
2.0
 40
2.0
 40
3.0
 40
3.0
 40
3.0
 40
4.0
 40
4.0
 40
4.0
 40
4.0
 10
111.8684410348872
 20
-117.2462588595773
 30
0.0
 10
111.8684410348872
 20
-117.1911196929246
 30
0.0
 10
111.8236735360293
 20
-117.1463521929357
 30
0.0
 10
111.7685343707694
 20
-117.1463521929357
 30
0.0
 10
111.7127277498493
 20
-117.1463521929357
 30
0.0
 10
111.6679574288908
 20
-117.1911196929246
 30
0.0
 10
111.6679574288908
 20
-117.2462588595773
 30
0.0
 10
111.6679574288908
 20
-117.3013627484525
 30
0.0
 10
111.7127277498493
 20
-117.346165526219
 30
0.0
 10
111.7685343707694
 20
-117.346165526219
 30
0.0
 10
111.8236735360293
 20
-117.346165526219
 30
0.0
 10
111.8684410348872
 20
-117.3013627484525
 30
0.0
 10
111.8684410348872
 20
-117.2462588595773
 30
0.0
  0
SPLINE
  5
46
330
1F
100
AcDbEntity
  8
_U+30EC_U+30A4_U+30E4_U+30FC 1
 62
   179
420
  2234388
370
     9
100
AcDbSpline
210
0.0
220
0.0
230
1.0
 70
    11
 71
     3
 72
    17
 73
    13
 74
     0
 42
0.0000000001
 43
0.0000000001
 12
1.0
 22
0.0
 32
0.0
 13
1.0
 23
0.0
 33
0.0
 40
0.0
 40
0.0
 40
0.0
 40
0.0
 40
1.0
 40
1.0
 40
1.0
 40
2.0
 40
2.0
 40
2.0
 40
3.0
 40
3.0
 40
3.0
 40
4.0
 40
4.0
 40
4.0
 40
4.0
 10
92.8680444212273
 20
-112.0458910830995
 30
0.0
 10
92.8680444212273
 20
-111.9907519164467
 30
0.0
 10
92.82327457632542
 20
-111.9459491386803
 30
0.0
 10
92.76813541106547
 20
-111.9459491386803
 30
0.0
 10
92.7130315235824
 20
-111.9459491386803
 30
0.0
 10
92.66822874694763
 20
-111.9907519164467
 30
0.0
 10
92.66822874694763
 20
-112.0458910830995
 30
0.0
 10
92.66822874694763
 20
-112.1009949719747
 30
0.0
 10
92.7130315235824
 20
-112.1457977497414
 30
0.0
 10
92.76813541106547
 20
-112.1457977497414
 30
0.0
 10
92.82327457632542
 20
-112.1457977497414
 30
0.0
 10
92.8680444212273
 20
-112.1009949719747
 30
0.0
 10
92.8680444212273
 20
-112.0458910830995
 30
0.0
  0
SPLINE
  5
47
330
1F
100
AcDbEntity
  8
_U+30EC_U+30A4_U+30E4_U+30FC 1
 62
   179
420
  2234388
370
     9
100
AcDbSpline
210
0.0
220
0.0
230
1.0
 70
    11
 71
     3
 72
    17
 73
    13
 74
     0
 42
0.0000000001
 43
0.0000000001
 12
1.0
 22
0.0
 32
0.0
 13
1.0
 23
0.0
 33
0.0
 40
0.0
 40
0.0
 40
0.0
 40
0.0
 40
1.0
 40
1.0
 40
1.0
 40
2.0
 40
2.0
 40
2.0
 40
3.0
 40
3.0
 40
3.0
 40
4.0
 40
4.0
 40
4.0
 40
4.0
 10
72.86843536319356
 20
-112.0458910830995
 30
0.0
 10
72.86843536319356
 20
-111.9907519164467
 30
0.0
 10
72.8236325865588
 20
-111.9459491386803
 30
0.0
 10
72.76817775958571
 20
-111.9459491386803
 30
0.0
 10
72.713036756047
 20
-111.9459491386803
 30
0.0
 10
72.66826925718911
 20
-111.9907519164467
 30
0.0
 10
72.66826925718911
 20
-112.0458910830995
 30
0.0
 10
72.66826925718911
 20
-112.1009949719747
 30
0.0
 10
72.713036756047
 20
-112.1457977497414
 30
0.0
 10
72.76817775958571
 20
-112.1457977497414
 30
0.0
 10
72.8236325865588
 20
-112.1457977497414
 30
0.0
 10
72.86843536319356
 20
-112.1009949719747
 30
0.0
 10
72.86843536319356
 20
-112.0458910830995
 30
0.0
  0
SPLINE
  5
48
330
1F
100
AcDbEntity
  8
_U+30EC_U+30A4_U+30E4_U+30FC 1
 62
   179
420
  2234388
370
     9
100
AcDbSpline
210
0.0
220
0.0
230
1.0
 70
    11
 71
     3
 72
    17
 73
    13
 74
     0
 42
0.0000000001
 43
0.0000000001
 12
1.0
 22
0.0
 32
0.0
 13
1.0
 23
0.0
 33
0.0
 40
0.0
 40
0.0
 40
0.0
 40
0.0
 40
1.0
 40
1.0
 40
1.0
 40
2.0
 40
2.0
 40
2.0
 40
3.0
 40
3.0
 40
3.0
 40
4.0
 40
4.0
 40
4.0
 40
4.0
 10
68.86832352080047
 20
-143.4458649641388
 30
0.0
 10
68.86832352080047
 20
-143.3907257974857
 30
0.0
 10
68.8235207441657
 20
-143.3459582974965
 30
0.0
 10
68.76841685668263
 20
-143.3459582974965
 30
0.0
 10
68.71327769142269
 20
-143.3459582974965
 30
0.0
 10
68.6685101925648
 20
-143.3907257974857
 30
0.0
 10
68.6685101925648
 20
-143.4458649641388
 30
0.0
 10
68.6685101925648
 20
-143.5009688530137
 30
0.0
 10
68.71327769142269
 20
-143.5457716307805
 30
0.0
 10
68.76841685668263
 20
-143.5457716307805
 30
0.0
 10
68.8235207441657
 20
-143.5457716307805
 30
0.0
 10
68.86832352080047
 20
-143.5009688530137
 30
0.0
 10
68.86832352080047
 20
-143.4458649641388
 30
0.0
  0
SPLINE
  5
49
330
1F
100
AcDbEntity
  8
_U+30EC_U+30A4_U+30E4_U+30FC 1
 62
   179
420
  2234388
370
     9
100
AcDbSpline
210
0.0
220
0.0
230
1.0
 70
    11
 71
     3
 72
    17
 73
    13
 74
     0
 42
0.0000000001
 43
0.0000000001
 12
1.0
 22
0.0
 32
0.0
 13
1.0
 23
0.0
 33
0.0
 40
0.0
 40
0.0
 40
0.0
 40
0.0
 40
1.0
 40
1.0
 40
1.0
 40
2.0
 40
2.0
 40
2.0
 40
3.0
 40
3.0
 40
3.0
 40
4.0
 40
4.0
 40
4.0
 40
4.0
 10
68.86832352080047
 20
-116.0459677487663
 30
0.0
 10
68.86832352080047
 20
-115.9906874710022
 30
0.0
 10
68.8235207441657
 20
-115.9458846932358
 30
0.0
 10
68.76841685668263
 20
-115.9458846932358
 30
0.0
 10
68.71327769142269
 20
-115.9458846932358
 30
0.0
 10
68.6685101925648
 20
-115.9906874710022
 30
0.0
 10
68.6685101925648
 20
-116.0459677487663
 30
0.0
 10
68.6685101925648
 20
-116.1011069154191
 30
0.0
 10
68.71327769142269
 20
-116.1458744154079
 30
0.0
 10
68.76841685668263
 20
-116.1458744154079
 30
0.0
 10
68.8235207441657
 20
-116.1458744154079
 30
0.0
 10
68.86832352080047
 20
-116.1011069154191
 30
0.0
 10
68.86832352080047
 20
-116.0459677487663
 30
0.0
  0
INSERT
  5
4B
330
1F
100
AcDbEntity
  8
_U+30EC_U+30A4_U+30E4_U+30FC 1
100
AcDbBlockReference
  2
block 2
 10
0.0
 20
0.0
 30
0.0
  0
POLYLINE
  5
5E
330
1F
100
AcDbEntity
  8
_U+30EC_U+30A4_U+30E4_U+30FC 1
 62
   179
420
  2234388
370
     9
100
AcDb2dPolyline
 66
     1
 10
0.0
 20
0.0
 30
0.0
  0
VERTEX
  5
5F
330
5E
100
AcDbEntity
  8
_U+30EC_U+30A4_U+30E4_U+30FC 1
 62
   179
420
  2234388
370
     9
100
AcDbVertex
100
AcDb2dVertex
 10
111.7685343707694
 20
-117.2459060817996
 30
0.0
  0
VERTEX
  5
60
330
5E
100
AcDbEntity
  8
_U+30EC_U+30A4_U+30E4_U+30FC 1
 62
   179
420
  2234388
370
     9
100
AcDbVertex
100
AcDb2dVertex
 10
111.7685343707694
 20
-142.2455738533275
 30
0.0
  0
SEQEND
  5
61
330
5E
100
AcDbEntity
  8
_U+30EC_U+30A4_U+30E4_U+30FC 1
 62
   179
420
  2234388
370
     9
  0
POLYLINE
  5
62
330
1F
100
AcDbEntity
  8
_U+30EC_U+30A4_U+30E4_U+30FC 1
 62
   179
420
  2234388
370
     9
100
AcDb2dPolyline
 66
     1
 10
0.0
 20
0.0
 30
0.0
  0
VERTEX
  5
63
330
62
100
AcDbEntity
  8
_U+30EC_U+30A4_U+30E4_U+30FC 1
 62
   179
420
  2234388
370
     9
100
AcDbVertex
100
AcDb2dVertex
 10
110.3084930191292
 20
-142.2459266311052
 30
0.0
  0
VERTEX
  5
64
330
62
100
AcDbEntity
  8
_U+30EC_U+30A4_U+30E4_U+30FC 1
 62
   179
420
  2234388
370
     9
100
AcDbVertex
100
AcDb2dVertex
 10
112.7683065674853
 20
-142.2459266311052
 30
0.0
  0
SEQEND
  5
65
330
62
100
AcDbEntity
  8
_U+30EC_U+30A4_U+30E4_U+30FC 1
 62
   179
420
  2234388
370
     9
  0
POLYLINE
  5
66
330
1F
100
AcDbEntity
  8
_U+30EC_U+30A4_U+30E4_U+30FC 1
 62
   179
420
  2234388
370
     9
100
AcDb2dPolyline
 66
     1
 10
0.0
 20
0.0
 30
0.0
  0
VERTEX
  5
67
330
66
100
AcDbEntity
  8
_U+30EC_U+30A4_U+30E4_U+30FC 1
 62
   179
420
  2234388
370
     9
100
AcDbVertex
100
AcDb2dVertex
 10
94.61542091949285
 20
-116.0459677487663
 30
0.0
  0
VERTEX
  5
68
330
66
100
AcDbEntity
  8
_U+30EC_U+30A4_U+30E4_U+30FC 1
 62
   179
420
  2234388
370
     9
100
AcDbVertex
100
AcDb2dVertex
 10
112.7683065674853
 20
-116.0459677487663
 30
0.0
  0
SEQEND
  5
69
330
66
100
AcDbEntity
  8
_U+30EC_U+30A4_U+30E4_U+30FC 1
 62
   179
420
  2234388
370
     9
  0
INSERT
  5
6B
330
1F
100
AcDbEntity
  8
_U+30EC_U+30A4_U+30E4_U+30FC 1
100
AcDbBlockReference
  2
block 3
 10
0.0
 20
0.0
 30
0.0
  0
POLYLINE
  5
72
330
1F
100
AcDbEntity
  8
_U+30EC_U+30A4_U+30E4_U+30FC 1
 62
   179
420
  2234388
370
     9
100
AcDb2dPolyline
 66
     1
 10
0.0
 20
0.0
 30
0.0
  0
VERTEX
  5
73
330
72
100
AcDbEntity
  8
_U+30EC_U+30A4_U+30E4_U+30FC 1
 62
   179
420
  2234388
370
     9
100
AcDbVertex
100
AcDb2dVertex
 10
111.7685343707694
 20
-116.0459677487663
 30
0.0
  0
VERTEX
  5
74
330
72
100
AcDbEntity
  8
_U+30EC_U+30A4_U+30E4_U+30FC 1
 62
   179
420
  2234388
370
     9
100
AcDbVertex
100
AcDb2dVertex
 10
111.7685343707694
 20
-117.2462588595773
 30
0.0
  0
SEQEND
  5
75
330
72
100
AcDbEntity
  8
_U+30EC_U+30A4_U+30E4_U+30FC 1
 62
   179
420
  2234388
370
     9
  0
POLYLINE
  5
76
330
1F
100
AcDbEntity
  8
_U+30EC_U+30A4_U+30E4_U+30FC 1
 62
   179
420
  2234388
370
     9
100
AcDb2dPolyline
 66
     1
 10
0.0
 20
0.0
 30
0.0
  0
VERTEX
  5
77
330
76
100
AcDbEntity
  8
_U+30EC_U+30A4_U+30E4_U+30FC 1
 62
   179
420
  2234388
370
     9
100
AcDbVertex
100
AcDb2dVertex
 10
95.3085610872837
 20
-117.2462588595773
 30
0.0
  0
VERTEX
  5
78
330
76
100
AcDbEntity
  8
_U+30EC_U+30A4_U+30E4_U+30FC 1
 62
   179
420
  2234388
370
     9
100
AcDbVertex
100
AcDb2dVertex
 10
112.7683065674853
 20
-117.2462588595773
 30
0.0
  0
SEQEND
  5
79
330
76
100
AcDbEntity
  8
_U+30EC_U+30A4_U+30E4_U+30FC 1
 62
   179
420
  2234388
370
     9
  0
INSERT
  5
7B
330
1F
100
AcDbEntity
  8
_U+30EC_U+30A4_U+30E4_U+30FC 1
100
AcDbBlockReference
  2
block 4
 10
0.0
 20
0.0
 30
0.0
  0
POLYLINE
  5
8A
330
1F
100
AcDbEntity
  8
_U+30EC_U+30A4_U+30E4_U+30FC 1
 62
   179
420
  2234388
370
     9
100
AcDb2dPolyline
 66
     1
 10
0.0
 20
0.0
 30
0.0
  0
VERTEX
  5
8B
330
8A
100
AcDbEntity
  8
_U+30EC_U+30A4_U+30E4_U+30FC 1
 62
   179
420
  2234388
370
     9
100
AcDbVertex
100
AcDb2dVertex
 10
72.76817775958571
 20
-147.4456241298051
 30
0.0
  0
VERTEX
  5
8C
330
8A
100
AcDbEntity
  8
_U+30EC_U+30A4_U+30E4_U+30FC 1
 62
   179
420
  2234388
370
     9
100
AcDbVertex
100
AcDb2dVertex
 10
107.7681050283844
 20
-147.4456241298051
 30
0.0
  0
SEQEND
  5
8D
330
8A
100
AcDbEntity
  8
_U+30EC_U+30A4_U+30E4_U+30FC 1
 62
   179
420
  2234388
370
     9
  0
POLYLINE
  5
8E
330
1F
100
AcDbEntity
  8
_U+30EC_U+30A4_U+30E4_U+30FC 1
 62
   179
420
  2234388
370
     9
100
AcDb2dPolyline
 66
     1
 10
0.0
 20
0.0
 30
0.0
  0
VERTEX
  5
8F
330
8E
100
AcDbEntity
  8
_U+30EC_U+30A4_U+30E4_U+30FC 1
 62
   179
420
  2234388
370
     9
100
AcDbVertex
100
AcDb2dVertex
 10
72.76817775958571
 20
-148.9056302405513
 30
0.0
  0
VERTEX
  5
90
330
8E
100
AcDbEntity
  8
_U+30EC_U+30A4_U+30E4_U+30FC 1
 62
   179
420
  2234388
370
     9
100
AcDbVertex
100
AcDb2dVertex
 10
72.76817775958571
 20
-146.4454991300554
 30
0.0
  0
SEQEND
  5
91
330
8E
100
AcDbEntity
  8
_U+30EC_U+30A4_U+30E4_U+30FC 1
 62
   179
420
  2234388
370
     9
  0
POLYLINE
  5
92
330
1F
100
AcDbEntity
  8
_U+30EC_U+30A4_U+30E4_U+30FC 1
 62
   179
420
  2234388
370
     9
100
AcDb2dPolyline
 66
     1
 10
0.0
 20
0.0
 30
0.0
  0
VERTEX
  5
93
330
92
100
AcDbEntity
  8
_U+30EC_U+30A4_U+30E4_U+30FC 1
 62
   179
420
  2234388
370
     9
100
AcDbVertex
100
AcDb2dVertex
 10
107.7681050283844
 20
-148.9056302405513
 30
0.0
  0
VERTEX
  5
94
330
92
100
AcDbEntity
  8
_U+30EC_U+30A4_U+30E4_U+30FC 1
 62
   179
420
  2234388
370
     9
100
AcDbVertex
100
AcDb2dVertex
 10
107.7681050283844
 20
-146.4454991300554
 30
0.0
  0
SEQEND
  5
95
330
92
100
AcDbEntity
  8
_U+30EC_U+30A4_U+30E4_U+30FC 1
 62
   179
420
  2234388
370
     9
  0
INSERT
  5
97
330
1F
100
AcDbEntity
  8
_U+30EC_U+30A4_U+30E4_U+30FC 1
100
AcDbBlockReference
  2
block 5
 10
0.0
 20
0.0
 30
0.0
  0
POLYLINE
  5
9E
330
1F
100
AcDbEntity
  8
_U+30EC_U+30A4_U+30E4_U+30FC 1
 62
   179
420
  2234388
370
     9
100
AcDb2dPolyline
 66
     1
 10
0.0
 20
0.0
 30
0.0
  0
VERTEX
  5
9F
330
9E
100
AcDbEntity
  8
_U+30EC_U+30A4_U+30E4_U+30FC 1
 62
   179
420
  2234388
370
     9
100
AcDbVertex
100
AcDb2dVertex
 10
72.76817775958571
 20
-112.0458910830995
 30
0.0
  0
VERTEX
  5
A0
330
9E
100
AcDbEntity
  8
_U+30EC_U+30A4_U+30E4_U+30FC 1
 62
   179
420
  2234388
370
     9
100
AcDbVertex
100
AcDb2dVertex
 10
92.76813541106547
 20
-112.0458910830995
 30
0.0
  0
SEQEND
  5
A1
330
9E
100
AcDbEntity
  8
_U+30EC_U+30A4_U+30E4_U+30FC 1
 62
   179
420
  2234388
370
     9
  0
POLYLINE
  5
A2
330
1F
100
AcDbEntity
  8
_U+30EC_U+30A4_U+30E4_U+30FC 1
 62
   179
420
  2234388
370
     9
100
AcDb2dPolyline
 66
     1
 10
0.0
 20
0.0
 30
0.0
  0
VERTEX
  5
A3
330
A2
100
AcDbEntity
  8
_U+30EC_U+30A4_U+30E4_U+30FC 1
 62
   179
420
  2234388
370
     9
100
AcDbVertex
100
AcDb2dVertex
 10
72.76817775958571
 20
-110.5858496945758
 30
0.0
  0
VERTEX
  5
A4
330
A2
100
AcDbEntity
  8
_U+30EC_U+30A4_U+30E4_U+30FC 1
 62
   179
420
  2234388
370
     9
100
AcDbVertex
100
AcDb2dVertex
 10
72.76817775958571
 20
-113.0463335828494
 30
0.0
  0
SEQEND
  5
A5
330
A2
100
AcDbEntity
  8
_U+30EC_U+30A4_U+30E4_U+30FC 1
 62
   179
420
  2234388
370
     9
  0
POLYLINE
  5
A6
330
1F
100
AcDbEntity
  8
_U+30EC_U+30A4_U+30E4_U+30FC 1
 62
   179
420
  2234388
370
     9
100
AcDb2dPolyline
 66
     1
 10
0.0
 20
0.0
 30
0.0
  0
VERTEX
  5
A7
330
A6
100
AcDbEntity
  8
_U+30EC_U+30A4_U+30E4_U+30FC 1
 62
   179
420
  2234388
370
     9
100
AcDbVertex
100
AcDb2dVertex
 10
92.76813541106547
 20
-109.38626413932
 30
0.0
  0
VERTEX
  5
A8
330
A6
100
AcDbEntity
  8
_U+30EC_U+30A4_U+30E4_U+30FC 1
 62
   179
420
  2234388
370
     9
100
AcDbVertex
100
AcDb2dVertex
 10
92.76813541106547
 20
-113.0463335828494
 30
0.0
  0
SEQEND
  5
A9
330
A6
100
AcDbEntity
  8
_U+30EC_U+30A4_U+30E4_U+30FC 1
 62
   179
420
  2234388
370
     9
  0
INSERT
  5
AB
330
1F
100
AcDbEntity
  8
_U+30EC_U+30A4_U+30E4_U+30FC 1
100
AcDbBlockReference
  2
block 6
 10
0.0
 20
0.0
 30
0.0
  0
POLYLINE
  5
B3
330
1F
100
AcDbEntity
  8
_U+30EC_U+30A4_U+30E4_U+30FC 1
 62
   179
420
  2234388
370
     9
100
AcDb2dPolyline
 66
     1
 10
0.0
 20
0.0
 30
0.0
  0
VERTEX
  5
B4
330
B3
100
AcDbEntity
  8
_U+30EC_U+30A4_U+30E4_U+30FC 1
 62
   179
420
  2234388
370
     9
100
AcDbVertex
100
AcDb2dVertex
 10
68.76841685668263
 20
-116.0459677487663
 30
0.0
  0
VERTEX
  5
B5
330
B3
100
AcDbEntity
  8
_U+30EC_U+30A4_U+30E4_U+30FC 1
 62
   179
420
  2234388
370
     9
100
AcDbVertex
100
AcDb2dVertex
 10
68.76841685668263
 20
-143.4458649641388
 30
0.0
  0
SEQEND
  5
B6
330
B3
100
AcDbEntity
  8
_U+30EC_U+30A4_U+30E4_U+30FC 1
 62
   179
420
  2234388
370
     9
  0
POLYLINE
  5
B7
330
1F
100
AcDbEntity
  8
_U+30EC_U+30A4_U+30E4_U+30FC 1
 62
   179
420
  2234388
370
     9
100
AcDb2dPolyline
 66
     1
 10
0.0
 20
0.0
 30
0.0
  0
VERTEX
  5
B8
330
B7
100
AcDbEntity
  8
_U+30EC_U+30A4_U+30E4_U+30FC 1
 62
   179
420
  2234388
370
     9
100
AcDbVertex
100
AcDb2dVertex
 10
70.22845820832276
 20
-116.0459677487663
 30
0.0
  0
VERTEX
  5
B9
330
B7
100
AcDbEntity
  8
_U+30EC_U+30A4_U+30E4_U+30FC 1
 62
   179
420
  2234388
370
     9
100
AcDbVertex
100
AcDb2dVertex
 10
67.76864465996672
 20
-116.0459677487663
 30
0.0
  0
SEQEND
  5
BA
330
B7
100
AcDbEntity
  8
_U+30EC_U+30A4_U+30E4_U+30FC 1
 62
   179
420
  2234388
370
     9
  0
POLYLINE
  5
BB
330
1F
100
AcDbEntity
  8
_U+30EC_U+30A4_U+30E4_U+30FC 1
 62
   179
420
  2234388
370
     9
100
AcDb2dPolyline
 66
     1
 10
0.0
 20
0.0
 30
0.0
  0
VERTEX
  5
BC
330
BB
100
AcDbEntity
  8
_U+30EC_U+30A4_U+30E4_U+30FC 1
 62
   179
420
  2234388
370
     9
100
AcDbVertex
100
AcDb2dVertex
 10
70.22845820832276
 20
-143.4458649641388
 30
0.0
  0
VERTEX
  5
BD
330
BB
100
AcDbEntity
  8
_U+30EC_U+30A4_U+30E4_U+30FC 1
 62
   179
420
  2234388
370
     9
100
AcDbVertex
100
AcDb2dVertex
 10
67.76864465996672
 20
-143.4458649641388
 30
0.0
  0
SEQEND
  5
BE
330
BB
100
AcDbEntity
  8
_U+30EC_U+30A4_U+30E4_U+30FC 1
 62
   179
420
  2234388
370
     9
  0
INSERT
  5
C0
330
1F
100
AcDbEntity
  8
_U+30EC_U+30A4_U+30E4_U+30FC 1
100
AcDbBlockReference
  2
block 7
 10
0.0
 20
0.0
 30
0.0
  0
POLYLINE
  5
E4
330
1F
100
AcDbEntity
  8
_U+30EC_U+30A4_U+30E4_U+30FC 1
 62
   179
420
  2234388
370
    25
100
AcDb2dPolyline
 66
     1
 10
0.0
 20
0.0
 30
0.0
  0
VERTEX
  5
E5
330
E4
100
AcDbEntity
  8
_U+30EC_U+30A4_U+30E4_U+30FC 1
 62
   179
420
  2234388
370
    25
100
AcDbVertex
100
AcDb2dVertex
 10
72.76817775958571
 20
-143.4458649641388
 30
0.0
  0
VERTEX
  5
E6
330
E4
100
AcDbEntity
  8
_U+30EC_U+30A4_U+30E4_U+30FC 1
 62
   179
420
  2234388
370
    25
100
AcDbVertex
100
AcDb2dVertex
 10
72.76817775958571
 20
-116.0459677487663
 30
0.0
  0
VERTEX
  5
E7
330
E4
100
AcDbEntity
  8
_U+30EC_U+30A4_U+30E4_U+30FC 1
 62
   179
420
  2234388
370
    25
100
AcDbVertex
100
AcDb2dVertex
 10
92.07570553253677
 20
-116.0459677487663
 30
0.0
  0
VERTEX
  5
E8
330
E4
100
AcDbEntity
  8
_U+30EC_U+30A4_U+30E4_U+30FC 1
 62
   179
420
  2234388
370
    25
100
AcDbVertex
100
AcDb2dVertex
 10
92.76813541106547
 20
-117.2462588595773
 30
0.0
  0
VERTEX
  5
E9
330
E4
100
AcDbEntity
  8
_U+30EC_U+30A4_U+30E4_U+30FC 1
 62
   179
420
  2234388
370
    25
100
AcDbVertex
100
AcDb2dVertex
 10
73.9684317240192
 20
-117.2462588595773
 30
0.0
  0
VERTEX
  5
EA
330
E4
100
AcDbEntity
  8
_U+30EC_U+30A4_U+30E4_U+30FC 1
 62
   179
420
  2234388
370
    25
100
AcDbVertex
100
AcDb2dVertex
 10
73.9684317240192
 20
-142.2459266311052
 30
0.0
  0
VERTEX
  5
EB
330
E4
100
AcDbEntity
  8
_U+30EC_U+30A4_U+30E4_U+30FC 1
 62
   179
420
  2234388
370
    25
100
AcDbVertex
100
AcDb2dVertex
 10
107.7681050283844
 20
-142.2459266311052
 30
0.0
  0
VERTEX
  5
EC
330
E4
100
AcDbEntity
  8
_U+30EC_U+30A4_U+30E4_U+30FC 1
 62
   179
420
  2234388
370
    25
100
AcDbVertex
100
AcDb2dVertex
 10
107.7681050283844
 20
-143.4458649641388
 30
0.0
  0
VERTEX
  5
ED
330
E4
100
AcDbEntity
  8
_U+30EC_U+30A4_U+30E4_U+30FC 1
 62
   179
420
  2234388
370
    25
100
AcDbVertex
100
AcDb2dVertex
 10
72.76817775958571
 20
-143.4458649641388
 30
0.0
  0
SEQEND
  5
EE
330
E4
100
AcDbEntity
  8
_U+30EC_U+30A4_U+30E4_U+30FC 1
 62
   179
420
  2234388
370
    25
  0
POLYLINE
  5
EF
330
1F
100
AcDbEntity
  8
_U+30EC_U+30A4_U+30E4_U+30FC 1
 62
   179
420
  2234388
370
     9
100
AcDb2dPolyline
 66
     1
 10
0.0
 20
0.0
 30
0.0
  0
VERTEX
  5
F0
330
EF
100
AcDbEntity
  8
_U+30EC_U+30A4_U+30E4_U+30FC 1
 62
   179
420
  2234388
370
     9
100
AcDbVertex
100
AcDb2dVertex
 10
92.76813541106547
 20
-122.1494819139071
 30
0.0
  0
VERTEX
  5
F1
330
EF
100
AcDbEntity
  8
_U+30EC_U+30A4_U+30E4_U+30FC 1
 62
   179
420
  2234388
370
     9
100
AcDbVertex
100
AcDb2dVertex
 10
92.76813541106547
 20
-118.2939030259819
 30
0.0
  0
SEQEND
  5
F2
330
EF
100
AcDbEntity
  8
_U+30EC_U+30A4_U+30E4_U+30FC 1
 62
   179
420
  2234388
370
     9
  0
POLYLINE
  5
F3
330
1F
100
AcDbEntity
  8
_U+30EC_U+30A4_U+30E4_U+30FC 1
 62
   179
420
  2234388
370
     9
100
AcDb2dPolyline
 66
     1
 10
0.0
 20
0.0
 30
0.0
  0
VERTEX
  5
F4
330
F3
100
AcDbEntity
  8
_U+30EC_U+30A4_U+30E4_U+30FC 1
 62
   179
420
  2234388
370
     9
100
AcDbVertex
100
AcDb2dVertex
 10
92.76813541106547
 20
-118.2939030259819
 30
0.0
  0
VERTEX
  5
F5
330
F3
100
AcDbEntity
  8
_U+30EC_U+30A4_U+30E4_U+30FC 1
 62
   179
420
  2234388
370
     9
100
AcDbVertex
100
AcDb2dVertex
 10
92.5097609732127
 20
-119.2599144146293
 30
0.0
  0
SEQEND
  5
F6
330
F3
100
AcDbEntity
  8
_U+30EC_U+30A4_U+30E4_U+30FC 1
 62
   179
420
  2234388
370
     9
  0
POLYLINE
  5
F7
330
1F
100
AcDbEntity
  8
_U+30EC_U+30A4_U+30E4_U+30FC 1
 62
   179
420
  2234388
370
     9
100
AcDb2dPolyline
 66
     1
 10
0.0
 20
0.0
 30
0.0
  0
VERTEX
  5
F8
330
F7
100
AcDbEntity
  8
_U+30EC_U+30A4_U+30E4_U+30FC 1
 62
   179
420
  2234388
370
     9
100
AcDbVertex
100
AcDb2dVertex
 10
92.76813541106547
 20
-118.2939030259819
 30
0.0
  0
VERTEX
  5
F9
330
F7
100
AcDbEntity
  8
_U+30EC_U+30A4_U+30E4_U+30FC 1
 62
   179
420
  2234388
370
     9
100
AcDbVertex
100
AcDb2dVertex
 10
93.02721540445579
 20
-119.2599144146293
 30
0.0
  0
SEQEND
  5
FA
330
F7
100
AcDbEntity
  8
_U+30EC_U+30A4_U+30E4_U+30FC 1
 62
   179
420
  2234388
370
     9
  0
ENDSEC
  0
SECTION
  2
OBJECTS
  0
DICTIONARY
  5
C
330
0
100
AcDbDictionary
281
     1
  3
ACAD_GROUP
350
D
  3
ACAD_LAYOUT
350
1A
  3
ACAD_MATERIAL
350
3B
  3
ACAD_MLEADERSTYLE
350
FC
  3
ACAD_MLINESTYLE
350
17
  3
ACAD_PLOTSETTINGS
350
19
  3
ACAD_PLOTSTYLENAME
350
E
  3
ACAD_TABLESTYLE
350
FB
  3
ACAD_VISUALSTYLE
350
2A
  0
SUN
  5
3F
330
29
100
AcDbSun
 90
        1
290
     0
 63
     7
421
 16777215
 40
1.0
291
     1
 91
  2455826
 92
 54000000
292
     0
 70
     2
 71
   256
280
     1
  0
DICTIONARY
  5
D
102
{ACAD_REACTORS
330
C
102
}
330
C
100
AcDbDictionary
281
     1
  0
DICTIONARY
  5
1A
102
{ACAD_REACTORS
330
C
102
}
330
C
100
AcDbDictionary
281
     1
  3
Layout1
350
1E
  3
Layout2
350
26
  3
Model
350
22
  0
DICTIONARY
  5
3B
102
{ACAD_REACTORS
330
C
102
}
330
C
100
AcDbDictionary
281
     1
  3
ByBlock
350
3D
  3
ByLayer
350
3C
  3
Global
350
3E
  0
DICTIONARY
  5
FC
102
{ACAD_REACTORS
330
C
102
}
330
C
100
AcDbDictionary
281
     1
  0
DICTIONARY
  5
17
102
{ACAD_REACTORS
330
C
102
}
330
C
100
AcDbDictionary
281
     1
  3
Standard
350
18
  0
DICTIONARY
  5
19
102
{ACAD_REACTORS
330
C
102
}
330
C
100
AcDbDictionary
281
     1
  0
ACDBDICTIONARYWDFLT
  5
E
102
{ACAD_REACTORS
330
C
102
}
330
C
100
AcDbDictionary
281
     1
  3
Normal
350
F
100
AcDbDictionaryWithDefault
340
F
  0
DICTIONARY
  5
FB
102
{ACAD_REACTORS
330
C
102
}
330
C
100
AcDbDictionary
281
     1
  0
DICTIONARY
  5
2A
102
{ACAD_REACTORS
330
C
102
}
330
C
100
AcDbDictionary
281
     1
  3
2dWireframe
350
2F
  3
3D Hidden
350
31
  3
3dWireframe
350
30
  3
Basic
350
32
  3
Brighten
350
36
  3
ColorChange
350
3A
  3
Conceptual
350
34
  3
Dim
350
35
  3
Facepattern
350
39
  3
Flat
350
2B
  3
FlatWithEdges
350
2C
  3
Gouraud
350
2D
  3
GouraudWithEdges
350
2E
  3
Linepattern
350
38
  3
Realistic
350
33
  3
Thicken
350
37
  0
LAYOUT
  5
1E
102
{ACAD_REACTORS
330
1A
102
}
330
1A
100
AcDbPlotSettings
  1

  2
none_device
  4

  6

 40
0.0
 41
0.0
 42
0.0
 43
0.0
 44
0.0
 45
0.0
 46
0.0
 47
0.0
 48
0.0
 49
0.0
140
0.0
141
0.0
142
1.0
143
1.0
 70
   688
 72
     0
 73
     0
 74
     5
  7

 75
    16
 76
     0
 77
     2
 78
   300
147
1.0
148
0.0
149
0.0
100
AcDbLayout
  1
Layout1
 70
     1
 71
     1
 10
0.0
 20
0.0
 11
12.0
 21
9.0
 12
0.0
 22
0.0
 32
0.0
 14
1.000000000000000E+20
 24
1.000000000000000E+20
 34
1.000000000000000E+20
 15
-1.000000000000000E+20
 25
-1.000000000000000E+20
 35
-1.000000000000000E+20
146
0.0
 13
0.0
 23
0.0
 33
0.0
 16
1.0
 26
0.0
 36
0.0
 17
0.0
 27
1.0
 37
0.0
 76
     0
330
1B
  0
LAYOUT
  5
26
102
{ACAD_REACTORS
330
1A
102
}
330
1A
100
AcDbPlotSettings
  1

  2
none_device
  4

  6

 40
0.0
 41
0.0
 42
0.0
 43
0.0
 44
0.0
 45
0.0
 46
0.0
 47
0.0
 48
0.0
 49
0.0
140
0.0
141
0.0
142
1.0
143
1.0
 70
   688
 72
     0
 73
     0
 74
     5
  7

 75
    16
 76
     0
 77
     2
 78
   300
147
1.0
148
0.0
149
0.0
100
AcDbLayout
  1
Layout2
 70
     1
 71
     2
 10
0.0
 20
0.0
 11
0.0
 21
0.0
 12
0.0
 22
0.0
 32
0.0
 14
0.0
 24
0.0
 34
0.0
 15
0.0
 25
0.0
 35
0.0
146
0.0
 13
0.0
 23
0.0
 33
0.0
 16
1.0
 26
0.0
 36
0.0
 17
0.0
 27
1.0
 37
0.0
 76
     0
330
23
  0
LAYOUT
  5
22
102
{ACAD_REACTORS
330
1A
102
}
330
1A
100
AcDbPlotSettings
  1

  2
none_device
  4

  6

 40
0.0
 41
0.0
 42
0.0
 43
0.0
 44
0.0
 45
0.0
 46
0.0
 47
0.0
 48
0.0
 49
0.0
140
0.0
141
0.0
142
1.0
143
1.0
 70
  1712
 72
     0
 73
     0
 74
     0
  7

 75
     0
 76
     0
 77
     2
 78
   300
147
1.0
148
0.0
149
0.0
100
AcDbLayout
  1
Model
 70
     1
 71
     0
 10
0.0
 20
0.0
 11
12.0
 21
9.0
 12
0.0
 22
0.0
 32
0.0
 14
1.000000000000000E+20
 24
1.000000000000000E+20
 34
1.000000000000000E+20
 15
-1.000000000000000E+20
 25
-1.000000000000000E+20
 35
-1.000000000000000E+20
146
0.0
 13
0.0
 23
0.0
 33
0.0
 16
1.0
 26
0.0
 36
0.0
 17
0.0
 27
1.0
 37
0.0
 76
     0
330
1F
331
29
  0
MATERIAL
  5
3D
102
{ACAD_REACTORS
330
3B
102
}
330
3B
100
AcDbMaterial
  1
ByBlock
 72
     1
 94
      127
  0
MATERIAL
  5
3C
102
{ACAD_REACTORS
330
3B
102
}
330
3B
100
AcDbMaterial
  1
ByLayer
 72
     1
 94
      127
  0
MATERIAL
  5
3E
102
{ACAD_REACTORS
330
3B
102
}
330
3B
100
AcDbMaterial
  1
Global
 72
     1
 94
      127
  0
MLINESTYLE
  5
18
102
{ACAD_REACTORS
330
17
102
}
330
17
100
AcDbMlineStyle
  2
Standard
 70
     0
  3

 62
   256
 51
90.0
 52
90.0
 71
     2
 49
0.5
 62
   256
  6
BYLAYER
 49
-0.5
 62
   256
  6
BYLAYER
  0
ACDBPLACEHOLDER
  5
F
102
{ACAD_REACTORS
330
E
102
}
330
E
  0
VISUALSTYLE
  5
2F
102
{ACAD_REACTORS
330
2A
102
}
330
2A
100
AcDbVisualStyle
  2
2dWireframe
 70
     4
177
     2
291
     0
 71
     0
176
     1
 72
     2
176
     1
 73
     0
176
     1
 90
        0
176
     1
 40
-0.6
176
     1
 41
-30.0
176
     1
 62
     5
 63
     7
421
 16777215
176
     1
 74
     1
176
     1
 91
        4
176
     1
 64
     7
176
     1
 65
   257
176
     1
 75
     1
176
     1
175
     1
176
     1
 42
1.0
176
     1
 92
        0
176
     1
 66
   257
176
     1
 43
1.0
176
     1
 76
     1
176
     1
 77
     6
176
     1
 78
     2
176
     1
 67
     7
176
     1
 79
     5
176
     1
170
     0
176
     1
171
     0
176
     1
290
     0
176
     1
 93
        1
176
     1
 44
0.0
176
     1
173
     0
176
     1
  0
VISUALSTYLE
  5
31
102
{ACAD_REACTORS
330
2A
102
}
330
2A
100
AcDbVisualStyle
  2
3D Hidden
 70
     6
177
     2
291
     0
 71
     1
176
     1
 72
     2
176
     1
 73
     2
176
     1
 90
        0
176
     1
 40
-0.6
176
     1
 41
-30.0
176
     1
 62
     5
 63
     7
421
 16777215
176
     1
 74
     2
176
     1
 91
        2
176
     1
 64
     7
176
     1
 65
   257
176
     1
 75
     2
176
     1
175
     1
176
     1
 42
40.0
176
     1
 92
        0
176
     1
 66
   257
176
     1
 43
1.0
176
     1
 76
     1
176
     1
 77
     6
176
     1
 78
     2
176
     1
 67
     7
176
     1
 79
     3
176
     1
170
     0
176
     1
171
     0
176
     1
290
     0
176
     1
 93
        1
176
     1
 44
0.0
176
     1
173
     0
176
     1
  0
VISUALSTYLE
  5
30
102
{ACAD_REACTORS
330
2A
102
}
330
2A
100
AcDbVisualStyle
  2
3dWireframe
 70
     5
177
     2
291
     0
 71
     0
176
     1
 72
     2
176
     1
 73
     0
176
     1
 90
        0
176
     1
 40
-0.6
176
     1
 41
-30.0
176
     1
 62
     5
 63
     7
421
 16777215
176
     1
 74
     1
176
     1
 91
        4
176
     1
 64
     7
176
     1
 65
   257
176
     1
 75
     1
176
     1
175
     1
176
     1
 42
1.0
176
     1
 92
        0
176
     1
 66
   257
176
     1
 43
1.0
176
     1
 76
     1
176
     1
 77
     6
176
     1
 78
     2
176
     1
 67
     7
176
     1
 79
     5
176
     1
170
     0
176
     1
171
     0
176
     1
290
     0
176
     1
 93
        1
176
     1
 44
0.0
176
     1
173
     0
176
     1
  0
VISUALSTYLE
  5
32
102
{ACAD_REACTORS
330
2A
102
}
330
2A
100
AcDbVisualStyle
  2
Basic
 70
     7
177
     2
291
     1
 71
     1
176
     1
 72
     0
176
     1
 73
     1
176
     1
 90
        0
176
     1
 40
-0.6
176
     1
 41
-30.0
176
     1
 62
     5
 63
     7
421
 16777215
176
     1
 74
     0
176
     1
 91
        4
176
     1
 64
     7
176
     1
 65
   257
176
     1
 75
     1
176
     1
175
     1
176
     1
 42
1.0
176
     1
 92
        8
176
     1
 66
     7
176
     1
 43
1.0
176
     1
 76
     1
176
     1
 77
     6
176
     1
 78
     2
176
     1
 67
     7
176
     1
 79
     5
176
     1
170
     0
176
     1
171
     0
176
     1
290
     0
176
     1
 93
        1
176
     1
 44
0.0
176
     1
173
     0
176
     1
  0
VISUALSTYLE
  5
36
102
{ACAD_REACTORS
330
2A
102
}
330
2A
100
AcDbVisualStyle
  2
Brighten
 70
    12
177
     2
291
     1
 71
     2
176
     1
 72
     2
176
     1
 73
     0
176
     1
 90
        0
176
     1
 40
-0.6
176
     1
 41
-30.0
176
     1
 62
     5
 63
     7
421
 16777215
176
     1
 74
     1
176
     1
 91
        4
176
     1
 64
     7
176
     1
 65
   257
176
     1
 75
     1
176
     1
175
     1
176
     1
 42
1.0
176
     1
 92
        8
176
     1
 66
     7
176
     1
 43
1.0
176
     1
 76
     1
176
     1
 77
     6
176
     1
 78
     2
176
     1
 67
     7
176
     1
 79
     5
176
     1
170
     0
176
     1
171
     0
176
     1
290
     0
176
     1
 93
        1
176
     1
 44
50.0
176
     1
173
     0
176
     1
  0
VISUALSTYLE
  5
3A
102
{ACAD_REACTORS
330
2A
102
}
330
2A
100
AcDbVisualStyle
  2
ColorChange
 70
    16
177
     2
291
     1
 71
     2
176
     1
 72
     2
176
     1
 73
     3
176
     1
 90
        0
176
     1
 40
-0.6
176
     1
 41
-30.0
176
     1
 62
     5
 63
     8
421
  8421504
176
     1
 74
     1
176
     1
 91
        4
176
     1
 64
     7
176
     1
 65
   257
176
     1
 75
     1
176
     1
175
     1
176
     1
 42
1.0
176
     1
 92
        8
176
     1
 66
     8
424
  8421504
176
     1
 43
1.0
176
     1
 76
     1
176
     1
 77
     6
176
     1
 78
     2
176
     1
 67
     7
176
     1
 79
     5
176
     1
170
     0
176
     1
171
     0
176
     1
290
     0
176
     1
 93
        1
176
     1
 44
0.0
176
     1
173
     0
176
     1
  0
VISUALSTYLE
  5
34
102
{ACAD_REACTORS
330
2A
102
}
330
2A
100
AcDbVisualStyle
  2
Conceptual
 70
     9
177
     2
291
     0
 71
     3
176
     1
 72
     2
176
     1
 73
     0
176
     1
 90
        0
176
     1
 40
-0.6
176
     1
 41
-30.0
176
     1
 62
     5
 63
     7
421
 16777215
176
     1
 74
     2
176
     1
 91
        2
176
     1
 64
     7
176
     1
 65
   257
176
     1
 75
     1
176
     1
175
     1
176
     1
 42
40.0
176
     1
 92
        8
176
     1
 66
     7
176
     1
 43
1.0
176
     1
 76
     1
176
     1
 77
     6
176
     1
 78
     2
176
     1
 67
     7
176
     1
 79
     3
176
     1
170
     0
176
     1
171
     0
176
     1
290
     0
176
     1
 93
        1
176
     1
 44
0.0
176
     1
173
     0
176
     1
  0
VISUALSTYLE
  5
35
102
{ACAD_REACTORS
330
2A
102
}
330
2A
100
AcDbVisualStyle
  2
Dim
 70
    11
177
     2
291
     1
 71
     2
176
     1
 72
     2
176
     1
 73
     0
176
     1
 90
        0
176
     1
 40
-0.6
176
     1
 41
-30.0
176
     1
 62
     5
 63
     7
421
 16777215
176
     1
 74
     1
176
     1
 91
        4
176
     1
 64
     7
176
     1
 65
   257
176
     1
 75
     1
176
     1
175
     1
176
     1
 42
1.0
176
     1
 92
        8
176
     1
 66
     7
176
     1
 43
1.0
176
     1
 76
     1
176
     1
 77
     6
176
     1
 78
     2
176
     1
 67
     7
176
     1
 79
     5
176
     1
170
     0
176
     1
171
     0
176
     1
290
     0
176
     1
 93
        1
176
     1
 44
-50.0
176
     1
173
     0
176
     1
  0
VISUALSTYLE
  5
39
102
{ACAD_REACTORS
330
2A
102
}
330
2A
100
AcDbVisualStyle
  2
Facepattern
 70
    15
177
     2
291
     1
 71
     2
176
     1
 72
     2
176
     1
 73
     0
176
     1
 90
        0
176
     1
 40
-0.6
176
     1
 41
-30.0
176
     1
 62
     5
 63
     7
421
 16777215
176
     1
 74
     1
176
     1
 91
        4
176
     1
 64
     7
176
     1
 65
   257
176
     1
 75
     1
176
     1
175
     1
176
     1
 42
1.0
176
     1
 92
        8
176
     1
 66
     7
176
     1
 43
1.0
176
     1
 76
     1
176
     1
 77
     6
176
     1
 78
     2
176
     1
 67
     7
176
     1
 79
     5
176
     1
170
     0
176
     1
171
     0
176
     1
290
     0
176
     1
 93
        1
176
     1
 44
0.0
176
     1
173
     0
176
     1
  0
VISUALSTYLE
  5
2B
102
{ACAD_REACTORS
330
2A
102
}
330
2A
100
AcDbVisualStyle
  2
Flat
 70
     0
177
     2
291
     1
 71
     2
176
     1
 72
     1
176
     1
 73
     1
176
     1
 90
        2
176
     1
 40
-0.6
176
     1
 41
30.0
176
     1
 62
     5
 63
     7
421
 16777215
176
     1
 74
     0
176
     1
 91
        4
176
     1
 64
     7
176
     1
 65
   257
176
     1
 75
     1
176
     1
175
     1
176
     1
 42
1.0
176
     1
 92
        8
176
     1
 66
     7
176
     1
 43
1.0
176
     1
 76
     1
176
     1
 77
     6
176
     1
 78
     2
176
     1
 67
     7
176
     1
 79
     5
176
     1
170
     0
176
     1
171
     0
176
     1
290
     0
176
     1
 93
       13
176
     1
 44
0.0
176
     1
173
     0
176
     1
  0
VISUALSTYLE
  5
2C
102
{ACAD_REACTORS
330
2A
102
}
330
2A
100
AcDbVisualStyle
  2
FlatWithEdges
 70
     1
177
     2
291
     1
 71
     2
176
     1
 72
     1
176
     1
 73
     1
176
     1
 90
        2
176
     1
 40
-0.6
176
     1
 41
30.0
176
     1
 62
     5
 63
     7
421
 16777215
176
     1
 74
     1
176
     1
 91
        4
176
     1
 64
     7
176
     1
 65
   257
176
     1
 75
     1
176
     1
175
     1
176
     1
 42
1.0
176
     1
 92
        0
176
     1
 66
   257
176
     1
 43
1.0
176
     1
 76
     1
176
     1
 77
     6
176
     1
 78
     2
176
     1
 67
     7
176
     1
 79
     5
176
     1
170
     0
176
     1
171
     0
176
     1
290
     0
176
     1
 93
       13
176
     1
 44
0.0
176
     1
173
     0
176
     1
  0
VISUALSTYLE
  5
2D
102
{ACAD_REACTORS
330
2A
102
}
330
2A
100
AcDbVisualStyle
  2
Gouraud
 70
     2
177
     2
291
     1
 71
     2
176
     1
 72
     2
176
     1
 73
     1
176
     1
 90
        2
176
     1
 40
-0.6
176
     1
 41
30.0
176
     1
 62
     5
 63
     7
421
 16777215
176
     1
 74
     0
176
     1
 91
        4
176
     1
 64
     7
176
     1
 65
   257
176
     1
 75
     1
176
     1
175
     1
176
     1
 42
1.0
176
     1
 92
        0
176
     1
 66
     7
176
     1
 43
1.0
176
     1
 76
     1
176
     1
 77
     6
176
     1
 78
     2
176
     1
 67
     7
176
     1
 79
     5
176
     1
170
     0
176
     1
171
     0
176
     1
290
     0
176
     1
 93
       13
176
     1
 44
0.0
176
     1
173
     0
176
     1
  0
VISUALSTYLE
  5
2E
102
{ACAD_REACTORS
330
2A
102
}
330
2A
100
AcDbVisualStyle
  2
GouraudWithEdges
 70
     3
177
     2
291
     1
 71
     2
176
     1
 72
     2
176
     1
 73
     1
176
     1
 90
        2
176
     1
 40
-0.6
176
     1
 41
30.0
176
     1
 62
     5
 63
     7
421
 16777215
176
     1
 74
     1
176
     1
 91
        4
176
     1
 64
     7
176
     1
 65
   257
176
     1
 75
     1
176
     1
175
     1
176
     1
 42
1.0
176
     1
 92
        0
176
     1
 66
   257
176
     1
 43
1.0
176
     1
 76
     1
176
     1
 77
     6
176
     1
 78
     2
176
     1
 67
     7
176
     1
 79
     5
176
     1
170
     0
176
     1
171
     0
176
     1
290
     0
176
     1
 93
       13
176
     1
 44
0.0
176
     1
173
     0
176
     1
  0
VISUALSTYLE
  5
38
102
{ACAD_REACTORS
330
2A
102
}
330
2A
100
AcDbVisualStyle
  2
Linepattern
 70
    14
177
     2
291
     1
 71
     2
176
     1
 72
     2
176
     1
 73
     0
176
     1
 90
        0
176
     1
 40
-0.6
176
     1
 41
-30.0
176
     1
 62
     5
 63
     7
421
 16777215
176
     1
 74
     1
176
     1
 91
        4
176
     1
 64
     7
176
     1
 65
   257
176
     1
 75
     7
176
     1
175
     7
176
     1
 42
1.0
176
     1
 92
        8
176
     1
 66
     7
176
     1
 43
1.0
176
     1
 76
     1
176
     1
 77
     6
176
     1
 78
     2
176
     1
 67
     7
176
     1
 79
     5
176
     1
170
     0
176
     1
171
     0
176
     1
290
     0
176
     1
 93
        1
176
     1
 44
0.0
176
     1
173
     0
176
     1
  0
VISUALSTYLE
  5
33
102
{ACAD_REACTORS
330
2A
102
}
330
2A
100
AcDbVisualStyle
  2
Realistic
 70
     8
177
     2
291
     0
 71
     2
176
     1
 72
     2
176
     1
 73
     0
176
     1
 90
        0
176
     1
 40
-0.6
176
     1
 41
-30.0
176
     1
 62
     5
 63
     7
421
 16777215
176
     1
 74
     1
176
     1
 91
        0
176
     1
 64
     7
176
     1
 65
   257
176
     1
 75
     1
176
     1
175
     1
176
     1
 42
1.0
176
     1
 92
        8
176
     1
 66
     8
424
  7895160
176
     1
 43
1.0
176
     1
 76
     1
176
     1
 77
     6
176
     1
 78
     2
176
     1
 67
     7
176
     1
 79
     5
176
     1
170
     0
176
     1
171
     0
176
     1
290
     0
176
     1
 93
       13
176
     1
 44
0.0
176
     1
173
     0
176
     1
  0
VISUALSTYLE
  5
37
102
{ACAD_REACTORS
330
2A
102
}
330
2A
100
AcDbVisualStyle
  2
Thicken
 70
    13
177
     2
291
     1
 71
     2
176
     1
 72
     2
176
     1
 73
     0
176
     1
 90
        0
176
     1
 40
-0.6
176
     1
 41
-30.0
176
     1
 62
     5
 63
     7
421
 16777215
176
     1
 74
     1
176
     1
 91
        4
176
     1
 64
     7
176
     1
 65
   257
176
     1
 75
     1
176
     1
175
     1
176
     1
 42
1.0
176
     1
 92
       12
176
     1
 66
     7
176
     1
 43
1.0
176
     1
 76
     1
176
     1
 77
     6
176
     1
 78
     2
176
     1
 67
     7
176
     1
 79
     5
176
     1
170
     0
176
     1
171
     0
176
     1
290
     0
176
     1
 93
        1
176
     1
 44
0.0
176
     1
173
     0
176
     1
  0
ENDSEC
  0
EOF
