  0
SECTION
  2
HEADER
  9
$ACADVER
  1
AC1024
  9
$ACADMAINTVER
 70
     6
  9
$DWGCODEPAGE
  3
UNDEFINED
  9
$INSBASE
 10
0.0
 20
0.0
 30
0.0
  9
$EXTMIN
 10
1.000000000000000E+20
 20
1.000000000000000E+20
 30
1.000000000000000E+20
  9
$EXTMAX
 10
-1.000000000000000E+20
 20
-1.000000000000000E+20
 30
-1.000000000000000E+20
  9
$LIMMIN
 10
0.0
 20
0.0
  9
$LIMMAX
 10
12.0
 20
9.0
  9
$ORTHOMODE
 70
     0
  9
$REGENMODE
 70
     1
  9
$FILLMODE
 70
     1
  9
$QTEXTMODE
 70
     0
  9
$MIRRTEXT
 70
     1
  9
$LTSCALE
 40
1.0
  9
$ATTMODE
 70
     1
  9
$TEXTSIZE
 40
0.2
  9
$TRACEWID
 40
0.05
  9
$TEXTSTYLE
  7
Standard
  9
$CLAYER
  8
0
  9
$CELTYPE
  6
ByLayer
  9
$CECOLOR
 62
   256
  9
$CELTSCALE
 40
1.0
  9
$DISPSILH
 70
     0
  9
$DIMSCALE
 40
1.0
  9
$DIMASZ
 40
0.18
  9
$DIMEXO
 40
0.0625
  9
$DIMDLI
 40
0.38
  9
$DIMRND
 40
0.0
  9
$DIMDLE
 40
0.0
  9
$DIMEXE
 40
0.18
  9
$DIMTP
 40
0.0
  9
$DIMTM
 40
0.0
  9
$DIMTXT
 40
0.18
  9
$DIMCEN
 40
0.09
  9
$DIMTSZ
 40
0.0
  9
$DIMTOL
 70
     0
  9
$DIMLIM
 70
     0
  9
$DIMTIH
 70
     1
  9
$DIMTOH
 70
     1
  9
$DIMSE1
 70
     0
  9
$DIMSE2
 70
     0
  9
$DIMTAD
 70
     0
  9
$DIMZIN
 70
     0
  9
$DIMBLK
  1

  9
$DIMASO
 70
     1
  9
$DIMSHO
 70
     1
  9
$DIMPOST
  1

  9
$DIMAPOST
  1

  9
$DIMALT
 70
     0
  9
$DIMALTD
 70
     2
  9
$DIMALTF
 40
25.4
  9
$DIMLFAC
 40
1.0
  9
$DIMTOFL
 70
     0
  9
$DIMTVP
 40
0.0
  9
$DIMTIX
 70
     0
  9
$DIMSOXD
 70
     0
  9
$DIMSAH
 70
     0
  9
$DIMBLK1
  1

  9
$DIMBLK2
  1

  9
$DIMSTYLE
  2
Standard
  9
$DIMCLRD
 70
     0
  9
$DIMCLRE
 70
     0
  9
$DIMCLRT
 70
     0
  9
$DIMTFAC
 40
1.0
  9
$DIMGAP
 40
0.09
  9
$DIMJUST
 70
     0
  9
$DIMSD1
 70
     0
  9
$DIMSD2
 70
     0
  9
$DIMTOLJ
 70
     1
  9
$DIMTZIN
 70
     0
  9
$DIMALTZ
 70
     0
  9
$DIMALTTZ
 70
     0
  9
$DIMUPT
 70
     0
  9
$DIMDEC
 70
     4
  9
$DIMTDEC
 70
     4
  9
$DIMALTU
 70
     2
  9
$DIMALTTD
 70
     2
  9
$DIMTXSTY
  7
Standard
  9
$DIMAUNIT
 70
     0
  9
$DIMADEC
 70
     0
  9
$DIMALTRND
 40
0.0
  9
$DIMAZIN
 70
     0
  9
$DIMDSEP
 70
    46
  9
$DIMATFIT
 70
     3
  9
$DIMFRAC
 70
     0
  9
$DIMLDRBLK
  1

  9
$DIMLUNIT
 70
     2
  9
$DIMLWD
 70
    -2
  9
$DIMLWE
 70
    -2
  9
$DIMTMOVE
 70
     0
  9
$DIMFXL
 40
1.0
  9
$DIMFXLON
 70
     0
  9
$DIMJOGANG
 40
0.7853981633974483
  9
$DIMTFILL
 70
     0
  9
$DIMTFILLCLR
 70
     0
  9
$DIMARCSYM
 70
     0
  9
$DIMLTYPE
  6

  9
$DIMLTEX1
  6

  9
$DIMLTEX2
  6

  9
$DIMTXTDIRECTION
 70
     0
  9
$LUNITS
 70
     2
  9
$LUPREC
 70
     4
  9
$SKETCHINC
 40
0.1
  9
$FILLETRAD
 40
0.5
  9
$AUNITS
 70
     0
  9
$AUPREC
 70
     0
  9
$MENU
  1
.
  9
$ELEVATION
 40
0.0
  9
$PELEVATION
 40
0.0
  9
$THICKNESS
 40
0.0
  9
$LIMCHECK
 70
     0
  9
$CHAMFERA
 40
0.5
  9
$CHAMFERB
 40
0.5
  9
$CHAMFERC
 40
1.0
  9
$CHAMFERD
 40
0.0
  9
$SKPOLY
 70
     0
  9
$TDCREATE
 40
2457917.599328704
  9
$TDUCREATE
 40
2457917.224328704
  9
$TDUPDATE
 40
2457917.599328704
  9
$TDUUPDATE
 40
2457917.224328704
  9
$TDINDWG
 40
0.0000000116
  9
$TDUSRTIMER
 40
0.0000000116
  9
$USRTIMER
 70
     1
  9
$ANGBASE
 50
0.0
  9
$ANGDIR
 70
     0
  9
$PDMODE
 70
     0
  9
$PDSIZE
 40
0.0
  9
$PLINEWID
 40
0.0
  9
$SPLFRAME
 70
     0
  9
$SPLINETYPE
 70
     6
  9
$SPLINESEGS
 70
     8
  9
$HANDSEED
  5
B5
  9
$SURFTAB1
 70
     6
  9
$SURFTAB2
 70
     6
  9
$SURFTYPE
 70
     6
  9
$SURFU
 70
     6
  9
$SURFV
 70
     6
  9
$UCSBASE
  2

  9
$UCSNAME
  2

  9
$UCSORG
 10
0.0
 20
0.0
 30
0.0
  9
$UCSXDIR
 10
1.0
 20
0.0
 30
0.0
  9
$UCSYDIR
 10
0.0
 20
1.0
 30
0.0
  9
$UCSORTHOREF
  2

  9
$UCSORTHOVIEW
 70
     0
  9
$UCSORGTOP
 10
0.0
 20
0.0
 30
0.0
  9
$UCSORGBOTTOM
 10
0.0
 20
0.0
 30
0.0
  9
$UCSORGLEFT
 10
0.0
 20
0.0
 30
0.0
  9
$UCSORGRIGHT
 10
0.0
 20
0.0
 30
0.0
  9
$UCSORGFRONT
 10
0.0
 20
0.0
 30
0.0
  9
$UCSORGBACK
 10
0.0
 20
0.0
 30
0.0
  9
$PUCSBASE
  2

  9
$PUCSNAME
  2

  9
$PUCSORG
 10
0.0
 20
0.0
 30
0.0
  9
$PUCSXDIR
 10
1.0
 20
0.0
 30
0.0
  9
$PUCSYDIR
 10
0.0
 20
1.0
 30
0.0
  9
$PUCSORTHOREF
  2

  9
$PUCSORTHOVIEW
 70
     0
  9
$PUCSORGTOP
 10
0.0
 20
0.0
 30
0.0
  9
$PUCSORGBOTTOM
 10
0.0
 20
0.0
 30
0.0
  9
$PUCSORGLEFT
 10
0.0
 20
0.0
 30
0.0
  9
$PUCSORGRIGHT
 10
0.0
 20
0.0
 30
0.0
  9
$PUCSORGFRONT
 10
0.0
 20
0.0
 30
0.0
  9
$PUCSORGBACK
 10
0.0
 20
0.0
 30
0.0
  9
$USERI1
 70
     0
  9
$USERI2
 70
     0
  9
$USERI3
 70
     0
  9
$USERI4
 70
     0
  9
$USERI5
 70
     0
  9
$USERR1
 40
0.0
  9
$USERR2
 40
0.0
  9
$USERR3
 40
0.0
  9
$USERR4
 40
0.0
  9
$USERR5
 40
0.0
  9
$WORLDVIEW
 70
     1
  9
$SHADEDGE
 70
     3
  9
$SHADEDIF
 70
    70
  9
$TILEMODE
 70
     1
  9
$MAXACTVP
 70
    64
  9
$PINSBASE
 10
0.0
 20
0.0
 30
0.0
  9
$PLIMCHECK
 70
     0
  9
$PEXTMIN
 10
1.000000000000000E+20
 20
1.000000000000000E+20
 30
1.000000000000000E+20
  9
$PEXTMAX
 10
-1.000000000000000E+20
 20
-1.000000000000000E+20
 30
-1.000000000000000E+20
  9
$PLIMMIN
 10
0.0
 20
0.0
  9
$PLIMMAX
 10
12.0
 20
9.0
  9
$UNITMODE
 70
     0
  9
$VISRETAIN
 70
     1
  9
$PLINEGEN
 70
     0
  9
$PSLTSCALE
 70
     1
  9
$TREEDEPTH
 70
  3020
  9
$CMLSTYLE
  2
Standard
  9
$CMLJUST
 70
     0
  9
$CMLSCALE
 40
1.0
  9
$PROXYGRAPHICS
 70
     1
  9
$MEASUREMENT
 70
     0
  9
$CELWEIGHT
370
    -1
  9
$ENDCAPS
280
     0
  9
$JOINSTYLE
280
     0
  9
$LWDISPLAY
290
     1
  9
$INSUNITS
 70
     1
  9
$HYPERLINKBASE
  1

  9
$STYLESHEET
  1

  9
$XEDIT
290
     1
  9
$CEPSNTYPE
380
     0
  9
$PSTYLEMODE
290
     1
  9
$FINGERPRINTGUID
  2
{6E49ECFE-1C1D-73AF-6534-B6BDF47AF09C}
  9
$VERSIONGUID
  2
{FAEB1C32-E019-11D5-929B-00C0DF256EC4}
  9
$EXTNAMES
290
     1
  9
$PSVPSCALE
 40
0.0
  9
$OLESTARTUP
290
     0
  9
$SORTENTS
280
   127
  9
$INDEXCTL
280
     0
  9
$HIDETEXT
280
     1
  9
$XCLIPFRAME
280
     2
  9
$HALOGAP
280
     0
  9
$OBSCOLOR
 70
   257
  9
$OBSLTYPE
280
     0
  9
$INTERSECTIONDISPLAY
280
     0
  9
$INTERSECTIONCOLOR
 70
   257
  9
$DIMASSOC
280
     2
  9
$PROJECTNAME
  1

  9
$CAMERADISPLAY
290
     0
  9
$LENSLENGTH
 40
50.0
  9
$CAMERAHEIGHT
 40
0.0
  9
$STEPSPERSEC
 40
2.0
  9
$STEPSIZE
 40
6.0
  9
$3DDWFPREC
 40
2.0
  9
$PSOLWIDTH
 40
0.25
  9
$PSOLHEIGHT
 40
4.0
  9
$LOFTANG1
 40
1.570796326794897
  9
$LOFTANG2
 40
1.570796326794897
  9
$LOFTMAG1
 40
0.0
  9
$LOFTMAG2
 40
0.0
  9
$LOFTPARAM
 70
     7
  9
$LOFTNORMALS
280
     1
  9
$LATITUDE
 40
37.795
  9
$LONGITUDE
 40
-122.394
  9
$NORTHDIRECTION
 40
0.0
  9
$TIMEZONE
 70
 -8000
  9
$LIGHTGLYPHDISPLAY
280
     1
  9
$TILEMODELIGHTSYNCH
280
     1
  9
$CMATERIAL
347
3C
  9
$SOLIDHIST
280
     1
  9
$SHOWHIST
280
     1
  9
$DWFFRAME
280
     2
  9
$DGNFRAME
280
     2
  9
$REALWORLDSCALE
290
     1
  9
$INTERFERECOLOR
 62
   256
  9
$CSHADOW
280
     0
  9
$SHADOWPLANELOCATION
 40
0.0
  0
ENDSEC
  0
SECTION
  2
CLASSES
  0
CLASS
  1
ACDBDICTIONARYWDFLT
  2
AcDbDictionaryWithDefault
  3
ObjectDBX Classes
 90
        0
 91
        4
280
     0
281
     0
  0
CLASS
  1
VISUALSTYLE
  2
AcDbVisualStyle
  3
ObjectDBX Classes
 90
     4095
 91
        4
280
     0
281
     0
  0
CLASS
  1
MATERIAL
  2
AcDbMaterial
  3
ObjectDBX Classes
 90
     1153
 91
        4
280
     0
281
     0
  0
CLASS
  1
SUN
  2
AcDbSun
  3
SCENEOE
 90
     1024
 91
        4
280
     0
281
     0
  0
ENDSEC
  0
SECTION
  2
TABLES
  0
TABLE
  2
VPORT
  5
8
330
0
100
AcDbSymbolTable
 70
     1
  0
VPORT
  5
29
330
8
100
AcDbSymbolTableRecord
100
AcDbViewportTableRecord
  2
*Active
 70
     0
 10
0.0
 20
0.0
 11
1.0
 21
1.0
 12
0.0
 22
0.0
 13
0.0
 23
0.0
 14
0.5
 24
0.5
 15
0.5
 25
0.5
 16
0.0
 26
0.0
 36
1.0
 17
91.00082462281999
 27
-128.4993055234307
 37
0.0
 40
256.9986110468615
 41
0.7081814508812795
 42
50.0
 43
0.0
 44
0.0
 50
0.0
 51
0.0
 71
     0
 72
   100
 73
     1
 74
     3
 75
     0
 76
     0
 77
     0
 78
     0
281
     0
 65
     1
110
0.0
120
0.0
130
0.0
111
1.0
121
0.0
131
0.0
112
0.0
122
1.0
132
0.0
 79
     0
146
0.0
 60
     3
 61
     5
292
     1
282
     1
141
0.0
142
0.0
 63
   250
361
3F
  0
ENDTAB
  0
TABLE
  2
LTYPE
  5
5
330
0
100
AcDbSymbolTable
 70
     1
  0
LTYPE
  5
14
330
5
100
AcDbSymbolTableRecord
100
AcDbLinetypeTableRecord
  2
ByBlock
 70
     0
  3

 72
    65
 73
     0
 40
0.0
  0
LTYPE
  5
15
330
5
100
AcDbSymbolTableRecord
100
AcDbLinetypeTableRecord
  2
ByLayer
 70
     0
  3

 72
    65
 73
     0
 40
0.0
  0
LTYPE
  5
16
330
5
100
AcDbSymbolTableRecord
100
AcDbLinetypeTableRecord
  2
Continuous
 70
     0
  3
Solid line
 72
    65
 73
     0
 40
0.0
  0
ENDTAB
  0
TABLE
  2
LAYER
  5
2
330
0
100
AcDbSymbolTable
 70
     2
  0
LAYER
  5
10
330
2
100
AcDbSymbolTableRecord
100
AcDbLayerTableRecord
  2
0
 70
     0
 62
     7
  6
Continuous
370
    -3
390
F
347
3E
  0
LAYER
  5
40
330
2
100
AcDbSymbolTableRecord
100
AcDbLayerTableRecord
  2
_U+30EC_U+30A4_U+30E4_U+30FC 1
 70
     0
 62
     7
  6
Continuous
370
    -3
390
F
347
3E
  0
ENDTAB
  0
TABLE
  2
STYLE
  5
3
330
0
100
AcDbSymbolTable
 70
     1
  0
STYLE
  5
11
330
3
100
AcDbSymbolTableRecord
100
AcDbTextStyleTableRecord
  2
Standard
 70
     0
 40
0.0
 41
1.0
 50
0.0
 71
     0
 42
0.2
  3
txt
  4

  0
ENDTAB
  0
TABLE
  2
VIEW
  5
6
330
0
100
AcDbSymbolTable
 70
     0
  0
ENDTAB
  0
TABLE
  2
UCS
  5
7
330
0
100
AcDbSymbolTable
 70
     0
  0
ENDTAB
  0
TABLE
  2
APPID
  5
9
330
0
100
AcDbSymbolTable
 70
     1
  0
APPID
  5
12
330
9
100
AcDbSymbolTableRecord
100
AcDbRegAppTableRecord
  2
ACAD
 70
     0
  0
ENDTAB
  0
TABLE
  2
DIMSTYLE
  5
A
330
0
100
AcDbSymbolTable
 70
     1
100
AcDbDimStyleTable
  0
DIMSTYLE
105
27
330
A
100
AcDbSymbolTableRecord
100
AcDbDimStyleTableRecord
  2
Standard
 70
     0
178
     0
340
11
  0
ENDTAB
  0
TABLE
  2
BLOCK_RECORD
  5
1
330
0
100
AcDbSymbolTable
 70
     6
  0
BLOCK_RECORD
  5
1F
330
1
100
AcDbSymbolTableRecord
100
AcDbBlockTableRecord
  2
*Model_Space
340
22
 70
     0
280
     1
281
     0
  0
BLOCK_RECORD
  5
1B
330
1
100
AcDbSymbolTableRecord
100
AcDbBlockTableRecord
  2
*Paper_Space
340
1E
 70
     0
280
     1
281
     0
  0
BLOCK_RECORD
  5
23
330
1
100
AcDbSymbolTableRecord
100
AcDbBlockTableRecord
  2
*Paper_Space0
340
26
 70
     0
280
     1
281
     0
  0
BLOCK_RECORD
  5
5F
330
1
100
AcDbSymbolTableRecord
100
AcDbBlockTableRecord
  2
block 2
340
0
102
{BLKREFS
331
60
102
}
 70
     0
280
     1
281
     0
  0
BLOCK_RECORD
  5
71
330
1
100
AcDbSymbolTableRecord
100
AcDbBlockTableRecord
  2
block 3
340
0
102
{BLKREFS
331
72
102
}
 70
     0
280
     1
281
     0
  0
BLOCK_RECORD
  5
81
330
1
100
AcDbSymbolTableRecord
100
AcDbBlockTableRecord
  2
block 4
340
0
102
{BLKREFS
331
82
102
}
 70
     0
280
     1
281
     0
  0
BLOCK_RECORD
  5
96
330
1
100
AcDbSymbolTableRecord
100
AcDbBlockTableRecord
  2
block 5
340
0
102
{BLKREFS
331
97
102
}
 70
     0
280
     1
281
     0
  0
BLOCK_RECORD
  5
AB
330
1
100
AcDbSymbolTableRecord
100
AcDbBlockTableRecord
  2
block 6
340
0
102
{BLKREFS
331
AC
102
}
 70
     0
280
     1
281
     0
  0
ENDTAB
  0
ENDSEC
  0
SECTION
  2
BLOCKS
  0
BLOCK
  5
20
330
1F
100
AcDbEntity
  8
0
100
AcDbBlockBegin
  2
*Model_Space
 70
     0
 10
0.0
 20
0.0
 30
0.0
  3
*Model_Space
  1

  0
ENDBLK
  5
21
330
1F
100
AcDbEntity
  8
0
100
AcDbBlockEnd
  0
BLOCK
  5
1C
330
1B
100
AcDbEntity
 67
     1
  8
0
100
AcDbBlockBegin
  2
*Paper_Space
 70
     0
 10
0.0
 20
0.0
 30
0.0
  3
*Paper_Space
  1

  0
ENDBLK
  5
1D
330
1B
100
AcDbEntity
 67
     1
  8
0
100
AcDbBlockEnd
  0
BLOCK
  5
24
330
23
100
AcDbEntity
  8
0
100
AcDbBlockBegin
  2
*Paper_Space0
 70
     0
 10
0.0
 20
0.0
 30
0.0
  3
*Paper_Space0
  1

  0
ENDBLK
  5
25
330
23
100
AcDbEntity
  8
0
100
AcDbBlockEnd
  0
BLOCK
  5
61
330
5F
100
AcDbEntity
  8
0
100
AcDbBlockBegin
  2
block 2
 70
     0
 10
0.0
 20
0.0
 30
0.0
  3
block 2
  1

  0
SPLINE
  5
63
330
5F
100
AcDbEntity
  8
_U+30EC_U+30A4_U+30E4_U+30FC 1
370
     0
100
AcDbSpline
210
0.0
220
0.0
230
1.0
 70
    11
 71
     3
 72
    26
 73
    22
 74
     0
 42
0.0000000001
 43
0.0000000001
 12
1.0
 22
0.0
 32
0.0
 13
1.0
 23
0.0
 33
0.0
 40
0.0
 40
0.0
 40
0.0
 40
0.0
 40
1.0
 40
1.0
 40
1.0
 40
2.0
 40
2.0
 40
2.0
 40
3.0
 40
3.0
 40
3.0
 40
4.0
 40
4.0
 40
4.0
 40
5.0
 40
5.0
 40
5.0
 40
6.0
 40
6.0
 40
6.0
 40
7.0
 40
7.0
 40
7.0
 40
7.0
 10
104.7484727385698
 20
-130.5801431965216
 30
0.0
 10
104.7484727385698
 20
-130.5801431965216
 30
0.0
 10
103.6443196355473
 20
-130.5801431965216
 30
0.0
 10
103.6443196355473
 20
-130.5801431965216
 30
0.0
 10
103.6443196355473
 20
-130.5801431965216
 30
0.0
 10
103.6443196355473
 20
-130.9101833440086
 30
0.0
 10
103.6443196355473
 20
-130.9101833440086
 30
0.0
 10
103.6443196355473
 20
-130.9101833440086
 30
0.0
 10
103.4961805296815
 20
-130.9101833440086
 30
0.0
 10
103.4961805296815
 20
-130.9101833440086
 30
0.0
 10
103.4813666190949
 20
-130.5780761392305
 30
0.0
 10
103.3184136026426
 20
-130.5312228406311
 30
0.0
 10
103.2040364325323
 20
-130.5015950194579
 30
0.0
 10
103.2040364325323
 20
-130.5015950194579
 30
0.0
 10
103.2040364325323
 20
-130.3555229708834
 30
0.0
 10
103.2040364325323
 20
-130.3555229708834
 30
0.0
 10
103.2040364325323
 20
-130.3555229708834
 30
0.0
 10
104.7484727385698
 20
-130.3555229708834
 30
0.0
 10
104.7484727385698
 20
-130.3555229708834
 30
0.0
 10
104.7484727385698
 20
-130.3555229708834
 30
0.0
 10
104.7484727385698
 20
-130.5801431965216
 30
0.0
 10
104.7484727385698
 20
-130.5801431965216
 30
0.0
  0
HATCH
  5
64
330
5F
100
AcDbEntity
  8
_U+30EC_U+30A4_U+30E4_U+30FC 1
 62
     7
420
 16777215
100
AcDbHatch
 10
0.0
 20
0.0
 30
0.0
210
0.0
220
0.0
230
1.0
  2
SOLID
 70
     1
 71
     0
 91
        1
 92
        1
 93
        1
 72
     4
 94
        3
 73
     0
 74
     1
 95
       26
 96
       22
 40
0.0
 40
0.0
 40
0.0
 40
0.0
 40
1.0
 40
1.0
 40
1.0
 40
2.0
 40
2.0
 40
2.0
 40
3.0
 40
3.0
 40
3.0
 40
4.0
 40
4.0
 40
4.0
 40
5.0
 40
5.0
 40
5.0
 40
6.0
 40
6.0
 40
6.0
 40
7.0
 40
7.0
 40
7.0
 40
7.0
 10
104.7484727385698
 20
-130.5801431965216
 10
104.7484727385698
 20
-130.5801431965216
 10
103.6443196355473
 20
-130.5801431965216
 10
103.6443196355473
 20
-130.5801431965216
 10
103.6443196355473
 20
-130.5801431965216
 10
103.6443196355473
 20
-130.9101833440086
 10
103.6443196355473
 20
-130.9101833440086
 10
103.6443196355473
 20
-130.9101833440086
 10
103.4961805296815
 20
-130.9101833440086
 10
103.4961805296815
 20
-130.9101833440086
 10
103.4813666190949
 20
-130.5780761392305
 10
103.3184136026426
 20
-130.5312228406311
 10
103.2040364325323
 20
-130.5015950194579
 10
103.2040364325323
 20
-130.5015950194579
 10
103.2040364325323
 20
-130.3555229708834
 10
103.2040364325323
 20
-130.3555229708834
 10
103.2040364325323
 20
-130.3555229708834
 10
104.7484727385698
 20
-130.3555229708834
 10
104.7484727385698
 20
-130.3555229708834
 10
104.7484727385698
 20
-130.3555229708834
 10
104.7484727385698
 20
-130.5801431965216
 10
104.7484727385698
 20
-130.5801431965216
 97
        0
 97
        0
 75
     2
 76
     1
 98
        0
  0
SPLINE
  5
65
330
5F
100
AcDbEntity
  8
_U+30EC_U+30A4_U+30E4_U+30FC 1
370
     0
100
AcDbSpline
210
0.0
220
0.0
230
1.0
 70
    11
 71
     3
 72
    44
 73
    40
 74
     0
 42
0.0000000001
 43
0.0000000001
 12
1.0
 22
0.0
 32
0.0
 13
1.0
 23
0.0
 33
0.0
 40
0.0
 40
0.0
 40
0.0
 40
0.0
 40
1.0
 40
1.0
 40
1.0
 40
2.0
 40
2.0
 40
2.0
 40
3.0
 40
3.0
 40
3.0
 40
4.0
 40
4.0
 40
4.0
 40
5.0
 40
5.0
 40
5.0
 40
6.0
 40
6.0
 40
6.0
 40
7.0
 40
7.0
 40
7.0
 40
8.0
 40
8.0
 40
8.0
 40
9.0
 40
9.0
 40
9.0
 40
10.0
 40
10.0
 40
10.0
 40
11.0
 40
11.0
 40
11.0
 40
12.0
 40
12.0
 40
12.0
 40
13.0
 40
13.0
 40
13.0
 40
13.0
 10
104.1665961111111
 20
-129.261360644768
 30
0.0
 10
104.3254150129812
 20
-129.4790906794358
 30
0.0
 10
104.399484565914
 20
-129.5721082575375
 30
0.0
 10
104.5431450476489
 20
-129.6210286134281
 30
0.0
 10
104.5431450476489
 20
-129.6210286134281
 30
0.0
 10
104.5431450476489
 20
-128.8424370337616
 30
0.0
 10
104.5431450476489
 20
-128.8424370337616
 30
0.0
 10
104.5431450476489
 20
-128.8424370337616
 30
0.0
 10
104.7484727385698
 20
-128.8424370337616
 30
0.0
 10
104.7484727385698
 20
-128.8424370337616
 30
0.0
 10
104.7484727385698
 20
-128.8424370337616
 30
0.0
 10
104.7484727385698
 20
-129.8704535265602
 30
0.0
 10
104.7484727385698
 20
-129.8704535265602
 30
0.0
 10
104.3908718272009
 20
-129.8387586480959
 30
0.0
 10
104.3126681596857
 20
-129.7733018338761
 30
0.0
 10
104.0143228906631
 20
-129.3881401586252
 30
0.0
 10
103.8155408811642
 20
-129.1325140736197
 30
0.0
 10
103.7476725001048
 20
-129.0670572593999
 30
0.0
 10
103.6102131902433
 20
-129.0670572593999
 30
0.0
 10
103.4917019055507
 20
-129.0670572593999
 30
0.0
 10
103.3607882771112
 20
-129.1387152454931
 30
0.0
 10
103.3607882771112
 20
-129.3357747072494
 30
0.0
 10
103.3607882771112
 20
-129.5955349068372
 30
0.0
 10
103.5912651650744
 20
-129.6044921550989
 30
0.0
 10
103.7077093924758
 20
-129.6086262696812
 30
0.0
 10
103.7077093924758
 20
-129.6086262696812
 30
0.0
 10
103.7077093924758
 20
-129.8325574762224
 30
0.0
 10
103.7077093924758
 20
-129.8325574762224
 30
0.0
 10
103.5805853690701
 20
-129.8242892470578
 30
0.0
 10
103.4686197657995
 20
-129.813264941505
 30
0.0
 10
103.3501084811069
 20
-129.7333387262472
 30
0.0
 10
103.1892225219458
 20
-129.6230956707192
 30
0.0
 10
103.1554605861903
 20
-129.4370605145157
 30
0.0
 10
103.1554605861903
 20
-129.3206162871143
 30
0.0
 10
103.1554605861903
 20
-129.0436306101002
 30
0.0
 10
103.3394286851026
 20
-128.8362358618882
 30
0.0
 10
103.6122802475344
 20
-128.8362358618882
 30
0.0
 10
103.841034587755
 20
-128.8362358618882
 30
0.0
 10
103.9402533377302
 20
-128.9526800892896
 30
0.0
 10
104.1665961111111
 20
-129.261360644768
 30
0.0
  0
HATCH
  5
66
330
5F
100
AcDbEntity
  8
_U+30EC_U+30A4_U+30E4_U+30FC 1
 62
     7
420
 16777215
100
AcDbHatch
 10
0.0
 20
0.0
 30
0.0
210
0.0
220
0.0
230
1.0
  2
SOLID
 70
     1
 71
     0
 91
        1
 92
        1
 93
        1
 72
     4
 94
        3
 73
     0
 74
     1
 95
       44
 96
       40
 40
0.0
 40
0.0
 40
0.0
 40
0.0
 40
1.0
 40
1.0
 40
1.0
 40
2.0
 40
2.0
 40
2.0
 40
3.0
 40
3.0
 40
3.0
 40
4.0
 40
4.0
 40
4.0
 40
5.0
 40
5.0
 40
5.0
 40
6.0
 40
6.0
 40
6.0
 40
7.0
 40
7.0
 40
7.0
 40
8.0
 40
8.0
 40
8.0
 40
9.0
 40
9.0
 40
9.0
 40
10.0
 40
10.0
 40
10.0
 40
11.0
 40
11.0
 40
11.0
 40
12.0
 40
12.0
 40
12.0
 40
13.0
 40
13.0
 40
13.0
 40
13.0
 10
104.1665961111111
 20
-129.261360644768
 10
104.3254150129812
 20
-129.4790906794358
 10
104.399484565914
 20
-129.5721082575375
 10
104.5431450476489
 20
-129.6210286134281
 10
104.5431450476489
 20
-129.6210286134281
 10
104.5431450476489
 20
-128.8424370337616
 10
104.5431450476489
 20
-128.8424370337616
 10
104.5431450476489
 20
-128.8424370337616
 10
104.7484727385698
 20
-128.8424370337616
 10
104.7484727385698
 20
-128.8424370337616
 10
104.7484727385698
 20
-128.8424370337616
 10
104.7484727385698
 20
-129.8704535265602
 10
104.7484727385698
 20
-129.8704535265602
 10
104.3908718272009
 20
-129.8387586480959
 10
104.3126681596857
 20
-129.7733018338761
 10
104.0143228906631
 20
-129.3881401586252
 10
103.8155408811642
 20
-129.1325140736197
 10
103.7476725001048
 20
-129.0670572593999
 10
103.6102131902433
 20
-129.0670572593999
 10
103.4917019055507
 20
-129.0670572593999
 10
103.3607882771112
 20
-129.1387152454931
 10
103.3607882771112
 20
-129.3357747072494
 10
103.3607882771112
 20
-129.5955349068372
 10
103.5912651650744
 20
-129.6044921550989
 10
103.7077093924758
 20
-129.6086262696812
 10
103.7077093924758
 20
-129.6086262696812
 10
103.7077093924758
 20
-129.8325574762224
 10
103.7077093924758
 20
-129.8325574762224
 10
103.5805853690701
 20
-129.8242892470578
 10
103.4686197657995
 20
-129.813264941505
 10
103.3501084811069
 20
-129.7333387262472
 10
103.1892225219458
 20
-129.6230956707192
 10
103.1554605861903
 20
-129.4370605145157
 10
103.1554605861903
 20
-129.3206162871143
 10
103.1554605861903
 20
-129.0436306101002
 10
103.3394286851026
 20
-128.8362358618882
 10
103.6122802475344
 20
-128.8362358618882
 10
103.841034587755
 20
-128.8362358618882
 10
103.9402533377302
 20
-128.9526800892896
 10
104.1665961111111
 20
-129.261360644768
 97
        0
 97
        0
 75
     2
 76
     1
 98
        0
  0
POLYLINE
  5
67
330
5F
100
AcDbEntity
  8
_U+30EC_U+30A4_U+30E4_U+30FC 1
370
     0
100
AcDb2dPolyline
 66
     1
 10
0.0
 20
0.0
 30
0.0
  0
VERTEX
  5
68
330
67
100
AcDbEntity
  8
_U+30EC_U+30A4_U+30E4_U+30FC 1
370
     0
100
AcDbVertex
100
AcDb2dVertex
 10
104.7484727385698
 20
-128.6176445533491
 30
0.0
  0
VERTEX
  5
69
330
67
100
AcDbEntity
  8
_U+30EC_U+30A4_U+30E4_U+30FC 1
370
     0
100
AcDbVertex
100
AcDb2dVertex
 10
104.4966362585981
 20
-128.6176445533491
 30
0.0
  0
VERTEX
  5
6A
330
67
100
AcDbEntity
  8
_U+30EC_U+30A4_U+30E4_U+30FC 1
370
     0
100
AcDbVertex
100
AcDb2dVertex
 10
104.4966362585981
 20
-128.3658080733773
 30
0.0
  0
VERTEX
  5
6B
330
67
100
AcDbEntity
  8
_U+30EC_U+30A4_U+30E4_U+30FC 1
370
     0
100
AcDbVertex
100
AcDb2dVertex
 10
104.7484727385698
 20
-128.3658080733773
 30
0.0
  0
VERTEX
  5
6C
330
67
100
AcDbEntity
  8
_U+30EC_U+30A4_U+30E4_U+30FC 1
370
     0
100
AcDbVertex
100
AcDb2dVertex
 10
104.7484727385698
 20
-128.6176445533491
 30
0.0
  0
SEQEND
  5
6D
330
67
100
AcDbEntity
  8
_U+30EC_U+30A4_U+30E4_U+30FC 1
370
     0
  0
HATCH
  5
6E
330
5F
100
AcDbEntity
  8
_U+30EC_U+30A4_U+30E4_U+30FC 1
 62
     7
420
 16777215
100
AcDbHatch
 10
0.0
 20
0.0
 30
0.0
210
0.0
220
0.0
230
1.0
  2
SOLID
 70
     1
 71
     0
 91
        1
 92
        1
 93
        4
 72
     1
 10
104.7484727385698
 20
-128.6176445533491
 11
104.4966362585981
 21
-128.6176445533491
 72
     1
 10
104.4966362585981
 20
-128.6176445533491
 11
104.4966362585981
 21
-128.3658080733773
 72
     1
 10
104.4966362585981
 20
-128.3658080733773
 11
104.7484727385698
 21
-128.3658080733773
 72
     1
 10
104.7484727385698
 20
-128.3658080733773
 11
104.7484727385698
 21
-128.6176445533491
 97
        0
 75
     2
 76
     1
 98
        0
  0
SPLINE
  5
6F
330
5F
100
AcDbEntity
  8
_U+30EC_U+30A4_U+30E4_U+30FC 1
370
     0
100
AcDbSpline
210
0.0
220
0.0
230
1.0
 70
    11
 71
     3
 72
    53
 73
    49
 74
     0
 42
0.0000000001
 43
0.0000000001
 12
1.0
 22
0.0
 32
0.0
 13
1.0
 23
0.0
 33
0.0
 40
0.0
 40
0.0
 40
0.0
 40
0.0
 40
1.0
 40
1.0
 40
1.0
 40
2.0
 40
2.0
 40
2.0
 40
3.0
 40
3.0
 40
3.0
 40
4.0
 40
4.0
 40
4.0
 40
5.0
 40
5.0
 40
5.0
 40
6.0
 40
6.0
 40
6.0
 40
7.0
 40
7.0
 40
7.0
 40
8.0
 40
8.0
 40
8.0
 40
9.0
 40
9.0
 40
9.0
 40
10.0
 40
10.0
 40
10.0
 40
11.0
 40
11.0
 40
11.0
 40
12.0
 40
12.0
 40
12.0
 40
13.0
 40
13.0
 40
13.0
 40
14.0
 40
14.0
 40
14.0
 40
15.0
 40
15.0
 40
15.0
 40
16.0
 40
16.0
 40
16.0
 40
16.0
 10
104.799115642203
 20
-127.6485391933483
 30
0.0
 10
104.799115642203
 20
-127.7267428608635
 30
0.0
 10
104.7822346743253
 20
-127.8283731776783
 30
0.0
 10
104.7188449173967
 20
-127.9300034944932
 30
0.0
 10
104.6089463714172
 20
-128.1032917974013
 30
0.0
 10
104.4776882334292
 20
-128.1246513894098
 30
0.0
 10
104.3698567447409
 20
-128.1435994145787
 30
0.0
 10
104.3698567447409
 20
-128.1435994145787
 30
0.0
 10
104.3698567447409
 20
-127.9213907557801
 30
0.0
 10
104.3698567447409
 20
-127.9213907557801
 30
0.0
 10
104.5686387542398
 20
-127.8666137375646
 30
0.0
 10
104.5982665754129
 20
-127.7394897141589
 30
0.0
 10
104.5982665754129
 20
-127.6464721360571
 30
0.0
 10
104.5982665754129
 20
-127.5069457689045
 30
0.0
 10
104.4987033158892
 20
-127.3546725484565
 30
0.0
 10
104.2661593706349
 20
-127.3546725484565
 30
0.0
 10
104.0101887760808
 20
-127.3546725484565
 30
0.0
 10
103.9402533377302
 20
-127.5345065327865
 30
0.0
 10
103.9402533377302
 20
-127.6550848747703
 30
0.0
 10
103.9402533377302
 20
-127.6867797532346
 30
0.0
 10
103.9402533377302
 20
-127.8283731776783
 30
0.0
 10
104.0694444184271
 20
-127.9172566411978
 30
0.0
 10
104.0694444184271
 20
-127.9172566411978
 30
0.0
 10
104.0504963932582
 20
-128.0929565109455
 30
0.0
 10
104.0504963932582
 20
-128.0929565109455
 30
0.0
 10
104.0504963932582
 20
-128.0929565109455
 30
0.0
 10
103.2040364325323
 20
-127.9723781689618
 30
0.0
 10
103.2040364325323
 20
-127.9723781689618
 30
0.0
 10
103.2040364325323
 20
-127.9723781689618
 30
0.0
 10
103.2040364325323
 20
-127.1937865892953
 30
0.0
 10
103.2040364325323
 20
-127.1937865892953
 30
0.0
 10
103.2040364325323
 20
-127.1937865892953
 30
0.0
 10
103.3986843274489
 20
-127.1937865892953
 30
0.0
 10
103.3986843274489
 20
-127.1937865892953
 30
0.0
 10
103.3986843274489
 20
-127.1937865892953
 30
0.0
 10
103.3986843274489
 20
-127.8094251525095
 30
0.0
 10
103.3986843274489
 20
-127.8094251525095
 30
0.0
 10
103.3986843274489
 20
-127.8094251525095
 30
0.0
 10
103.8217420530376
 20
-127.8748819667292
 30
0.0
 10
103.8217420530376
 20
-127.8748819667292
 30
0.0
 10
103.7879801172822
 20
-127.8135592670918
 30
0.0
 10
103.7476725001048
 20
-127.7312214849943
 30
0.0
 10
103.7476725001048
 20
-127.6127102003017
 30
0.0
 10
103.7476725001048
 20
-127.3588066630388
 30
0.0
 10
103.9340521658568
 20
-127.1217840936536
 30
0.0
 10
104.247211345466
 20
-127.1217840936536
 30
0.0
 10
104.5645046396575
 20
-127.1217840936536
 30
0.0
 10
104.799115642203
 20
-127.3460598097434
 30
0.0
 10
104.799115642203
 20
-127.6485391933483
 30
0.0
  0
HATCH
  5
70
330
5F
100
AcDbEntity
  8
_U+30EC_U+30A4_U+30E4_U+30FC 1
 62
     7
420
 16777215
100
AcDbHatch
 10
0.0
 20
0.0
 30
0.0
210
0.0
220
0.0
230
1.0
  2
SOLID
 70
     1
 71
     0
 91
        1
 92
        1
 93
        1
 72
     4
 94
        3
 73
     0
 74
     1
 95
       53
 96
       49
 40
0.0
 40
0.0
 40
0.0
 40
0.0
 40
1.0
 40
1.0
 40
1.0
 40
2.0
 40
2.0
 40
2.0
 40
3.0
 40
3.0
 40
3.0
 40
4.0
 40
4.0
 40
4.0
 40
5.0
 40
5.0
 40
5.0
 40
6.0
 40
6.0
 40
6.0
 40
7.0
 40
7.0
 40
7.0
 40
8.0
 40
8.0
 40
8.0
 40
9.0
 40
9.0
 40
9.0
 40
10.0
 40
10.0
 40
10.0
 40
11.0
 40
11.0
 40
11.0
 40
12.0
 40
12.0
 40
12.0
 40
13.0
 40
13.0
 40
13.0
 40
14.0
 40
14.0
 40
14.0
 40
15.0
 40
15.0
 40
15.0
 40
16.0
 40
16.0
 40
16.0
 40
16.0
 10
104.799115642203
 20
-127.6485391933483
 10
104.799115642203
 20
-127.7267428608635
 10
104.7822346743253
 20
-127.8283731776783
 10
104.7188449173967
 20
-127.9300034944932
 10
104.6089463714172
 20
-128.1032917974013
 10
104.4776882334292
 20
-128.1246513894098
 10
104.3698567447409
 20
-128.1435994145787
 10
104.3698567447409
 20
-128.1435994145787
 10
104.3698567447409
 20
-127.9213907557801
 10
104.3698567447409
 20
-127.9213907557801
 10
104.5686387542398
 20
-127.8666137375646
 10
104.5982665754129
 20
-127.7394897141589
 10
104.5982665754129
 20
-127.6464721360571
 10
104.5982665754129
 20
-127.5069457689045
 10
104.4987033158892
 20
-127.3546725484565
 10
104.2661593706349
 20
-127.3546725484565
 10
104.0101887760808
 20
-127.3546725484565
 10
103.9402533377302
 20
-127.5345065327865
 10
103.9402533377302
 20
-127.6550848747703
 10
103.9402533377302
 20
-127.6867797532346
 10
103.9402533377302
 20
-127.8283731776783
 10
104.0694444184271
 20
-127.9172566411978
 10
104.0694444184271
 20
-127.9172566411978
 10
104.0504963932582
 20
-128.0929565109455
 10
104.0504963932582
 20
-128.0929565109455
 10
104.0504963932582
 20
-128.0929565109455
 10
103.2040364325323
 20
-127.9723781689618
 10
103.2040364325323
 20
-127.9723781689618
 10
103.2040364325323
 20
-127.9723781689618
 10
103.2040364325323
 20
-127.1937865892953
 10
103.2040364325323
 20
-127.1937865892953
 10
103.2040364325323
 20
-127.1937865892953
 10
103.3986843274489
 20
-127.1937865892953
 10
103.3986843274489
 20
-127.1937865892953
 10
103.3986843274489
 20
-127.1937865892953
 10
103.3986843274489
 20
-127.8094251525095
 10
103.3986843274489
 20
-127.8094251525095
 10
103.3986843274489
 20
-127.8094251525095
 10
103.8217420530376
 20
-127.8748819667292
 10
103.8217420530376
 20
-127.8748819667292
 10
103.7879801172822
 20
-127.8135592670918
 10
103.7476725001048
 20
-127.7312214849943
 10
103.7476725001048
 20
-127.6127102003017
 10
103.7476725001048
 20
-127.3588066630388
 10
103.9340521658568
 20
-127.1217840936536
 10
104.247211345466
 20
-127.1217840936536
 10
104.5645046396575
 20
-127.1217840936536
 10
104.799115642203
 20
-127.3460598097434
 10
104.799115642203
 20
-127.6485391933483
 97
        0
 97
        0
 75
     2
 76
     1
 98
        0
  0
ENDBLK
  5
62
330
5F
100
AcDbEntity
  8
0
100
AcDbBlockEnd
  0
BLOCK
  5
73
330
71
100
AcDbEntity
  8
0
100
AcDbBlockBegin
  2
block 3
 70
     0
 10
0.0
 20
0.0
 30
0.0
  3
block 3
  1

  0
SPLINE
  5
75
330
71
100
AcDbEntity
  8
_U+30EC_U+30A4_U+30E4_U+30FC 1
370
     0
100
AcDbSpline
210
0.0
220
0.0
230
1.0
 70
    11
 71
     3
 72
    26
 73
    22
 74
     0
 42
0.0000000001
 43
0.0000000001
 12
1.0
 22
0.0
 32
0.0
 13
1.0
 23
0.0
 33
0.0
 40
0.0
 40
0.0
 40
0.0
 40
0.0
 40
1.0
 40
1.0
 40
1.0
 40
2.0
 40
2.0
 40
2.0
 40
3.0
 40
3.0
 40
3.0
 40
4.0
 40
4.0
 40
4.0
 40
5.0
 40
5.0
 40
5.0
 40
6.0
 40
6.0
 40
6.0
 40
7.0
 40
7.0
 40
7.0
 40
7.0
 10
104.7484727385698
 20
-119.4660929063314
 30
0.0
 10
104.7484727385698
 20
-119.4660929063314
 30
0.0
 10
103.6443196355473
 20
-119.4660929063314
 30
0.0
 10
103.6443196355473
 20
-119.4660929063314
 30
0.0
 10
103.6443196355473
 20
-119.4660929063314
 30
0.0
 10
103.6443196355473
 20
-119.7961330538183
 30
0.0
 10
103.6443196355473
 20
-119.7961330538183
 30
0.0
 10
103.6443196355473
 20
-119.7961330538183
 30
0.0
 10
103.4961805296815
 20
-119.7961330538183
 30
0.0
 10
103.4961805296815
 20
-119.7961330538183
 30
0.0
 10
103.4813666190949
 20
-119.4640258490403
 30
0.0
 10
103.3184136026426
 20
-119.4175170599894
 30
0.0
 10
103.2040364325323
 20
-119.3878892388162
 30
0.0
 10
103.2040364325323
 20
-119.3878892388162
 30
0.0
 10
103.2040364325323
 20
-119.2418171902416
 30
0.0
 10
103.2040364325323
 20
-119.2418171902416
 30
0.0
 10
103.2040364325323
 20
-119.2418171902416
 30
0.0
 10
104.7484727385698
 20
-119.2418171902416
 30
0.0
 10
104.7484727385698
 20
-119.2418171902416
 30
0.0
 10
104.7484727385698
 20
-119.2418171902416
 30
0.0
 10
104.7484727385698
 20
-119.4660929063314
 30
0.0
 10
104.7484727385698
 20
-119.4660929063314
 30
0.0
  0
HATCH
  5
76
330
71
100
AcDbEntity
  8
_U+30EC_U+30A4_U+30E4_U+30FC 1
 62
     7
420
 16777215
100
AcDbHatch
 10
0.0
 20
0.0
 30
0.0
210
0.0
220
0.0
230
1.0
  2
SOLID
 70
     1
 71
     0
 91
        1
 92
        1
 93
        1
 72
     4
 94
        3
 73
     0
 74
     1
 95
       26
 96
       22
 40
0.0
 40
0.0
 40
0.0
 40
0.0
 40
1.0
 40
1.0
 40
1.0
 40
2.0
 40
2.0
 40
2.0
 40
3.0
 40
3.0
 40
3.0
 40
4.0
 40
4.0
 40
4.0
 40
5.0
 40
5.0
 40
5.0
 40
6.0
 40
6.0
 40
6.0
 40
7.0
 40
7.0
 40
7.0
 40
7.0
 10
104.7484727385698
 20
-119.4660929063314
 10
104.7484727385698
 20
-119.4660929063314
 10
103.6443196355473
 20
-119.4660929063314
 10
103.6443196355473
 20
-119.4660929063314
 10
103.6443196355473
 20
-119.4660929063314
 10
103.6443196355473
 20
-119.7961330538183
 10
103.6443196355473
 20
-119.7961330538183
 10
103.6443196355473
 20
-119.7961330538183
 10
103.4961805296815
 20
-119.7961330538183
 10
103.4961805296815
 20
-119.7961330538183
 10
103.4813666190949
 20
-119.4640258490403
 10
103.3184136026426
 20
-119.4175170599894
 10
103.2040364325323
 20
-119.3878892388162
 10
103.2040364325323
 20
-119.3878892388162
 10
103.2040364325323
 20
-119.2418171902416
 10
103.2040364325323
 20
-119.2418171902416
 10
103.2040364325323
 20
-119.2418171902416
 10
104.7484727385698
 20
-119.2418171902416
 10
104.7484727385698
 20
-119.2418171902416
 10
104.7484727385698
 20
-119.2418171902416
 10
104.7484727385698
 20
-119.4660929063314
 10
104.7484727385698
 20
-119.4660929063314
 97
        0
 97
        0
 75
     2
 76
     1
 98
        0
  0
POLYLINE
  5
77
330
71
100
AcDbEntity
  8
_U+30EC_U+30A4_U+30E4_U+30FC 1
370
     0
100
AcDb2dPolyline
 66
     1
 10
0.0
 20
0.0
 30
0.0
  0
VERTEX
  5
78
330
77
100
AcDbEntity
  8
_U+30EC_U+30A4_U+30E4_U+30FC 1
370
     0
100
AcDbVertex
100
AcDb2dVertex
 10
104.7484727385698
 20
-118.6806111356944
 30
0.0
  0
VERTEX
  5
79
330
77
100
AcDbEntity
  8
_U+30EC_U+30A4_U+30E4_U+30FC 1
370
     0
100
AcDbVertex
100
AcDb2dVertex
 10
104.4966362585981
 20
-118.6806111356944
 30
0.0
  0
VERTEX
  5
7A
330
77
100
AcDbEntity
  8
_U+30EC_U+30A4_U+30E4_U+30FC 1
370
     0
100
AcDbVertex
100
AcDb2dVertex
 10
104.4966362585981
 20
-118.4287746557227
 30
0.0
  0
VERTEX
  5
7B
330
77
100
AcDbEntity
  8
_U+30EC_U+30A4_U+30E4_U+30FC 1
370
     0
100
AcDbVertex
100
AcDb2dVertex
 10
104.7484727385698
 20
-118.4287746557227
 30
0.0
  0
VERTEX
  5
7C
330
77
100
AcDbEntity
  8
_U+30EC_U+30A4_U+30E4_U+30FC 1
370
     0
100
AcDbVertex
100
AcDb2dVertex
 10
104.7484727385698
 20
-118.6806111356944
 30
0.0
  0
SEQEND
  5
7D
330
77
100
AcDbEntity
  8
_U+30EC_U+30A4_U+30E4_U+30FC 1
370
     0
  0
HATCH
  5
7E
330
71
100
AcDbEntity
  8
_U+30EC_U+30A4_U+30E4_U+30FC 1
 62
     7
420
 16777215
100
AcDbHatch
 10
0.0
 20
0.0
 30
0.0
210
0.0
220
0.0
230
1.0
  2
SOLID
 70
     1
 71
     0
 91
        1
 92
        1
 93
        4
 72
     1
 10
104.7484727385698
 20
-118.6806111356944
 11
104.4966362585981
 21
-118.6806111356944
 72
     1
 10
104.4966362585981
 20
-118.6806111356944
 11
104.4966362585981
 21
-118.4287746557227
 72
     1
 10
104.4966362585981
 20
-118.4287746557227
 11
104.7484727385698
 21
-118.4287746557227
 72
     1
 10
104.7484727385698
 20
-118.4287746557227
 11
104.7484727385698
 21
-118.6806111356944
 97
        0
 75
     2
 76
     1
 98
        0
  0
SPLINE
  5
7F
330
71
100
AcDbEntity
  8
_U+30EC_U+30A4_U+30E4_U+30FC 1
370
     0
100
AcDbSpline
210
0.0
220
0.0
230
1.0
 70
    11
 71
     3
 72
    53
 73
    49
 74
     0
 42
0.0000000001
 43
0.0000000001
 12
1.0
 22
0.0
 32
0.0
 13
1.0
 23
0.0
 33
0.0
 40
0.0
 40
0.0
 40
0.0
 40
0.0
 40
1.0
 40
1.0
 40
1.0
 40
2.0
 40
2.0
 40
2.0
 40
3.0
 40
3.0
 40
3.0
 40
4.0
 40
4.0
 40
4.0
 40
5.0
 40
5.0
 40
5.0
 40
6.0
 40
6.0
 40
6.0
 40
7.0
 40
7.0
 40
7.0
 40
8.0
 40
8.0
 40
8.0
 40
9.0
 40
9.0
 40
9.0
 40
10.0
 40
10.0
 40
10.0
 40
11.0
 40
11.0
 40
11.0
 40
12.0
 40
12.0
 40
12.0
 40
13.0
 40
13.0
 40
13.0
 40
14.0
 40
14.0
 40
14.0
 40
15.0
 40
15.0
 40
15.0
 40
16.0
 40
16.0
 40
16.0
 40
16.0
 10
104.799115642203
 20
-117.7115057756937
 30
0.0
 10
104.799115642203
 20
-117.7897094432088
 30
0.0
 10
104.7822346743253
 20
-117.8913397600237
 30
0.0
 10
104.7188449173967
 20
-117.9929700768386
 30
0.0
 10
104.6089463714172
 20
-118.1662583797466
 30
0.0
 10
104.4776882334292
 20
-118.1876179717552
 30
0.0
 10
104.3698567447409
 20
-118.2065659969241
 30
0.0
 10
104.3698567447409
 20
-118.2065659969241
 30
0.0
 10
104.3698567447409
 20
-117.9843573381254
 30
0.0
 10
104.3698567447409
 20
-117.9843573381254
 30
0.0
 10
104.5686387542398
 20
-117.92958031991
 30
0.0
 10
104.5982665754129
 20
-117.8024562965042
 30
0.0
 10
104.5982665754129
 20
-117.7094387184025
 30
0.0
 10
104.5982665754129
 20
-117.5699123512499
 30
0.0
 10
104.4987033158892
 20
-117.4176391308018
 30
0.0
 10
104.2661593706349
 20
-117.4176391308018
 30
0.0
 10
104.0101887760808
 20
-117.4176391308018
 30
0.0
 10
103.9402533377302
 20
-117.5974731151319
 30
0.0
 10
103.9402533377302
 20
-117.7180514571156
 30
0.0
 10
103.9402533377302
 20
-117.7497463355799
 30
0.0
 10
103.9402533377302
 20
-117.8913397600237
 30
0.0
 10
104.0694444184271
 20
-117.9802232235431
 30
0.0
 10
104.0694444184271
 20
-117.9802232235431
 30
0.0
 10
104.0504963932582
 20
-118.1559230932909
 30
0.0
 10
104.0504963932582
 20
-118.1559230932909
 30
0.0
 10
104.0504963932582
 20
-118.1559230932909
 30
0.0
 10
103.2040364325323
 20
-118.0353447513071
 30
0.0
 10
103.2040364325323
 20
-118.0353447513071
 30
0.0
 10
103.2040364325323
 20
-118.0353447513071
 30
0.0
 10
103.2040364325323
 20
-117.2567531716407
 30
0.0
 10
103.2040364325323
 20
-117.2567531716407
 30
0.0
 10
103.2040364325323
 20
-117.2567531716407
 30
0.0
 10
103.3986843274489
 20
-117.2567531716407
 30
0.0
 10
103.3986843274489
 20
-117.2567531716407
 30
0.0
 10
103.3986843274489
 20
-117.2567531716407
 30
0.0
 10
103.3986843274489
 20
-117.8723917348548
 30
0.0
 10
103.3986843274489
 20
-117.8723917348548
 30
0.0
 10
103.3986843274489
 20
-117.8723917348548
 30
0.0
 10
103.8217420530376
 20
-117.9378485490746
 30
0.0
 10
103.8217420530376
 20
-117.9378485490746
 30
0.0
 10
103.7879801172822
 20
-117.8765258494371
 30
0.0
 10
103.7476725001048
 20
-117.7941880673396
 30
0.0
 10
103.7476725001048
 20
-117.6756767826471
 30
0.0
 10
103.7476725001048
 20
-117.4217732453841
 30
0.0
 10
103.9340521658568
 20
-117.184750675999
 30
0.0
 10
104.247211345466
 20
-117.184750675999
 30
0.0
 10
104.5645046396575
 20
-117.184750675999
 30
0.0
 10
104.799115642203
 20
-117.4090263920887
 30
0.0
 10
104.799115642203
 20
-117.7115057756937
 30
0.0
  0
HATCH
  5
80
330
71
100
AcDbEntity
  8
_U+30EC_U+30A4_U+30E4_U+30FC 1
 62
     7
420
 16777215
100
AcDbHatch
 10
0.0
 20
0.0
 30
0.0
210
0.0
220
0.0
230
1.0
  2
SOLID
 70
     1
 71
     0
 91
        1
 92
        1
 93
        1
 72
     4
 94
        3
 73
     0
 74
     1
 95
       53
 96
       49
 40
0.0
 40
0.0
 40
0.0
 40
0.0
 40
1.0
 40
1.0
 40
1.0
 40
2.0
 40
2.0
 40
2.0
 40
3.0
 40
3.0
 40
3.0
 40
4.0
 40
4.0
 40
4.0
 40
5.0
 40
5.0
 40
5.0
 40
6.0
 40
6.0
 40
6.0
 40
7.0
 40
7.0
 40
7.0
 40
8.0
 40
8.0
 40
8.0
 40
9.0
 40
9.0
 40
9.0
 40
10.0
 40
10.0
 40
10.0
 40
11.0
 40
11.0
 40
11.0
 40
12.0
 40
12.0
 40
12.0
 40
13.0
 40
13.0
 40
13.0
 40
14.0
 40
14.0
 40
14.0
 40
15.0
 40
15.0
 40
15.0
 40
16.0
 40
16.0
 40
16.0
 40
16.0
 10
104.799115642203
 20
-117.7115057756937
 10
104.799115642203
 20
-117.7897094432088
 10
104.7822346743253
 20
-117.8913397600237
 10
104.7188449173967
 20
-117.9929700768386
 10
104.6089463714172
 20
-118.1662583797466
 10
104.4776882334292
 20
-118.1876179717552
 10
104.3698567447409
 20
-118.2065659969241
 10
104.3698567447409
 20
-118.2065659969241
 10
104.3698567447409
 20
-117.9843573381254
 10
104.3698567447409
 20
-117.9843573381254
 10
104.5686387542398
 20
-117.92958031991
 10
104.5982665754129
 20
-117.8024562965042
 10
104.5982665754129
 20
-117.7094387184025
 10
104.5982665754129
 20
-117.5699123512499
 10
104.4987033158892
 20
-117.4176391308018
 10
104.2661593706349
 20
-117.4176391308018
 10
104.0101887760808
 20
-117.4176391308018
 10
103.9402533377302
 20
-117.5974731151319
 10
103.9402533377302
 20
-117.7180514571156
 10
103.9402533377302
 20
-117.7497463355799
 10
103.9402533377302
 20
-117.8913397600237
 10
104.0694444184271
 20
-117.9802232235431
 10
104.0694444184271
 20
-117.9802232235431
 10
104.0504963932582
 20
-118.1559230932909
 10
104.0504963932582
 20
-118.1559230932909
 10
104.0504963932582
 20
-118.1559230932909
 10
103.2040364325323
 20
-118.0353447513071
 10
103.2040364325323
 20
-118.0353447513071
 10
103.2040364325323
 20
-118.0353447513071
 10
103.2040364325323
 20
-117.2567531716407
 10
103.2040364325323
 20
-117.2567531716407
 10
103.2040364325323
 20
-117.2567531716407
 10
103.3986843274489
 20
-117.2567531716407
 10
103.3986843274489
 20
-117.2567531716407
 10
103.3986843274489
 20
-117.2567531716407
 10
103.3986843274489
 20
-117.8723917348548
 10
103.3986843274489
 20
-117.8723917348548
 10
103.3986843274489
 20
-117.8723917348548
 10
103.8217420530376
 20
-117.9378485490746
 10
103.8217420530376
 20
-117.9378485490746
 10
103.7879801172822
 20
-117.8765258494371
 10
103.7476725001048
 20
-117.7941880673396
 10
103.7476725001048
 20
-117.6756767826471
 10
103.7476725001048
 20
-117.4217732453841
 10
103.9340521658568
 20
-117.184750675999
 10
104.247211345466
 20
-117.184750675999
 10
104.5645046396575
 20
-117.184750675999
 10
104.799115642203
 20
-117.4090263920887
 10
104.799115642203
 20
-117.7115057756937
 97
        0
 97
        0
 75
     2
 76
     1
 98
        0
  0
ENDBLK
  5
74
330
71
100
AcDbEntity
  8
0
100
AcDbBlockEnd
  0
BLOCK
  5
83
330
81
100
AcDbEntity
  8
0
100
AcDbBlockBegin
  2
block 4
 70
     0
 10
0.0
 20
0.0
 30
0.0
  3
block 4
  1

  0
SPLINE
  5
85
330
81
100
AcDbEntity
  8
_U+30EC_U+30A4_U+30E4_U+30FC 1
370
     0
100
AcDbSpline
210
0.0
220
0.0
230
1.0
 70
    11
 71
     3
 72
    26
 73
    22
 74
     0
 42
0.0000000001
 43
0.0000000001
 12
1.0
 22
0.0
 32
0.0
 13
1.0
 23
0.0
 33
0.0
 40
0.0
 40
0.0
 40
0.0
 40
0.0
 40
1.0
 40
1.0
 40
1.0
 40
2.0
 40
2.0
 40
2.0
 40
3.0
 40
3.0
 40
3.0
 40
4.0
 40
4.0
 40
4.0
 40
5.0
 40
5.0
 40
5.0
 40
6.0
 40
6.0
 40
6.0
 40
7.0
 40
7.0
 40
7.0
 40
7.0
 10
104.7484727385698
 20
-138.1373046529657
 30
0.0
 10
104.7484727385698
 20
-138.1373046529657
 30
0.0
 10
103.6443196355473
 20
-138.1373046529657
 30
0.0
 10
103.6443196355473
 20
-138.1373046529657
 30
0.0
 10
103.6443196355473
 20
-138.1373046529657
 30
0.0
 10
103.6443196355473
 20
-138.4673448004526
 30
0.0
 10
103.6443196355473
 20
-138.4673448004526
 30
0.0
 10
103.6443196355473
 20
-138.4673448004526
 30
0.0
 10
103.4961805296815
 20
-138.4673448004526
 30
0.0
 10
103.4961805296815
 20
-138.4673448004526
 30
0.0
 10
103.4813666190949
 20
-138.1352375956745
 30
0.0
 10
103.3184136026426
 20
-138.0887288066237
 30
0.0
 10
103.2040364325323
 20
-138.0591009854505
 30
0.0
 10
103.2040364325323
 20
-138.0591009854505
 30
0.0
 10
103.2040364325323
 20
-137.9130289368759
 30
0.0
 10
103.2040364325323
 20
-137.9130289368759
 30
0.0
 10
103.2040364325323
 20
-137.9130289368759
 30
0.0
 10
104.7484727385698
 20
-137.9130289368759
 30
0.0
 10
104.7484727385698
 20
-137.9130289368759
 30
0.0
 10
104.7484727385698
 20
-137.9130289368759
 30
0.0
 10
104.7484727385698
 20
-138.1373046529657
 30
0.0
 10
104.7484727385698
 20
-138.1373046529657
 30
0.0
  0
HATCH
  5
86
330
81
100
AcDbEntity
  8
_U+30EC_U+30A4_U+30E4_U+30FC 1
 62
     7
420
 16777215
100
AcDbHatch
 10
0.0
 20
0.0
 30
0.0
210
0.0
220
0.0
230
1.0
  2
SOLID
 70
     1
 71
     0
 91
        1
 92
        1
 93
        1
 72
     4
 94
        3
 73
     0
 74
     1
 95
       26
 96
       22
 40
0.0
 40
0.0
 40
0.0
 40
0.0
 40
1.0
 40
1.0
 40
1.0
 40
2.0
 40
2.0
 40
2.0
 40
3.0
 40
3.0
 40
3.0
 40
4.0
 40
4.0
 40
4.0
 40
5.0
 40
5.0
 40
5.0
 40
6.0
 40
6.0
 40
6.0
 40
7.0
 40
7.0
 40
7.0
 40
7.0
 10
104.7484727385698
 20
-138.1373046529657
 10
104.7484727385698
 20
-138.1373046529657
 10
103.6443196355473
 20
-138.1373046529657
 10
103.6443196355473
 20
-138.1373046529657
 10
103.6443196355473
 20
-138.1373046529657
 10
103.6443196355473
 20
-138.4673448004526
 10
103.6443196355473
 20
-138.4673448004526
 10
103.6443196355473
 20
-138.4673448004526
 10
103.4961805296815
 20
-138.4673448004526
 10
103.4961805296815
 20
-138.4673448004526
 10
103.4813666190949
 20
-138.1352375956745
 10
103.3184136026426
 20
-138.0887288066237
 10
103.2040364325323
 20
-138.0591009854505
 10
103.2040364325323
 20
-138.0591009854505
 10
103.2040364325323
 20
-137.9130289368759
 10
103.2040364325323
 20
-137.9130289368759
 10
103.2040364325323
 20
-137.9130289368759
 10
104.7484727385698
 20
-137.9130289368759
 10
104.7484727385698
 20
-137.9130289368759
 10
104.7484727385698
 20
-137.9130289368759
 10
104.7484727385698
 20
-138.1373046529657
 10
104.7484727385698
 20
-138.1373046529657
 97
        0
 97
        0
 75
     2
 76
     1
 98
        0
  0
ENDBLK
  5
84
330
81
100
AcDbEntity
  8
0
100
AcDbBlockEnd
  0
BLOCK
  5
98
330
96
100
AcDbEntity
  8
0
100
AcDbBlockBegin
  2
block 5
 70
     0
 10
0.0
 20
0.0
 30
0.0
  3
block 5
  1

  0
SPLINE
  5
9A
330
96
100
AcDbEntity
  8
_U+30EC_U+30A4_U+30E4_U+30FC 1
370
     0
100
AcDbSpline
210
0.0
220
0.0
230
1.0
 70
    11
 71
     3
 72
    26
 73
    22
 74
     0
 42
0.0000000001
 43
0.0000000001
 12
1.0
 22
0.0
 32
0.0
 13
1.0
 23
0.0
 33
0.0
 40
0.0
 40
0.0
 40
0.0
 40
0.0
 40
1.0
 40
1.0
 40
1.0
 40
2.0
 40
2.0
 40
2.0
 40
3.0
 40
3.0
 40
3.0
 40
4.0
 40
4.0
 40
4.0
 40
5.0
 40
5.0
 40
5.0
 40
6.0
 40
6.0
 40
6.0
 40
7.0
 40
7.0
 40
7.0
 40
7.0
 10
85.36946612449097
 20
-118.2255140220929
 30
0.0
 10
85.36946612449097
 20
-118.2255140220929
 30
0.0
 10
85.36946612449097
 20
-117.1213609190704
 30
0.0
 10
85.36946612449097
 20
-117.1213609190704
 30
0.0
 10
85.36946612449097
 20
-117.1213609190704
 30
0.0
 10
85.03942597700403
 20
-117.1213609190704
 30
0.0
 10
85.03942597700403
 20
-117.1213609190704
 30
0.0
 10
85.03942597700403
 20
-117.1213609190704
 30
0.0
 10
85.03942597700403
 20
-116.9732218132046
 30
0.0
 10
85.03942597700403
 20
-116.9732218132046
 30
0.0
 10
85.37153318178213
 20
-116.958407902618
 30
0.0
 10
85.41804197083299
 20
-116.7954548861657
 30
0.0
 10
85.44766979200614
 20
-116.6810777160554
 30
0.0
 10
85.44766979200614
 20
-116.6810777160554
 30
0.0
 10
85.59374184058073
 20
-116.6810777160554
 30
0.0
 10
85.59374184058073
 20
-116.6810777160554
 30
0.0
 10
85.59374184058073
 20
-116.6810777160554
 30
0.0
 10
85.59374184058073
 20
-118.2255140220929
 30
0.0
 10
85.59374184058073
 20
-118.2255140220929
 30
0.0
 10
85.59374184058073
 20
-118.2255140220929
 30
0.0
 10
85.36946612449097
 20
-118.2255140220929
 30
0.0
 10
85.36946612449097
 20
-118.2255140220929
 30
0.0
  0
HATCH
  5
9B
330
96
100
AcDbEntity
  8
_U+30EC_U+30A4_U+30E4_U+30FC 1
 62
     7
420
 16777215
100
AcDbHatch
 10
0.0
 20
0.0
 30
0.0
210
0.0
220
0.0
230
1.0
  2
SOLID
 70
     1
 71
     0
 91
        1
 92
        1
 93
        1
 72
     4
 94
        3
 73
     0
 74
     1
 95
       26
 96
       22
 40
0.0
 40
0.0
 40
0.0
 40
0.0
 40
1.0
 40
1.0
 40
1.0
 40
2.0
 40
2.0
 40
2.0
 40
3.0
 40
3.0
 40
3.0
 40
4.0
 40
4.0
 40
4.0
 40
5.0
 40
5.0
 40
5.0
 40
6.0
 40
6.0
 40
6.0
 40
7.0
 40
7.0
 40
7.0
 40
7.0
 10
85.36946612449097
 20
-118.2255140220929
 10
85.36946612449097
 20
-118.2255140220929
 10
85.36946612449097
 20
-117.1213609190704
 10
85.36946612449097
 20
-117.1213609190704
 10
85.36946612449097
 20
-117.1213609190704
 10
85.03942597700403
 20
-117.1213609190704
 10
85.03942597700403
 20
-117.1213609190704
 10
85.03942597700403
 20
-117.1213609190704
 10
85.03942597700403
 20
-116.9732218132046
 10
85.03942597700403
 20
-116.9732218132046
 10
85.37153318178213
 20
-116.958407902618
 10
85.41804197083299
 20
-116.7954548861657
 10
85.44766979200614
 20
-116.6810777160554
 10
85.44766979200614
 20
-116.6810777160554
 10
85.59374184058073
 20
-116.6810777160554
 10
85.59374184058073
 20
-116.6810777160554
 10
85.59374184058073
 20
-116.6810777160554
 10
85.59374184058073
 20
-118.2255140220929
 10
85.59374184058073
 20
-118.2255140220929
 10
85.59374184058073
 20
-118.2255140220929
 10
85.36946612449097
 20
-118.2255140220929
 10
85.36946612449097
 20
-118.2255140220929
 97
        0
 97
        0
 75
     2
 76
     1
 98
        0
  0
SPLINE
  5
9C
330
96
100
AcDbEntity
  8
_U+30EC_U+30A4_U+30E4_U+30FC 1
370
     0
100
AcDbSpline
210
0.0
220
0.0
230
1.0
 70
    11
 71
     3
 72
    44
 73
    40
 74
     0
 42
0.0000000001
 43
0.0000000001
 12
1.0
 22
0.0
 32
0.0
 13
1.0
 23
0.0
 33
0.0
 40
0.0
 40
0.0
 40
0.0
 40
0.0
 40
1.0
 40
1.0
 40
1.0
 40
2.0
 40
2.0
 40
2.0
 40
3.0
 40
3.0
 40
3.0
 40
4.0
 40
4.0
 40
4.0
 40
5.0
 40
5.0
 40
5.0
 40
6.0
 40
6.0
 40
6.0
 40
7.0
 40
7.0
 40
7.0
 40
8.0
 40
8.0
 40
8.0
 40
9.0
 40
9.0
 40
9.0
 40
10.0
 40
10.0
 40
10.0
 40
11.0
 40
11.0
 40
11.0
 40
12.0
 40
12.0
 40
12.0
 40
13.0
 40
13.0
 40
13.0
 40
13.0
 10
86.68790416669609
 20
-117.6436373946342
 30
0.0
 10
86.47017413202829
 20
-117.8024562965042
 30
0.0
 10
86.37715655392655
 20
-117.8765258494371
 30
0.0
 10
86.328236198036
 20
-118.020186331172
 30
0.0
 10
86.328236198036
 20
-118.020186331172
 30
0.0
 10
87.10682777770246
 20
-118.020186331172
 30
0.0
 10
87.10682777770246
 20
-118.020186331172
 30
0.0
 10
87.10682777770246
 20
-118.020186331172
 30
0.0
 10
87.10682777770246
 20
-118.2255140220929
 30
0.0
 10
87.10682777770246
 20
-118.2255140220929
 30
0.0
 10
87.10682777770246
 20
-118.2255140220929
 30
0.0
 10
86.0788112849039
 20
-118.2255140220929
 30
0.0
 10
86.0788112849039
 20
-118.2255140220929
 30
0.0
 10
86.11050616336821
 20
-117.867913110724
 30
0.0
 10
86.17596297758796
 20
-117.7897094432088
 30
0.0
 10
86.56112465283888
 20
-117.4913641741862
 30
0.0
 10
86.81709524739296
 20
-117.2925821646873
 30
0.0
 10
86.8825520616127
 20
-117.2247137836278
 30
0.0
 10
86.8825520616127
 20
-117.0872544737664
 30
0.0
 10
86.8825520616127
 20
-116.9687431890738
 30
0.0
 10
86.81054956597097
 20
-116.8378295606343
 30
0.0
 10
86.61383461376322
 20
-116.8378295606343
 30
0.0
 10
86.35372990462685
 20
-116.8378295606343
 30
0.0
 10
86.34511716591372
 20
-117.0683064485975
 30
0.0
 10
86.34098305133142
 20
-117.184750675999
 30
0.0
 10
86.34098305133142
 20
-117.184750675999
 30
0.0
 10
86.11670733524166
 20
-117.184750675999
 30
0.0
 10
86.11670733524166
 20
-117.184750675999
 30
0.0
 10
86.12532007395478
 20
-117.0576266525932
 30
0.0
 10
86.13599986995906
 20
-116.9456610493226
 30
0.0
 10
86.21627059476538
 20
-116.82714976463
 30
0.0
 10
86.32616914074485
 20
-116.6662638054689
 30
0.0
 10
86.51254880649687
 20
-116.6325018697134
 30
0.0
 10
86.62864852434979
 20
-116.6325018697134
 30
0.0
 10
86.9059787109124
 20
-116.6325018697134
 30
0.0
 10
87.11337345912443
 20
-116.8164699686258
 30
0.0
 10
87.11337345912443
 20
-117.0893215310575
 30
0.0
 10
87.11337345912443
 20
-117.3180758712781
 30
0.0
 10
86.99692923172299
 20
-117.4172946212533
 30
0.0
 10
86.68790416669609
 20
-117.6436373946342
 30
0.0
  0
HATCH
  5
9D
330
96
100
AcDbEntity
  8
_U+30EC_U+30A4_U+30E4_U+30FC 1
 62
     7
420
 16777215
100
AcDbHatch
 10
0.0
 20
0.0
 30
0.0
210
0.0
220
0.0
230
1.0
  2
SOLID
 70
     1
 71
     0
 91
        1
 92
        1
 93
        1
 72
     4
 94
        3
 73
     0
 74
     1
 95
       44
 96
       40
 40
0.0
 40
0.0
 40
0.0
 40
0.0
 40
1.0
 40
1.0
 40
1.0
 40
2.0
 40
2.0
 40
2.0
 40
3.0
 40
3.0
 40
3.0
 40
4.0
 40
4.0
 40
4.0
 40
5.0
 40
5.0
 40
5.0
 40
6.0
 40
6.0
 40
6.0
 40
7.0
 40
7.0
 40
7.0
 40
8.0
 40
8.0
 40
8.0
 40
9.0
 40
9.0
 40
9.0
 40
10.0
 40
10.0
 40
10.0
 40
11.0
 40
11.0
 40
11.0
 40
12.0
 40
12.0
 40
12.0
 40
13.0
 40
13.0
 40
13.0
 40
13.0
 10
86.68790416669609
 20
-117.6436373946342
 10
86.47017413202829
 20
-117.8024562965042
 10
86.37715655392655
 20
-117.8765258494371
 10
86.328236198036
 20
-118.020186331172
 10
86.328236198036
 20
-118.020186331172
 10
87.10682777770246
 20
-118.020186331172
 10
87.10682777770246
 20
-118.020186331172
 10
87.10682777770246
 20
-118.020186331172
 10
87.10682777770246
 20
-118.2255140220929
 10
87.10682777770246
 20
-118.2255140220929
 10
87.10682777770246
 20
-118.2255140220929
 10
86.0788112849039
 20
-118.2255140220929
 10
86.0788112849039
 20
-118.2255140220929
 10
86.11050616336821
 20
-117.867913110724
 10
86.17596297758796
 20
-117.7897094432088
 10
86.56112465283888
 20
-117.4913641741862
 10
86.81709524739296
 20
-117.2925821646873
 10
86.8825520616127
 20
-117.2247137836278
 10
86.8825520616127
 20
-117.0872544737664
 10
86.8825520616127
 20
-116.9687431890738
 10
86.81054956597097
 20
-116.8378295606343
 10
86.61383461376322
 20
-116.8378295606343
 10
86.35372990462685
 20
-116.8378295606343
 10
86.34511716591372
 20
-117.0683064485975
 10
86.34098305133142
 20
-117.184750675999
 10
86.34098305133142
 20
-117.184750675999
 10
86.11670733524166
 20
-117.184750675999
 10
86.11670733524166
 20
-117.184750675999
 10
86.12532007395478
 20
-117.0576266525932
 10
86.13599986995906
 20
-116.9456610493226
 10
86.21627059476538
 20
-116.82714976463
 10
86.32616914074485
 20
-116.6662638054689
 10
86.51254880649687
 20
-116.6325018697134
 10
86.62864852434979
 20
-116.6325018697134
 10
86.9059787109124
 20
-116.6325018697134
 10
87.11337345912443
 20
-116.8164699686258
 10
87.11337345912443
 20
-117.0893215310575
 10
87.11337345912443
 20
-117.3180758712781
 10
86.99692923172299
 20
-117.4172946212533
 10
86.68790416669609
 20
-117.6436373946342
 97
        0
 97
        0
 75
     2
 76
     1
 98
        0
  0
ENDBLK
  5
99
330
96
100
AcDbEntity
  8
0
100
AcDbBlockEnd
  0
BLOCK
  5
AD
330
AB
100
AcDbEntity
  8
0
100
AcDbBlockBegin
  2
block 6
 70
     0
 10
0.0
 20
0.0
 30
0.0
  3
block 6
  1

  0
SPLINE
  5
AF
330
AB
100
AcDbEntity
  8
_U+30EC_U+30A4_U+30E4_U+30FC 1
370
     0
100
AcDbSpline
210
0.0
220
0.0
230
1.0
 70
    11
 71
     3
 72
    44
 73
    40
 74
     0
 42
0.0000000001
 43
0.0000000001
 12
1.0
 22
0.0
 32
0.0
 13
1.0
 23
0.0
 33
0.0
 40
0.0
 40
0.0
 40
0.0
 40
0.0
 40
1.0
 40
1.0
 40
1.0
 40
2.0
 40
2.0
 40
2.0
 40
3.0
 40
3.0
 40
3.0
 40
4.0
 40
4.0
 40
4.0
 40
5.0
 40
5.0
 40
5.0
 40
6.0
 40
6.0
 40
6.0
 40
7.0
 40
7.0
 40
7.0
 40
8.0
 40
8.0
 40
8.0
 40
9.0
 40
9.0
 40
9.0
 40
10.0
 40
10.0
 40
10.0
 40
11.0
 40
11.0
 40
11.0
 40
12.0
 40
12.0
 40
12.0
 40
13.0
 40
13.0
 40
13.0
 40
13.0
 10
85.51433238964573
 20
-138.4218695400473
 30
0.0
 10
85.29660235497794
 20
-138.5806884419173
 30
0.0
 10
85.20358477687618
 20
-138.6547579948502
 30
0.0
 10
85.15466442098564
 20
-138.7984184765851
 30
0.0
 10
85.15466442098564
 20
-138.7984184765851
 30
0.0
 10
85.93325600065211
 20
-138.7984184765851
 30
0.0
 10
85.93325600065211
 20
-138.7984184765851
 30
0.0
 10
85.93325600065211
 20
-138.7984184765851
 30
0.0
 10
85.93325600065211
 20
-139.003746167506
 30
0.0
 10
85.93325600065211
 20
-139.003746167506
 30
0.0
 10
85.93325600065211
 20
-139.003746167506
 30
0.0
 10
84.90523950785355
 20
-139.003746167506
 30
0.0
 10
84.90523950785355
 20
-139.003746167506
 30
0.0
 10
84.93693438631786
 20
-138.6461452561371
 30
0.0
 10
85.0023912005376
 20
-138.5679415886219
 30
0.0
 10
85.38755287578853
 20
-138.2695963195993
 30
0.0
 10
85.6435234703426
 20
-138.0708143101004
 30
0.0
 10
85.70898028456234
 20
-138.0029459290409
 30
0.0
 10
85.70898028456234
 20
-137.8654866191795
 30
0.0
 10
85.70898028456234
 20
-137.7469753344869
 30
0.0
 10
85.63697778892062
 20
-137.6160617060474
 30
0.0
 10
85.44026283671286
 20
-137.6160617060474
 30
0.0
 10
85.18015812757649
 20
-137.6160617060474
 30
0.0
 10
85.17154538886336
 20
-137.8465385940106
 30
0.0
 10
85.16741127428106
 20
-137.962982821412
 30
0.0
 10
85.16741127428106
 20
-137.962982821412
 30
0.0
 10
84.9431355581913
 20
-137.962982821412
 30
0.0
 10
84.9431355581913
 20
-137.962982821412
 30
0.0
 10
84.95174829690443
 20
-137.8358587980063
 30
0.0
 10
84.96242809290871
 20
-137.7238931947357
 30
0.0
 10
85.04269881771502
 20
-137.6053819100431
 30
0.0
 10
85.1525973636945
 20
-137.4444959508819
 30
0.0
 10
85.33897702944651
 20
-137.4107340151265
 30
0.0
 10
85.45507674729943
 20
-137.4107340151265
 30
0.0
 10
85.73240693386204
 20
-137.4107340151265
 30
0.0
 10
85.93980168207408
 20
-137.5947021140388
 30
0.0
 10
85.93980168207408
 20
-137.8675536764706
 30
0.0
 10
85.93980168207408
 20
-138.0963080166912
 30
0.0
 10
85.82335745467263
 20
-138.1955267666664
 30
0.0
 10
85.51433238964573
 20
-138.4218695400473
 30
0.0
  0
HATCH
  5
B0
330
AB
100
AcDbEntity
  8
_U+30EC_U+30A4_U+30E4_U+30FC 1
 62
     7
420
 16777215
100
AcDbHatch
 10
0.0
 20
0.0
 30
0.0
210
0.0
220
0.0
230
1.0
  2
SOLID
 70
     1
 71
     0
 91
        1
 92
        1
 93
        1
 72
     4
 94
        3
 73
     0
 74
     1
 95
       44
 96
       40
 40
0.0
 40
0.0
 40
0.0
 40
0.0
 40
1.0
 40
1.0
 40
1.0
 40
2.0
 40
2.0
 40
2.0
 40
3.0
 40
3.0
 40
3.0
 40
4.0
 40
4.0
 40
4.0
 40
5.0
 40
5.0
 40
5.0
 40
6.0
 40
6.0
 40
6.0
 40
7.0
 40
7.0
 40
7.0
 40
8.0
 40
8.0
 40
8.0
 40
9.0
 40
9.0
 40
9.0
 40
10.0
 40
10.0
 40
10.0
 40
11.0
 40
11.0
 40
11.0
 40
12.0
 40
12.0
 40
12.0
 40
13.0
 40
13.0
 40
13.0
 40
13.0
 10
85.51433238964573
 20
-138.4218695400473
 10
85.29660235497794
 20
-138.5806884419173
 10
85.20358477687618
 20
-138.6547579948502
 10
85.15466442098564
 20
-138.7984184765851
 10
85.15466442098564
 20
-138.7984184765851
 10
85.93325600065211
 20
-138.7984184765851
 10
85.93325600065211
 20
-138.7984184765851
 10
85.93325600065211
 20
-138.7984184765851
 10
85.93325600065211
 20
-139.003746167506
 10
85.93325600065211
 20
-139.003746167506
 10
85.93325600065211
 20
-139.003746167506
 10
84.90523950785355
 20
-139.003746167506
 10
84.90523950785355
 20
-139.003746167506
 10
84.93693438631786
 20
-138.6461452561371
 10
85.0023912005376
 20
-138.5679415886219
 10
85.38755287578853
 20
-138.2695963195993
 10
85.6435234703426
 20
-138.0708143101004
 10
85.70898028456234
 20
-138.0029459290409
 10
85.70898028456234
 20
-137.8654866191795
 10
85.70898028456234
 20
-137.7469753344869
 10
85.63697778892062
 20
-137.6160617060474
 10
85.44026283671286
 20
-137.6160617060474
 10
85.18015812757649
 20
-137.6160617060474
 10
85.17154538886336
 20
-137.8465385940106
 10
85.16741127428106
 20
-137.962982821412
 10
85.16741127428106
 20
-137.962982821412
 10
84.9431355581913
 20
-137.962982821412
 10
84.9431355581913
 20
-137.962982821412
 10
84.95174829690443
 20
-137.8358587980063
 10
84.96242809290871
 20
-137.7238931947357
 10
85.04269881771502
 20
-137.6053819100431
 10
85.1525973636945
 20
-137.4444959508819
 10
85.33897702944651
 20
-137.4107340151265
 10
85.45507674729943
 20
-137.4107340151265
 10
85.73240693386204
 20
-137.4107340151265
 10
85.93980168207408
 20
-137.5947021140388
 10
85.93980168207408
 20
-137.8675536764706
 10
85.93980168207408
 20
-138.0963080166912
 10
85.82335745467263
 20
-138.1955267666664
 10
85.51433238964573
 20
-138.4218695400473
 97
        0
 97
        0
 75
     2
 76
     1
 98
        0
  0
SPLINE
  5
B1
330
AB
100
AcDbEntity
  8
_U+30EC_U+30A4_U+30E4_U+30FC 1
370
     0
100
AcDbSpline
210
0.0
220
0.0
230
1.0
 70
    11
 71
     3
 72
    44
 73
    40
 74
     0
 42
0.0000000001
 43
0.0000000001
 12
1.0
 22
0.0
 32
0.0
 13
1.0
 23
0.0
 33
0.0
 40
0.0
 40
0.0
 40
0.0
 40
0.0
 40
1.0
 40
1.0
 40
1.0
 40
2.0
 40
2.0
 40
2.0
 40
3.0
 40
3.0
 40
3.0
 40
4.0
 40
4.0
 40
4.0
 40
5.0
 40
5.0
 40
5.0
 40
6.0
 40
6.0
 40
6.0
 40
7.0
 40
7.0
 40
7.0
 40
8.0
 40
8.0
 40
8.0
 40
9.0
 40
9.0
 40
9.0
 40
10.0
 40
10.0
 40
10.0
 40
11.0
 40
11.0
 40
11.0
 40
12.0
 40
12.0
 40
12.0
 40
13.0
 40
13.0
 40
13.0
 40
13.0
 10
86.69117700740708
 20
-138.4218695400473
 30
0.0
 10
86.47344697273928
 20
-138.5806884419173
 30
0.0
 10
86.38042939463753
 20
-138.6547579948502
 30
0.0
 10
86.33150903874699
 20
-138.7984184765851
 30
0.0
 10
86.33150903874699
 20
-138.7984184765851
 30
0.0
 10
87.11010061841345
 20
-138.7984184765851
 30
0.0
 10
87.11010061841345
 20
-138.7984184765851
 30
0.0
 10
87.11010061841345
 20
-138.7984184765851
 30
0.0
 10
87.11010061841345
 20
-139.003746167506
 30
0.0
 10
87.11010061841345
 20
-139.003746167506
 30
0.0
 10
87.11010061841345
 20
-139.003746167506
 30
0.0
 10
86.0820841256149
 20
-139.003746167506
 30
0.0
 10
86.0820841256149
 20
-139.003746167506
 30
0.0
 10
86.11377900407919
 20
-138.6461452561371
 30
0.0
 10
86.17923581829895
 20
-138.5679415886219
 30
0.0
 10
86.56439749354988
 20
-138.2695963195993
 30
0.0
 10
86.82036808810393
 20
-138.0708143101004
 30
0.0
 10
86.88582490232369
 20
-138.0029459290409
 30
0.0
 10
86.88582490232369
 20
-137.8654866191795
 30
0.0
 10
86.88582490232369
 20
-137.7469753344869
 30
0.0
 10
86.81382240668196
 20
-137.6160617060474
 30
0.0
 10
86.6171074544742
 20
-137.6160617060474
 30
0.0
 10
86.35700274533784
 20
-137.6160617060474
 30
0.0
 10
86.34839000662471
 20
-137.8465385940106
 30
0.0
 10
86.34425589204241
 20
-137.962982821412
 30
0.0
 10
86.34425589204241
 20
-137.962982821412
 30
0.0
 10
86.11998017595265
 20
-137.962982821412
 30
0.0
 10
86.11998017595265
 20
-137.962982821412
 30
0.0
 10
86.12859291466577
 20
-137.8358587980063
 30
0.0
 10
86.13927271067004
 20
-137.7238931947357
 30
0.0
 10
86.21954343547637
 20
-137.6053819100431
 30
0.0
 10
86.32944198145584
 20
-137.4444959508819
 30
0.0
 10
86.51582164720786
 20
-137.4107340151265
 30
0.0
 10
86.63192136506078
 20
-137.4107340151265
 30
0.0
 10
86.90925155162338
 20
-137.4107340151265
 30
0.0
 10
87.11664629983542
 20
-137.5947021140388
 30
0.0
 10
87.11664629983542
 20
-137.8675536764706
 30
0.0
 10
87.11664629983542
 20
-138.0963080166912
 30
0.0
 10
87.00020207243398
 20
-138.1955267666664
 30
0.0
 10
86.69117700740708
 20
-138.4218695400473
 30
0.0
  0
HATCH
  5
B2
330
AB
100
AcDbEntity
  8
_U+30EC_U+30A4_U+30E4_U+30FC 1
 62
     7
420
 16777215
100
AcDbHatch
 10
0.0
 20
0.0
 30
0.0
210
0.0
220
0.0
230
1.0
  2
SOLID
 70
     1
 71
     0
 91
        1
 92
        1
 93
        1
 72
     4
 94
        3
 73
     0
 74
     1
 95
       44
 96
       40
 40
0.0
 40
0.0
 40
0.0
 40
0.0
 40
1.0
 40
1.0
 40
1.0
 40
2.0
 40
2.0
 40
2.0
 40
3.0
 40
3.0
 40
3.0
 40
4.0
 40
4.0
 40
4.0
 40
5.0
 40
5.0
 40
5.0
 40
6.0
 40
6.0
 40
6.0
 40
7.0
 40
7.0
 40
7.0
 40
8.0
 40
8.0
 40
8.0
 40
9.0
 40
9.0
 40
9.0
 40
10.0
 40
10.0
 40
10.0
 40
11.0
 40
11.0
 40
11.0
 40
12.0
 40
12.0
 40
12.0
 40
13.0
 40
13.0
 40
13.0
 40
13.0
 10
86.69117700740708
 20
-138.4218695400473
 10
86.47344697273928
 20
-138.5806884419173
 10
86.38042939463753
 20
-138.6547579948502
 10
86.33150903874699
 20
-138.7984184765851
 10
86.33150903874699
 20
-138.7984184765851
 10
87.11010061841345
 20
-138.7984184765851
 10
87.11010061841345
 20
-138.7984184765851
 10
87.11010061841345
 20
-138.7984184765851
 10
87.11010061841345
 20
-139.003746167506
 10
87.11010061841345
 20
-139.003746167506
 10
87.11010061841345
 20
-139.003746167506
 10
86.0820841256149
 20
-139.003746167506
 10
86.0820841256149
 20
-139.003746167506
 10
86.11377900407919
 20
-138.6461452561371
 10
86.17923581829895
 20
-138.5679415886219
 10
86.56439749354988
 20
-138.2695963195993
 10
86.82036808810393
 20
-138.0708143101004
 10
86.88582490232369
 20
-138.0029459290409
 10
86.88582490232369
 20
-137.8654866191795
 10
86.88582490232369
 20
-137.7469753344869
 10
86.81382240668196
 20
-137.6160617060474
 10
86.6171074544742
 20
-137.6160617060474
 10
86.35700274533784
 20
-137.6160617060474
 10
86.34839000662471
 20
-137.8465385940106
 10
86.34425589204241
 20
-137.962982821412
 10
86.34425589204241
 20
-137.962982821412
 10
86.11998017595265
 20
-137.962982821412
 10
86.11998017595265
 20
-137.962982821412
 10
86.12859291466577
 20
-137.8358587980063
 10
86.13927271067004
 20
-137.7238931947357
 10
86.21954343547637
 20
-137.6053819100431
 10
86.32944198145584
 20
-137.4444959508819
 10
86.51582164720786
 20
-137.4107340151265
 10
86.63192136506078
 20
-137.4107340151265
 10
86.90925155162338
 20
-137.4107340151265
 10
87.11664629983542
 20
-137.5947021140388
 10
87.11664629983542
 20
-137.8675536764706
 10
87.11664629983542
 20
-138.0963080166912
 10
87.00020207243398
 20
-138.1955267666664
 10
86.69117700740708
 20
-138.4218695400473
 97
        0
 97
        0
 75
     2
 76
     1
 98
        0
  0
ENDBLK
  5
AE
330
AB
100
AcDbEntity
  8
0
100
AcDbBlockEnd
  0
ENDSEC
  0
SECTION
  2
ENTITIES
  0
SPLINE
  5
41
330
1F
100
AcDbEntity
  8
_U+30EC_U+30A4_U+30E4_U+30FC 1
 62
     7
420
 16777215
370
    25
100
AcDbSpline
210
0.0
220
0.0
230
1.0
 70
    11
 71
     3
 72
    89
 73
    85
 74
     0
 42
0.0000000001
 43
0.0000000001
 12
1.0
 22
0.0
 32
0.0
 13
1.0
 23
0.0
 33
0.0
 40
0.0
 40
0.0
 40
0.0
 40
0.0
 40
1.0
 40
1.0
 40
1.0
 40
2.0
 40
2.0
 40
2.0
 40
3.0
 40
3.0
 40
3.0
 40
4.0
 40
4.0
 40
4.0
 40
5.0
 40
5.0
 40
5.0
 40
6.0
 40
6.0
 40
6.0
 40
7.0
 40
7.0
 40
7.0
 40
8.0
 40
8.0
 40
8.0
 40
9.0
 40
9.0
 40
9.0
 40
10.0
 40
10.0
 40
10.0
 40
11.0
 40
11.0
 40
11.0
 40
12.0
 40
12.0
 40
12.0
 40
13.0
 40
13.0
 40
13.0
 40
14.0
 40
14.0
 40
14.0
 40
15.0
 40
15.0
 40
15.0
 40
16.0
 40
16.0
 40
16.0
 40
17.0
 40
17.0
 40
17.0
 40
18.0
 40
18.0
 40
18.0
 40
19.0
 40
19.0
 40
19.0
 40
20.0
 40
20.0
 40
20.0
 40
21.0
 40
21.0
 40
21.0
 40
22.0
 40
22.0
 40
22.0
 40
23.0
 40
23.0
 40
23.0
 40
24.0
 40
24.0
 40
24.0
 40
25.0
 40
25.0
 40
25.0
 40
26.0
 40
26.0
 40
26.0
 40
27.0
 40
27.0
 40
27.0
 40
28.0
 40
28.0
 40
28.0
 40
28.0
 10
84.03999007818345
 20
-130.0695899674824
 30
0.0
 10
84.03999007818345
 20
-130.0695899674824
 30
0.0
 10
83.77713536266721
 20
-129.7774194119999
 30
0.0
 10
83.77713536266721
 20
-129.7774194119999
 30
0.0
 10
83.53495553467195
 20
-129.5273352453959
 30
0.0
 10
83.55975370154641
 20
-129.4969963565149
 30
0.0
 10
83.74408008573275
 20
-129.3474891343299
 30
0.0
 10
83.87877063785206
 20
-129.2379516343574
 30
0.0
 10
84.19676664561736
 20
-129.0512263566262
 30
0.0
 10
84.33522979287348
 20
-129.1435483010473
 30
0.0
 10
84.33522979287348
 20
-129.1435483010473
 30
0.0
 10
85.42319643178381
 20
-130.2246005229996
 30
0.0
 10
85.42319643178381
 20
-130.2246005229996
 30
0.0
 10
84.86580755711509
 20
-130.5002258007081
 30
0.0
 10
84.40896034654801
 20
-131.0741599672316
 30
0.0
 10
84.40896034654801
 20
-131.7383699670654
 30
0.0
 10
84.40896034654801
 20
-132.1125260780832
 30
0.0
 10
84.53059812122255
 20
-132.4577191335522
 30
0.0
 10
84.73658506041184
 20
-132.7381421890379
 30
0.0
 10
84.73658506041184
 20
-132.7381421890379
 30
0.0
 10
82.90242497927433
 20
-135.2255077439713
 30
0.0
 10
82.90242497927433
 20
-135.2255077439713
 30
0.0
 10
83.68171109019056
 20
-135.2255077439713
 30
0.0
 10
84.789642836836
 20
-135.2248374661939
 30
0.0
 10
86.08433724825004
 20
-135.2248374661939
 30
0.0
 10
87.37864360411842
 20
-135.2248374661939
 30
0.0
 10
88.48657746474156
 20
-135.2255077439713
 30
0.0
 10
89.26551077820265
 20
-135.2255077439713
 30
0.0
 10
89.26551077820265
 20
-135.2255077439713
 30
0.0
 10
87.43170138054258
 20
-132.7381421890379
 30
0.0
 10
87.43170138054258
 20
-132.7381421890379
 30
0.0
 10
87.63772359750874
 20
-132.4577191335522
 30
0.0
 10
87.7593260944064
 20
-132.1125260780832
 30
0.0
 10
87.7593260944064
 20
-131.7383699670654
 30
0.0
 10
87.7593260944064
 20
-131.0741599672316
 30
0.0
 10
87.27217527350132
 20
-130.4995202451532
 30
0.0
 10
86.7147863988326
 20
-130.2246005229996
 30
0.0
 10
86.7147863988326
 20
-130.2246005229996
 30
0.0
 10
87.80240025997415
 20
-129.1421724677144
 30
0.0
 10
87.80240025997415
 20
-129.1421724677144
 30
0.0
 10
87.94090081199626
 20
-129.0505208010707
 30
0.0
 10
88.25885941499557
 20
-129.2365405232463
 30
0.0
 10
88.39358524489177
 20
-129.346113300997
 30
0.0
 10
88.57787635130121
 20
-129.4963260787369
 30
0.0
 10
88.60267662844629
 20
-129.5266296898404
 30
0.0
 10
88.36049469018042
 20
-129.7760435786671
 30
0.0
 10
88.36049469018042
 20
-129.7760435786671
 30
0.0
 10
88.09763997466418
 20
-130.0682141341495
 30
0.0
 10
88.09763997466418
 20
-130.0682141341495
 30
0.0
 10
88.47176079845289
 20
-130.5222744118137
 30
0.0
 10
88.69672718160241
 20
-131.1037933005572
 30
0.0
 10
88.69672718160241
 20
-131.7383699670654
 30
0.0
 10
88.69672718160241
 20
-132.1028599669742
 30
0.0
 10
88.62267912793598
 20
-132.4501344113316
 30
0.0
 10
88.48830831121113
 20
-132.7657294112532
 30
0.0
 10
88.48830831121113
 20
-132.7657294112532
 30
0.0
 10
90.45408963676836
 20
-135.2192988550842
 30
0.0
 10
90.45408963676836
 20
-135.2192988550842
 30
0.0
 10
90.45408963676836
 20
-135.2192988550842
 30
0.0
 10
97.09897641168762
 20
-135.2206746884171
 30
0.0
 10
97.09897641168762
 20
-135.2206746884171
 30
0.0
 10
97.09897641168762
 20
-135.2206746884171
 30
0.0
 10
97.09897641168762
 20
-136.1701407992908
 30
0.0
 10
97.09897641168762
 20
-136.1701407992908
 30
0.0
 10
97.09897641168762
 20
-136.1701407992908
 30
0.0
 10
86.08433724825004
 20
-136.1701407992908
 30
0.0
 10
86.08433724825004
 20
-136.1701407992908
 30
0.0
 10
86.08433724825004
 20
-136.1701407992908
 30
0.0
 10
75.09481586194941
 20
-136.1701407992908
 30
0.0
 10
75.09481586194941
 20
-136.1701407992908
 30
0.0
 10
75.09481586194941
 20
-136.1701407992908
 30
0.0
 10
75.09481586194941
 20
-135.2206746884171
 30
0.0
 10
75.09481586194941
 20
-135.2206746884171
 30
0.0
 10
75.09481586194941
 20
-135.2206746884171
 30
0.0
 10
81.71423208196293
 20
-135.2192988550842
 30
0.0
 10
81.71423208196293
 20
-135.2192988550842
 30
0.0
 10
81.71423208196293
 20
-135.2192988550842
 30
0.0
 10
83.68033314291462
 20
-132.7657294112532
 30
0.0
 10
83.68033314291462
 20
-132.7657294112532
 30
0.0
 10
83.5459600907872
 20
-132.4501344113316
 30
0.0
 10
83.471559259352
 20
-132.1028599669742
 30
0.0
 10
83.471559259352
 20
-131.7383699670654
 30
0.0
 10
83.471559259352
 20
-131.1037933005572
 30
0.0
 10
83.66551647662595
 20
-130.5236502451472
 30
0.0
 10
84.03999007818345
 20
-130.0695899674824
 30
0.0
  0
SPLINE
  5
42
330
1F
100
AcDbEntity
  8
_U+30EC_U+30A4_U+30E4_U+30FC 1
 62
     7
420
 16777215
370
    25
100
AcDbSpline
210
0.0
220
0.0
230
1.0
 70
    11
 71
     3
 72
    50
 73
    46
 74
     0
 42
0.0000000001
 43
0.0000000001
 12
1.0
 22
0.0
 32
0.0
 13
1.0
 23
0.0
 33
0.0
 40
0.0
 40
0.0
 40
0.0
 40
0.0
 40
1.0
 40
1.0
 40
1.0
 40
2.0
 40
2.0
 40
2.0
 40
3.0
 40
3.0
 40
3.0
 40
4.0
 40
4.0
 40
4.0
 40
5.0
 40
5.0
 40
5.0
 40
6.0
 40
6.0
 40
6.0
 40
7.0
 40
7.0
 40
7.0
 40
8.0
 40
8.0
 40
8.0
 40
9.0
 40
9.0
 40
9.0
 40
10.0
 40
10.0
 40
10.0
 40
11.0
 40
11.0
 40
11.0
 40
12.0
 40
12.0
 40
12.0
 40
13.0
 40
13.0
 40
13.0
 40
14.0
 40
14.0
 40
14.0
 40
15.0
 40
15.0
 40
15.0
 40
15.0
 10
86.61279834587899
 20
-130.3727319118511
 30
0.0
 10
86.61279834587899
 20
-130.3727319118511
 30
0.0
 10
86.61692584577368
 20
-122.1436258027975
 30
0.0
 10
86.61692584577368
 20
-122.1436258027975
 30
0.0
 10
86.61692584577368
 20
-122.1436258027975
 30
0.0
 10
90.5360751902323
 20
-122.1436258027975
 30
0.0
 10
90.5360751902323
 20
-122.1436258027975
 30
0.0
 10
90.5360751902323
 20
-122.1436258027975
 30
0.0
 10
90.86609879292381
 20
-122.6410777471176
 30
0.0
 10
90.86609879292381
 20
-122.6410777471176
 30
0.0
 10
90.86609879292381
 20
-122.6410777471176
 30
0.0
 10
92.10773542791368
 20
-122.6410777471176
 30
0.0
 10
92.10773542791368
 20
-122.6410777471176
 30
0.0
 10
92.10773542791368
 20
-122.6410777471176
 30
0.0
 10
91.10415553277937
 20
-121.1459349697137
 30
0.0
 10
91.10415553277937
 20
-121.1459349697137
 30
0.0
 10
91.10415553277937
 20
-121.1459349697137
 30
0.0
 10
81.28222042631779
 20
-121.1459349697137
 30
0.0
 10
81.28222042631779
 20
-121.1459349697137
 30
0.0
 10
81.28222042631779
 20
-121.1459349697137
 30
0.0
 10
80.06813573506946
 20
-122.6410777471176
 30
0.0
 10
80.06813573506946
 20
-122.6410777471176
 30
0.0
 10
80.06813573506946
 20
-122.6410777471176
 30
0.0
 10
81.38625459033032
 20
-122.6410777471176
 30
0.0
 10
81.38625459033032
 20
-122.6410777471176
 30
0.0
 10
81.38625459033032
 20
-122.6410777471176
 30
0.0
 10
81.78485819127222
 20
-122.1436258027975
 30
0.0
 10
81.78485819127222
 20
-122.1436258027975
 30
0.0
 10
81.78485819127222
 20
-122.1436258027975
 30
0.0
 10
85.59510503850916
 20
-122.1436258027975
 30
0.0
 10
85.59510503850916
 20
-122.1436258027975
 30
0.0
 10
85.59510503850916
 20
-122.1436258027975
 30
0.0
 10
85.59510503850916
 20
-130.3431338563031
 30
0.0
 10
85.59510503850916
 20
-130.3431338563031
 30
0.0
 10
85.04321949703338
 20
-130.5642902451364
 30
0.0
 10
84.58915923083964
 20
-131.1017471894469
 30
0.0
 10
84.58915923083964
 20
-131.7321963559558
 30
0.0
 10
84.58915923083964
 20
-132.5603774668596
 30
0.0
 10
85.26095393592296
 20
-133.2321721889139
 30
0.0
 10
86.0891350259054
 20
-133.2321721889139
 30
0.0
 10
86.91735139366475
 20
-133.2321721889139
 30
0.0
 10
87.58914609874805
 20
-132.5603774668596
 30
0.0
 10
87.58914609874805
 20
-131.7321963559558
 30
0.0
 10
87.58914609874805
 20
-131.1210088561086
 30
0.0
 10
87.13748472138201
 20
-130.6063413562374
 30
0.0
 10
86.61279834587899
 20
-130.3727319118511
 30
0.0
  0
SPLINE
  5
43
330
1F
100
AcDbEntity
  8
_U+30EC_U+30A4_U+30E4_U+30FC 1
 62
     7
420
 16777215
370
     9
100
AcDbSpline
210
0.0
220
0.0
230
1.0
 70
    11
 71
     3
 72
    17
 73
    13
 74
     0
 42
0.0000000001
 43
0.0000000001
 12
1.0
 22
0.0
 32
0.0
 13
1.0
 23
0.0
 33
0.0
 40
0.0
 40
0.0
 40
0.0
 40
0.0
 40
1.0
 40
1.0
 40
1.0
 40
2.0
 40
2.0
 40
2.0
 40
3.0
 40
3.0
 40
3.0
 40
4.0
 40
4.0
 40
4.0
 40
4.0
 10
105.6204292498428
 20
-135.2007074661999
 30
0.0
 10
105.6204292498428
 20
-135.1455682995469
 30
0.0
 10
105.575626473208
 20
-135.1008007995583
 30
0.0
 10
105.520522585725
 20
-135.1008007995583
 30
0.0
 10
105.4653860847449
 20
-135.1008007995583
 30
0.0
 10
105.4206159216071
 20
-135.1455682995469
 30
0.0
 10
105.4206159216071
 20
-135.2007074661999
 30
0.0
 10
105.4206159216071
 20
-135.2565169106304
 30
0.0
 10
105.4653860847449
 20
-135.3013196883971
 30
0.0
 10
105.520522585725
 20
-135.3013196883971
 30
0.0
 10
105.575626473208
 20
-135.3013196883971
 30
0.0
 10
105.6204292498428
 20
-135.2565169106304
 30
0.0
 10
105.6204292498428
 20
-135.2007074661999
 30
0.0
  0
POLYLINE
  5
44
330
1F
100
AcDbEntity
  8
_U+30EC_U+30A4_U+30E4_U+30FC 1
 62
     7
420
 16777215
370
     9
100
AcDb2dPolyline
 66
     1
 10
0.0
 20
0.0
 30
0.0
  0
VERTEX
  5
45
330
44
100
AcDbEntity
  8
_U+30EC_U+30A4_U+30E4_U+30FC 1
 62
     7
420
 16777215
370
     9
100
AcDbVertex
100
AcDb2dVertex
 10
105.520522585725
 20
-139.5670027428859
 30
0.0
  0
VERTEX
  5
46
330
44
100
AcDbEntity
  8
_U+30EC_U+30A4_U+30E4_U+30FC 1
 62
     7
420
 16777215
370
     9
100
AcDbVertex
100
AcDb2dVertex
 10
105.520522585725
 20
-122.5807880249104
 30
0.0
  0
SEQEND
  5
47
330
44
100
AcDbEntity
  8
_U+30EC_U+30A4_U+30E4_U+30FC 1
 62
     7
420
 16777215
370
     9
  0
POLYLINE
  5
48
330
1F
100
AcDbEntity
  8
_U+30EC_U+30A4_U+30E4_U+30FC 1
 62
     7
420
 16777215
370
     9
100
AcDb2dPolyline
 66
     1
 10
0.0
 20
0.0
 30
0.0
  0
VERTEX
  5
49
330
48
100
AcDbEntity
  8
_U+30EC_U+30A4_U+30E4_U+30FC 1
 62
     7
420
 16777215
370
     9
100
AcDbVertex
100
AcDb2dVertex
 10
99.190137191671
 20
-135.2007074661999
 30
0.0
  0
VERTEX
  5
4A
330
48
100
AcDbEntity
  8
_U+30EC_U+30A4_U+30E4_U+30FC 1
 62
     7
420
 16777215
370
     9
100
AcDbVertex
100
AcDb2dVertex
 10
106.9922761592885
 20
-135.2007074661999
 30
0.0
  0
SEQEND
  5
4B
330
48
100
AcDbEntity
  8
_U+30EC_U+30A4_U+30E4_U+30FC 1
 62
     7
420
 16777215
370
     9
  0
SPLINE
  5
4C
330
1F
100
AcDbEntity
  8
_U+30EC_U+30A4_U+30E4_U+30FC 1
 62
     7
420
 16777215
370
     9
100
AcDbSpline
210
0.0
220
0.0
230
1.0
 70
    11
 71
     3
 72
    17
 73
    13
 74
     0
 42
0.0000000001
 43
0.0000000001
 12
1.0
 22
0.0
 32
0.0
 13
1.0
 23
0.0
 33
0.0
 40
0.0
 40
0.0
 40
0.0
 40
0.0
 40
1.0
 40
1.0
 40
1.0
 40
2.0
 40
2.0
 40
2.0
 40
3.0
 40
3.0
 40
3.0
 40
4.0
 40
4.0
 40
4.0
 40
4.0
 10
105.6204292498428
 20
-136.1660132992921
 30
0.0
 10
105.6204292498428
 20
-136.1109094104166
 30
0.0
 10
105.575626473208
 20
-136.0661066326498
 30
0.0
 10
105.520522585725
 20
-136.0661066326498
 30
0.0
 10
105.4653860847449
 20
-136.0661066326498
 30
0.0
 10
105.4206159216071
 20
-136.1109094104166
 30
0.0
 10
105.4206159216071
 20
-136.1660132992921
 30
0.0
 10
105.4206159216071
 20
-136.2218227437226
 30
0.0
 10
105.4653860847449
 20
-136.2666255214886
 30
0.0
 10
105.520522585725
 20
-136.2666255214886
 30
0.0
 10
105.575626473208
 20
-136.2666255214886
 30
0.0
 10
105.6204292498428
 20
-136.2218227437226
 30
0.0
 10
105.6204292498428
 20
-136.1660132992921
 30
0.0
  0
POLYLINE
  5
4D
330
1F
100
AcDbEntity
  8
_U+30EC_U+30A4_U+30E4_U+30FC 1
 62
     7
420
 16777215
370
     9
100
AcDb2dPolyline
 66
     1
 10
0.0
 20
0.0
 30
0.0
  0
VERTEX
  5
4E
330
4D
100
AcDbEntity
  8
_U+30EC_U+30A4_U+30E4_U+30FC 1
 62
     7
420
 16777215
370
     9
100
AcDbVertex
100
AcDb2dVertex
 10
99.190137191671
 20
-136.1660132992921
 30
0.0
  0
VERTEX
  5
4F
330
4D
100
AcDbEntity
  8
_U+30EC_U+30A4_U+30E4_U+30FC 1
 62
     7
420
 16777215
370
     9
100
AcDbVertex
100
AcDb2dVertex
 10
106.9922761592885
 20
-136.1660132992921
 30
0.0
  0
SEQEND
  5
50
330
4D
100
AcDbEntity
  8
_U+30EC_U+30A4_U+30E4_U+30FC 1
 62
     7
420
 16777215
370
     9
  0
SPLINE
  5
51
330
1F
100
AcDbEntity
  8
_U+30EC_U+30A4_U+30E4_U+30FC 1
 62
     7
420
 16777215
370
     9
100
AcDbSpline
210
0.0
220
0.0
230
1.0
 70
    11
 71
     3
 72
    17
 73
    13
 74
     0
 42
0.0000000001
 43
0.0000000001
 12
1.0
 22
0.0
 32
0.0
 13
1.0
 23
0.0
 33
0.0
 40
0.0
 40
0.0
 40
0.0
 40
0.0
 40
1.0
 40
1.0
 40
1.0
 40
2.0
 40
2.0
 40
2.0
 40
3.0
 40
3.0
 40
3.0
 40
4.0
 40
4.0
 40
4.0
 40
4.0
 10
105.6204292498428
 20
-122.6806946915521
 30
0.0
 10
105.6204292498428
 20
-122.6255908026768
 30
0.0
 10
105.575626473208
 20
-122.5807880249104
 30
0.0
 10
105.520522585725
 20
-122.5807880249104
 30
0.0
 10
105.4653860847449
 20
-122.5807880249104
 30
0.0
 10
105.4206159216071
 20
-122.6255908026768
 30
0.0
 10
105.4206159216071
 20
-122.6806946915521
 30
0.0
 10
105.4206159216071
 20
-122.7365394137603
 30
0.0
 10
105.4653860847449
 20
-122.7813069137492
 30
0.0
 10
105.520522585725
 20
-122.7813069137492
 30
0.0
 10
105.575626473208
 20
-122.7813069137492
 30
0.0
 10
105.6204292498428
 20
-122.7365394137603
 30
0.0
 10
105.6204292498428
 20
-122.6806946915521
 30
0.0
  0
POLYLINE
  5
52
330
1F
100
AcDbEntity
  8
_U+30EC_U+30A4_U+30E4_U+30FC 1
 62
     7
420
 16777215
370
     9
100
AcDb2dPolyline
 66
     1
 10
0.0
 20
0.0
 30
0.0
  0
VERTEX
  5
53
330
52
100
AcDbEntity
  8
_U+30EC_U+30A4_U+30E4_U+30FC 1
 62
     7
420
 16777215
370
     9
100
AcDbVertex
100
AcDb2dVertex
 10
94.6043789753301
 20
-122.6806946915521
 30
0.0
  0
VERTEX
  5
54
330
52
100
AcDbEntity
  8
_U+30EC_U+30A4_U+30E4_U+30FC 1
 62
     7
420
 16777215
370
     9
100
AcDbVertex
100
AcDb2dVertex
 10
106.9254247721051
 20
-122.6806946915521
 30
0.0
  0
SEQEND
  5
55
330
52
100
AcDbEntity
  8
_U+30EC_U+30A4_U+30E4_U+30FC 1
 62
     7
420
 16777215
370
     9
  0
POLYLINE
  5
56
330
1F
100
AcDbEntity
  8
_U+30EC_U+30A4_U+30E4_U+30FC 1
 62
     7
420
 16777215
370
     9
100
AcDb2dPolyline
 66
     1
 10
0.0
 20
0.0
 30
0.0
  0
VERTEX
  5
57
330
56
100
AcDbEntity
  8
_U+30EC_U+30A4_U+30E4_U+30FC 1
 62
     7
420
 16777215
370
     9
100
AcDbVertex
100
AcDb2dVertex
 10
105.520522585725
 20
-122.6438646915612
 30
0.0
  0
VERTEX
  5
58
330
56
100
AcDbEntity
  8
_U+30EC_U+30A4_U+30E4_U+30FC 1
 62
     7
420
 16777215
370
     9
100
AcDbVertex
100
AcDb2dVertex
 10
105.520522585725
 20
-116.2277188598319
 30
0.0
  0
SEQEND
  5
59
330
56
100
AcDbEntity
  8
_U+30EC_U+30A4_U+30E4_U+30FC 1
 62
     7
420
 16777215
370
     9
  0
SPLINE
  5
5A
330
1F
100
AcDbEntity
  8
_U+30EC_U+30A4_U+30E4_U+30FC 1
 62
     7
420
 16777215
370
     9
100
AcDbSpline
210
0.0
220
0.0
230
1.0
 70
    11
 71
     3
 72
    17
 73
    13
 74
     0
 42
0.0000000001
 43
0.0000000001
 12
1.0
 22
0.0
 32
0.0
 13
1.0
 23
0.0
 33
0.0
 40
0.0
 40
0.0
 40
0.0
 40
0.0
 40
1.0
 40
1.0
 40
1.0
 40
2.0
 40
2.0
 40
2.0
 40
3.0
 40
3.0
 40
3.0
 40
4.0
 40
4.0
 40
4.0
 40
4.0
 10
105.6204292498428
 20
-121.1593405252657
 30
0.0
 10
105.6204292498428
 20
-121.1042366363905
 30
0.0
 10
105.575626473208
 20
-121.0594338586241
 30
0.0
 10
105.520522585725
 20
-121.0594338586241
 30
0.0
 10
105.4653860847449
 20
-121.0594338586241
 30
0.0
 10
105.4206159216071
 20
-121.1042366363905
 30
0.0
 10
105.4206159216071
 20
-121.1593405252657
 30
0.0
 10
105.4206159216071
 20
-121.215185247474
 30
0.0
 10
105.4653860847449
 20
-121.2599527474629
 30
0.0
 10
105.520522585725
 20
-121.2599527474629
 30
0.0
 10
105.575626473208
 20
-121.2599527474629
 30
0.0
 10
105.6204292498428
 20
-121.215185247474
 30
0.0
 10
105.6204292498428
 20
-121.1593405252657
 30
0.0
  0
POLYLINE
  5
5B
330
1F
100
AcDbEntity
  8
_U+30EC_U+30A4_U+30E4_U+30FC 1
 62
     7
420
 16777215
370
     9
100
AcDb2dPolyline
 66
     1
 10
0.0
 20
0.0
 30
0.0
  0
VERTEX
  5
5C
330
5B
100
AcDbEntity
  8
_U+30EC_U+30A4_U+30E4_U+30FC 1
 62
     7
420
 16777215
370
     9
100
AcDbVertex
100
AcDb2dVertex
 10
94.6043789753301
 20
-121.1593405252657
 30
0.0
  0
VERTEX
  5
5D
330
5B
100
AcDbEntity
  8
_U+30EC_U+30A4_U+30E4_U+30FC 1
 62
     7
420
 16777215
370
     9
100
AcDbVertex
100
AcDb2dVertex
 10
106.9254247721051
 20
-121.1593405252657
 30
0.0
  0
SEQEND
  5
5E
330
5B
100
AcDbEntity
  8
_U+30EC_U+30A4_U+30E4_U+30FC 1
 62
     7
420
 16777215
370
     9
  0
INSERT
  5
60
330
1F
100
AcDbEntity
  8
_U+30EC_U+30A4_U+30E4_U+30FC 1
100
AcDbBlockReference
  2
block 2
 10
0.0
 20
0.0
 30
0.0
  0
INSERT
  5
72
330
1F
100
AcDbEntity
  8
_U+30EC_U+30A4_U+30E4_U+30FC 1
100
AcDbBlockReference
  2
block 3
 10
0.0
 20
0.0
 30
0.0
  0
INSERT
  5
82
330
1F
100
AcDbEntity
  8
_U+30EC_U+30A4_U+30E4_U+30FC 1
100
AcDbBlockReference
  2
block 4
 10
0.0
 20
0.0
 30
0.0
  0
SPLINE
  5
87
330
1F
100
AcDbEntity
  8
_U+30EC_U+30A4_U+30E4_U+30FC 1
 62
     7
420
 16777215
370
     9
100
AcDbSpline
210
0.0
220
0.0
230
1.0
 70
    11
 71
     3
 72
    17
 73
    13
 74
     0
 42
0.0000000001
 43
0.0000000001
 12
1.0
 22
0.0
 32
0.0
 13
1.0
 23
0.0
 33
0.0
 40
0.0
 40
0.0
 40
0.0
 40
0.0
 40
1.0
 40
1.0
 40
1.0
 40
2.0
 40
2.0
 40
2.0
 40
3.0
 40
3.0
 40
3.0
 40
4.0
 40
4.0
 40
4.0
 40
4.0
 10
97.18650057612136
 20
-139.5973416317676
 30
0.0
 10
97.18650057612136
 20
-139.5422024651145
 30
0.0
 10
97.14515502162062
 20
-139.497434965126
 30
0.0
 10
97.0934730784947
 20
-139.497434965126
 30
0.0
 10
97.04249669090632
 20
-139.497434965126
 30
0.0
 10
97.00044558086802
 20
-139.5422024651145
 30
0.0
 10
97.00044558086802
 20
-139.5973416317676
 30
0.0
 10
97.00044558086802
 20
-139.653151076198
 30
0.0
 10
97.04249669090632
 20
-139.6979185761866
 30
0.0
 10
97.0934730784947
 20
-139.6979185761866
 30
0.0
 10
97.14515502162062
 20
-139.6979185761866
 30
0.0
 10
97.18650057612136
 20
-139.653151076198
 30
0.0
 10
97.18650057612136
 20
-139.5973416317676
 30
0.0
  0
SPLINE
  5
88
330
1F
100
AcDbEntity
  8
_U+30EC_U+30A4_U+30E4_U+30FC 1
 62
     7
420
 16777215
370
     9
100
AcDbSpline
210
0.0
220
0.0
230
1.0
 70
    11
 71
     3
 72
    17
 73
    13
 74
     0
 42
0.0000000001
 43
0.0000000001
 12
1.0
 22
0.0
 32
0.0
 13
1.0
 23
0.0
 33
0.0
 40
0.0
 40
0.0
 40
0.0
 40
0.0
 40
1.0
 40
1.0
 40
1.0
 40
2.0
 40
2.0
 40
2.0
 40
3.0
 40
3.0
 40
3.0
 40
4.0
 40
4.0
 40
4.0
 40
4.0
 10
80.18321386884315
 20
-118.8232460814052
 30
0.0
 10
80.18321386884315
 20
-118.7681069147525
 30
0.0
 10
80.13844434438684
 20
-118.7233394147636
 30
0.0
 10
80.0833051791269
 20
-118.7233394147636
 30
0.0
 10
80.02820129164382
 20
-118.7233394147636
 30
0.0
 10
79.98339851500906
 20
-118.7681069147525
 30
0.0
 10
79.98339851500906
 20
-118.8232460814052
 30
0.0
 10
79.98339851500906
 20
-118.8790555258356
 30
0.0
 10
80.02820129164382
 20
-118.9238230258245
 30
0.0
 10
80.0833051791269
 20
-118.9238230258245
 30
0.0
 10
80.13844434438684
 20
-118.9238230258245
 30
0.0
 10
80.18321386884315
 20
-118.8790555258356
 30
0.0
 10
80.18321386884315
 20
-118.8232460814052
 30
0.0
  0
SPLINE
  5
89
330
1F
100
AcDbEntity
  8
_U+30EC_U+30A4_U+30E4_U+30FC 1
 62
     7
420
 16777215
370
     9
100
AcDbSpline
210
0.0
220
0.0
230
1.0
 70
    11
 71
     3
 72
    17
 73
    13
 74
     0
 42
0.0000000001
 43
0.0000000001
 12
1.0
 22
0.0
 32
0.0
 13
1.0
 23
0.0
 33
0.0
 40
0.0
 40
0.0
 40
0.0
 40
0.0
 40
1.0
 40
1.0
 40
1.0
 40
2.0
 40
2.0
 40
2.0
 40
3.0
 40
3.0
 40
3.0
 40
4.0
 40
4.0
 40
4.0
 40
4.0
 10
92.19282775472983
 20
-118.8252921925158
 30
0.0
 10
92.19282775472983
 20
-118.7701883036409
 30
0.0
 10
92.14802497696311
 20
-118.7253855258741
 30
0.0
 10
92.09291876162501
 20
-118.7253855258741
 30
0.0
 10
92.03777959636507
 20
-118.7253855258741
 30
0.0
 10
91.99301209750718
 20
-118.7701883036409
 30
0.0
 10
91.99301209750718
 20
-118.8252921925158
 30
0.0
 10
91.99301209750718
 20
-118.8811016369465
 30
0.0
 10
92.03777959636507
 20
-118.9259044147129
 30
0.0
 10
92.09291876162501
 20
-118.9259044147129
 30
0.0
 10
92.14802497696311
 20
-118.9259044147129
 30
0.0
 10
92.19282775472983
 20
-118.8811016369465
 30
0.0
 10
92.19282775472983
 20
-118.8252921925158
 30
0.0
  0
POLYLINE
  5
8A
330
1F
100
AcDbEntity
  8
_U+30EC_U+30A4_U+30E4_U+30FC 1
 62
     7
420
 16777215
370
     9
100
AcDb2dPolyline
 66
     1
 10
0.0
 20
0.0
 30
0.0
  0
VERTEX
  5
8B
330
8A
100
AcDbEntity
  8
_U+30EC_U+30A4_U+30E4_U+30FC 1
 62
     7
420
 16777215
370
     9
100
AcDbVertex
100
AcDb2dVertex
 10
80.08538656796269
 20
-118.8232460814052
 30
0.0
  0
VERTEX
  5
8C
330
8A
100
AcDbEntity
  8
_U+30EC_U+30A4_U+30E4_U+30FC 1
 62
     7
420
 16777215
370
     9
100
AcDbVertex
100
AcDb2dVertex
 10
92.09429459492326
 20
-118.8232460814052
 30
0.0
  0
SEQEND
  5
8D
330
8A
100
AcDbEntity
  8
_U+30EC_U+30A4_U+30E4_U+30FC 1
 62
     7
420
 16777215
370
     9
  0
POLYLINE
  5
8E
330
1F
100
AcDbEntity
  8
_U+30EC_U+30A4_U+30E4_U+30FC 1
 62
     7
420
 16777215
370
     9
100
AcDb2dPolyline
 66
     1
 10
0.0
 20
0.0
 30
0.0
  0
VERTEX
  5
8F
330
8E
100
AcDbEntity
  8
_U+30EC_U+30A4_U+30E4_U+30FC 1
 62
     7
420
 16777215
370
     9
100
AcDbVertex
100
AcDb2dVertex
 10
80.0833051791269
 20
-117.3632046928815
 30
0.0
  0
VERTEX
  5
90
330
8E
100
AcDbEntity
  8
_U+30EC_U+30A4_U+30E4_U+30FC 1
 62
     7
420
 16777215
370
     9
100
AcDbVertex
100
AcDb2dVertex
 10
80.0833051791269
 20
-119.8236885811551
 30
0.0
  0
SEQEND
  5
91
330
8E
100
AcDbEntity
  8
_U+30EC_U+30A4_U+30E4_U+30FC 1
 62
     7
420
 16777215
370
     9
  0
POLYLINE
  5
92
330
1F
100
AcDbEntity
  8
_U+30EC_U+30A4_U+30E4_U+30FC 1
 62
     7
420
 16777215
370
     9
100
AcDb2dPolyline
 66
     1
 10
0.0
 20
0.0
 30
0.0
  0
VERTEX
  5
93
330
92
100
AcDbEntity
  8
_U+30EC_U+30A4_U+30E4_U+30FC 1
 62
     7
420
 16777215
370
     9
100
AcDbVertex
100
AcDb2dVertex
 10
92.09221320608746
 20
-117.3632046928815
 30
0.0
  0
VERTEX
  5
94
330
92
100
AcDbEntity
  8
_U+30EC_U+30A4_U+30E4_U+30FC 1
 62
     7
420
 16777215
370
     9
100
AcDbVertex
100
AcDb2dVertex
 10
92.09221320608746
 20
-119.8236885811551
 30
0.0
  0
SEQEND
  5
95
330
92
100
AcDbEntity
  8
_U+30EC_U+30A4_U+30E4_U+30FC 1
 62
     7
420
 16777215
370
     9
  0
INSERT
  5
97
330
1F
100
AcDbEntity
  8
_U+30EC_U+30A4_U+30E4_U+30FC 1
100
AcDbBlockReference
  2
block 5
 10
0.0
 20
0.0
 30
0.0
  0
SPLINE
  5
9E
330
1F
100
AcDbEntity
  8
_U+30EC_U+30A4_U+30E4_U+30FC 1
 62
     7
420
 16777215
370
     9
100
AcDbSpline
210
0.0
220
0.0
230
1.0
 70
    11
 71
     3
 72
    17
 73
    13
 74
     0
 42
0.0000000001
 43
0.0000000001
 12
1.0
 22
0.0
 32
0.0
 13
1.0
 23
0.0
 33
0.0
 40
0.0
 40
0.0
 40
0.0
 40
0.0
 40
1.0
 40
1.0
 40
1.0
 40
2.0
 40
2.0
 40
2.0
 40
3.0
 40
3.0
 40
3.0
 40
4.0
 40
4.0
 40
4.0
 40
4.0
 10
75.1840333596733
 20
-139.6000932984334
 30
0.0
 10
75.1840333596733
 20
-139.5449541317803
 30
0.0
 10
75.14131387010349
 20
-139.5001866317917
 30
0.0
 10
75.08895975098771
 20
-139.5001866317917
 30
0.0
 10
75.036925030093
 20
-139.5001866317917
 30
0.0
 10
74.99455831458457
 20
-139.5449541317803
 30
0.0
 10
74.99455831458457
 20
-139.6000932984334
 30
0.0
 10
74.99455831458457
 20
-139.6559027428638
 30
0.0
 10
75.036925030093
 20
-139.7007055206305
 30
0.0
 10
75.08895975098771
 20
-139.7007055206305
 30
0.0
 10
75.14131387010349
 20
-139.7007055206305
 30
0.0
 10
75.1840333596733
 20
-139.6559027428638
 30
0.0
 10
75.1840333596733
 20
-139.6000932984334
 30
0.0
  0
POLYLINE
  5
9F
330
1F
100
AcDbEntity
  8
_U+30EC_U+30A4_U+30E4_U+30FC 1
 62
     7
420
 16777215
370
     9
100
AcDb2dPolyline
 66
     1
 10
0.0
 20
0.0
 30
0.0
  0
VERTEX
  5
A0
330
9F
100
AcDbEntity
  8
_U+30EC_U+30A4_U+30E4_U+30FC 1
 62
     7
420
 16777215
370
     9
100
AcDbVertex
100
AcDb2dVertex
 10
75.08895975098771
 20
-139.6000932984334
 30
0.0
  0
VERTEX
  5
A1
330
9F
100
AcDbEntity
  8
_U+30EC_U+30A4_U+30E4_U+30FC 1
 62
     7
420
 16777215
370
     9
100
AcDbVertex
100
AcDb2dVertex
 10
97.18650057612136
 20
-139.6000932984334
 30
0.0
  0
SEQEND
  5
A2
330
9F
100
AcDbEntity
  8
_U+30EC_U+30A4_U+30E4_U+30FC 1
 62
     7
420
 16777215
370
     9
  0
POLYLINE
  5
A3
330
1F
100
AcDbEntity
  8
_U+30EC_U+30A4_U+30E4_U+30FC 1
 62
     7
420
 16777215
370
     9
100
AcDb2dPolyline
 66
     1
 10
0.0
 20
0.0
 30
0.0
  0
VERTEX
  5
A4
330
A3
100
AcDbEntity
  8
_U+30EC_U+30A4_U+30E4_U+30FC 1
 62
     7
420
 16777215
370
     9
100
AcDbVertex
100
AcDb2dVertex
 10
75.08895975098771
 20
-138.1400519099097
 30
0.0
  0
VERTEX
  5
A5
330
A3
100
AcDbEntity
  8
_U+30EC_U+30A4_U+30E4_U+30FC 1
 62
     7
420
 16777215
370
     9
100
AcDbVertex
100
AcDb2dVertex
 10
75.08895975098771
 20
-140.6005357981833
 30
0.0
  0
SEQEND
  5
A6
330
A3
100
AcDbEntity
  8
_U+30EC_U+30A4_U+30E4_U+30FC 1
 62
     7
420
 16777215
370
     9
  0
POLYLINE
  5
A7
330
1F
100
AcDbEntity
  8
_U+30EC_U+30A4_U+30E4_U+30FC 1
 62
     7
420
 16777215
370
     9
100
AcDb2dPolyline
 66
     1
 10
0.0
 20
0.0
 30
0.0
  0
VERTEX
  5
A8
330
A7
100
AcDbEntity
  8
_U+30EC_U+30A4_U+30E4_U+30FC 1
 62
     7
420
 16777215
370
     9
100
AcDbVertex
100
AcDb2dVertex
 10
97.09276752295713
 20
-138.1400519099097
 30
0.0
  0
VERTEX
  5
A9
330
A7
100
AcDbEntity
  8
_U+30EC_U+30A4_U+30E4_U+30FC 1
 62
     7
420
 16777215
370
     9
100
AcDbVertex
100
AcDb2dVertex
 10
97.09276752295713
 20
-140.6005357981833
 30
0.0
  0
SEQEND
  5
AA
330
A7
100
AcDbEntity
  8
_U+30EC_U+30A4_U+30E4_U+30FC 1
 62
     7
420
 16777215
370
     9
  0
INSERT
  5
AC
330
1F
100
AcDbEntity
  8
_U+30EC_U+30A4_U+30E4_U+30FC 1
100
AcDbBlockReference
  2
block 6
 10
0.0
 20
0.0
 30
0.0
  0
ENDSEC
  0
SECTION
  2
OBJECTS
  0
DICTIONARY
  5
C
330
0
100
AcDbDictionary
281
     1
  3
ACAD_GROUP
350
D
  3
ACAD_LAYOUT
350
1A
  3
ACAD_MATERIAL
350
3B
  3
ACAD_MLEADERSTYLE
350
B4
  3
ACAD_MLINESTYLE
350
17
  3
ACAD_PLOTSETTINGS
350
19
  3
ACAD_PLOTSTYLENAME
350
E
  3
ACAD_TABLESTYLE
350
B3
  3
ACAD_VISUALSTYLE
350
2A
  0
SUN
  5
3F
330
29
100
AcDbSun
 90
        1
290
     0
 63
     7
421
 16777215
 40
1.0
291
     1
 91
  2455826
 92
 54000000
292
     0
 70
     2
 71
   256
280
     1
  0
DICTIONARY
  5
D
102
{ACAD_REACTORS
330
C
102
}
330
C
100
AcDbDictionary
281
     1
  0
DICTIONARY
  5
1A
102
{ACAD_REACTORS
330
C
102
}
330
C
100
AcDbDictionary
281
     1
  3
Layout1
350
1E
  3
Layout2
350
26
  3
Model
350
22
  0
DICTIONARY
  5
3B
102
{ACAD_REACTORS
330
C
102
}
330
C
100
AcDbDictionary
281
     1
  3
ByBlock
350
3D
  3
ByLayer
350
3C
  3
Global
350
3E
  0
DICTIONARY
  5
B4
102
{ACAD_REACTORS
330
C
102
}
330
C
100
AcDbDictionary
281
     1
  0
DICTIONARY
  5
17
102
{ACAD_REACTORS
330
C
102
}
330
C
100
AcDbDictionary
281
     1
  3
Standard
350
18
  0
DICTIONARY
  5
19
102
{ACAD_REACTORS
330
C
102
}
330
C
100
AcDbDictionary
281
     1
  0
ACDBDICTIONARYWDFLT
  5
E
102
{ACAD_REACTORS
330
C
102
}
330
C
100
AcDbDictionary
281
     1
  3
Normal
350
F
100
AcDbDictionaryWithDefault
340
F
  0
DICTIONARY
  5
B3
102
{ACAD_REACTORS
330
C
102
}
330
C
100
AcDbDictionary
281
     1
  0
DICTIONARY
  5
2A
102
{ACAD_REACTORS
330
C
102
}
330
C
100
AcDbDictionary
281
     1
  3
2dWireframe
350
2F
  3
3D Hidden
350
31
  3
3dWireframe
350
30
  3
Basic
350
32
  3
Brighten
350
36
  3
ColorChange
350
3A
  3
Conceptual
350
34
  3
Dim
350
35
  3
Facepattern
350
39
  3
Flat
350
2B
  3
FlatWithEdges
350
2C
  3
Gouraud
350
2D
  3
GouraudWithEdges
350
2E
  3
Linepattern
350
38
  3
Realistic
350
33
  3
Thicken
350
37
  0
LAYOUT
  5
1E
102
{ACAD_REACTORS
330
1A
102
}
330
1A
100
AcDbPlotSettings
  1

  2
none_device
  4

  6

 40
0.0
 41
0.0
 42
0.0
 43
0.0
 44
0.0
 45
0.0
 46
0.0
 47
0.0
 48
0.0
 49
0.0
140
0.0
141
0.0
142
1.0
143
1.0
 70
   688
 72
     0
 73
     0
 74
     5
  7

 75
    16
 76
     0
 77
     2
 78
   300
147
1.0
148
0.0
149
0.0
100
AcDbLayout
  1
Layout1
 70
     1
 71
     1
 10
0.0
 20
0.0
 11
12.0
 21
9.0
 12
0.0
 22
0.0
 32
0.0
 14
1.000000000000000E+20
 24
1.000000000000000E+20
 34
1.000000000000000E+20
 15
-1.000000000000000E+20
 25
-1.000000000000000E+20
 35
-1.000000000000000E+20
146
0.0
 13
0.0
 23
0.0
 33
0.0
 16
1.0
 26
0.0
 36
0.0
 17
0.0
 27
1.0
 37
0.0
 76
     0
330
1B
  0
LAYOUT
  5
26
102
{ACAD_REACTORS
330
1A
102
}
330
1A
100
AcDbPlotSettings
  1

  2
none_device
  4

  6

 40
0.0
 41
0.0
 42
0.0
 43
0.0
 44
0.0
 45
0.0
 46
0.0
 47
0.0
 48
0.0
 49
0.0
140
0.0
141
0.0
142
1.0
143
1.0
 70
   688
 72
     0
 73
     0
 74
     5
  7

 75
    16
 76
     0
 77
     2
 78
   300
147
1.0
148
0.0
149
0.0
100
AcDbLayout
  1
Layout2
 70
     1
 71
     2
 10
0.0
 20
0.0
 11
0.0
 21
0.0
 12
0.0
 22
0.0
 32
0.0
 14
0.0
 24
0.0
 34
0.0
 15
0.0
 25
0.0
 35
0.0
146
0.0
 13
0.0
 23
0.0
 33
0.0
 16
1.0
 26
0.0
 36
0.0
 17
0.0
 27
1.0
 37
0.0
 76
     0
330
23
  0
LAYOUT
  5
22
102
{ACAD_REACTORS
330
1A
102
}
330
1A
100
AcDbPlotSettings
  1

  2
none_device
  4

  6

 40
0.0
 41
0.0
 42
0.0
 43
0.0
 44
0.0
 45
0.0
 46
0.0
 47
0.0
 48
0.0
 49
0.0
140
0.0
141
0.0
142
1.0
143
1.0
 70
  1712
 72
     0
 73
     0
 74
     0
  7

 75
     0
 76
     0
 77
     2
 78
   300
147
1.0
148
0.0
149
0.0
100
AcDbLayout
  1
Model
 70
     1
 71
     0
 10
0.0
 20
0.0
 11
12.0
 21
9.0
 12
0.0
 22
0.0
 32
0.0
 14
1.000000000000000E+20
 24
1.000000000000000E+20
 34
1.000000000000000E+20
 15
-1.000000000000000E+20
 25
-1.000000000000000E+20
 35
-1.000000000000000E+20
146
0.0
 13
0.0
 23
0.0
 33
0.0
 16
1.0
 26
0.0
 36
0.0
 17
0.0
 27
1.0
 37
0.0
 76
     0
330
1F
331
29
  0
MATERIAL
  5
3D
102
{ACAD_REACTORS
330
3B
102
}
330
3B
100
AcDbMaterial
  1
ByBlock
 72
     1
 94
      127
  0
MATERIAL
  5
3C
102
{ACAD_REACTORS
330
3B
102
}
330
3B
100
AcDbMaterial
  1
ByLayer
 72
     1
 94
      127
  0
MATERIAL
  5
3E
102
{ACAD_REACTORS
330
3B
102
}
330
3B
100
AcDbMaterial
  1
Global
 72
     1
 94
      127
  0
MLINESTYLE
  5
18
102
{ACAD_REACTORS
330
17
102
}
330
17
100
AcDbMlineStyle
  2
Standard
 70
     0
  3

 62
   256
 51
90.0
 52
90.0
 71
     2
 49
0.5
 62
   256
  6
BYLAYER
 49
-0.5
 62
   256
  6
BYLAYER
  0
ACDBPLACEHOLDER
  5
F
102
{ACAD_REACTORS
330
E
102
}
330
E
  0
VISUALSTYLE
  5
2F
102
{ACAD_REACTORS
330
2A
102
}
330
2A
100
AcDbVisualStyle
  2
2dWireframe
 70
     4
177
     2
291
     0
 71
     0
176
     1
 72
     2
176
     1
 73
     0
176
     1
 90
        0
176
     1
 40
-0.6
176
     1
 41
-30.0
176
     1
 62
     5
 63
     7
421
 16777215
176
     1
 74
     1
176
     1
 91
        4
176
     1
 64
     7
176
     1
 65
   257
176
     1
 75
     1
176
     1
175
     1
176
     1
 42
1.0
176
     1
 92
        0
176
     1
 66
   257
176
     1
 43
1.0
176
     1
 76
     1
176
     1
 77
     6
176
     1
 78
     2
176
     1
 67
     7
176
     1
 79
     5
176
     1
170
     0
176
     1
171
     0
176
     1
290
     0
176
     1
 93
        1
176
     1
 44
0.0
176
     1
173
     0
176
     1
  0
VISUALSTYLE
  5
31
102
{ACAD_REACTORS
330
2A
102
}
330
2A
100
AcDbVisualStyle
  2
3D Hidden
 70
     6
177
     2
291
     0
 71
     1
176
     1
 72
     2
176
     1
 73
     2
176
     1
 90
        0
176
     1
 40
-0.6
176
     1
 41
-30.0
176
     1
 62
     5
 63
     7
421
 16777215
176
     1
 74
     2
176
     1
 91
        2
176
     1
 64
     7
176
     1
 65
   257
176
     1
 75
     2
176
     1
175
     1
176
     1
 42
40.0
176
     1
 92
        0
176
     1
 66
   257
176
     1
 43
1.0
176
     1
 76
     1
176
     1
 77
     6
176
     1
 78
     2
176
     1
 67
     7
176
     1
 79
     3
176
     1
170
     0
176
     1
171
     0
176
     1
290
     0
176
     1
 93
        1
176
     1
 44
0.0
176
     1
173
     0
176
     1
  0
VISUALSTYLE
  5
30
102
{ACAD_REACTORS
330
2A
102
}
330
2A
100
AcDbVisualStyle
  2
3dWireframe
 70
     5
177
     2
291
     0
 71
     0
176
     1
 72
     2
176
     1
 73
     0
176
     1
 90
        0
176
     1
 40
-0.6
176
     1
 41
-30.0
176
     1
 62
     5
 63
     7
421
 16777215
176
     1
 74
     1
176
     1
 91
        4
176
     1
 64
     7
176
     1
 65
   257
176
     1
 75
     1
176
     1
175
     1
176
     1
 42
1.0
176
     1
 92
        0
176
     1
 66
   257
176
     1
 43
1.0
176
     1
 76
     1
176
     1
 77
     6
176
     1
 78
     2
176
     1
 67
     7
176
     1
 79
     5
176
     1
170
     0
176
     1
171
     0
176
     1
290
     0
176
     1
 93
        1
176
     1
 44
0.0
176
     1
173
     0
176
     1
  0
VISUALSTYLE
  5
32
102
{ACAD_REACTORS
330
2A
102
}
330
2A
100
AcDbVisualStyle
  2
Basic
 70
     7
177
     2
291
     1
 71
     1
176
     1
 72
     0
176
     1
 73
     1
176
     1
 90
        0
176
     1
 40
-0.6
176
     1
 41
-30.0
176
     1
 62
     5
 63
     7
421
 16777215
176
     1
 74
     0
176
     1
 91
        4
176
     1
 64
     7
176
     1
 65
   257
176
     1
 75
     1
176
     1
175
     1
176
     1
 42
1.0
176
     1
 92
        8
176
     1
 66
     7
176
     1
 43
1.0
176
     1
 76
     1
176
     1
 77
     6
176
     1
 78
     2
176
     1
 67
     7
176
     1
 79
     5
176
     1
170
     0
176
     1
171
     0
176
     1
290
     0
176
     1
 93
        1
176
     1
 44
0.0
176
     1
173
     0
176
     1
  0
VISUALSTYLE
  5
36
102
{ACAD_REACTORS
330
2A
102
}
330
2A
100
AcDbVisualStyle
  2
Brighten
 70
    12
177
     2
291
     1
 71
     2
176
     1
 72
     2
176
     1
 73
     0
176
     1
 90
        0
176
     1
 40
-0.6
176
     1
 41
-30.0
176
     1
 62
     5
 63
     7
421
 16777215
176
     1
 74
     1
176
     1
 91
        4
176
     1
 64
     7
176
     1
 65
   257
176
     1
 75
     1
176
     1
175
     1
176
     1
 42
1.0
176
     1
 92
        8
176
     1
 66
     7
176
     1
 43
1.0
176
     1
 76
     1
176
     1
 77
     6
176
     1
 78
     2
176
     1
 67
     7
176
     1
 79
     5
176
     1
170
     0
176
     1
171
     0
176
     1
290
     0
176
     1
 93
        1
176
     1
 44
50.0
176
     1
173
     0
176
     1
  0
VISUALSTYLE
  5
3A
102
{ACAD_REACTORS
330
2A
102
}
330
2A
100
AcDbVisualStyle
  2
ColorChange
 70
    16
177
     2
291
     1
 71
     2
176
     1
 72
     2
176
     1
 73
     3
176
     1
 90
        0
176
     1
 40
-0.6
176
     1
 41
-30.0
176
     1
 62
     5
 63
     8
421
  8421504
176
     1
 74
     1
176
     1
 91
        4
176
     1
 64
     7
176
     1
 65
   257
176
     1
 75
     1
176
     1
175
     1
176
     1
 42
1.0
176
     1
 92
        8
176
     1
 66
     8
424
  8421504
176
     1
 43
1.0
176
     1
 76
     1
176
     1
 77
     6
176
     1
 78
     2
176
     1
 67
     7
176
     1
 79
     5
176
     1
170
     0
176
     1
171
     0
176
     1
290
     0
176
     1
 93
        1
176
     1
 44
0.0
176
     1
173
     0
176
     1
  0
VISUALSTYLE
  5
34
102
{ACAD_REACTORS
330
2A
102
}
330
2A
100
AcDbVisualStyle
  2
Conceptual
 70
     9
177
     2
291
     0
 71
     3
176
     1
 72
     2
176
     1
 73
     0
176
     1
 90
        0
176
     1
 40
-0.6
176
     1
 41
-30.0
176
     1
 62
     5
 63
     7
421
 16777215
176
     1
 74
     2
176
     1
 91
        2
176
     1
 64
     7
176
     1
 65
   257
176
     1
 75
     1
176
     1
175
     1
176
     1
 42
40.0
176
     1
 92
        8
176
     1
 66
     7
176
     1
 43
1.0
176
     1
 76
     1
176
     1
 77
     6
176
     1
 78
     2
176
     1
 67
     7
176
     1
 79
     3
176
     1
170
     0
176
     1
171
     0
176
     1
290
     0
176
     1
 93
        1
176
     1
 44
0.0
176
     1
173
     0
176
     1
  0
VISUALSTYLE
  5
35
102
{ACAD_REACTORS
330
2A
102
}
330
2A
100
AcDbVisualStyle
  2
Dim
 70
    11
177
     2
291
     1
 71
     2
176
     1
 72
     2
176
     1
 73
     0
176
     1
 90
        0
176
     1
 40
-0.6
176
     1
 41
-30.0
176
     1
 62
     5
 63
     7
421
 16777215
176
     1
 74
     1
176
     1
 91
        4
176
     1
 64
     7
176
     1
 65
   257
176
     1
 75
     1
176
     1
175
     1
176
     1
 42
1.0
176
     1
 92
        8
176
     1
 66
     7
176
     1
 43
1.0
176
     1
 76
     1
176
     1
 77
     6
176
     1
 78
     2
176
     1
 67
     7
176
     1
 79
     5
176
     1
170
     0
176
     1
171
     0
176
     1
290
     0
176
     1
 93
        1
176
     1
 44
-50.0
176
     1
173
     0
176
     1
  0
VISUALSTYLE
  5
39
102
{ACAD_REACTORS
330
2A
102
}
330
2A
100
AcDbVisualStyle
  2
Facepattern
 70
    15
177
     2
291
     1
 71
     2
176
     1
 72
     2
176
     1
 73
     0
176
     1
 90
        0
176
     1
 40
-0.6
176
     1
 41
-30.0
176
     1
 62
     5
 63
     7
421
 16777215
176
     1
 74
     1
176
     1
 91
        4
176
     1
 64
     7
176
     1
 65
   257
176
     1
 75
     1
176
     1
175
     1
176
     1
 42
1.0
176
     1
 92
        8
176
     1
 66
     7
176
     1
 43
1.0
176
     1
 76
     1
176
     1
 77
     6
176
     1
 78
     2
176
     1
 67
     7
176
     1
 79
     5
176
     1
170
     0
176
     1
171
     0
176
     1
290
     0
176
     1
 93
        1
176
     1
 44
0.0
176
     1
173
     0
176
     1
  0
VISUALSTYLE
  5
2B
102
{ACAD_REACTORS
330
2A
102
}
330
2A
100
AcDbVisualStyle
  2
Flat
 70
     0
177
     2
291
     1
 71
     2
176
     1
 72
     1
176
     1
 73
     1
176
     1
 90
        2
176
     1
 40
-0.6
176
     1
 41
30.0
176
     1
 62
     5
 63
     7
421
 16777215
176
     1
 74
     0
176
     1
 91
        4
176
     1
 64
     7
176
     1
 65
   257
176
     1
 75
     1
176
     1
175
     1
176
     1
 42
1.0
176
     1
 92
        8
176
     1
 66
     7
176
     1
 43
1.0
176
     1
 76
     1
176
     1
 77
     6
176
     1
 78
     2
176
     1
 67
     7
176
     1
 79
     5
176
     1
170
     0
176
     1
171
     0
176
     1
290
     0
176
     1
 93
       13
176
     1
 44
0.0
176
     1
173
     0
176
     1
  0
VISUALSTYLE
  5
2C
102
{ACAD_REACTORS
330
2A
102
}
330
2A
100
AcDbVisualStyle
  2
FlatWithEdges
 70
     1
177
     2
291
     1
 71
     2
176
     1
 72
     1
176
     1
 73
     1
176
     1
 90
        2
176
     1
 40
-0.6
176
     1
 41
30.0
176
     1
 62
     5
 63
     7
421
 16777215
176
     1
 74
     1
176
     1
 91
        4
176
     1
 64
     7
176
     1
 65
   257
176
     1
 75
     1
176
     1
175
     1
176
     1
 42
1.0
176
     1
 92
        0
176
     1
 66
   257
176
     1
 43
1.0
176
     1
 76
     1
176
     1
 77
     6
176
     1
 78
     2
176
     1
 67
     7
176
     1
 79
     5
176
     1
170
     0
176
     1
171
     0
176
     1
290
     0
176
     1
 93
       13
176
     1
 44
0.0
176
     1
173
     0
176
     1
  0
VISUALSTYLE
  5
2D
102
{ACAD_REACTORS
330
2A
102
}
330
2A
100
AcDbVisualStyle
  2
Gouraud
 70
     2
177
     2
291
     1
 71
     2
176
     1
 72
     2
176
     1
 73
     1
176
     1
 90
        2
176
     1
 40
-0.6
176
     1
 41
30.0
176
     1
 62
     5
 63
     7
421
 16777215
176
     1
 74
     0
176
     1
 91
        4
176
     1
 64
     7
176
     1
 65
   257
176
     1
 75
     1
176
     1
175
     1
176
     1
 42
1.0
176
     1
 92
        0
176
     1
 66
     7
176
     1
 43
1.0
176
     1
 76
     1
176
     1
 77
     6
176
     1
 78
     2
176
     1
 67
     7
176
     1
 79
     5
176
     1
170
     0
176
     1
171
     0
176
     1
290
     0
176
     1
 93
       13
176
     1
 44
0.0
176
     1
173
     0
176
     1
  0
VISUALSTYLE
  5
2E
102
{ACAD_REACTORS
330
2A
102
}
330
2A
100
AcDbVisualStyle
  2
GouraudWithEdges
 70
     3
177
     2
291
     1
 71
     2
176
     1
 72
     2
176
     1
 73
     1
176
     1
 90
        2
176
     1
 40
-0.6
176
     1
 41
30.0
176
     1
 62
     5
 63
     7
421
 16777215
176
     1
 74
     1
176
     1
 91
        4
176
     1
 64
     7
176
     1
 65
   257
176
     1
 75
     1
176
     1
175
     1
176
     1
 42
1.0
176
     1
 92
        0
176
     1
 66
   257
176
     1
 43
1.0
176
     1
 76
     1
176
     1
 77
     6
176
     1
 78
     2
176
     1
 67
     7
176
     1
 79
     5
176
     1
170
     0
176
     1
171
     0
176
     1
290
     0
176
     1
 93
       13
176
     1
 44
0.0
176
     1
173
     0
176
     1
  0
VISUALSTYLE
  5
38
102
{ACAD_REACTORS
330
2A
102
}
330
2A
100
AcDbVisualStyle
  2
Linepattern
 70
    14
177
     2
291
     1
 71
     2
176
     1
 72
     2
176
     1
 73
     0
176
     1
 90
        0
176
     1
 40
-0.6
176
     1
 41
-30.0
176
     1
 62
     5
 63
     7
421
 16777215
176
     1
 74
     1
176
     1
 91
        4
176
     1
 64
     7
176
     1
 65
   257
176
     1
 75
     7
176
     1
175
     7
176
     1
 42
1.0
176
     1
 92
        8
176
     1
 66
     7
176
     1
 43
1.0
176
     1
 76
     1
176
     1
 77
     6
176
     1
 78
     2
176
     1
 67
     7
176
     1
 79
     5
176
     1
170
     0
176
     1
171
     0
176
     1
290
     0
176
     1
 93
        1
176
     1
 44
0.0
176
     1
173
     0
176
     1
  0
VISUALSTYLE
  5
33
102
{ACAD_REACTORS
330
2A
102
}
330
2A
100
AcDbVisualStyle
  2
Realistic
 70
     8
177
     2
291
     0
 71
     2
176
     1
 72
     2
176
     1
 73
     0
176
     1
 90
        0
176
     1
 40
-0.6
176
     1
 41
-30.0
176
     1
 62
     5
 63
     7
421
 16777215
176
     1
 74
     1
176
     1
 91
        0
176
     1
 64
     7
176
     1
 65
   257
176
     1
 75
     1
176
     1
175
     1
176
     1
 42
1.0
176
     1
 92
        8
176
     1
 66
     8
424
  7895160
176
     1
 43
1.0
176
     1
 76
     1
176
     1
 77
     6
176
     1
 78
     2
176
     1
 67
     7
176
     1
 79
     5
176
     1
170
     0
176
     1
171
     0
176
     1
290
     0
176
     1
 93
       13
176
     1
 44
0.0
176
     1
173
     0
176
     1
  0
VISUALSTYLE
  5
37
102
{ACAD_REACTORS
330
2A
102
}
330
2A
100
AcDbVisualStyle
  2
Thicken
 70
    13
177
     2
291
     1
 71
     2
176
     1
 72
     2
176
     1
 73
     0
176
     1
 90
        0
176
     1
 40
-0.6
176
     1
 41
-30.0
176
     1
 62
     5
 63
     7
421
 16777215
176
     1
 74
     1
176
     1
 91
        4
176
     1
 64
     7
176
     1
 65
   257
176
     1
 75
     1
176
     1
175
     1
176
     1
 42
1.0
176
     1
 92
       12
176
     1
 66
     7
176
     1
 43
1.0
176
     1
 76
     1
176
     1
 77
     6
176
     1
 78
     2
176
     1
 67
     7
176
     1
 79
     5
176
     1
170
     0
176
     1
171
     0
176
     1
290
     0
176
     1
 93
        1
176
     1
 44
0.0
176
     1
173
     0
176
     1
  0
ENDSEC
  0
EOF
