  0
SECTION
  2
HEADER
  9
$ACADVER
  1
AC1024
  9
$ACADMAINTVER
 70
     6
  9
$DWGCODEPAGE
  3
UNDEFINED
  9
$INSBASE
 10
0.0
 20
0.0
 30
0.0
  9
$EXTMIN
 10
1.000000000000000E+20
 20
1.000000000000000E+20
 30
1.000000000000000E+20
  9
$EXTMAX
 10
-1.000000000000000E+20
 20
-1.000000000000000E+20
 30
-1.000000000000000E+20
  9
$LIMMIN
 10
0.0
 20
0.0
  9
$LIMMAX
 10
12.0
 20
9.0
  9
$ORTHOMODE
 70
     0
  9
$REGENMODE
 70
     1
  9
$FILLMODE
 70
     1
  9
$QTEXTMODE
 70
     0
  9
$MIRRTEXT
 70
     1
  9
$LTSCALE
 40
1.0
  9
$ATTMODE
 70
     1
  9
$TEXTSIZE
 40
0.2
  9
$TRACEWID
 40
0.05
  9
$TEXTSTYLE
  7
Standard
  9
$CLAYER
  8
0
  9
$CELTYPE
  6
ByLayer
  9
$CECOLOR
 62
   256
  9
$CELTSCALE
 40
1.0
  9
$DISPSILH
 70
     0
  9
$DIMSCALE
 40
1.0
  9
$DIMASZ
 40
0.18
  9
$DIMEXO
 40
0.0625
  9
$DIMDLI
 40
0.38
  9
$DIMRND
 40
0.0
  9
$DIMDLE
 40
0.0
  9
$DIMEXE
 40
0.18
  9
$DIMTP
 40
0.0
  9
$DIMTM
 40
0.0
  9
$DIMTXT
 40
0.18
  9
$DIMCEN
 40
0.09
  9
$DIMTSZ
 40
0.0
  9
$DIMTOL
 70
     0
  9
$DIMLIM
 70
     0
  9
$DIMTIH
 70
     1
  9
$DIMTOH
 70
     1
  9
$DIMSE1
 70
     0
  9
$DIMSE2
 70
     0
  9
$DIMTAD
 70
     0
  9
$DIMZIN
 70
     0
  9
$DIMBLK
  1

  9
$DIMASO
 70
     1
  9
$DIMSHO
 70
     1
  9
$DIMPOST
  1

  9
$DIMAPOST
  1

  9
$DIMALT
 70
     0
  9
$DIMALTD
 70
     2
  9
$DIMALTF
 40
25.4
  9
$DIMLFAC
 40
1.0
  9
$DIMTOFL
 70
     0
  9
$DIMTVP
 40
0.0
  9
$DIMTIX
 70
     0
  9
$DIMSOXD
 70
     0
  9
$DIMSAH
 70
     0
  9
$DIMBLK1
  1

  9
$DIMBLK2
  1

  9
$DIMSTYLE
  2
Standard
  9
$DIMCLRD
 70
     0
  9
$DIMCLRE
 70
     0
  9
$DIMCLRT
 70
     0
  9
$DIMTFAC
 40
1.0
  9
$DIMGAP
 40
0.09
  9
$DIMJUST
 70
     0
  9
$DIMSD1
 70
     0
  9
$DIMSD2
 70
     0
  9
$DIMTOLJ
 70
     1
  9
$DIMTZIN
 70
     0
  9
$DIMALTZ
 70
     0
  9
$DIMALTTZ
 70
     0
  9
$DIMUPT
 70
     0
  9
$DIMDEC
 70
     4
  9
$DIMTDEC
 70
     4
  9
$DIMALTU
 70
     2
  9
$DIMALTTD
 70
     2
  9
$DIMTXSTY
  7
Standard
  9
$DIMAUNIT
 70
     0
  9
$DIMADEC
 70
     0
  9
$DIMALTRND
 40
0.0
  9
$DIMAZIN
 70
     0
  9
$DIMDSEP
 70
    46
  9
$DIMATFIT
 70
     3
  9
$DIMFRAC
 70
     0
  9
$DIMLDRBLK
  1

  9
$DIMLUNIT
 70
     2
  9
$DIMLWD
 70
    -2
  9
$DIMLWE
 70
    -2
  9
$DIMTMOVE
 70
     0
  9
$DIMFXL
 40
1.0
  9
$DIMFXLON
 70
     0
  9
$DIMJOGANG
 40
0.7853981633974483
  9
$DIMTFILL
 70
     0
  9
$DIMTFILLCLR
 70
     0
  9
$DIMARCSYM
 70
     0
  9
$DIMLTYPE
  6

  9
$DIMLTEX1
  6

  9
$DIMLTEX2
  6

  9
$DIMTXTDIRECTION
 70
     0
  9
$LUNITS
 70
     2
  9
$LUPREC
 70
     4
  9
$SKETCHINC
 40
0.1
  9
$FILLETRAD
 40
0.5
  9
$AUNITS
 70
     0
  9
$AUPREC
 70
     0
  9
$MENU
  1
.
  9
$ELEVATION
 40
0.0
  9
$PELEVATION
 40
0.0
  9
$THICKNESS
 40
0.0
  9
$LIMCHECK
 70
     0
  9
$CHAMFERA
 40
0.5
  9
$CHAMFERB
 40
0.5
  9
$CHAMFERC
 40
1.0
  9
$CHAMFERD
 40
0.0
  9
$SKPOLY
 70
     0
  9
$TDCREATE
 40
2457917.599305556
  9
$TDUCREATE
 40
2457917.224305556
  9
$TDUPDATE
 40
2457917.599305556
  9
$TDUUPDATE
 40
2457917.224305556
  9
$TDINDWG
 40
0.0000000116
  9
$TDUSRTIMER
 40
0.0000000116
  9
$USRTIMER
 70
     1
  9
$ANGBASE
 50
0.0
  9
$ANGDIR
 70
     0
  9
$PDMODE
 70
     0
  9
$PDSIZE
 40
0.0
  9
$PLINEWID
 40
0.0
  9
$SPLFRAME
 70
     0
  9
$SPLINETYPE
 70
     6
  9
$SPLINESEGS
 70
     8
  9
$HANDSEED
  5
B4
  9
$SURFTAB1
 70
     6
  9
$SURFTAB2
 70
     6
  9
$SURFTYPE
 70
     6
  9
$SURFU
 70
     6
  9
$SURFV
 70
     6
  9
$UCSBASE
  2

  9
$UCSNAME
  2

  9
$UCSORG
 10
0.0
 20
0.0
 30
0.0
  9
$UCSXDIR
 10
1.0
 20
0.0
 30
0.0
  9
$UCSYDIR
 10
0.0
 20
1.0
 30
0.0
  9
$UCSORTHOREF
  2

  9
$UCSORTHOVIEW
 70
     0
  9
$UCSORGTOP
 10
0.0
 20
0.0
 30
0.0
  9
$UCSORGBOTTOM
 10
0.0
 20
0.0
 30
0.0
  9
$UCSORGLEFT
 10
0.0
 20
0.0
 30
0.0
  9
$UCSORGRIGHT
 10
0.0
 20
0.0
 30
0.0
  9
$UCSORGFRONT
 10
0.0
 20
0.0
 30
0.0
  9
$UCSORGBACK
 10
0.0
 20
0.0
 30
0.0
  9
$PUCSBASE
  2

  9
$PUCSNAME
  2

  9
$PUCSORG
 10
0.0
 20
0.0
 30
0.0
  9
$PUCSXDIR
 10
1.0
 20
0.0
 30
0.0
  9
$PUCSYDIR
 10
0.0
 20
1.0
 30
0.0
  9
$PUCSORTHOREF
  2

  9
$PUCSORTHOVIEW
 70
     0
  9
$PUCSORGTOP
 10
0.0
 20
0.0
 30
0.0
  9
$PUCSORGBOTTOM
 10
0.0
 20
0.0
 30
0.0
  9
$PUCSORGLEFT
 10
0.0
 20
0.0
 30
0.0
  9
$PUCSORGRIGHT
 10
0.0
 20
0.0
 30
0.0
  9
$PUCSORGFRONT
 10
0.0
 20
0.0
 30
0.0
  9
$PUCSORGBACK
 10
0.0
 20
0.0
 30
0.0
  9
$USERI1
 70
     0
  9
$USERI2
 70
     0
  9
$USERI3
 70
     0
  9
$USERI4
 70
     0
  9
$USERI5
 70
     0
  9
$USERR1
 40
0.0
  9
$USERR2
 40
0.0
  9
$USERR3
 40
0.0
  9
$USERR4
 40
0.0
  9
$USERR5
 40
0.0
  9
$WORLDVIEW
 70
     1
  9
$SHADEDGE
 70
     3
  9
$SHADEDIF
 70
    70
  9
$TILEMODE
 70
     1
  9
$MAXACTVP
 70
    64
  9
$PINSBASE
 10
0.0
 20
0.0
 30
0.0
  9
$PLIMCHECK
 70
     0
  9
$PEXTMIN
 10
1.000000000000000E+20
 20
1.000000000000000E+20
 30
1.000000000000000E+20
  9
$PEXTMAX
 10
-1.000000000000000E+20
 20
-1.000000000000000E+20
 30
-1.000000000000000E+20
  9
$PLIMMIN
 10
0.0
 20
0.0
  9
$PLIMMAX
 10
12.0
 20
9.0
  9
$UNITMODE
 70
     0
  9
$VISRETAIN
 70
     1
  9
$PLINEGEN
 70
     0
  9
$PSLTSCALE
 70
     1
  9
$TREEDEPTH
 70
  3020
  9
$CMLSTYLE
  2
Standard
  9
$CMLJUST
 70
     0
  9
$CMLSCALE
 40
1.0
  9
$PROXYGRAPHICS
 70
     1
  9
$MEASUREMENT
 70
     0
  9
$CELWEIGHT
370
    -1
  9
$ENDCAPS
280
     0
  9
$JOINSTYLE
280
     0
  9
$LWDISPLAY
290
     1
  9
$INSUNITS
 70
     1
  9
$HYPERLINKBASE
  1

  9
$STYLESHEET
  1

  9
$XEDIT
290
     1
  9
$CEPSNTYPE
380
     0
  9
$PSTYLEMODE
290
     1
  9
$FINGERPRINTGUID
  2
{2E46765D-5EA7-56C7-159E-0251CFF4C183}
  9
$VERSIONGUID
  2
{FAEB1C32-E019-11D5-929B-00C0DF256EC4}
  9
$EXTNAMES
290
     1
  9
$PSVPSCALE
 40
0.0
  9
$OLESTARTUP
290
     0
  9
$SORTENTS
280
   127
  9
$INDEXCTL
280
     0
  9
$HIDETEXT
280
     1
  9
$XCLIPFRAME
280
     2
  9
$HALOGAP
280
     0
  9
$OBSCOLOR
 70
   257
  9
$OBSLTYPE
280
     0
  9
$INTERSECTIONDISPLAY
280
     0
  9
$INTERSECTIONCOLOR
 70
   257
  9
$DIMASSOC
280
     2
  9
$PROJECTNAME
  1

  9
$CAMERADISPLAY
290
     0
  9
$LENSLENGTH
 40
50.0
  9
$CAMERAHEIGHT
 40
0.0
  9
$STEPSPERSEC
 40
2.0
  9
$STEPSIZE
 40
6.0
  9
$3DDWFPREC
 40
2.0
  9
$PSOLWIDTH
 40
0.25
  9
$PSOLHEIGHT
 40
4.0
  9
$LOFTANG1
 40
1.570796326794897
  9
$LOFTANG2
 40
1.570796326794897
  9
$LOFTMAG1
 40
0.0
  9
$LOFTMAG2
 40
0.0
  9
$LOFTPARAM
 70
     7
  9
$LOFTNORMALS
280
     1
  9
$LATITUDE
 40
37.795
  9
$LONGITUDE
 40
-122.394
  9
$NORTHDIRECTION
 40
0.0
  9
$TIMEZONE
 70
 -8000
  9
$LIGHTGLYPHDISPLAY
280
     1
  9
$TILEMODELIGHTSYNCH
280
     1
  9
$CMATERIAL
347
3C
  9
$SOLIDHIST
280
     1
  9
$SHOWHIST
280
     1
  9
$DWFFRAME
280
     2
  9
$DGNFRAME
280
     2
  9
$REALWORLDSCALE
290
     1
  9
$INTERFERECOLOR
 62
   256
  9
$CSHADOW
280
     0
  9
$SHADOWPLANELOCATION
 40
0.0
  0
ENDSEC
  0
SECTION
  2
CLASSES
  0
CLASS
  1
ACDBDICTIONARYWDFLT
  2
AcDbDictionaryWithDefault
  3
ObjectDBX Classes
 90
        0
 91
        4
280
     0
281
     0
  0
CLASS
  1
VISUALSTYLE
  2
AcDbVisualStyle
  3
ObjectDBX Classes
 90
     4095
 91
        4
280
     0
281
     0
  0
CLASS
  1
MATERIAL
  2
AcDbMaterial
  3
ObjectDBX Classes
 90
     1153
 91
        4
280
     0
281
     0
  0
CLASS
  1
SUN
  2
AcDbSun
  3
SCENEOE
 90
     1024
 91
        4
280
     0
281
     0
  0
ENDSEC
  0
SECTION
  2
TABLES
  0
TABLE
  2
VPORT
  5
8
330
0
100
AcDbSymbolTable
 70
     1
  0
VPORT
  5
29
330
8
100
AcDbSymbolTableRecord
100
AcDbViewportTableRecord
  2
*Active
 70
     0
 10
0.0
 20
0.0
 11
1.0
 21
1.0
 12
0.0
 22
0.0
 13
0.0
 23
0.0
 14
0.5
 24
0.5
 15
0.5
 25
0.5
 16
0.0
 26
0.0
 36
1.0
 17
91.00082462281999
 27
-128.4993055234307
 37
0.0
 40
256.9986110468615
 41
0.7081814508812795
 42
50.0
 43
0.0
 44
0.0
 50
0.0
 51
0.0
 71
     0
 72
   100
 73
     1
 74
     3
 75
     0
 76
     0
 77
     0
 78
     0
281
     0
 65
     1
110
0.0
120
0.0
130
0.0
111
1.0
121
0.0
131
0.0
112
0.0
122
1.0
132
0.0
 79
     0
146
0.0
 60
     3
 61
     5
292
     1
282
     1
141
0.0
142
0.0
 63
   250
361
3F
  0
ENDTAB
  0
TABLE
  2
LTYPE
  5
5
330
0
100
AcDbSymbolTable
 70
     1
  0
LTYPE
  5
14
330
5
100
AcDbSymbolTableRecord
100
AcDbLinetypeTableRecord
  2
ByBlock
 70
     0
  3

 72
    65
 73
     0
 40
0.0
  0
LTYPE
  5
15
330
5
100
AcDbSymbolTableRecord
100
AcDbLinetypeTableRecord
  2
ByLayer
 70
     0
  3

 72
    65
 73
     0
 40
0.0
  0
LTYPE
  5
16
330
5
100
AcDbSymbolTableRecord
100
AcDbLinetypeTableRecord
  2
Continuous
 70
     0
  3
Solid line
 72
    65
 73
     0
 40
0.0
  0
ENDTAB
  0
TABLE
  2
LAYER
  5
2
330
0
100
AcDbSymbolTable
 70
     2
  0
LAYER
  5
10
330
2
100
AcDbSymbolTableRecord
100
AcDbLayerTableRecord
  2
0
 70
     0
 62
     7
  6
Continuous
370
    -3
390
F
347
3E
  0
LAYER
  5
40
330
2
100
AcDbSymbolTableRecord
100
AcDbLayerTableRecord
  2
_U+30EC_U+30A4_U+30E4_U+30FC 1
 70
     0
 62
     7
  6
Continuous
370
    -3
390
F
347
3E
  0
ENDTAB
  0
TABLE
  2
STYLE
  5
3
330
0
100
AcDbSymbolTable
 70
     1
  0
STYLE
  5
11
330
3
100
AcDbSymbolTableRecord
100
AcDbTextStyleTableRecord
  2
Standard
 70
     0
 40
0.0
 41
1.0
 50
0.0
 71
     0
 42
0.2
  3
txt
  4

  0
ENDTAB
  0
TABLE
  2
VIEW
  5
6
330
0
100
AcDbSymbolTable
 70
     0
  0
ENDTAB
  0
TABLE
  2
UCS
  5
7
330
0
100
AcDbSymbolTable
 70
     0
  0
ENDTAB
  0
TABLE
  2
APPID
  5
9
330
0
100
AcDbSymbolTable
 70
     1
  0
APPID
  5
12
330
9
100
AcDbSymbolTableRecord
100
AcDbRegAppTableRecord
  2
ACAD
 70
     0
  0
ENDTAB
  0
TABLE
  2
DIMSTYLE
  5
A
330
0
100
AcDbSymbolTable
 70
     1
100
AcDbDimStyleTable
  0
DIMSTYLE
105
27
330
A
100
AcDbSymbolTableRecord
100
AcDbDimStyleTableRecord
  2
Standard
 70
     0
178
     0
340
11
  0
ENDTAB
  0
TABLE
  2
BLOCK_RECORD
  5
1
330
0
100
AcDbSymbolTable
 70
     6
  0
BLOCK_RECORD
  5
1F
330
1
100
AcDbSymbolTableRecord
100
AcDbBlockTableRecord
  2
*Model_Space
340
22
 70
     0
280
     1
281
     0
  0
BLOCK_RECORD
  5
1B
330
1
100
AcDbSymbolTableRecord
100
AcDbBlockTableRecord
  2
*Paper_Space
340
1E
 70
     0
280
     1
281
     0
  0
BLOCK_RECORD
  5
23
330
1
100
AcDbSymbolTableRecord
100
AcDbBlockTableRecord
  2
*Paper_Space0
340
26
 70
     0
280
     1
281
     0
  0
BLOCK_RECORD
  5
5F
330
1
100
AcDbSymbolTableRecord
100
AcDbBlockTableRecord
  2
block 2
340
0
102
{BLKREFS
331
60
102
}
 70
     0
280
     1
281
     0
  0
BLOCK_RECORD
  5
70
330
1
100
AcDbSymbolTableRecord
100
AcDbBlockTableRecord
  2
block 3
340
0
102
{BLKREFS
331
71
102
}
 70
     0
280
     1
281
     0
  0
BLOCK_RECORD
  5
80
330
1
100
AcDbSymbolTableRecord
100
AcDbBlockTableRecord
  2
block 4
340
0
102
{BLKREFS
331
81
102
}
 70
     0
280
     1
281
     0
  0
BLOCK_RECORD
  5
95
330
1
100
AcDbSymbolTableRecord
100
AcDbBlockTableRecord
  2
block 5
340
0
102
{BLKREFS
331
96
102
}
 70
     0
280
     1
281
     0
  0
BLOCK_RECORD
  5
AA
330
1
100
AcDbSymbolTableRecord
100
AcDbBlockTableRecord
  2
block 6
340
0
102
{BLKREFS
331
AB
102
}
 70
     0
280
     1
281
     0
  0
ENDTAB
  0
ENDSEC
  0
SECTION
  2
BLOCKS
  0
BLOCK
  5
20
330
1F
100
AcDbEntity
  8
0
100
AcDbBlockBegin
  2
*Model_Space
 70
     0
 10
0.0
 20
0.0
 30
0.0
  3
*Model_Space
  1

  0
ENDBLK
  5
21
330
1F
100
AcDbEntity
  8
0
100
AcDbBlockEnd
  0
BLOCK
  5
1C
330
1B
100
AcDbEntity
 67
     1
  8
0
100
AcDbBlockBegin
  2
*Paper_Space
 70
     0
 10
0.0
 20
0.0
 30
0.0
  3
*Paper_Space
  1

  0
ENDBLK
  5
1D
330
1B
100
AcDbEntity
 67
     1
  8
0
100
AcDbBlockEnd
  0
BLOCK
  5
24
330
23
100
AcDbEntity
  8
0
100
AcDbBlockBegin
  2
*Paper_Space0
 70
     0
 10
0.0
 20
0.0
 30
0.0
  3
*Paper_Space0
  1

  0
ENDBLK
  5
25
330
23
100
AcDbEntity
  8
0
100
AcDbBlockEnd
  0
BLOCK
  5
61
330
5F
100
AcDbEntity
  8
0
100
AcDbBlockBegin
  2
block 2
 70
     0
 10
0.0
 20
0.0
 30
0.0
  3
block 2
  1

  0
SPLINE
  5
63
330
5F
100
AcDbEntity
  8
_U+30EC_U+30A4_U+30E4_U+30FC 1
370
     0
100
AcDbSpline
210
0.0
220
0.0
230
1.0
 70
    11
 71
     3
 72
    32
 73
    28
 74
     0
 42
0.0000000001
 43
0.0000000001
 12
1.0
 22
0.0
 32
0.0
 13
1.0
 23
0.0
 33
0.0
 40
0.0
 40
0.0
 40
0.0
 40
0.0
 40
1.0
 40
1.0
 40
1.0
 40
2.0
 40
2.0
 40
2.0
 40
3.0
 40
3.0
 40
3.0
 40
4.0
 40
4.0
 40
4.0
 40
5.0
 40
5.0
 40
5.0
 40
6.0
 40
6.0
 40
6.0
 40
7.0
 40
7.0
 40
7.0
 40
8.0
 40
8.0
 40
8.0
 40
9.0
 40
9.0
 40
9.0
 40
9.0
 10
104.7539848913462
 20
-130.5170979491416
 30
0.0
 10
104.7539848913462
 20
-130.6903862520496
 30
0.0
 10
104.6843939625442
 20
-130.9360215601479
 30
0.0
 10
104.3522867577661
 20
-130.9739176104857
 30
0.0
 10
104.3522867577661
 20
-130.9739176104857
 30
0.0
 10
104.3522867577661
 20
-130.7603216904002
 30
0.0
 10
104.3522867577661
 20
-130.7603216904002
 30
0.0
 10
104.4115424001124
 20
-130.7496418943959
 30
0.0
 10
104.5593369964296
 20
-130.7179470159316
 30
0.0
 10
104.5593369964296
 20
-130.5150308918504
 30
0.0
 10
104.5593369964296
 20
-130.2228867947012
 30
0.0
 10
104.2292968489427
 20
-130.1849907443635
 30
0.0
 10
104.0243136675703
 20
-130.1722438910681
 30
0.0
 10
104.1045843923766
 20
-130.2631944118787
 30
0.0
 10
104.1617729774318
 20
-130.3307182833896
 30
0.0
 10
104.1617729774318
 20
-130.5126193250107
 30
0.0
 10
104.1617729774318
 20
-130.6924533093408
 30
0.0
 10
104.0560085460346
 20
-130.9952772024942
 30
0.0
 10
103.6498317883237
 20
-130.9952772024942
 30
0.0
 10
103.330471436841
 20
-130.9952772024942
 30
0.0
 10
103.1103298353335
 20
-130.7961506834468
 30
0.0
 10
103.1103298353335
 20
-130.4788573892553
 30
0.0
 10
103.1103298353335
 20
-129.964849142856
 30
0.0
 10
103.6646456989102
 20
-129.9541693468517
 30
0.0
 10
103.8782416189957
 20
-129.9541693468517
 30
0.0
 10
104.1087185069589
 20
-129.9541693468517
 30
0.0
 10
104.7539848913462
 20
-129.9734618815691
 30
0.0
 10
104.7539848913462
 20
-130.5170979491416
 30
0.0
  0
SPLINE
  5
64
330
5F
100
AcDbEntity
  8
_U+30EC_U+30A4_U+30E4_U+30FC 1
370
     0
100
AcDbSpline
210
0.0
220
0.0
230
1.0
 70
    11
 71
     3
 72
    17
 73
    13
 74
     0
 42
0.0000000001
 43
0.0000000001
 12
1.0
 22
0.0
 32
0.0
 13
1.0
 23
0.0
 33
0.0
 40
0.0
 40
0.0
 40
0.0
 40
0.0
 40
1.0
 40
1.0
 40
1.0
 40
2.0
 40
2.0
 40
2.0
 40
3.0
 40
3.0
 40
3.0
 40
4.0
 40
4.0
 40
4.0
 40
4.0
 10
103.302910672959
 20
-130.4767903319641
 30
0.0
 10
103.302910672959
 20
-130.5953016166567
 30
0.0
 10
103.3600992580141
 20
-130.7710014864045
 30
0.0
 10
103.6456976737414
 20
-130.7710014864045
 30
0.0
 10
103.8720404471223
 20
-130.7710014864045
 30
0.0
 10
103.9671250825152
 20
-130.6311306097033
 30
0.0
 10
103.9671250825152
 20
-130.495738357133
 30
0.0
 10
103.9671250825152
 20
-130.2335665907055
 30
0.0
 10
103.757663277012
 20
-130.1953260308192
 30
0.0
 10
103.6412190496105
 20
-130.1953260308192
 30
0.0
 10
103.4658636894113
 20
-130.1953260308192
 30
0.0
 10
103.302910672959
 20
-130.2907551757606
 30
0.0
 10
103.302910672959
 20
-130.4767903319641
 30
0.0
  0
HATCH
  5
65
330
5F
100
AcDbEntity
  8
_U+30EC_U+30A4_U+30E4_U+30FC 1
 62
     7
420
 16777215
100
AcDbHatch
 10
0.0
 20
0.0
 30
0.0
210
0.0
220
0.0
230
1.0
  2
SOLID
 70
     1
 71
     0
 91
        2
 92
        1
 93
        1
 72
     4
 94
        3
 73
     0
 74
     1
 95
       32
 96
       28
 40
0.0
 40
0.0
 40
0.0
 40
0.0
 40
1.0
 40
1.0
 40
1.0
 40
2.0
 40
2.0
 40
2.0
 40
3.0
 40
3.0
 40
3.0
 40
4.0
 40
4.0
 40
4.0
 40
5.0
 40
5.0
 40
5.0
 40
6.0
 40
6.0
 40
6.0
 40
7.0
 40
7.0
 40
7.0
 40
8.0
 40
8.0
 40
8.0
 40
9.0
 40
9.0
 40
9.0
 40
9.0
 10
104.7539848913462
 20
-130.5170979491416
 10
104.7539848913462
 20
-130.6903862520496
 10
104.6843939625442
 20
-130.9360215601479
 10
104.3522867577661
 20
-130.9739176104857
 10
104.3522867577661
 20
-130.9739176104857
 10
104.3522867577661
 20
-130.7603216904002
 10
104.3522867577661
 20
-130.7603216904002
 10
104.4115424001124
 20
-130.7496418943959
 10
104.5593369964296
 20
-130.7179470159316
 10
104.5593369964296
 20
-130.5150308918504
 10
104.5593369964296
 20
-130.2228867947012
 10
104.2292968489427
 20
-130.1849907443635
 10
104.0243136675703
 20
-130.1722438910681
 10
104.1045843923766
 20
-130.2631944118787
 10
104.1617729774318
 20
-130.3307182833896
 10
104.1617729774318
 20
-130.5126193250107
 10
104.1617729774318
 20
-130.6924533093408
 10
104.0560085460346
 20
-130.9952772024942
 10
103.6498317883237
 20
-130.9952772024942
 10
103.330471436841
 20
-130.9952772024942
 10
103.1103298353335
 20
-130.7961506834468
 10
103.1103298353335
 20
-130.4788573892553
 10
103.1103298353335
 20
-129.964849142856
 10
103.6646456989102
 20
-129.9541693468517
 10
103.8782416189957
 20
-129.9541693468517
 10
104.1087185069589
 20
-129.9541693468517
 10
104.7539848913462
 20
-129.9734618815691
 10
104.7539848913462
 20
-130.5170979491416
 97
        0
 97
        0
 92
        1
 93
        1
 72
     4
 94
        3
 73
     0
 74
     1
 95
       17
 96
       13
 40
0.0
 40
0.0
 40
0.0
 40
0.0
 40
1.0
 40
1.0
 40
1.0
 40
2.0
 40
2.0
 40
2.0
 40
3.0
 40
3.0
 40
3.0
 40
4.0
 40
4.0
 40
4.0
 40
4.0
 10
103.302910672959
 20
-130.4767903319641
 10
103.302910672959
 20
-130.5953016166567
 10
103.3600992580141
 20
-130.7710014864045
 10
103.6456976737414
 20
-130.7710014864045
 10
103.8720404471223
 20
-130.7710014864045
 10
103.9671250825152
 20
-130.6311306097033
 10
103.9671250825152
 20
-130.495738357133
 10
103.9671250825152
 20
-130.2335665907055
 10
103.757663277012
 20
-130.1953260308192
 10
103.6412190496105
 20
-130.1953260308192
 10
103.4658636894113
 20
-130.1953260308192
 10
103.302910672959
 20
-130.2907551757606
 10
103.302910672959
 20
-130.4767903319641
 97
        0
 97
        0
 75
     2
 76
     1
 98
        0
  0
POLYLINE
  5
66
330
5F
100
AcDbEntity
  8
_U+30EC_U+30A4_U+30E4_U+30FC 1
370
     0
100
AcDb2dPolyline
 66
     1
 10
0.0
 20
0.0
 30
0.0
  0
VERTEX
  5
67
330
66
100
AcDbEntity
  8
_U+30EC_U+30A4_U+30E4_U+30FC 1
370
     0
100
AcDbVertex
100
AcDb2dVertex
 10
104.7033419877131
 20
-129.737817350378
 30
0.0
  0
VERTEX
  5
68
330
66
100
AcDbEntity
  8
_U+30EC_U+30A4_U+30E4_U+30FC 1
370
     0
100
AcDbVertex
100
AcDb2dVertex
 10
104.4515055077413
 20
-129.737817350378
 30
0.0
  0
VERTEX
  5
69
330
66
100
AcDbEntity
  8
_U+30EC_U+30A4_U+30E4_U+30FC 1
370
     0
100
AcDbVertex
100
AcDb2dVertex
 10
104.4515055077413
 20
-129.4859808704063
 30
0.0
  0
VERTEX
  5
6A
330
66
100
AcDbEntity
  8
_U+30EC_U+30A4_U+30E4_U+30FC 1
370
     0
100
AcDbVertex
100
AcDb2dVertex
 10
104.7033419877131
 20
-129.4859808704063
 30
0.0
  0
VERTEX
  5
6B
330
66
100
AcDbEntity
  8
_U+30EC_U+30A4_U+30E4_U+30FC 1
370
     0
100
AcDbVertex
100
AcDb2dVertex
 10
104.7033419877131
 20
-129.737817350378
 30
0.0
  0
SEQEND
  5
6C
330
66
100
AcDbEntity
  8
_U+30EC_U+30A4_U+30E4_U+30FC 1
370
     0
  0
HATCH
  5
6D
330
5F
100
AcDbEntity
  8
_U+30EC_U+30A4_U+30E4_U+30FC 1
 62
     7
420
 16777215
100
AcDbHatch
 10
0.0
 20
0.0
 30
0.0
210
0.0
220
0.0
230
1.0
  2
SOLID
 70
     1
 71
     0
 91
        1
 92
        1
 93
        4
 72
     1
 10
104.7033419877131
 20
-129.737817350378
 11
104.4515055077413
 21
-129.737817350378
 72
     1
 10
104.4515055077413
 20
-129.737817350378
 11
104.4515055077413
 21
-129.4859808704063
 72
     1
 10
104.4515055077413
 20
-129.4859808704063
 11
104.7033419877131
 21
-129.4859808704063
 72
     1
 10
104.7033419877131
 20
-129.4859808704063
 11
104.7033419877131
 21
-129.737817350378
 97
        0
 75
     2
 76
     1
 98
        0
  0
SPLINE
  5
6E
330
5F
100
AcDbEntity
  8
_U+30EC_U+30A4_U+30E4_U+30FC 1
370
     0
100
AcDbSpline
210
0.0
220
0.0
230
1.0
 70
    11
 71
     3
 72
    53
 73
    49
 74
     0
 42
0.0000000001
 43
0.0000000001
 12
1.0
 22
0.0
 32
0.0
 13
1.0
 23
0.0
 33
0.0
 40
0.0
 40
0.0
 40
0.0
 40
0.0
 40
1.0
 40
1.0
 40
1.0
 40
2.0
 40
2.0
 40
2.0
 40
3.0
 40
3.0
 40
3.0
 40
4.0
 40
4.0
 40
4.0
 40
5.0
 40
5.0
 40
5.0
 40
6.0
 40
6.0
 40
6.0
 40
7.0
 40
7.0
 40
7.0
 40
8.0
 40
8.0
 40
8.0
 40
9.0
 40
9.0
 40
9.0
 40
10.0
 40
10.0
 40
10.0
 40
11.0
 40
11.0
 40
11.0
 40
12.0
 40
12.0
 40
12.0
 40
13.0
 40
13.0
 40
13.0
 40
14.0
 40
14.0
 40
14.0
 40
15.0
 40
15.0
 40
15.0
 40
16.0
 40
16.0
 40
16.0
 40
16.0
 10
104.7539848913462
 20
-128.7687119903773
 30
0.0
 10
104.7539848913462
 20
-128.8469156578925
 30
0.0
 10
104.7371039234685
 20
-128.9485459747073
 30
0.0
 10
104.6737141665399
 20
-129.0501762915222
 30
0.0
 10
104.5638156205604
 20
-129.2234645944303
 30
0.0
 10
104.4325574825724
 20
-129.2448241864388
 30
0.0
 10
104.3247259938841
 20
-129.2637722116077
 30
0.0
 10
104.3247259938841
 20
-129.2637722116077
 30
0.0
 10
104.3247259938841
 20
-129.0415635528091
 30
0.0
 10
104.3247259938841
 20
-129.0415635528091
 30
0.0
 10
104.523508003383
 20
-128.9867865345936
 30
0.0
 10
104.5531358245562
 20
-128.8596625111879
 30
0.0
 10
104.5531358245562
 20
-128.7666449330861
 30
0.0
 10
104.5531358245562
 20
-128.6269463111592
 30
0.0
 10
104.4535725650324
 20
-128.4746730907112
 30
0.0
 10
104.2210286197781
 20
-128.4746730907112
 30
0.0
 10
103.965058025224
 20
-128.4746730907112
 30
0.0
 10
103.8951225868734
 20
-128.6545070750412
 30
0.0
 10
103.8951225868734
 20
-128.7752576717992
 30
0.0
 10
103.8951225868734
 20
-128.8069525502635
 30
0.0
 10
103.8951225868734
 20
-128.9485459747073
 30
0.0
 10
104.0243136675703
 20
-129.0374294382268
 30
0.0
 10
104.0243136675703
 20
-129.0374294382268
 30
0.0
 10
104.0053656424014
 20
-129.2131293079745
 30
0.0
 10
104.0053656424014
 20
-129.2131293079745
 30
0.0
 10
104.0053656424014
 20
-129.2131293079745
 30
0.0
 10
103.1589056816756
 20
-129.0925509659908
 30
0.0
 10
103.1589056816756
 20
-129.0925509659908
 30
0.0
 10
103.1589056816756
 20
-129.0925509659908
 30
0.0
 10
103.1589056816756
 20
-128.31378713155
 30
0.0
 10
103.1589056816756
 20
-128.31378713155
 30
0.0
 10
103.1589056816756
 20
-128.31378713155
 30
0.0
 10
103.3535535765922
 20
-128.31378713155
 30
0.0
 10
103.3535535765922
 20
-128.31378713155
 30
0.0
 10
103.3535535765922
 20
-128.31378713155
 30
0.0
 10
103.3535535765922
 20
-128.9295979495384
 30
0.0
 10
103.3535535765922
 20
-128.9295979495384
 30
0.0
 10
103.3535535765922
 20
-128.9295979495384
 30
0.0
 10
103.7766113021809
 20
-128.9950547637582
 30
0.0
 10
103.7766113021809
 20
-128.9950547637582
 30
0.0
 10
103.7428493664254
 20
-128.9337320641207
 30
0.0
 10
103.702541749248
 20
-128.8513942820233
 30
0.0
 10
103.702541749248
 20
-128.7327107425564
 30
0.0
 10
103.702541749248
 20
-128.4788072052935
 30
0.0
 10
103.888921415
 20
-128.2417846359083
 30
0.0
 10
104.2020805946092
 20
-128.2417846359083
 30
0.0
 10
104.5193738888007
 20
-128.2417846359083
 30
0.0
 10
104.7539848913462
 20
-128.4660603519981
 30
0.0
 10
104.7539848913462
 20
-128.7687119903773
 30
0.0
  0
HATCH
  5
6F
330
5F
100
AcDbEntity
  8
_U+30EC_U+30A4_U+30E4_U+30FC 1
 62
     7
420
 16777215
100
AcDbHatch
 10
0.0
 20
0.0
 30
0.0
210
0.0
220
0.0
230
1.0
  2
SOLID
 70
     1
 71
     0
 91
        1
 92
        1
 93
        1
 72
     4
 94
        3
 73
     0
 74
     1
 95
       53
 96
       49
 40
0.0
 40
0.0
 40
0.0
 40
0.0
 40
1.0
 40
1.0
 40
1.0
 40
2.0
 40
2.0
 40
2.0
 40
3.0
 40
3.0
 40
3.0
 40
4.0
 40
4.0
 40
4.0
 40
5.0
 40
5.0
 40
5.0
 40
6.0
 40
6.0
 40
6.0
 40
7.0
 40
7.0
 40
7.0
 40
8.0
 40
8.0
 40
8.0
 40
9.0
 40
9.0
 40
9.0
 40
10.0
 40
10.0
 40
10.0
 40
11.0
 40
11.0
 40
11.0
 40
12.0
 40
12.0
 40
12.0
 40
13.0
 40
13.0
 40
13.0
 40
14.0
 40
14.0
 40
14.0
 40
15.0
 40
15.0
 40
15.0
 40
16.0
 40
16.0
 40
16.0
 40
16.0
 10
104.7539848913462
 20
-128.7687119903773
 10
104.7539848913462
 20
-128.8469156578925
 10
104.7371039234685
 20
-128.9485459747073
 10
104.6737141665399
 20
-129.0501762915222
 10
104.5638156205604
 20
-129.2234645944303
 10
104.4325574825724
 20
-129.2448241864388
 10
104.3247259938841
 20
-129.2637722116077
 10
104.3247259938841
 20
-129.2637722116077
 10
104.3247259938841
 20
-129.0415635528091
 10
104.3247259938841
 20
-129.0415635528091
 10
104.523508003383
 20
-128.9867865345936
 10
104.5531358245562
 20
-128.8596625111879
 10
104.5531358245562
 20
-128.7666449330861
 10
104.5531358245562
 20
-128.6269463111592
 10
104.4535725650324
 20
-128.4746730907112
 10
104.2210286197781
 20
-128.4746730907112
 10
103.965058025224
 20
-128.4746730907112
 10
103.8951225868734
 20
-128.6545070750412
 10
103.8951225868734
 20
-128.7752576717992
 10
103.8951225868734
 20
-128.8069525502635
 10
103.8951225868734
 20
-128.9485459747073
 10
104.0243136675703
 20
-129.0374294382268
 10
104.0243136675703
 20
-129.0374294382268
 10
104.0053656424014
 20
-129.2131293079745
 10
104.0053656424014
 20
-129.2131293079745
 10
104.0053656424014
 20
-129.2131293079745
 10
103.1589056816756
 20
-129.0925509659908
 10
103.1589056816756
 20
-129.0925509659908
 10
103.1589056816756
 20
-129.0925509659908
 10
103.1589056816756
 20
-128.31378713155
 10
103.1589056816756
 20
-128.31378713155
 10
103.1589056816756
 20
-128.31378713155
 10
103.3535535765922
 20
-128.31378713155
 10
103.3535535765922
 20
-128.31378713155
 10
103.3535535765922
 20
-128.31378713155
 10
103.3535535765922
 20
-128.9295979495384
 10
103.3535535765922
 20
-128.9295979495384
 10
103.3535535765922
 20
-128.9295979495384
 10
103.7766113021809
 20
-128.9950547637582
 10
103.7766113021809
 20
-128.9950547637582
 10
103.7428493664254
 20
-128.9337320641207
 10
103.702541749248
 20
-128.8513942820233
 10
103.702541749248
 20
-128.7327107425564
 10
103.702541749248
 20
-128.4788072052935
 10
103.888921415
 20
-128.2417846359083
 10
104.2020805946092
 20
-128.2417846359083
 10
104.5193738888007
 20
-128.2417846359083
 10
104.7539848913462
 20
-128.4660603519981
 10
104.7539848913462
 20
-128.7687119903773
 97
        0
 97
        0
 75
     2
 76
     1
 98
        0
  0
ENDBLK
  5
62
330
5F
100
AcDbEntity
  8
0
100
AcDbBlockEnd
  0
BLOCK
  5
72
330
70
100
AcDbEntity
  8
0
100
AcDbBlockBegin
  2
block 3
 70
     0
 10
0.0
 20
0.0
 30
0.0
  3
block 3
  1

  0
SPLINE
  5
74
330
70
100
AcDbEntity
  8
_U+30EC_U+30A4_U+30E4_U+30FC 1
370
     0
100
AcDbSpline
210
0.0
220
0.0
230
1.0
 70
    11
 71
     3
 72
    26
 73
    22
 74
     0
 42
0.0000000001
 43
0.0000000001
 12
1.0
 22
0.0
 32
0.0
 13
1.0
 23
0.0
 33
0.0
 40
0.0
 40
0.0
 40
0.0
 40
0.0
 40
1.0
 40
1.0
 40
1.0
 40
2.0
 40
2.0
 40
2.0
 40
3.0
 40
3.0
 40
3.0
 40
4.0
 40
4.0
 40
4.0
 40
5.0
 40
5.0
 40
5.0
 40
6.0
 40
6.0
 40
6.0
 40
7.0
 40
7.0
 40
7.0
 40
7.0
 10
104.7033419877131
 20
-121.0549709441286
 30
0.0
 10
104.7033419877131
 20
-121.0549709441286
 30
0.0
 10
103.5991888846905
 20
-121.0549709441286
 30
0.0
 10
103.5991888846905
 20
-121.0549709441286
 30
0.0
 10
103.5991888846905
 20
-121.0549709441286
 30
0.0
 10
103.5991888846905
 20
-121.3850110916156
 30
0.0
 10
103.5991888846905
 20
-121.3850110916156
 30
0.0
 10
103.5991888846905
 20
-121.3850110916156
 30
0.0
 10
103.4510497788247
 20
-121.3850110916156
 30
0.0
 10
103.4510497788247
 20
-121.3850110916156
 30
0.0
 10
103.4362358682382
 20
-121.0529038868375
 30
0.0
 10
103.2732828517859
 20
-121.0063950977866
 30
0.0
 10
103.1589056816756
 20
-120.9767672766135
 30
0.0
 10
103.1589056816756
 20
-120.9767672766135
 30
0.0
 10
103.1589056816756
 20
-120.8306952280389
 30
0.0
 10
103.1589056816756
 20
-120.8306952280389
 30
0.0
 10
103.1589056816756
 20
-120.8306952280389
 30
0.0
 10
104.7033419877131
 20
-120.8306952280389
 30
0.0
 10
104.7033419877131
 20
-120.8306952280389
 30
0.0
 10
104.7033419877131
 20
-120.8306952280389
 30
0.0
 10
104.7033419877131
 20
-121.0549709441286
 30
0.0
 10
104.7033419877131
 20
-121.0549709441286
 30
0.0
  0
HATCH
  5
75
330
70
100
AcDbEntity
  8
_U+30EC_U+30A4_U+30E4_U+30FC 1
 62
     7
420
 16777215
100
AcDbHatch
 10
0.0
 20
0.0
 30
0.0
210
0.0
220
0.0
230
1.0
  2
SOLID
 70
     1
 71
     0
 91
        1
 92
        1
 93
        1
 72
     4
 94
        3
 73
     0
 74
     1
 95
       26
 96
       22
 40
0.0
 40
0.0
 40
0.0
 40
0.0
 40
1.0
 40
1.0
 40
1.0
 40
2.0
 40
2.0
 40
2.0
 40
3.0
 40
3.0
 40
3.0
 40
4.0
 40
4.0
 40
4.0
 40
5.0
 40
5.0
 40
5.0
 40
6.0
 40
6.0
 40
6.0
 40
7.0
 40
7.0
 40
7.0
 40
7.0
 10
104.7033419877131
 20
-121.0549709441286
 10
104.7033419877131
 20
-121.0549709441286
 10
103.5991888846905
 20
-121.0549709441286
 10
103.5991888846905
 20
-121.0549709441286
 10
103.5991888846905
 20
-121.0549709441286
 10
103.5991888846905
 20
-121.3850110916156
 10
103.5991888846905
 20
-121.3850110916156
 10
103.5991888846905
 20
-121.3850110916156
 10
103.4510497788247
 20
-121.3850110916156
 10
103.4510497788247
 20
-121.3850110916156
 10
103.4362358682382
 20
-121.0529038868375
 10
103.2732828517859
 20
-121.0063950977866
 10
103.1589056816756
 20
-120.9767672766135
 10
103.1589056816756
 20
-120.9767672766135
 10
103.1589056816756
 20
-120.8306952280389
 10
103.1589056816756
 20
-120.8306952280389
 10
103.1589056816756
 20
-120.8306952280389
 10
104.7033419877131
 20
-120.8306952280389
 10
104.7033419877131
 20
-120.8306952280389
 10
104.7033419877131
 20
-120.8306952280389
 10
104.7033419877131
 20
-121.0549709441286
 10
104.7033419877131
 20
-121.0549709441286
 97
        0
 97
        0
 75
     2
 76
     1
 98
        0
  0
POLYLINE
  5
76
330
70
100
AcDbEntity
  8
_U+30EC_U+30A4_U+30E4_U+30FC 1
370
     0
100
AcDb2dPolyline
 66
     1
 10
0.0
 20
0.0
 30
0.0
  0
VERTEX
  5
77
330
76
100
AcDbEntity
  8
_U+30EC_U+30A4_U+30E4_U+30FC 1
370
     0
100
AcDbVertex
100
AcDb2dVertex
 10
104.7033419877131
 20
-120.2694891734917
 30
0.0
  0
VERTEX
  5
78
330
76
100
AcDbEntity
  8
_U+30EC_U+30A4_U+30E4_U+30FC 1
370
     0
100
AcDbVertex
100
AcDb2dVertex
 10
104.4515055077413
 20
-120.2694891734917
 30
0.0
  0
VERTEX
  5
79
330
76
100
AcDbEntity
  8
_U+30EC_U+30A4_U+30E4_U+30FC 1
370
     0
100
AcDbVertex
100
AcDb2dVertex
 10
104.4515055077413
 20
-120.0176526935199
 30
0.0
  0
VERTEX
  5
7A
330
76
100
AcDbEntity
  8
_U+30EC_U+30A4_U+30E4_U+30FC 1
370
     0
100
AcDbVertex
100
AcDb2dVertex
 10
104.7033419877131
 20
-120.0176526935199
 30
0.0
  0
VERTEX
  5
7B
330
76
100
AcDbEntity
  8
_U+30EC_U+30A4_U+30E4_U+30FC 1
370
     0
100
AcDbVertex
100
AcDb2dVertex
 10
104.7033419877131
 20
-120.2694891734917
 30
0.0
  0
SEQEND
  5
7C
330
76
100
AcDbEntity
  8
_U+30EC_U+30A4_U+30E4_U+30FC 1
370
     0
  0
HATCH
  5
7D
330
70
100
AcDbEntity
  8
_U+30EC_U+30A4_U+30E4_U+30FC 1
 62
     7
420
 16777215
100
AcDbHatch
 10
0.0
 20
0.0
 30
0.0
210
0.0
220
0.0
230
1.0
  2
SOLID
 70
     1
 71
     0
 91
        1
 92
        1
 93
        4
 72
     1
 10
104.7033419877131
 20
-120.2694891734917
 11
104.4515055077413
 21
-120.2694891734917
 72
     1
 10
104.4515055077413
 20
-120.2694891734917
 11
104.4515055077413
 21
-120.0176526935199
 72
     1
 10
104.4515055077413
 20
-120.0176526935199
 11
104.7033419877131
 21
-120.0176526935199
 72
     1
 10
104.7033419877131
 20
-120.0176526935199
 11
104.7033419877131
 21
-120.2694891734917
 97
        0
 75
     2
 76
     1
 98
        0
  0
SPLINE
  5
7E
330
70
100
AcDbEntity
  8
_U+30EC_U+30A4_U+30E4_U+30FC 1
370
     0
100
AcDbSpline
210
0.0
220
0.0
230
1.0
 70
    11
 71
     3
 72
    53
 73
    49
 74
     0
 42
0.0000000001
 43
0.0000000001
 12
1.0
 22
0.0
 32
0.0
 13
1.0
 23
0.0
 33
0.0
 40
0.0
 40
0.0
 40
0.0
 40
0.0
 40
1.0
 40
1.0
 40
1.0
 40
2.0
 40
2.0
 40
2.0
 40
3.0
 40
3.0
 40
3.0
 40
4.0
 40
4.0
 40
4.0
 40
5.0
 40
5.0
 40
5.0
 40
6.0
 40
6.0
 40
6.0
 40
7.0
 40
7.0
 40
7.0
 40
8.0
 40
8.0
 40
8.0
 40
9.0
 40
9.0
 40
9.0
 40
10.0
 40
10.0
 40
10.0
 40
11.0
 40
11.0
 40
11.0
 40
12.0
 40
12.0
 40
12.0
 40
13.0
 40
13.0
 40
13.0
 40
14.0
 40
14.0
 40
14.0
 40
15.0
 40
15.0
 40
15.0
 40
16.0
 40
16.0
 40
16.0
 40
16.0
 10
104.7539848913462
 20
-119.3003838134909
 30
0.0
 10
104.7539848913462
 20
-119.3785874810061
 30
0.0
 10
104.7371039234685
 20
-119.4802177978209
 30
0.0
 10
104.6737141665399
 20
-119.5818481146358
 30
0.0
 10
104.5638156205604
 20
-119.7551364175439
 30
0.0
 10
104.4325574825724
 20
-119.7764960095524
 30
0.0
 10
104.3247259938841
 20
-119.7954440347213
 30
0.0
 10
104.3247259938841
 20
-119.7954440347213
 30
0.0
 10
104.3247259938841
 20
-119.5732353759227
 30
0.0
 10
104.3247259938841
 20
-119.5732353759227
 30
0.0
 10
104.523508003383
 20
-119.5184583577072
 30
0.0
 10
104.5531358245562
 20
-119.3913343343015
 30
0.0
 10
104.5531358245562
 20
-119.2983167561997
 30
0.0
 10
104.5531358245562
 20
-119.1587903890471
 30
0.0
 10
104.4535725650324
 20
-119.0065171685991
 30
0.0
 10
104.2210286197781
 20
-119.0065171685991
 30
0.0
 10
103.965058025224
 20
-119.0065171685991
 30
0.0
 10
103.8951225868734
 20
-119.1863511529291
 30
0.0
 10
103.8951225868734
 20
-119.3069294949129
 30
0.0
 10
103.8951225868734
 20
-119.3386243733772
 30
0.0
 10
103.8951225868734
 20
-119.4802177978209
 30
0.0
 10
104.0243136675703
 20
-119.5691012613404
 30
0.0
 10
104.0243136675703
 20
-119.5691012613404
 30
0.0
 10
104.0053656424014
 20
-119.7448011310881
 30
0.0
 10
104.0053656424014
 20
-119.7448011310881
 30
0.0
 10
104.0053656424014
 20
-119.7448011310881
 30
0.0
 10
103.1589056816756
 20
-119.6242227891044
 30
0.0
 10
103.1589056816756
 20
-119.6242227891044
 30
0.0
 10
103.1589056816756
 20
-119.6242227891044
 30
0.0
 10
103.1589056816756
 20
-118.8456312094379
 30
0.0
 10
103.1589056816756
 20
-118.8456312094379
 30
0.0
 10
103.1589056816756
 20
-118.8456312094379
 30
0.0
 10
103.3535535765922
 20
-118.8456312094379
 30
0.0
 10
103.3535535765922
 20
-118.8456312094379
 30
0.0
 10
103.3535535765922
 20
-118.8456312094379
 30
0.0
 10
103.3535535765922
 20
-119.461269772652
 30
0.0
 10
103.3535535765922
 20
-119.461269772652
 30
0.0
 10
103.3535535765922
 20
-119.461269772652
 30
0.0
 10
103.7766113021809
 20
-119.5267265868718
 30
0.0
 10
103.7766113021809
 20
-119.5267265868718
 30
0.0
 10
103.7428493664254
 20
-119.4654038872343
 30
0.0
 10
103.702541749248
 20
-119.3830661051369
 30
0.0
 10
103.702541749248
 20
-119.2645548204443
 30
0.0
 10
103.702541749248
 20
-119.0106512831814
 30
0.0
 10
103.888921415
 20
-118.7736287137962
 30
0.0
 10
104.2020805946092
 20
-118.7736287137962
 30
0.0
 10
104.5193738888007
 20
-118.7736287137962
 30
0.0
 10
104.7539848913462
 20
-118.9979044298859
 30
0.0
 10
104.7539848913462
 20
-119.3003838134909
 30
0.0
  0
HATCH
  5
7F
330
70
100
AcDbEntity
  8
_U+30EC_U+30A4_U+30E4_U+30FC 1
 62
     7
420
 16777215
100
AcDbHatch
 10
0.0
 20
0.0
 30
0.0
210
0.0
220
0.0
230
1.0
  2
SOLID
 70
     1
 71
     0
 91
        1
 92
        1
 93
        1
 72
     4
 94
        3
 73
     0
 74
     1
 95
       53
 96
       49
 40
0.0
 40
0.0
 40
0.0
 40
0.0
 40
1.0
 40
1.0
 40
1.0
 40
2.0
 40
2.0
 40
2.0
 40
3.0
 40
3.0
 40
3.0
 40
4.0
 40
4.0
 40
4.0
 40
5.0
 40
5.0
 40
5.0
 40
6.0
 40
6.0
 40
6.0
 40
7.0
 40
7.0
 40
7.0
 40
8.0
 40
8.0
 40
8.0
 40
9.0
 40
9.0
 40
9.0
 40
10.0
 40
10.0
 40
10.0
 40
11.0
 40
11.0
 40
11.0
 40
12.0
 40
12.0
 40
12.0
 40
13.0
 40
13.0
 40
13.0
 40
14.0
 40
14.0
 40
14.0
 40
15.0
 40
15.0
 40
15.0
 40
16.0
 40
16.0
 40
16.0
 40
16.0
 10
104.7539848913462
 20
-119.3003838134909
 10
104.7539848913462
 20
-119.3785874810061
 10
104.7371039234685
 20
-119.4802177978209
 10
104.6737141665399
 20
-119.5818481146358
 10
104.5638156205604
 20
-119.7551364175439
 10
104.4325574825724
 20
-119.7764960095524
 10
104.3247259938841
 20
-119.7954440347213
 10
104.3247259938841
 20
-119.7954440347213
 10
104.3247259938841
 20
-119.5732353759227
 10
104.3247259938841
 20
-119.5732353759227
 10
104.523508003383
 20
-119.5184583577072
 10
104.5531358245562
 20
-119.3913343343015
 10
104.5531358245562
 20
-119.2983167561997
 10
104.5531358245562
 20
-119.1587903890471
 10
104.4535725650324
 20
-119.0065171685991
 10
104.2210286197781
 20
-119.0065171685991
 10
103.965058025224
 20
-119.0065171685991
 10
103.8951225868734
 20
-119.1863511529291
 10
103.8951225868734
 20
-119.3069294949129
 10
103.8951225868734
 20
-119.3386243733772
 10
103.8951225868734
 20
-119.4802177978209
 10
104.0243136675703
 20
-119.5691012613404
 10
104.0243136675703
 20
-119.5691012613404
 10
104.0053656424014
 20
-119.7448011310881
 10
104.0053656424014
 20
-119.7448011310881
 10
104.0053656424014
 20
-119.7448011310881
 10
103.1589056816756
 20
-119.6242227891044
 10
103.1589056816756
 20
-119.6242227891044
 10
103.1589056816756
 20
-119.6242227891044
 10
103.1589056816756
 20
-118.8456312094379
 10
103.1589056816756
 20
-118.8456312094379
 10
103.1589056816756
 20
-118.8456312094379
 10
103.3535535765922
 20
-118.8456312094379
 10
103.3535535765922
 20
-118.8456312094379
 10
103.3535535765922
 20
-118.8456312094379
 10
103.3535535765922
 20
-119.461269772652
 10
103.3535535765922
 20
-119.461269772652
 10
103.3535535765922
 20
-119.461269772652
 10
103.7766113021809
 20
-119.5267265868718
 10
103.7766113021809
 20
-119.5267265868718
 10
103.7428493664254
 20
-119.4654038872343
 10
103.702541749248
 20
-119.3830661051369
 10
103.702541749248
 20
-119.2645548204443
 10
103.702541749248
 20
-119.0106512831814
 10
103.888921415
 20
-118.7736287137962
 10
104.2020805946092
 20
-118.7736287137962
 10
104.5193738888007
 20
-118.7736287137962
 10
104.7539848913462
 20
-118.9979044298859
 10
104.7539848913462
 20
-119.3003838134909
 97
        0
 97
        0
 75
     2
 76
     1
 98
        0
  0
ENDBLK
  5
73
330
70
100
AcDbEntity
  8
0
100
AcDbBlockEnd
  0
BLOCK
  5
82
330
80
100
AcDbEntity
  8
0
100
AcDbBlockBegin
  2
block 4
 70
     0
 10
0.0
 20
0.0
 30
0.0
  3
block 4
  1

  0
SPLINE
  5
84
330
80
100
AcDbEntity
  8
_U+30EC_U+30A4_U+30E4_U+30FC 1
370
     0
100
AcDbSpline
210
0.0
220
0.0
230
1.0
 70
    11
 71
     3
 72
    26
 73
    22
 74
     0
 42
0.0000000001
 43
0.0000000001
 12
1.0
 22
0.0
 32
0.0
 13
1.0
 23
0.0
 33
0.0
 40
0.0
 40
0.0
 40
0.0
 40
0.0
 40
1.0
 40
1.0
 40
1.0
 40
2.0
 40
2.0
 40
2.0
 40
3.0
 40
3.0
 40
3.0
 40
4.0
 40
4.0
 40
4.0
 40
5.0
 40
5.0
 40
5.0
 40
6.0
 40
6.0
 40
6.0
 40
7.0
 40
7.0
 40
7.0
 40
7.0
 10
104.7033419877131
 20
-136.7261935422073
 30
0.0
 10
104.7033419877131
 20
-136.7261935422073
 30
0.0
 10
103.5991888846905
 20
-136.7261935422073
 30
0.0
 10
103.5991888846905
 20
-136.7261935422073
 30
0.0
 10
103.5991888846905
 20
-136.7261935422073
 30
0.0
 10
103.5991888846905
 20
-137.0562336896943
 30
0.0
 10
103.5991888846905
 20
-137.0562336896943
 30
0.0
 10
103.5991888846905
 20
-137.0562336896943
 30
0.0
 10
103.4510497788247
 20
-137.0562336896943
 30
0.0
 10
103.4510497788247
 20
-137.0562336896943
 30
0.0
 10
103.4362358682382
 20
-136.7241264849162
 30
0.0
 10
103.2732828517859
 20
-136.6776176958653
 30
0.0
 10
103.1589056816756
 20
-136.6479898746922
 30
0.0
 10
103.1589056816756
 20
-136.6479898746922
 30
0.0
 10
103.1589056816756
 20
-136.5019178261176
 30
0.0
 10
103.1589056816756
 20
-136.5019178261176
 30
0.0
 10
103.1589056816756
 20
-136.5019178261176
 30
0.0
 10
104.7033419877131
 20
-136.5019178261176
 30
0.0
 10
104.7033419877131
 20
-136.5019178261176
 30
0.0
 10
104.7033419877131
 20
-136.5019178261176
 30
0.0
 10
104.7033419877131
 20
-136.7261935422073
 30
0.0
 10
104.7033419877131
 20
-136.7261935422073
 30
0.0
  0
HATCH
  5
85
330
80
100
AcDbEntity
  8
_U+30EC_U+30A4_U+30E4_U+30FC 1
 62
     7
420
 16777215
100
AcDbHatch
 10
0.0
 20
0.0
 30
0.0
210
0.0
220
0.0
230
1.0
  2
SOLID
 70
     1
 71
     0
 91
        1
 92
        1
 93
        1
 72
     4
 94
        3
 73
     0
 74
     1
 95
       26
 96
       22
 40
0.0
 40
0.0
 40
0.0
 40
0.0
 40
1.0
 40
1.0
 40
1.0
 40
2.0
 40
2.0
 40
2.0
 40
3.0
 40
3.0
 40
3.0
 40
4.0
 40
4.0
 40
4.0
 40
5.0
 40
5.0
 40
5.0
 40
6.0
 40
6.0
 40
6.0
 40
7.0
 40
7.0
 40
7.0
 40
7.0
 10
104.7033419877131
 20
-136.7261935422073
 10
104.7033419877131
 20
-136.7261935422073
 10
103.5991888846905
 20
-136.7261935422073
 10
103.5991888846905
 20
-136.7261935422073
 10
103.5991888846905
 20
-136.7261935422073
 10
103.5991888846905
 20
-137.0562336896943
 10
103.5991888846905
 20
-137.0562336896943
 10
103.5991888846905
 20
-137.0562336896943
 10
103.4510497788247
 20
-137.0562336896943
 10
103.4510497788247
 20
-137.0562336896943
 10
103.4362358682382
 20
-136.7241264849162
 10
103.2732828517859
 20
-136.6776176958653
 10
103.1589056816756
 20
-136.6479898746922
 10
103.1589056816756
 20
-136.6479898746922
 10
103.1589056816756
 20
-136.5019178261176
 10
103.1589056816756
 20
-136.5019178261176
 10
103.1589056816756
 20
-136.5019178261176
 10
104.7033419877131
 20
-136.5019178261176
 10
104.7033419877131
 20
-136.5019178261176
 10
104.7033419877131
 20
-136.5019178261176
 10
104.7033419877131
 20
-136.7261935422073
 10
104.7033419877131
 20
-136.7261935422073
 97
        0
 97
        0
 75
     2
 76
     1
 98
        0
  0
ENDBLK
  5
83
330
80
100
AcDbEntity
  8
0
100
AcDbBlockEnd
  0
BLOCK
  5
97
330
95
100
AcDbEntity
  8
0
100
AcDbBlockBegin
  2
block 5
 70
     0
 10
0.0
 20
0.0
 30
0.0
  3
block 5
  1

  0
SPLINE
  5
99
330
95
100
AcDbEntity
  8
_U+30EC_U+30A4_U+30E4_U+30FC 1
370
     0
100
AcDbSpline
210
0.0
220
0.0
230
1.0
 70
    11
 71
     3
 72
    26
 73
    22
 74
     0
 42
0.0000000001
 43
0.0000000001
 12
1.0
 22
0.0
 32
0.0
 13
1.0
 23
0.0
 33
0.0
 40
0.0
 40
0.0
 40
0.0
 40
0.0
 40
1.0
 40
1.0
 40
1.0
 40
2.0
 40
2.0
 40
2.0
 40
3.0
 40
3.0
 40
3.0
 40
4.0
 40
4.0
 40
4.0
 40
5.0
 40
5.0
 40
5.0
 40
6.0
 40
6.0
 40
6.0
 40
7.0
 40
7.0
 40
7.0
 40
7.0
 10
85.3243353736342
 20
-119.8143920598902
 30
0.0
 10
85.3243353736342
 20
-119.8143920598902
 30
0.0
 10
85.3243353736342
 20
-118.7102389568676
 30
0.0
 10
85.3243353736342
 20
-118.7102389568676
 30
0.0
 10
85.3243353736342
 20
-118.7102389568676
 30
0.0
 10
84.99429522614726
 20
-118.7102389568676
 30
0.0
 10
84.99429522614726
 20
-118.7102389568676
 30
0.0
 10
84.99429522614726
 20
-118.7102389568676
 30
0.0
 10
84.99429522614726
 20
-118.5620998510018
 30
0.0
 10
84.99429522614726
 20
-118.5620998510018
 30
0.0
 10
85.32640243092534
 20
-118.5472859404153
 30
0.0
 10
85.37291121997622
 20
-118.3843329239629
 30
0.0
 10
85.40253904114937
 20
-118.2699557538527
 30
0.0
 10
85.40253904114937
 20
-118.2699557538527
 30
0.0
 10
85.54861108972396
 20
-118.2699557538527
 30
0.0
 10
85.54861108972396
 20
-118.2699557538527
 30
0.0
 10
85.54861108972396
 20
-118.2699557538527
 30
0.0
 10
85.54861108972396
 20
-119.8143920598902
 30
0.0
 10
85.54861108972396
 20
-119.8143920598902
 30
0.0
 10
85.54861108972396
 20
-119.8143920598902
 30
0.0
 10
85.3243353736342
 20
-119.8143920598902
 30
0.0
 10
85.3243353736342
 20
-119.8143920598902
 30
0.0
  0
HATCH
  5
9A
330
95
100
AcDbEntity
  8
_U+30EC_U+30A4_U+30E4_U+30FC 1
 62
     7
420
 16777215
100
AcDbHatch
 10
0.0
 20
0.0
 30
0.0
210
0.0
220
0.0
230
1.0
  2
SOLID
 70
     1
 71
     0
 91
        1
 92
        1
 93
        1
 72
     4
 94
        3
 73
     0
 74
     1
 95
       26
 96
       22
 40
0.0
 40
0.0
 40
0.0
 40
0.0
 40
1.0
 40
1.0
 40
1.0
 40
2.0
 40
2.0
 40
2.0
 40
3.0
 40
3.0
 40
3.0
 40
4.0
 40
4.0
 40
4.0
 40
5.0
 40
5.0
 40
5.0
 40
6.0
 40
6.0
 40
6.0
 40
7.0
 40
7.0
 40
7.0
 40
7.0
 10
85.3243353736342
 20
-119.8143920598902
 10
85.3243353736342
 20
-119.8143920598902
 10
85.3243353736342
 20
-118.7102389568676
 10
85.3243353736342
 20
-118.7102389568676
 10
85.3243353736342
 20
-118.7102389568676
 10
84.99429522614726
 20
-118.7102389568676
 10
84.99429522614726
 20
-118.7102389568676
 10
84.99429522614726
 20
-118.7102389568676
 10
84.99429522614726
 20
-118.5620998510018
 10
84.99429522614726
 20
-118.5620998510018
 10
85.32640243092534
 20
-118.5472859404153
 10
85.37291121997622
 20
-118.3843329239629
 10
85.40253904114937
 20
-118.2699557538527
 10
85.40253904114937
 20
-118.2699557538527
 10
85.54861108972396
 20
-118.2699557538527
 10
85.54861108972396
 20
-118.2699557538527
 10
85.54861108972396
 20
-118.2699557538527
 10
85.54861108972396
 20
-119.8143920598902
 10
85.54861108972396
 20
-119.8143920598902
 10
85.54861108972396
 20
-119.8143920598902
 10
85.3243353736342
 20
-119.8143920598902
 10
85.3243353736342
 20
-119.8143920598902
 97
        0
 97
        0
 75
     2
 76
     1
 98
        0
  0
SPLINE
  5
9B
330
95
100
AcDbEntity
  8
_U+30EC_U+30A4_U+30E4_U+30FC 1
370
     0
100
AcDbSpline
210
0.0
220
0.0
230
1.0
 70
    11
 71
     3
 72
    44
 73
    40
 74
     0
 42
0.0000000001
 43
0.0000000001
 12
1.0
 22
0.0
 32
0.0
 13
1.0
 23
0.0
 33
0.0
 40
0.0
 40
0.0
 40
0.0
 40
0.0
 40
1.0
 40
1.0
 40
1.0
 40
2.0
 40
2.0
 40
2.0
 40
3.0
 40
3.0
 40
3.0
 40
4.0
 40
4.0
 40
4.0
 40
5.0
 40
5.0
 40
5.0
 40
6.0
 40
6.0
 40
6.0
 40
7.0
 40
7.0
 40
7.0
 40
8.0
 40
8.0
 40
8.0
 40
9.0
 40
9.0
 40
9.0
 40
10.0
 40
10.0
 40
10.0
 40
11.0
 40
11.0
 40
11.0
 40
12.0
 40
12.0
 40
12.0
 40
13.0
 40
13.0
 40
13.0
 40
13.0
 10
86.64277341583932
 20
-119.2325154324315
 30
0.0
 10
86.42504338117152
 20
-119.3913343343015
 30
0.0
 10
86.33202580306977
 20
-119.4654038872343
 30
0.0
 10
86.28310544717922
 20
-119.6090643689693
 30
0.0
 10
86.28310544717922
 20
-119.6090643689693
 30
0.0
 10
87.06169702684569
 20
-119.6090643689693
 30
0.0
 10
87.06169702684569
 20
-119.6090643689693
 30
0.0
 10
87.06169702684569
 20
-119.6090643689693
 30
0.0
 10
87.06169702684569
 20
-119.8143920598902
 30
0.0
 10
87.06169702684569
 20
-119.8143920598902
 30
0.0
 10
87.06169702684569
 20
-119.8143920598902
 30
0.0
 10
86.03368053404714
 20
-119.8143920598902
 30
0.0
 10
86.03368053404714
 20
-119.8143920598902
 30
0.0
 10
86.06537541251144
 20
-119.4567911485212
 30
0.0
 10
86.13083222673119
 20
-119.3785874810061
 30
0.0
 10
86.51599390198211
 20
-119.0802422119834
 30
0.0
 10
86.77196449653619
 20
-118.8814602024845
 30
0.0
 10
86.83742131075593
 20
-118.8135918214251
 30
0.0
 10
86.83742131075593
 20
-118.6761325115636
 30
0.0
 10
86.83742131075593
 20
-118.557621226871
 30
0.0
 10
86.7654188151142
 20
-118.4267075984315
 30
0.0
 10
86.56870386290645
 20
-118.4267075984315
 30
0.0
 10
86.30859915377007
 20
-118.4267075984315
 30
0.0
 10
86.29998641505695
 20
-118.6571844863947
 30
0.0
 10
86.29585230047465
 20
-118.7736287137962
 30
0.0
 10
86.29585230047465
 20
-118.7736287137962
 30
0.0
 10
86.07157658438489
 20
-118.7736287137962
 30
0.0
 10
86.07157658438489
 20
-118.7736287137962
 30
0.0
 10
86.08018932309801
 20
-118.6465046903905
 30
0.0
 10
86.09086911910228
 20
-118.5345390871198
 30
0.0
 10
86.1711398439086
 20
-118.4160278024273
 30
0.0
 10
86.28103838988808
 20
-118.2551418432661
 30
0.0
 10
86.4674180556401
 20
-118.2213799075106
 30
0.0
 10
86.58351777349301
 20
-118.2213799075106
 30
0.0
 10
86.86084796005562
 20
-118.2213799075106
 30
0.0
 10
87.06824270826766
 20
-118.405348006423
 30
0.0
 10
87.06824270826766
 20
-118.6781995688548
 30
0.0
 10
87.06824270826766
 20
-118.9069539090754
 30
0.0
 10
86.95179848086622
 20
-119.0061726590505
 30
0.0
 10
86.64277341583932
 20
-119.2325154324315
 30
0.0
  0
HATCH
  5
9C
330
95
100
AcDbEntity
  8
_U+30EC_U+30A4_U+30E4_U+30FC 1
 62
     7
420
 16777215
100
AcDbHatch
 10
0.0
 20
0.0
 30
0.0
210
0.0
220
0.0
230
1.0
  2
SOLID
 70
     1
 71
     0
 91
        1
 92
        1
 93
        1
 72
     4
 94
        3
 73
     0
 74
     1
 95
       44
 96
       40
 40
0.0
 40
0.0
 40
0.0
 40
0.0
 40
1.0
 40
1.0
 40
1.0
 40
2.0
 40
2.0
 40
2.0
 40
3.0
 40
3.0
 40
3.0
 40
4.0
 40
4.0
 40
4.0
 40
5.0
 40
5.0
 40
5.0
 40
6.0
 40
6.0
 40
6.0
 40
7.0
 40
7.0
 40
7.0
 40
8.0
 40
8.0
 40
8.0
 40
9.0
 40
9.0
 40
9.0
 40
10.0
 40
10.0
 40
10.0
 40
11.0
 40
11.0
 40
11.0
 40
12.0
 40
12.0
 40
12.0
 40
13.0
 40
13.0
 40
13.0
 40
13.0
 10
86.64277341583932
 20
-119.2325154324315
 10
86.42504338117152
 20
-119.3913343343015
 10
86.33202580306977
 20
-119.4654038872343
 10
86.28310544717922
 20
-119.6090643689693
 10
86.28310544717922
 20
-119.6090643689693
 10
87.06169702684569
 20
-119.6090643689693
 10
87.06169702684569
 20
-119.6090643689693
 10
87.06169702684569
 20
-119.6090643689693
 10
87.06169702684569
 20
-119.8143920598902
 10
87.06169702684569
 20
-119.8143920598902
 10
87.06169702684569
 20
-119.8143920598902
 10
86.03368053404714
 20
-119.8143920598902
 10
86.03368053404714
 20
-119.8143920598902
 10
86.06537541251144
 20
-119.4567911485212
 10
86.13083222673119
 20
-119.3785874810061
 10
86.51599390198211
 20
-119.0802422119834
 10
86.77196449653619
 20
-118.8814602024845
 10
86.83742131075593
 20
-118.8135918214251
 10
86.83742131075593
 20
-118.6761325115636
 10
86.83742131075593
 20
-118.557621226871
 10
86.7654188151142
 20
-118.4267075984315
 10
86.56870386290645
 20
-118.4267075984315
 10
86.30859915377007
 20
-118.4267075984315
 10
86.29998641505695
 20
-118.6571844863947
 10
86.29585230047465
 20
-118.7736287137962
 10
86.29585230047465
 20
-118.7736287137962
 10
86.07157658438489
 20
-118.7736287137962
 10
86.07157658438489
 20
-118.7736287137962
 10
86.08018932309801
 20
-118.6465046903905
 10
86.09086911910228
 20
-118.5345390871198
 10
86.1711398439086
 20
-118.4160278024273
 10
86.28103838988808
 20
-118.2551418432661
 10
86.4674180556401
 20
-118.2213799075106
 10
86.58351777349301
 20
-118.2213799075106
 10
86.86084796005562
 20
-118.2213799075106
 10
87.06824270826766
 20
-118.405348006423
 10
87.06824270826766
 20
-118.6781995688548
 10
87.06824270826766
 20
-118.9069539090754
 10
86.95179848086622
 20
-119.0061726590505
 10
86.64277341583932
 20
-119.2325154324315
 97
        0
 97
        0
 75
     2
 76
     1
 98
        0
  0
ENDBLK
  5
98
330
95
100
AcDbEntity
  8
0
100
AcDbBlockEnd
  0
BLOCK
  5
AC
330
AA
100
AcDbEntity
  8
0
100
AcDbBlockBegin
  2
block 6
 70
     0
 10
0.0
 20
0.0
 30
0.0
  3
block 6
  1

  0
SPLINE
  5
AE
330
AA
100
AcDbEntity
  8
_U+30EC_U+30A4_U+30E4_U+30FC 1
370
     0
100
AcDbSpline
210
0.0
220
0.0
230
1.0
 70
    11
 71
     3
 72
    44
 73
    40
 74
     0
 42
0.0000000001
 43
0.0000000001
 12
1.0
 22
0.0
 32
0.0
 13
1.0
 23
0.0
 33
0.0
 40
0.0
 40
0.0
 40
0.0
 40
0.0
 40
1.0
 40
1.0
 40
1.0
 40
2.0
 40
2.0
 40
2.0
 40
3.0
 40
3.0
 40
3.0
 40
4.0
 40
4.0
 40
4.0
 40
5.0
 40
5.0
 40
5.0
 40
6.0
 40
6.0
 40
6.0
 40
7.0
 40
7.0
 40
7.0
 40
8.0
 40
8.0
 40
8.0
 40
9.0
 40
9.0
 40
9.0
 40
10.0
 40
10.0
 40
10.0
 40
11.0
 40
11.0
 40
11.0
 40
12.0
 40
12.0
 40
12.0
 40
13.0
 40
13.0
 40
13.0
 40
13.0
 10
85.46920163878896
 20
-137.010758429289
 30
0.0
 10
85.25147160412116
 20
-137.169577331159
 30
0.0
 10
85.15845402601941
 20
-137.2436468840919
 30
0.0
 10
85.10953367012887
 20
-137.3873073658268
 30
0.0
 10
85.10953367012887
 20
-137.3873073658268
 30
0.0
 10
85.88812524979534
 20
-137.3873073658268
 30
0.0
 10
85.88812524979534
 20
-137.3873073658268
 30
0.0
 10
85.88812524979534
 20
-137.3873073658268
 30
0.0
 10
85.88812524979534
 20
-137.5926350567477
 30
0.0
 10
85.88812524979534
 20
-137.5926350567477
 30
0.0
 10
85.88812524979534
 20
-137.5926350567477
 30
0.0
 10
84.86010875699678
 20
-137.5926350567477
 30
0.0
 10
84.86010875699678
 20
-137.5926350567477
 30
0.0
 10
84.89180363546109
 20
-137.2350341453787
 30
0.0
 10
84.95726044968083
 20
-137.1568304778636
 30
0.0
 10
85.34242212493176
 20
-136.8584852088409
 30
0.0
 10
85.59839271948582
 20
-136.659703199342
 30
0.0
 10
85.66384953370557
 20
-136.5918348182826
 30
0.0
 10
85.66384953370557
 20
-136.4543755084211
 30
0.0
 10
85.66384953370557
 20
-136.3358642237285
 30
0.0
 10
85.59184703806385
 20
-136.204950595289
 30
0.0
 10
85.39513208585608
 20
-136.204950595289
 30
0.0
 10
85.13502737671972
 20
-136.204950595289
 30
0.0
 10
85.1264146380066
 20
-136.4354274832523
 30
0.0
 10
85.1222805234243
 20
-136.5518717106537
 30
0.0
 10
85.1222805234243
 20
-136.5518717106537
 30
0.0
 10
84.89800480733453
 20
-136.5518717106537
 30
0.0
 10
84.89800480733453
 20
-136.5518717106537
 30
0.0
 10
84.90661754604766
 20
-136.424747687248
 30
0.0
 10
84.91729734205192
 20
-136.3127820839774
 30
0.0
 10
84.99756806685825
 20
-136.1942707992848
 30
0.0
 10
85.10746661283773
 20
-136.0333848401236
 30
0.0
 10
85.29384627858974
 20
-135.9996229043682
 30
0.0
 10
85.40994599644266
 20
-135.9996229043682
 30
0.0
 10
85.68727618300527
 20
-135.9996229043682
 30
0.0
 10
85.8946709312173
 20
-136.1835910032805
 30
0.0
 10
85.8946709312173
 20
-136.4564425657123
 30
0.0
 10
85.8946709312173
 20
-136.6851969059329
 30
0.0
 10
85.77822670381586
 20
-136.7844156559081
 30
0.0
 10
85.46920163878896
 20
-137.010758429289
 30
0.0
  0
HATCH
  5
AF
330
AA
100
AcDbEntity
  8
_U+30EC_U+30A4_U+30E4_U+30FC 1
 62
     7
420
 16777215
100
AcDbHatch
 10
0.0
 20
0.0
 30
0.0
210
0.0
220
0.0
230
1.0
  2
SOLID
 70
     1
 71
     0
 91
        1
 92
        1
 93
        1
 72
     4
 94
        3
 73
     0
 74
     1
 95
       44
 96
       40
 40
0.0
 40
0.0
 40
0.0
 40
0.0
 40
1.0
 40
1.0
 40
1.0
 40
2.0
 40
2.0
 40
2.0
 40
3.0
 40
3.0
 40
3.0
 40
4.0
 40
4.0
 40
4.0
 40
5.0
 40
5.0
 40
5.0
 40
6.0
 40
6.0
 40
6.0
 40
7.0
 40
7.0
 40
7.0
 40
8.0
 40
8.0
 40
8.0
 40
9.0
 40
9.0
 40
9.0
 40
10.0
 40
10.0
 40
10.0
 40
11.0
 40
11.0
 40
11.0
 40
12.0
 40
12.0
 40
12.0
 40
13.0
 40
13.0
 40
13.0
 40
13.0
 10
85.46920163878896
 20
-137.010758429289
 10
85.25147160412116
 20
-137.169577331159
 10
85.15845402601941
 20
-137.2436468840919
 10
85.10953367012887
 20
-137.3873073658268
 10
85.10953367012887
 20
-137.3873073658268
 10
85.88812524979534
 20
-137.3873073658268
 10
85.88812524979534
 20
-137.3873073658268
 10
85.88812524979534
 20
-137.3873073658268
 10
85.88812524979534
 20
-137.5926350567477
 10
85.88812524979534
 20
-137.5926350567477
 10
85.88812524979534
 20
-137.5926350567477
 10
84.86010875699678
 20
-137.5926350567477
 10
84.86010875699678
 20
-137.5926350567477
 10
84.89180363546109
 20
-137.2350341453787
 10
84.95726044968083
 20
-137.1568304778636
 10
85.34242212493176
 20
-136.8584852088409
 10
85.59839271948582
 20
-136.659703199342
 10
85.66384953370557
 20
-136.5918348182826
 10
85.66384953370557
 20
-136.4543755084211
 10
85.66384953370557
 20
-136.3358642237285
 10
85.59184703806385
 20
-136.204950595289
 10
85.39513208585608
 20
-136.204950595289
 10
85.13502737671972
 20
-136.204950595289
 10
85.1264146380066
 20
-136.4354274832523
 10
85.1222805234243
 20
-136.5518717106537
 10
85.1222805234243
 20
-136.5518717106537
 10
84.89800480733453
 20
-136.5518717106537
 10
84.89800480733453
 20
-136.5518717106537
 10
84.90661754604766
 20
-136.424747687248
 10
84.91729734205192
 20
-136.3127820839774
 10
84.99756806685825
 20
-136.1942707992848
 10
85.10746661283773
 20
-136.0333848401236
 10
85.29384627858974
 20
-135.9996229043682
 10
85.40994599644266
 20
-135.9996229043682
 10
85.68727618300527
 20
-135.9996229043682
 10
85.8946709312173
 20
-136.1835910032805
 10
85.8946709312173
 20
-136.4564425657123
 10
85.8946709312173
 20
-136.6851969059329
 10
85.77822670381586
 20
-136.7844156559081
 10
85.46920163878896
 20
-137.010758429289
 97
        0
 97
        0
 75
     2
 76
     1
 98
        0
  0
SPLINE
  5
B0
330
AA
100
AcDbEntity
  8
_U+30EC_U+30A4_U+30E4_U+30FC 1
370
     0
100
AcDbSpline
210
0.0
220
0.0
230
1.0
 70
    11
 71
     3
 72
    44
 73
    40
 74
     0
 42
0.0000000001
 43
0.0000000001
 12
1.0
 22
0.0
 32
0.0
 13
1.0
 23
0.0
 33
0.0
 40
0.0
 40
0.0
 40
0.0
 40
0.0
 40
1.0
 40
1.0
 40
1.0
 40
2.0
 40
2.0
 40
2.0
 40
3.0
 40
3.0
 40
3.0
 40
4.0
 40
4.0
 40
4.0
 40
5.0
 40
5.0
 40
5.0
 40
6.0
 40
6.0
 40
6.0
 40
7.0
 40
7.0
 40
7.0
 40
8.0
 40
8.0
 40
8.0
 40
9.0
 40
9.0
 40
9.0
 40
10.0
 40
10.0
 40
10.0
 40
11.0
 40
11.0
 40
11.0
 40
12.0
 40
12.0
 40
12.0
 40
13.0
 40
13.0
 40
13.0
 40
13.0
 10
86.64604625655029
 20
-137.010758429289
 30
0.0
 10
86.42831622188251
 20
-137.169577331159
 30
0.0
 10
86.33529864378076
 20
-137.2436468840919
 30
0.0
 10
86.28637828789022
 20
-137.3873073658268
 30
0.0
 10
86.28637828789022
 20
-137.3873073658268
 30
0.0
 10
87.06496986755668
 20
-137.3873073658268
 30
0.0
 10
87.06496986755668
 20
-137.3873073658268
 30
0.0
 10
87.06496986755668
 20
-137.3873073658268
 30
0.0
 10
87.06496986755668
 20
-137.5926350567477
 30
0.0
 10
87.06496986755668
 20
-137.5926350567477
 30
0.0
 10
87.06496986755668
 20
-137.5926350567477
 30
0.0
 10
86.03695337475813
 20
-137.5926350567477
 30
0.0
 10
86.03695337475813
 20
-137.5926350567477
 30
0.0
 10
86.06864825322242
 20
-137.2350341453787
 30
0.0
 10
86.13410506744218
 20
-137.1568304778636
 30
0.0
 10
86.5192667426931
 20
-136.8584852088409
 30
0.0
 10
86.77523733724716
 20
-136.659703199342
 30
0.0
 10
86.84069415146692
 20
-136.5918348182826
 30
0.0
 10
86.84069415146692
 20
-136.4543755084211
 30
0.0
 10
86.84069415146692
 20
-136.3358642237285
 30
0.0
 10
86.7686916558252
 20
-136.204950595289
 30
0.0
 10
86.57197670361742
 20
-136.204950595289
 30
0.0
 10
86.31187199448107
 20
-136.204950595289
 30
0.0
 10
86.30325925576794
 20
-136.4354274832523
 30
0.0
 10
86.29912514118564
 20
-136.5518717106537
 30
0.0
 10
86.29912514118564
 20
-136.5518717106537
 30
0.0
 10
86.07484942509588
 20
-136.5518717106537
 30
0.0
 10
86.07484942509588
 20
-136.5518717106537
 30
0.0
 10
86.083462163809
 20
-136.424747687248
 30
0.0
 10
86.09414195981327
 20
-136.3127820839774
 30
0.0
 10
86.1744126846196
 20
-136.1942707992848
 30
0.0
 10
86.28431123059906
 20
-136.0333848401236
 30
0.0
 10
86.47069089635109
 20
-135.9996229043682
 30
0.0
 10
86.586790614204
 20
-135.9996229043682
 30
0.0
 10
86.86412080076661
 20
-135.9996229043682
 30
0.0
 10
87.07151554897865
 20
-136.1835910032805
 30
0.0
 10
87.07151554897865
 20
-136.4564425657123
 30
0.0
 10
87.07151554897865
 20
-136.6851969059329
 30
0.0
 10
86.95507132157721
 20
-136.7844156559081
 30
0.0
 10
86.64604625655029
 20
-137.010758429289
 30
0.0
  0
HATCH
  5
B1
330
AA
100
AcDbEntity
  8
_U+30EC_U+30A4_U+30E4_U+30FC 1
 62
     7
420
 16777215
100
AcDbHatch
 10
0.0
 20
0.0
 30
0.0
210
0.0
220
0.0
230
1.0
  2
SOLID
 70
     1
 71
     0
 91
        1
 92
        1
 93
        1
 72
     4
 94
        3
 73
     0
 74
     1
 95
       44
 96
       40
 40
0.0
 40
0.0
 40
0.0
 40
0.0
 40
1.0
 40
1.0
 40
1.0
 40
2.0
 40
2.0
 40
2.0
 40
3.0
 40
3.0
 40
3.0
 40
4.0
 40
4.0
 40
4.0
 40
5.0
 40
5.0
 40
5.0
 40
6.0
 40
6.0
 40
6.0
 40
7.0
 40
7.0
 40
7.0
 40
8.0
 40
8.0
 40
8.0
 40
9.0
 40
9.0
 40
9.0
 40
10.0
 40
10.0
 40
10.0
 40
11.0
 40
11.0
 40
11.0
 40
12.0
 40
12.0
 40
12.0
 40
13.0
 40
13.0
 40
13.0
 40
13.0
 10
86.64604625655029
 20
-137.010758429289
 10
86.42831622188251
 20
-137.169577331159
 10
86.33529864378076
 20
-137.2436468840919
 10
86.28637828789022
 20
-137.3873073658268
 10
86.28637828789022
 20
-137.3873073658268
 10
87.06496986755668
 20
-137.3873073658268
 10
87.06496986755668
 20
-137.3873073658268
 10
87.06496986755668
 20
-137.3873073658268
 10
87.06496986755668
 20
-137.5926350567477
 10
87.06496986755668
 20
-137.5926350567477
 10
87.06496986755668
 20
-137.5926350567477
 10
86.03695337475813
 20
-137.5926350567477
 10
86.03695337475813
 20
-137.5926350567477
 10
86.06864825322242
 20
-137.2350341453787
 10
86.13410506744218
 20
-137.1568304778636
 10
86.5192667426931
 20
-136.8584852088409
 10
86.77523733724716
 20
-136.659703199342
 10
86.84069415146692
 20
-136.5918348182826
 10
86.84069415146692
 20
-136.4543755084211
 10
86.84069415146692
 20
-136.3358642237285
 10
86.7686916558252
 20
-136.204950595289
 10
86.57197670361742
 20
-136.204950595289
 10
86.31187199448107
 20
-136.204950595289
 10
86.30325925576794
 20
-136.4354274832523
 10
86.29912514118564
 20
-136.5518717106537
 10
86.29912514118564
 20
-136.5518717106537
 10
86.07484942509588
 20
-136.5518717106537
 10
86.07484942509588
 20
-136.5518717106537
 10
86.083462163809
 20
-136.424747687248
 10
86.09414195981327
 20
-136.3127820839774
 10
86.1744126846196
 20
-136.1942707992848
 10
86.28431123059906
 20
-136.0333848401236
 10
86.47069089635109
 20
-135.9996229043682
 10
86.586790614204
 20
-135.9996229043682
 10
86.86412080076661
 20
-135.9996229043682
 10
87.07151554897865
 20
-136.1835910032805
 10
87.07151554897865
 20
-136.4564425657123
 10
87.07151554897865
 20
-136.6851969059329
 10
86.95507132157721
 20
-136.7844156559081
 10
86.64604625655029
 20
-137.010758429289
 97
        0
 97
        0
 75
     2
 76
     1
 98
        0
  0
ENDBLK
  5
AD
330
AA
100
AcDbEntity
  8
0
100
AcDbBlockEnd
  0
ENDSEC
  0
SECTION
  2
ENTITIES
  0
SPLINE
  5
41
330
1F
100
AcDbEntity
  8
_U+30EC_U+30A4_U+30E4_U+30FC 1
 62
     7
420
 16777215
370
    25
100
AcDbSpline
210
0.0
220
0.0
230
1.0
 70
    11
 71
     3
 72
    89
 73
    85
 74
     0
 42
0.0000000001
 43
0.0000000001
 12
1.0
 22
0.0
 32
0.0
 13
1.0
 23
0.0
 33
0.0
 40
0.0
 40
0.0
 40
0.0
 40
0.0
 40
1.0
 40
1.0
 40
1.0
 40
2.0
 40
2.0
 40
2.0
 40
3.0
 40
3.0
 40
3.0
 40
4.0
 40
4.0
 40
4.0
 40
5.0
 40
5.0
 40
5.0
 40
6.0
 40
6.0
 40
6.0
 40
7.0
 40
7.0
 40
7.0
 40
8.0
 40
8.0
 40
8.0
 40
9.0
 40
9.0
 40
9.0
 40
10.0
 40
10.0
 40
10.0
 40
11.0
 40
11.0
 40
11.0
 40
12.0
 40
12.0
 40
12.0
 40
13.0
 40
13.0
 40
13.0
 40
14.0
 40
14.0
 40
14.0
 40
15.0
 40
15.0
 40
15.0
 40
16.0
 40
16.0
 40
16.0
 40
17.0
 40
17.0
 40
17.0
 40
18.0
 40
18.0
 40
18.0
 40
19.0
 40
19.0
 40
19.0
 40
20.0
 40
20.0
 40
20.0
 40
21.0
 40
21.0
 40
21.0
 40
22.0
 40
22.0
 40
22.0
 40
23.0
 40
23.0
 40
23.0
 40
24.0
 40
24.0
 40
24.0
 40
25.0
 40
25.0
 40
25.0
 40
26.0
 40
26.0
 40
26.0
 40
27.0
 40
27.0
 40
27.0
 40
28.0
 40
28.0
 40
28.0
 40
28.0
 10
83.99486980155679
 20
-128.6583024678355
 30
0.0
 10
83.99486980155679
 20
-128.6583024678355
 30
0.0
 10
83.73201508604055
 20
-128.3661671901306
 30
0.0
 10
83.73201508604055
 20
-128.3661671901306
 30
0.0
 10
83.48983314777468
 20
-128.1160477457487
 30
0.0
 10
83.51463342491975
 20
-128.0860616346451
 30
0.0
 10
83.69892453132921
 20
-127.9362016346826
 30
0.0
 10
83.83382675010978
 20
-127.8266641347102
 30
0.0
 10
84.1516110900732
 20
-127.6402563569789
 30
0.0
 10
84.29010951624682
 20
-127.7322608014004
 30
0.0
 10
84.29010951624682
 20
-127.7322608014004
 30
0.0
 10
85.37807615515715
 20
-128.8134894122413
 30
0.0
 10
85.37807615515715
 20
-128.8134894122413
 30
0.0
 10
84.82065200271155
 20
-129.0891146899497
 30
0.0
 10
84.36384006992135
 20
-129.6630488564733
 30
0.0
 10
84.36384006992135
 20
-130.3272588563071
 30
0.0
 10
84.36384006992135
 20
-130.7014149673249
 30
0.0
 10
84.48544256681902
 20
-131.0466080227939
 30
0.0
 10
84.69146478378516
 20
-131.3270310782796
 30
0.0
 10
84.69146478378516
 20
-131.3270310782796
 30
0.0
 10
82.85747899724072
 20
-133.814396633213
 30
0.0
 10
82.85747899724072
 20
-133.814396633213
 30
0.0
 10
83.6365886995862
 20
-133.814396633213
 30
0.0
 10
84.74452256020933
 20
-133.8137263554356
 30
0.0
 10
86.0390053049621
 20
-133.8137263554356
 30
0.0
 10
87.33352332749175
 20
-133.8137263554356
 30
0.0
 10
88.4414571881149
 20
-133.814396633213
 30
0.0
 10
89.22039050157598
 20
-133.814396633213
 30
0.0
 10
89.22039050157598
 20
-133.814396633213
 30
0.0
 10
87.3865833114867
 20
-131.3270310782796
 30
0.0
 10
87.3865833114867
 20
-131.3270310782796
 30
0.0
 10
87.59256804310519
 20
-131.0466080227939
 30
0.0
 10
87.71420581777973
 20
-130.7014149673249
 30
0.0
 10
87.71420581777973
 20
-130.3272588563071
 30
0.0
 10
87.71420581777973
 20
-129.6630488564733
 30
0.0
 10
87.22723138575904
 20
-129.0884091343949
 30
0.0
 10
86.66963084442907
 20
-128.8134894122413
 30
0.0
 10
86.66963084442907
 20
-128.8134894122413
 30
0.0
 10
87.75724470557061
 20
-127.7308849680672
 30
0.0
 10
87.75724470557061
 20
-127.7308849680672
 30
0.0
 10
87.89574525759272
 20
-127.6392333014235
 30
0.0
 10
88.21338636060014
 20
-127.825288301377
 30
0.0
 10
88.34842969048822
 20
-127.9351785791272
 30
0.0
 10
88.53275831120008
 20
-128.08503857909
 30
0.0
 10
88.55755635181963
 20
-128.1153421901935
 30
0.0
 10
88.31537441355376
 20
-128.3651088567976
 30
0.0
 10
88.31537441355376
 20
-128.3651088567976
 30
0.0
 10
88.05251969803751
 20
-128.6572794122801
 30
0.0
 10
88.05251969803751
 20
-128.6572794122801
 30
0.0
 10
88.42699329959501
 20
-129.1111633010553
 30
0.0
 10
88.65160690497575
 20
-129.6926821897989
 30
0.0
 10
88.65160690497575
 20
-130.3272588563071
 30
0.0
 10
88.65160690497575
 20
-130.6917488562159
 30
0.0
 10
88.57720831118905
 20
-131.0390233005733
 30
0.0
 10
88.44283302141312
 20
-131.3546183004949
 30
0.0
 10
88.44283302141312
 20
-131.3546183004949
 30
0.0
 10
90.40893408236482
 20
-133.8081877443259
 30
0.0
 10
90.40893408236482
 20
-133.8081877443259
 30
0.0
 10
90.40893408236482
 20
-133.8081877443259
 30
0.0
 10
97.05420891282974
 20
-133.8095635776588
 30
0.0
 10
97.05420891282974
 20
-133.8095635776588
 30
0.0
 10
97.05420891282974
 20
-133.8095635776588
 30
0.0
 10
97.05420891282974
 20
-134.7590296885324
 30
0.0
 10
97.05420891282974
 20
-134.7590296885324
 30
0.0
 10
97.05420891282974
 20
-134.7590296885324
 30
0.0
 10
86.0390053049621
 20
-134.7590296885324
 30
0.0
 10
86.0390053049621
 20
-134.7590296885324
 30
0.0
 10
86.0390053049621
 20
-134.7590296885324
 30
0.0
 10
75.04969558532275
 20
-134.7590296885324
 30
0.0
 10
75.04969558532275
 20
-134.7590296885324
 30
0.0
 10
75.04969558532275
 20
-134.7590296885324
 30
0.0
 10
75.04969558532275
 20
-133.8095635776588
 30
0.0
 10
75.04969558532275
 20
-133.8095635776588
 30
0.0
 10
75.04969558532275
 20
-133.8095635776588
 30
0.0
 10
81.66907652755938
 20
-133.8081877443259
 30
0.0
 10
81.66907652755938
 20
-133.8081877443259
 30
0.0
 10
81.66907652755938
 20
-133.8081877443259
 30
0.0
 10
83.63503647740357
 20
-131.3546183004949
 30
0.0
 10
83.63503647740357
 20
-131.3546183004949
 30
0.0
 10
83.50066342527616
 20
-131.0390233005733
 30
0.0
 10
83.42643898272533
 20
-130.6917488562159
 30
0.0
 10
83.42643898272533
 20
-130.3272588563071
 30
0.0
 10
83.42643898272533
 20
-129.6926821897989
 30
0.0
 10
83.62039619999929
 20
-129.1125391343888
 30
0.0
 10
83.99486980155679
 20
-128.6583024678355
 30
0.0
  0
SPLINE
  5
42
330
1F
100
AcDbEntity
  8
_U+30EC_U+30A4_U+30E4_U+30FC 1
 62
     7
420
 16777215
370
    25
100
AcDbSpline
210
0.0
220
0.0
230
1.0
 70
    11
 71
     3
 72
    50
 73
    46
 74
     0
 42
0.0000000001
 43
0.0000000001
 12
1.0
 22
0.0
 32
0.0
 13
1.0
 23
0.0
 33
0.0
 40
0.0
 40
0.0
 40
0.0
 40
0.0
 40
1.0
 40
1.0
 40
1.0
 40
2.0
 40
2.0
 40
2.0
 40
3.0
 40
3.0
 40
3.0
 40
4.0
 40
4.0
 40
4.0
 40
5.0
 40
5.0
 40
5.0
 40
6.0
 40
6.0
 40
6.0
 40
7.0
 40
7.0
 40
7.0
 40
8.0
 40
8.0
 40
8.0
 40
9.0
 40
9.0
 40
9.0
 40
10.0
 40
10.0
 40
10.0
 40
11.0
 40
11.0
 40
11.0
 40
12.0
 40
12.0
 40
12.0
 40
13.0
 40
13.0
 40
13.0
 40
14.0
 40
14.0
 40
14.0
 40
15.0
 40
15.0
 40
15.0
 40
15.0
 10
86.56785445813671
 20
-128.9616208010928
 30
0.0
 10
86.56785445813671
 20
-128.9616208010928
 30
0.0
 10
86.57162918026263
 20
-123.7317960801783
 30
0.0
 10
86.57162918026263
 20
-123.7317960801783
 30
0.0
 10
86.57162918026263
 20
-123.7317960801783
 30
0.0
 10
90.49095491360563
 20
-123.7317960801783
 30
0.0
 10
90.49095491360563
 20
-123.7317960801783
 30
0.0
 10
90.49095491360563
 20
-123.7317960801783
 30
0.0
 10
90.82097851629713
 20
-124.2292833022759
 30
0.0
 10
90.82097851629713
 20
-124.2292833022759
 30
0.0
 10
90.82097851629713
 20
-124.2292833022759
 30
0.0
 10
92.06257987351013
 20
-124.2292833022759
 30
0.0
 10
92.06257987351013
 20
-124.2292833022759
 30
0.0
 10
92.06257987351013
 20
-124.2292833022759
 30
0.0
 10
91.05903295466831
 20
-122.7341052470942
 30
0.0
 10
91.05903295466831
 20
-122.7341052470942
 30
0.0
 10
91.05903295466831
 20
-122.7341052470942
 30
0.0
 10
81.23706487191426
 20
-122.7341052470942
 30
0.0
 10
81.23706487191426
 20
-122.7341052470942
 30
0.0
 10
81.23706487191426
 20
-122.7341052470942
 30
0.0
 10
80.02301545844279
 20
-124.2292833022759
 30
0.0
 10
80.02301545844279
 20
-124.2292833022759
 30
0.0
 10
80.02301545844279
 20
-124.2292833022759
 30
0.0
 10
81.34109903592679
 20
-124.2292833022759
 30
0.0
 10
81.34109903592679
 20
-124.2292833022759
 30
0.0
 10
81.34109903592679
 20
-124.2292833022759
 30
0.0
 10
81.73970263686867
 20
-123.7317960801783
 30
0.0
 10
81.73970263686867
 20
-123.7317960801783
 30
0.0
 10
81.73970263686867
 20
-123.7317960801783
 30
0.0
 10
85.54980837299811
 20
-123.7317960801783
 30
0.0
 10
85.54980837299811
 20
-123.7317960801783
 30
0.0
 10
85.54980837299811
 20
-123.7317960801783
 30
0.0
 10
85.54980837299811
 20
-128.9320227455448
 30
0.0
 10
85.54980837299811
 20
-128.9320227455448
 30
0.0
 10
84.99824033151422
 20
-129.1531791343781
 30
0.0
 10
84.5440036764361
 20
-129.6906360786886
 30
0.0
 10
84.5440036764361
 20
-130.3210852451975
 30
0.0
 10
84.5440036764361
 20
-131.1492663561013
 30
0.0
 10
85.21565727041191
 20
-131.8210610781556
 30
0.0
 10
86.04401474927874
 20
-131.8210610781556
 30
0.0
 10
86.8723722281456
 20
-131.8210610781556
 30
0.0
 10
87.54402582212138
 20
-131.1492663561013
 30
0.0
 10
87.54402582212138
 20
-130.3210852451975
 30
0.0
 10
87.54402582212138
 20
-129.7098977453503
 30
0.0
 10
87.09236664489364
 20
-129.1952302454791
 30
0.0
 10
86.56785445813671
 20
-128.9616208010928
 30
0.0
  0
SPLINE
  5
43
330
1F
100
AcDbEntity
  8
_U+30EC_U+30A4_U+30E4_U+30FC 1
 62
     7
420
 16777215
370
     9
100
AcDbSpline
210
0.0
220
0.0
230
1.0
 70
    11
 71
     3
 72
    17
 73
    13
 74
     0
 42
0.0000000001
 43
0.0000000001
 12
1.0
 22
0.0
 32
0.0
 13
1.0
 23
0.0
 33
0.0
 40
0.0
 40
0.0
 40
0.0
 40
0.0
 40
1.0
 40
1.0
 40
1.0
 40
2.0
 40
2.0
 40
2.0
 40
3.0
 40
3.0
 40
3.0
 40
4.0
 40
4.0
 40
4.0
 40
4.0
 10
105.5753089732161
 20
-133.7895963554416
 30
0.0
 10
105.5753089732161
 20
-133.7344571887885
 30
0.0
 10
105.5305061965814
 20
-133.6896896888
 30
0.0
 10
105.4754023090983
 20
-133.6896896888
 30
0.0
 10
105.4202631438384
 20
-133.6896896888
 30
0.0
 10
105.3754603672036
 20
-133.7344571887885
 30
0.0
 10
105.3754603672036
 20
-133.7895963554416
 30
0.0
 10
105.3754603672036
 20
-133.8454057998721
 30
0.0
 10
105.4202631438384
 20
-133.8902085776388
 30
0.0
 10
105.4754023090983
 20
-133.8902085776388
 30
0.0
 10
105.5305061965814
 20
-133.8902085776388
 30
0.0
 10
105.5753089732161
 20
-133.8454057998721
 30
0.0
 10
105.5753089732161
 20
-133.7895963554416
 30
0.0
  0
POLYLINE
  5
44
330
1F
100
AcDbEntity
  8
_U+30EC_U+30A4_U+30E4_U+30FC 1
 62
     7
420
 16777215
370
     9
100
AcDb2dPolyline
 66
     1
 10
0.0
 20
0.0
 30
0.0
  0
VERTEX
  5
45
330
44
100
AcDbEntity
  8
_U+30EC_U+30A4_U+30E4_U+30FC 1
 62
     7
420
 16777215
370
     9
100
AcDbVertex
100
AcDb2dVertex
 10
105.4754023090983
 20
-138.1558916321275
 30
0.0
  0
VERTEX
  5
46
330
44
100
AcDbEntity
  8
_U+30EC_U+30A4_U+30E4_U+30FC 1
 62
     7
420
 16777215
370
     9
100
AcDbVertex
100
AcDb2dVertex
 10
105.4754023090983
 20
-124.1689935800687
 30
0.0
  0
SEQEND
  5
47
330
44
100
AcDbEntity
  8
_U+30EC_U+30A4_U+30E4_U+30FC 1
 62
     7
420
 16777215
370
     9
  0
POLYLINE
  5
48
330
1F
100
AcDbEntity
  8
_U+30EC_U+30A4_U+30E4_U+30FC 1
 62
     7
420
 16777215
370
     9
100
AcDb2dPolyline
 66
     1
 10
0.0
 20
0.0
 30
0.0
  0
VERTEX
  5
49
330
48
100
AcDbEntity
  8
_U+30EC_U+30A4_U+30E4_U+30FC 1
 62
     7
420
 16777215
370
     9
100
AcDbVertex
100
AcDb2dVertex
 10
99.14501941965793
 20
-133.7895963554416
 30
0.0
  0
VERTEX
  5
4A
330
48
100
AcDbEntity
  8
_U+30EC_U+30A4_U+30E4_U+30FC 1
 62
     7
420
 16777215
370
     9
100
AcDbVertex
100
AcDb2dVertex
 10
106.947120604885
 20
-133.7895963554416
 30
0.0
  0
SEQEND
  5
4B
330
48
100
AcDbEntity
  8
_U+30EC_U+30A4_U+30E4_U+30FC 1
 62
     7
420
 16777215
370
     9
  0
SPLINE
  5
4C
330
1F
100
AcDbEntity
  8
_U+30EC_U+30A4_U+30E4_U+30FC 1
 62
     7
420
 16777215
370
     9
100
AcDbSpline
210
0.0
220
0.0
230
1.0
 70
    11
 71
     3
 72
    17
 73
    13
 74
     0
 42
0.0000000001
 43
0.0000000001
 12
1.0
 22
0.0
 32
0.0
 13
1.0
 23
0.0
 33
0.0
 40
0.0
 40
0.0
 40
0.0
 40
0.0
 40
1.0
 40
1.0
 40
1.0
 40
2.0
 40
2.0
 40
2.0
 40
3.0
 40
3.0
 40
3.0
 40
4.0
 40
4.0
 40
4.0
 40
4.0
 10
105.5753089732161
 20
-134.7549021885338
 30
0.0
 10
105.5753089732161
 20
-134.6997982996582
 30
0.0
 10
105.5305061965814
 20
-134.6549955218915
 30
0.0
 10
105.4754023090983
 20
-134.6549955218915
 30
0.0
 10
105.4202631438384
 20
-134.6549955218915
 30
0.0
 10
105.3754603672036
 20
-134.6997982996582
 30
0.0
 10
105.3754603672036
 20
-134.7549021885338
 30
0.0
 10
105.3754603672036
 20
-134.8107116329642
 30
0.0
 10
105.4202631438384
 20
-134.8555144107303
 30
0.0
 10
105.4754023090983
 20
-134.8555144107303
 30
0.0
 10
105.5305061965814
 20
-134.8555144107303
 30
0.0
 10
105.5753089732161
 20
-134.8107116329642
 30
0.0
 10
105.5753089732161
 20
-134.7549021885338
 30
0.0
  0
POLYLINE
  5
4D
330
1F
100
AcDbEntity
  8
_U+30EC_U+30A4_U+30E4_U+30FC 1
 62
     7
420
 16777215
370
     9
100
AcDb2dPolyline
 66
     1
 10
0.0
 20
0.0
 30
0.0
  0
VERTEX
  5
4E
330
4D
100
AcDbEntity
  8
_U+30EC_U+30A4_U+30E4_U+30FC 1
 62
     7
420
 16777215
370
     9
100
AcDbVertex
100
AcDb2dVertex
 10
99.14501941965793
 20
-134.7549021885338
 30
0.0
  0
VERTEX
  5
4F
330
4D
100
AcDbEntity
  8
_U+30EC_U+30A4_U+30E4_U+30FC 1
 62
     7
420
 16777215
370
     9
100
AcDbVertex
100
AcDb2dVertex
 10
106.947120604885
 20
-134.7549021885338
 30
0.0
  0
SEQEND
  5
50
330
4D
100
AcDbEntity
  8
_U+30EC_U+30A4_U+30E4_U+30FC 1
 62
     7
420
 16777215
370
     9
  0
SPLINE
  5
51
330
1F
100
AcDbEntity
  8
_U+30EC_U+30A4_U+30E4_U+30FC 1
 62
     7
420
 16777215
370
     9
100
AcDbSpline
210
0.0
220
0.0
230
1.0
 70
    11
 71
     3
 72
    17
 73
    13
 74
     0
 42
0.0000000001
 43
0.0000000001
 12
1.0
 22
0.0
 32
0.0
 13
1.0
 23
0.0
 33
0.0
 40
0.0
 40
0.0
 40
0.0
 40
0.0
 40
1.0
 40
1.0
 40
1.0
 40
2.0
 40
2.0
 40
2.0
 40
3.0
 40
3.0
 40
3.0
 40
4.0
 40
4.0
 40
4.0
 40
4.0
 10
105.5753089732161
 20
-124.2689002467107
 30
0.0
 10
105.5753089732161
 20
-124.2137963578355
 30
0.0
 10
105.5305061965814
 20
-124.1689935800687
 30
0.0
 10
105.4754023090983
 20
-124.1689935800687
 30
0.0
 10
105.4202631438384
 20
-124.1689935800687
 30
0.0
 10
105.3754603672036
 20
-124.2137963578355
 30
0.0
 10
105.3754603672036
 20
-124.2689002467107
 30
0.0
 10
105.3754603672036
 20
-124.3247096911412
 30
0.0
 10
105.4202631438384
 20
-124.3695124689075
 30
0.0
 10
105.4754023090983
 20
-124.3695124689075
 30
0.0
 10
105.5305061965814
 20
-124.3695124689075
 30
0.0
 10
105.5753089732161
 20
-124.3247096911412
 30
0.0
 10
105.5753089732161
 20
-124.2689002467107
 30
0.0
  0
POLYLINE
  5
52
330
1F
100
AcDbEntity
  8
_U+30EC_U+30A4_U+30E4_U+30FC 1
 62
     7
420
 16777215
370
     9
100
AcDb2dPolyline
 66
     1
 10
0.0
 20
0.0
 30
0.0
  0
VERTEX
  5
53
330
52
100
AcDbEntity
  8
_U+30EC_U+30A4_U+30E4_U+30FC 1
 62
     7
420
 16777215
370
     9
100
AcDbVertex
100
AcDb2dVertex
 10
94.55926108747111
 20
-124.2689002467107
 30
0.0
  0
VERTEX
  5
54
330
52
100
AcDbEntity
  8
_U+30EC_U+30A4_U+30E4_U+30FC 1
 62
     7
420
 16777215
370
     9
100
AcDbVertex
100
AcDb2dVertex
 10
106.8803044954785
 20
-124.2689002467107
 30
0.0
  0
SEQEND
  5
55
330
52
100
AcDbEntity
  8
_U+30EC_U+30A4_U+30E4_U+30FC 1
 62
     7
420
 16777215
370
     9
  0
POLYLINE
  5
56
330
1F
100
AcDbEntity
  8
_U+30EC_U+30A4_U+30E4_U+30FC 1
 62
     7
420
 16777215
370
     9
100
AcDb2dPolyline
 66
     1
 10
0.0
 20
0.0
 30
0.0
  0
VERTEX
  5
57
330
56
100
AcDbEntity
  8
_U+30EC_U+30A4_U+30E4_U+30FC 1
 62
     7
420
 16777215
370
     9
100
AcDbVertex
100
AcDb2dVertex
 10
105.4754023090983
 20
-124.232034968942
 30
0.0
  0
VERTEX
  5
58
330
56
100
AcDbEntity
  8
_U+30EC_U+30A4_U+30E4_U+30FC 1
 62
     7
420
 16777215
370
     9
100
AcDbVertex
100
AcDb2dVertex
 10
105.4754023090983
 20
-117.8158891372127
 30
0.0
  0
SEQEND
  5
59
330
56
100
AcDbEntity
  8
_U+30EC_U+30A4_U+30E4_U+30FC 1
 62
     7
420
 16777215
370
     9
  0
SPLINE
  5
5A
330
1F
100
AcDbEntity
  8
_U+30EC_U+30A4_U+30E4_U+30FC 1
 62
     7
420
 16777215
370
     9
100
AcDbSpline
210
0.0
220
0.0
230
1.0
 70
    11
 71
     3
 72
    17
 73
    13
 74
     0
 42
0.0000000001
 43
0.0000000001
 12
1.0
 22
0.0
 32
0.0
 13
1.0
 23
0.0
 33
0.0
 40
0.0
 40
0.0
 40
0.0
 40
0.0
 40
1.0
 40
1.0
 40
1.0
 40
2.0
 40
2.0
 40
2.0
 40
3.0
 40
3.0
 40
3.0
 40
4.0
 40
4.0
 40
4.0
 40
4.0
 10
105.5753089732161
 20
-122.7475460804244
 30
0.0
 10
105.5753089732161
 20
-122.6924421915491
 30
0.0
 10
105.5305061965814
 20
-122.6476394137824
 30
0.0
 10
105.4754023090983
 20
-122.6476394137824
 30
0.0
 10
105.4202631438384
 20
-122.6476394137824
 30
0.0
 10
105.3754603672036
 20
-122.6924421915491
 30
0.0
 10
105.3754603672036
 20
-122.7475460804244
 30
0.0
 10
105.3754603672036
 20
-122.8033555248548
 30
0.0
 10
105.4202631438384
 20
-122.8481583026212
 30
0.0
 10
105.4754023090983
 20
-122.8481583026212
 30
0.0
 10
105.5305061965814
 20
-122.8481583026212
 30
0.0
 10
105.5753089732161
 20
-122.8033555248548
 30
0.0
 10
105.5753089732161
 20
-122.7475460804244
 30
0.0
  0
POLYLINE
  5
5B
330
1F
100
AcDbEntity
  8
_U+30EC_U+30A4_U+30E4_U+30FC 1
 62
     7
420
 16777215
370
     9
100
AcDb2dPolyline
 66
     1
 10
0.0
 20
0.0
 30
0.0
  0
VERTEX
  5
5C
330
5B
100
AcDbEntity
  8
_U+30EC_U+30A4_U+30E4_U+30FC 1
 62
     7
420
 16777215
370
     9
100
AcDbVertex
100
AcDb2dVertex
 10
94.55926108747111
 20
-122.7475460804244
 30
0.0
  0
VERTEX
  5
5D
330
5B
100
AcDbEntity
  8
_U+30EC_U+30A4_U+30E4_U+30FC 1
 62
     7
420
 16777215
370
     9
100
AcDbVertex
100
AcDb2dVertex
 10
106.8803044954785
 20
-122.7475460804244
 30
0.0
  0
SEQEND
  5
5E
330
5B
100
AcDbEntity
  8
_U+30EC_U+30A4_U+30E4_U+30FC 1
 62
     7
420
 16777215
370
     9
  0
INSERT
  5
60
330
1F
100
AcDbEntity
  8
_U+30EC_U+30A4_U+30E4_U+30FC 1
100
AcDbBlockReference
  2
block 2
 10
0.0
 20
0.0
 30
0.0
  0
INSERT
  5
71
330
1F
100
AcDbEntity
  8
_U+30EC_U+30A4_U+30E4_U+30FC 1
100
AcDbBlockReference
  2
block 3
 10
0.0
 20
0.0
 30
0.0
  0
INSERT
  5
81
330
1F
100
AcDbEntity
  8
_U+30EC_U+30A4_U+30E4_U+30FC 1
100
AcDbBlockReference
  2
block 4
 10
0.0
 20
0.0
 30
0.0
  0
SPLINE
  5
86
330
1F
100
AcDbEntity
  8
_U+30EC_U+30A4_U+30E4_U+30FC 1
 62
     7
420
 16777215
370
     9
100
AcDbSpline
210
0.0
220
0.0
230
1.0
 70
    11
 71
     3
 72
    17
 73
    13
 74
     0
 42
0.0000000001
 43
0.0000000001
 12
1.0
 22
0.0
 32
0.0
 13
1.0
 23
0.0
 33
0.0
 40
0.0
 40
0.0
 40
0.0
 40
0.0
 40
1.0
 40
1.0
 40
1.0
 40
2.0
 40
2.0
 40
2.0
 40
3.0
 40
3.0
 40
3.0
 40
4.0
 40
4.0
 40
4.0
 40
4.0
 10
97.1416977994866
 20
-138.1862305210093
 30
0.0
 10
97.1416977994866
 20
-138.1310913543562
 30
0.0
 10
97.09968196722518
 20
-138.0863238543676
 30
0.0
 10
97.04867030185993
 20
-138.0863238543676
 30
0.0
 10
96.99734113650278
 20
-138.0863238543676
 30
0.0
 10
96.95568053131633
 20
-138.1310913543562
 30
0.0
 10
96.95568053131633
 20
-138.1862305210093
 30
0.0
 10
96.95568053131633
 20
-138.2420399654397
 30
0.0
 10
96.99734113650278
 20
-138.2868074654283
 30
0.0
 10
97.04867030185993
 20
-138.2868074654283
 30
0.0
 10
97.09968196722518
 20
-138.2868074654283
 30
0.0
 10
97.1416977994866
 20
-138.2420399654397
 30
0.0
 10
97.1416977994866
 20
-138.1862305210093
 30
0.0
  0
SPLINE
  5
87
330
1F
100
AcDbEntity
  8
_U+30EC_U+30A4_U+30E4_U+30FC 1
 62
     7
420
 16777215
370
     9
100
AcDbSpline
210
0.0
220
0.0
230
1.0
 70
    11
 71
     3
 72
    17
 73
    13
 74
     0
 42
0.0000000001
 43
0.0000000001
 12
1.0
 22
0.0
 32
0.0
 13
1.0
 23
0.0
 33
0.0
 40
0.0
 40
0.0
 40
0.0
 40
0.0
 40
1.0
 40
1.0
 40
1.0
 40
2.0
 40
2.0
 40
2.0
 40
3.0
 40
3.0
 40
3.0
 40
4.0
 40
4.0
 40
4.0
 40
4.0
 10
80.13809156661807
 20
-120.411416358786
 30
0.0
 10
80.13809156661807
 20
-120.3563124699108
 30
0.0
 10
80.0932887899833
 20
-120.3115096921444
 30
0.0
 10
80.03818490250023
 20
-120.3115096921444
 30
0.0
 10
79.98304573724029
 20
-120.3115096921444
 30
0.0
 10
79.9382782383824
 20
-120.3563124699108
 30
0.0
 10
79.9382782383824
 20
-120.411416358786
 30
0.0
 10
79.9382782383824
 20
-120.4672258032165
 30
0.0
 10
79.98304573724029
 20
-120.5120285809832
 30
0.0
 10
80.03818490250023
 20
-120.5120285809832
 30
0.0
 10
80.0932887899833
 20
-120.5120285809832
 30
0.0
 10
80.13809156661807
 20
-120.4672258032165
 30
0.0
 10
80.13809156661807
 20
-120.411416358786
 30
0.0
  0
SPLINE
  5
88
330
1F
100
AcDbEntity
  8
_U+30EC_U+30A4_U+30E4_U+30FC 1
 62
     7
420
 16777215
370
     9
100
AcDbSpline
210
0.0
220
0.0
230
1.0
 70
    11
 71
     3
 72
    17
 73
    13
 74
     0
 42
0.0000000001
 43
0.0000000001
 12
1.0
 22
0.0
 32
0.0
 13
1.0
 23
0.0
 33
0.0
 40
0.0
 40
0.0
 40
0.0
 40
0.0
 40
1.0
 40
1.0
 40
1.0
 40
2.0
 40
2.0
 40
2.0
 40
3.0
 40
3.0
 40
3.0
 40
4.0
 40
4.0
 40
4.0
 40
4.0
 10
92.14770514911619
 20
-120.4134977476744
 30
0.0
 10
92.14770514911619
 20
-120.3583585810217
 30
0.0
 10
92.10290237248142
 20
-120.3135910810328
 30
0.0
 10
92.04779848499835
 20
-120.3135910810328
 30
0.0
 10
91.99265931973841
 20
-120.3135910810328
 30
0.0
 10
91.94785654310364
 20
-120.3583585810217
 30
0.0
 10
91.94785654310364
 20
-120.4134977476744
 30
0.0
 10
91.94785654310364
 20
-120.4693071921049
 30
0.0
 10
91.99265931973841
 20
-120.5140746920937
 30
0.0
 10
92.04779848499835
 20
-120.5140746920937
 30
0.0
 10
92.10290237248142
 20
-120.5140746920937
 30
0.0
 10
92.14770514911619
 20
-120.4693071921049
 30
0.0
 10
92.14770514911619
 20
-120.4134977476744
 30
0.0
  0
POLYLINE
  5
89
330
1F
100
AcDbEntity
  8
_U+30EC_U+30A4_U+30E4_U+30FC 1
 62
     7
420
 16777215
370
     9
100
AcDb2dPolyline
 66
     1
 10
0.0
 20
0.0
 30
0.0
  0
VERTEX
  5
8A
330
89
100
AcDbEntity
  8
_U+30EC_U+30A4_U+30E4_U+30FC 1
 62
     7
420
 16777215
370
     9
100
AcDbVertex
100
AcDb2dVertex
 10
80.04023101355914
 20
-120.411416358786
 30
0.0
  0
VERTEX
  5
8B
330
89
100
AcDbEntity
  8
_U+30EC_U+30A4_U+30E4_U+30FC 1
 62
     7
420
 16777215
370
     9
100
AcDbVertex
100
AcDb2dVertex
 10
92.04917431829658
 20
-120.411416358786
 30
0.0
  0
SEQEND
  5
8C
330
89
100
AcDbEntity
  8
_U+30EC_U+30A4_U+30E4_U+30FC 1
 62
     7
420
 16777215
370
     9
  0
POLYLINE
  5
8D
330
1F
100
AcDbEntity
  8
_U+30EC_U+30A4_U+30E4_U+30FC 1
 62
     7
420
 16777215
370
     9
100
AcDb2dPolyline
 66
     1
 10
0.0
 20
0.0
 30
0.0
  0
VERTEX
  5
8E
330
8D
100
AcDbEntity
  8
_U+30EC_U+30A4_U+30E4_U+30FC 1
 62
     7
420
 16777215
370
     9
100
AcDbVertex
100
AcDb2dVertex
 10
80.03818490250023
 20
-118.9514102480398
 30
0.0
  0
VERTEX
  5
8F
330
8D
100
AcDbEntity
  8
_U+30EC_U+30A4_U+30E4_U+30FC 1
 62
     7
420
 16777215
370
     9
100
AcDbVertex
100
AcDb2dVertex
 10
80.03818490250023
 20
-121.4118941363137
 30
0.0
  0
SEQEND
  5
90
330
8D
100
AcDbEntity
  8
_U+30EC_U+30A4_U+30E4_U+30FC 1
 62
     7
420
 16777215
370
     9
  0
POLYLINE
  5
91
330
1F
100
AcDbEntity
  8
_U+30EC_U+30A4_U+30E4_U+30FC 1
 62
     7
420
 16777215
370
     9
100
AcDb2dPolyline
 66
     1
 10
0.0
 20
0.0
 30
0.0
  0
VERTEX
  5
92
330
91
100
AcDbEntity
  8
_U+30EC_U+30A4_U+30E4_U+30FC 1
 62
     7
420
 16777215
370
     9
100
AcDbVertex
100
AcDb2dVertex
 10
92.0470929294608
 20
-118.9514102480398
 30
0.0
  0
VERTEX
  5
93
330
91
100
AcDbEntity
  8
_U+30EC_U+30A4_U+30E4_U+30FC 1
 62
     7
420
 16777215
370
     9
100
AcDbVertex
100
AcDb2dVertex
 10
92.0470929294608
 20
-121.4118941363137
 30
0.0
  0
SEQEND
  5
94
330
91
100
AcDbEntity
  8
_U+30EC_U+30A4_U+30E4_U+30FC 1
 62
     7
420
 16777215
370
     9
  0
INSERT
  5
96
330
1F
100
AcDbEntity
  8
_U+30EC_U+30A4_U+30E4_U+30FC 1
100
AcDbBlockReference
  2
block 5
 10
0.0
 20
0.0
 30
0.0
  0
SPLINE
  5
9D
330
1F
100
AcDbEntity
  8
_U+30EC_U+30A4_U+30E4_U+30FC 1
 62
     7
420
 16777215
370
     9
100
AcDbSpline
210
0.0
220
0.0
230
1.0
 70
    11
 71
     3
 72
    17
 73
    13
 74
     0
 42
0.0000000001
 43
0.0000000001
 12
1.0
 22
0.0
 32
0.0
 13
1.0
 23
0.0
 33
0.0
 40
0.0
 40
0.0
 40
0.0
 40
0.0
 40
1.0
 40
1.0
 40
1.0
 40
2.0
 40
2.0
 40
2.0
 40
3.0
 40
3.0
 40
3.0
 40
4.0
 40
4.0
 40
4.0
 40
4.0
 10
75.13873669416223
 20
-138.188982187675
 30
0.0
 10
75.13873669416223
 20
-138.133843021022
 30
0.0
 10
75.09619169524765
 20
-138.0890755210334
 30
0.0
 10
75.04398058546856
 20
-138.0890755210334
 30
0.0
 10
74.99180475346634
 20
-138.0890755210334
 30
0.0
 10
74.94943614343615
 20
-138.133843021022
 30
0.0
 10
74.94943614343615
 20
-138.188982187675
 30
0.0
 10
74.94943614343615
 20
-138.2447916321055
 30
0.0
 10
74.99180475346634
 20
-138.2895944098722
 30
0.0
 10
75.04398058546856
 20
-138.2895944098722
 30
0.0
 10
75.09619169524765
 20
-138.2895944098722
 30
0.0
 10
75.13873669416223
 20
-138.2447916321055
 30
0.0
 10
75.13873669416223
 20
-138.188982187675
 30
0.0
  0
POLYLINE
  5
9E
330
1F
100
AcDbEntity
  8
_U+30EC_U+30A4_U+30E4_U+30FC 1
 62
     7
420
 16777215
370
     9
100
AcDb2dPolyline
 66
     1
 10
0.0
 20
0.0
 30
0.0
  0
VERTEX
  5
9F
330
9E
100
AcDbEntity
  8
_U+30EC_U+30A4_U+30E4_U+30FC 1
 62
     7
420
 16777215
370
     9
100
AcDbVertex
100
AcDb2dVertex
 10
75.04398058546856
 20
-138.188982187675
 30
0.0
  0
VERTEX
  5
A0
330
9E
100
AcDbEntity
  8
_U+30EC_U+30A4_U+30E4_U+30FC 1
 62
     7
420
 16777215
370
     9
100
AcDbVertex
100
AcDb2dVertex
 10
97.14102752172592
 20
-138.188982187675
 30
0.0
  0
SEQEND
  5
A1
330
9E
100
AcDbEntity
  8
_U+30EC_U+30A4_U+30E4_U+30FC 1
 62
     7
420
 16777215
370
     9
  0
POLYLINE
  5
A2
330
1F
100
AcDbEntity
  8
_U+30EC_U+30A4_U+30E4_U+30FC 1
 62
     7
420
 16777215
370
     9
100
AcDb2dPolyline
 66
     1
 10
0.0
 20
0.0
 30
0.0
  0
VERTEX
  5
A3
330
A2
100
AcDbEntity
  8
_U+30EC_U+30A4_U+30E4_U+30FC 1
 62
     7
420
 16777215
370
     9
100
AcDbVertex
100
AcDb2dVertex
 10
75.04398058546856
 20
-136.7289407991513
 30
0.0
  0
VERTEX
  5
A4
330
A2
100
AcDbEntity
  8
_U+30EC_U+30A4_U+30E4_U+30FC 1
 62
     7
420
 16777215
370
     9
100
AcDbVertex
100
AcDb2dVertex
 10
75.04398058546856
 20
-139.1894246874249
 30
0.0
  0
SEQEND
  5
A5
330
A2
100
AcDbEntity
  8
_U+30EC_U+30A4_U+30E4_U+30FC 1
 62
     7
420
 16777215
370
     9
  0
POLYLINE
  5
A6
330
1F
100
AcDbEntity
  8
_U+30EC_U+30A4_U+30E4_U+30FC 1
 62
     7
420
 16777215
370
     9
100
AcDb2dPolyline
 66
     1
 10
0.0
 20
0.0
 30
0.0
  0
VERTEX
  5
A7
330
A6
100
AcDbEntity
  8
_U+30EC_U+30A4_U+30E4_U+30FC 1
 62
     7
420
 16777215
370
     9
100
AcDbVertex
100
AcDb2dVertex
 10
97.04764724633047
 20
-136.7289407991513
 30
0.0
  0
VERTEX
  5
A8
330
A6
100
AcDbEntity
  8
_U+30EC_U+30A4_U+30E4_U+30FC 1
 62
     7
420
 16777215
370
     9
100
AcDbVertex
100
AcDb2dVertex
 10
97.04764724633047
 20
-139.1894246874249
 30
0.0
  0
SEQEND
  5
A9
330
A6
100
AcDbEntity
  8
_U+30EC_U+30A4_U+30E4_U+30FC 1
 62
     7
420
 16777215
370
     9
  0
INSERT
  5
AB
330
1F
100
AcDbEntity
  8
_U+30EC_U+30A4_U+30E4_U+30FC 1
100
AcDbBlockReference
  2
block 6
 10
0.0
 20
0.0
 30
0.0
  0
ENDSEC
  0
SECTION
  2
OBJECTS
  0
DICTIONARY
  5
C
330
0
100
AcDbDictionary
281
     1
  3
ACAD_GROUP
350
D
  3
ACAD_LAYOUT
350
1A
  3
ACAD_MATERIAL
350
3B
  3
ACAD_MLEADERSTYLE
350
B3
  3
ACAD_MLINESTYLE
350
17
  3
ACAD_PLOTSETTINGS
350
19
  3
ACAD_PLOTSTYLENAME
350
E
  3
ACAD_TABLESTYLE
350
B2
  3
ACAD_VISUALSTYLE
350
2A
  0
SUN
  5
3F
330
29
100
AcDbSun
 90
        1
290
     0
 63
     7
421
 16777215
 40
1.0
291
     1
 91
  2455826
 92
 54000000
292
     0
 70
     2
 71
   256
280
     1
  0
DICTIONARY
  5
D
102
{ACAD_REACTORS
330
C
102
}
330
C
100
AcDbDictionary
281
     1
  0
DICTIONARY
  5
1A
102
{ACAD_REACTORS
330
C
102
}
330
C
100
AcDbDictionary
281
     1
  3
Layout1
350
1E
  3
Layout2
350
26
  3
Model
350
22
  0
DICTIONARY
  5
3B
102
{ACAD_REACTORS
330
C
102
}
330
C
100
AcDbDictionary
281
     1
  3
ByBlock
350
3D
  3
ByLayer
350
3C
  3
Global
350
3E
  0
DICTIONARY
  5
B3
102
{ACAD_REACTORS
330
C
102
}
330
C
100
AcDbDictionary
281
     1
  0
DICTIONARY
  5
17
102
{ACAD_REACTORS
330
C
102
}
330
C
100
AcDbDictionary
281
     1
  3
Standard
350
18
  0
DICTIONARY
  5
19
102
{ACAD_REACTORS
330
C
102
}
330
C
100
AcDbDictionary
281
     1
  0
ACDBDICTIONARYWDFLT
  5
E
102
{ACAD_REACTORS
330
C
102
}
330
C
100
AcDbDictionary
281
     1
  3
Normal
350
F
100
AcDbDictionaryWithDefault
340
F
  0
DICTIONARY
  5
B2
102
{ACAD_REACTORS
330
C
102
}
330
C
100
AcDbDictionary
281
     1
  0
DICTIONARY
  5
2A
102
{ACAD_REACTORS
330
C
102
}
330
C
100
AcDbDictionary
281
     1
  3
2dWireframe
350
2F
  3
3D Hidden
350
31
  3
3dWireframe
350
30
  3
Basic
350
32
  3
Brighten
350
36
  3
ColorChange
350
3A
  3
Conceptual
350
34
  3
Dim
350
35
  3
Facepattern
350
39
  3
Flat
350
2B
  3
FlatWithEdges
350
2C
  3
Gouraud
350
2D
  3
GouraudWithEdges
350
2E
  3
Linepattern
350
38
  3
Realistic
350
33
  3
Thicken
350
37
  0
LAYOUT
  5
1E
102
{ACAD_REACTORS
330
1A
102
}
330
1A
100
AcDbPlotSettings
  1

  2
none_device
  4

  6

 40
0.0
 41
0.0
 42
0.0
 43
0.0
 44
0.0
 45
0.0
 46
0.0
 47
0.0
 48
0.0
 49
0.0
140
0.0
141
0.0
142
1.0
143
1.0
 70
   688
 72
     0
 73
     0
 74
     5
  7

 75
    16
 76
     0
 77
     2
 78
   300
147
1.0
148
0.0
149
0.0
100
AcDbLayout
  1
Layout1
 70
     1
 71
     1
 10
0.0
 20
0.0
 11
12.0
 21
9.0
 12
0.0
 22
0.0
 32
0.0
 14
1.000000000000000E+20
 24
1.000000000000000E+20
 34
1.000000000000000E+20
 15
-1.000000000000000E+20
 25
-1.000000000000000E+20
 35
-1.000000000000000E+20
146
0.0
 13
0.0
 23
0.0
 33
0.0
 16
1.0
 26
0.0
 36
0.0
 17
0.0
 27
1.0
 37
0.0
 76
     0
330
1B
  0
LAYOUT
  5
26
102
{ACAD_REACTORS
330
1A
102
}
330
1A
100
AcDbPlotSettings
  1

  2
none_device
  4

  6

 40
0.0
 41
0.0
 42
0.0
 43
0.0
 44
0.0
 45
0.0
 46
0.0
 47
0.0
 48
0.0
 49
0.0
140
0.0
141
0.0
142
1.0
143
1.0
 70
   688
 72
     0
 73
     0
 74
     5
  7

 75
    16
 76
     0
 77
     2
 78
   300
147
1.0
148
0.0
149
0.0
100
AcDbLayout
  1
Layout2
 70
     1
 71
     2
 10
0.0
 20
0.0
 11
0.0
 21
0.0
 12
0.0
 22
0.0
 32
0.0
 14
0.0
 24
0.0
 34
0.0
 15
0.0
 25
0.0
 35
0.0
146
0.0
 13
0.0
 23
0.0
 33
0.0
 16
1.0
 26
0.0
 36
0.0
 17
0.0
 27
1.0
 37
0.0
 76
     0
330
23
  0
LAYOUT
  5
22
102
{ACAD_REACTORS
330
1A
102
}
330
1A
100
AcDbPlotSettings
  1

  2
none_device
  4

  6

 40
0.0
 41
0.0
 42
0.0
 43
0.0
 44
0.0
 45
0.0
 46
0.0
 47
0.0
 48
0.0
 49
0.0
140
0.0
141
0.0
142
1.0
143
1.0
 70
  1712
 72
     0
 73
     0
 74
     0
  7

 75
     0
 76
     0
 77
     2
 78
   300
147
1.0
148
0.0
149
0.0
100
AcDbLayout
  1
Model
 70
     1
 71
     0
 10
0.0
 20
0.0
 11
12.0
 21
9.0
 12
0.0
 22
0.0
 32
0.0
 14
1.000000000000000E+20
 24
1.000000000000000E+20
 34
1.000000000000000E+20
 15
-1.000000000000000E+20
 25
-1.000000000000000E+20
 35
-1.000000000000000E+20
146
0.0
 13
0.0
 23
0.0
 33
0.0
 16
1.0
 26
0.0
 36
0.0
 17
0.0
 27
1.0
 37
0.0
 76
     0
330
1F
331
29
  0
MATERIAL
  5
3D
102
{ACAD_REACTORS
330
3B
102
}
330
3B
100
AcDbMaterial
  1
ByBlock
 72
     1
 94
      127
  0
MATERIAL
  5
3C
102
{ACAD_REACTORS
330
3B
102
}
330
3B
100
AcDbMaterial
  1
ByLayer
 72
     1
 94
      127
  0
MATERIAL
  5
3E
102
{ACAD_REACTORS
330
3B
102
}
330
3B
100
AcDbMaterial
  1
Global
 72
     1
 94
      127
  0
MLINESTYLE
  5
18
102
{ACAD_REACTORS
330
17
102
}
330
17
100
AcDbMlineStyle
  2
Standard
 70
     0
  3

 62
   256
 51
90.0
 52
90.0
 71
     2
 49
0.5
 62
   256
  6
BYLAYER
 49
-0.5
 62
   256
  6
BYLAYER
  0
ACDBPLACEHOLDER
  5
F
102
{ACAD_REACTORS
330
E
102
}
330
E
  0
VISUALSTYLE
  5
2F
102
{ACAD_REACTORS
330
2A
102
}
330
2A
100
AcDbVisualStyle
  2
2dWireframe
 70
     4
177
     2
291
     0
 71
     0
176
     1
 72
     2
176
     1
 73
     0
176
     1
 90
        0
176
     1
 40
-0.6
176
     1
 41
-30.0
176
     1
 62
     5
 63
     7
421
 16777215
176
     1
 74
     1
176
     1
 91
        4
176
     1
 64
     7
176
     1
 65
   257
176
     1
 75
     1
176
     1
175
     1
176
     1
 42
1.0
176
     1
 92
        0
176
     1
 66
   257
176
     1
 43
1.0
176
     1
 76
     1
176
     1
 77
     6
176
     1
 78
     2
176
     1
 67
     7
176
     1
 79
     5
176
     1
170
     0
176
     1
171
     0
176
     1
290
     0
176
     1
 93
        1
176
     1
 44
0.0
176
     1
173
     0
176
     1
  0
VISUALSTYLE
  5
31
102
{ACAD_REACTORS
330
2A
102
}
330
2A
100
AcDbVisualStyle
  2
3D Hidden
 70
     6
177
     2
291
     0
 71
     1
176
     1
 72
     2
176
     1
 73
     2
176
     1
 90
        0
176
     1
 40
-0.6
176
     1
 41
-30.0
176
     1
 62
     5
 63
     7
421
 16777215
176
     1
 74
     2
176
     1
 91
        2
176
     1
 64
     7
176
     1
 65
   257
176
     1
 75
     2
176
     1
175
     1
176
     1
 42
40.0
176
     1
 92
        0
176
     1
 66
   257
176
     1
 43
1.0
176
     1
 76
     1
176
     1
 77
     6
176
     1
 78
     2
176
     1
 67
     7
176
     1
 79
     3
176
     1
170
     0
176
     1
171
     0
176
     1
290
     0
176
     1
 93
        1
176
     1
 44
0.0
176
     1
173
     0
176
     1
  0
VISUALSTYLE
  5
30
102
{ACAD_REACTORS
330
2A
102
}
330
2A
100
AcDbVisualStyle
  2
3dWireframe
 70
     5
177
     2
291
     0
 71
     0
176
     1
 72
     2
176
     1
 73
     0
176
     1
 90
        0
176
     1
 40
-0.6
176
     1
 41
-30.0
176
     1
 62
     5
 63
     7
421
 16777215
176
     1
 74
     1
176
     1
 91
        4
176
     1
 64
     7
176
     1
 65
   257
176
     1
 75
     1
176
     1
175
     1
176
     1
 42
1.0
176
     1
 92
        0
176
     1
 66
   257
176
     1
 43
1.0
176
     1
 76
     1
176
     1
 77
     6
176
     1
 78
     2
176
     1
 67
     7
176
     1
 79
     5
176
     1
170
     0
176
     1
171
     0
176
     1
290
     0
176
     1
 93
        1
176
     1
 44
0.0
176
     1
173
     0
176
     1
  0
VISUALSTYLE
  5
32
102
{ACAD_REACTORS
330
2A
102
}
330
2A
100
AcDbVisualStyle
  2
Basic
 70
     7
177
     2
291
     1
 71
     1
176
     1
 72
     0
176
     1
 73
     1
176
     1
 90
        0
176
     1
 40
-0.6
176
     1
 41
-30.0
176
     1
 62
     5
 63
     7
421
 16777215
176
     1
 74
     0
176
     1
 91
        4
176
     1
 64
     7
176
     1
 65
   257
176
     1
 75
     1
176
     1
175
     1
176
     1
 42
1.0
176
     1
 92
        8
176
     1
 66
     7
176
     1
 43
1.0
176
     1
 76
     1
176
     1
 77
     6
176
     1
 78
     2
176
     1
 67
     7
176
     1
 79
     5
176
     1
170
     0
176
     1
171
     0
176
     1
290
     0
176
     1
 93
        1
176
     1
 44
0.0
176
     1
173
     0
176
     1
  0
VISUALSTYLE
  5
36
102
{ACAD_REACTORS
330
2A
102
}
330
2A
100
AcDbVisualStyle
  2
Brighten
 70
    12
177
     2
291
     1
 71
     2
176
     1
 72
     2
176
     1
 73
     0
176
     1
 90
        0
176
     1
 40
-0.6
176
     1
 41
-30.0
176
     1
 62
     5
 63
     7
421
 16777215
176
     1
 74
     1
176
     1
 91
        4
176
     1
 64
     7
176
     1
 65
   257
176
     1
 75
     1
176
     1
175
     1
176
     1
 42
1.0
176
     1
 92
        8
176
     1
 66
     7
176
     1
 43
1.0
176
     1
 76
     1
176
     1
 77
     6
176
     1
 78
     2
176
     1
 67
     7
176
     1
 79
     5
176
     1
170
     0
176
     1
171
     0
176
     1
290
     0
176
     1
 93
        1
176
     1
 44
50.0
176
     1
173
     0
176
     1
  0
VISUALSTYLE
  5
3A
102
{ACAD_REACTORS
330
2A
102
}
330
2A
100
AcDbVisualStyle
  2
ColorChange
 70
    16
177
     2
291
     1
 71
     2
176
     1
 72
     2
176
     1
 73
     3
176
     1
 90
        0
176
     1
 40
-0.6
176
     1
 41
-30.0
176
     1
 62
     5
 63
     8
421
  8421504
176
     1
 74
     1
176
     1
 91
        4
176
     1
 64
     7
176
     1
 65
   257
176
     1
 75
     1
176
     1
175
     1
176
     1
 42
1.0
176
     1
 92
        8
176
     1
 66
     8
424
  8421504
176
     1
 43
1.0
176
     1
 76
     1
176
     1
 77
     6
176
     1
 78
     2
176
     1
 67
     7
176
     1
 79
     5
176
     1
170
     0
176
     1
171
     0
176
     1
290
     0
176
     1
 93
        1
176
     1
 44
0.0
176
     1
173
     0
176
     1
  0
VISUALSTYLE
  5
34
102
{ACAD_REACTORS
330
2A
102
}
330
2A
100
AcDbVisualStyle
  2
Conceptual
 70
     9
177
     2
291
     0
 71
     3
176
     1
 72
     2
176
     1
 73
     0
176
     1
 90
        0
176
     1
 40
-0.6
176
     1
 41
-30.0
176
     1
 62
     5
 63
     7
421
 16777215
176
     1
 74
     2
176
     1
 91
        2
176
     1
 64
     7
176
     1
 65
   257
176
     1
 75
     1
176
     1
175
     1
176
     1
 42
40.0
176
     1
 92
        8
176
     1
 66
     7
176
     1
 43
1.0
176
     1
 76
     1
176
     1
 77
     6
176
     1
 78
     2
176
     1
 67
     7
176
     1
 79
     3
176
     1
170
     0
176
     1
171
     0
176
     1
290
     0
176
     1
 93
        1
176
     1
 44
0.0
176
     1
173
     0
176
     1
  0
VISUALSTYLE
  5
35
102
{ACAD_REACTORS
330
2A
102
}
330
2A
100
AcDbVisualStyle
  2
Dim
 70
    11
177
     2
291
     1
 71
     2
176
     1
 72
     2
176
     1
 73
     0
176
     1
 90
        0
176
     1
 40
-0.6
176
     1
 41
-30.0
176
     1
 62
     5
 63
     7
421
 16777215
176
     1
 74
     1
176
     1
 91
        4
176
     1
 64
     7
176
     1
 65
   257
176
     1
 75
     1
176
     1
175
     1
176
     1
 42
1.0
176
     1
 92
        8
176
     1
 66
     7
176
     1
 43
1.0
176
     1
 76
     1
176
     1
 77
     6
176
     1
 78
     2
176
     1
 67
     7
176
     1
 79
     5
176
     1
170
     0
176
     1
171
     0
176
     1
290
     0
176
     1
 93
        1
176
     1
 44
-50.0
176
     1
173
     0
176
     1
  0
VISUALSTYLE
  5
39
102
{ACAD_REACTORS
330
2A
102
}
330
2A
100
AcDbVisualStyle
  2
Facepattern
 70
    15
177
     2
291
     1
 71
     2
176
     1
 72
     2
176
     1
 73
     0
176
     1
 90
        0
176
     1
 40
-0.6
176
     1
 41
-30.0
176
     1
 62
     5
 63
     7
421
 16777215
176
     1
 74
     1
176
     1
 91
        4
176
     1
 64
     7
176
     1
 65
   257
176
     1
 75
     1
176
     1
175
     1
176
     1
 42
1.0
176
     1
 92
        8
176
     1
 66
     7
176
     1
 43
1.0
176
     1
 76
     1
176
     1
 77
     6
176
     1
 78
     2
176
     1
 67
     7
176
     1
 79
     5
176
     1
170
     0
176
     1
171
     0
176
     1
290
     0
176
     1
 93
        1
176
     1
 44
0.0
176
     1
173
     0
176
     1
  0
VISUALSTYLE
  5
2B
102
{ACAD_REACTORS
330
2A
102
}
330
2A
100
AcDbVisualStyle
  2
Flat
 70
     0
177
     2
291
     1
 71
     2
176
     1
 72
     1
176
     1
 73
     1
176
     1
 90
        2
176
     1
 40
-0.6
176
     1
 41
30.0
176
     1
 62
     5
 63
     7
421
 16777215
176
     1
 74
     0
176
     1
 91
        4
176
     1
 64
     7
176
     1
 65
   257
176
     1
 75
     1
176
     1
175
     1
176
     1
 42
1.0
176
     1
 92
        8
176
     1
 66
     7
176
     1
 43
1.0
176
     1
 76
     1
176
     1
 77
     6
176
     1
 78
     2
176
     1
 67
     7
176
     1
 79
     5
176
     1
170
     0
176
     1
171
     0
176
     1
290
     0
176
     1
 93
       13
176
     1
 44
0.0
176
     1
173
     0
176
     1
  0
VISUALSTYLE
  5
2C
102
{ACAD_REACTORS
330
2A
102
}
330
2A
100
AcDbVisualStyle
  2
FlatWithEdges
 70
     1
177
     2
291
     1
 71
     2
176
     1
 72
     1
176
     1
 73
     1
176
     1
 90
        2
176
     1
 40
-0.6
176
     1
 41
30.0
176
     1
 62
     5
 63
     7
421
 16777215
176
     1
 74
     1
176
     1
 91
        4
176
     1
 64
     7
176
     1
 65
   257
176
     1
 75
     1
176
     1
175
     1
176
     1
 42
1.0
176
     1
 92
        0
176
     1
 66
   257
176
     1
 43
1.0
176
     1
 76
     1
176
     1
 77
     6
176
     1
 78
     2
176
     1
 67
     7
176
     1
 79
     5
176
     1
170
     0
176
     1
171
     0
176
     1
290
     0
176
     1
 93
       13
176
     1
 44
0.0
176
     1
173
     0
176
     1
  0
VISUALSTYLE
  5
2D
102
{ACAD_REACTORS
330
2A
102
}
330
2A
100
AcDbVisualStyle
  2
Gouraud
 70
     2
177
     2
291
     1
 71
     2
176
     1
 72
     2
176
     1
 73
     1
176
     1
 90
        2
176
     1
 40
-0.6
176
     1
 41
30.0
176
     1
 62
     5
 63
     7
421
 16777215
176
     1
 74
     0
176
     1
 91
        4
176
     1
 64
     7
176
     1
 65
   257
176
     1
 75
     1
176
     1
175
     1
176
     1
 42
1.0
176
     1
 92
        0
176
     1
 66
     7
176
     1
 43
1.0
176
     1
 76
     1
176
     1
 77
     6
176
     1
 78
     2
176
     1
 67
     7
176
     1
 79
     5
176
     1
170
     0
176
     1
171
     0
176
     1
290
     0
176
     1
 93
       13
176
     1
 44
0.0
176
     1
173
     0
176
     1
  0
VISUALSTYLE
  5
2E
102
{ACAD_REACTORS
330
2A
102
}
330
2A
100
AcDbVisualStyle
  2
GouraudWithEdges
 70
     3
177
     2
291
     1
 71
     2
176
     1
 72
     2
176
     1
 73
     1
176
     1
 90
        2
176
     1
 40
-0.6
176
     1
 41
30.0
176
     1
 62
     5
 63
     7
421
 16777215
176
     1
 74
     1
176
     1
 91
        4
176
     1
 64
     7
176
     1
 65
   257
176
     1
 75
     1
176
     1
175
     1
176
     1
 42
1.0
176
     1
 92
        0
176
     1
 66
   257
176
     1
 43
1.0
176
     1
 76
     1
176
     1
 77
     6
176
     1
 78
     2
176
     1
 67
     7
176
     1
 79
     5
176
     1
170
     0
176
     1
171
     0
176
     1
290
     0
176
     1
 93
       13
176
     1
 44
0.0
176
     1
173
     0
176
     1
  0
VISUALSTYLE
  5
38
102
{ACAD_REACTORS
330
2A
102
}
330
2A
100
AcDbVisualStyle
  2
Linepattern
 70
    14
177
     2
291
     1
 71
     2
176
     1
 72
     2
176
     1
 73
     0
176
     1
 90
        0
176
     1
 40
-0.6
176
     1
 41
-30.0
176
     1
 62
     5
 63
     7
421
 16777215
176
     1
 74
     1
176
     1
 91
        4
176
     1
 64
     7
176
     1
 65
   257
176
     1
 75
     7
176
     1
175
     7
176
     1
 42
1.0
176
     1
 92
        8
176
     1
 66
     7
176
     1
 43
1.0
176
     1
 76
     1
176
     1
 77
     6
176
     1
 78
     2
176
     1
 67
     7
176
     1
 79
     5
176
     1
170
     0
176
     1
171
     0
176
     1
290
     0
176
     1
 93
        1
176
     1
 44
0.0
176
     1
173
     0
176
     1
  0
VISUALSTYLE
  5
33
102
{ACAD_REACTORS
330
2A
102
}
330
2A
100
AcDbVisualStyle
  2
Realistic
 70
     8
177
     2
291
     0
 71
     2
176
     1
 72
     2
176
     1
 73
     0
176
     1
 90
        0
176
     1
 40
-0.6
176
     1
 41
-30.0
176
     1
 62
     5
 63
     7
421
 16777215
176
     1
 74
     1
176
     1
 91
        0
176
     1
 64
     7
176
     1
 65
   257
176
     1
 75
     1
176
     1
175
     1
176
     1
 42
1.0
176
     1
 92
        8
176
     1
 66
     8
424
  7895160
176
     1
 43
1.0
176
     1
 76
     1
176
     1
 77
     6
176
     1
 78
     2
176
     1
 67
     7
176
     1
 79
     5
176
     1
170
     0
176
     1
171
     0
176
     1
290
     0
176
     1
 93
       13
176
     1
 44
0.0
176
     1
173
     0
176
     1
  0
VISUALSTYLE
  5
37
102
{ACAD_REACTORS
330
2A
102
}
330
2A
100
AcDbVisualStyle
  2
Thicken
 70
    13
177
     2
291
     1
 71
     2
176
     1
 72
     2
176
     1
 73
     0
176
     1
 90
        0
176
     1
 40
-0.6
176
     1
 41
-30.0
176
     1
 62
     5
 63
     7
421
 16777215
176
     1
 74
     1
176
     1
 91
        4
176
     1
 64
     7
176
     1
 65
   257
176
     1
 75
     1
176
     1
175
     1
176
     1
 42
1.0
176
     1
 92
       12
176
     1
 66
     7
176
     1
 43
1.0
176
     1
 76
     1
176
     1
 77
     6
176
     1
 78
     2
176
     1
 67
     7
176
     1
 79
     5
176
     1
170
     0
176
     1
171
     0
176
     1
290
     0
176
     1
 93
        1
176
     1
 44
0.0
176
     1
173
     0
176
     1
  0
ENDSEC
  0
EOF
