  0
SECTION
  2
HEADER
  9
$ACADVER
  1
AC1024
  9
$ACADMAINTVER
 70
     6
  9
$DWGCODEPAGE
  3
UNDEFINED
  9
$INSBASE
 10
0.0
 20
0.0
 30
0.0
  9
$EXTMIN
 10
1.000000000000000E+20
 20
1.000000000000000E+20
 30
1.000000000000000E+20
  9
$EXTMAX
 10
-1.000000000000000E+20
 20
-1.000000000000000E+20
 30
-1.000000000000000E+20
  9
$LIMMIN
 10
0.0
 20
0.0
  9
$LIMMAX
 10
12.0
 20
9.0
  9
$ORTHOMODE
 70
     0
  9
$REGENMODE
 70
     1
  9
$FILLMODE
 70
     1
  9
$QTEXTMODE
 70
     0
  9
$MIRRTEXT
 70
     1
  9
$LTSCALE
 40
1.0
  9
$ATTMODE
 70
     1
  9
$TEXTSIZE
 40
0.2
  9
$TRACEWID
 40
0.05
  9
$TEXTSTYLE
  7
Standard
  9
$CLAYER
  8
0
  9
$CELTYPE
  6
ByLayer
  9
$CECOLOR
 62
   256
  9
$CELTSCALE
 40
1.0
  9
$DISPSILH
 70
     0
  9
$DIMSCALE
 40
1.0
  9
$DIMASZ
 40
0.18
  9
$DIMEXO
 40
0.0625
  9
$DIMDLI
 40
0.38
  9
$DIMRND
 40
0.0
  9
$DIMDLE
 40
0.0
  9
$DIMEXE
 40
0.18
  9
$DIMTP
 40
0.0
  9
$DIMTM
 40
0.0
  9
$DIMTXT
 40
0.18
  9
$DIMCEN
 40
0.09
  9
$DIMTSZ
 40
0.0
  9
$DIMTOL
 70
     0
  9
$DIMLIM
 70
     0
  9
$DIMTIH
 70
     1
  9
$DIMTOH
 70
     1
  9
$DIMSE1
 70
     0
  9
$DIMSE2
 70
     0
  9
$DIMTAD
 70
     0
  9
$DIMZIN
 70
     0
  9
$DIMBLK
  1

  9
$DIMASO
 70
     1
  9
$DIMSHO
 70
     1
  9
$DIMPOST
  1

  9
$DIMAPOST
  1

  9
$DIMALT
 70
     0
  9
$DIMALTD
 70
     2
  9
$DIMALTF
 40
25.4
  9
$DIMLFAC
 40
1.0
  9
$DIMTOFL
 70
     0
  9
$DIMTVP
 40
0.0
  9
$DIMTIX
 70
     0
  9
$DIMSOXD
 70
     0
  9
$DIMSAH
 70
     0
  9
$DIMBLK1
  1

  9
$DIMBLK2
  1

  9
$DIMSTYLE
  2
Standard
  9
$DIMCLRD
 70
     0
  9
$DIMCLRE
 70
     0
  9
$DIMCLRT
 70
     0
  9
$DIMTFAC
 40
1.0
  9
$DIMGAP
 40
0.09
  9
$DIMJUST
 70
     0
  9
$DIMSD1
 70
     0
  9
$DIMSD2
 70
     0
  9
$DIMTOLJ
 70
     1
  9
$DIMTZIN
 70
     0
  9
$DIMALTZ
 70
     0
  9
$DIMALTTZ
 70
     0
  9
$DIMUPT
 70
     0
  9
$DIMDEC
 70
     4
  9
$DIMTDEC
 70
     4
  9
$DIMALTU
 70
     2
  9
$DIMALTTD
 70
     2
  9
$DIMTXSTY
  7
Standard
  9
$DIMAUNIT
 70
     0
  9
$DIMADEC
 70
     0
  9
$DIMALTRND
 40
0.0
  9
$DIMAZIN
 70
     0
  9
$DIMDSEP
 70
    46
  9
$DIMATFIT
 70
     3
  9
$DIMFRAC
 70
     0
  9
$DIMLDRBLK
  1

  9
$DIMLUNIT
 70
     2
  9
$DIMLWD
 70
    -2
  9
$DIMLWE
 70
    -2
  9
$DIMTMOVE
 70
     0
  9
$DIMFXL
 40
1.0
  9
$DIMFXLON
 70
     0
  9
$DIMJOGANG
 40
0.7853981633974483
  9
$DIMTFILL
 70
     0
  9
$DIMTFILLCLR
 70
     0
  9
$DIMARCSYM
 70
     0
  9
$DIMLTYPE
  6

  9
$DIMLTEX1
  6

  9
$DIMLTEX2
  6

  9
$DIMTXTDIRECTION
 70
     0
  9
$LUNITS
 70
     2
  9
$LUPREC
 70
     4
  9
$SKETCHINC
 40
0.1
  9
$FILLETRAD
 40
0.5
  9
$AUNITS
 70
     0
  9
$AUPREC
 70
     0
  9
$MENU
  1
.
  9
$ELEVATION
 40
0.0
  9
$PELEVATION
 40
0.0
  9
$THICKNESS
 40
0.0
  9
$LIMCHECK
 70
     0
  9
$CHAMFERA
 40
0.5
  9
$CHAMFERB
 40
0.5
  9
$CHAMFERC
 40
1.0
  9
$CHAMFERD
 40
0.0
  9
$SKPOLY
 70
     0
  9
$TDCREATE
 40
2457917.599282396
  9
$TDUCREATE
 40
2457917.224282407
  9
$TDUPDATE
 40
2457917.599282396
  9
$TDUUPDATE
 40
2457917.224282407
  9
$TDINDWG
 40
0.0000000116
  9
$TDUSRTIMER
 40
0.0000000116
  9
$USRTIMER
 70
     1
  9
$ANGBASE
 50
0.0
  9
$ANGDIR
 70
     0
  9
$PDMODE
 70
     0
  9
$PDSIZE
 40
0.0
  9
$PLINEWID
 40
0.0
  9
$SPLFRAME
 70
     0
  9
$SPLINETYPE
 70
     6
  9
$SPLINESEGS
 70
     8
  9
$HANDSEED
  5
AA
  9
$SURFTAB1
 70
     6
  9
$SURFTAB2
 70
     6
  9
$SURFTYPE
 70
     6
  9
$SURFU
 70
     6
  9
$SURFV
 70
     6
  9
$UCSBASE
  2

  9
$UCSNAME
  2

  9
$UCSORG
 10
0.0
 20
0.0
 30
0.0
  9
$UCSXDIR
 10
1.0
 20
0.0
 30
0.0
  9
$UCSYDIR
 10
0.0
 20
1.0
 30
0.0
  9
$UCSORTHOREF
  2

  9
$UCSORTHOVIEW
 70
     0
  9
$UCSORGTOP
 10
0.0
 20
0.0
 30
0.0
  9
$UCSORGBOTTOM
 10
0.0
 20
0.0
 30
0.0
  9
$UCSORGLEFT
 10
0.0
 20
0.0
 30
0.0
  9
$UCSORGRIGHT
 10
0.0
 20
0.0
 30
0.0
  9
$UCSORGFRONT
 10
0.0
 20
0.0
 30
0.0
  9
$UCSORGBACK
 10
0.0
 20
0.0
 30
0.0
  9
$PUCSBASE
  2

  9
$PUCSNAME
  2

  9
$PUCSORG
 10
0.0
 20
0.0
 30
0.0
  9
$PUCSXDIR
 10
1.0
 20
0.0
 30
0.0
  9
$PUCSYDIR
 10
0.0
 20
1.0
 30
0.0
  9
$PUCSORTHOREF
  2

  9
$PUCSORTHOVIEW
 70
     0
  9
$PUCSORGTOP
 10
0.0
 20
0.0
 30
0.0
  9
$PUCSORGBOTTOM
 10
0.0
 20
0.0
 30
0.0
  9
$PUCSORGLEFT
 10
0.0
 20
0.0
 30
0.0
  9
$PUCSORGRIGHT
 10
0.0
 20
0.0
 30
0.0
  9
$PUCSORGFRONT
 10
0.0
 20
0.0
 30
0.0
  9
$PUCSORGBACK
 10
0.0
 20
0.0
 30
0.0
  9
$USERI1
 70
     0
  9
$USERI2
 70
     0
  9
$USERI3
 70
     0
  9
$USERI4
 70
     0
  9
$USERI5
 70
     0
  9
$USERR1
 40
0.0
  9
$USERR2
 40
0.0
  9
$USERR3
 40
0.0
  9
$USERR4
 40
0.0
  9
$USERR5
 40
0.0
  9
$WORLDVIEW
 70
     1
  9
$SHADEDGE
 70
     3
  9
$SHADEDIF
 70
    70
  9
$TILEMODE
 70
     1
  9
$MAXACTVP
 70
    64
  9
$PINSBASE
 10
0.0
 20
0.0
 30
0.0
  9
$PLIMCHECK
 70
     0
  9
$PEXTMIN
 10
1.000000000000000E+20
 20
1.000000000000000E+20
 30
1.000000000000000E+20
  9
$PEXTMAX
 10
-1.000000000000000E+20
 20
-1.000000000000000E+20
 30
-1.000000000000000E+20
  9
$PLIMMIN
 10
0.0
 20
0.0
  9
$PLIMMAX
 10
12.0
 20
9.0
  9
$UNITMODE
 70
     0
  9
$VISRETAIN
 70
     1
  9
$PLINEGEN
 70
     0
  9
$PSLTSCALE
 70
     1
  9
$TREEDEPTH
 70
  3020
  9
$CMLSTYLE
  2
Standard
  9
$CMLJUST
 70
     0
  9
$CMLSCALE
 40
1.0
  9
$PROXYGRAPHICS
 70
     1
  9
$MEASUREMENT
 70
     0
  9
$CELWEIGHT
370
    -1
  9
$ENDCAPS
280
     0
  9
$JOINSTYLE
280
     0
  9
$LWDISPLAY
290
     1
  9
$INSUNITS
 70
     1
  9
$HYPERLINKBASE
  1

  9
$STYLESHEET
  1

  9
$XEDIT
290
     1
  9
$CEPSNTYPE
380
     0
  9
$PSTYLEMODE
290
     1
  9
$FINGERPRINTGUID
  2
{2B15C7BB-8E9B-2586-3303-D8F50191C87E}
  9
$VERSIONGUID
  2
{FAEB1C32-E019-11D5-929B-00C0DF256EC4}
  9
$EXTNAMES
290
     1
  9
$PSVPSCALE
 40
0.0
  9
$OLESTARTUP
290
     0
  9
$SORTENTS
280
   127
  9
$INDEXCTL
280
     0
  9
$HIDETEXT
280
     1
  9
$XCLIPFRAME
280
     2
  9
$HALOGAP
280
     0
  9
$OBSCOLOR
 70
   257
  9
$OBSLTYPE
280
     0
  9
$INTERSECTIONDISPLAY
280
     0
  9
$INTERSECTIONCOLOR
 70
   257
  9
$DIMASSOC
280
     2
  9
$PROJECTNAME
  1

  9
$CAMERADISPLAY
290
     0
  9
$LENSLENGTH
 40
50.0
  9
$CAMERAHEIGHT
 40
0.0
  9
$STEPSPERSEC
 40
2.0
  9
$STEPSIZE
 40
6.0
  9
$3DDWFPREC
 40
2.0
  9
$PSOLWIDTH
 40
0.25
  9
$PSOLHEIGHT
 40
4.0
  9
$LOFTANG1
 40
1.570796326794897
  9
$LOFTANG2
 40
1.570796326794897
  9
$LOFTMAG1
 40
0.0
  9
$LOFTMAG2
 40
0.0
  9
$LOFTPARAM
 70
     7
  9
$LOFTNORMALS
280
     1
  9
$LATITUDE
 40
37.795
  9
$LONGITUDE
 40
-122.394
  9
$NORTHDIRECTION
 40
0.0
  9
$TIMEZONE
 70
 -8000
  9
$LIGHTGLYPHDISPLAY
280
     1
  9
$TILEMODELIGHTSYNCH
280
     1
  9
$CMATERIAL
347
3C
  9
$SOLIDHIST
280
     1
  9
$SHOWHIST
280
     1
  9
$DWFFRAME
280
     2
  9
$DGNFRAME
280
     2
  9
$REALWORLDSCALE
290
     1
  9
$INTERFERECOLOR
 62
   256
  9
$CSHADOW
280
     0
  9
$SHADOWPLANELOCATION
 40
0.0
  0
ENDSEC
  0
SECTION
  2
CLASSES
  0
CLASS
  1
ACDBDICTIONARYWDFLT
  2
AcDbDictionaryWithDefault
  3
ObjectDBX Classes
 90
        0
 91
        4
280
     0
281
     0
  0
CLASS
  1
VISUALSTYLE
  2
AcDbVisualStyle
  3
ObjectDBX Classes
 90
     4095
 91
        4
280
     0
281
     0
  0
CLASS
  1
MATERIAL
  2
AcDbMaterial
  3
ObjectDBX Classes
 90
     1153
 91
        4
280
     0
281
     0
  0
CLASS
  1
SUN
  2
AcDbSun
  3
SCENEOE
 90
     1024
 91
        4
280
     0
281
     0
  0
ENDSEC
  0
SECTION
  2
TABLES
  0
TABLE
  2
VPORT
  5
8
330
0
100
AcDbSymbolTable
 70
     1
  0
VPORT
  5
29
330
8
100
AcDbSymbolTableRecord
100
AcDbViewportTableRecord
  2
*Active
 70
     0
 10
0.0
 20
0.0
 11
1.0
 21
1.0
 12
0.0
 22
0.0
 13
0.0
 23
0.0
 14
0.5
 24
0.5
 15
0.5
 25
0.5
 16
0.0
 26
0.0
 36
1.0
 17
91.00082462281999
 27
-128.4993055234307
 37
0.0
 40
256.9986110468615
 41
0.7081814508812795
 42
50.0
 43
0.0
 44
0.0
 50
0.0
 51
0.0
 71
     0
 72
   100
 73
     1
 74
     3
 75
     0
 76
     0
 77
     0
 78
     0
281
     0
 65
     1
110
0.0
120
0.0
130
0.0
111
1.0
121
0.0
131
0.0
112
0.0
122
1.0
132
0.0
 79
     0
146
0.0
 60
     3
 61
     5
292
     1
282
     1
141
0.0
142
0.0
 63
   250
361
3F
  0
ENDTAB
  0
TABLE
  2
LTYPE
  5
5
330
0
100
AcDbSymbolTable
 70
     1
  0
LTYPE
  5
14
330
5
100
AcDbSymbolTableRecord
100
AcDbLinetypeTableRecord
  2
ByBlock
 70
     0
  3

 72
    65
 73
     0
 40
0.0
  0
LTYPE
  5
15
330
5
100
AcDbSymbolTableRecord
100
AcDbLinetypeTableRecord
  2
ByLayer
 70
     0
  3

 72
    65
 73
     0
 40
0.0
  0
LTYPE
  5
16
330
5
100
AcDbSymbolTableRecord
100
AcDbLinetypeTableRecord
  2
Continuous
 70
     0
  3
Solid line
 72
    65
 73
     0
 40
0.0
  0
ENDTAB
  0
TABLE
  2
LAYER
  5
2
330
0
100
AcDbSymbolTable
 70
     2
  0
LAYER
  5
10
330
2
100
AcDbSymbolTableRecord
100
AcDbLayerTableRecord
  2
0
 70
     0
 62
     7
  6
Continuous
370
    -3
390
F
347
3E
  0
LAYER
  5
40
330
2
100
AcDbSymbolTableRecord
100
AcDbLayerTableRecord
  2
_U+30EC_U+30A4_U+30E4_U+30FC 1
 70
     0
 62
     7
  6
Continuous
370
    -3
390
F
347
3E
  0
ENDTAB
  0
TABLE
  2
STYLE
  5
3
330
0
100
AcDbSymbolTable
 70
     1
  0
STYLE
  5
11
330
3
100
AcDbSymbolTableRecord
100
AcDbTextStyleTableRecord
  2
Standard
 70
     0
 40
0.0
 41
1.0
 50
0.0
 71
     0
 42
0.2
  3
txt
  4

  0
ENDTAB
  0
TABLE
  2
VIEW
  5
6
330
0
100
AcDbSymbolTable
 70
     0
  0
ENDTAB
  0
TABLE
  2
UCS
  5
7
330
0
100
AcDbSymbolTable
 70
     0
  0
ENDTAB
  0
TABLE
  2
APPID
  5
9
330
0
100
AcDbSymbolTable
 70
     1
  0
APPID
  5
12
330
9
100
AcDbSymbolTableRecord
100
AcDbRegAppTableRecord
  2
ACAD
 70
     0
  0
ENDTAB
  0
TABLE
  2
DIMSTYLE
  5
A
330
0
100
AcDbSymbolTable
 70
     1
100
AcDbDimStyleTable
  0
DIMSTYLE
105
27
330
A
100
AcDbSymbolTableRecord
100
AcDbDimStyleTableRecord
  2
Standard
 70
     0
178
     0
340
11
  0
ENDTAB
  0
TABLE
  2
BLOCK_RECORD
  5
1
330
0
100
AcDbSymbolTable
 70
     6
  0
BLOCK_RECORD
  5
1F
330
1
100
AcDbSymbolTableRecord
100
AcDbBlockTableRecord
  2
*Model_Space
340
22
 70
     0
280
     1
281
     0
  0
BLOCK_RECORD
  5
1B
330
1
100
AcDbSymbolTableRecord
100
AcDbBlockTableRecord
  2
*Paper_Space
340
1E
 70
     0
280
     1
281
     0
  0
BLOCK_RECORD
  5
23
330
1
100
AcDbSymbolTableRecord
100
AcDbBlockTableRecord
  2
*Paper_Space0
340
26
 70
     0
280
     1
281
     0
  0
BLOCK_RECORD
  5
5F
330
1
100
AcDbSymbolTableRecord
100
AcDbBlockTableRecord
  2
block 2
340
0
102
{BLKREFS
331
60
102
}
 70
     0
280
     1
281
     0
  0
BLOCK_RECORD
  5
66
330
1
100
AcDbSymbolTableRecord
100
AcDbBlockTableRecord
  2
block 3
340
0
102
{BLKREFS
331
67
102
}
 70
     0
280
     1
281
     0
  0
BLOCK_RECORD
  5
76
330
1
100
AcDbSymbolTableRecord
100
AcDbBlockTableRecord
  2
block 4
340
0
102
{BLKREFS
331
77
102
}
 70
     0
280
     1
281
     0
  0
BLOCK_RECORD
  5
8B
330
1
100
AcDbSymbolTableRecord
100
AcDbBlockTableRecord
  2
block 5
340
0
102
{BLKREFS
331
8C
102
}
 70
     0
280
     1
281
     0
  0
BLOCK_RECORD
  5
A0
330
1
100
AcDbSymbolTableRecord
100
AcDbBlockTableRecord
  2
block 6
340
0
102
{BLKREFS
331
A1
102
}
 70
     0
280
     1
281
     0
  0
ENDTAB
  0
ENDSEC
  0
SECTION
  2
BLOCKS
  0
BLOCK
  5
20
330
1F
100
AcDbEntity
  8
0
100
AcDbBlockBegin
  2
*Model_Space
 70
     0
 10
0.0
 20
0.0
 30
0.0
  3
*Model_Space
  1

  0
ENDBLK
  5
21
330
1F
100
AcDbEntity
  8
0
100
AcDbBlockEnd
  0
BLOCK
  5
1C
330
1B
100
AcDbEntity
 67
     1
  8
0
100
AcDbBlockBegin
  2
*Paper_Space
 70
     0
 10
0.0
 20
0.0
 30
0.0
  3
*Paper_Space
  1

  0
ENDBLK
  5
1D
330
1B
100
AcDbEntity
 67
     1
  8
0
100
AcDbBlockEnd
  0
BLOCK
  5
24
330
23
100
AcDbEntity
  8
0
100
AcDbBlockBegin
  2
*Paper_Space0
 70
     0
 10
0.0
 20
0.0
 30
0.0
  3
*Paper_Space0
  1

  0
ENDBLK
  5
25
330
23
100
AcDbEntity
  8
0
100
AcDbBlockEnd
  0
BLOCK
  5
61
330
5F
100
AcDbEntity
  8
0
100
AcDbBlockBegin
  2
block 2
 70
     0
 10
0.0
 20
0.0
 30
0.0
  3
block 2
  1

  0
SPLINE
  5
63
330
5F
100
AcDbEntity
  8
_U+30EC_U+30A4_U+30E4_U+30FC 1
370
     0
100
AcDbSpline
210
0.0
220
0.0
230
1.0
 70
    11
 71
     3
 72
    32
 73
    28
 74
     0
 42
0.0000000001
 43
0.0000000001
 12
1.0
 22
0.0
 32
0.0
 13
1.0
 23
0.0
 33
0.0
 40
0.0
 40
0.0
 40
0.0
 40
0.0
 40
1.0
 40
1.0
 40
1.0
 40
2.0
 40
2.0
 40
2.0
 40
3.0
 40
3.0
 40
3.0
 40
4.0
 40
4.0
 40
4.0
 40
5.0
 40
5.0
 40
5.0
 40
6.0
 40
6.0
 40
6.0
 40
7.0
 40
7.0
 40
7.0
 40
8.0
 40
8.0
 40
8.0
 40
9.0
 40
9.0
 40
9.0
 40
9.0
 10
104.7185004078482
 20
-129.0367404191297
 30
0.0
 10
104.7185004078482
 20
-129.5528157228201
 30
0.0
 10
104.16452905382
 20
-129.5614284615333
 30
0.0
 10
103.9502441146374
 20
-129.5614284615333
 30
0.0
 10
103.7201117362227
 20
-129.5614284615333
 30
0.0
 10
103.0724337849958
 20
-129.5421359268159
 30
0.0
 10
103.0724337849958
 20
-128.9984998592434
 30
0.0
 10
103.0724337849958
 20
-128.8252115563354
 30
0.0
 10
103.1427137328949
 20
-128.5797485030113
 30
0.0
 10
103.474820937673
 20
-128.5418524526736
 30
0.0
 10
103.474820937673
 20
-128.5418524526736
 30
0.0
 10
103.474820937673
 20
-128.755448372759
 30
0.0
 10
103.474820937673
 20
-128.755448372759
 30
0.0
 10
103.4176323526178
 20
-128.7659559139891
 30
0.0
 10
103.2694932467521
 20
-128.7976507924534
 30
0.0
 10
103.2694932467521
 20
-129.0005669165346
 30
0.0
 10
103.2694932467521
 20
-129.2927110136838
 30
0.0
 10
103.5974663369479
 20
-129.3326741213127
 30
0.0
 10
103.8021050087717
 20
-129.3454209746081
 30
0.0
 10
103.724245850805
 20
-129.2524033965063
 30
0.0
 10
103.6649902084588
 20
-129.1845350154469
 30
0.0
 10
103.6649902084588
 20
-129.0026339738257
 30
0.0
 10
103.6649902084588
 20
-128.8227999894957
 30
0.0
 10
103.7731662066956
 20
-128.520492860665
 30
0.0
 10
104.178998454858
 20
-128.520492860665
 30
0.0
 10
104.4987033158892
 20
-128.520492860665
 30
0.0
 10
104.7185004078482
 20
-128.7196193797125
 30
0.0
 10
104.7185004078482
 20
-129.0367404191297
 30
0.0
  0
SPLINE
  5
64
330
5F
100
AcDbEntity
  8
_U+30EC_U+30A4_U+30E4_U+30FC 1
370
     0
100
AcDbSpline
210
0.0
220
0.0
230
1.0
 70
    11
 71
     3
 72
    17
 73
    13
 74
     0
 42
0.0000000001
 43
0.0000000001
 12
1.0
 22
0.0
 32
0.0
 13
1.0
 23
0.0
 33
0.0
 40
0.0
 40
0.0
 40
0.0
 40
0.0
 40
1.0
 40
1.0
 40
1.0
 40
2.0
 40
2.0
 40
2.0
 40
3.0
 40
3.0
 40
3.0
 40
4.0
 40
4.0
 40
4.0
 40
4.0
 10
103.8592935938268
 20
-129.019859451252
 30
0.0
 10
103.8592935938268
 20
-129.2820312176795
 30
0.0
 10
104.0708224566212
 20
-129.3199272680172
 30
0.0
 10
104.1872666840226
 20
-129.3199272680172
 30
0.0
 10
104.3629665537704
 20
-129.3199272680172
 30
0.0
 10
104.5262640797712
 20
-129.2248426326244
 30
0.0
 10
104.5262640797712
 20
-129.040874533712
 30
0.0
 10
104.5262640797712
 20
-128.9202961917283
 30
0.0
 10
104.4670084374249
 20
-128.7447685767548
 30
0.0
 10
104.1810655121492
 20
-128.7447685767548
 30
0.0
 10
103.9571343056079
 20
-128.7447685767548
 30
0.0
 10
103.8592935938268
 20
-128.8841226891331
 30
0.0
 10
103.8592935938268
 20
-129.019859451252
 30
0.0
  0
HATCH
  5
65
330
5F
100
AcDbEntity
  8
_U+30EC_U+30A4_U+30E4_U+30FC 1
 62
     7
420
 16777215
100
AcDbHatch
 10
0.0
 20
0.0
 30
0.0
210
0.0
220
0.0
230
1.0
  2
SOLID
 70
     1
 71
     0
 91
        2
 92
        1
 93
        1
 72
     4
 94
        3
 73
     0
 74
     1
 95
       32
 96
       28
 40
0.0
 40
0.0
 40
0.0
 40
0.0
 40
1.0
 40
1.0
 40
1.0
 40
2.0
 40
2.0
 40
2.0
 40
3.0
 40
3.0
 40
3.0
 40
4.0
 40
4.0
 40
4.0
 40
5.0
 40
5.0
 40
5.0
 40
6.0
 40
6.0
 40
6.0
 40
7.0
 40
7.0
 40
7.0
 40
8.0
 40
8.0
 40
8.0
 40
9.0
 40
9.0
 40
9.0
 40
9.0
 10
104.7185004078482
 20
-129.0367404191297
 10
104.7185004078482
 20
-129.5528157228201
 10
104.16452905382
 20
-129.5614284615333
 10
103.9502441146374
 20
-129.5614284615333
 10
103.7201117362227
 20
-129.5614284615333
 10
103.0724337849958
 20
-129.5421359268159
 10
103.0724337849958
 20
-128.9984998592434
 10
103.0724337849958
 20
-128.8252115563354
 10
103.1427137328949
 20
-128.5797485030113
 10
103.474820937673
 20
-128.5418524526736
 10
103.474820937673
 20
-128.5418524526736
 10
103.474820937673
 20
-128.755448372759
 10
103.474820937673
 20
-128.755448372759
 10
103.4176323526178
 20
-128.7659559139891
 10
103.2694932467521
 20
-128.7976507924534
 10
103.2694932467521
 20
-129.0005669165346
 10
103.2694932467521
 20
-129.2927110136838
 10
103.5974663369479
 20
-129.3326741213127
 10
103.8021050087717
 20
-129.3454209746081
 10
103.724245850805
 20
-129.2524033965063
 10
103.6649902084588
 20
-129.1845350154469
 10
103.6649902084588
 20
-129.0026339738257
 10
103.6649902084588
 20
-128.8227999894957
 10
103.7731662066956
 20
-128.520492860665
 10
104.178998454858
 20
-128.520492860665
 10
104.4987033158892
 20
-128.520492860665
 10
104.7185004078482
 20
-128.7196193797125
 10
104.7185004078482
 20
-129.0367404191297
 97
        0
 97
        0
 92
        1
 93
        1
 72
     4
 94
        3
 73
     0
 74
     1
 95
       17
 96
       13
 40
0.0
 40
0.0
 40
0.0
 40
0.0
 40
1.0
 40
1.0
 40
1.0
 40
2.0
 40
2.0
 40
2.0
 40
3.0
 40
3.0
 40
3.0
 40
4.0
 40
4.0
 40
4.0
 40
4.0
 10
103.8592935938268
 20
-129.019859451252
 10
103.8592935938268
 20
-129.2820312176795
 10
104.0708224566212
 20
-129.3199272680172
 10
104.1872666840226
 20
-129.3199272680172
 10
104.3629665537704
 20
-129.3199272680172
 10
104.5262640797712
 20
-129.2248426326244
 10
104.5262640797712
 20
-129.040874533712
 10
104.5262640797712
 20
-128.9202961917283
 10
104.4670084374249
 20
-128.7447685767548
 10
104.1810655121492
 20
-128.7447685767548
 10
103.9571343056079
 20
-128.7447685767548
 10
103.8592935938268
 20
-128.8841226891331
 10
103.8592935938268
 20
-129.019859451252
 97
        0
 97
        0
 75
     2
 76
     1
 98
        0
  0
ENDBLK
  5
62
330
5F
100
AcDbEntity
  8
0
100
AcDbBlockEnd
  0
BLOCK
  5
68
330
66
100
AcDbEntity
  8
0
100
AcDbBlockBegin
  2
block 3
 70
     0
 10
0.0
 20
0.0
 30
0.0
  3
block 3
  1

  0
SPLINE
  5
6A
330
66
100
AcDbEntity
  8
_U+30EC_U+30A4_U+30E4_U+30FC 1
370
     0
100
AcDbSpline
210
0.0
220
0.0
230
1.0
 70
    11
 71
     3
 72
    26
 73
    22
 74
     0
 42
0.0000000001
 43
0.0000000001
 12
1.0
 22
0.0
 32
0.0
 13
1.0
 23
0.0
 33
0.0
 40
0.0
 40
0.0
 40
0.0
 40
0.0
 40
1.0
 40
1.0
 40
1.0
 40
2.0
 40
2.0
 40
2.0
 40
3.0
 40
3.0
 40
3.0
 40
4.0
 40
4.0
 40
4.0
 40
5.0
 40
5.0
 40
5.0
 40
6.0
 40
6.0
 40
6.0
 40
7.0
 40
7.0
 40
7.0
 40
7.0
 10
104.6675129946665
 20
-122.7768296676565
 30
0.0
 10
104.6675129946665
 20
-122.7768296676565
 30
0.0
 10
103.5637044011924
 20
-122.7768296676565
 30
0.0
 10
103.5637044011924
 20
-122.7768296676565
 30
0.0
 10
103.5637044011924
 20
-122.7768296676565
 30
0.0
 10
103.5637044011924
 20
-123.1068698151434
 30
0.0
 10
103.5637044011924
 20
-123.1068698151434
 30
0.0
 10
103.5637044011924
 20
-123.1068698151434
 30
0.0
 10
103.4155652953267
 20
-123.1068698151434
 30
0.0
 10
103.4155652953267
 20
-123.1068698151434
 30
0.0
 10
103.4004068751916
 20
-122.7747626103653
 30
0.0
 10
103.2377983682878
 20
-122.7282538213145
 30
0.0
 10
103.1234211981775
 20
-122.6986260001413
 30
0.0
 10
103.1234211981775
 20
-122.6986260001413
 30
0.0
 10
103.1234211981775
 20
-122.5525539515667
 30
0.0
 10
103.1234211981775
 20
-122.5525539515667
 30
0.0
 10
103.1234211981775
 20
-122.5525539515667
 30
0.0
 10
104.6675129946665
 20
-122.5525539515667
 30
0.0
 10
104.6675129946665
 20
-122.5525539515667
 30
0.0
 10
104.6675129946665
 20
-122.5525539515667
 30
0.0
 10
104.6675129946665
 20
-122.7768296676565
 30
0.0
 10
104.6675129946665
 20
-122.7768296676565
 30
0.0
  0
HATCH
  5
6B
330
66
100
AcDbEntity
  8
_U+30EC_U+30A4_U+30E4_U+30FC 1
 62
     7
420
 16777215
100
AcDbHatch
 10
0.0
 20
0.0
 30
0.0
210
0.0
220
0.0
230
1.0
  2
SOLID
 70
     1
 71
     0
 91
        1
 92
        1
 93
        1
 72
     4
 94
        3
 73
     0
 74
     1
 95
       26
 96
       22
 40
0.0
 40
0.0
 40
0.0
 40
0.0
 40
1.0
 40
1.0
 40
1.0
 40
2.0
 40
2.0
 40
2.0
 40
3.0
 40
3.0
 40
3.0
 40
4.0
 40
4.0
 40
4.0
 40
5.0
 40
5.0
 40
5.0
 40
6.0
 40
6.0
 40
6.0
 40
7.0
 40
7.0
 40
7.0
 40
7.0
 10
104.6675129946665
 20
-122.7768296676565
 10
104.6675129946665
 20
-122.7768296676565
 10
103.5637044011924
 20
-122.7768296676565
 10
103.5637044011924
 20
-122.7768296676565
 10
103.5637044011924
 20
-122.7768296676565
 10
103.5637044011924
 20
-123.1068698151434
 10
103.5637044011924
 20
-123.1068698151434
 10
103.5637044011924
 20
-123.1068698151434
 10
103.4155652953267
 20
-123.1068698151434
 10
103.4155652953267
 20
-123.1068698151434
 10
103.4004068751916
 20
-122.7747626103653
 10
103.2377983682878
 20
-122.7282538213145
 10
103.1234211981775
 20
-122.6986260001413
 10
103.1234211981775
 20
-122.6986260001413
 10
103.1234211981775
 20
-122.5525539515667
 10
103.1234211981775
 20
-122.5525539515667
 10
103.1234211981775
 20
-122.5525539515667
 10
104.6675129946665
 20
-122.5525539515667
 10
104.6675129946665
 20
-122.5525539515667
 10
104.6675129946665
 20
-122.5525539515667
 10
104.6675129946665
 20
-122.7768296676565
 10
104.6675129946665
 20
-122.7768296676565
 97
        0
 97
        0
 75
     2
 76
     1
 98
        0
  0
POLYLINE
  5
6C
330
66
100
AcDbEntity
  8
_U+30EC_U+30A4_U+30E4_U+30FC 1
370
     0
100
AcDb2dPolyline
 66
     1
 10
0.0
 20
0.0
 30
0.0
  0
VERTEX
  5
6D
330
6C
100
AcDbEntity
  8
_U+30EC_U+30A4_U+30E4_U+30FC 1
370
     0
100
AcDbVertex
100
AcDb2dVertex
 10
104.6675129946665
 20
-121.9913478970195
 30
0.0
  0
VERTEX
  5
6E
330
6C
100
AcDbEntity
  8
_U+30EC_U+30A4_U+30E4_U+30FC 1
370
     0
100
AcDbVertex
100
AcDb2dVertex
 10
104.4160210242432
 20
-121.9913478970195
 30
0.0
  0
VERTEX
  5
6F
330
6C
100
AcDbEntity
  8
_U+30EC_U+30A4_U+30E4_U+30FC 1
370
     0
100
AcDbVertex
100
AcDb2dVertex
 10
104.4160210242432
 20
-121.7395114170478
 30
0.0
  0
VERTEX
  5
70
330
6C
100
AcDbEntity
  8
_U+30EC_U+30A4_U+30E4_U+30FC 1
370
     0
100
AcDbVertex
100
AcDb2dVertex
 10
104.6675129946665
 20
-121.7395114170478
 30
0.0
  0
VERTEX
  5
71
330
6C
100
AcDbEntity
  8
_U+30EC_U+30A4_U+30E4_U+30FC 1
370
     0
100
AcDbVertex
100
AcDb2dVertex
 10
104.6675129946665
 20
-121.9913478970195
 30
0.0
  0
SEQEND
  5
72
330
6C
100
AcDbEntity
  8
_U+30EC_U+30A4_U+30E4_U+30FC 1
370
     0
  0
HATCH
  5
73
330
66
100
AcDbEntity
  8
_U+30EC_U+30A4_U+30E4_U+30FC 1
 62
     7
420
 16777215
100
AcDbHatch
 10
0.0
 20
0.0
 30
0.0
210
0.0
220
0.0
230
1.0
  2
SOLID
 70
     1
 71
     0
 91
        1
 92
        1
 93
        4
 72
     1
 10
104.6675129946665
 20
-121.9913478970195
 11
104.4160210242432
 21
-121.9913478970195
 72
     1
 10
104.4160210242432
 20
-121.9913478970195
 11
104.4160210242432
 21
-121.7395114170478
 72
     1
 10
104.4160210242432
 20
-121.7395114170478
 11
104.6675129946665
 21
-121.7395114170478
 72
     1
 10
104.6675129946665
 20
-121.7395114170478
 11
104.6675129946665
 21
-121.9913478970195
 97
        0
 75
     2
 76
     1
 98
        0
  0
SPLINE
  5
74
330
66
100
AcDbEntity
  8
_U+30EC_U+30A4_U+30E4_U+30FC 1
370
     0
100
AcDbSpline
210
0.0
220
0.0
230
1.0
 70
    11
 71
     3
 72
    53
 73
    49
 74
     0
 42
0.0000000001
 43
0.0000000001
 12
1.0
 22
0.0
 32
0.0
 13
1.0
 23
0.0
 33
0.0
 40
0.0
 40
0.0
 40
0.0
 40
0.0
 40
1.0
 40
1.0
 40
1.0
 40
2.0
 40
2.0
 40
2.0
 40
3.0
 40
3.0
 40
3.0
 40
4.0
 40
4.0
 40
4.0
 40
5.0
 40
5.0
 40
5.0
 40
6.0
 40
6.0
 40
6.0
 40
7.0
 40
7.0
 40
7.0
 40
8.0
 40
8.0
 40
8.0
 40
9.0
 40
9.0
 40
9.0
 40
10.0
 40
10.0
 40
10.0
 40
11.0
 40
11.0
 40
11.0
 40
12.0
 40
12.0
 40
12.0
 40
13.0
 40
13.0
 40
13.0
 40
14.0
 40
14.0
 40
14.0
 40
15.0
 40
15.0
 40
15.0
 40
16.0
 40
16.0
 40
16.0
 40
16.0
 10
104.7185004078482
 20
-121.0222425370188
 30
0.0
 10
104.7185004078482
 20
-121.1004462045339
 30
0.0
 10
104.7012749304219
 20
-121.2020765213488
 30
0.0
 10
104.6378851734933
 20
-121.3037068381637
 30
0.0
 10
104.5283311370624
 20
-121.4769951410717
 30
0.0
 10
104.3967284895258
 20
-121.4983547330803
 30
0.0
 10
104.289241510386
 20
-121.5173027582492
 30
0.0
 10
104.289241510386
 20
-121.5173027582492
 30
0.0
 10
104.289241510386
 20
-121.2950940994505
 30
0.0
 10
104.289241510386
 20
-121.2950940994505
 30
0.0
 10
104.4876790103364
 20
-121.2403170812351
 30
0.0
 10
104.5173068315096
 20
-121.1131930578293
 30
0.0
 10
104.5173068315096
 20
-121.0201754797276
 30
0.0
 10
104.5173068315096
 20
-120.880649112575
 30
0.0
 10
104.4180880815344
 20
-120.7283758921269
 30
0.0
 10
104.1851996267315
 20
-120.7283758921269
 30
0.0
 10
103.9295735417259
 20
-120.7283758921269
 30
0.0
 10
103.8592935938268
 20
-120.908209876457
 30
0.0
 10
103.8592935938268
 20
-121.0287882184407
 30
0.0
 10
103.8592935938268
 20
-121.060483096905
 30
0.0
 10
103.8592935938268
 20
-121.2020765213488
 30
0.0
 10
103.9888291840722
 20
-121.2909599848682
 30
0.0
 10
103.9888291840722
 20
-121.2909599848682
 30
0.0
 10
103.9695366493548
 20
-121.466659854616
 30
0.0
 10
103.9695366493548
 20
-121.466659854616
 30
0.0
 10
103.9695366493548
 20
-121.466659854616
 30
0.0
 10
103.1234211981775
 20
-121.3460815126322
 30
0.0
 10
103.1234211981775
 20
-121.3460815126322
 30
0.0
 10
103.1234211981775
 20
-121.3460815126322
 30
0.0
 10
103.1234211981775
 20
-120.5674899329658
 30
0.0
 10
103.1234211981775
 20
-120.5674899329658
 30
0.0
 10
103.1234211981775
 20
-120.5674899329658
 30
0.0
 10
103.3177245835456
 20
-120.5674899329658
 30
0.0
 10
103.3177245835456
 20
-120.5674899329658
 30
0.0
 10
103.3177245835456
 20
-120.5674899329658
 30
0.0
 10
103.3177245835456
 20
-121.1831284961799
 30
0.0
 10
103.3177245835456
 20
-121.1831284961799
 30
0.0
 10
103.3177245835456
 20
-121.1831284961799
 30
0.0
 10
103.7407823091343
 20
-121.2485853103997
 30
0.0
 10
103.7407823091343
 20
-121.2485853103997
 30
0.0
 10
103.7070203733788
 20
-121.1872626107622
 30
0.0
 10
103.6670572657499
 20
-121.1049248286647
 30
0.0
 10
103.6670572657499
 20
-120.9864135439721
 30
0.0
 10
103.6670572657499
 20
-120.7325100067092
 30
0.0
 10
103.8530924219534
 20
-120.495487437324
 30
0.0
 10
104.1665961111111
 20
-120.495487437324
 30
0.0
 10
104.4835448957541
 20
-120.495487437324
 30
0.0
 10
104.7185004078482
 20
-120.7197631534138
 30
0.0
 10
104.7185004078482
 20
-121.0222425370188
 30
0.0
  0
HATCH
  5
75
330
66
100
AcDbEntity
  8
_U+30EC_U+30A4_U+30E4_U+30FC 1
 62
     7
420
 16777215
100
AcDbHatch
 10
0.0
 20
0.0
 30
0.0
210
0.0
220
0.0
230
1.0
  2
SOLID
 70
     1
 71
     0
 91
        1
 92
        1
 93
        1
 72
     4
 94
        3
 73
     0
 74
     1
 95
       53
 96
       49
 40
0.0
 40
0.0
 40
0.0
 40
0.0
 40
1.0
 40
1.0
 40
1.0
 40
2.0
 40
2.0
 40
2.0
 40
3.0
 40
3.0
 40
3.0
 40
4.0
 40
4.0
 40
4.0
 40
5.0
 40
5.0
 40
5.0
 40
6.0
 40
6.0
 40
6.0
 40
7.0
 40
7.0
 40
7.0
 40
8.0
 40
8.0
 40
8.0
 40
9.0
 40
9.0
 40
9.0
 40
10.0
 40
10.0
 40
10.0
 40
11.0
 40
11.0
 40
11.0
 40
12.0
 40
12.0
 40
12.0
 40
13.0
 40
13.0
 40
13.0
 40
14.0
 40
14.0
 40
14.0
 40
15.0
 40
15.0
 40
15.0
 40
16.0
 40
16.0
 40
16.0
 40
16.0
 10
104.7185004078482
 20
-121.0222425370188
 10
104.7185004078482
 20
-121.1004462045339
 10
104.7012749304219
 20
-121.2020765213488
 10
104.6378851734933
 20
-121.3037068381637
 10
104.5283311370624
 20
-121.4769951410717
 10
104.3967284895258
 20
-121.4983547330803
 10
104.289241510386
 20
-121.5173027582492
 10
104.289241510386
 20
-121.5173027582492
 10
104.289241510386
 20
-121.2950940994505
 10
104.289241510386
 20
-121.2950940994505
 10
104.4876790103364
 20
-121.2403170812351
 10
104.5173068315096
 20
-121.1131930578293
 10
104.5173068315096
 20
-121.0201754797276
 10
104.5173068315096
 20
-120.880649112575
 10
104.4180880815344
 20
-120.7283758921269
 10
104.1851996267315
 20
-120.7283758921269
 10
103.9295735417259
 20
-120.7283758921269
 10
103.8592935938268
 20
-120.908209876457
 10
103.8592935938268
 20
-121.0287882184407
 10
103.8592935938268
 20
-121.060483096905
 10
103.8592935938268
 20
-121.2020765213488
 10
103.9888291840722
 20
-121.2909599848682
 10
103.9888291840722
 20
-121.2909599848682
 10
103.9695366493548
 20
-121.466659854616
 10
103.9695366493548
 20
-121.466659854616
 10
103.9695366493548
 20
-121.466659854616
 10
103.1234211981775
 20
-121.3460815126322
 10
103.1234211981775
 20
-121.3460815126322
 10
103.1234211981775
 20
-121.3460815126322
 10
103.1234211981775
 20
-120.5674899329658
 10
103.1234211981775
 20
-120.5674899329658
 10
103.1234211981775
 20
-120.5674899329658
 10
103.3177245835456
 20
-120.5674899329658
 10
103.3177245835456
 20
-120.5674899329658
 10
103.3177245835456
 20
-120.5674899329658
 10
103.3177245835456
 20
-121.1831284961799
 10
103.3177245835456
 20
-121.1831284961799
 10
103.3177245835456
 20
-121.1831284961799
 10
103.7407823091343
 20
-121.2485853103997
 10
103.7407823091343
 20
-121.2485853103997
 10
103.7070203733788
 20
-121.1872626107622
 10
103.6670572657499
 20
-121.1049248286647
 10
103.6670572657499
 20
-120.9864135439721
 10
103.6670572657499
 20
-120.7325100067092
 10
103.8530924219534
 20
-120.495487437324
 10
104.1665961111111
 20
-120.495487437324
 10
104.4835448957541
 20
-120.495487437324
 10
104.7185004078482
 20
-120.7197631534138
 10
104.7185004078482
 20
-121.0222425370188
 97
        0
 97
        0
 75
     2
 76
     1
 98
        0
  0
ENDBLK
  5
69
330
66
100
AcDbEntity
  8
0
100
AcDbBlockEnd
  0
BLOCK
  5
78
330
76
100
AcDbEntity
  8
0
100
AcDbBlockBegin
  2
block 4
 70
     0
 10
0.0
 20
0.0
 30
0.0
  3
block 4
  1

  0
SPLINE
  5
7A
330
76
100
AcDbEntity
  8
_U+30EC_U+30A4_U+30E4_U+30FC 1
370
     0
100
AcDbSpline
210
0.0
220
0.0
230
1.0
 70
    11
 71
     3
 72
    26
 73
    22
 74
     0
 42
0.0000000001
 43
0.0000000001
 12
1.0
 22
0.0
 32
0.0
 13
1.0
 23
0.0
 33
0.0
 40
0.0
 40
0.0
 40
0.0
 40
0.0
 40
1.0
 40
1.0
 40
1.0
 40
2.0
 40
2.0
 40
2.0
 40
3.0
 40
3.0
 40
3.0
 40
4.0
 40
4.0
 40
4.0
 40
5.0
 40
5.0
 40
5.0
 40
6.0
 40
6.0
 40
6.0
 40
7.0
 40
7.0
 40
7.0
 40
7.0
 10
104.6675129946665
 20
-134.9478352527214
 30
0.0
 10
104.6675129946665
 20
-134.9478352527214
 30
0.0
 10
103.5637044011924
 20
-134.9478352527214
 30
0.0
 10
103.5637044011924
 20
-134.9478352527214
 30
0.0
 10
103.5637044011924
 20
-134.9478352527214
 30
0.0
 10
103.5637044011924
 20
-135.2778754002083
 30
0.0
 10
103.5637044011924
 20
-135.2778754002083
 30
0.0
 10
103.5637044011924
 20
-135.2778754002083
 30
0.0
 10
103.4155652953267
 20
-135.2778754002083
 30
0.0
 10
103.4155652953267
 20
-135.2778754002083
 30
0.0
 10
103.4004068751916
 20
-134.9457681954302
 30
0.0
 10
103.2377983682878
 20
-134.8989148968308
 30
0.0
 10
103.1234211981775
 20
-134.8692870756577
 30
0.0
 10
103.1234211981775
 20
-134.8692870756577
 30
0.0
 10
103.1234211981775
 20
-134.7232150270831
 30
0.0
 10
103.1234211981775
 20
-134.7232150270831
 30
0.0
 10
103.1234211981775
 20
-134.7232150270831
 30
0.0
 10
104.6675129946665
 20
-134.7232150270831
 30
0.0
 10
104.6675129946665
 20
-134.7232150270831
 30
0.0
 10
104.6675129946665
 20
-134.7232150270831
 30
0.0
 10
104.6675129946665
 20
-134.9478352527214
 30
0.0
 10
104.6675129946665
 20
-134.9478352527214
 30
0.0
  0
HATCH
  5
7B
330
76
100
AcDbEntity
  8
_U+30EC_U+30A4_U+30E4_U+30FC 1
 62
     7
420
 16777215
100
AcDbHatch
 10
0.0
 20
0.0
 30
0.0
210
0.0
220
0.0
230
1.0
  2
SOLID
 70
     1
 71
     0
 91
        1
 92
        1
 93
        1
 72
     4
 94
        3
 73
     0
 74
     1
 95
       26
 96
       22
 40
0.0
 40
0.0
 40
0.0
 40
0.0
 40
1.0
 40
1.0
 40
1.0
 40
2.0
 40
2.0
 40
2.0
 40
3.0
 40
3.0
 40
3.0
 40
4.0
 40
4.0
 40
4.0
 40
5.0
 40
5.0
 40
5.0
 40
6.0
 40
6.0
 40
6.0
 40
7.0
 40
7.0
 40
7.0
 40
7.0
 10
104.6675129946665
 20
-134.9478352527214
 10
104.6675129946665
 20
-134.9478352527214
 10
103.5637044011924
 20
-134.9478352527214
 10
103.5637044011924
 20
-134.9478352527214
 10
103.5637044011924
 20
-134.9478352527214
 10
103.5637044011924
 20
-135.2778754002083
 10
103.5637044011924
 20
-135.2778754002083
 10
103.5637044011924
 20
-135.2778754002083
 10
103.4155652953267
 20
-135.2778754002083
 10
103.4155652953267
 20
-135.2778754002083
 10
103.4004068751916
 20
-134.9457681954302
 10
103.2377983682878
 20
-134.8989148968308
 10
103.1234211981775
 20
-134.8692870756577
 10
103.1234211981775
 20
-134.8692870756577
 10
103.1234211981775
 20
-134.7232150270831
 10
103.1234211981775
 20
-134.7232150270831
 10
103.1234211981775
 20
-134.7232150270831
 10
104.6675129946665
 20
-134.7232150270831
 10
104.6675129946665
 20
-134.7232150270831
 10
104.6675129946665
 20
-134.7232150270831
 10
104.6675129946665
 20
-134.9478352527214
 10
104.6675129946665
 20
-134.9478352527214
 97
        0
 97
        0
 75
     2
 76
     1
 98
        0
  0
ENDBLK
  5
79
330
76
100
AcDbEntity
  8
0
100
AcDbBlockEnd
  0
BLOCK
  5
8D
330
8B
100
AcDbEntity
  8
0
100
AcDbBlockBegin
  2
block 5
 70
     0
 10
0.0
 20
0.0
 30
0.0
  3
block 5
  1

  0
SPLINE
  5
8F
330
8B
100
AcDbEntity
  8
_U+30EC_U+30A4_U+30E4_U+30FC 1
370
     0
100
AcDbSpline
210
0.0
220
0.0
230
1.0
 70
    11
 71
     3
 72
    26
 73
    22
 74
     0
 42
0.0000000001
 43
0.0000000001
 12
1.0
 22
0.0
 32
0.0
 13
1.0
 23
0.0
 33
0.0
 40
0.0
 40
0.0
 40
0.0
 40
0.0
 40
1.0
 40
1.0
 40
1.0
 40
2.0
 40
2.0
 40
2.0
 40
3.0
 40
3.0
 40
3.0
 40
4.0
 40
4.0
 40
4.0
 40
5.0
 40
5.0
 40
5.0
 40
6.0
 40
6.0
 40
6.0
 40
7.0
 40
7.0
 40
7.0
 40
7.0
 10
85.28885089013612
 20
-121.5359062738695
 30
0.0
 10
85.28885089013612
 20
-121.5359062738695
 30
0.0
 10
85.28885089013612
 20
-120.4317531708469
 30
0.0
 10
85.28885089013612
 20
-120.4317531708469
 30
0.0
 10
85.28885089013612
 20
-120.4317531708469
 30
0.0
 10
84.95881074264919
 20
-120.4317531708469
 30
0.0
 10
84.95881074264919
 20
-120.4317531708469
 30
0.0
 10
84.95881074264919
 20
-120.4317531708469
 30
0.0
 10
84.95881074264919
 20
-120.2836140649812
 30
0.0
 10
84.95881074264919
 20
-120.2836140649812
 30
0.0
 10
85.29091794742727
 20
-120.2688001543946
 30
0.0
 10
85.33742673647815
 20
-120.1058471379423
 30
0.0
 10
85.3670545576513
 20
-119.991469967832
 30
0.0
 10
85.3670545576513
 20
-119.991469967832
 30
0.0
 10
85.5131266062259
 20
-119.991469967832
 30
0.0
 10
85.5131266062259
 20
-119.991469967832
 30
0.0
 10
85.5131266062259
 20
-119.991469967832
 30
0.0
 10
85.5131266062259
 20
-121.5359062738695
 30
0.0
 10
85.5131266062259
 20
-121.5359062738695
 30
0.0
 10
85.5131266062259
 20
-121.5359062738695
 30
0.0
 10
85.28885089013612
 20
-121.5359062738695
 30
0.0
 10
85.28885089013612
 20
-121.5359062738695
 30
0.0
  0
HATCH
  5
90
330
8B
100
AcDbEntity
  8
_U+30EC_U+30A4_U+30E4_U+30FC 1
 62
     7
420
 16777215
100
AcDbHatch
 10
0.0
 20
0.0
 30
0.0
210
0.0
220
0.0
230
1.0
  2
SOLID
 70
     1
 71
     0
 91
        1
 92
        1
 93
        1
 72
     4
 94
        3
 73
     0
 74
     1
 95
       26
 96
       22
 40
0.0
 40
0.0
 40
0.0
 40
0.0
 40
1.0
 40
1.0
 40
1.0
 40
2.0
 40
2.0
 40
2.0
 40
3.0
 40
3.0
 40
3.0
 40
4.0
 40
4.0
 40
4.0
 40
5.0
 40
5.0
 40
5.0
 40
6.0
 40
6.0
 40
6.0
 40
7.0
 40
7.0
 40
7.0
 40
7.0
 10
85.28885089013612
 20
-121.5359062738695
 10
85.28885089013612
 20
-121.5359062738695
 10
85.28885089013612
 20
-120.4317531708469
 10
85.28885089013612
 20
-120.4317531708469
 10
85.28885089013612
 20
-120.4317531708469
 10
84.95881074264919
 20
-120.4317531708469
 10
84.95881074264919
 20
-120.4317531708469
 10
84.95881074264919
 20
-120.4317531708469
 10
84.95881074264919
 20
-120.2836140649812
 10
84.95881074264919
 20
-120.2836140649812
 10
85.29091794742727
 20
-120.2688001543946
 10
85.33742673647815
 20
-120.1058471379423
 10
85.3670545576513
 20
-119.991469967832
 10
85.3670545576513
 20
-119.991469967832
 10
85.5131266062259
 20
-119.991469967832
 10
85.5131266062259
 20
-119.991469967832
 10
85.5131266062259
 20
-119.991469967832
 10
85.5131266062259
 20
-121.5359062738695
 10
85.5131266062259
 20
-121.5359062738695
 10
85.5131266062259
 20
-121.5359062738695
 10
85.28885089013612
 20
-121.5359062738695
 10
85.28885089013612
 20
-121.5359062738695
 97
        0
 97
        0
 75
     2
 76
     1
 98
        0
  0
SPLINE
  5
91
330
8B
100
AcDbEntity
  8
_U+30EC_U+30A4_U+30E4_U+30FC 1
370
     0
100
AcDbSpline
210
0.0
220
0.0
230
1.0
 70
    11
 71
     3
 72
    44
 73
    40
 74
     0
 42
0.0000000001
 43
0.0000000001
 12
1.0
 22
0.0
 32
0.0
 13
1.0
 23
0.0
 33
0.0
 40
0.0
 40
0.0
 40
0.0
 40
0.0
 40
1.0
 40
1.0
 40
1.0
 40
2.0
 40
2.0
 40
2.0
 40
3.0
 40
3.0
 40
3.0
 40
4.0
 40
4.0
 40
4.0
 40
5.0
 40
5.0
 40
5.0
 40
6.0
 40
6.0
 40
6.0
 40
7.0
 40
7.0
 40
7.0
 40
8.0
 40
8.0
 40
8.0
 40
9.0
 40
9.0
 40
9.0
 40
10.0
 40
10.0
 40
10.0
 40
11.0
 40
11.0
 40
11.0
 40
12.0
 40
12.0
 40
12.0
 40
13.0
 40
13.0
 40
13.0
 40
13.0
 10
86.60728893234123
 20
-120.9540296464108
 30
0.0
 10
86.38955889767345
 20
-121.1128485482808
 30
0.0
 10
86.2965413195717
 20
-121.1869181012137
 30
0.0
 10
86.24762096368116
 20
-121.3305785829486
 30
0.0
 10
86.24762096368116
 20
-121.3305785829486
 30
0.0
 10
87.02621254334761
 20
-121.3305785829486
 30
0.0
 10
87.02621254334761
 20
-121.3305785829486
 30
0.0
 10
87.02621254334761
 20
-121.3305785829486
 30
0.0
 10
87.02621254334761
 20
-121.5359062738695
 30
0.0
 10
87.02621254334761
 20
-121.5359062738695
 30
0.0
 10
87.02621254334761
 20
-121.5359062738695
 30
0.0
 10
85.99819605054907
 20
-121.5359062738695
 30
0.0
 10
85.99819605054907
 20
-121.5359062738695
 30
0.0
 10
86.02989092901336
 20
-121.1783053625006
 30
0.0
 10
86.0953477432331
 20
-121.1001016949854
 30
0.0
 10
86.48050941848405
 20
-120.8017564259628
 30
0.0
 10
86.7364800130381
 20
-120.6029744164639
 30
0.0
 10
86.80193682725785
 20
-120.5351060354044
 30
0.0
 10
86.80193682725785
 20
-120.397646725543
 30
0.0
 10
86.80193682725785
 20
-120.2791354408504
 30
0.0
 10
86.72993433161614
 20
-120.1482218124109
 30
0.0
 10
86.53321937940837
 20
-120.1482218124109
 30
0.0
 10
86.27311467027201
 20
-120.1482218124109
 30
0.0
 10
86.26450193155888
 20
-120.3786987003741
 30
0.0
 10
86.26036781697658
 20
-120.4951429277755
 30
0.0
 10
86.26036781697658
 20
-120.4951429277755
 30
0.0
 10
86.03609210088682
 20
-120.4951429277755
 30
0.0
 10
86.03609210088682
 20
-120.4951429277755
 30
0.0
 10
86.04470483959994
 20
-120.3680189043698
 30
0.0
 10
86.05538463560421
 20
-120.2560533010992
 30
0.0
 10
86.13565536041054
 20
-120.1375420164066
 30
0.0
 10
86.24555390639
 20
-119.9766560572454
 30
0.0
 10
86.43193357214201
 20
-119.94289412149
 30
0.0
 10
86.54803328999493
 20
-119.94289412149
 30
0.0
 10
86.82536347655756
 20
-119.94289412149
 30
0.0
 10
87.0327582247696
 20
-120.1268622204023
 30
0.0
 10
87.0327582247696
 20
-120.3997137828341
 30
0.0
 10
87.0327582247696
 20
-120.6284681230547
 30
0.0
 10
86.91631399736815
 20
-120.7276868730299
 30
0.0
 10
86.60728893234123
 20
-120.9540296464108
 30
0.0
  0
HATCH
  5
92
330
8B
100
AcDbEntity
  8
_U+30EC_U+30A4_U+30E4_U+30FC 1
 62
     7
420
 16777215
100
AcDbHatch
 10
0.0
 20
0.0
 30
0.0
210
0.0
220
0.0
230
1.0
  2
SOLID
 70
     1
 71
     0
 91
        1
 92
        1
 93
        1
 72
     4
 94
        3
 73
     0
 74
     1
 95
       44
 96
       40
 40
0.0
 40
0.0
 40
0.0
 40
0.0
 40
1.0
 40
1.0
 40
1.0
 40
2.0
 40
2.0
 40
2.0
 40
3.0
 40
3.0
 40
3.0
 40
4.0
 40
4.0
 40
4.0
 40
5.0
 40
5.0
 40
5.0
 40
6.0
 40
6.0
 40
6.0
 40
7.0
 40
7.0
 40
7.0
 40
8.0
 40
8.0
 40
8.0
 40
9.0
 40
9.0
 40
9.0
 40
10.0
 40
10.0
 40
10.0
 40
11.0
 40
11.0
 40
11.0
 40
12.0
 40
12.0
 40
12.0
 40
13.0
 40
13.0
 40
13.0
 40
13.0
 10
86.60728893234123
 20
-120.9540296464108
 10
86.38955889767345
 20
-121.1128485482808
 10
86.2965413195717
 20
-121.1869181012137
 10
86.24762096368116
 20
-121.3305785829486
 10
86.24762096368116
 20
-121.3305785829486
 10
87.02621254334761
 20
-121.3305785829486
 10
87.02621254334761
 20
-121.3305785829486
 10
87.02621254334761
 20
-121.3305785829486
 10
87.02621254334761
 20
-121.5359062738695
 10
87.02621254334761
 20
-121.5359062738695
 10
87.02621254334761
 20
-121.5359062738695
 10
85.99819605054907
 20
-121.5359062738695
 10
85.99819605054907
 20
-121.5359062738695
 10
86.02989092901336
 20
-121.1783053625006
 10
86.0953477432331
 20
-121.1001016949854
 10
86.48050941848405
 20
-120.8017564259628
 10
86.7364800130381
 20
-120.6029744164639
 10
86.80193682725785
 20
-120.5351060354044
 10
86.80193682725785
 20
-120.397646725543
 10
86.80193682725785
 20
-120.2791354408504
 10
86.72993433161614
 20
-120.1482218124109
 10
86.53321937940837
 20
-120.1482218124109
 10
86.27311467027201
 20
-120.1482218124109
 10
86.26450193155888
 20
-120.3786987003741
 10
86.26036781697658
 20
-120.4951429277755
 10
86.26036781697658
 20
-120.4951429277755
 10
86.03609210088682
 20
-120.4951429277755
 10
86.03609210088682
 20
-120.4951429277755
 10
86.04470483959994
 20
-120.3680189043698
 10
86.05538463560421
 20
-120.2560533010992
 10
86.13565536041054
 20
-120.1375420164066
 10
86.24555390639
 20
-119.9766560572454
 10
86.43193357214201
 20
-119.94289412149
 10
86.54803328999493
 20
-119.94289412149
 10
86.82536347655756
 20
-119.94289412149
 10
87.0327582247696
 20
-120.1268622204023
 10
87.0327582247696
 20
-120.3997137828341
 10
87.0327582247696
 20
-120.6284681230547
 10
86.91631399736815
 20
-120.7276868730299
 10
86.60728893234123
 20
-120.9540296464108
 97
        0
 97
        0
 75
     2
 76
     1
 98
        0
  0
ENDBLK
  5
8E
330
8B
100
AcDbEntity
  8
0
100
AcDbBlockEnd
  0
BLOCK
  5
A2
330
A0
100
AcDbEntity
  8
0
100
AcDbBlockBegin
  2
block 6
 70
     0
 10
0.0
 20
0.0
 30
0.0
  3
block 6
  1

  0
SPLINE
  5
A4
330
A0
100
AcDbEntity
  8
_U+30EC_U+30A4_U+30E4_U+30FC 1
370
     0
100
AcDbSpline
210
0.0
220
0.0
230
1.0
 70
    11
 71
     3
 72
    44
 73
    40
 74
     0
 42
0.0000000001
 43
0.0000000001
 12
1.0
 22
0.0
 32
0.0
 13
1.0
 23
0.0
 33
0.0
 40
0.0
 40
0.0
 40
0.0
 40
0.0
 40
1.0
 40
1.0
 40
1.0
 40
2.0
 40
2.0
 40
2.0
 40
3.0
 40
3.0
 40
3.0
 40
4.0
 40
4.0
 40
4.0
 40
5.0
 40
5.0
 40
5.0
 40
6.0
 40
6.0
 40
6.0
 40
7.0
 40
7.0
 40
7.0
 40
8.0
 40
8.0
 40
8.0
 40
9.0
 40
9.0
 40
9.0
 40
10.0
 40
10.0
 40
10.0
 40
11.0
 40
11.0
 40
11.0
 40
12.0
 40
12.0
 40
12.0
 40
13.0
 40
13.0
 40
13.0
 40
13.0
 10
85.43371715529088
 20
-135.232400139803
 30
0.0
 10
85.2159871206231
 20
-135.3915635512216
 30
0.0
 10
85.12296954252135
 20
-135.4652885946059
 30
0.0
 10
85.0740491866308
 20
-135.6092935858894
 30
0.0
 10
85.0740491866308
 20
-135.6092935858894
 30
0.0
 10
85.85264076629726
 20
-135.6092935858894
 30
0.0
 10
85.85264076629726
 20
-135.6092935858894
 30
0.0
 10
85.85264076629726
 20
-135.6092935858894
 30
0.0
 10
85.85264076629726
 20
-135.8146212768102
 30
0.0
 10
85.85264076629726
 20
-135.8146212768102
 30
0.0
 10
85.85264076629726
 20
-135.8146212768102
 30
0.0
 10
84.82462427349871
 20
-135.8146212768102
 30
0.0
 10
84.82462427349871
 20
-135.8146212768102
 30
0.0
 10
84.856319151963
 20
-135.4570203654413
 30
0.0
 10
84.92177596618275
 20
-135.3784721883776
 30
0.0
 10
85.30693764143369
 20
-135.080126919355
 30
0.0
 10
85.56290823598775
 20
-134.8816894194046
 30
0.0
 10
85.62836505020749
 20
-134.8134765287966
 30
0.0
 10
85.62836505020749
 20
-134.6763617284837
 30
0.0
 10
85.62836505020749
 20
-134.5578504437911
 30
0.0
 10
85.55636255456578
 20
-134.4269368153516
 30
0.0
 10
85.35964760235801
 20
-134.4269368153516
 30
0.0
 10
85.09954289322165
 20
-134.4269368153516
 30
0.0
 10
85.09093015450853
 20
-134.6570691937663
 30
0.0
 10
85.08679603992623
 20
-134.7735134211677
 30
0.0
 10
85.08679603992623
 20
-134.7735134211677
 30
0.0
 10
84.86252032383646
 20
-134.7735134211677
 30
0.0
 10
84.86252032383646
 20
-134.7735134211677
 30
0.0
 10
84.87113306254957
 20
-134.6467339073105
 30
0.0
 10
84.88181285855386
 20
-134.5344237944914
 30
0.0
 10
84.96208358336018
 20
-134.4159125097988
 30
0.0
 10
85.07198212933964
 20
-134.2553710601861
 30
0.0
 10
85.25836179509166
 20
-134.2216091244307
 30
0.0
 10
85.37446151294458
 20
-134.2216091244307
 30
0.0
 10
85.6517916995072
 20
-134.2216091244307
 30
0.0
 10
85.85918644771924
 20
-134.405577223343
 30
0.0
 10
85.85918644771924
 20
-134.6784287857749
 30
0.0
 10
85.85918644771924
 20
-134.9071831259954
 30
0.0
 10
85.7427422203178
 20
-135.0064018759706
 30
0.0
 10
85.43371715529088
 20
-135.232400139803
 30
0.0
  0
HATCH
  5
A5
330
A0
100
AcDbEntity
  8
_U+30EC_U+30A4_U+30E4_U+30FC 1
 62
     7
420
 16777215
100
AcDbHatch
 10
0.0
 20
0.0
 30
0.0
210
0.0
220
0.0
230
1.0
  2
SOLID
 70
     1
 71
     0
 91
        1
 92
        1
 93
        1
 72
     4
 94
        3
 73
     0
 74
     1
 95
       44
 96
       40
 40
0.0
 40
0.0
 40
0.0
 40
0.0
 40
1.0
 40
1.0
 40
1.0
 40
2.0
 40
2.0
 40
2.0
 40
3.0
 40
3.0
 40
3.0
 40
4.0
 40
4.0
 40
4.0
 40
5.0
 40
5.0
 40
5.0
 40
6.0
 40
6.0
 40
6.0
 40
7.0
 40
7.0
 40
7.0
 40
8.0
 40
8.0
 40
8.0
 40
9.0
 40
9.0
 40
9.0
 40
10.0
 40
10.0
 40
10.0
 40
11.0
 40
11.0
 40
11.0
 40
12.0
 40
12.0
 40
12.0
 40
13.0
 40
13.0
 40
13.0
 40
13.0
 10
85.43371715529088
 20
-135.232400139803
 10
85.2159871206231
 20
-135.3915635512216
 10
85.12296954252135
 20
-135.4652885946059
 10
85.0740491866308
 20
-135.6092935858894
 10
85.0740491866308
 20
-135.6092935858894
 10
85.85264076629726
 20
-135.6092935858894
 10
85.85264076629726
 20
-135.6092935858894
 10
85.85264076629726
 20
-135.6092935858894
 10
85.85264076629726
 20
-135.8146212768102
 10
85.85264076629726
 20
-135.8146212768102
 10
85.85264076629726
 20
-135.8146212768102
 10
84.82462427349871
 20
-135.8146212768102
 10
84.82462427349871
 20
-135.8146212768102
 10
84.856319151963
 20
-135.4570203654413
 10
84.92177596618275
 20
-135.3784721883776
 10
85.30693764143369
 20
-135.080126919355
 10
85.56290823598775
 20
-134.8816894194046
 10
85.62836505020749
 20
-134.8134765287966
 10
85.62836505020749
 20
-134.6763617284837
 10
85.62836505020749
 20
-134.5578504437911
 10
85.55636255456578
 20
-134.4269368153516
 10
85.35964760235801
 20
-134.4269368153516
 10
85.09954289322165
 20
-134.4269368153516
 10
85.09093015450853
 20
-134.6570691937663
 10
85.08679603992623
 20
-134.7735134211677
 10
85.08679603992623
 20
-134.7735134211677
 10
84.86252032383646
 20
-134.7735134211677
 10
84.86252032383646
 20
-134.7735134211677
 10
84.87113306254957
 20
-134.6467339073105
 10
84.88181285855386
 20
-134.5344237944914
 10
84.96208358336018
 20
-134.4159125097988
 10
85.07198212933964
 20
-134.2553710601861
 10
85.25836179509166
 20
-134.2216091244307
 10
85.37446151294458
 20
-134.2216091244307
 10
85.6517916995072
 20
-134.2216091244307
 10
85.85918644771924
 20
-134.405577223343
 10
85.85918644771924
 20
-134.6784287857749
 10
85.85918644771924
 20
-134.9071831259954
 10
85.7427422203178
 20
-135.0064018759706
 10
85.43371715529088
 20
-135.232400139803
 97
        0
 97
        0
 75
     2
 76
     1
 98
        0
  0
SPLINE
  5
A6
330
A0
100
AcDbEntity
  8
_U+30EC_U+30A4_U+30E4_U+30FC 1
370
     0
100
AcDbSpline
210
0.0
220
0.0
230
1.0
 70
    11
 71
     3
 72
    44
 73
    40
 74
     0
 42
0.0000000001
 43
0.0000000001
 12
1.0
 22
0.0
 32
0.0
 13
1.0
 23
0.0
 33
0.0
 40
0.0
 40
0.0
 40
0.0
 40
0.0
 40
1.0
 40
1.0
 40
1.0
 40
2.0
 40
2.0
 40
2.0
 40
3.0
 40
3.0
 40
3.0
 40
4.0
 40
4.0
 40
4.0
 40
5.0
 40
5.0
 40
5.0
 40
6.0
 40
6.0
 40
6.0
 40
7.0
 40
7.0
 40
7.0
 40
8.0
 40
8.0
 40
8.0
 40
9.0
 40
9.0
 40
9.0
 40
10.0
 40
10.0
 40
10.0
 40
11.0
 40
11.0
 40
11.0
 40
12.0
 40
12.0
 40
12.0
 40
13.0
 40
13.0
 40
13.0
 40
13.0
 10
86.61056177305223
 20
-135.232400139803
 30
0.0
 10
86.39283173838443
 20
-135.3915635512216
 30
0.0
 10
86.2998141602827
 20
-135.4652885946059
 30
0.0
 10
86.25089380439213
 20
-135.6092935858894
 30
0.0
 10
86.25089380439213
 20
-135.6092935858894
 30
0.0
 10
87.0294853840586
 20
-135.6092935858894
 30
0.0
 10
87.0294853840586
 20
-135.6092935858894
 30
0.0
 10
87.0294853840586
 20
-135.6092935858894
 30
0.0
 10
87.0294853840586
 20
-135.8146212768102
 30
0.0
 10
87.0294853840586
 20
-135.8146212768102
 30
0.0
 10
87.0294853840586
 20
-135.8146212768102
 30
0.0
 10
86.00146889126006
 20
-135.8146212768102
 30
0.0
 10
86.00146889126006
 20
-135.8146212768102
 30
0.0
 10
86.03316376972435
 20
-135.4570203654413
 30
0.0
 10
86.0986205839441
 20
-135.3784721883776
 30
0.0
 10
86.48378225919502
 20
-135.080126919355
 30
0.0
 10
86.7397528537491
 20
-134.8816894194046
 30
0.0
 10
86.80520966796884
 20
-134.8134765287966
 30
0.0
 10
86.80520966796884
 20
-134.6763617284837
 30
0.0
 10
86.80520966796884
 20
-134.5578504437911
 30
0.0
 10
86.73320717232711
 20
-134.4269368153516
 30
0.0
 10
86.53649222011936
 20
-134.4269368153516
 30
0.0
 10
86.27638751098299
 20
-134.4269368153516
 30
0.0
 10
86.26777477226986
 20
-134.6570691937663
 30
0.0
 10
86.26364065768756
 20
-134.7735134211677
 30
0.0
 10
86.26364065768756
 20
-134.7735134211677
 30
0.0
 10
86.0393649415978
 20
-134.7735134211677
 30
0.0
 10
86.0393649415978
 20
-134.7735134211677
 30
0.0
 10
86.04797768031092
 20
-134.6467339073105
 30
0.0
 10
86.0586574763152
 20
-134.5344237944914
 30
0.0
 10
86.13892820112152
 20
-134.4159125097988
 30
0.0
 10
86.24882674710099
 20
-134.2553710601861
 30
0.0
 10
86.435206412853
 20
-134.2216091244307
 30
0.0
 10
86.55130613070592
 20
-134.2216091244307
 30
0.0
 10
86.82863631726853
 20
-134.2216091244307
 30
0.0
 10
87.03603106548059
 20
-134.405577223343
 30
0.0
 10
87.03603106548059
 20
-134.6784287857749
 30
0.0
 10
87.03603106548059
 20
-134.9071831259954
 30
0.0
 10
86.91958683807914
 20
-135.0064018759706
 30
0.0
 10
86.61056177305223
 20
-135.232400139803
 30
0.0
  0
HATCH
  5
A7
330
A0
100
AcDbEntity
  8
_U+30EC_U+30A4_U+30E4_U+30FC 1
 62
     7
420
 16777215
100
AcDbHatch
 10
0.0
 20
0.0
 30
0.0
210
0.0
220
0.0
230
1.0
  2
SOLID
 70
     1
 71
     0
 91
        1
 92
        1
 93
        1
 72
     4
 94
        3
 73
     0
 74
     1
 95
       44
 96
       40
 40
0.0
 40
0.0
 40
0.0
 40
0.0
 40
1.0
 40
1.0
 40
1.0
 40
2.0
 40
2.0
 40
2.0
 40
3.0
 40
3.0
 40
3.0
 40
4.0
 40
4.0
 40
4.0
 40
5.0
 40
5.0
 40
5.0
 40
6.0
 40
6.0
 40
6.0
 40
7.0
 40
7.0
 40
7.0
 40
8.0
 40
8.0
 40
8.0
 40
9.0
 40
9.0
 40
9.0
 40
10.0
 40
10.0
 40
10.0
 40
11.0
 40
11.0
 40
11.0
 40
12.0
 40
12.0
 40
12.0
 40
13.0
 40
13.0
 40
13.0
 40
13.0
 10
86.61056177305223
 20
-135.232400139803
 10
86.39283173838443
 20
-135.3915635512216
 10
86.2998141602827
 20
-135.4652885946059
 10
86.25089380439213
 20
-135.6092935858894
 10
86.25089380439213
 20
-135.6092935858894
 10
87.0294853840586
 20
-135.6092935858894
 10
87.0294853840586
 20
-135.6092935858894
 10
87.0294853840586
 20
-135.6092935858894
 10
87.0294853840586
 20
-135.8146212768102
 10
87.0294853840586
 20
-135.8146212768102
 10
87.0294853840586
 20
-135.8146212768102
 10
86.00146889126006
 20
-135.8146212768102
 10
86.00146889126006
 20
-135.8146212768102
 10
86.03316376972435
 20
-135.4570203654413
 10
86.0986205839441
 20
-135.3784721883776
 10
86.48378225919502
 20
-135.080126919355
 10
86.7397528537491
 20
-134.8816894194046
 10
86.80520966796884
 20
-134.8134765287966
 10
86.80520966796884
 20
-134.6763617284837
 10
86.80520966796884
 20
-134.5578504437911
 10
86.73320717232711
 20
-134.4269368153516
 10
86.53649222011936
 20
-134.4269368153516
 10
86.27638751098299
 20
-134.4269368153516
 10
86.26777477226986
 20
-134.6570691937663
 10
86.26364065768756
 20
-134.7735134211677
 10
86.26364065768756
 20
-134.7735134211677
 10
86.0393649415978
 20
-134.7735134211677
 10
86.0393649415978
 20
-134.7735134211677
 10
86.04797768031092
 20
-134.6467339073105
 10
86.0586574763152
 20
-134.5344237944914
 10
86.13892820112152
 20
-134.4159125097988
 10
86.24882674710099
 20
-134.2553710601861
 10
86.435206412853
 20
-134.2216091244307
 10
86.55130613070592
 20
-134.2216091244307
 10
86.82863631726853
 20
-134.2216091244307
 10
87.03603106548059
 20
-134.405577223343
 10
87.03603106548059
 20
-134.6784287857749
 10
87.03603106548059
 20
-134.9071831259954
 10
86.91958683807914
 20
-135.0064018759706
 10
86.61056177305223
 20
-135.232400139803
 97
        0
 97
        0
 75
     2
 76
     1
 98
        0
  0
ENDBLK
  5
A3
330
A0
100
AcDbEntity
  8
0
100
AcDbBlockEnd
  0
ENDSEC
  0
SECTION
  2
ENTITIES
  0
SPLINE
  5
41
330
1F
100
AcDbEntity
  8
_U+30EC_U+30A4_U+30E4_U+30FC 1
 62
     7
420
 16777215
370
    25
100
AcDbSpline
210
0.0
220
0.0
230
1.0
 70
    11
 71
     3
 72
    89
 73
    85
 74
     0
 42
0.0000000001
 43
0.0000000001
 12
1.0
 22
0.0
 32
0.0
 13
1.0
 23
0.0
 33
0.0
 40
0.0
 40
0.0
 40
0.0
 40
0.0
 40
1.0
 40
1.0
 40
1.0
 40
2.0
 40
2.0
 40
2.0
 40
3.0
 40
3.0
 40
3.0
 40
4.0
 40
4.0
 40
4.0
 40
5.0
 40
5.0
 40
5.0
 40
6.0
 40
6.0
 40
6.0
 40
7.0
 40
7.0
 40
7.0
 40
8.0
 40
8.0
 40
8.0
 40
9.0
 40
9.0
 40
9.0
 40
10.0
 40
10.0
 40
10.0
 40
11.0
 40
11.0
 40
11.0
 40
12.0
 40
12.0
 40
12.0
 40
13.0
 40
13.0
 40
13.0
 40
14.0
 40
14.0
 40
14.0
 40
15.0
 40
15.0
 40
15.0
 40
16.0
 40
16.0
 40
16.0
 40
17.0
 40
17.0
 40
17.0
 40
18.0
 40
18.0
 40
18.0
 40
19.0
 40
19.0
 40
19.0
 40
20.0
 40
20.0
 40
20.0
 40
21.0
 40
21.0
 40
21.0
 40
22.0
 40
22.0
 40
22.0
 40
23.0
 40
23.0
 40
23.0
 40
24.0
 40
24.0
 40
24.0
 40
25.0
 40
25.0
 40
25.0
 40
26.0
 40
26.0
 40
26.0
 40
27.0
 40
27.0
 40
27.0
 40
28.0
 40
28.0
 40
28.0
 40
28.0
 10
83.95938035801775
 20
-126.8799496905023
 30
0.0
 10
83.95938035801775
 20
-126.8799496905023
 30
0.0
 10
83.69652775685365
 20
-126.5877791350198
 30
0.0
 10
83.69652775685365
 20
-126.5877791350198
 30
0.0
 10
83.45434370423565
 20
-126.3376949684155
 30
0.0
 10
83.47914398138072
 20
-126.3077088573119
 30
0.0
 10
83.66347036556705
 20
-126.1578488573494
 30
0.0
 10
83.79833730657076
 20
-126.0482760795991
 30
0.0
 10
84.11615479846255
 20
-125.8619035796457
 30
0.0
 10
84.25462220115868
 20
-125.9539080240671
 30
0.0
 10
84.25462220115868
 20
-125.9539080240671
 30
0.0
 10
85.3425888675533
 20
-127.0353130237966
 30
0.0
 10
85.3425888675533
 20
-127.0353130237966
 30
0.0
 10
84.78516255917252
 20
-127.3105855237279
 30
0.0
 10
84.32835275669575
 20
-127.8848724680289
 30
0.0
 10
84.32835275669575
 20
-128.5487296900849
 30
0.0
 10
84.32835275669575
 20
-128.9230621899913
 30
0.0
 10
84.44995312327998
 20
-129.2682552454609
 30
0.0
 10
84.65597534024614
 20
-129.548678300946
 30
0.0
 10
84.65597534024614
 20
-129.548678300946
 30
0.0
 10
82.82199164596108
 20
-132.0360438558801
 30
0.0
 10
82.82199164596108
 20
-132.0360438558801
 30
0.0
 10
83.60109925604716
 20
-132.0360438558801
 30
0.0
 10
84.7090331166703
 20
-132.0353383003245
 30
0.0
 10
86.00355113919994
 20
-132.0353383003245
 30
0.0
 10
87.29803608928654
 20
-132.0353383003245
 30
0.0
 10
88.40596774457586
 20
-132.0360438558801
 30
0.0
 10
89.18490105803696
 20
-132.0360438558801
 30
0.0
 10
89.18490105803696
 20
-132.0360438558801
 30
0.0
 10
87.35109166037688
 20
-129.548678300946
 30
0.0
 10
87.35109166037688
 20
-129.548678300946
 30
0.0
 10
87.55711387734304
 20
-129.2682552454609
 30
0.0
 10
87.67871637424071
 20
-128.9230621899913
 30
0.0
 10
87.67871637424071
 20
-128.5487296900849
 30
0.0
 10
87.67871637424071
 20
-127.8848724680289
 30
0.0
 10
87.19174194222
 20
-127.3102327459502
 30
0.0
 10
86.63414140089003
 20
-127.0349602460192
 30
0.0
 10
86.63414140089003
 20
-127.0349602460192
 30
0.0
 10
87.72179053980845
 20
-125.9525321907343
 30
0.0
 10
87.72179053980845
 20
-125.9525321907343
 30
0.0
 10
87.86025581405369
 20
-125.8608805240902
 30
0.0
 10
88.17807330594549
 20
-126.0469002462662
 30
0.0
 10
88.3129402469492
 20
-126.1568258017943
 30
0.0
 10
88.49726663113552
 20
-126.3066858017567
 30
0.0
 10
88.52206690828059
 20
-126.3369894128603
 30
0.0
 10
88.27988497001472
 20
-126.5867560794644
 30
0.0
 10
88.27988497001472
 20
-126.5867560794644
 30
0.0
 10
88.01703025449848
 20
-126.878891357169
 30
0.0
 10
88.01703025449848
 20
-126.878891357169
 30
0.0
 10
88.39132746717159
 20
-127.3326341348335
 30
0.0
 10
88.61611746143672
 20
-127.9145058013548
 30
0.0
 10
88.61611746143672
 20
-128.5490824678627
 30
0.0
 10
88.61611746143672
 20
-128.9133960788829
 30
0.0
 10
88.5418930188859
 20
-129.2606705232403
 30
0.0
 10
88.40752220012044
 20
-129.5762302453838
 30
0.0
 10
88.40752220012044
 20
-129.5762302453838
 30
0.0
 10
90.37347991660266
 20
-132.0298349669923
 30
0.0
 10
90.37347991660266
 20
-132.0298349669923
 30
0.0
 10
90.37347991660266
 20
-132.0298349669923
 30
0.0
 10
97.0187194692907
 20
-132.0312108003252
 30
0.0
 10
97.0187194692907
 20
-132.0312108003252
 30
0.0
 10
97.0187194692907
 20
-132.0312108003252
 30
0.0
 10
97.0187194692907
 20
-132.9806769111995
 30
0.0
 10
97.0187194692907
 20
-132.9806769111995
 30
0.0
 10
97.0187194692907
 20
-132.9806769111995
 30
0.0
 10
86.00355113919994
 20
-132.9806769111995
 30
0.0
 10
86.00355113919994
 20
-132.9806769111995
 30
0.0
 10
86.00355113919994
 20
-132.9806769111995
 30
0.0
 10
75.01420614178372
 20
-132.9806769111995
 30
0.0
 10
75.01420614178372
 20
-132.9806769111995
 30
0.0
 10
75.01420614178372
 20
-132.9806769111995
 30
0.0
 10
75.01420614178372
 20
-132.0312108003252
 30
0.0
 10
75.01420614178372
 20
-132.0312108003252
 30
0.0
 10
75.01420614178372
 20
-132.0312108003252
 30
0.0
 10
81.63358708402035
 20
-132.0298349669923
 30
0.0
 10
81.63358708402035
 20
-132.0298349669923
 30
0.0
 10
81.63358708402035
 20
-132.0298349669923
 30
0.0
 10
83.59954703386454
 20
-129.5762302453838
 30
0.0
 10
83.59954703386454
 20
-129.5762302453838
 30
0.0
 10
83.46517398173712
 20
-129.2606705232403
 30
0.0
 10
83.39094953918631
 20
-128.9133960788829
 30
0.0
 10
83.39094953918631
 20
-128.5490824678627
 30
0.0
 10
83.39094953918631
 20
-127.9145058013548
 30
0.0
 10
83.58490675646026
 20
-127.3340099681664
 30
0.0
 10
83.95938035801775
 20
-126.8799496905023
 30
0.0
  0
SPLINE
  5
42
330
1F
100
AcDbEntity
  8
_U+30EC_U+30A4_U+30E4_U+30FC 1
 62
     7
420
 16777215
370
    25
100
AcDbSpline
210
0.0
220
0.0
230
1.0
 70
    11
 71
     3
 72
    50
 73
    46
 74
     0
 42
0.0000000001
 43
0.0000000001
 12
1.0
 22
0.0
 32
0.0
 13
1.0
 23
0.0
 33
0.0
 40
0.0
 40
0.0
 40
0.0
 40
0.0
 40
1.0
 40
1.0
 40
1.0
 40
2.0
 40
2.0
 40
2.0
 40
3.0
 40
3.0
 40
3.0
 40
4.0
 40
4.0
 40
4.0
 40
5.0
 40
5.0
 40
5.0
 40
6.0
 40
6.0
 40
6.0
 40
7.0
 40
7.0
 40
7.0
 40
8.0
 40
8.0
 40
8.0
 40
9.0
 40
9.0
 40
9.0
 40
10.0
 40
10.0
 40
10.0
 40
11.0
 40
11.0
 40
11.0
 40
12.0
 40
12.0
 40
12.0
 40
13.0
 40
13.0
 40
13.0
 40
14.0
 40
14.0
 40
14.0
 40
15.0
 40
15.0
 40
15.0
 40
15.0
 10
86.53236501459767
 20
-127.183091634871
 30
0.0
 10
86.53236501459767
 20
-127.183091634871
 30
0.0
 10
86.5361397367236
 20
-125.452646079748
 30
0.0
 10
86.5361397367236
 20
-125.452646079748
 30
0.0
 10
86.5361397367236
 20
-125.452646079748
 30
0.0
 10
90.4554654700666
 20
-125.452646079748
 30
0.0
 10
90.4554654700666
 20
-125.452646079748
 30
0.0
 10
90.4554654700666
 20
-125.452646079748
 30
0.0
 10
90.78548907275811
 20
-125.9497452462903
 30
0.0
 10
90.78548907275811
 20
-125.9497452462903
 30
0.0
 10
90.78548907275811
 20
-125.9497452462903
 30
0.0
 10
92.02712570774798
 20
-125.9497452462903
 30
0.0
 10
92.02712570774798
 20
-125.9497452462903
 30
0.0
 10
92.02712570774798
 20
-125.9497452462903
 30
0.0
 10
91.02354351112928
 20
-124.4549199688863
 30
0.0
 10
91.02354351112928
 20
-124.4549199688863
 30
0.0
 10
91.02354351112928
 20
-124.4549199688863
 30
0.0
 10
81.20157542837522
 20
-124.4549199688863
 30
0.0
 10
81.20157542837522
 20
-124.4549199688863
 30
0.0
 10
81.20157542837522
 20
-124.4549199688863
 30
0.0
 10
79.98752601490376
 20
-125.9497452462903
 30
0.0
 10
79.98752601490376
 20
-125.9497452462903
 30
0.0
 10
79.98752601490376
 20
-125.9497452462903
 30
0.0
 10
81.30564487016463
 20
-125.9497452462903
 30
0.0
 10
81.30564487016463
 20
-125.9497452462903
 30
0.0
 10
81.30564487016463
 20
-125.9497452462903
 30
0.0
 10
81.70421319332964
 20
-125.452646079748
 30
0.0
 10
81.70421319332964
 20
-125.452646079748
 30
0.0
 10
81.70421319332964
 20
-125.452646079748
 30
0.0
 10
85.51431892945908
 20
-125.452646079748
 30
0.0
 10
85.51431892945908
 20
-125.452646079748
 30
0.0
 10
85.51431892945908
 20
-125.452646079748
 30
0.0
 10
85.51431892945908
 20
-127.1534935793226
 30
0.0
 10
85.51431892945908
 20
-127.1534935793226
 30
0.0
 10
84.96278616575208
 20
-127.3750027459341
 30
0.0
 10
84.50854951067394
 20
-127.9120716346886
 30
0.0
 10
84.50854951067394
 20
-128.5425560789754
 30
0.0
 10
84.50854951067394
 20
-129.3709135787683
 30
0.0
 10
85.18016782687288
 20
-130.0427083008227
 30
0.0
 10
86.00852530573971
 20
-130.0427083008227
 30
0.0
 10
86.83691806238343
 20
-130.0427083008227
 30
0.0
 10
87.50853637858235
 20
-129.3709135787683
 30
0.0
 10
87.50853637858235
 20
-128.5425560789754
 30
0.0
 10
87.50853637858235
 20
-127.9313685791281
 30
0.0
 10
87.05687500121631
 20
-127.4170185792569
 30
0.0
 10
86.53236501459767
 20
-127.183091634871
 30
0.0
  0
SPLINE
  5
43
330
1F
100
AcDbEntity
  8
_U+30EC_U+30A4_U+30E4_U+30FC 1
 62
     7
420
 16777215
370
     9
100
AcDbSpline
210
0.0
220
0.0
230
1.0
 70
    11
 71
     3
 72
    17
 73
    13
 74
     0
 42
0.0000000001
 43
0.0000000001
 12
1.0
 22
0.0
 32
0.0
 13
1.0
 23
0.0
 33
0.0
 40
0.0
 40
0.0
 40
0.0
 40
0.0
 40
1.0
 40
1.0
 40
1.0
 40
2.0
 40
2.0
 40
2.0
 40
3.0
 40
3.0
 40
3.0
 40
4.0
 40
4.0
 40
4.0
 40
4.0
 10
105.5398221958371
 20
-132.011243578108
 30
0.0
 10
105.5398221958371
 20
-131.9561044114556
 30
0.0
 10
105.4950194180704
 20
-131.9113369114664
 30
0.0
 10
105.4399128655593
 20
-131.9113369114664
 30
0.0
 10
105.3847737002993
 20
-131.9113369114664
 30
0.0
 10
105.3400062014414
 20
-131.9561044114556
 30
0.0
 10
105.3400062014414
 20
-132.011243578108
 30
0.0
 10
105.3400062014414
 20
-132.0670530225391
 30
0.0
 10
105.3847737002993
 20
-132.1118205225277
 30
0.0
 10
105.4399128655593
 20
-132.1118205225277
 30
0.0
 10
105.4950194180704
 20
-132.1118205225277
 30
0.0
 10
105.5398221958371
 20
-132.0670530225391
 30
0.0
 10
105.5398221958371
 20
-132.011243578108
 30
0.0
  0
POLYLINE
  5
44
330
1F
100
AcDbEntity
  8
_U+30EC_U+30A4_U+30E4_U+30FC 1
 62
     7
420
 16777215
370
     9
100
AcDb2dPolyline
 66
     1
 10
0.0
 20
0.0
 30
0.0
  0
VERTEX
  5
45
330
44
100
AcDbEntity
  8
_U+30EC_U+30A4_U+30E4_U+30FC 1
 62
     7
420
 16777215
370
     9
100
AcDbVertex
100
AcDb2dVertex
 10
105.4399128655593
 20
-136.3775388547946
 30
0.0
  0
VERTEX
  5
46
330
44
100
AcDbEntity
  8
_U+30EC_U+30A4_U+30E4_U+30FC 1
 62
     7
420
 16777215
370
     9
100
AcDbVertex
100
AcDb2dVertex
 10
105.4399128655593
 20
-125.8898083018609
 30
0.0
  0
SEQEND
  5
47
330
44
100
AcDbEntity
  8
_U+30EC_U+30A4_U+30E4_U+30FC 1
 62
     7
420
 16777215
370
     9
  0
POLYLINE
  5
48
330
1F
100
AcDbEntity
  8
_U+30EC_U+30A4_U+30E4_U+30FC 1
 62
     7
420
 16777215
370
     9
100
AcDb2dPolyline
 66
     1
 10
0.0
 20
0.0
 30
0.0
  0
VERTEX
  5
49
330
48
100
AcDbEntity
  8
_U+30EC_U+30A4_U+30E4_U+30FC 1
 62
     7
420
 16777215
370
     9
100
AcDbVertex
100
AcDb2dVertex
 10
99.1095274715053
 20
-132.011243578108
 30
0.0
  0
VERTEX
  5
4A
330
48
100
AcDbEntity
  8
_U+30EC_U+30A4_U+30E4_U+30FC 1
 62
     7
420
 16777215
370
     9
100
AcDbVertex
100
AcDb2dVertex
 10
106.9116311613459
 20
-132.011243578108
 30
0.0
  0
SEQEND
  5
4B
330
48
100
AcDbEntity
  8
_U+30EC_U+30A4_U+30E4_U+30FC 1
 62
     7
420
 16777215
370
     9
  0
SPLINE
  5
4C
330
1F
100
AcDbEntity
  8
_U+30EC_U+30A4_U+30E4_U+30FC 1
 62
     7
420
 16777215
370
     9
100
AcDbSpline
210
0.0
220
0.0
230
1.0
 70
    11
 71
     3
 72
    17
 73
    13
 74
     0
 42
0.0000000001
 43
0.0000000001
 12
1.0
 22
0.0
 32
0.0
 13
1.0
 23
0.0
 33
0.0
 40
0.0
 40
0.0
 40
0.0
 40
0.0
 40
1.0
 40
1.0
 40
1.0
 40
2.0
 40
2.0
 40
2.0
 40
3.0
 40
3.0
 40
3.0
 40
4.0
 40
4.0
 40
4.0
 40
4.0
 10
105.5398221958371
 20
-132.9765494112002
 30
0.0
 10
105.5398221958371
 20
-132.9214455223253
 30
0.0
 10
105.4950194180704
 20
-132.8766427445586
 30
0.0
 10
105.4399128655593
 20
-132.8766427445586
 30
0.0
 10
105.3847737002993
 20
-132.8766427445586
 30
0.0
 10
105.3400062014414
 20
-132.9214455223253
 30
0.0
 10
105.3400062014414
 20
-132.9765494112002
 30
0.0
 10
105.3400062014414
 20
-133.0323588556307
 30
0.0
 10
105.3847737002993
 20
-133.0771616333974
 30
0.0
 10
105.4399128655593
 20
-133.0771616333974
 30
0.0
 10
105.4950194180704
 20
-133.0771616333974
 30
0.0
 10
105.5398221958371
 20
-133.0323588556307
 30
0.0
 10
105.5398221958371
 20
-132.9765494112002
 30
0.0
  0
POLYLINE
  5
4D
330
1F
100
AcDbEntity
  8
_U+30EC_U+30A4_U+30E4_U+30FC 1
 62
     7
420
 16777215
370
     9
100
AcDb2dPolyline
 66
     1
 10
0.0
 20
0.0
 30
0.0
  0
VERTEX
  5
4E
330
4D
100
AcDbEntity
  8
_U+30EC_U+30A4_U+30E4_U+30FC 1
 62
     7
420
 16777215
370
     9
100
AcDbVertex
100
AcDb2dVertex
 10
99.1095274715053
 20
-132.9765494112002
 30
0.0
  0
VERTEX
  5
4F
330
4D
100
AcDbEntity
  8
_U+30EC_U+30A4_U+30E4_U+30FC 1
 62
     7
420
 16777215
370
     9
100
AcDbVertex
100
AcDb2dVertex
 10
106.9116311613459
 20
-132.9765494112002
 30
0.0
  0
SEQEND
  5
50
330
4D
100
AcDbEntity
  8
_U+30EC_U+30A4_U+30E4_U+30FC 1
 62
     7
420
 16777215
370
     9
  0
SPLINE
  5
51
330
1F
100
AcDbEntity
  8
_U+30EC_U+30A4_U+30E4_U+30FC 1
 62
     7
420
 16777215
370
     9
100
AcDbSpline
210
0.0
220
0.0
230
1.0
 70
    11
 71
     3
 72
    17
 73
    13
 74
     0
 42
0.0000000001
 43
0.0000000001
 12
1.0
 22
0.0
 32
0.0
 13
1.0
 23
0.0
 33
0.0
 40
0.0
 40
0.0
 40
0.0
 40
0.0
 40
1.0
 40
1.0
 40
1.0
 40
2.0
 40
2.0
 40
2.0
 40
3.0
 40
3.0
 40
3.0
 40
4.0
 40
4.0
 40
4.0
 40
4.0
 10
105.5398221958371
 20
-125.9897149685026
 30
0.0
 10
105.5398221958371
 20
-125.9346110796273
 30
0.0
 10
105.4950194180704
 20
-125.8898083018609
 30
0.0
 10
105.4399128655593
 20
-125.8898083018609
 30
0.0
 10
105.3847737002993
 20
-125.8898083018609
 30
0.0
 10
105.3400062014414
 20
-125.9346110796273
 30
0.0
 10
105.3400062014414
 20
-125.9897149685026
 30
0.0
 10
105.3400062014414
 20
-126.045524412933
 30
0.0
 10
105.3847737002993
 20
-126.0903271906997
 30
0.0
 10
105.4399128655593
 20
-126.0903271906997
 30
0.0
 10
105.4950194180704
 20
-126.0903271906997
 30
0.0
 10
105.5398221958371
 20
-126.045524412933
 30
0.0
 10
105.5398221958371
 20
-125.9897149685026
 30
0.0
  0
POLYLINE
  5
52
330
1F
100
AcDbEntity
  8
_U+30EC_U+30A4_U+30E4_U+30FC 1
 62
     7
420
 16777215
370
     9
100
AcDb2dPolyline
 66
     1
 10
0.0
 20
0.0
 30
0.0
  0
VERTEX
  5
53
330
52
100
AcDbEntity
  8
_U+30EC_U+30A4_U+30E4_U+30FC 1
 62
     7
420
 16777215
370
     9
100
AcDbVertex
100
AcDb2dVertex
 10
94.52376925516441
 20
-125.9897149685026
 30
0.0
  0
VERTEX
  5
54
330
52
100
AcDbEntity
  8
_U+30EC_U+30A4_U+30E4_U+30FC 1
 62
     7
420
 16777215
370
     9
100
AcDbVertex
100
AcDb2dVertex
 10
106.8448150519394
 20
-125.9897149685026
 30
0.0
  0
SEQEND
  5
55
330
52
100
AcDbEntity
  8
_U+30EC_U+30A4_U+30E4_U+30FC 1
 62
     7
420
 16777215
370
     9
  0
POLYLINE
  5
56
330
1F
100
AcDbEntity
  8
_U+30EC_U+30A4_U+30E4_U+30FC 1
 62
     7
420
 16777215
370
     9
100
AcDb2dPolyline
 66
     1
 10
0.0
 20
0.0
 30
0.0
  0
VERTEX
  5
57
330
56
100
AcDbEntity
  8
_U+30EC_U+30A4_U+30E4_U+30FC 1
 62
     7
420
 16777215
370
     9
100
AcDbVertex
100
AcDb2dVertex
 10
105.4399128655593
 20
-125.9528496907339
 30
0.0
  0
VERTEX
  5
58
330
56
100
AcDbEntity
  8
_U+30EC_U+30A4_U+30E4_U+30FC 1
 62
     7
420
 16777215
370
     9
100
AcDbVertex
100
AcDb2dVertex
 10
105.4399128655593
 20
-119.5367038590046
 30
0.0
  0
SEQEND
  5
59
330
56
100
AcDbEntity
  8
_U+30EC_U+30A4_U+30E4_U+30FC 1
 62
     7
420
 16777215
370
     9
  0
SPLINE
  5
5A
330
1F
100
AcDbEntity
  8
_U+30EC_U+30A4_U+30E4_U+30FC 1
 62
     7
420
 16777215
370
     9
100
AcDbSpline
210
0.0
220
0.0
230
1.0
 70
    11
 71
     3
 72
    17
 73
    13
 74
     0
 42
0.0000000001
 43
0.0000000001
 12
1.0
 22
0.0
 32
0.0
 13
1.0
 23
0.0
 33
0.0
 40
0.0
 40
0.0
 40
0.0
 40
0.0
 40
1.0
 40
1.0
 40
1.0
 40
2.0
 40
2.0
 40
2.0
 40
3.0
 40
3.0
 40
3.0
 40
4.0
 40
4.0
 40
4.0
 40
4.0
 10
105.5398221958371
 20
-124.4683608022162
 30
0.0
 10
105.5398221958371
 20
-124.413256913341
 30
0.0
 10
105.4950194180704
 20
-124.3684541355746
 30
0.0
 10
105.4399128655593
 20
-124.3684541355746
 30
0.0
 10
105.3847737002993
 20
-124.3684541355746
 30
0.0
 10
105.3400062014414
 20
-124.413256913341
 30
0.0
 10
105.3400062014414
 20
-124.4683608022162
 30
0.0
 10
105.3400062014414
 20
-124.5241702466467
 30
0.0
 10
105.3847737002993
 20
-124.5689730244134
 30
0.0
 10
105.4399128655593
 20
-124.5689730244134
 30
0.0
 10
105.4950194180704
 20
-124.5689730244134
 30
0.0
 10
105.5398221958371
 20
-124.5241702466467
 30
0.0
 10
105.5398221958371
 20
-124.4683608022162
 30
0.0
  0
POLYLINE
  5
5B
330
1F
100
AcDbEntity
  8
_U+30EC_U+30A4_U+30E4_U+30FC 1
 62
     7
420
 16777215
370
     9
100
AcDb2dPolyline
 66
     1
 10
0.0
 20
0.0
 30
0.0
  0
VERTEX
  5
5C
330
5B
100
AcDbEntity
  8
_U+30EC_U+30A4_U+30E4_U+30FC 1
 62
     7
420
 16777215
370
     9
100
AcDbVertex
100
AcDb2dVertex
 10
94.52376925516441
 20
-124.4683608022162
 30
0.0
  0
VERTEX
  5
5D
330
5B
100
AcDbEntity
  8
_U+30EC_U+30A4_U+30E4_U+30FC 1
 62
     7
420
 16777215
370
     9
100
AcDbVertex
100
AcDb2dVertex
 10
106.8448150519394
 20
-124.4683608022162
 30
0.0
  0
SEQEND
  5
5E
330
5B
100
AcDbEntity
  8
_U+30EC_U+30A4_U+30E4_U+30FC 1
 62
     7
420
 16777215
370
     9
  0
INSERT
  5
60
330
1F
100
AcDbEntity
  8
_U+30EC_U+30A4_U+30E4_U+30FC 1
100
AcDbBlockReference
  2
block 2
 10
0.0
 20
0.0
 30
0.0
  0
INSERT
  5
67
330
1F
100
AcDbEntity
  8
_U+30EC_U+30A4_U+30E4_U+30FC 1
100
AcDbBlockReference
  2
block 3
 10
0.0
 20
0.0
 30
0.0
  0
INSERT
  5
77
330
1F
100
AcDbEntity
  8
_U+30EC_U+30A4_U+30E4_U+30FC 1
100
AcDbBlockReference
  2
block 4
 10
0.0
 20
0.0
 30
0.0
  0
SPLINE
  5
7C
330
1F
100
AcDbEntity
  8
_U+30EC_U+30A4_U+30E4_U+30FC 1
 62
     7
420
 16777215
370
     9
100
AcDbSpline
210
0.0
220
0.0
230
1.0
 70
    11
 71
     3
 72
    17
 73
    13
 74
     0
 42
0.0000000001
 43
0.0000000001
 12
1.0
 22
0.0
 32
0.0
 13
1.0
 23
0.0
 33
0.0
 40
0.0
 40
0.0
 40
0.0
 40
0.0
 40
1.0
 40
1.0
 40
1.0
 40
2.0
 40
2.0
 40
2.0
 40
3.0
 40
3.0
 40
3.0
 40
4.0
 40
4.0
 40
4.0
 40
4.0
 10
97.10620835594756
 20
-136.4078777436757
 30
0.0
 10
97.10620835594756
 20
-136.3527385770226
 30
0.0
 10
97.06419252368615
 20
-136.3079710770341
 30
0.0
 10
97.01318330907989
 20
-136.3079710770341
 30
0.0
 10
96.96185169296375
 20
-136.3079710770341
 30
0.0
 10
96.9201886384711
 20
-136.3527385770226
 30
0.0
 10
96.9201886384711
 20
-136.4078777436757
 30
0.0
 10
96.9201886384711
 20
-136.4636871881061
 30
0.0
 10
96.96185169296375
 20
-136.5084546880953
 30
0.0
 10
97.01318330907989
 20
-136.5084546880953
 30
0.0
 10
97.06419252368615
 20
-136.5084546880953
 30
0.0
 10
97.10620835594756
 20
-136.4636871881061
 30
0.0
 10
97.10620835594756
 20
-136.4078777436757
 30
0.0
  0
SPLINE
  5
7D
330
1F
100
AcDbEntity
  8
_U+30EC_U+30A4_U+30E4_U+30FC 1
 62
     7
420
 16777215
370
     9
100
AcDbSpline
210
0.0
220
0.0
230
1.0
 70
    11
 71
     3
 72
    17
 73
    13
 74
     0
 42
0.0000000001
 43
0.0000000001
 12
1.0
 22
0.0
 32
0.0
 13
1.0
 23
0.0
 33
0.0
 40
0.0
 40
0.0
 40
0.0
 40
0.0
 40
1.0
 40
1.0
 40
1.0
 40
2.0
 40
2.0
 40
2.0
 40
3.0
 40
3.0
 40
3.0
 40
4.0
 40
4.0
 40
4.0
 40
4.0
 10
80.10260212307904
 20
-122.1319135805783
 30
0.0
 10
80.10260212307904
 20
-122.0767744139252
 30
0.0
 10
80.05779934644427
 20
-122.0320069139363
 30
0.0
 10
80.0026954589612
 20
-122.0320069139363
 30
0.0
 10
79.9475583133463
 20
-122.0320069139363
 30
0.0
 10
79.90278879484336
 20
-122.0767744139252
 30
0.0
 10
79.90278879484336
 20
-122.1319135805783
 30
0.0
 10
79.90278879484336
 20
-122.1877230250087
 30
0.0
 10
79.9475583133463
 20
-122.2324905249976
 30
0.0
 10
80.0026954589612
 20
-122.2324905249976
 30
0.0
 10
80.05779934644427
 20
-122.2324905249976
 30
0.0
 10
80.10260212307904
 20
-122.1877230250087
 30
0.0
 10
80.10260212307904
 20
-122.1319135805783
 30
0.0
  0
SPLINE
  5
7E
330
1F
100
AcDbEntity
  8
_U+30EC_U+30A4_U+30E4_U+30FC 1
 62
     7
420
 16777215
370
     9
100
AcDbSpline
210
0.0
220
0.0
230
1.0
 70
    11
 71
     3
 72
    17
 73
    13
 74
     0
 42
0.0000000001
 43
0.0000000001
 12
1.0
 22
0.0
 32
0.0
 13
1.0
 23
0.0
 33
0.0
 40
0.0
 40
0.0
 40
0.0
 40
0.0
 40
1.0
 40
1.0
 40
1.0
 40
2.0
 40
2.0
 40
2.0
 40
3.0
 40
3.0
 40
3.0
 40
4.0
 40
4.0
 40
4.0
 40
4.0
 10
92.11221570557716
 20
-122.1339596916888
 30
0.0
 10
92.11221570557716
 20
-122.0788558028136
 30
0.0
 10
92.06741292894239
 20
-122.0340530250472
 30
0.0
 10
92.01230904145932
 20
-122.0340530250472
 30
0.0
 10
91.95717219923267
 20
-122.0340530250472
 30
0.0
 10
91.91240237734148
 20
-122.0788558028136
 30
0.0
 10
91.91240237734148
 20
-122.1339596916888
 30
0.0
 10
91.91240237734148
 20
-122.1897691361193
 30
0.0
 10
91.95717219923267
 20
-122.234571913886
 30
0.0
 10
92.01230904145932
 20
-122.234571913886
 30
0.0
 10
92.06741292894239
 20
-122.234571913886
 30
0.0
 10
92.11221570557716
 20
-122.1897691361193
 30
0.0
 10
92.11221570557716
 20
-122.1339596916888
 30
0.0
  0
POLYLINE
  5
7F
330
1F
100
AcDbEntity
  8
_U+30EC_U+30A4_U+30E4_U+30FC 1
 62
     7
420
 16777215
370
     9
100
AcDb2dPolyline
 66
     1
 10
0.0
 20
0.0
 30
0.0
  0
VERTEX
  5
80
330
7F
100
AcDbEntity
  8
_U+30EC_U+30A4_U+30E4_U+30FC 1
 62
     7
420
 16777215
370
     9
100
AcDbVertex
100
AcDb2dVertex
 10
80.00477684779699
 20
-122.1319135805783
 30
0.0
  0
VERTEX
  5
81
330
7F
100
AcDbEntity
  8
_U+30EC_U+30A4_U+30E4_U+30FC 1
 62
     7
420
 16777215
370
     9
100
AcDbVertex
100
AcDb2dVertex
 10
92.01368487475756
 20
-122.1319135805783
 30
0.0
  0
SEQEND
  5
82
330
7F
100
AcDbEntity
  8
_U+30EC_U+30A4_U+30E4_U+30FC 1
 62
     7
420
 16777215
370
     9
  0
POLYLINE
  5
83
330
1F
100
AcDbEntity
  8
_U+30EC_U+30A4_U+30E4_U+30FC 1
 62
     7
420
 16777215
370
     9
100
AcDb2dPolyline
 66
     1
 10
0.0
 20
0.0
 30
0.0
  0
VERTEX
  5
84
330
83
100
AcDbEntity
  8
_U+30EC_U+30A4_U+30E4_U+30FC 1
 62
     7
420
 16777215
370
     9
100
AcDbVertex
100
AcDb2dVertex
 10
80.0026954589612
 20
-120.6718721920542
 30
0.0
  0
VERTEX
  5
85
330
83
100
AcDbEntity
  8
_U+30EC_U+30A4_U+30E4_U+30FC 1
 62
     7
420
 16777215
370
     9
100
AcDbVertex
100
AcDb2dVertex
 10
80.0026954589612
 20
-123.1323560803282
 30
0.0
  0
SEQEND
  5
86
330
83
100
AcDbEntity
  8
_U+30EC_U+30A4_U+30E4_U+30FC 1
 62
     7
420
 16777215
370
     9
  0
POLYLINE
  5
87
330
1F
100
AcDbEntity
  8
_U+30EC_U+30A4_U+30E4_U+30FC 1
 62
     7
420
 16777215
370
     9
100
AcDb2dPolyline
 66
     1
 10
0.0
 20
0.0
 30
0.0
  0
VERTEX
  5
88
330
87
100
AcDbEntity
  8
_U+30EC_U+30A4_U+30E4_U+30FC 1
 62
     7
420
 16777215
370
     9
100
AcDbVertex
100
AcDb2dVertex
 10
92.01160348592177
 20
-120.6718721920542
 30
0.0
  0
VERTEX
  5
89
330
87
100
AcDbEntity
  8
_U+30EC_U+30A4_U+30E4_U+30FC 1
 62
     7
420
 16777215
370
     9
100
AcDbVertex
100
AcDb2dVertex
 10
92.01160348592177
 20
-123.1323560803282
 30
0.0
  0
SEQEND
  5
8A
330
87
100
AcDbEntity
  8
_U+30EC_U+30A4_U+30E4_U+30FC 1
 62
     7
420
 16777215
370
     9
  0
INSERT
  5
8C
330
1F
100
AcDbEntity
  8
_U+30EC_U+30A4_U+30E4_U+30FC 1
100
AcDbBlockReference
  2
block 5
 10
0.0
 20
0.0
 30
0.0
  0
SPLINE
  5
93
330
1F
100
AcDbEntity
  8
_U+30EC_U+30A4_U+30E4_U+30FC 1
 62
     7
420
 16777215
370
     9
100
AcDbSpline
210
0.0
220
0.0
230
1.0
 70
    11
 71
     3
 72
    17
 73
    13
 74
     0
 42
0.0000000001
 43
0.0000000001
 12
1.0
 22
0.0
 32
0.0
 13
1.0
 23
0.0
 33
0.0
 40
0.0
 40
0.0
 40
0.0
 40
0.0
 40
1.0
 40
1.0
 40
1.0
 40
2.0
 40
2.0
 40
2.0
 40
3.0
 40
3.0
 40
3.0
 40
4.0
 40
4.0
 40
4.0
 40
4.0
 10
75.1032472506232
 20
-136.4106294103421
 30
0.0
 10
75.1032472506232
 20
-136.355490243689
 30
0.0
 10
75.06070225170862
 20
-136.3107227436998
 30
0.0
 10
75.0085264197064
 20
-136.3107227436998
 30
0.0
 10
74.9563153099273
 20
-136.3107227436998
 30
0.0
 10
74.91394669989711
 20
-136.355490243689
 30
0.0
 10
74.91394669989711
 20
-136.4106294103421
 30
0.0
 10
74.91394669989711
 20
-136.4664388547725
 30
0.0
 10
74.9563153099273
 20
-136.5112063547611
 30
0.0
 10
75.0085264197064
 20
-136.5112063547611
 30
0.0
 10
75.06070225170862
 20
-136.5112063547611
 30
0.0
 10
75.1032472506232
 20
-136.4664388547725
 30
0.0
 10
75.1032472506232
 20
-136.4106294103421
 30
0.0
  0
POLYLINE
  5
94
330
1F
100
AcDbEntity
  8
_U+30EC_U+30A4_U+30E4_U+30FC 1
 62
     7
420
 16777215
370
     9
100
AcDb2dPolyline
 66
     1
 10
0.0
 20
0.0
 30
0.0
  0
VERTEX
  5
95
330
94
100
AcDbEntity
  8
_U+30EC_U+30A4_U+30E4_U+30FC 1
 62
     7
420
 16777215
370
     9
100
AcDbVertex
100
AcDb2dVertex
 10
75.0085264197064
 20
-136.4106294103421
 30
0.0
  0
VERTEX
  5
96
330
94
100
AcDbEntity
  8
_U+30EC_U+30A4_U+30E4_U+30FC 1
 62
     7
420
 16777215
370
     9
100
AcDbVertex
100
AcDb2dVertex
 10
97.10553807818688
 20
-136.4106294103421
 30
0.0
  0
SEQEND
  5
97
330
94
100
AcDbEntity
  8
_U+30EC_U+30A4_U+30E4_U+30FC 1
 62
     7
420
 16777215
370
     9
  0
POLYLINE
  5
98
330
1F
100
AcDbEntity
  8
_U+30EC_U+30A4_U+30E4_U+30FC 1
 62
     7
420
 16777215
370
     9
100
AcDb2dPolyline
 66
     1
 10
0.0
 20
0.0
 30
0.0
  0
VERTEX
  5
99
330
98
100
AcDbEntity
  8
_U+30EC_U+30A4_U+30E4_U+30FC 1
 62
     7
420
 16777215
370
     9
100
AcDbVertex
100
AcDb2dVertex
 10
75.0085264197064
 20
-134.9505880218178
 30
0.0
  0
VERTEX
  5
9A
330
98
100
AcDbEntity
  8
_U+30EC_U+30A4_U+30E4_U+30FC 1
 62
     7
420
 16777215
370
     9
100
AcDbVertex
100
AcDb2dVertex
 10
75.0085264197064
 20
-137.4110719100914
 30
0.0
  0
SEQEND
  5
9B
330
98
100
AcDbEntity
  8
_U+30EC_U+30A4_U+30E4_U+30FC 1
 62
     7
420
 16777215
370
     9
  0
POLYLINE
  5
9C
330
1F
100
AcDbEntity
  8
_U+30EC_U+30A4_U+30E4_U+30FC 1
 62
     7
420
 16777215
370
     9
100
AcDb2dPolyline
 66
     1
 10
0.0
 20
0.0
 30
0.0
  0
VERTEX
  5
9D
330
9C
100
AcDbEntity
  8
_U+30EC_U+30A4_U+30E4_U+30FC 1
 62
     7
420
 16777215
370
     9
100
AcDbVertex
100
AcDb2dVertex
 10
97.01215780279144
 20
-134.9505880218178
 30
0.0
  0
VERTEX
  5
9E
330
9C
100
AcDbEntity
  8
_U+30EC_U+30A4_U+30E4_U+30FC 1
 62
     7
420
 16777215
370
     9
100
AcDbVertex
100
AcDb2dVertex
 10
97.01215780279144
 20
-137.4110719100914
 30
0.0
  0
SEQEND
  5
9F
330
9C
100
AcDbEntity
  8
_U+30EC_U+30A4_U+30E4_U+30FC 1
 62
     7
420
 16777215
370
     9
  0
INSERT
  5
A1
330
1F
100
AcDbEntity
  8
_U+30EC_U+30A4_U+30E4_U+30FC 1
100
AcDbBlockReference
  2
block 6
 10
0.0
 20
0.0
 30
0.0
  0
ENDSEC
  0
SECTION
  2
OBJECTS
  0
DICTIONARY
  5
C
330
0
100
AcDbDictionary
281
     1
  3
ACAD_GROUP
350
D
  3
ACAD_LAYOUT
350
1A
  3
ACAD_MATERIAL
350
3B
  3
ACAD_MLEADERSTYLE
350
A9
  3
ACAD_MLINESTYLE
350
17
  3
ACAD_PLOTSETTINGS
350
19
  3
ACAD_PLOTSTYLENAME
350
E
  3
ACAD_TABLESTYLE
350
A8
  3
ACAD_VISUALSTYLE
350
2A
  0
SUN
  5
3F
330
29
100
AcDbSun
 90
        1
290
     0
 63
     7
421
 16777215
 40
1.0
291
     1
 91
  2455826
 92
 54000000
292
     0
 70
     2
 71
   256
280
     1
  0
DICTIONARY
  5
D
102
{ACAD_REACTORS
330
C
102
}
330
C
100
AcDbDictionary
281
     1
  0
DICTIONARY
  5
1A
102
{ACAD_REACTORS
330
C
102
}
330
C
100
AcDbDictionary
281
     1
  3
Layout1
350
1E
  3
Layout2
350
26
  3
Model
350
22
  0
DICTIONARY
  5
3B
102
{ACAD_REACTORS
330
C
102
}
330
C
100
AcDbDictionary
281
     1
  3
ByBlock
350
3D
  3
ByLayer
350
3C
  3
Global
350
3E
  0
DICTIONARY
  5
A9
102
{ACAD_REACTORS
330
C
102
}
330
C
100
AcDbDictionary
281
     1
  0
DICTIONARY
  5
17
102
{ACAD_REACTORS
330
C
102
}
330
C
100
AcDbDictionary
281
     1
  3
Standard
350
18
  0
DICTIONARY
  5
19
102
{ACAD_REACTORS
330
C
102
}
330
C
100
AcDbDictionary
281
     1
  0
ACDBDICTIONARYWDFLT
  5
E
102
{ACAD_REACTORS
330
C
102
}
330
C
100
AcDbDictionary
281
     1
  3
Normal
350
F
100
AcDbDictionaryWithDefault
340
F
  0
DICTIONARY
  5
A8
102
{ACAD_REACTORS
330
C
102
}
330
C
100
AcDbDictionary
281
     1
  0
DICTIONARY
  5
2A
102
{ACAD_REACTORS
330
C
102
}
330
C
100
AcDbDictionary
281
     1
  3
2dWireframe
350
2F
  3
3D Hidden
350
31
  3
3dWireframe
350
30
  3
Basic
350
32
  3
Brighten
350
36
  3
ColorChange
350
3A
  3
Conceptual
350
34
  3
Dim
350
35
  3
Facepattern
350
39
  3
Flat
350
2B
  3
FlatWithEdges
350
2C
  3
Gouraud
350
2D
  3
GouraudWithEdges
350
2E
  3
Linepattern
350
38
  3
Realistic
350
33
  3
Thicken
350
37
  0
LAYOUT
  5
1E
102
{ACAD_REACTORS
330
1A
102
}
330
1A
100
AcDbPlotSettings
  1

  2
none_device
  4

  6

 40
0.0
 41
0.0
 42
0.0
 43
0.0
 44
0.0
 45
0.0
 46
0.0
 47
0.0
 48
0.0
 49
0.0
140
0.0
141
0.0
142
1.0
143
1.0
 70
   688
 72
     0
 73
     0
 74
     5
  7

 75
    16
 76
     0
 77
     2
 78
   300
147
1.0
148
0.0
149
0.0
100
AcDbLayout
  1
Layout1
 70
     1
 71
     1
 10
0.0
 20
0.0
 11
12.0
 21
9.0
 12
0.0
 22
0.0
 32
0.0
 14
1.000000000000000E+20
 24
1.000000000000000E+20
 34
1.000000000000000E+20
 15
-1.000000000000000E+20
 25
-1.000000000000000E+20
 35
-1.000000000000000E+20
146
0.0
 13
0.0
 23
0.0
 33
0.0
 16
1.0
 26
0.0
 36
0.0
 17
0.0
 27
1.0
 37
0.0
 76
     0
330
1B
  0
LAYOUT
  5
26
102
{ACAD_REACTORS
330
1A
102
}
330
1A
100
AcDbPlotSettings
  1

  2
none_device
  4

  6

 40
0.0
 41
0.0
 42
0.0
 43
0.0
 44
0.0
 45
0.0
 46
0.0
 47
0.0
 48
0.0
 49
0.0
140
0.0
141
0.0
142
1.0
143
1.0
 70
   688
 72
     0
 73
     0
 74
     5
  7

 75
    16
 76
     0
 77
     2
 78
   300
147
1.0
148
0.0
149
0.0
100
AcDbLayout
  1
Layout2
 70
     1
 71
     2
 10
0.0
 20
0.0
 11
0.0
 21
0.0
 12
0.0
 22
0.0
 32
0.0
 14
0.0
 24
0.0
 34
0.0
 15
0.0
 25
0.0
 35
0.0
146
0.0
 13
0.0
 23
0.0
 33
0.0
 16
1.0
 26
0.0
 36
0.0
 17
0.0
 27
1.0
 37
0.0
 76
     0
330
23
  0
LAYOUT
  5
22
102
{ACAD_REACTORS
330
1A
102
}
330
1A
100
AcDbPlotSettings
  1

  2
none_device
  4

  6

 40
0.0
 41
0.0
 42
0.0
 43
0.0
 44
0.0
 45
0.0
 46
0.0
 47
0.0
 48
0.0
 49
0.0
140
0.0
141
0.0
142
1.0
143
1.0
 70
  1712
 72
     0
 73
     0
 74
     0
  7

 75
     0
 76
     0
 77
     2
 78
   300
147
1.0
148
0.0
149
0.0
100
AcDbLayout
  1
Model
 70
     1
 71
     0
 10
0.0
 20
0.0
 11
12.0
 21
9.0
 12
0.0
 22
0.0
 32
0.0
 14
1.000000000000000E+20
 24
1.000000000000000E+20
 34
1.000000000000000E+20
 15
-1.000000000000000E+20
 25
-1.000000000000000E+20
 35
-1.000000000000000E+20
146
0.0
 13
0.0
 23
0.0
 33
0.0
 16
1.0
 26
0.0
 36
0.0
 17
0.0
 27
1.0
 37
0.0
 76
     0
330
1F
331
29
  0
MATERIAL
  5
3D
102
{ACAD_REACTORS
330
3B
102
}
330
3B
100
AcDbMaterial
  1
ByBlock
 72
     1
 94
      127
  0
MATERIAL
  5
3C
102
{ACAD_REACTORS
330
3B
102
}
330
3B
100
AcDbMaterial
  1
ByLayer
 72
     1
 94
      127
  0
MATERIAL
  5
3E
102
{ACAD_REACTORS
330
3B
102
}
330
3B
100
AcDbMaterial
  1
Global
 72
     1
 94
      127
  0
MLINESTYLE
  5
18
102
{ACAD_REACTORS
330
17
102
}
330
17
100
AcDbMlineStyle
  2
Standard
 70
     0
  3

 62
   256
 51
90.0
 52
90.0
 71
     2
 49
0.5
 62
   256
  6
BYLAYER
 49
-0.5
 62
   256
  6
BYLAYER
  0
ACDBPLACEHOLDER
  5
F
102
{ACAD_REACTORS
330
E
102
}
330
E
  0
VISUALSTYLE
  5
2F
102
{ACAD_REACTORS
330
2A
102
}
330
2A
100
AcDbVisualStyle
  2
2dWireframe
 70
     4
177
     2
291
     0
 71
     0
176
     1
 72
     2
176
     1
 73
     0
176
     1
 90
        0
176
     1
 40
-0.6
176
     1
 41
-30.0
176
     1
 62
     5
 63
     7
421
 16777215
176
     1
 74
     1
176
     1
 91
        4
176
     1
 64
     7
176
     1
 65
   257
176
     1
 75
     1
176
     1
175
     1
176
     1
 42
1.0
176
     1
 92
        0
176
     1
 66
   257
176
     1
 43
1.0
176
     1
 76
     1
176
     1
 77
     6
176
     1
 78
     2
176
     1
 67
     7
176
     1
 79
     5
176
     1
170
     0
176
     1
171
     0
176
     1
290
     0
176
     1
 93
        1
176
     1
 44
0.0
176
     1
173
     0
176
     1
  0
VISUALSTYLE
  5
31
102
{ACAD_REACTORS
330
2A
102
}
330
2A
100
AcDbVisualStyle
  2
3D Hidden
 70
     6
177
     2
291
     0
 71
     1
176
     1
 72
     2
176
     1
 73
     2
176
     1
 90
        0
176
     1
 40
-0.6
176
     1
 41
-30.0
176
     1
 62
     5
 63
     7
421
 16777215
176
     1
 74
     2
176
     1
 91
        2
176
     1
 64
     7
176
     1
 65
   257
176
     1
 75
     2
176
     1
175
     1
176
     1
 42
40.0
176
     1
 92
        0
176
     1
 66
   257
176
     1
 43
1.0
176
     1
 76
     1
176
     1
 77
     6
176
     1
 78
     2
176
     1
 67
     7
176
     1
 79
     3
176
     1
170
     0
176
     1
171
     0
176
     1
290
     0
176
     1
 93
        1
176
     1
 44
0.0
176
     1
173
     0
176
     1
  0
VISUALSTYLE
  5
30
102
{ACAD_REACTORS
330
2A
102
}
330
2A
100
AcDbVisualStyle
  2
3dWireframe
 70
     5
177
     2
291
     0
 71
     0
176
     1
 72
     2
176
     1
 73
     0
176
     1
 90
        0
176
     1
 40
-0.6
176
     1
 41
-30.0
176
     1
 62
     5
 63
     7
421
 16777215
176
     1
 74
     1
176
     1
 91
        4
176
     1
 64
     7
176
     1
 65
   257
176
     1
 75
     1
176
     1
175
     1
176
     1
 42
1.0
176
     1
 92
        0
176
     1
 66
   257
176
     1
 43
1.0
176
     1
 76
     1
176
     1
 77
     6
176
     1
 78
     2
176
     1
 67
     7
176
     1
 79
     5
176
     1
170
     0
176
     1
171
     0
176
     1
290
     0
176
     1
 93
        1
176
     1
 44
0.0
176
     1
173
     0
176
     1
  0
VISUALSTYLE
  5
32
102
{ACAD_REACTORS
330
2A
102
}
330
2A
100
AcDbVisualStyle
  2
Basic
 70
     7
177
     2
291
     1
 71
     1
176
     1
 72
     0
176
     1
 73
     1
176
     1
 90
        0
176
     1
 40
-0.6
176
     1
 41
-30.0
176
     1
 62
     5
 63
     7
421
 16777215
176
     1
 74
     0
176
     1
 91
        4
176
     1
 64
     7
176
     1
 65
   257
176
     1
 75
     1
176
     1
175
     1
176
     1
 42
1.0
176
     1
 92
        8
176
     1
 66
     7
176
     1
 43
1.0
176
     1
 76
     1
176
     1
 77
     6
176
     1
 78
     2
176
     1
 67
     7
176
     1
 79
     5
176
     1
170
     0
176
     1
171
     0
176
     1
290
     0
176
     1
 93
        1
176
     1
 44
0.0
176
     1
173
     0
176
     1
  0
VISUALSTYLE
  5
36
102
{ACAD_REACTORS
330
2A
102
}
330
2A
100
AcDbVisualStyle
  2
Brighten
 70
    12
177
     2
291
     1
 71
     2
176
     1
 72
     2
176
     1
 73
     0
176
     1
 90
        0
176
     1
 40
-0.6
176
     1
 41
-30.0
176
     1
 62
     5
 63
     7
421
 16777215
176
     1
 74
     1
176
     1
 91
        4
176
     1
 64
     7
176
     1
 65
   257
176
     1
 75
     1
176
     1
175
     1
176
     1
 42
1.0
176
     1
 92
        8
176
     1
 66
     7
176
     1
 43
1.0
176
     1
 76
     1
176
     1
 77
     6
176
     1
 78
     2
176
     1
 67
     7
176
     1
 79
     5
176
     1
170
     0
176
     1
171
     0
176
     1
290
     0
176
     1
 93
        1
176
     1
 44
50.0
176
     1
173
     0
176
     1
  0
VISUALSTYLE
  5
3A
102
{ACAD_REACTORS
330
2A
102
}
330
2A
100
AcDbVisualStyle
  2
ColorChange
 70
    16
177
     2
291
     1
 71
     2
176
     1
 72
     2
176
     1
 73
     3
176
     1
 90
        0
176
     1
 40
-0.6
176
     1
 41
-30.0
176
     1
 62
     5
 63
     8
421
  8421504
176
     1
 74
     1
176
     1
 91
        4
176
     1
 64
     7
176
     1
 65
   257
176
     1
 75
     1
176
     1
175
     1
176
     1
 42
1.0
176
     1
 92
        8
176
     1
 66
     8
424
  8421504
176
     1
 43
1.0
176
     1
 76
     1
176
     1
 77
     6
176
     1
 78
     2
176
     1
 67
     7
176
     1
 79
     5
176
     1
170
     0
176
     1
171
     0
176
     1
290
     0
176
     1
 93
        1
176
     1
 44
0.0
176
     1
173
     0
176
     1
  0
VISUALSTYLE
  5
34
102
{ACAD_REACTORS
330
2A
102
}
330
2A
100
AcDbVisualStyle
  2
Conceptual
 70
     9
177
     2
291
     0
 71
     3
176
     1
 72
     2
176
     1
 73
     0
176
     1
 90
        0
176
     1
 40
-0.6
176
     1
 41
-30.0
176
     1
 62
     5
 63
     7
421
 16777215
176
     1
 74
     2
176
     1
 91
        2
176
     1
 64
     7
176
     1
 65
   257
176
     1
 75
     1
176
     1
175
     1
176
     1
 42
40.0
176
     1
 92
        8
176
     1
 66
     7
176
     1
 43
1.0
176
     1
 76
     1
176
     1
 77
     6
176
     1
 78
     2
176
     1
 67
     7
176
     1
 79
     3
176
     1
170
     0
176
     1
171
     0
176
     1
290
     0
176
     1
 93
        1
176
     1
 44
0.0
176
     1
173
     0
176
     1
  0
VISUALSTYLE
  5
35
102
{ACAD_REACTORS
330
2A
102
}
330
2A
100
AcDbVisualStyle
  2
Dim
 70
    11
177
     2
291
     1
 71
     2
176
     1
 72
     2
176
     1
 73
     0
176
     1
 90
        0
176
     1
 40
-0.6
176
     1
 41
-30.0
176
     1
 62
     5
 63
     7
421
 16777215
176
     1
 74
     1
176
     1
 91
        4
176
     1
 64
     7
176
     1
 65
   257
176
     1
 75
     1
176
     1
175
     1
176
     1
 42
1.0
176
     1
 92
        8
176
     1
 66
     7
176
     1
 43
1.0
176
     1
 76
     1
176
     1
 77
     6
176
     1
 78
     2
176
     1
 67
     7
176
     1
 79
     5
176
     1
170
     0
176
     1
171
     0
176
     1
290
     0
176
     1
 93
        1
176
     1
 44
-50.0
176
     1
173
     0
176
     1
  0
VISUALSTYLE
  5
39
102
{ACAD_REACTORS
330
2A
102
}
330
2A
100
AcDbVisualStyle
  2
Facepattern
 70
    15
177
     2
291
     1
 71
     2
176
     1
 72
     2
176
     1
 73
     0
176
     1
 90
        0
176
     1
 40
-0.6
176
     1
 41
-30.0
176
     1
 62
     5
 63
     7
421
 16777215
176
     1
 74
     1
176
     1
 91
        4
176
     1
 64
     7
176
     1
 65
   257
176
     1
 75
     1
176
     1
175
     1
176
     1
 42
1.0
176
     1
 92
        8
176
     1
 66
     7
176
     1
 43
1.0
176
     1
 76
     1
176
     1
 77
     6
176
     1
 78
     2
176
     1
 67
     7
176
     1
 79
     5
176
     1
170
     0
176
     1
171
     0
176
     1
290
     0
176
     1
 93
        1
176
     1
 44
0.0
176
     1
173
     0
176
     1
  0
VISUALSTYLE
  5
2B
102
{ACAD_REACTORS
330
2A
102
}
330
2A
100
AcDbVisualStyle
  2
Flat
 70
     0
177
     2
291
     1
 71
     2
176
     1
 72
     1
176
     1
 73
     1
176
     1
 90
        2
176
     1
 40
-0.6
176
     1
 41
30.0
176
     1
 62
     5
 63
     7
421
 16777215
176
     1
 74
     0
176
     1
 91
        4
176
     1
 64
     7
176
     1
 65
   257
176
     1
 75
     1
176
     1
175
     1
176
     1
 42
1.0
176
     1
 92
        8
176
     1
 66
     7
176
     1
 43
1.0
176
     1
 76
     1
176
     1
 77
     6
176
     1
 78
     2
176
     1
 67
     7
176
     1
 79
     5
176
     1
170
     0
176
     1
171
     0
176
     1
290
     0
176
     1
 93
       13
176
     1
 44
0.0
176
     1
173
     0
176
     1
  0
VISUALSTYLE
  5
2C
102
{ACAD_REACTORS
330
2A
102
}
330
2A
100
AcDbVisualStyle
  2
FlatWithEdges
 70
     1
177
     2
291
     1
 71
     2
176
     1
 72
     1
176
     1
 73
     1
176
     1
 90
        2
176
     1
 40
-0.6
176
     1
 41
30.0
176
     1
 62
     5
 63
     7
421
 16777215
176
     1
 74
     1
176
     1
 91
        4
176
     1
 64
     7
176
     1
 65
   257
176
     1
 75
     1
176
     1
175
     1
176
     1
 42
1.0
176
     1
 92
        0
176
     1
 66
   257
176
     1
 43
1.0
176
     1
 76
     1
176
     1
 77
     6
176
     1
 78
     2
176
     1
 67
     7
176
     1
 79
     5
176
     1
170
     0
176
     1
171
     0
176
     1
290
     0
176
     1
 93
       13
176
     1
 44
0.0
176
     1
173
     0
176
     1
  0
VISUALSTYLE
  5
2D
102
{ACAD_REACTORS
330
2A
102
}
330
2A
100
AcDbVisualStyle
  2
Gouraud
 70
     2
177
     2
291
     1
 71
     2
176
     1
 72
     2
176
     1
 73
     1
176
     1
 90
        2
176
     1
 40
-0.6
176
     1
 41
30.0
176
     1
 62
     5
 63
     7
421
 16777215
176
     1
 74
     0
176
     1
 91
        4
176
     1
 64
     7
176
     1
 65
   257
176
     1
 75
     1
176
     1
175
     1
176
     1
 42
1.0
176
     1
 92
        0
176
     1
 66
     7
176
     1
 43
1.0
176
     1
 76
     1
176
     1
 77
     6
176
     1
 78
     2
176
     1
 67
     7
176
     1
 79
     5
176
     1
170
     0
176
     1
171
     0
176
     1
290
     0
176
     1
 93
       13
176
     1
 44
0.0
176
     1
173
     0
176
     1
  0
VISUALSTYLE
  5
2E
102
{ACAD_REACTORS
330
2A
102
}
330
2A
100
AcDbVisualStyle
  2
GouraudWithEdges
 70
     3
177
     2
291
     1
 71
     2
176
     1
 72
     2
176
     1
 73
     1
176
     1
 90
        2
176
     1
 40
-0.6
176
     1
 41
30.0
176
     1
 62
     5
 63
     7
421
 16777215
176
     1
 74
     1
176
     1
 91
        4
176
     1
 64
     7
176
     1
 65
   257
176
     1
 75
     1
176
     1
175
     1
176
     1
 42
1.0
176
     1
 92
        0
176
     1
 66
   257
176
     1
 43
1.0
176
     1
 76
     1
176
     1
 77
     6
176
     1
 78
     2
176
     1
 67
     7
176
     1
 79
     5
176
     1
170
     0
176
     1
171
     0
176
     1
290
     0
176
     1
 93
       13
176
     1
 44
0.0
176
     1
173
     0
176
     1
  0
VISUALSTYLE
  5
38
102
{ACAD_REACTORS
330
2A
102
}
330
2A
100
AcDbVisualStyle
  2
Linepattern
 70
    14
177
     2
291
     1
 71
     2
176
     1
 72
     2
176
     1
 73
     0
176
     1
 90
        0
176
     1
 40
-0.6
176
     1
 41
-30.0
176
     1
 62
     5
 63
     7
421
 16777215
176
     1
 74
     1
176
     1
 91
        4
176
     1
 64
     7
176
     1
 65
   257
176
     1
 75
     7
176
     1
175
     7
176
     1
 42
1.0
176
     1
 92
        8
176
     1
 66
     7
176
     1
 43
1.0
176
     1
 76
     1
176
     1
 77
     6
176
     1
 78
     2
176
     1
 67
     7
176
     1
 79
     5
176
     1
170
     0
176
     1
171
     0
176
     1
290
     0
176
     1
 93
        1
176
     1
 44
0.0
176
     1
173
     0
176
     1
  0
VISUALSTYLE
  5
33
102
{ACAD_REACTORS
330
2A
102
}
330
2A
100
AcDbVisualStyle
  2
Realistic
 70
     8
177
     2
291
     0
 71
     2
176
     1
 72
     2
176
     1
 73
     0
176
     1
 90
        0
176
     1
 40
-0.6
176
     1
 41
-30.0
176
     1
 62
     5
 63
     7
421
 16777215
176
     1
 74
     1
176
     1
 91
        0
176
     1
 64
     7
176
     1
 65
   257
176
     1
 75
     1
176
     1
175
     1
176
     1
 42
1.0
176
     1
 92
        8
176
     1
 66
     8
424
  7895160
176
     1
 43
1.0
176
     1
 76
     1
176
     1
 77
     6
176
     1
 78
     2
176
     1
 67
     7
176
     1
 79
     5
176
     1
170
     0
176
     1
171
     0
176
     1
290
     0
176
     1
 93
       13
176
     1
 44
0.0
176
     1
173
     0
176
     1
  0
VISUALSTYLE
  5
37
102
{ACAD_REACTORS
330
2A
102
}
330
2A
100
AcDbVisualStyle
  2
Thicken
 70
    13
177
     2
291
     1
 71
     2
176
     1
 72
     2
176
     1
 73
     0
176
     1
 90
        0
176
     1
 40
-0.6
176
     1
 41
-30.0
176
     1
 62
     5
 63
     7
421
 16777215
176
     1
 74
     1
176
     1
 91
        4
176
     1
 64
     7
176
     1
 65
   257
176
     1
 75
     1
176
     1
175
     1
176
     1
 42
1.0
176
     1
 92
       12
176
     1
 66
     7
176
     1
 43
1.0
176
     1
 76
     1
176
     1
 77
     6
176
     1
 78
     2
176
     1
 67
     7
176
     1
 79
     5
176
     1
170
     0
176
     1
171
     0
176
     1
290
     0
176
     1
 93
        1
176
     1
 44
0.0
176
     1
173
     0
176
     1
  0
ENDSEC
  0
EOF
