  0
SECTION
  2
HEADER
  9
$ACADVER
  1
AC1024
  9
$ACADMAINTVER
 70
     6
  9
$DWGCODEPAGE
  3
UNDEFINED
  9
$INSBASE
 10
0.0
 20
0.0
 30
0.0
  9
$EXTMIN
 10
1.000000000000000E+20
 20
1.000000000000000E+20
 30
1.000000000000000E+20
  9
$EXTMAX
 10
-1.000000000000000E+20
 20
-1.000000000000000E+20
 30
-1.000000000000000E+20
  9
$LIMMIN
 10
0.0
 20
0.0
  9
$LIMMAX
 10
12.0
 20
9.0
  9
$ORTHOMODE
 70
     0
  9
$REGENMODE
 70
     1
  9
$FILLMODE
 70
     1
  9
$QTEXTMODE
 70
     0
  9
$MIRRTEXT
 70
     1
  9
$LTSCALE
 40
1.0
  9
$ATTMODE
 70
     1
  9
$TEXTSIZE
 40
0.2
  9
$TRACEWID
 40
0.05
  9
$TEXTSTYLE
  7
Standard
  9
$CLAYER
  8
0
  9
$CELTYPE
  6
ByLayer
  9
$CECOLOR
 62
   256
  9
$CELTSCALE
 40
1.0
  9
$DISPSILH
 70
     0
  9
$DIMSCALE
 40
1.0
  9
$DIMASZ
 40
0.18
  9
$DIMEXO
 40
0.0625
  9
$DIMDLI
 40
0.38
  9
$DIMRND
 40
0.0
  9
$DIMDLE
 40
0.0
  9
$DIMEXE
 40
0.18
  9
$DIMTP
 40
0.0
  9
$DIMTM
 40
0.0
  9
$DIMTXT
 40
0.18
  9
$DIMCEN
 40
0.09
  9
$DIMTSZ
 40
0.0
  9
$DIMTOL
 70
     0
  9
$DIMLIM
 70
     0
  9
$DIMTIH
 70
     1
  9
$DIMTOH
 70
     1
  9
$DIMSE1
 70
     0
  9
$DIMSE2
 70
     0
  9
$DIMTAD
 70
     0
  9
$DIMZIN
 70
     0
  9
$DIMBLK
  1

  9
$DIMASO
 70
     1
  9
$DIMSHO
 70
     1
  9
$DIMPOST
  1

  9
$DIMAPOST
  1

  9
$DIMALT
 70
     0
  9
$DIMALTD
 70
     2
  9
$DIMALTF
 40
25.4
  9
$DIMLFAC
 40
1.0
  9
$DIMTOFL
 70
     0
  9
$DIMTVP
 40
0.0
  9
$DIMTIX
 70
     0
  9
$DIMSOXD
 70
     0
  9
$DIMSAH
 70
     0
  9
$DIMBLK1
  1

  9
$DIMBLK2
  1

  9
$DIMSTYLE
  2
Standard
  9
$DIMCLRD
 70
     0
  9
$DIMCLRE
 70
     0
  9
$DIMCLRT
 70
     0
  9
$DIMTFAC
 40
1.0
  9
$DIMGAP
 40
0.09
  9
$DIMJUST
 70
     0
  9
$DIMSD1
 70
     0
  9
$DIMSD2
 70
     0
  9
$DIMTOLJ
 70
     1
  9
$DIMTZIN
 70
     0
  9
$DIMALTZ
 70
     0
  9
$DIMALTTZ
 70
     0
  9
$DIMUPT
 70
     0
  9
$DIMDEC
 70
     4
  9
$DIMTDEC
 70
     4
  9
$DIMALTU
 70
     2
  9
$DIMALTTD
 70
     2
  9
$DIMTXSTY
  7
Standard
  9
$DIMAUNIT
 70
     0
  9
$DIMADEC
 70
     0
  9
$DIMALTRND
 40
0.0
  9
$DIMAZIN
 70
     0
  9
$DIMDSEP
 70
    46
  9
$DIMATFIT
 70
     3
  9
$DIMFRAC
 70
     0
  9
$DIMLDRBLK
  1

  9
$DIMLUNIT
 70
     2
  9
$DIMLWD
 70
    -2
  9
$DIMLWE
 70
    -2
  9
$DIMTMOVE
 70
     0
  9
$DIMFXL
 40
1.0
  9
$DIMFXLON
 70
     0
  9
$DIMJOGANG
 40
0.7853981633974483
  9
$DIMTFILL
 70
     0
  9
$DIMTFILLCLR
 70
     0
  9
$DIMARCSYM
 70
     0
  9
$DIMLTYPE
  6

  9
$DIMLTEX1
  6

  9
$DIMLTEX2
  6

  9
$DIMTXTDIRECTION
 70
     0
  9
$LUNITS
 70
     2
  9
$LUPREC
 70
     4
  9
$SKETCHINC
 40
0.1
  9
$FILLETRAD
 40
0.5
  9
$AUNITS
 70
     0
  9
$AUPREC
 70
     0
  9
$MENU
  1
.
  9
$ELEVATION
 40
0.0
  9
$PELEVATION
 40
0.0
  9
$THICKNESS
 40
0.0
  9
$LIMCHECK
 70
     0
  9
$CHAMFERA
 40
0.5
  9
$CHAMFERB
 40
0.5
  9
$CHAMFERC
 40
1.0
  9
$CHAMFERD
 40
0.0
  9
$SKPOLY
 70
     0
  9
$TDCREATE
 40
2457917.599259248
  9
$TDUCREATE
 40
2457917.224259259
  9
$TDUPDATE
 40
2457917.599259248
  9
$TDUUPDATE
 40
2457917.224259259
  9
$TDINDWG
 40
0.0000000116
  9
$TDUSRTIMER
 40
0.0000000116
  9
$USRTIMER
 70
     1
  9
$ANGBASE
 50
0.0
  9
$ANGDIR
 70
     0
  9
$PDMODE
 70
     0
  9
$PDSIZE
 40
0.0
  9
$PLINEWID
 40
0.0
  9
$SPLFRAME
 70
     0
  9
$SPLINETYPE
 70
     6
  9
$SPLINESEGS
 70
     8
  9
$HANDSEED
  5
10A
  9
$SURFTAB1
 70
     6
  9
$SURFTAB2
 70
     6
  9
$SURFTYPE
 70
     6
  9
$SURFU
 70
     6
  9
$SURFV
 70
     6
  9
$UCSBASE
  2

  9
$UCSNAME
  2

  9
$UCSORG
 10
0.0
 20
0.0
 30
0.0
  9
$UCSXDIR
 10
1.0
 20
0.0
 30
0.0
  9
$UCSYDIR
 10
0.0
 20
1.0
 30
0.0
  9
$UCSORTHOREF
  2

  9
$UCSORTHOVIEW
 70
     0
  9
$UCSORGTOP
 10
0.0
 20
0.0
 30
0.0
  9
$UCSORGBOTTOM
 10
0.0
 20
0.0
 30
0.0
  9
$UCSORGLEFT
 10
0.0
 20
0.0
 30
0.0
  9
$UCSORGRIGHT
 10
0.0
 20
0.0
 30
0.0
  9
$UCSORGFRONT
 10
0.0
 20
0.0
 30
0.0
  9
$UCSORGBACK
 10
0.0
 20
0.0
 30
0.0
  9
$PUCSBASE
  2

  9
$PUCSNAME
  2

  9
$PUCSORG
 10
0.0
 20
0.0
 30
0.0
  9
$PUCSXDIR
 10
1.0
 20
0.0
 30
0.0
  9
$PUCSYDIR
 10
0.0
 20
1.0
 30
0.0
  9
$PUCSORTHOREF
  2

  9
$PUCSORTHOVIEW
 70
     0
  9
$PUCSORGTOP
 10
0.0
 20
0.0
 30
0.0
  9
$PUCSORGBOTTOM
 10
0.0
 20
0.0
 30
0.0
  9
$PUCSORGLEFT
 10
0.0
 20
0.0
 30
0.0
  9
$PUCSORGRIGHT
 10
0.0
 20
0.0
 30
0.0
  9
$PUCSORGFRONT
 10
0.0
 20
0.0
 30
0.0
  9
$PUCSORGBACK
 10
0.0
 20
0.0
 30
0.0
  9
$USERI1
 70
     0
  9
$USERI2
 70
     0
  9
$USERI3
 70
     0
  9
$USERI4
 70
     0
  9
$USERI5
 70
     0
  9
$USERR1
 40
0.0
  9
$USERR2
 40
0.0
  9
$USERR3
 40
0.0
  9
$USERR4
 40
0.0
  9
$USERR5
 40
0.0
  9
$WORLDVIEW
 70
     1
  9
$SHADEDGE
 70
     3
  9
$SHADEDIF
 70
    70
  9
$TILEMODE
 70
     1
  9
$MAXACTVP
 70
    64
  9
$PINSBASE
 10
0.0
 20
0.0
 30
0.0
  9
$PLIMCHECK
 70
     0
  9
$PEXTMIN
 10
1.000000000000000E+20
 20
1.000000000000000E+20
 30
1.000000000000000E+20
  9
$PEXTMAX
 10
-1.000000000000000E+20
 20
-1.000000000000000E+20
 30
-1.000000000000000E+20
  9
$PLIMMIN
 10
0.0
 20
0.0
  9
$PLIMMAX
 10
12.0
 20
9.0
  9
$UNITMODE
 70
     0
  9
$VISRETAIN
 70
     1
  9
$PLINEGEN
 70
     0
  9
$PSLTSCALE
 70
     1
  9
$TREEDEPTH
 70
  3020
  9
$CMLSTYLE
  2
Standard
  9
$CMLJUST
 70
     0
  9
$CMLSCALE
 40
1.0
  9
$PROXYGRAPHICS
 70
     1
  9
$MEASUREMENT
 70
     0
  9
$CELWEIGHT
370
    -1
  9
$ENDCAPS
280
     0
  9
$JOINSTYLE
280
     0
  9
$LWDISPLAY
290
     1
  9
$INSUNITS
 70
     1
  9
$HYPERLINKBASE
  1

  9
$STYLESHEET
  1

  9
$XEDIT
290
     1
  9
$CEPSNTYPE
380
     0
  9
$PSTYLEMODE
290
     1
  9
$FINGERPRINTGUID
  2
{4832B73D-6D9D-55D6-3D53-EBFCB45328B9}
  9
$VERSIONGUID
  2
{FAEB1C32-E019-11D5-929B-00C0DF256EC4}
  9
$EXTNAMES
290
     1
  9
$PSVPSCALE
 40
0.0
  9
$OLESTARTUP
290
     0
  9
$SORTENTS
280
   127
  9
$INDEXCTL
280
     0
  9
$HIDETEXT
280
     1
  9
$XCLIPFRAME
280
     2
  9
$HALOGAP
280
     0
  9
$OBSCOLOR
 70
   257
  9
$OBSLTYPE
280
     0
  9
$INTERSECTIONDISPLAY
280
     0
  9
$INTERSECTIONCOLOR
 70
   257
  9
$DIMASSOC
280
     2
  9
$PROJECTNAME
  1

  9
$CAMERADISPLAY
290
     0
  9
$LENSLENGTH
 40
50.0
  9
$CAMERAHEIGHT
 40
0.0
  9
$STEPSPERSEC
 40
2.0
  9
$STEPSIZE
 40
6.0
  9
$3DDWFPREC
 40
2.0
  9
$PSOLWIDTH
 40
0.25
  9
$PSOLHEIGHT
 40
4.0
  9
$LOFTANG1
 40
1.570796326794897
  9
$LOFTANG2
 40
1.570796326794897
  9
$LOFTMAG1
 40
0.0
  9
$LOFTMAG2
 40
0.0
  9
$LOFTPARAM
 70
     7
  9
$LOFTNORMALS
280
     1
  9
$LATITUDE
 40
37.795
  9
$LONGITUDE
 40
-122.394
  9
$NORTHDIRECTION
 40
0.0
  9
$TIMEZONE
 70
 -8000
  9
$LIGHTGLYPHDISPLAY
280
     1
  9
$TILEMODELIGHTSYNCH
280
     1
  9
$CMATERIAL
347
3C
  9
$SOLIDHIST
280
     1
  9
$SHOWHIST
280
     1
  9
$DWFFRAME
280
     2
  9
$DGNFRAME
280
     2
  9
$REALWORLDSCALE
290
     1
  9
$INTERFERECOLOR
 62
   256
  9
$CSHADOW
280
     0
  9
$SHADOWPLANELOCATION
 40
0.0
  0
ENDSEC
  0
SECTION
  2
CLASSES
  0
CLASS
  1
ACDBDICTIONARYWDFLT
  2
AcDbDictionaryWithDefault
  3
ObjectDBX Classes
 90
        0
 91
        4
280
     0
281
     0
  0
CLASS
  1
VISUALSTYLE
  2
AcDbVisualStyle
  3
ObjectDBX Classes
 90
     4095
 91
        4
280
     0
281
     0
  0
CLASS
  1
MATERIAL
  2
AcDbMaterial
  3
ObjectDBX Classes
 90
     1153
 91
        4
280
     0
281
     0
  0
CLASS
  1
SUN
  2
AcDbSun
  3
SCENEOE
 90
     1024
 91
        4
280
     0
281
     0
  0
ENDSEC
  0
SECTION
  2
TABLES
  0
TABLE
  2
VPORT
  5
8
330
0
100
AcDbSymbolTable
 70
     1
  0
VPORT
  5
29
330
8
100
AcDbSymbolTableRecord
100
AcDbViewportTableRecord
  2
*Active
 70
     0
 10
0.0
 20
0.0
 11
1.0
 21
1.0
 12
0.0
 22
0.0
 13
0.0
 23
0.0
 14
0.5
 24
0.5
 15
0.5
 25
0.5
 16
0.0
 26
0.0
 36
1.0
 17
91.00082462281999
 27
-128.4993055234307
 37
0.0
 40
256.9986110468615
 41
0.7081814508812795
 42
50.0
 43
0.0
 44
0.0
 50
0.0
 51
0.0
 71
     0
 72
   100
 73
     1
 74
     3
 75
     0
 76
     0
 77
     0
 78
     0
281
     0
 65
     1
110
0.0
120
0.0
130
0.0
111
1.0
121
0.0
131
0.0
112
0.0
122
1.0
132
0.0
 79
     0
146
0.0
 60
     3
 61
     5
292
     1
282
     1
141
0.0
142
0.0
 63
   250
361
3F
  0
ENDTAB
  0
TABLE
  2
LTYPE
  5
5
330
0
100
AcDbSymbolTable
 70
     1
  0
LTYPE
  5
14
330
5
100
AcDbSymbolTableRecord
100
AcDbLinetypeTableRecord
  2
ByBlock
 70
     0
  3

 72
    65
 73
     0
 40
0.0
  0
LTYPE
  5
15
330
5
100
AcDbSymbolTableRecord
100
AcDbLinetypeTableRecord
  2
ByLayer
 70
     0
  3

 72
    65
 73
     0
 40
0.0
  0
LTYPE
  5
16
330
5
100
AcDbSymbolTableRecord
100
AcDbLinetypeTableRecord
  2
Continuous
 70
     0
  3
Solid line
 72
    65
 73
     0
 40
0.0
  0
ENDTAB
  0
TABLE
  2
LAYER
  5
2
330
0
100
AcDbSymbolTable
 70
     2
  0
LAYER
  5
10
330
2
100
AcDbSymbolTableRecord
100
AcDbLayerTableRecord
  2
0
 70
     0
 62
     7
  6
Continuous
370
    -3
390
F
347
3E
  0
LAYER
  5
40
330
2
100
AcDbSymbolTableRecord
100
AcDbLayerTableRecord
  2
_U+30EC_U+30A4_U+30E4_U+30FC 1
 70
     0
 62
     7
  6
Continuous
370
    -3
390
F
347
3E
  0
ENDTAB
  0
TABLE
  2
STYLE
  5
3
330
0
100
AcDbSymbolTable
 70
     1
  0
STYLE
  5
11
330
3
100
AcDbSymbolTableRecord
100
AcDbTextStyleTableRecord
  2
Standard
 70
     0
 40
0.0
 41
1.0
 50
0.0
 71
     0
 42
0.2
  3
txt
  4

  0
ENDTAB
  0
TABLE
  2
VIEW
  5
6
330
0
100
AcDbSymbolTable
 70
     0
  0
ENDTAB
  0
TABLE
  2
UCS
  5
7
330
0
100
AcDbSymbolTable
 70
     0
  0
ENDTAB
  0
TABLE
  2
APPID
  5
9
330
0
100
AcDbSymbolTable
 70
     1
  0
APPID
  5
12
330
9
100
AcDbSymbolTableRecord
100
AcDbRegAppTableRecord
  2
ACAD
 70
     0
  0
ENDTAB
  0
TABLE
  2
DIMSTYLE
  5
A
330
0
100
AcDbSymbolTable
 70
     1
100
AcDbDimStyleTable
  0
DIMSTYLE
105
27
330
A
100
AcDbSymbolTableRecord
100
AcDbDimStyleTableRecord
  2
Standard
 70
     0
178
     0
340
11
  0
ENDTAB
  0
TABLE
  2
BLOCK_RECORD
  5
1
330
0
100
AcDbSymbolTable
 70
     9
  0
BLOCK_RECORD
  5
1F
330
1
100
AcDbSymbolTableRecord
100
AcDbBlockTableRecord
  2
*Model_Space
340
22
 70
     0
280
     1
281
     0
  0
BLOCK_RECORD
  5
1B
330
1
100
AcDbSymbolTableRecord
100
AcDbBlockTableRecord
  2
*Paper_Space
340
1E
 70
     0
280
     1
281
     0
  0
BLOCK_RECORD
  5
23
330
1
100
AcDbSymbolTableRecord
100
AcDbBlockTableRecord
  2
*Paper_Space0
340
26
 70
     0
280
     1
281
     0
  0
BLOCK_RECORD
  5
5F
330
1
100
AcDbSymbolTableRecord
100
AcDbBlockTableRecord
  2
block 2
340
0
102
{BLKREFS
331
60
102
}
 70
     0
280
     1
281
     0
  0
BLOCK_RECORD
  5
74
330
1
100
AcDbSymbolTableRecord
100
AcDbBlockTableRecord
  2
block 3
340
0
102
{BLKREFS
331
75
102
}
 70
     0
280
     1
281
     0
  0
BLOCK_RECORD
  5
85
330
1
100
AcDbSymbolTableRecord
100
AcDbBlockTableRecord
  2
block 4
340
0
102
{BLKREFS
331
86
102
}
 70
     0
280
     1
281
     0
  0
BLOCK_RECORD
  5
9A
330
1
100
AcDbSymbolTableRecord
100
AcDbBlockTableRecord
  2
block 5
340
0
102
{BLKREFS
331
9B
102
}
 70
     0
280
     1
281
     0
  0
BLOCK_RECORD
  5
AF
330
1
100
AcDbSymbolTableRecord
100
AcDbBlockTableRecord
  2
block 6
340
0
102
{BLKREFS
331
B0
102
}
 70
     0
280
     1
281
     0
  0
BLOCK_RECORD
  5
C4
330
1
100
AcDbSymbolTableRecord
100
AcDbBlockTableRecord
  2
block 7
340
0
102
{BLKREFS
331
C5
102
}
 70
     0
280
     1
281
     0
  0
BLOCK_RECORD
  5
DC
330
1
100
AcDbSymbolTableRecord
100
AcDbBlockTableRecord
  2
block 8
340
0
102
{BLKREFS
331
DD
102
}
 70
     0
280
     1
281
     0
  0
BLOCK_RECORD
  5
ED
330
1
100
AcDbSymbolTableRecord
100
AcDbBlockTableRecord
  2
block 9
340
0
102
{BLKREFS
331
EE
102
}
 70
     0
280
     1
281
     0
  0
ENDTAB
  0
ENDSEC
  0
SECTION
  2
BLOCKS
  0
BLOCK
  5
20
330
1F
100
AcDbEntity
  8
0
100
AcDbBlockBegin
  2
*Model_Space
 70
     0
 10
0.0
 20
0.0
 30
0.0
  3
*Model_Space
  1

  0
ENDBLK
  5
21
330
1F
100
AcDbEntity
  8
0
100
AcDbBlockEnd
  0
BLOCK
  5
1C
330
1B
100
AcDbEntity
 67
     1
  8
0
100
AcDbBlockBegin
  2
*Paper_Space
 70
     0
 10
0.0
 20
0.0
 30
0.0
  3
*Paper_Space
  1

  0
ENDBLK
  5
1D
330
1B
100
AcDbEntity
 67
     1
  8
0
100
AcDbBlockEnd
  0
BLOCK
  5
24
330
23
100
AcDbEntity
  8
0
100
AcDbBlockBegin
  2
*Paper_Space0
 70
     0
 10
0.0
 20
0.0
 30
0.0
  3
*Paper_Space0
  1

  0
ENDBLK
  5
25
330
23
100
AcDbEntity
  8
0
100
AcDbBlockEnd
  0
BLOCK
  5
61
330
5F
100
AcDbEntity
  8
0
100
AcDbBlockBegin
  2
block 2
 70
     0
 10
0.0
 20
0.0
 30
0.0
  3
block 2
  1

  0
SPLINE
  5
63
330
5F
100
AcDbEntity
  8
_U+30EC_U+30A4_U+30E4_U+30FC 1
370
     0
100
AcDbSpline
210
0.0
220
0.0
230
1.0
 70
    11
 71
     3
 72
    53
 73
    49
 74
     0
 42
0.0000000001
 43
0.0000000001
 12
1.0
 22
0.0
 32
0.0
 13
1.0
 23
0.0
 33
0.0
 40
0.0
 40
0.0
 40
0.0
 40
0.0
 40
1.0
 40
1.0
 40
1.0
 40
2.0
 40
2.0
 40
2.0
 40
3.0
 40
3.0
 40
3.0
 40
4.0
 40
4.0
 40
4.0
 40
5.0
 40
5.0
 40
5.0
 40
6.0
 40
6.0
 40
6.0
 40
7.0
 40
7.0
 40
7.0
 40
8.0
 40
8.0
 40
8.0
 40
9.0
 40
9.0
 40
9.0
 40
10.0
 40
10.0
 40
10.0
 40
11.0
 40
11.0
 40
11.0
 40
12.0
 40
12.0
 40
12.0
 40
13.0
 40
13.0
 40
13.0
 40
14.0
 40
14.0
 40
14.0
 40
15.0
 40
15.0
 40
15.0
 40
16.0
 40
16.0
 40
16.0
 40
16.0
 10
67.85287812973817
 20
-75.04899357932803
 30
0.0
 10
67.77450220744873
 20
-75.04899357932803
 30
0.0
 10
67.67304414540813
 20
-75.03194035667605
 30
0.0
 10
67.57141382859326
 20
-74.96855059974745
 30
0.0
 10
67.39795327091093
 20
-74.85847979899371
 30
0.0
 10
67.37676593367665
 20
-74.72739391577996
 30
0.0
 10
67.35781790850777
 20
-74.61956242709164
 30
0.0
 10
67.35781790850777
 20
-74.61956242709164
 30
0.0
 10
67.57985431253212
 20
-74.61956242709164
 30
0.0
 10
67.57985431253212
 20
-74.61956242709164
 30
0.0
 10
67.63497584029612
 20
-74.81834443659055
 30
0.0
 10
67.76192760892758
 20
-74.8479722577637
 30
0.0
 10
67.85494518702932
 20
-74.8479722577637
 30
0.0
 10
67.99447155418194
 20
-74.8479722577637
 30
0.0
 10
68.14691702940425
 20
-74.74858125301425
 30
0.0
 10
68.14691702940425
 20
-74.51586505298562
 30
0.0
 10
68.14691702940425
 20
-74.25989445843156
 30
0.0
 10
67.9670830450742
 20
-74.19013127485525
 30
0.0
 10
67.84650470309046
 20
-74.19013127485525
 30
0.0
 10
67.81480982462617
 20
-74.19013127485525
 30
0.0
 10
67.67304414540813
 20
-74.19013127485525
 30
0.0
 10
67.58416068188869
 20
-74.31915010077786
 30
0.0
 10
67.58416068188869
 20
-74.31915010077786
 30
0.0
 10
67.4086330669152
 20
-74.30002982083472
 30
0.0
 10
67.4086330669152
 20
-74.30002982083472
 30
0.0
 10
67.4086330669152
 20
-74.30002982083472
 30
0.0
 10
67.52921140889895
 20
-73.45391436965735
 30
0.0
 10
67.52921140889895
 20
-73.45391436965735
 30
0.0
 10
67.52921140889895
 20
-73.45391436965735
 30
0.0
 10
68.30763073379116
 20
-73.45391436965735
 30
0.0
 10
68.30763073379116
 20
-73.45391436965735
 30
0.0
 10
68.30763073379116
 20
-73.45391436965735
 30
0.0
 10
68.30763073379116
 20
-73.64856226457397
 30
0.0
 10
68.30763073379116
 20
-73.64856226457397
 30
0.0
 10
68.30763073379116
 20
-73.64856226457397
 30
0.0
 10
67.69199217057701
 20
-73.64856226457397
 30
0.0
 10
67.69199217057701
 20
-73.64856226457397
 30
0.0
 10
67.69199217057701
 20
-73.64856226457397
 30
0.0
 10
67.62653535635725
 20
-74.07161999016266
 30
0.0
 10
67.62653535635725
 20
-74.07161999016266
 30
0.0
 10
67.68785805599471
 20
-74.03768579963294
 30
0.0
 10
67.77036809286643
 20
-73.99755043722978
 30
0.0
 10
67.88870712278477
 20
-73.99755043722978
 30
0.0
 10
68.14261066004768
 20
-73.99755043722978
 30
0.0
 10
68.37963322943287
 20
-74.18375784820753
 30
0.0
 10
68.37963322943287
 20
-74.49674477304248
 30
0.0
 10
68.37963322943287
 20
-74.81421032200825
 30
0.0
 10
68.1553575133431
 20
-75.04899357932803
 30
0.0
 10
67.85287812973817
 20
-75.04899357932803
 30
0.0
  0
HATCH
  5
64
330
5F
100
AcDbEntity
  8
_U+30EC_U+30A4_U+30E4_U+30FC 1
 62
   179
420
  2234388
100
AcDbHatch
 10
0.0
 20
0.0
 30
0.0
210
0.0
220
0.0
230
1.0
  2
SOLID
 70
     1
 71
     0
 91
        1
 92
        1
 93
        1
 72
     4
 94
        3
 73
     0
 74
     1
 95
       53
 96
       49
 40
0.0
 40
0.0
 40
0.0
 40
0.0
 40
1.0
 40
1.0
 40
1.0
 40
2.0
 40
2.0
 40
2.0
 40
3.0
 40
3.0
 40
3.0
 40
4.0
 40
4.0
 40
4.0
 40
5.0
 40
5.0
 40
5.0
 40
6.0
 40
6.0
 40
6.0
 40
7.0
 40
7.0
 40
7.0
 40
8.0
 40
8.0
 40
8.0
 40
9.0
 40
9.0
 40
9.0
 40
10.0
 40
10.0
 40
10.0
 40
11.0
 40
11.0
 40
11.0
 40
12.0
 40
12.0
 40
12.0
 40
13.0
 40
13.0
 40
13.0
 40
14.0
 40
14.0
 40
14.0
 40
15.0
 40
15.0
 40
15.0
 40
16.0
 40
16.0
 40
16.0
 40
16.0
 10
67.85287812973817
 20
-75.04899357932803
 10
67.77450220744873
 20
-75.04899357932803
 10
67.67304414540813
 20
-75.03194035667605
 10
67.57141382859326
 20
-74.96855059974745
 10
67.39795327091093
 20
-74.85847979899371
 10
67.37676593367665
 20
-74.72739391577996
 10
67.35781790850777
 20
-74.61956242709164
 10
67.35781790850777
 20
-74.61956242709164
 10
67.57985431253212
 20
-74.61956242709164
 10
67.57985431253212
 20
-74.61956242709164
 10
67.63497584029612
 20
-74.81834443659055
 10
67.76192760892758
 20
-74.8479722577637
 10
67.85494518702932
 20
-74.8479722577637
 10
67.99447155418194
 20
-74.8479722577637
 10
68.14691702940425
 20
-74.74858125301425
 10
68.14691702940425
 20
-74.51586505298562
 10
68.14691702940425
 20
-74.25989445843156
 10
67.9670830450742
 20
-74.19013127485525
 10
67.84650470309046
 20
-74.19013127485525
 10
67.81480982462617
 20
-74.19013127485525
 10
67.67304414540813
 20
-74.19013127485525
 10
67.58416068188869
 20
-74.31915010077786
 10
67.58416068188869
 20
-74.31915010077786
 10
67.4086330669152
 20
-74.30002982083472
 10
67.4086330669152
 20
-74.30002982083472
 10
67.4086330669152
 20
-74.30002982083472
 10
67.52921140889895
 20
-73.45391436965735
 10
67.52921140889895
 20
-73.45391436965735
 10
67.52921140889895
 20
-73.45391436965735
 10
68.30763073379116
 20
-73.45391436965735
 10
68.30763073379116
 20
-73.45391436965735
 10
68.30763073379116
 20
-73.45391436965735
 10
68.30763073379116
 20
-73.64856226457397
 10
68.30763073379116
 20
-73.64856226457397
 10
68.30763073379116
 20
-73.64856226457397
 10
67.69199217057701
 20
-73.64856226457397
 10
67.69199217057701
 20
-73.64856226457397
 10
67.69199217057701
 20
-73.64856226457397
 10
67.62653535635725
 20
-74.07161999016266
 10
67.62653535635725
 20
-74.07161999016266
 10
67.68785805599471
 20
-74.03768579963294
 10
67.77036809286643
 20
-73.99755043722978
 10
67.88870712278477
 20
-73.99755043722978
 10
68.14261066004768
 20
-73.99755043722978
 10
68.37963322943287
 20
-74.18375784820753
 10
68.37963322943287
 20
-74.49674477304248
 10
68.37963322943287
 20
-74.81421032200825
 10
68.1553575133431
 20
-75.04899357932803
 10
67.85287812973817
 20
-75.04899357932803
 97
        0
 97
        0
 75
     2
 76
     1
 98
        0
  0
SPLINE
  5
65
330
5F
100
AcDbEntity
  8
_U+30EC_U+30A4_U+30E4_U+30FC 1
370
     0
100
AcDbSpline
210
0.0
220
0.0
230
1.0
 70
    11
 71
     3
 72
    29
 73
    25
 74
     0
 42
0.0000000001
 43
0.0000000001
 12
1.0
 22
0.0
 32
0.0
 13
1.0
 23
0.0
 33
0.0
 40
0.0
 40
0.0
 40
0.0
 40
0.0
 40
1.0
 40
1.0
 40
1.0
 40
2.0
 40
2.0
 40
2.0
 40
3.0
 40
3.0
 40
3.0
 40
4.0
 40
4.0
 40
4.0
 40
5.0
 40
5.0
 40
5.0
 40
6.0
 40
6.0
 40
6.0
 40
7.0
 40
7.0
 40
7.0
 40
8.0
 40
8.0
 40
8.0
 40
8.0
 10
69.44640704644048
 20
-74.8204114938817
 30
0.0
 10
69.33857555775216
 20
-75.0298732993849
 30
0.0
 10
69.16511500006983
 20
-75.04899357932803
 30
0.0
 10
69.04867077266839
 20
-75.04899357932803
 30
0.0
 10
68.88795706828148
 20
-75.04899357932803
 30
0.0
 10
68.74619138906345
 20
-75.00248479027717
 30
0.0
 10
68.65093449889629
 20
-74.8204114938817
 30
0.0
 10
68.54740937956454
 20
-74.6257635989651
 30
0.0
 10
68.5282890996214
 20
-74.38891328435416
 30
0.0
 10
68.5282890996214
 20
-74.22596026790184
 30
0.0
 10
68.5282890996214
 20
-74.08212753139267
 30
0.0
 10
68.54517006749913
 20
-73.83046330619517
 30
0.0
 10
68.65093449889629
 20
-73.63150904192199
 30
0.0
 10
68.75893824235888
 20
-73.4284206630665
 30
0.0
 10
68.91965194674579
 20
-73.40516626854107
 30
0.0
 10
69.04867077266839
 20
-73.40516626854107
 30
0.0
 10
69.20731741976415
 20
-73.40516626854107
 30
0.0
 10
69.35115015627332
 20
-73.4496080003008
 30
0.0
 10
69.44640704644048
 20
-73.63150904192199
 30
0.0
 10
69.54579805118995
 20
-73.82408987954746
 30
0.0
 10
69.56905244571539
 20
-74.05249971021952
 30
0.0
 10
69.56905244571539
 20
-74.22596026790184
 30
0.0
 10
69.56905244571539
 20
-74.39735376829303
 30
0.0
 10
69.54803736325536
 20
-74.6280029110305
 30
0.0
 10
69.44640704644048
 20
-74.8204114938817
 30
0.0
  0
SPLINE
  5
66
330
5F
100
AcDbEntity
  8
_U+30EC_U+30A4_U+30E4_U+30FC 1
370
     0
100
AcDbSpline
210
0.0
220
0.0
230
1.0
 70
    11
 71
     3
 72
    17
 73
    13
 74
     0
 42
0.0000000001
 43
0.0000000001
 12
1.0
 22
0.0
 32
0.0
 13
1.0
 23
0.0
 33
0.0
 40
0.0
 40
0.0
 40
0.0
 40
0.0
 40
1.0
 40
1.0
 40
1.0
 40
2.0
 40
2.0
 40
2.0
 40
3.0
 40
3.0
 40
3.0
 40
4.0
 40
4.0
 40
4.0
 40
4.0
 10
69.04867077266839
 20
-73.59774710616654
 30
0.0
 10
68.79907360476204
 20
-73.59774710616654
 30
0.0
 10
68.75256481571117
 20
-73.8812784646026
 30
0.0
 10
68.75256481571117
 20
-74.22596026790184
 30
0.0
 10
68.75256481571117
 20
-74.54549287415877
 30
0.0
 10
68.78856606353203
 20
-74.85434568441141
 30
0.0
 10
69.04867077266839
 20
-74.85434568441141
 30
0.0
 10
69.29620088328359
 20
-74.85434568441141
 30
0.0
 10
69.34494898439988
 20
-74.5728813832665
 30
0.0
 10
69.34494898439988
 20
-74.22596026790184
 30
0.0
 10
69.34494898439988
 20
-73.90659991641918
 30
0.0
 10
69.3067084245136
 20
-73.59774710616654
 30
0.0
 10
69.04867077266839
 20
-73.59774710616654
 30
0.0
  0
HATCH
  5
67
330
5F
100
AcDbEntity
  8
_U+30EC_U+30A4_U+30E4_U+30FC 1
 62
   179
420
  2234388
100
AcDbHatch
 10
0.0
 20
0.0
 30
0.0
210
0.0
220
0.0
230
1.0
  2
SOLID
 70
     1
 71
     0
 91
        2
 92
        1
 93
        1
 72
     4
 94
        3
 73
     0
 74
     1
 95
       29
 96
       25
 40
0.0
 40
0.0
 40
0.0
 40
0.0
 40
1.0
 40
1.0
 40
1.0
 40
2.0
 40
2.0
 40
2.0
 40
3.0
 40
3.0
 40
3.0
 40
4.0
 40
4.0
 40
4.0
 40
5.0
 40
5.0
 40
5.0
 40
6.0
 40
6.0
 40
6.0
 40
7.0
 40
7.0
 40
7.0
 40
8.0
 40
8.0
 40
8.0
 40
8.0
 10
69.44640704644048
 20
-74.8204114938817
 10
69.33857555775216
 20
-75.0298732993849
 10
69.16511500006983
 20
-75.04899357932803
 10
69.04867077266839
 20
-75.04899357932803
 10
68.88795706828148
 20
-75.04899357932803
 10
68.74619138906345
 20
-75.00248479027717
 10
68.65093449889629
 20
-74.8204114938817
 10
68.54740937956454
 20
-74.6257635989651
 10
68.5282890996214
 20
-74.38891328435416
 10
68.5282890996214
 20
-74.22596026790184
 10
68.5282890996214
 20
-74.08212753139267
 10
68.54517006749913
 20
-73.83046330619517
 10
68.65093449889629
 20
-73.63150904192199
 10
68.75893824235888
 20
-73.4284206630665
 10
68.91965194674579
 20
-73.40516626854107
 10
69.04867077266839
 20
-73.40516626854107
 10
69.20731741976415
 20
-73.40516626854107
 10
69.35115015627332
 20
-73.4496080003008
 10
69.44640704644048
 20
-73.63150904192199
 10
69.54579805118995
 20
-73.82408987954746
 10
69.56905244571539
 20
-74.05249971021952
 10
69.56905244571539
 20
-74.22596026790184
 10
69.56905244571539
 20
-74.39735376829303
 10
69.54803736325536
 20
-74.6280029110305
 10
69.44640704644048
 20
-74.8204114938817
 97
        0
 97
        0
 92
        1
 93
        1
 72
     4
 94
        3
 73
     0
 74
     1
 95
       17
 96
       13
 40
0.0
 40
0.0
 40
0.0
 40
0.0
 40
1.0
 40
1.0
 40
1.0
 40
2.0
 40
2.0
 40
2.0
 40
3.0
 40
3.0
 40
3.0
 40
4.0
 40
4.0
 40
4.0
 40
4.0
 10
69.04867077266839
 20
-73.59774710616654
 10
68.79907360476204
 20
-73.59774710616654
 10
68.75256481571117
 20
-73.8812784646026
 10
68.75256481571117
 20
-74.22596026790184
 10
68.75256481571117
 20
-74.54549287415877
 10
68.78856606353203
 20
-74.85434568441141
 10
69.04867077266839
 20
-74.85434568441141
 10
69.29620088328359
 20
-74.85434568441141
 10
69.34494898439988
 20
-74.5728813832665
 10
69.34494898439988
 20
-74.22596026790184
 10
69.34494898439988
 20
-73.90659991641918
 10
69.3067084245136
 20
-73.59774710616654
 10
69.04867077266839
 20
-73.59774710616654
 97
        0
 97
        0
 75
     2
 76
     1
 98
        0
  0
ENDBLK
  5
62
330
5F
100
AcDbEntity
  8
0
100
AcDbBlockEnd
  0
BLOCK
  5
76
330
74
100
AcDbEntity
  8
0
100
AcDbBlockBegin
  2
block 3
 70
     0
 10
0.0
 20
0.0
 30
0.0
  3
block 3
  1

  0
SPLINE
  5
78
330
74
100
AcDbEntity
  8
_U+30EC_U+30A4_U+30E4_U+30FC 1
370
     0
100
AcDbSpline
210
0.0
220
0.0
230
1.0
 70
    11
 71
     3
 72
    26
 73
    22
 74
     0
 42
0.0000000001
 43
0.0000000001
 12
1.0
 22
0.0
 32
0.0
 13
1.0
 23
0.0
 33
0.0
 40
0.0
 40
0.0
 40
0.0
 40
0.0
 40
1.0
 40
1.0
 40
1.0
 40
2.0
 40
2.0
 40
2.0
 40
3.0
 40
3.0
 40
3.0
 40
4.0
 40
4.0
 40
4.0
 40
5.0
 40
5.0
 40
5.0
 40
6.0
 40
6.0
 40
6.0
 40
7.0
 40
7.0
 40
7.0
 40
7.0
 10
76.58275008936126
 20
-182.998649042792
 30
0.0
 10
76.58275008936126
 20
-182.998649042792
 30
0.0
 10
76.34589977475034
 20
-182.998649042792
 30
0.0
 10
76.34589977475034
 20
-182.998649042792
 30
0.0
 10
76.37122122656692
 20
-182.6896239777651
 30
0.0
 10
76.56380206419239
 20
-182.1714816167835
 30
0.0
 10
76.96997882190334
 20
-181.6657415995489
 30
0.0
 10
76.96997882190334
 20
-181.6657415995489
 30
0.0
 10
76.13213159989058
 20
-181.6657415995489
 30
0.0
 10
76.13213159989058
 20
-181.6657415995489
 30
0.0
 10
76.13213159989058
 20
-181.6657415995489
 30
0.0
 10
76.13213159989058
 20
-181.4542127367545
 30
0.0
 10
76.13213159989058
 20
-181.4542127367545
 30
0.0
 10
76.13213159989058
 20
-181.4542127367545
 30
0.0
 10
77.20682913651427
 20
-181.4542127367545
 30
0.0
 10
77.20682913651427
 20
-181.4542127367545
 30
0.0
 10
77.20682913651427
 20
-181.4542127367545
 30
0.0
 10
77.20682913651427
 20
-181.6657415995489
 30
0.0
 10
77.20682913651427
 20
-181.6657415995489
 30
0.0
 10
76.88316241567505
 20
-181.9558186394069
 30
0.0
 10
76.61668427989098
 20
-182.5480305533213
 30
0.0
 10
76.58275008936126
 20
-182.998649042792
 30
0.0
  0
HATCH
  5
79
330
74
100
AcDbEntity
  8
_U+30EC_U+30A4_U+30E4_U+30FC 1
 62
   179
420
  2234388
100
AcDbHatch
 10
0.0
 20
0.0
 30
0.0
210
0.0
220
0.0
230
1.0
  2
SOLID
 70
     1
 71
     0
 91
        1
 92
        1
 93
        1
 72
     4
 94
        3
 73
     0
 74
     1
 95
       26
 96
       22
 40
0.0
 40
0.0
 40
0.0
 40
0.0
 40
1.0
 40
1.0
 40
1.0
 40
2.0
 40
2.0
 40
2.0
 40
3.0
 40
3.0
 40
3.0
 40
4.0
 40
4.0
 40
4.0
 40
5.0
 40
5.0
 40
5.0
 40
6.0
 40
6.0
 40
6.0
 40
7.0
 40
7.0
 40
7.0
 40
7.0
 10
76.58275008936126
 20
-182.998649042792
 10
76.58275008936126
 20
-182.998649042792
 10
76.34589977475034
 20
-182.998649042792
 10
76.34589977475034
 20
-182.998649042792
 10
76.37122122656692
 20
-182.6896239777651
 10
76.56380206419239
 20
-182.1714816167835
 10
76.96997882190334
 20
-181.6657415995489
 10
76.96997882190334
 20
-181.6657415995489
 10
76.13213159989058
 20
-181.6657415995489
 10
76.13213159989058
 20
-181.6657415995489
 10
76.13213159989058
 20
-181.6657415995489
 10
76.13213159989058
 20
-181.4542127367545
 10
76.13213159989058
 20
-181.4542127367545
 10
76.13213159989058
 20
-181.4542127367545
 10
77.20682913651427
 20
-181.4542127367545
 10
77.20682913651427
 20
-181.4542127367545
 10
77.20682913651427
 20
-181.4542127367545
 10
77.20682913651427
 20
-181.6657415995489
 10
77.20682913651427
 20
-181.6657415995489
 10
76.88316241567505
 20
-181.9558186394069
 10
76.61668427989098
 20
-182.5480305533213
 10
76.58275008936126
 20
-182.998649042792
 97
        0
 97
        0
 75
     2
 76
     1
 98
        0
  0
SPLINE
  5
7A
330
74
100
AcDbEntity
  8
_U+30EC_U+30A4_U+30E4_U+30FC 1
370
     0
100
AcDbSpline
210
0.0
220
0.0
230
1.0
 70
    11
 71
     3
 72
    29
 73
    25
 74
     0
 42
0.0000000001
 43
0.0000000001
 12
1.0
 22
0.0
 32
0.0
 13
1.0
 23
0.0
 33
0.0
 40
0.0
 40
0.0
 40
0.0
 40
0.0
 40
1.0
 40
1.0
 40
1.0
 40
2.0
 40
2.0
 40
2.0
 40
3.0
 40
3.0
 40
3.0
 40
4.0
 40
4.0
 40
4.0
 40
5.0
 40
5.0
 40
5.0
 40
6.0
 40
6.0
 40
6.0
 40
7.0
 40
7.0
 40
7.0
 40
8.0
 40
8.0
 40
8.0
 40
8.0
 10
78.24621444441415
 20
-182.8208821157531
 30
0.0
 10
78.13838295572583
 20
-183.0303439212563
 30
0.0
 10
77.9649223980435
 20
-183.0492919464252
 30
0.0
 10
77.84847817064205
 20
-183.0492919464252
 30
0.0
 10
77.68776446625515
 20
-183.0492919464252
 30
0.0
 10
77.54599878703712
 20
-183.0027831573743
 30
0.0
 10
77.45074189686996
 20
-182.8208821157531
 30
0.0
 10
77.3472167775382
 20
-182.6262342208365
 30
0.0
 10
77.32809649759507
 20
-182.3892116514513
 30
0.0
 10
77.32809649759507
 20
-182.2266031445475
 30
0.0
 10
77.32809649759507
 20
-182.0825981532641
 30
0.0
 10
77.34497746547278
 20
-181.8307616732923
 30
0.0
 10
77.45074189686996
 20
-181.6319796637934
 30
0.0
 10
77.55874564033255
 20
-181.4290635397122
 30
0.0
 10
77.71945934471944
 20
-181.4056368904125
 30
0.0
 10
77.84847817064205
 20
-181.4056368904125
 30
0.0
 10
78.0071248177378
 20
-181.4056368904125
 30
0.0
 10
78.15095755424699
 20
-181.4500786221722
 30
0.0
 10
78.24621444441415
 20
-181.6319796637934
 30
0.0
 10
78.3456054491636
 20
-181.8245605014189
 30
0.0
 10
78.36885984368904
 20
-182.0529703320909
 30
0.0
 10
78.36885984368904
 20
-182.2266031445475
 30
0.0
 10
78.36885984368904
 20
-182.3978243901644
 30
0.0
 10
78.34784476122901
 20
-182.6283012781277
 30
0.0
 10
78.24621444441415
 20
-182.8208821157531
 30
0.0
  0
SPLINE
  5
7B
330
74
100
AcDbEntity
  8
_U+30EC_U+30A4_U+30E4_U+30FC 1
370
     0
100
AcDbSpline
210
0.0
220
0.0
230
1.0
 70
    11
 71
     3
 72
    17
 73
    13
 74
     0
 42
0.0000000001
 43
0.0000000001
 12
1.0
 22
0.0
 32
0.0
 13
1.0
 23
0.0
 33
0.0
 40
0.0
 40
0.0
 40
0.0
 40
0.0
 40
1.0
 40
1.0
 40
1.0
 40
2.0
 40
2.0
 40
2.0
 40
3.0
 40
3.0
 40
3.0
 40
4.0
 40
4.0
 40
4.0
 40
4.0
 10
77.84847817064205
 20
-181.598217728038
 30
0.0
 10
77.5988810027357
 20
-181.598217728038
 30
0.0
 10
77.55237221368483
 20
-181.881749086474
 30
0.0
 10
77.55237221368483
 20
-182.2266031445475
 30
0.0
 10
77.55237221368483
 20
-182.5459634960302
 30
0.0
 10
77.58837346150568
 20
-182.8546440515086
 30
0.0
 10
77.84847817064205
 20
-182.8546440515086
 30
0.0
 10
78.09600828125726
 20
-182.8546440515086
 30
0.0
 10
78.14475638237354
 20
-182.5735242599122
 30
0.0
 10
78.14475638237354
 20
-182.2266031445475
 30
0.0
 10
78.14475638237354
 20
-181.9068982835163
 30
0.0
 10
78.10651582248727
 20
-181.598217728038
 30
0.0
 10
77.84847817064205
 20
-181.598217728038
 30
0.0
  0
HATCH
  5
7C
330
74
100
AcDbEntity
  8
_U+30EC_U+30A4_U+30E4_U+30FC 1
 62
   179
420
  2234388
100
AcDbHatch
 10
0.0
 20
0.0
 30
0.0
210
0.0
220
0.0
230
1.0
  2
SOLID
 70
     1
 71
     0
 91
        2
 92
        1
 93
        1
 72
     4
 94
        3
 73
     0
 74
     1
 95
       29
 96
       25
 40
0.0
 40
0.0
 40
0.0
 40
0.0
 40
1.0
 40
1.0
 40
1.0
 40
2.0
 40
2.0
 40
2.0
 40
3.0
 40
3.0
 40
3.0
 40
4.0
 40
4.0
 40
4.0
 40
5.0
 40
5.0
 40
5.0
 40
6.0
 40
6.0
 40
6.0
 40
7.0
 40
7.0
 40
7.0
 40
8.0
 40
8.0
 40
8.0
 40
8.0
 10
78.24621444441415
 20
-182.8208821157531
 10
78.13838295572583
 20
-183.0303439212563
 10
77.9649223980435
 20
-183.0492919464252
 10
77.84847817064205
 20
-183.0492919464252
 10
77.68776446625515
 20
-183.0492919464252
 10
77.54599878703712
 20
-183.0027831573743
 10
77.45074189686996
 20
-182.8208821157531
 10
77.3472167775382
 20
-182.6262342208365
 10
77.32809649759507
 20
-182.3892116514513
 10
77.32809649759507
 20
-182.2266031445475
 10
77.32809649759507
 20
-182.0825981532641
 10
77.34497746547278
 20
-181.8307616732923
 10
77.45074189686996
 20
-181.6319796637934
 10
77.55874564033255
 20
-181.4290635397122
 10
77.71945934471944
 20
-181.4056368904125
 10
77.84847817064205
 20
-181.4056368904125
 10
78.0071248177378
 20
-181.4056368904125
 10
78.15095755424699
 20
-181.4500786221722
 10
78.24621444441415
 20
-181.6319796637934
 10
78.3456054491636
 20
-181.8245605014189
 10
78.36885984368904
 20
-182.0529703320909
 10
78.36885984368904
 20
-182.2266031445475
 10
78.36885984368904
 20
-182.3978243901644
 10
78.34784476122901
 20
-182.6283012781277
 10
78.24621444441415
 20
-182.8208821157531
 97
        0
 97
        0
 92
        1
 93
        1
 72
     4
 94
        3
 73
     0
 74
     1
 95
       17
 96
       13
 40
0.0
 40
0.0
 40
0.0
 40
0.0
 40
1.0
 40
1.0
 40
1.0
 40
2.0
 40
2.0
 40
2.0
 40
3.0
 40
3.0
 40
3.0
 40
4.0
 40
4.0
 40
4.0
 40
4.0
 10
77.84847817064205
 20
-181.598217728038
 10
77.5988810027357
 20
-181.598217728038
 10
77.55237221368483
 20
-181.881749086474
 10
77.55237221368483
 20
-182.2266031445475
 10
77.55237221368483
 20
-182.5459634960302
 10
77.58837346150568
 20
-182.8546440515086
 10
77.84847817064205
 20
-182.8546440515086
 10
78.09600828125726
 20
-182.8546440515086
 10
78.14475638237354
 20
-182.5735242599122
 10
78.14475638237354
 20
-182.2266031445475
 10
78.14475638237354
 20
-181.9068982835163
 10
78.10651582248727
 20
-181.598217728038
 10
77.84847817064205
 20
-181.598217728038
 97
        0
 97
        0
 75
     2
 76
     1
 98
        0
  0
ENDBLK
  5
77
330
74
100
AcDbEntity
  8
0
100
AcDbBlockEnd
  0
BLOCK
  5
87
330
85
100
AcDbEntity
  8
0
100
AcDbBlockBegin
  2
block 4
 70
     0
 10
0.0
 20
0.0
 30
0.0
  3
block 4
  1

  0
SPLINE
  5
89
330
85
100
AcDbEntity
  8
_U+30EC_U+30A4_U+30E4_U+30FC 1
370
     0
100
AcDbSpline
210
0.0
220
0.0
230
1.0
 70
    11
 71
     3
 72
    62
 73
    58
 74
     0
 42
0.0000000001
 43
0.0000000001
 12
1.0
 22
0.0
 32
0.0
 13
1.0
 23
0.0
 33
0.0
 40
0.0
 40
0.0
 40
0.0
 40
0.0
 40
1.0
 40
1.0
 40
1.0
 40
2.0
 40
2.0
 40
2.0
 40
3.0
 40
3.0
 40
3.0
 40
4.0
 40
4.0
 40
4.0
 40
5.0
 40
5.0
 40
5.0
 40
6.0
 40
6.0
 40
6.0
 40
7.0
 40
7.0
 40
7.0
 40
8.0
 40
8.0
 40
8.0
 40
9.0
 40
9.0
 40
9.0
 40
10.0
 40
10.0
 40
10.0
 40
11.0
 40
11.0
 40
11.0
 40
12.0
 40
12.0
 40
12.0
 40
13.0
 40
13.0
 40
13.0
 40
14.0
 40
14.0
 40
14.0
 40
15.0
 40
15.0
 40
15.0
 40
16.0
 40
16.0
 40
16.0
 40
17.0
 40
17.0
 40
17.0
 40
18.0
 40
18.0
 40
18.0
 40
19.0
 40
19.0
 40
19.0
 40
19.0
 10
126.6634141393411
 20
-183.0492919464252
 30
0.0
 10
126.5679849943997
 20
-183.0492919464252
 30
0.0
 10
126.3502549597319
 20
-183.0282768639652
 30
0.0
 10
126.2251979936173
 20
-182.8422417077617
 30
0.0
 10
126.1511284406844
 20
-182.7299315949425
 30
0.0
 10
126.1469943261021
 20
-182.6307128449673
 30
0.0
 10
126.1428602115198
 20
-182.5459634960302
 30
0.0
 10
126.1428602115198
 20
-182.5459634960302
 30
0.0
 10
126.3630018130273
 20
-182.5459634960302
 30
0.0
 10
126.3630018130273
 20
-182.5459634960302
 30
0.0
 10
126.3650688703185
 20
-182.6200330489631
 30
0.0
 10
126.3754041567742
 20
-182.8546440515086
 30
0.0
 10
126.6589355152103
 20
-182.8546440515086
 30
0.0
 10
126.7963948250717
 20
-182.8546440515086
 30
0.0
 10
126.9490125550683
 20
-182.7850531227065
 30
0.0
 10
126.9490125550683
 20
-182.5566432920345
 30
0.0
 10
126.9490125550683
 20
-182.440199064633
 30
0.0
 10
126.910771995182
 20
-182.391623218291
 30
0.0
 10
126.8790771167177
 20
-182.3599283398267
 30
0.0
 10
126.8050075637849
 20
-182.2858587868938
 30
0.0
 10
126.6885633363834
 20
-182.2731119335984
 30
0.0
 10
126.6337863181679
 20
-182.2731119335984
 30
0.0
 10
126.6144937834506
 20
-182.2731119335984
 30
0.0
 10
126.5786647904039
 20
-182.2751789908895
 30
0.0
 10
126.551104026522
 20
-182.2793131054719
 30
0.0
 10
126.551104026522
 20
-182.2793131054719
 30
0.0
 10
126.551104026522
 20
-182.0846652105552
 30
0.0
 10
126.551104026522
 20
-182.0846652105552
 30
0.0
 10
126.5893445864082
 20
-182.0912108919772
 30
0.0
 10
126.6313747513283
 20
-182.0932779492684
 30
0.0
 10
126.6379204327502
 20
-182.0932779492684
 30
0.0
 10
126.70337724697
 20
-182.0932779492684
 30
0.0
 10
126.9021592564689
 20
-182.0719183572598
 30
0.0
 10
126.9021592564689
 20
-181.8352402974232
 30
0.0
 10
126.9021592564689
 20
-181.6574733703843
 30
0.0
 10
126.7712456280294
 20
-181.6023518426203
 30
0.0
 10
126.6610025725014
 20
-181.6023518426203
 30
0.0
 10
126.3967637487828
 20
-181.6023518426203
 30
0.0
 10
126.3881510100696
 20
-181.8352402974232
 30
0.0
 10
126.3840168954873
 20
-181.9068982835163
 30
0.0
 10
126.3840168954873
 20
-181.9068982835163
 30
0.0
 10
126.1807562618576
 20
-181.9068982835163
 30
0.0
 10
126.1807562618576
 20
-181.9068982835163
 30
0.0
 10
126.1893690005707
 20
-181.7821858269503
 30
0.0
 10
126.2169297644527
 20
-181.4056368904125
 30
0.0
 10
126.6737494257968
 20
-181.4056368904125
 30
0.0
 10
126.8980251418866
 20
-181.4056368904125
 30
0.0
 10
127.1391818258541
 20
-181.5327609138182
 30
0.0
 10
127.1391818258541
 20
-181.8286946160012
 30
0.0
 10
127.1391818258541
 20
-182.0150742817532
 30
0.0
 10
127.0440971904612
 20
-182.0974120638507
 30
0.0
 10
126.9445339309375
 20
-182.1587347634881
 30
0.0
 10
127.0058566305749
 20
-182.1862955273701
 30
0.0
 10
127.1877576721961
 20
-182.2665662521764
 30
0.0
 10
127.1877576721961
 20
-182.543896438739
 30
0.0
 10
127.1877576721961
 20
-182.8822048153906
 30
0.0
 10
126.9403998163552
 20
-183.0492919464252
 30
0.0
 10
126.6634141393411
 20
-183.0492919464252
 30
0.0
  0
HATCH
  5
8A
330
85
100
AcDbEntity
  8
_U+30EC_U+30A4_U+30E4_U+30FC 1
 62
   179
420
  2234388
100
AcDbHatch
 10
0.0
 20
0.0
 30
0.0
210
0.0
220
0.0
230
1.0
  2
SOLID
 70
     1
 71
     0
 91
        1
 92
        1
 93
        1
 72
     4
 94
        3
 73
     0
 74
     1
 95
       62
 96
       58
 40
0.0
 40
0.0
 40
0.0
 40
0.0
 40
1.0
 40
1.0
 40
1.0
 40
2.0
 40
2.0
 40
2.0
 40
3.0
 40
3.0
 40
3.0
 40
4.0
 40
4.0
 40
4.0
 40
5.0
 40
5.0
 40
5.0
 40
6.0
 40
6.0
 40
6.0
 40
7.0
 40
7.0
 40
7.0
 40
8.0
 40
8.0
 40
8.0
 40
9.0
 40
9.0
 40
9.0
 40
10.0
 40
10.0
 40
10.0
 40
11.0
 40
11.0
 40
11.0
 40
12.0
 40
12.0
 40
12.0
 40
13.0
 40
13.0
 40
13.0
 40
14.0
 40
14.0
 40
14.0
 40
15.0
 40
15.0
 40
15.0
 40
16.0
 40
16.0
 40
16.0
 40
17.0
 40
17.0
 40
17.0
 40
18.0
 40
18.0
 40
18.0
 40
19.0
 40
19.0
 40
19.0
 40
19.0
 10
126.6634141393411
 20
-183.0492919464252
 10
126.5679849943997
 20
-183.0492919464252
 10
126.3502549597319
 20
-183.0282768639652
 10
126.2251979936173
 20
-182.8422417077617
 10
126.1511284406844
 20
-182.7299315949425
 10
126.1469943261021
 20
-182.6307128449673
 10
126.1428602115198
 20
-182.5459634960302
 10
126.1428602115198
 20
-182.5459634960302
 10
126.3630018130273
 20
-182.5459634960302
 10
126.3630018130273
 20
-182.5459634960302
 10
126.3650688703185
 20
-182.6200330489631
 10
126.3754041567742
 20
-182.8546440515086
 10
126.6589355152103
 20
-182.8546440515086
 10
126.7963948250717
 20
-182.8546440515086
 10
126.9490125550683
 20
-182.7850531227065
 10
126.9490125550683
 20
-182.5566432920345
 10
126.9490125550683
 20
-182.440199064633
 10
126.910771995182
 20
-182.391623218291
 10
126.8790771167177
 20
-182.3599283398267
 10
126.8050075637849
 20
-182.2858587868938
 10
126.6885633363834
 20
-182.2731119335984
 10
126.6337863181679
 20
-182.2731119335984
 10
126.6144937834506
 20
-182.2731119335984
 10
126.5786647904039
 20
-182.2751789908895
 10
126.551104026522
 20
-182.2793131054719
 10
126.551104026522
 20
-182.2793131054719
 10
126.551104026522
 20
-182.0846652105552
 10
126.551104026522
 20
-182.0846652105552
 10
126.5893445864082
 20
-182.0912108919772
 10
126.6313747513283
 20
-182.0932779492684
 10
126.6379204327502
 20
-182.0932779492684
 10
126.70337724697
 20
-182.0932779492684
 10
126.9021592564689
 20
-182.0719183572598
 10
126.9021592564689
 20
-181.8352402974232
 10
126.9021592564689
 20
-181.6574733703843
 10
126.7712456280294
 20
-181.6023518426203
 10
126.6610025725014
 20
-181.6023518426203
 10
126.3967637487828
 20
-181.6023518426203
 10
126.3881510100696
 20
-181.8352402974232
 10
126.3840168954873
 20
-181.9068982835163
 10
126.3840168954873
 20
-181.9068982835163
 10
126.1807562618576
 20
-181.9068982835163
 10
126.1807562618576
 20
-181.9068982835163
 10
126.1893690005707
 20
-181.7821858269503
 10
126.2169297644527
 20
-181.4056368904125
 10
126.6737494257968
 20
-181.4056368904125
 10
126.8980251418866
 20
-181.4056368904125
 10
127.1391818258541
 20
-181.5327609138182
 10
127.1391818258541
 20
-181.8286946160012
 10
127.1391818258541
 20
-182.0150742817532
 10
127.0440971904612
 20
-182.0974120638507
 10
126.9445339309375
 20
-182.1587347634881
 10
127.0058566305749
 20
-182.1862955273701
 10
127.1877576721961
 20
-182.2665662521764
 10
127.1877576721961
 20
-182.543896438739
 10
127.1877576721961
 20
-182.8822048153906
 10
126.9403998163552
 20
-183.0492919464252
 10
126.6634141393411
 20
-183.0492919464252
 97
        0
 97
        0
 75
     2
 76
     1
 98
        0
  0
SPLINE
  5
8B
330
85
100
AcDbEntity
  8
_U+30EC_U+30A4_U+30E4_U+30FC 1
370
     0
100
AcDbSpline
210
0.0
220
0.0
230
1.0
 70
    11
 71
     3
 72
    29
 73
    25
 74
     0
 42
0.0000000001
 43
0.0000000001
 12
1.0
 22
0.0
 32
0.0
 13
1.0
 23
0.0
 33
0.0
 40
0.0
 40
0.0
 40
0.0
 40
0.0
 40
1.0
 40
1.0
 40
1.0
 40
2.0
 40
2.0
 40
2.0
 40
3.0
 40
3.0
 40
3.0
 40
4.0
 40
4.0
 40
4.0
 40
5.0
 40
5.0
 40
5.0
 40
6.0
 40
6.0
 40
6.0
 40
7.0
 40
7.0
 40
7.0
 40
8.0
 40
8.0
 40
8.0
 40
8.0
 10
128.2464355148134
 20
-182.8208821157531
 30
0.0
 10
128.1382595165765
 20
-183.0303439212563
 30
0.0
 10
127.9649712136685
 20
-183.0492919464252
 30
0.0
 10
127.848526986267
 20
-183.0492919464252
 30
0.0
 10
127.6876410271059
 20
-183.0492919464252
 30
0.0
 10
127.5460476026621
 20
-183.0027831573743
 30
0.0
 10
127.4509629672692
 20
-182.8208821157531
 30
0.0
 10
127.3472655931632
 20
-182.6262342208365
 30
0.0
 10
127.3279730584458
 20
-182.3892116514513
 30
0.0
 10
127.3279730584458
 20
-182.2266031445475
 30
0.0
 10
127.3279730584458
 20
-182.0825981532641
 30
0.0
 10
127.345198535872
 20
-181.8307616732923
 30
0.0
 10
127.4509629672692
 20
-181.6319796637934
 30
0.0
 10
127.5587944559575
 20
-181.4290635397122
 30
0.0
 10
127.7196804151187
 20
-181.4056368904125
 30
0.0
 10
127.848526986267
 20
-181.4056368904125
 30
0.0
 10
128.0073458881371
 20
-181.4056368904125
 30
0.0
 10
128.151006369872
 20
-181.4500786221722
 30
0.0
 10
128.2464355148134
 20
-181.6319796637934
 30
0.0
 10
128.3456542647886
 20
-181.8245605014189
 30
0.0
 10
128.3690809140883
 20
-182.0529703320909
 30
0.0
 10
128.3690809140883
 20
-182.2266031445475
 30
0.0
 10
128.3690809140883
 20
-182.3978243901644
 30
0.0
 10
128.3477213220797
 20
-182.6283012781277
 30
0.0
 10
128.2464355148134
 20
-182.8208821157531
 30
0.0
  0
SPLINE
  5
8C
330
85
100
AcDbEntity
  8
_U+30EC_U+30A4_U+30E4_U+30FC 1
370
     0
100
AcDbSpline
210
0.0
220
0.0
230
1.0
 70
    11
 71
     3
 72
    17
 73
    13
 74
     0
 42
0.0000000001
 43
0.0000000001
 12
1.0
 22
0.0
 32
0.0
 13
1.0
 23
0.0
 33
0.0
 40
0.0
 40
0.0
 40
0.0
 40
0.0
 40
1.0
 40
1.0
 40
1.0
 40
2.0
 40
2.0
 40
2.0
 40
3.0
 40
3.0
 40
3.0
 40
4.0
 40
4.0
 40
4.0
 40
4.0
 10
127.848526986267
 20
-181.598217728038
 30
0.0
 10
127.5987575635864
 20
-181.598217728038
 30
0.0
 10
127.5522487745356
 20
-181.881749086474
 30
0.0
 10
127.5522487745356
 20
-182.2266031445475
 30
0.0
 10
127.5522487745356
 20
-182.5459634960302
 30
0.0
 10
127.5884222771307
 20
-182.8546440515086
 30
0.0
 10
127.848526986267
 20
-182.8546440515086
 30
0.0
 10
128.0962293516565
 20
-182.8546440515086
 30
0.0
 10
128.1448051979985
 20
-182.5735242599122
 30
0.0
 10
128.1448051979985
 20
-182.2266031445475
 30
0.0
 10
128.1448051979985
 20
-181.9068982835163
 30
0.0
 10
128.1065646381122
 20
-181.598217728038
 30
0.0
 10
127.848526986267
 20
-181.598217728038
 30
0.0
  0
HATCH
  5
8D
330
85
100
AcDbEntity
  8
_U+30EC_U+30A4_U+30E4_U+30FC 1
 62
   179
420
  2234388
100
AcDbHatch
 10
0.0
 20
0.0
 30
0.0
210
0.0
220
0.0
230
1.0
  2
SOLID
 70
     1
 71
     0
 91
        2
 92
        1
 93
        1
 72
     4
 94
        3
 73
     0
 74
     1
 95
       29
 96
       25
 40
0.0
 40
0.0
 40
0.0
 40
0.0
 40
1.0
 40
1.0
 40
1.0
 40
2.0
 40
2.0
 40
2.0
 40
3.0
 40
3.0
 40
3.0
 40
4.0
 40
4.0
 40
4.0
 40
5.0
 40
5.0
 40
5.0
 40
6.0
 40
6.0
 40
6.0
 40
7.0
 40
7.0
 40
7.0
 40
8.0
 40
8.0
 40
8.0
 40
8.0
 10
128.2464355148134
 20
-182.8208821157531
 10
128.1382595165765
 20
-183.0303439212563
 10
127.9649712136685
 20
-183.0492919464252
 10
127.848526986267
 20
-183.0492919464252
 10
127.6876410271059
 20
-183.0492919464252
 10
127.5460476026621
 20
-183.0027831573743
 10
127.4509629672692
 20
-182.8208821157531
 10
127.3472655931632
 20
-182.6262342208365
 10
127.3279730584458
 20
-182.3892116514513
 10
127.3279730584458
 20
-182.2266031445475
 10
127.3279730584458
 20
-182.0825981532641
 10
127.345198535872
 20
-181.8307616732923
 10
127.4509629672692
 20
-181.6319796637934
 10
127.5587944559575
 20
-181.4290635397122
 10
127.7196804151187
 20
-181.4056368904125
 10
127.848526986267
 20
-181.4056368904125
 10
128.0073458881371
 20
-181.4056368904125
 10
128.151006369872
 20
-181.4500786221722
 10
128.2464355148134
 20
-181.6319796637934
 10
128.3456542647886
 20
-181.8245605014189
 10
128.3690809140883
 20
-182.0529703320909
 10
128.3690809140883
 20
-182.2266031445475
 10
128.3690809140883
 20
-182.3978243901644
 10
128.3477213220797
 20
-182.6283012781277
 10
128.2464355148134
 20
-182.8208821157531
 97
        0
 97
        0
 92
        1
 93
        1
 72
     4
 94
        3
 73
     0
 74
     1
 95
       17
 96
       13
 40
0.0
 40
0.0
 40
0.0
 40
0.0
 40
1.0
 40
1.0
 40
1.0
 40
2.0
 40
2.0
 40
2.0
 40
3.0
 40
3.0
 40
3.0
 40
4.0
 40
4.0
 40
4.0
 40
4.0
 10
127.848526986267
 20
-181.598217728038
 10
127.5987575635864
 20
-181.598217728038
 10
127.5522487745356
 20
-181.881749086474
 10
127.5522487745356
 20
-182.2266031445475
 10
127.5522487745356
 20
-182.5459634960302
 10
127.5884222771307
 20
-182.8546440515086
 10
127.848526986267
 20
-182.8546440515086
 10
128.0962293516565
 20
-182.8546440515086
 10
128.1448051979985
 20
-182.5735242599122
 10
128.1448051979985
 20
-182.2266031445475
 10
128.1448051979985
 20
-181.9068982835163
 10
128.1065646381122
 20
-181.598217728038
 10
127.848526986267
 20
-181.598217728038
 97
        0
 97
        0
 75
     2
 76
     1
 98
        0
  0
ENDBLK
  5
88
330
85
100
AcDbEntity
  8
0
100
AcDbBlockEnd
  0
BLOCK
  5
9C
330
9A
100
AcDbEntity
  8
0
100
AcDbBlockBegin
  2
block 5
 70
     0
 10
0.0
 20
0.0
 30
0.0
  3
block 5
  1

  0
SPLINE
  5
9E
330
9A
100
AcDbEntity
  8
_U+30EC_U+30A4_U+30E4_U+30FC 1
370
     0
100
AcDbSpline
210
0.0
220
0.0
230
1.0
 70
    11
 71
     3
 72
    62
 73
    58
 74
     0
 42
0.0000000001
 43
0.0000000001
 12
1.0
 22
0.0
 32
0.0
 13
1.0
 23
0.0
 33
0.0
 40
0.0
 40
0.0
 40
0.0
 40
0.0
 40
1.0
 40
1.0
 40
1.0
 40
2.0
 40
2.0
 40
2.0
 40
3.0
 40
3.0
 40
3.0
 40
4.0
 40
4.0
 40
4.0
 40
5.0
 40
5.0
 40
5.0
 40
6.0
 40
6.0
 40
6.0
 40
7.0
 40
7.0
 40
7.0
 40
8.0
 40
8.0
 40
8.0
 40
9.0
 40
9.0
 40
9.0
 40
10.0
 40
10.0
 40
10.0
 40
11.0
 40
11.0
 40
11.0
 40
12.0
 40
12.0
 40
12.0
 40
13.0
 40
13.0
 40
13.0
 40
14.0
 40
14.0
 40
14.0
 40
15.0
 40
15.0
 40
15.0
 40
16.0
 40
16.0
 40
16.0
 40
17.0
 40
17.0
 40
17.0
 40
18.0
 40
18.0
 40
18.0
 40
19.0
 40
19.0
 40
19.0
 40
19.0
 10
37.36516112347121
 20
-95.24138723747438
 30
0.0
 10
37.36516112347121
 20
-95.3368163824158
 30
0.0
 10
37.34414604101119
 20
-95.55454641708359
 30
0.0
 10
37.1581108848077
 20
-95.67960338319816
 30
0.0
 10
37.04580077198855
 20
-95.75367293613103
 30
0.0
 10
36.94658202201336
 20
-95.75780705071332
 30
0.0
 10
36.86183267307621
 20
-95.76194116529562
 30
0.0
 10
36.86183267307621
 20
-95.76194116529562
 30
0.0
 10
36.86183267307621
 20
-95.54179956378816
 30
0.0
 10
36.86183267307621
 20
-95.54179956378816
 30
0.0
 10
36.93590222600908
 20
-95.53973250649702
 30
0.0
 10
37.1705132285546
 20
-95.52939722004126
 30
0.0
 10
37.1705132285546
 20
-95.24586586160521
 30
0.0
 10
37.1705132285546
 20
-95.10840655174374
 30
0.0
 10
37.10092229975255
 20
-94.95578882174716
 30
0.0
 10
36.87251246908048
 20
-94.95578882174716
 30
0.0
 10
36.75606824167904
 20
-94.95578882174716
 30
0.0
 10
36.70749239533702
 20
-94.99402938163344
 30
0.0
 10
36.67579751687272
 20
-95.02572426009775
 30
0.0
 10
36.60172796393985
 20
-95.09979381303062
 30
0.0
 10
36.58898111064443
 20
-95.21623804043206
 30
0.0
 10
36.58898111064443
 20
-95.27101505864754
 30
0.0
 10
36.58898111064443
 20
-95.29030759336493
 30
0.0
 10
36.59104816793558
 20
-95.32613658641152
 30
0.0
 10
36.59518228251788
 20
-95.35369735029353
 30
0.0
 10
36.59518228251788
 20
-95.35369735029353
 30
0.0
 10
36.40053438760125
 20
-95.35369735029353
 30
0.0
 10
36.40053438760125
 20
-95.35369735029353
 30
0.0
 10
36.40708006902323
 20
-95.31545679040725
 30
0.0
 10
36.40914712631438
 20
-95.2734266254872
 30
0.0
 10
36.40914712631438
 20
-95.26688094406524
 30
0.0
 10
36.40914712631438
 20
-95.20142412984548
 30
0.0
 10
36.38778753430583
 20
-95.00264212034656
 30
0.0
 10
36.15110947446917
 20
-95.00264212034656
 30
0.0
 10
35.97334254743028
 20
-95.00264212034656
 30
0.0
 10
35.91822101966628
 20
-95.13355574878607
 30
0.0
 10
35.91822101966628
 20
-95.24379880431405
 30
0.0
 10
35.91822101966628
 20
-95.50803762803271
 30
0.0
 10
36.15110947446917
 20
-95.51665036674584
 30
0.0
 10
36.22276746056237
 20
-95.52078448132814
 30
0.0
 10
36.22276746056237
 20
-95.52078448132814
 30
0.0
 10
36.22276746056237
 20
-95.72404511495789
 30
0.0
 10
36.22276746056237
 20
-95.72404511495789
 30
0.0
 10
36.09805500399632
 20
-95.71543237624476
 30
0.0
 10
35.72150606745851
 20
-95.68787161236276
 30
0.0
 10
35.72150606745851
 20
-95.23105195101863
 30
0.0
 10
35.72150606745851
 20
-95.00677623492886
 30
0.0
 10
35.84863009086423
 20
-94.76561955096138
 30
0.0
 10
36.1445637930472
 20
-94.76561955096138
 30
0.0
 10
36.33094345879921
 20
-94.76561955096138
 30
0.0
 10
36.41328124089668
 20
-94.86070418635427
 30
0.0
 10
36.47460394053413
 20
-94.96026744587799
 30
0.0
 10
36.50216470441612
 20
-94.89894474624055
 30
0.0
 10
36.58243542922245
 20
-94.71704370461936
 30
0.0
 10
36.85976561578506
 20
-94.71704370461936
 30
0.0
 10
37.1980739924366
 20
-94.71704370461936
 30
0.0
 10
37.36516112347121
 20
-94.96440156046029
 30
0.0
 10
37.36516112347121
 20
-95.24138723747438
 30
0.0
  0
HATCH
  5
9F
330
9A
100
AcDbEntity
  8
_U+30EC_U+30A4_U+30E4_U+30FC 1
 62
   179
420
  2234388
100
AcDbHatch
 10
0.0
 20
0.0
 30
0.0
210
0.0
220
0.0
230
1.0
  2
SOLID
 70
     1
 71
     0
 91
        1
 92
        1
 93
        1
 72
     4
 94
        3
 73
     0
 74
     1
 95
       62
 96
       58
 40
0.0
 40
0.0
 40
0.0
 40
0.0
 40
1.0
 40
1.0
 40
1.0
 40
2.0
 40
2.0
 40
2.0
 40
3.0
 40
3.0
 40
3.0
 40
4.0
 40
4.0
 40
4.0
 40
5.0
 40
5.0
 40
5.0
 40
6.0
 40
6.0
 40
6.0
 40
7.0
 40
7.0
 40
7.0
 40
8.0
 40
8.0
 40
8.0
 40
9.0
 40
9.0
 40
9.0
 40
10.0
 40
10.0
 40
10.0
 40
11.0
 40
11.0
 40
11.0
 40
12.0
 40
12.0
 40
12.0
 40
13.0
 40
13.0
 40
13.0
 40
14.0
 40
14.0
 40
14.0
 40
15.0
 40
15.0
 40
15.0
 40
16.0
 40
16.0
 40
16.0
 40
17.0
 40
17.0
 40
17.0
 40
18.0
 40
18.0
 40
18.0
 40
19.0
 40
19.0
 40
19.0
 40
19.0
 10
37.36516112347121
 20
-95.24138723747438
 10
37.36516112347121
 20
-95.3368163824158
 10
37.34414604101119
 20
-95.55454641708359
 10
37.1581108848077
 20
-95.67960338319816
 10
37.04580077198855
 20
-95.75367293613103
 10
36.94658202201336
 20
-95.75780705071332
 10
36.86183267307621
 20
-95.76194116529562
 10
36.86183267307621
 20
-95.76194116529562
 10
36.86183267307621
 20
-95.54179956378816
 10
36.86183267307621
 20
-95.54179956378816
 10
36.93590222600908
 20
-95.53973250649702
 10
37.1705132285546
 20
-95.52939722004126
 10
37.1705132285546
 20
-95.24586586160521
 10
37.1705132285546
 20
-95.10840655174374
 10
37.10092229975255
 20
-94.95578882174716
 10
36.87251246908048
 20
-94.95578882174716
 10
36.75606824167904
 20
-94.95578882174716
 10
36.70749239533702
 20
-94.99402938163344
 10
36.67579751687272
 20
-95.02572426009775
 10
36.60172796393985
 20
-95.09979381303062
 10
36.58898111064443
 20
-95.21623804043206
 10
36.58898111064443
 20
-95.27101505864754
 10
36.58898111064443
 20
-95.29030759336493
 10
36.59104816793558
 20
-95.32613658641152
 10
36.59518228251788
 20
-95.35369735029353
 10
36.59518228251788
 20
-95.35369735029353
 10
36.40053438760125
 20
-95.35369735029353
 10
36.40053438760125
 20
-95.35369735029353
 10
36.40708006902323
 20
-95.31545679040725
 10
36.40914712631438
 20
-95.2734266254872
 10
36.40914712631438
 20
-95.26688094406524
 10
36.40914712631438
 20
-95.20142412984548
 10
36.38778753430583
 20
-95.00264212034656
 10
36.15110947446917
 20
-95.00264212034656
 10
35.97334254743028
 20
-95.00264212034656
 10
35.91822101966628
 20
-95.13355574878607
 10
35.91822101966628
 20
-95.24379880431405
 10
35.91822101966628
 20
-95.50803762803271
 10
36.15110947446917
 20
-95.51665036674584
 10
36.22276746056237
 20
-95.52078448132814
 10
36.22276746056237
 20
-95.52078448132814
 10
36.22276746056237
 20
-95.72404511495789
 10
36.22276746056237
 20
-95.72404511495789
 10
36.09805500399632
 20
-95.71543237624476
 10
35.72150606745851
 20
-95.68787161236276
 10
35.72150606745851
 20
-95.23105195101863
 10
35.72150606745851
 20
-95.00677623492886
 10
35.84863009086423
 20
-94.76561955096138
 10
36.1445637930472
 20
-94.76561955096138
 10
36.33094345879921
 20
-94.76561955096138
 10
36.41328124089668
 20
-94.86070418635427
 10
36.47460394053413
 20
-94.96026744587799
 10
36.50216470441612
 20
-94.89894474624055
 10
36.58243542922245
 20
-94.71704370461936
 10
36.85976561578506
 20
-94.71704370461936
 10
37.1980739924366
 20
-94.71704370461936
 10
37.36516112347121
 20
-94.96440156046029
 10
37.36516112347121
 20
-95.24138723747438
 97
        0
 97
        0
 75
     2
 76
     1
 98
        0
  0
SPLINE
  5
A0
330
9A
100
AcDbEntity
  8
_U+30EC_U+30A4_U+30E4_U+30FC 1
370
     0
100
AcDbSpline
210
0.0
220
0.0
230
1.0
 70
    11
 71
     3
 72
    29
 73
    25
 74
     0
 42
0.0000000001
 43
0.0000000001
 12
1.0
 22
0.0
 32
0.0
 13
1.0
 23
0.0
 33
0.0
 40
0.0
 40
0.0
 40
0.0
 40
0.0
 40
1.0
 40
1.0
 40
1.0
 40
2.0
 40
2.0
 40
2.0
 40
3.0
 40
3.0
 40
3.0
 40
4.0
 40
4.0
 40
4.0
 40
5.0
 40
5.0
 40
5.0
 40
6.0
 40
6.0
 40
6.0
 40
7.0
 40
7.0
 40
7.0
 40
8.0
 40
8.0
 40
8.0
 40
8.0
 10
37.13675129279915
 20
-93.65836586200209
 30
0.0
 10
37.34621309830234
 20
-93.76654186023893
 30
0.0
 10
37.36516112347121
 20
-93.939830163147
 30
0.0
 10
37.36516112347121
 20
-94.05627439054844
 30
0.0
 10
37.36516112347121
 20
-94.2171603497096
 30
0.0
 10
37.31865233442034
 20
-94.35875377415337
 30
0.0
 10
37.13675129279915
 20
-94.45383840954626
 30
0.0
 10
36.94210339788253
 20
-94.55753578365228
 30
0.0
 10
36.70508082849734
 20
-94.57682831836969
 30
0.0
 10
36.54247232159355
 20
-94.57682831836969
 30
0.0
 10
36.3984673303101
 20
-94.57682831836969
 30
0.0
 10
36.14663085033835
 20
-94.55960284094344
 30
0.0
 10
35.94784884083943
 20
-94.45383840954626
 30
0.0
 10
35.74493271675821
 20
-94.34600692085795
 30
0.0
 10
35.72150606745851
 20
-94.18512096169678
 30
0.0
 10
35.72150606745851
 20
-94.05627439054844
 30
0.0
 10
35.72150606745851
 20
-93.89745548867842
 30
0.0
 10
35.76594779921824
 20
-93.7537950069435
 30
0.0
 10
35.94784884083943
 20
-93.65836586200209
 30
0.0
 10
36.1404296784649
 20
-93.55914711202688
 30
0.0
 10
36.36883950913696
 20
-93.53572046272718
 30
0.0
 10
36.54247232159355
 20
-93.53572046272718
 30
0.0
 10
36.71369356721047
 20
-93.53572046272718
 30
0.0
 10
36.94417045517368
 20
-93.55708005473574
 30
0.0
 10
37.13675129279915
 20
-93.65836586200209
 30
0.0
  0
SPLINE
  5
A1
330
9A
100
AcDbEntity
  8
_U+30EC_U+30A4_U+30E4_U+30FC 1
370
     0
100
AcDbSpline
210
0.0
220
0.0
230
1.0
 70
    11
 71
     3
 72
    17
 73
    13
 74
     0
 42
0.0000000001
 43
0.0000000001
 12
1.0
 22
0.0
 32
0.0
 13
1.0
 23
0.0
 33
0.0
 40
0.0
 40
0.0
 40
0.0
 40
0.0
 40
1.0
 40
1.0
 40
1.0
 40
2.0
 40
2.0
 40
2.0
 40
3.0
 40
3.0
 40
3.0
 40
4.0
 40
4.0
 40
4.0
 40
4.0
 10
35.91408690508398
 20
-94.05627439054844
 30
0.0
 10
35.91408690508398
 20
-94.30604381322905
 30
0.0
 10
36.19761826352004
 20
-94.35255260227993
 30
0.0
 10
36.54247232159355
 20
-94.35255260227993
 30
0.0
 10
36.86183267307621
 20
-94.35255260227993
 30
0.0
 10
37.1705132285546
 20
-94.3163790996848
 30
0.0
 10
37.1705132285546
 20
-94.05627439054844
 30
0.0
 10
37.1705132285546
 20
-93.80857202515897
 30
0.0
 10
36.88939343695821
 20
-93.75999617881695
 30
0.0
 10
36.54247232159355
 20
-93.75999617881695
 30
0.0
 10
36.22276746056237
 20
-93.75999617881695
 30
0.0
 10
35.91408690508398
 20
-93.79823673870322
 30
0.0
 10
35.91408690508398
 20
-94.05627439054844
 30
0.0
  0
HATCH
  5
A2
330
9A
100
AcDbEntity
  8
_U+30EC_U+30A4_U+30E4_U+30FC 1
 62
   179
420
  2234388
100
AcDbHatch
 10
0.0
 20
0.0
 30
0.0
210
0.0
220
0.0
230
1.0
  2
SOLID
 70
     1
 71
     0
 91
        2
 92
        1
 93
        1
 72
     4
 94
        3
 73
     0
 74
     1
 95
       29
 96
       25
 40
0.0
 40
0.0
 40
0.0
 40
0.0
 40
1.0
 40
1.0
 40
1.0
 40
2.0
 40
2.0
 40
2.0
 40
3.0
 40
3.0
 40
3.0
 40
4.0
 40
4.0
 40
4.0
 40
5.0
 40
5.0
 40
5.0
 40
6.0
 40
6.0
 40
6.0
 40
7.0
 40
7.0
 40
7.0
 40
8.0
 40
8.0
 40
8.0
 40
8.0
 10
37.13675129279915
 20
-93.65836586200209
 10
37.34621309830234
 20
-93.76654186023893
 10
37.36516112347121
 20
-93.939830163147
 10
37.36516112347121
 20
-94.05627439054844
 10
37.36516112347121
 20
-94.2171603497096
 10
37.31865233442034
 20
-94.35875377415337
 10
37.13675129279915
 20
-94.45383840954626
 10
36.94210339788253
 20
-94.55753578365228
 10
36.70508082849734
 20
-94.57682831836969
 10
36.54247232159355
 20
-94.57682831836969
 10
36.3984673303101
 20
-94.57682831836969
 10
36.14663085033835
 20
-94.55960284094344
 10
35.94784884083943
 20
-94.45383840954626
 10
35.74493271675821
 20
-94.34600692085795
 10
35.72150606745851
 20
-94.18512096169678
 10
35.72150606745851
 20
-94.05627439054844
 10
35.72150606745851
 20
-93.89745548867842
 10
35.76594779921824
 20
-93.7537950069435
 10
35.94784884083943
 20
-93.65836586200209
 10
36.1404296784649
 20
-93.55914711202688
 10
36.36883950913696
 20
-93.53572046272718
 10
36.54247232159355
 20
-93.53572046272718
 10
36.71369356721047
 20
-93.53572046272718
 10
36.94417045517368
 20
-93.55708005473574
 10
37.13675129279915
 20
-93.65836586200209
 97
        0
 97
        0
 92
        1
 93
        1
 72
     4
 94
        3
 73
     0
 74
     1
 95
       17
 96
       13
 40
0.0
 40
0.0
 40
0.0
 40
0.0
 40
1.0
 40
1.0
 40
1.0
 40
2.0
 40
2.0
 40
2.0
 40
3.0
 40
3.0
 40
3.0
 40
4.0
 40
4.0
 40
4.0
 40
4.0
 10
35.91408690508398
 20
-94.05627439054844
 10
35.91408690508398
 20
-94.30604381322905
 10
36.19761826352004
 20
-94.35255260227993
 10
36.54247232159355
 20
-94.35255260227993
 10
36.86183267307621
 20
-94.35255260227993
 10
37.1705132285546
 20
-94.3163790996848
 10
37.1705132285546
 20
-94.05627439054844
 10
37.1705132285546
 20
-93.80857202515897
 10
36.88939343695821
 20
-93.75999617881695
 10
36.54247232159355
 20
-93.75999617881695
 10
36.22276746056237
 20
-93.75999617881695
 10
35.91408690508398
 20
-93.79823673870322
 10
35.91408690508398
 20
-94.05627439054844
 97
        0
 97
        0
 75
     2
 76
     1
 98
        0
  0
ENDBLK
  5
9D
330
9A
100
AcDbEntity
  8
0
100
AcDbBlockEnd
  0
BLOCK
  5
B1
330
AF
100
AcDbEntity
  8
0
100
AcDbBlockBegin
  2
block 6
 70
     0
 10
0.0
 20
0.0
 30
0.0
  3
block 6
  1

  0
SPLINE
  5
B3
330
AF
100
AcDbEntity
  8
_U+30EC_U+30A4_U+30E4_U+30FC 1
370
     0
100
AcDbSpline
210
0.0
220
0.0
230
1.0
 70
    11
 71
     3
 72
    26
 73
    22
 74
     0
 42
0.0000000001
 43
0.0000000001
 12
1.0
 22
0.0
 32
0.0
 13
1.0
 23
0.0
 33
0.0
 40
0.0
 40
0.0
 40
0.0
 40
0.0
 40
1.0
 40
1.0
 40
1.0
 40
2.0
 40
2.0
 40
2.0
 40
3.0
 40
3.0
 40
3.0
 40
4.0
 40
4.0
 40
4.0
 40
5.0
 40
5.0
 40
5.0
 40
6.0
 40
6.0
 40
6.0
 40
7.0
 40
7.0
 40
7.0
 40
7.0
 10
37.31451821983804
 20
-145.3220512874542
 30
0.0
 10
37.31451821983804
 20
-145.3220512874542
 30
0.0
 10
37.31451821983804
 20
-145.5590738568394
 30
0.0
 10
37.31451821983804
 20
-145.5590738568394
 30
0.0
 10
37.00549315481113
 20
-145.5335801502486
 30
0.0
 10
36.48735079382956
 20
-145.3409993126231
 30
0.0
 10
35.98161077659488
 20
-144.9348225549121
 30
0.0
 10
35.98161077659488
 20
-144.9348225549121
 30
0.0
 10
35.98161077659488
 20
-145.7726697769249
 30
0.0
 10
35.98161077659488
 20
-145.7726697769249
 30
0.0
 10
35.98161077659488
 20
-145.7726697769249
 30
0.0
 10
35.77008191380054
 20
-145.7726697769249
 30
0.0
 10
35.77008191380054
 20
-145.7726697769249
 30
0.0
 10
35.77008191380054
 20
-145.7726697769249
 30
0.0
 10
35.77008191380054
 20
-144.697799985527
 30
0.0
 10
35.77008191380054
 20
-144.697799985527
 30
0.0
 10
35.77008191380054
 20
-144.697799985527
 30
0.0
 10
35.98161077659488
 20
-144.697799985527
 30
0.0
 10
35.98161077659488
 20
-144.697799985527
 30
0.0
 10
36.27168781645291
 20
-145.0216389611404
 30
0.0
 10
36.86389973036736
 20
-145.2882893516988
 30
0.0
 10
37.31451821983804
 20
-145.3220512874542
 30
0.0
  0
HATCH
  5
B4
330
AF
100
AcDbEntity
  8
_U+30EC_U+30A4_U+30E4_U+30FC 1
 62
   179
420
  2234388
100
AcDbHatch
 10
0.0
 20
0.0
 30
0.0
210
0.0
220
0.0
230
1.0
  2
SOLID
 70
     1
 71
     0
 91
        1
 92
        1
 93
        1
 72
     4
 94
        3
 73
     0
 74
     1
 95
       26
 96
       22
 40
0.0
 40
0.0
 40
0.0
 40
0.0
 40
1.0
 40
1.0
 40
1.0
 40
2.0
 40
2.0
 40
2.0
 40
3.0
 40
3.0
 40
3.0
 40
4.0
 40
4.0
 40
4.0
 40
5.0
 40
5.0
 40
5.0
 40
6.0
 40
6.0
 40
6.0
 40
7.0
 40
7.0
 40
7.0
 40
7.0
 10
37.31451821983804
 20
-145.3220512874542
 10
37.31451821983804
 20
-145.3220512874542
 10
37.31451821983804
 20
-145.5590738568394
 10
37.31451821983804
 20
-145.5590738568394
 10
37.00549315481113
 20
-145.5335801502486
 10
36.48735079382956
 20
-145.3409993126231
 10
35.98161077659488
 20
-144.9348225549121
 10
35.98161077659488
 20
-144.9348225549121
 10
35.98161077659488
 20
-145.7726697769249
 10
35.98161077659488
 20
-145.7726697769249
 10
35.98161077659488
 20
-145.7726697769249
 10
35.77008191380054
 20
-145.7726697769249
 10
35.77008191380054
 20
-145.7726697769249
 10
35.77008191380054
 20
-145.7726697769249
 10
35.77008191380054
 20
-144.697799985527
 10
35.77008191380054
 20
-144.697799985527
 10
35.77008191380054
 20
-144.697799985527
 10
35.98161077659488
 20
-144.697799985527
 10
35.98161077659488
 20
-144.697799985527
 10
36.27168781645291
 20
-145.0216389611404
 10
36.86389973036736
 20
-145.2882893516988
 10
37.31451821983804
 20
-145.3220512874542
 97
        0
 97
        0
 75
     2
 76
     1
 98
        0
  0
SPLINE
  5
B5
330
AF
100
AcDbEntity
  8
_U+30EC_U+30A4_U+30E4_U+30FC 1
370
     0
100
AcDbSpline
210
0.0
220
0.0
230
1.0
 70
    11
 71
     3
 72
    29
 73
    25
 74
     0
 42
0.0000000001
 43
0.0000000001
 12
1.0
 22
0.0
 32
0.0
 13
1.0
 23
0.0
 33
0.0
 40
0.0
 40
0.0
 40
0.0
 40
0.0
 40
1.0
 40
1.0
 40
1.0
 40
2.0
 40
2.0
 40
2.0
 40
3.0
 40
3.0
 40
3.0
 40
4.0
 40
4.0
 40
4.0
 40
5.0
 40
5.0
 40
5.0
 40
6.0
 40
6.0
 40
6.0
 40
7.0
 40
7.0
 40
7.0
 40
8.0
 40
8.0
 40
8.0
 40
8.0
 10
37.13675129279915
 20
-143.6584146776271
 30
0.0
 10
37.34621309830234
 20
-143.7665906758639
 30
0.0
 10
37.36516112347121
 20
-143.939878978772
 30
0.0
 10
37.36516112347121
 20
-144.0563232061734
 30
0.0
 10
37.36516112347121
 20
-144.2172091653346
 30
0.0
 10
37.31865233442034
 20
-144.3588025897783
 30
0.0
 10
37.13675129279915
 20
-144.4538872251713
 30
0.0
 10
36.94210339788253
 20
-144.5575845992773
 30
0.0
 10
36.70508082849734
 20
-144.5768771339947
 30
0.0
 10
36.54247232159355
 20
-144.5768771339947
 30
0.0
 10
36.3984673303101
 20
-144.5768771339947
 30
0.0
 10
36.14663085033835
 20
-144.5596516565684
 30
0.0
 10
35.94784884083943
 20
-144.4538872251713
 30
0.0
 10
35.74493271675821
 20
-144.3460557364829
 30
0.0
 10
35.72150606745851
 20
-144.1851697773218
 30
0.0
 10
35.72150606745851
 20
-144.0563232061734
 30
0.0
 10
35.72150606745851
 20
-143.8975043043034
 30
0.0
 10
35.76594779921824
 20
-143.7538438225685
 30
0.0
 10
35.94784884083943
 20
-143.6584146776271
 30
0.0
 10
36.1404296784649
 20
-143.5591959276519
 30
0.0
 10
36.36883950913696
 20
-143.5357692783522
 30
0.0
 10
36.54247232159355
 20
-143.5357692783522
 30
0.0
 10
36.71369356721047
 20
-143.5357692783522
 30
0.0
 10
36.94417045517368
 20
-143.5571288703607
 30
0.0
 10
37.13675129279915
 20
-143.6584146776271
 30
0.0
  0
SPLINE
  5
B6
330
AF
100
AcDbEntity
  8
_U+30EC_U+30A4_U+30E4_U+30FC 1
370
     0
100
AcDbSpline
210
0.0
220
0.0
230
1.0
 70
    11
 71
     3
 72
    17
 73
    13
 74
     0
 42
0.0000000001
 43
0.0000000001
 12
1.0
 22
0.0
 32
0.0
 13
1.0
 23
0.0
 33
0.0
 40
0.0
 40
0.0
 40
0.0
 40
0.0
 40
1.0
 40
1.0
 40
1.0
 40
2.0
 40
2.0
 40
2.0
 40
3.0
 40
3.0
 40
3.0
 40
4.0
 40
4.0
 40
4.0
 40
4.0
 10
35.91408690508398
 20
-144.0563232061734
 30
0.0
 10
35.91408690508398
 20
-144.306092628854
 30
0.0
 10
36.19761826352004
 20
-144.3526014179049
 30
0.0
 10
36.54247232159355
 20
-144.3526014179049
 30
0.0
 10
36.86183267307621
 20
-144.3526014179049
 30
0.0
 10
37.1705132285546
 20
-144.3164279153098
 30
0.0
 10
37.1705132285546
 20
-144.0563232061734
 30
0.0
 10
37.1705132285546
 20
-143.808620840784
 30
0.0
 10
36.88939343695821
 20
-143.7600449944419
 30
0.0
 10
36.54247232159355
 20
-143.7600449944419
 30
0.0
 10
36.22276746056237
 20
-143.7600449944419
 30
0.0
 10
35.91408690508398
 20
-143.7982855543282
 30
0.0
 10
35.91408690508398
 20
-144.0563232061734
 30
0.0
  0
HATCH
  5
B7
330
AF
100
AcDbEntity
  8
_U+30EC_U+30A4_U+30E4_U+30FC 1
 62
   179
420
  2234388
100
AcDbHatch
 10
0.0
 20
0.0
 30
0.0
210
0.0
220
0.0
230
1.0
  2
SOLID
 70
     1
 71
     0
 91
        2
 92
        1
 93
        1
 72
     4
 94
        3
 73
     0
 74
     1
 95
       29
 96
       25
 40
0.0
 40
0.0
 40
0.0
 40
0.0
 40
1.0
 40
1.0
 40
1.0
 40
2.0
 40
2.0
 40
2.0
 40
3.0
 40
3.0
 40
3.0
 40
4.0
 40
4.0
 40
4.0
 40
5.0
 40
5.0
 40
5.0
 40
6.0
 40
6.0
 40
6.0
 40
7.0
 40
7.0
 40
7.0
 40
8.0
 40
8.0
 40
8.0
 40
8.0
 10
37.13675129279915
 20
-143.6584146776271
 10
37.34621309830234
 20
-143.7665906758639
 10
37.36516112347121
 20
-143.939878978772
 10
37.36516112347121
 20
-144.0563232061734
 10
37.36516112347121
 20
-144.2172091653346
 10
37.31865233442034
 20
-144.3588025897783
 10
37.13675129279915
 20
-144.4538872251713
 10
36.94210339788253
 20
-144.5575845992773
 10
36.70508082849734
 20
-144.5768771339947
 10
36.54247232159355
 20
-144.5768771339947
 10
36.3984673303101
 20
-144.5768771339947
 10
36.14663085033835
 20
-144.5596516565684
 10
35.94784884083943
 20
-144.4538872251713
 10
35.74493271675821
 20
-144.3460557364829
 10
35.72150606745851
 20
-144.1851697773218
 10
35.72150606745851
 20
-144.0563232061734
 10
35.72150606745851
 20
-143.8975043043034
 10
35.76594779921824
 20
-143.7538438225685
 10
35.94784884083943
 20
-143.6584146776271
 10
36.1404296784649
 20
-143.5591959276519
 10
36.36883950913696
 20
-143.5357692783522
 10
36.54247232159355
 20
-143.5357692783522
 10
36.71369356721047
 20
-143.5357692783522
 10
36.94417045517368
 20
-143.5571288703607
 10
37.13675129279915
 20
-143.6584146776271
 97
        0
 97
        0
 92
        1
 93
        1
 72
     4
 94
        3
 73
     0
 74
     1
 95
       17
 96
       13
 40
0.0
 40
0.0
 40
0.0
 40
0.0
 40
1.0
 40
1.0
 40
1.0
 40
2.0
 40
2.0
 40
2.0
 40
3.0
 40
3.0
 40
3.0
 40
4.0
 40
4.0
 40
4.0
 40
4.0
 10
35.91408690508398
 20
-144.0563232061734
 10
35.91408690508398
 20
-144.306092628854
 10
36.19761826352004
 20
-144.3526014179049
 10
36.54247232159355
 20
-144.3526014179049
 10
36.86183267307621
 20
-144.3526014179049
 10
37.1705132285546
 20
-144.3164279153098
 10
37.1705132285546
 20
-144.0563232061734
 10
37.1705132285546
 20
-143.808620840784
 10
36.88939343695821
 20
-143.7600449944419
 10
36.54247232159355
 20
-143.7600449944419
 10
36.22276746056237
 20
-143.7600449944419
 10
35.91408690508398
 20
-143.7982855543282
 10
35.91408690508398
 20
-144.0563232061734
 97
        0
 97
        0
 75
     2
 76
     1
 98
        0
  0
ENDBLK
  5
B2
330
AF
100
AcDbEntity
  8
0
100
AcDbBlockEnd
  0
BLOCK
  5
C6
330
C4
100
AcDbEntity
  8
0
100
AcDbBlockBegin
  2
block 7
 70
     0
 10
0.0
 20
0.0
 30
0.0
  3
block 7
  1

  0
SPLINE
  5
C8
330
C4
100
AcDbEntity
  8
_U+30EC_U+30A4_U+30E4_U+30FC 1
370
     0
100
AcDbSpline
210
0.0
220
0.0
230
1.0
 70
    11
 71
     3
 72
    26
 73
    22
 74
     0
 42
0.0000000001
 43
0.0000000001
 12
1.0
 22
0.0
 32
0.0
 13
1.0
 23
0.0
 33
0.0
 40
0.0
 40
0.0
 40
0.0
 40
0.0
 40
1.0
 40
1.0
 40
1.0
 40
2.0
 40
2.0
 40
2.0
 40
3.0
 40
3.0
 40
3.0
 40
4.0
 40
4.0
 40
4.0
 40
5.0
 40
5.0
 40
5.0
 40
6.0
 40
6.0
 40
6.0
 40
7.0
 40
7.0
 40
7.0
 40
7.0
 10
144.4383842954876
 20
-128.7714680667655
 30
0.0
 10
144.4383842954876
 20
-128.7714680667655
 30
0.0
 10
143.3342311924651
 20
-128.7714680667655
 30
0.0
 10
143.3342311924651
 20
-128.7714680667655
 30
0.0
 10
143.3342311924651
 20
-128.7714680667655
 30
0.0
 10
143.3342311924651
 20
-129.1015082142524
 30
0.0
 10
143.3342311924651
 20
-129.1015082142524
 30
0.0
 10
143.3342311924651
 20
-129.1015082142524
 30
0.0
 10
143.1860920865993
 20
-129.1015082142524
 30
0.0
 10
143.1860920865993
 20
-129.1015082142524
 30
0.0
 10
143.1712781760127
 20
-128.7694010094743
 30
0.0
 10
143.0083251595604
 20
-128.7228922204235
 30
0.0
 10
142.8939479894501
 20
-128.6932643992503
 30
0.0
 10
142.8939479894501
 20
-128.6932643992503
 30
0.0
 10
142.8939479894501
 20
-128.5471923506757
 30
0.0
 10
142.8939479894501
 20
-128.5471923506757
 30
0.0
 10
142.8939479894501
 20
-128.5471923506757
 30
0.0
 10
144.4383842954876
 20
-128.5471923506757
 30
0.0
 10
144.4383842954876
 20
-128.5471923506757
 30
0.0
 10
144.4383842954876
 20
-128.5471923506757
 30
0.0
 10
144.4383842954876
 20
-128.7714680667655
 30
0.0
 10
144.4383842954876
 20
-128.7714680667655
 30
0.0
  0
HATCH
  5
C9
330
C4
100
AcDbEntity
  8
_U+30EC_U+30A4_U+30E4_U+30FC 1
 62
   179
420
  2234388
100
AcDbHatch
 10
0.0
 20
0.0
 30
0.0
210
0.0
220
0.0
230
1.0
  2
SOLID
 70
     1
 71
     0
 91
        1
 92
        1
 93
        1
 72
     4
 94
        3
 73
     0
 74
     1
 95
       26
 96
       22
 40
0.0
 40
0.0
 40
0.0
 40
0.0
 40
1.0
 40
1.0
 40
1.0
 40
2.0
 40
2.0
 40
2.0
 40
3.0
 40
3.0
 40
3.0
 40
4.0
 40
4.0
 40
4.0
 40
5.0
 40
5.0
 40
5.0
 40
6.0
 40
6.0
 40
6.0
 40
7.0
 40
7.0
 40
7.0
 40
7.0
 10
144.4383842954876
 20
-128.7714680667655
 10
144.4383842954876
 20
-128.7714680667655
 10
143.3342311924651
 20
-128.7714680667655
 10
143.3342311924651
 20
-128.7714680667655
 10
143.3342311924651
 20
-128.7714680667655
 10
143.3342311924651
 20
-129.1015082142524
 10
143.3342311924651
 20
-129.1015082142524
 10
143.3342311924651
 20
-129.1015082142524
 10
143.1860920865993
 20
-129.1015082142524
 10
143.1860920865993
 20
-129.1015082142524
 10
143.1712781760127
 20
-128.7694010094743
 10
143.0083251595604
 20
-128.7228922204235
 10
142.8939479894501
 20
-128.6932643992503
 10
142.8939479894501
 20
-128.6932643992503
 10
142.8939479894501
 20
-128.5471923506757
 10
142.8939479894501
 20
-128.5471923506757
 10
142.8939479894501
 20
-128.5471923506757
 10
144.4383842954876
 20
-128.5471923506757
 10
144.4383842954876
 20
-128.5471923506757
 10
144.4383842954876
 20
-128.5471923506757
 10
144.4383842954876
 20
-128.7714680667655
 10
144.4383842954876
 20
-128.7714680667655
 97
        0
 97
        0
 75
     2
 76
     1
 98
        0
  0
POLYLINE
  5
CA
330
C4
100
AcDbEntity
  8
_U+30EC_U+30A4_U+30E4_U+30FC 1
370
     0
100
AcDb2dPolyline
 66
     1
 10
0.0
 20
0.0
 30
0.0
  0
VERTEX
  5
CB
330
CA
100
AcDbEntity
  8
_U+30EC_U+30A4_U+30E4_U+30FC 1
370
     0
100
AcDbVertex
100
AcDb2dVertex
 10
144.4383842954876
 20
-127.9859862961285
 30
0.0
  0
VERTEX
  5
CC
330
CA
100
AcDbEntity
  8
_U+30EC_U+30A4_U+30E4_U+30FC 1
370
     0
100
AcDbVertex
100
AcDb2dVertex
 10
144.1865478155159
 20
-127.9859862961285
 30
0.0
  0
VERTEX
  5
CD
330
CA
100
AcDbEntity
  8
_U+30EC_U+30A4_U+30E4_U+30FC 1
370
     0
100
AcDbVertex
100
AcDb2dVertex
 10
144.1865478155159
 20
-127.7341498161567
 30
0.0
  0
VERTEX
  5
CE
330
CA
100
AcDbEntity
  8
_U+30EC_U+30A4_U+30E4_U+30FC 1
370
     0
100
AcDbVertex
100
AcDb2dVertex
 10
144.4383842954876
 20
-127.7341498161567
 30
0.0
  0
VERTEX
  5
CF
330
CA
100
AcDbEntity
  8
_U+30EC_U+30A4_U+30E4_U+30FC 1
370
     0
100
AcDbVertex
100
AcDb2dVertex
 10
144.4383842954876
 20
-127.9859862961285
 30
0.0
  0
SEQEND
  5
D0
330
CA
100
AcDbEntity
  8
_U+30EC_U+30A4_U+30E4_U+30FC 1
370
     0
  0
HATCH
  5
D1
330
C4
100
AcDbEntity
  8
_U+30EC_U+30A4_U+30E4_U+30FC 1
 62
   179
420
  2234388
100
AcDbHatch
 10
0.0
 20
0.0
 30
0.0
210
0.0
220
0.0
230
1.0
  2
SOLID
 70
     1
 71
     0
 91
        1
 92
        1
 93
        4
 72
     1
 10
144.4383842954876
 20
-127.9859862961285
 11
144.1865478155159
 21
-127.9859862961285
 72
     1
 10
144.1865478155159
 20
-127.9859862961285
 11
144.1865478155159
 21
-127.7341498161567
 72
     1
 10
144.1865478155159
 20
-127.7341498161567
 11
144.4383842954876
 21
-127.7341498161567
 72
     1
 10
144.4383842954876
 20
-127.7341498161567
 11
144.4383842954876
 21
-127.9859862961285
 97
        0
 75
     2
 76
     1
 98
        0
  0
SPLINE
  5
D2
330
C4
100
AcDbEntity
  8
_U+30EC_U+30A4_U+30E4_U+30FC 1
370
     0
100
AcDbSpline
210
0.0
220
0.0
230
1.0
 70
    11
 71
     3
 72
    53
 73
    49
 74
     0
 42
0.0000000001
 43
0.0000000001
 12
1.0
 22
0.0
 32
0.0
 13
1.0
 23
0.0
 33
0.0
 40
0.0
 40
0.0
 40
0.0
 40
0.0
 40
1.0
 40
1.0
 40
1.0
 40
2.0
 40
2.0
 40
2.0
 40
3.0
 40
3.0
 40
3.0
 40
4.0
 40
4.0
 40
4.0
 40
5.0
 40
5.0
 40
5.0
 40
6.0
 40
6.0
 40
6.0
 40
7.0
 40
7.0
 40
7.0
 40
8.0
 40
8.0
 40
8.0
 40
9.0
 40
9.0
 40
9.0
 40
10.0
 40
10.0
 40
10.0
 40
11.0
 40
11.0
 40
11.0
 40
12.0
 40
12.0
 40
12.0
 40
13.0
 40
13.0
 40
13.0
 40
14.0
 40
14.0
 40
14.0
 40
15.0
 40
15.0
 40
15.0
 40
16.0
 40
16.0
 40
16.0
 40
16.0
 10
144.4890271991208
 20
-127.0168809361277
 30
0.0
 10
144.4890271991208
 20
-127.0950846036429
 30
0.0
 10
144.4721462312431
 20
-127.1967149204578
 30
0.0
 10
144.4087564743145
 20
-127.2983452372726
 30
0.0
 10
144.298857928335
 20
-127.4716335401807
 30
0.0
 10
144.167599790347
 20
-127.4929931321893
 30
0.0
 10
144.0597683016587
 20
-127.5119411573581
 30
0.0
 10
144.0597683016587
 20
-127.5119411573581
 30
0.0
 10
144.0597683016587
 20
-127.2897324985595
 30
0.0
 10
144.0597683016587
 20
-127.2897324985595
 30
0.0
 10
144.2585503111576
 20
-127.234955480344
 30
0.0
 10
144.2881781323307
 20
-127.1078314569383
 30
0.0
 10
144.2881781323307
 20
-127.0148138788366
 30
0.0
 10
144.2881781323307
 20
-126.875287511684
 30
0.0
 10
144.188614872807
 20
-126.7230142912359
 30
0.0
 10
143.9560709275526
 20
-126.7230142912359
 30
0.0
 10
143.7001003329986
 20
-126.7230142912359
 30
0.0
 10
143.630164894648
 20
-126.902848275566
 30
0.0
 10
143.630164894648
 20
-127.0234266175497
 30
0.0
 10
143.630164894648
 20
-127.055121496014
 30
0.0
 10
143.630164894648
 20
-127.1967149204578
 30
0.0
 10
143.7593559753449
 20
-127.2855983839772
 30
0.0
 10
143.7593559753449
 20
-127.2855983839772
 30
0.0
 10
143.740407950176
 20
-127.461298253725
 30
0.0
 10
143.740407950176
 20
-127.461298253725
 30
0.0
 10
143.740407950176
 20
-127.461298253725
 30
0.0
 10
142.8939479894501
 20
-127.3407199117412
 30
0.0
 10
142.8939479894501
 20
-127.3407199117412
 30
0.0
 10
142.8939479894501
 20
-127.3407199117412
 30
0.0
 10
142.8939479894501
 20
-126.5621283320747
 30
0.0
 10
142.8939479894501
 20
-126.5621283320747
 30
0.0
 10
142.8939479894501
 20
-126.5621283320747
 30
0.0
 10
143.0885958843668
 20
-126.5621283320747
 30
0.0
 10
143.0885958843668
 20
-126.5621283320747
 30
0.0
 10
143.0885958843668
 20
-126.5621283320747
 30
0.0
 10
143.0885958843668
 20
-127.1777668952889
 30
0.0
 10
143.0885958843668
 20
-127.1777668952889
 30
0.0
 10
143.0885958843668
 20
-127.1777668952889
 30
0.0
 10
143.5116536099554
 20
-127.2432237095086
 30
0.0
 10
143.5116536099554
 20
-127.2432237095086
 30
0.0
 10
143.4778916742
 20
-127.1819010098712
 30
0.0
 10
143.4375840570225
 20
-127.0995632277737
 30
0.0
 10
143.4375840570225
 20
-126.9810519430811
 30
0.0
 10
143.4375840570225
 20
-126.7271484058182
 30
0.0
 10
143.6239637227746
 20
-126.490125836433
 30
0.0
 10
143.9371229023838
 20
-126.490125836433
 30
0.0
 10
144.2544161965753
 20
-126.490125836433
 30
0.0
 10
144.4890271991208
 20
-126.7144015525228
 30
0.0
 10
144.4890271991208
 20
-127.0168809361277
 30
0.0
  0
HATCH
  5
D3
330
C4
100
AcDbEntity
  8
_U+30EC_U+30A4_U+30E4_U+30FC 1
 62
   179
420
  2234388
100
AcDbHatch
 10
0.0
 20
0.0
 30
0.0
210
0.0
220
0.0
230
1.0
  2
SOLID
 70
     1
 71
     0
 91
        1
 92
        1
 93
        1
 72
     4
 94
        3
 73
     0
 74
     1
 95
       53
 96
       49
 40
0.0
 40
0.0
 40
0.0
 40
0.0
 40
1.0
 40
1.0
 40
1.0
 40
2.0
 40
2.0
 40
2.0
 40
3.0
 40
3.0
 40
3.0
 40
4.0
 40
4.0
 40
4.0
 40
5.0
 40
5.0
 40
5.0
 40
6.0
 40
6.0
 40
6.0
 40
7.0
 40
7.0
 40
7.0
 40
8.0
 40
8.0
 40
8.0
 40
9.0
 40
9.0
 40
9.0
 40
10.0
 40
10.0
 40
10.0
 40
11.0
 40
11.0
 40
11.0
 40
12.0
 40
12.0
 40
12.0
 40
13.0
 40
13.0
 40
13.0
 40
14.0
 40
14.0
 40
14.0
 40
15.0
 40
15.0
 40
15.0
 40
16.0
 40
16.0
 40
16.0
 40
16.0
 10
144.4890271991208
 20
-127.0168809361277
 10
144.4890271991208
 20
-127.0950846036429
 10
144.4721462312431
 20
-127.1967149204578
 10
144.4087564743145
 20
-127.2983452372726
 10
144.298857928335
 20
-127.4716335401807
 10
144.167599790347
 20
-127.4929931321893
 10
144.0597683016587
 20
-127.5119411573581
 10
144.0597683016587
 20
-127.5119411573581
 10
144.0597683016587
 20
-127.2897324985595
 10
144.0597683016587
 20
-127.2897324985595
 10
144.2585503111576
 20
-127.234955480344
 10
144.2881781323307
 20
-127.1078314569383
 10
144.2881781323307
 20
-127.0148138788366
 10
144.2881781323307
 20
-126.875287511684
 10
144.188614872807
 20
-126.7230142912359
 10
143.9560709275526
 20
-126.7230142912359
 10
143.7001003329986
 20
-126.7230142912359
 10
143.630164894648
 20
-126.902848275566
 10
143.630164894648
 20
-127.0234266175497
 10
143.630164894648
 20
-127.055121496014
 10
143.630164894648
 20
-127.1967149204578
 10
143.7593559753449
 20
-127.2855983839772
 10
143.7593559753449
 20
-127.2855983839772
 10
143.740407950176
 20
-127.461298253725
 10
143.740407950176
 20
-127.461298253725
 10
143.740407950176
 20
-127.461298253725
 10
142.8939479894501
 20
-127.3407199117412
 10
142.8939479894501
 20
-127.3407199117412
 10
142.8939479894501
 20
-127.3407199117412
 10
142.8939479894501
 20
-126.5621283320747
 10
142.8939479894501
 20
-126.5621283320747
 10
142.8939479894501
 20
-126.5621283320747
 10
143.0885958843668
 20
-126.5621283320747
 10
143.0885958843668
 20
-126.5621283320747
 10
143.0885958843668
 20
-126.5621283320747
 10
143.0885958843668
 20
-127.1777668952889
 10
143.0885958843668
 20
-127.1777668952889
 10
143.0885958843668
 20
-127.1777668952889
 10
143.5116536099554
 20
-127.2432237095086
 10
143.5116536099554
 20
-127.2432237095086
 10
143.4778916742
 20
-127.1819010098712
 10
143.4375840570225
 20
-127.0995632277737
 10
143.4375840570225
 20
-126.9810519430811
 10
143.4375840570225
 20
-126.7271484058182
 10
143.6239637227746
 20
-126.490125836433
 10
143.9371229023838
 20
-126.490125836433
 10
144.2544161965753
 20
-126.490125836433
 10
144.4890271991208
 20
-126.7144015525228
 10
144.4890271991208
 20
-127.0168809361277
 97
        0
 97
        0
 75
     2
 76
     1
 98
        0
  0
ENDBLK
  5
C7
330
C4
100
AcDbEntity
  8
0
100
AcDbBlockEnd
  0
BLOCK
  5
DE
330
DC
100
AcDbEntity
  8
0
100
AcDbBlockBegin
  2
block 8
 70
     0
 10
0.0
 20
0.0
 30
0.0
  3
block 8
  1

  0
SPLINE
  5
E0
330
DC
100
AcDbEntity
  8
_U+30EC_U+30A4_U+30E4_U+30FC 1
370
     0
100
AcDbSpline
210
0.0
220
0.0
230
1.0
 70
    11
 71
     3
 72
    53
 73
    49
 74
     0
 42
0.0000000001
 43
0.0000000001
 12
1.0
 22
0.0
 32
0.0
 13
1.0
 23
0.0
 33
0.0
 40
0.0
 40
0.0
 40
0.0
 40
0.0
 40
1.0
 40
1.0
 40
1.0
 40
2.0
 40
2.0
 40
2.0
 40
3.0
 40
3.0
 40
3.0
 40
4.0
 40
4.0
 40
4.0
 40
5.0
 40
5.0
 40
5.0
 40
6.0
 40
6.0
 40
6.0
 40
7.0
 40
7.0
 40
7.0
 40
8.0
 40
8.0
 40
8.0
 40
9.0
 40
9.0
 40
9.0
 40
10.0
 40
10.0
 40
10.0
 40
11.0
 40
11.0
 40
11.0
 40
12.0
 40
12.0
 40
12.0
 40
13.0
 40
13.0
 40
13.0
 40
14.0
 40
14.0
 40
14.0
 40
15.0
 40
15.0
 40
15.0
 40
16.0
 40
16.0
 40
16.0
 40
16.0
 10
145.664493778688
 20
-154.0522677566258
 30
0.0
 10
145.664493778688
 20
-154.130471424141
 30
0.0
 10
145.6476128108103
 20
-154.2321017409559
 30
0.0
 10
145.5842230538817
 20
-154.3337320577707
 30
0.0
 10
145.4743245079023
 20
-154.5070203606788
 30
0.0
 10
145.3430663699143
 20
-154.5283799526873
 30
0.0
 10
145.2352348812259
 20
-154.5473279778562
 30
0.0
 10
145.2352348812259
 20
-154.5473279778562
 30
0.0
 10
145.2352348812259
 20
-154.3251193190576
 30
0.0
 10
145.2352348812259
 20
-154.3251193190576
 30
0.0
 10
145.4340168907248
 20
-154.2703423008421
 30
0.0
 10
145.463644711898
 20
-154.1432182774364
 30
0.0
 10
145.463644711898
 20
-154.0502006993347
 30
0.0
 10
145.463644711898
 20
-153.9106743321821
 30
0.0
 10
145.3640814523743
 20
-153.758401111734
 30
0.0
 10
145.1315375071199
 20
-153.758401111734
 30
0.0
 10
144.8755669125658
 20
-153.758401111734
 30
0.0
 10
144.8056314742153
 20
-153.9382350960641
 30
0.0
 10
144.8056314742153
 20
-154.0588134380478
 30
0.0
 10
144.8056314742153
 20
-154.0905083165121
 30
0.0
 10
144.8056314742153
 20
-154.2321017409559
 30
0.0
 10
144.9348225549121
 20
-154.3209852044753
 30
0.0
 10
144.9348225549121
 20
-154.3209852044753
 30
0.0
 10
144.9158745297433
 20
-154.4966850742231
 30
0.0
 10
144.9158745297433
 20
-154.4966850742231
 30
0.0
 10
144.9158745297433
 20
-154.4966850742231
 30
0.0
 10
144.0694145690174
 20
-154.3761067322393
 30
0.0
 10
144.0694145690174
 20
-154.3761067322393
 30
0.0
 10
144.0694145690174
 20
-154.3761067322393
 30
0.0
 10
144.0694145690174
 20
-153.5975151525728
 30
0.0
 10
144.0694145690174
 20
-153.5975151525728
 30
0.0
 10
144.0694145690174
 20
-153.5975151525728
 30
0.0
 10
144.264062463934
 20
-153.5975151525728
 30
0.0
 10
144.264062463934
 20
-153.5975151525728
 30
0.0
 10
144.264062463934
 20
-153.5975151525728
 30
0.0
 10
144.264062463934
 20
-154.213153715787
 30
0.0
 10
144.264062463934
 20
-154.213153715787
 30
0.0
 10
144.264062463934
 20
-154.213153715787
 30
0.0
 10
144.6871201895227
 20
-154.2786105300067
 30
0.0
 10
144.6871201895227
 20
-154.2786105300067
 30
0.0
 10
144.6533582537672
 20
-154.2172878303693
 30
0.0
 10
144.6130506365898
 20
-154.1349500482718
 30
0.0
 10
144.6130506365898
 20
-154.0164387635792
 30
0.0
 10
144.6130506365898
 20
-153.7625352263163
 30
0.0
 10
144.7994303023418
 20
-153.5255126569311
 30
0.0
 10
145.112589481951
 20
-153.5255126569311
 30
0.0
 10
145.4298827761425
 20
-153.5255126569311
 30
0.0
 10
145.664493778688
 20
-153.7497883730209
 30
0.0
 10
145.664493778688
 20
-154.0522677566258
 30
0.0
  0
HATCH
  5
E1
330
DC
100
AcDbEntity
  8
_U+30EC_U+30A4_U+30E4_U+30FC 1
 62
   179
420
  2234388
100
AcDbHatch
 10
0.0
 20
0.0
 30
0.0
210
0.0
220
0.0
230
1.0
  2
SOLID
 70
     1
 71
     0
 91
        1
 92
        1
 93
        1
 72
     4
 94
        3
 73
     0
 74
     1
 95
       53
 96
       49
 40
0.0
 40
0.0
 40
0.0
 40
0.0
 40
1.0
 40
1.0
 40
1.0
 40
2.0
 40
2.0
 40
2.0
 40
3.0
 40
3.0
 40
3.0
 40
4.0
 40
4.0
 40
4.0
 40
5.0
 40
5.0
 40
5.0
 40
6.0
 40
6.0
 40
6.0
 40
7.0
 40
7.0
 40
7.0
 40
8.0
 40
8.0
 40
8.0
 40
9.0
 40
9.0
 40
9.0
 40
10.0
 40
10.0
 40
10.0
 40
11.0
 40
11.0
 40
11.0
 40
12.0
 40
12.0
 40
12.0
 40
13.0
 40
13.0
 40
13.0
 40
14.0
 40
14.0
 40
14.0
 40
15.0
 40
15.0
 40
15.0
 40
16.0
 40
16.0
 40
16.0
 40
16.0
 10
145.664493778688
 20
-154.0522677566258
 10
145.664493778688
 20
-154.130471424141
 10
145.6476128108103
 20
-154.2321017409559
 10
145.5842230538817
 20
-154.3337320577707
 10
145.4743245079023
 20
-154.5070203606788
 10
145.3430663699143
 20
-154.5283799526873
 10
145.2352348812259
 20
-154.5473279778562
 10
145.2352348812259
 20
-154.5473279778562
 10
145.2352348812259
 20
-154.3251193190576
 10
145.2352348812259
 20
-154.3251193190576
 10
145.4340168907248
 20
-154.2703423008421
 10
145.463644711898
 20
-154.1432182774364
 10
145.463644711898
 20
-154.0502006993347
 10
145.463644711898
 20
-153.9106743321821
 10
145.3640814523743
 20
-153.758401111734
 10
145.1315375071199
 20
-153.758401111734
 10
144.8755669125658
 20
-153.758401111734
 10
144.8056314742153
 20
-153.9382350960641
 10
144.8056314742153
 20
-154.0588134380478
 10
144.8056314742153
 20
-154.0905083165121
 10
144.8056314742153
 20
-154.2321017409559
 10
144.9348225549121
 20
-154.3209852044753
 10
144.9348225549121
 20
-154.3209852044753
 10
144.9158745297433
 20
-154.4966850742231
 10
144.9158745297433
 20
-154.4966850742231
 10
144.9158745297433
 20
-154.4966850742231
 10
144.0694145690174
 20
-154.3761067322393
 10
144.0694145690174
 20
-154.3761067322393
 10
144.0694145690174
 20
-154.3761067322393
 10
144.0694145690174
 20
-153.5975151525728
 10
144.0694145690174
 20
-153.5975151525728
 10
144.0694145690174
 20
-153.5975151525728
 10
144.264062463934
 20
-153.5975151525728
 10
144.264062463934
 20
-153.5975151525728
 10
144.264062463934
 20
-153.5975151525728
 10
144.264062463934
 20
-154.213153715787
 10
144.264062463934
 20
-154.213153715787
 10
144.264062463934
 20
-154.213153715787
 10
144.6871201895227
 20
-154.2786105300067
 10
144.6871201895227
 20
-154.2786105300067
 10
144.6533582537672
 20
-154.2172878303693
 10
144.6130506365898
 20
-154.1349500482718
 10
144.6130506365898
 20
-154.0164387635792
 10
144.6130506365898
 20
-153.7625352263163
 10
144.7994303023418
 20
-153.5255126569311
 10
145.112589481951
 20
-153.5255126569311
 10
145.4298827761425
 20
-153.5255126569311
 10
145.664493778688
 20
-153.7497883730209
 10
145.664493778688
 20
-154.0522677566258
 97
        0
 97
        0
 75
     2
 76
     1
 98
        0
  0
SPLINE
  5
E2
330
DC
100
AcDbEntity
  8
_U+30EC_U+30A4_U+30E4_U+30FC 1
370
     0
100
AcDbSpline
210
0.0
220
0.0
230
1.0
 70
    11
 71
     3
 72
    29
 73
    25
 74
     0
 42
0.0000000001
 43
0.0000000001
 12
1.0
 22
0.0
 32
0.0
 13
1.0
 23
0.0
 33
0.0
 40
0.0
 40
0.0
 40
0.0
 40
0.0
 40
1.0
 40
1.0
 40
1.0
 40
2.0
 40
2.0
 40
2.0
 40
3.0
 40
3.0
 40
3.0
 40
4.0
 40
4.0
 40
4.0
 40
5.0
 40
5.0
 40
5.0
 40
6.0
 40
6.0
 40
6.0
 40
7.0
 40
7.0
 40
7.0
 40
8.0
 40
8.0
 40
8.0
 40
8.0
 10
145.436083948016
 20
-152.4585665851492
 30
0.0
 10
145.6455457535192
 20
-152.5667425833861
 30
0.0
 10
145.664493778688
 20
-152.7400308862942
 30
0.0
 10
145.664493778688
 20
-152.8564751136956
 30
0.0
 10
145.664493778688
 20
-153.0173610728568
 30
0.0
 10
145.6179849896372
 20
-153.1589544973006
 30
0.0
 10
145.436083948016
 20
-153.2540391326934
 30
0.0
 10
145.2414360530994
 20
-153.3577365067995
 30
0.0
 10
145.0044134837142
 20
-153.3770290415169
 30
0.0
 10
144.8418049768104
 20
-153.3770290415169
 30
0.0
 10
144.697799985527
 20
-153.3770290415169
 30
0.0
 10
144.4459635055552
 20
-153.3598035640906
 30
0.0
 10
144.2471814960563
 20
-153.2540391326934
 30
0.0
 10
144.0442653719751
 20
-153.1462076440051
 30
0.0
 10
144.0208387226754
 20
-152.985321684844
 30
0.0
 10
144.0208387226754
 20
-152.8564751136956
 30
0.0
 10
144.0208387226754
 20
-152.6976562118256
 30
0.0
 10
144.0652804544351
 20
-152.5539957300907
 30
0.0
 10
144.2471814960563
 20
-152.4585665851492
 30
0.0
 10
144.4397623336817
 20
-152.359347835174
 30
0.0
 10
144.6681721643538
 20
-152.3359211858744
 30
0.0
 10
144.8418049768104
 20
-152.3359211858744
 30
0.0
 10
145.0130262224273
 20
-152.3359211858744
 30
0.0
 10
145.2435031103905
 20
-152.3572807778829
 30
0.0
 10
145.436083948016
 20
-152.4585665851492
 30
0.0
  0
SPLINE
  5
E3
330
DC
100
AcDbEntity
  8
_U+30EC_U+30A4_U+30E4_U+30FC 1
370
     0
100
AcDbSpline
210
0.0
220
0.0
230
1.0
 70
    11
 71
     3
 72
    17
 73
    13
 74
     0
 42
0.0000000001
 43
0.0000000001
 12
1.0
 22
0.0
 32
0.0
 13
1.0
 23
0.0
 33
0.0
 40
0.0
 40
0.0
 40
0.0
 40
0.0
 40
1.0
 40
1.0
 40
1.0
 40
2.0
 40
2.0
 40
2.0
 40
3.0
 40
3.0
 40
3.0
 40
4.0
 40
4.0
 40
4.0
 40
4.0
 10
144.2134195603008
 20
-152.8564751136956
 30
0.0
 10
144.2134195603008
 20
-153.1062445363762
 30
0.0
 10
144.4969509187369
 20
-153.1527533254271
 30
0.0
 10
144.8418049768104
 20
-153.1527533254271
 30
0.0
 10
145.161165328293
 20
-153.1527533254271
 30
0.0
 10
145.4698458837714
 20
-153.116579822832
 30
0.0
 10
145.4698458837714
 20
-152.8564751136956
 30
0.0
 10
145.4698458837714
 20
-152.6087727483061
 30
0.0
 10
145.188726092175
 20
-152.5601969019641
 30
0.0
 10
144.8418049768104
 20
-152.5601969019641
 30
0.0
 10
144.5221001157792
 20
-152.5601969019641
 30
0.0
 10
144.2134195603008
 20
-152.5984374618504
 30
0.0
 10
144.2134195603008
 20
-152.8564751136956
 30
0.0
  0
HATCH
  5
E4
330
DC
100
AcDbEntity
  8
_U+30EC_U+30A4_U+30E4_U+30FC 1
 62
   179
420
  2234388
100
AcDbHatch
 10
0.0
 20
0.0
 30
0.0
210
0.0
220
0.0
230
1.0
  2
SOLID
 70
     1
 71
     0
 91
        2
 92
        1
 93
        1
 72
     4
 94
        3
 73
     0
 74
     1
 95
       29
 96
       25
 40
0.0
 40
0.0
 40
0.0
 40
0.0
 40
1.0
 40
1.0
 40
1.0
 40
2.0
 40
2.0
 40
2.0
 40
3.0
 40
3.0
 40
3.0
 40
4.0
 40
4.0
 40
4.0
 40
5.0
 40
5.0
 40
5.0
 40
6.0
 40
6.0
 40
6.0
 40
7.0
 40
7.0
 40
7.0
 40
8.0
 40
8.0
 40
8.0
 40
8.0
 10
145.436083948016
 20
-152.4585665851492
 10
145.6455457535192
 20
-152.5667425833861
 10
145.664493778688
 20
-152.7400308862942
 10
145.664493778688
 20
-152.8564751136956
 10
145.664493778688
 20
-153.0173610728568
 10
145.6179849896372
 20
-153.1589544973006
 10
145.436083948016
 20
-153.2540391326934
 10
145.2414360530994
 20
-153.3577365067995
 10
145.0044134837142
 20
-153.3770290415169
 10
144.8418049768104
 20
-153.3770290415169
 10
144.697799985527
 20
-153.3770290415169
 10
144.4459635055552
 20
-153.3598035640906
 10
144.2471814960563
 20
-153.2540391326934
 10
144.0442653719751
 20
-153.1462076440051
 10
144.0208387226754
 20
-152.985321684844
 10
144.0208387226754
 20
-152.8564751136956
 10
144.0208387226754
 20
-152.6976562118256
 10
144.0652804544351
 20
-152.5539957300907
 10
144.2471814960563
 20
-152.4585665851492
 10
144.4397623336817
 20
-152.359347835174
 10
144.6681721643538
 20
-152.3359211858744
 10
144.8418049768104
 20
-152.3359211858744
 10
145.0130262224273
 20
-152.3359211858744
 10
145.2435031103905
 20
-152.3572807778829
 10
145.436083948016
 20
-152.4585665851492
 97
        0
 97
        0
 92
        1
 93
        1
 72
     4
 94
        3
 73
     0
 74
     1
 95
       17
 96
       13
 40
0.0
 40
0.0
 40
0.0
 40
0.0
 40
1.0
 40
1.0
 40
1.0
 40
2.0
 40
2.0
 40
2.0
 40
3.0
 40
3.0
 40
3.0
 40
4.0
 40
4.0
 40
4.0
 40
4.0
 10
144.2134195603008
 20
-152.8564751136956
 10
144.2134195603008
 20
-153.1062445363762
 10
144.4969509187369
 20
-153.1527533254271
 10
144.8418049768104
 20
-153.1527533254271
 10
145.161165328293
 20
-153.1527533254271
 10
145.4698458837714
 20
-153.116579822832
 10
145.4698458837714
 20
-152.8564751136956
 10
145.4698458837714
 20
-152.6087727483061
 10
145.188726092175
 20
-152.5601969019641
 10
144.8418049768104
 20
-152.5601969019641
 10
144.5221001157792
 20
-152.5601969019641
 10
144.2134195603008
 20
-152.5984374618504
 10
144.2134195603008
 20
-152.8564751136956
 97
        0
 97
        0
 75
     2
 76
     1
 98
        0
  0
ENDBLK
  5
DF
330
DC
100
AcDbEntity
  8
0
100
AcDbBlockEnd
  0
BLOCK
  5
EF
330
ED
100
AcDbEntity
  8
0
100
AcDbBlockBegin
  2
block 9
 70
     0
 10
0.0
 20
0.0
 30
0.0
  3
block 9
  1

  0
SPLINE
  5
F1
330
ED
100
AcDbEntity
  8
_U+30EC_U+30A4_U+30E4_U+30FC 1
370
     0
100
AcDbSpline
210
0.0
220
0.0
230
1.0
 70
    11
 71
     3
 72
    44
 73
    40
 74
     0
 42
0.0000000001
 43
0.0000000001
 12
1.0
 22
0.0
 32
0.0
 13
1.0
 23
0.0
 33
0.0
 40
0.0
 40
0.0
 40
0.0
 40
0.0
 40
1.0
 40
1.0
 40
1.0
 40
2.0
 40
2.0
 40
2.0
 40
3.0
 40
3.0
 40
3.0
 40
4.0
 40
4.0
 40
4.0
 40
5.0
 40
5.0
 40
5.0
 40
6.0
 40
6.0
 40
6.0
 40
7.0
 40
7.0
 40
7.0
 40
8.0
 40
8.0
 40
8.0
 40
9.0
 40
9.0
 40
9.0
 40
10.0
 40
10.0
 40
10.0
 40
11.0
 40
11.0
 40
11.0
 40
12.0
 40
12.0
 40
12.0
 40
13.0
 40
13.0
 40
13.0
 40
13.0
 10
49.57182344680844
 20
-173.3344671875692
 30
0.0
 10
49.54839679750874
 20
-173.2900254558095
 30
0.0
 10
49.52738171504871
 20
-173.2373154948851
 30
0.0
 10
49.5251424029833
 20
-173.0064940973734
 30
0.0
 10
49.521008288401
 20
-172.7632703561148
 30
0.0
 10
49.46175264605471
 20
-172.6933349177642
 30
0.0
 10
49.28398571901581
 20
-172.6933349177642
 30
0.0
 10
49.28398571901581
 20
-172.6933349177642
 30
0.0
 10
48.87574190401371
 20
-172.6933349177642
 30
0.0
 10
48.87574190401371
 20
-172.6933349177642
 30
0.0
 10
48.87574190401371
 20
-172.6933349177642
 30
0.0
 10
48.87574190401371
 20
-173.3344671875692
 30
0.0
 10
48.87574190401371
 20
-173.3344671875692
 30
0.0
 10
48.87574190401371
 20
-173.3344671875692
 30
0.0
 10
48.64095864669393
 20
-173.3344671875692
 30
0.0
 10
48.64095864669393
 20
-173.3344671875692
 30
0.0
 10
48.64095864669393
 20
-173.3344671875692
 30
0.0
 10
48.64095864669393
 20
-171.7900308815317
 30
0.0
 10
48.64095864669393
 20
-171.7900308815317
 30
0.0
 10
48.64095864669393
 20
-171.7900308815317
 30
0.0
 10
49.31585285225437
 20
-171.7900308815317
 30
0.0
 10
49.31585285225437
 20
-171.7900308815317
 30
0.0
 10
49.62246635044161
 20
-171.7900308815317
 30
0.0
 10
49.78955348147623
 20
-171.9615966366971
 30
0.0
 10
49.78955348147623
 20
-172.2175672312512
 30
0.0
 10
49.78955348147623
 20
-172.2682101348844
 30
0.0
 10
49.78111299753736
 20
-172.3508924265304
 30
0.0
 10
49.73667126577764
 20
-172.4311631513366
 30
0.0
 10
49.67758787820561
 20
-172.5348605254427
 30
0.0
 10
49.61195880921159
 20
-172.5538085506116
 30
0.0
 10
49.55063610957415
 20
-172.5706895184893
 30
0.0
 10
49.68809541943562
 20
-172.6130641929579
 30
0.0
 10
49.75579154572078
 20
-172.6616400392999
 30
0.0
 10
49.76009791507734
 20
-172.9768662762002
 30
0.0
 10
49.76423202965964
 20
-173.2476507813409
 30
0.0
 10
49.8002332774805
 20
-173.2793456598052
 30
0.0
 10
49.86792940376566
 20
-173.3344671875692
 30
0.0
 10
49.86792940376566
 20
-173.3344671875692
 30
0.0
 10
49.57182344680844
 20
-173.3344671875692
 30
0.0
 10
49.57182344680844
 20
-173.3344671875692
 30
0.0
  0
SPLINE
  5
F2
330
ED
100
AcDbEntity
  8
_U+30EC_U+30A4_U+30E4_U+30FC 1
370
     0
100
AcDbSpline
210
0.0
220
0.0
230
1.0
 70
    11
 71
     3
 72
    20
 73
    16
 74
     0
 42
0.0000000001
 43
0.0000000001
 12
1.0
 22
0.0
 32
0.0
 13
1.0
 23
0.0
 33
0.0
 40
0.0
 40
0.0
 40
0.0
 40
0.0
 40
1.0
 40
1.0
 40
1.0
 40
2.0
 40
2.0
 40
2.0
 40
3.0
 40
3.0
 40
3.0
 40
4.0
 40
4.0
 40
4.0
 40
5.0
 40
5.0
 40
5.0
 40
5.0
 10
49.31998696683667
 20
-172.001559744326
 30
0.0
 10
49.31998696683667
 20
-172.001559744326
 30
0.0
 10
48.87574190401371
 20
-172.001559744326
 30
0.0
 10
48.87574190401371
 20
-172.001559744326
 30
0.0
 10
48.87574190401371
 20
-172.001559744326
 30
0.0
 10
48.87574190401371
 20
-172.4818060549698
 30
0.0
 10
48.87574190401371
 20
-172.4818060549698
 30
0.0
 10
48.87574190401371
 20
-172.4818060549698
 30
0.0
 10
49.31791990954552
 20
-172.4818060549698
 30
0.0
 10
49.31791990954552
 20
-172.4818060549698
 30
0.0
 10
49.41731091429498
 20
-172.4818060549698
 30
0.0
 10
49.5527031668653
 20
-172.4056694447458
 30
0.0
 10
49.5527031668653
 20
-172.2344481991289
 30
0.0
 10
49.5527031668653
 20
-172.1562445316137
 30
0.0
 10
49.51876897633559
 20
-172.001559744326
 30
0.0
 10
49.31998696683667
 20
-172.001559744326
 30
0.0
  0
HATCH
  5
F3
330
ED
100
AcDbEntity
  8
_U+30EC_U+30A4_U+30E4_U+30FC 1
 62
   179
420
  2234388
100
AcDbHatch
 10
0.0
 20
0.0
 30
0.0
210
0.0
220
0.0
230
1.0
  2
SOLID
 70
     1
 71
     0
 91
        2
 92
        1
 93
        1
 72
     4
 94
        3
 73
     0
 74
     1
 95
       44
 96
       40
 40
0.0
 40
0.0
 40
0.0
 40
0.0
 40
1.0
 40
1.0
 40
1.0
 40
2.0
 40
2.0
 40
2.0
 40
3.0
 40
3.0
 40
3.0
 40
4.0
 40
4.0
 40
4.0
 40
5.0
 40
5.0
 40
5.0
 40
6.0
 40
6.0
 40
6.0
 40
7.0
 40
7.0
 40
7.0
 40
8.0
 40
8.0
 40
8.0
 40
9.0
 40
9.0
 40
9.0
 40
10.0
 40
10.0
 40
10.0
 40
11.0
 40
11.0
 40
11.0
 40
12.0
 40
12.0
 40
12.0
 40
13.0
 40
13.0
 40
13.0
 40
13.0
 10
49.57182344680844
 20
-173.3344671875692
 10
49.54839679750874
 20
-173.2900254558095
 10
49.52738171504871
 20
-173.2373154948851
 10
49.5251424029833
 20
-173.0064940973734
 10
49.521008288401
 20
-172.7632703561148
 10
49.46175264605471
 20
-172.6933349177642
 10
49.28398571901581
 20
-172.6933349177642
 10
49.28398571901581
 20
-172.6933349177642
 10
48.87574190401371
 20
-172.6933349177642
 10
48.87574190401371
 20
-172.6933349177642
 10
48.87574190401371
 20
-172.6933349177642
 10
48.87574190401371
 20
-173.3344671875692
 10
48.87574190401371
 20
-173.3344671875692
 10
48.87574190401371
 20
-173.3344671875692
 10
48.64095864669393
 20
-173.3344671875692
 10
48.64095864669393
 20
-173.3344671875692
 10
48.64095864669393
 20
-173.3344671875692
 10
48.64095864669393
 20
-171.7900308815317
 10
48.64095864669393
 20
-171.7900308815317
 10
48.64095864669393
 20
-171.7900308815317
 10
49.31585285225437
 20
-171.7900308815317
 10
49.31585285225437
 20
-171.7900308815317
 10
49.62246635044161
 20
-171.7900308815317
 10
49.78955348147623
 20
-171.9615966366971
 10
49.78955348147623
 20
-172.2175672312512
 10
49.78955348147623
 20
-172.2682101348844
 10
49.78111299753736
 20
-172.3508924265304
 10
49.73667126577764
 20
-172.4311631513366
 10
49.67758787820561
 20
-172.5348605254427
 10
49.61195880921159
 20
-172.5538085506116
 10
49.55063610957415
 20
-172.5706895184893
 10
49.68809541943562
 20
-172.6130641929579
 10
49.75579154572078
 20
-172.6616400392999
 10
49.76009791507734
 20
-172.9768662762002
 10
49.76423202965964
 20
-173.2476507813409
 10
49.8002332774805
 20
-173.2793456598052
 10
49.86792940376566
 20
-173.3344671875692
 10
49.86792940376566
 20
-173.3344671875692
 10
49.57182344680844
 20
-173.3344671875692
 10
49.57182344680844
 20
-173.3344671875692
 97
        0
 97
        0
 92
        1
 93
        1
 72
     4
 94
        3
 73
     0
 74
     1
 95
       20
 96
       16
 40
0.0
 40
0.0
 40
0.0
 40
0.0
 40
1.0
 40
1.0
 40
1.0
 40
2.0
 40
2.0
 40
2.0
 40
3.0
 40
3.0
 40
3.0
 40
4.0
 40
4.0
 40
4.0
 40
5.0
 40
5.0
 40
5.0
 40
5.0
 10
49.31998696683667
 20
-172.001559744326
 10
49.31998696683667
 20
-172.001559744326
 10
48.87574190401371
 20
-172.001559744326
 10
48.87574190401371
 20
-172.001559744326
 10
48.87574190401371
 20
-172.001559744326
 10
48.87574190401371
 20
-172.4818060549698
 10
48.87574190401371
 20
-172.4818060549698
 10
48.87574190401371
 20
-172.4818060549698
 10
49.31791990954552
 20
-172.4818060549698
 10
49.31791990954552
 20
-172.4818060549698
 10
49.41731091429498
 20
-172.4818060549698
 10
49.5527031668653
 20
-172.4056694447458
 10
49.5527031668653
 20
-172.2344481991289
 10
49.5527031668653
 20
-172.1562445316137
 10
49.51876897633559
 20
-172.001559744326
 10
49.31998696683667
 20
-172.001559744326
 97
        0
 97
        0
 75
     2
 76
     1
 98
        0
  0
SPLINE
  5
F4
330
ED
100
AcDbEntity
  8
_U+30EC_U+30A4_U+30E4_U+30FC 1
370
     0
100
AcDbSpline
210
0.0
220
0.0
230
1.0
 70
    11
 71
     3
 72
    26
 73
    22
 74
     0
 42
0.0000000001
 43
0.0000000001
 12
1.0
 22
0.0
 32
0.0
 13
1.0
 23
0.0
 33
0.0
 40
0.0
 40
0.0
 40
0.0
 40
0.0
 40
1.0
 40
1.0
 40
1.0
 40
2.0
 40
2.0
 40
2.0
 40
3.0
 40
3.0
 40
3.0
 40
4.0
 40
4.0
 40
4.0
 40
5.0
 40
5.0
 40
5.0
 40
6.0
 40
6.0
 40
6.0
 40
7.0
 40
7.0
 40
7.0
 40
7.0
 10
50.45893553426027
 20
-173.3344671875692
 30
0.0
 10
50.45893553426027
 20
-173.3344671875692
 30
0.0
 10
50.45893553426027
 20
-172.2303140845466
 30
0.0
 10
50.45893553426027
 20
-172.2303140845466
 30
0.0
 10
50.45893553426027
 20
-172.2303140845466
 30
0.0
 10
50.12889538677334
 20
-172.2303140845466
 30
0.0
 10
50.12889538677334
 20
-172.2303140845466
 30
0.0
 10
50.12889538677334
 20
-172.2303140845466
 30
0.0
 10
50.12889538677334
 20
-172.0821749786809
 30
0.0
 10
50.12889538677334
 20
-172.0821749786809
 30
0.0
 10
50.46100259155142
 20
-172.0673610680943
 30
0.0
 10
50.50751138060229
 20
-171.904408051642
 30
0.0
 10
50.53713920177544
 20
-171.7900308815317
 30
0.0
 10
50.53713920177544
 20
-171.7900308815317
 30
0.0
 10
50.68321125035003
 20
-171.7900308815317
 30
0.0
 10
50.68321125035003
 20
-171.7900308815317
 30
0.0
 10
50.68321125035003
 20
-171.7900308815317
 30
0.0
 10
50.68321125035003
 20
-173.3344671875692
 30
0.0
 10
50.68321125035003
 20
-173.3344671875692
 30
0.0
 10
50.68321125035003
 20
-173.3344671875692
 30
0.0
 10
50.45893553426027
 20
-173.3344671875692
 30
0.0
 10
50.45893553426027
 20
-173.3344671875692
 30
0.0
  0
HATCH
  5
F5
330
ED
100
AcDbEntity
  8
_U+30EC_U+30A4_U+30E4_U+30FC 1
 62
   179
420
  2234388
100
AcDbHatch
 10
0.0
 20
0.0
 30
0.0
210
0.0
220
0.0
230
1.0
  2
SOLID
 70
     1
 71
     0
 91
        1
 92
        1
 93
        1
 72
     4
 94
        3
 73
     0
 74
     1
 95
       26
 96
       22
 40
0.0
 40
0.0
 40
0.0
 40
0.0
 40
1.0
 40
1.0
 40
1.0
 40
2.0
 40
2.0
 40
2.0
 40
3.0
 40
3.0
 40
3.0
 40
4.0
 40
4.0
 40
4.0
 40
5.0
 40
5.0
 40
5.0
 40
6.0
 40
6.0
 40
6.0
 40
7.0
 40
7.0
 40
7.0
 40
7.0
 10
50.45893553426027
 20
-173.3344671875692
 10
50.45893553426027
 20
-173.3344671875692
 10
50.45893553426027
 20
-172.2303140845466
 10
50.45893553426027
 20
-172.2303140845466
 10
50.45893553426027
 20
-172.2303140845466
 10
50.12889538677334
 20
-172.2303140845466
 10
50.12889538677334
 20
-172.2303140845466
 10
50.12889538677334
 20
-172.2303140845466
 10
50.12889538677334
 20
-172.0821749786809
 10
50.12889538677334
 20
-172.0821749786809
 10
50.46100259155142
 20
-172.0673610680943
 10
50.50751138060229
 20
-171.904408051642
 10
50.53713920177544
 20
-171.7900308815317
 10
50.53713920177544
 20
-171.7900308815317
 10
50.68321125035003
 20
-171.7900308815317
 10
50.68321125035003
 20
-171.7900308815317
 10
50.68321125035003
 20
-171.7900308815317
 10
50.68321125035003
 20
-173.3344671875692
 10
50.68321125035003
 20
-173.3344671875692
 10
50.68321125035003
 20
-173.3344671875692
 10
50.45893553426027
 20
-173.3344671875692
 10
50.45893553426027
 20
-173.3344671875692
 97
        0
 97
        0
 75
     2
 76
     1
 98
        0
  0
POLYLINE
  5
F6
330
ED
100
AcDbEntity
  8
_U+30EC_U+30A4_U+30E4_U+30FC 1
370
     0
100
AcDb2dPolyline
 66
     1
 10
0.0
 20
0.0
 30
0.0
  0
VERTEX
  5
F7
330
F6
100
AcDbEntity
  8
_U+30EC_U+30A4_U+30E4_U+30FC 1
370
     0
100
AcDbVertex
100
AcDb2dVertex
 10
51.24441730489723
 20
-173.3344671875692
 30
0.0
  0
VERTEX
  5
F8
330
F6
100
AcDbEntity
  8
_U+30EC_U+30A4_U+30E4_U+30FC 1
370
     0
100
AcDbVertex
100
AcDb2dVertex
 10
51.24441730489723
 20
-173.0826307075974
 30
0.0
  0
VERTEX
  5
F9
330
F6
100
AcDbEntity
  8
_U+30EC_U+30A4_U+30E4_U+30FC 1
370
     0
100
AcDbVertex
100
AcDb2dVertex
 10
51.49608153009473
 20
-173.0826307075974
 30
0.0
  0
VERTEX
  5
FA
330
F6
100
AcDbEntity
  8
_U+30EC_U+30A4_U+30E4_U+30FC 1
370
     0
100
AcDbVertex
100
AcDb2dVertex
 10
51.49608153009473
 20
-173.3344671875692
 30
0.0
  0
VERTEX
  5
FB
330
F6
100
AcDbEntity
  8
_U+30EC_U+30A4_U+30E4_U+30FC 1
370
     0
100
AcDbVertex
100
AcDb2dVertex
 10
51.24441730489723
 20
-173.3344671875692
 30
0.0
  0
SEQEND
  5
FC
330
F6
100
AcDbEntity
  8
_U+30EC_U+30A4_U+30E4_U+30FC 1
370
     0
  0
HATCH
  5
FD
330
ED
100
AcDbEntity
  8
_U+30EC_U+30A4_U+30E4_U+30FC 1
 62
   179
420
  2234388
100
AcDbHatch
 10
0.0
 20
0.0
 30
0.0
210
0.0
220
0.0
230
1.0
  2
SOLID
 70
     1
 71
     0
 91
        1
 92
        1
 93
        4
 72
     1
 10
51.24441730489723
 20
-173.3344671875692
 11
51.24441730489723
 21
-173.0826307075974
 72
     1
 10
51.24441730489723
 20
-173.0826307075974
 11
51.49608153009473
 21
-173.0826307075974
 72
     1
 10
51.49608153009473
 20
-173.0826307075974
 11
51.49608153009473
 21
-173.3344671875692
 72
     1
 10
51.49608153009473
 20
-173.3344671875692
 11
51.24441730489723
 21
-173.3344671875692
 97
        0
 75
     2
 76
     1
 98
        0
  0
SPLINE
  5
FE
330
ED
100
AcDbEntity
  8
_U+30EC_U+30A4_U+30E4_U+30FC 1
370
     0
100
AcDbSpline
210
0.0
220
0.0
230
1.0
 70
    11
 71
     3
 72
    53
 73
    49
 74
     0
 42
0.0000000001
 43
0.0000000001
 12
1.0
 22
0.0
 32
0.0
 13
1.0
 23
0.0
 33
0.0
 40
0.0
 40
0.0
 40
0.0
 40
0.0
 40
1.0
 40
1.0
 40
1.0
 40
2.0
 40
2.0
 40
2.0
 40
3.0
 40
3.0
 40
3.0
 40
4.0
 40
4.0
 40
4.0
 40
5.0
 40
5.0
 40
5.0
 40
6.0
 40
6.0
 40
6.0
 40
7.0
 40
7.0
 40
7.0
 40
8.0
 40
8.0
 40
8.0
 40
9.0
 40
9.0
 40
9.0
 40
10.0
 40
10.0
 40
10.0
 40
11.0
 40
11.0
 40
11.0
 40
12.0
 40
12.0
 40
12.0
 40
13.0
 40
13.0
 40
13.0
 40
14.0
 40
14.0
 40
14.0
 40
15.0
 40
15.0
 40
15.0
 40
16.0
 40
16.0
 40
16.0
 40
16.0
 10
52.21352266489801
 20
-173.3851100912023
 30
0.0
 10
52.13514674260858
 20
-173.3851100912023
 30
0.0
 10
52.03368868056797
 20
-173.3682291233246
 30
0.0
 10
51.9320583637531
 20
-173.304839366396
 30
0.0
 10
51.75859780607077
 20
-173.1949408204165
 30
0.0
 10
51.73741046883648
 20
-173.0636826824285
 30
0.0
 10
51.71846244366761
 20
-172.9558511937402
 30
0.0
 10
51.71846244366761
 20
-172.9558511937402
 30
0.0
 10
51.94049884769196
 20
-172.9558511937402
 30
0.0
 10
51.94049884769196
 20
-172.9558511937402
 30
0.0
 10
51.99562037545596
 20
-173.1546332032391
 30
0.0
 10
52.12257214408741
 20
-173.1842610244123
 30
0.0
 10
52.21558972218916
 20
-173.1842610244123
 30
0.0
 10
52.35511608934178
 20
-173.1842610244123
 30
0.0
 10
52.50756156456409
 20
-173.0846977648885
 30
0.0
 10
52.50756156456409
 20
-172.8521538196342
 30
0.0
 10
52.50756156456409
 20
-172.5961832250801
 30
0.0
 10
52.32772758023404
 20
-172.5262477867296
 30
0.0
 10
52.2071492382503
 20
-172.5262477867296
 30
0.0
 10
52.175454359786
 20
-172.5262477867296
 30
0.0
 10
52.03368868056797
 20
-172.5262477867296
 30
0.0
 10
51.94480521704853
 20
-172.6554388674264
 30
0.0
 10
51.94480521704853
 20
-172.6554388674264
 30
0.0
 10
51.76927760207504
 20
-172.6364908422576
 30
0.0
 10
51.76927760207504
 20
-172.6364908422576
 30
0.0
 10
51.76927760207504
 20
-172.6364908422576
 30
0.0
 10
51.88985594405879
 20
-171.7900308815317
 30
0.0
 10
51.88985594405879
 20
-171.7900308815317
 30
0.0
 10
51.88985594405879
 20
-171.7900308815317
 30
0.0
 10
52.66827526895099
 20
-171.7900308815317
 30
0.0
 10
52.66827526895099
 20
-171.7900308815317
 30
0.0
 10
52.66827526895099
 20
-171.7900308815317
 30
0.0
 10
52.66827526895099
 20
-171.9846787764483
 30
0.0
 10
52.66827526895099
 20
-171.9846787764483
 30
0.0
 10
52.66827526895099
 20
-171.9846787764483
 30
0.0
 10
52.05263670573684
 20
-171.9846787764483
 30
0.0
 10
52.05263670573684
 20
-171.9846787764483
 30
0.0
 10
52.05263670573684
 20
-171.9846787764483
 30
0.0
 10
51.98717989151709
 20
-172.407736502037
 30
0.0
 10
51.98717989151709
 20
-172.407736502037
 30
0.0
 10
52.04850259115454
 20
-172.3739745662815
 30
0.0
 10
52.13101262802628
 20
-172.3336669491041
 30
0.0
 10
52.24935165794461
 20
-172.3336669491041
 30
0.0
 10
52.50325519520752
 20
-172.3336669491041
 30
0.0
 10
52.74027776459271
 20
-172.5200466148561
 30
0.0
 10
52.74027776459271
 20
-172.8332057944653
 30
0.0
 10
52.74027776459271
 20
-173.1504990886568
 30
0.0
 10
52.51600204850295
 20
-173.3851100912023
 30
0.0
 10
52.21352266489801
 20
-173.3851100912023
 30
0.0
  0
HATCH
  5
FF
330
ED
100
AcDbEntity
  8
_U+30EC_U+30A4_U+30E4_U+30FC 1
 62
   179
420
  2234388
100
AcDbHatch
 10
0.0
 20
0.0
 30
0.0
210
0.0
220
0.0
230
1.0
  2
SOLID
 70
     1
 71
     0
 91
        1
 92
        1
 93
        1
 72
     4
 94
        3
 73
     0
 74
     1
 95
       53
 96
       49
 40
0.0
 40
0.0
 40
0.0
 40
0.0
 40
1.0
 40
1.0
 40
1.0
 40
2.0
 40
2.0
 40
2.0
 40
3.0
 40
3.0
 40
3.0
 40
4.0
 40
4.0
 40
4.0
 40
5.0
 40
5.0
 40
5.0
 40
6.0
 40
6.0
 40
6.0
 40
7.0
 40
7.0
 40
7.0
 40
8.0
 40
8.0
 40
8.0
 40
9.0
 40
9.0
 40
9.0
 40
10.0
 40
10.0
 40
10.0
 40
11.0
 40
11.0
 40
11.0
 40
12.0
 40
12.0
 40
12.0
 40
13.0
 40
13.0
 40
13.0
 40
14.0
 40
14.0
 40
14.0
 40
15.0
 40
15.0
 40
15.0
 40
16.0
 40
16.0
 40
16.0
 40
16.0
 10
52.21352266489801
 20
-173.3851100912023
 10
52.13514674260858
 20
-173.3851100912023
 10
52.03368868056797
 20
-173.3682291233246
 10
51.9320583637531
 20
-173.304839366396
 10
51.75859780607077
 20
-173.1949408204165
 10
51.73741046883648
 20
-173.0636826824285
 10
51.71846244366761
 20
-172.9558511937402
 10
51.71846244366761
 20
-172.9558511937402
 10
51.94049884769196
 20
-172.9558511937402
 10
51.94049884769196
 20
-172.9558511937402
 10
51.99562037545596
 20
-173.1546332032391
 10
52.12257214408741
 20
-173.1842610244123
 10
52.21558972218916
 20
-173.1842610244123
 10
52.35511608934178
 20
-173.1842610244123
 10
52.50756156456409
 20
-173.0846977648885
 10
52.50756156456409
 20
-172.8521538196342
 10
52.50756156456409
 20
-172.5961832250801
 10
52.32772758023404
 20
-172.5262477867296
 10
52.2071492382503
 20
-172.5262477867296
 10
52.175454359786
 20
-172.5262477867296
 10
52.03368868056797
 20
-172.5262477867296
 10
51.94480521704853
 20
-172.6554388674264
 10
51.94480521704853
 20
-172.6554388674264
 10
51.76927760207504
 20
-172.6364908422576
 10
51.76927760207504
 20
-172.6364908422576
 10
51.76927760207504
 20
-172.6364908422576
 10
51.88985594405879
 20
-171.7900308815317
 10
51.88985594405879
 20
-171.7900308815317
 10
51.88985594405879
 20
-171.7900308815317
 10
52.66827526895099
 20
-171.7900308815317
 10
52.66827526895099
 20
-171.7900308815317
 10
52.66827526895099
 20
-171.7900308815317
 10
52.66827526895099
 20
-171.9846787764483
 10
52.66827526895099
 20
-171.9846787764483
 10
52.66827526895099
 20
-171.9846787764483
 10
52.05263670573684
 20
-171.9846787764483
 10
52.05263670573684
 20
-171.9846787764483
 10
52.05263670573684
 20
-171.9846787764483
 10
51.98717989151709
 20
-172.407736502037
 10
51.98717989151709
 20
-172.407736502037
 10
52.04850259115454
 20
-172.3739745662815
 10
52.13101262802628
 20
-172.3336669491041
 10
52.24935165794461
 20
-172.3336669491041
 10
52.50325519520752
 20
-172.3336669491041
 10
52.74027776459271
 20
-172.5200466148561
 10
52.74027776459271
 20
-172.8332057944653
 10
52.74027776459271
 20
-173.1504990886568
 10
52.51600204850295
 20
-173.3851100912023
 10
52.21352266489801
 20
-173.3851100912023
 97
        0
 97
        0
 75
     2
 76
     1
 98
        0
  0
ENDBLK
  5
F0
330
ED
100
AcDbEntity
  8
0
100
AcDbBlockEnd
  0
ENDSEC
  0
SECTION
  2
ENTITIES
  0
SPLINE
  5
41
330
1F
100
AcDbEntity
  8
_U+30EC_U+30A4_U+30E4_U+30FC 1
 62
   179
420
  2234388
370
    25
100
AcDbSpline
210
0.0
220
0.0
230
1.0
 70
     8
 71
     3
 72
    65
 73
    61
 74
     0
 42
0.0000000001
 43
0.0000000001
 12
1.0
 22
0.0
 32
0.0
 13
1.0
 23
0.0
 33
0.0
 40
0.0
 40
0.0
 40
0.0
 40
0.0
 40
1.0
 40
1.0
 40
1.0
 40
2.0
 40
2.0
 40
2.0
 40
3.0
 40
3.0
 40
3.0
 40
4.0
 40
4.0
 40
4.0
 40
5.0
 40
5.0
 40
5.0
 40
6.0
 40
6.0
 40
6.0
 40
7.0
 40
7.0
 40
7.0
 40
8.0
 40
8.0
 40
8.0
 40
9.0
 40
9.0
 40
9.0
 40
10.0
 40
10.0
 40
10.0
 40
11.0
 40
11.0
 40
11.0
 40
12.0
 40
12.0
 40
12.0
 40
13.0
 40
13.0
 40
13.0
 40
14.0
 40
14.0
 40
14.0
 40
15.0
 40
15.0
 40
15.0
 40
16.0
 40
16.0
 40
16.0
 40
17.0
 40
17.0
 40
17.0
 40
18.0
 40
18.0
 40
18.0
 40
19.0
 40
19.0
 40
19.0
 40
20.0
 40
20.0
 40
20.0
 40
20.0
 10
94.95990841070424
 20
-129.9806899675045
 30
0.0
 10
94.95990841070424
 20
-129.152156078823
 30
0.0
 10
95.63170553164775
 20
-128.4807141345464
 30
0.0
 10
96.45991948354688
 20
-128.4807141345464
 30
0.0
 10
96.45991948354688
 20
-128.4807141345464
 30
0.0
 10
142.2600341484219
 20
-128.4807141345464
 30
0.0
 10
142.2600341484219
 20
-128.4807141345464
 30
0.0
 10
142.2600341484219
 20
-128.4807141345464
 30
0.0
 10
142.2600341484219
 20
-126.9807030238105
 30
0.0
 10
142.2600341484219
 20
-126.9807030238105
 30
0.0
 10
142.2600341484219
 20
-126.9807030238105
 30
0.0
 10
96.45991948354688
 20
-126.9807030238105
 30
0.0
 10
96.45991948354688
 20
-126.9807030238105
 30
0.0
 10
95.63170553164775
 20
-126.9807030238105
 30
0.0
 10
94.95990841070424
 20
-126.3092610795339
 30
0.0
 10
94.95990841070424
 20
-125.4807271908521
 30
0.0
 10
94.95990841070424
 20
-125.4807271908521
 30
0.0
 10
94.96163702177125
 20
-79.67281498008164
 30
0.0
 10
94.96163702177125
 20
-79.67281498008164
 30
0.0
 10
94.96163702177125
 20
-79.67281498008164
 30
0.0
 10
93.46166122670549
 20
-79.67281498008164
 30
0.0
 10
93.46166122670549
 20
-79.67281498008164
 30
0.0
 10
93.46166122670549
 20
-79.67281498008164
 30
0.0
 10
93.46166122670549
 20
-176.6338224558413
 30
0.0
 10
93.46166122670549
 20
-176.6338224558413
 30
0.0
 10
93.46166122670549
 20
-177.4620388445232
 30
0.0
 10
92.79018402161408
 20
-178.1338335665775
 30
0.0
 10
91.96165015386285
 20
-178.1338335665775
 30
0.0
 10
91.96165015386285
 20
-178.1338335665775
 30
0.0
 10
44.94367607561352
 20
-178.1338335665775
 30
0.0
 10
44.94367607561352
 20
-178.1338335665775
 30
0.0
 10
44.11514220786229
 20
-178.1338335665775
 30
0.0
 10
43.44370028054776
 20
-177.4620388445232
 30
0.0
 10
43.44370028054776
 20
-176.6338224558413
 30
0.0
 10
43.44370028054776
 20
-176.6338224558413
 30
0.0
 10
43.44370028054776
 20
-109.6449913614775
 30
0.0
 10
43.44370028054776
 20
-109.6449913614775
 30
0.0
 10
42.61513113501965
 20
-109.6449913614775
 30
0.0
 10
41.94368920770512
 20
-110.3167860835319
 30
0.0
 10
41.94368920770512
 20
-111.1449671944359
 30
0.0
 10
41.94368920770512
 20
-111.1449671944359
 30
0.0
 10
41.94368920770512
 20
-178.1334807887998
 30
0.0
 10
41.94368920770512
 20
-178.1334807887998
 30
0.0
 10
41.94368920770512
 20
-178.9620146774819
 30
0.0
 10
42.61530752390404
 20
-179.633491899536
 30
0.0
 10
43.44370028054776
 20
-179.633491899536
 30
0.0
 10
43.44370028054776
 20
-179.633491899536
 30
0.0
 10
110.760507174264
 20
-179.633491899536
 30
0.0
 10
110.760507174264
 20
-179.633491899536
 30
0.0
 10
111.5887235420234
 20
-179.633491899536
 30
0.0
 10
112.2605182471067
 20
-178.9620146774819
 30
0.0
 10
112.2605182471067
 20
-178.1334807887998
 30
0.0
 10
112.2605182471067
 20
-178.1334807887998
 30
0.0
 10
96.46164809461389
 20
-178.1338335665775
 30
0.0
 10
96.46164809461389
 20
-178.1338335665775
 30
0.0
 10
95.63307894908579
 20
-178.1338335665775
 30
0.0
 10
94.96163702177125
 20
-177.4620388445232
 30
0.0
 10
94.96163702177125
 20
-176.6338224558413
 30
0.0
 10
94.96163702177125
 20
-176.6338224558413
 30
0.0
 10
94.96163702177125
 20
-129.9448830230694
 30
0.0
 10
94.96163702177125
 20
-129.9448830230694
 30
0.0
  0
HATCH
  5
42
330
1F
100
AcDbEntity
  8
_U+30EC_U+30A4_U+30E4_U+30FC 1
 62
    41
420
 16705972
100
AcDbHatch
 10
0.0
 20
0.0
 30
0.0
210
0.0
220
0.0
230
1.0
  2
SOLID
 70
     1
 71
     0
 91
        1
 92
        1
 93
        2
 72
     4
 94
        3
 73
     0
 74
     0
 95
       65
 96
       61
 40
0.0
 40
0.0
 40
0.0
 40
0.0
 40
0.3527777776895833
 40
0.3527777776895833
 40
0.3527777776895833
 40
0.7055555553791667
 40
0.7055555553791667
 40
0.7055555553791667
 40
1.05833333306875
 40
1.05833333306875
 40
1.05833333306875
 40
1.411111110758333
 40
1.411111110758333
 40
1.411111110758333
 40
1.763888888447917
 40
1.763888888447917
 40
1.763888888447917
 40
2.1166666661375
 40
2.1166666661375
 40
2.1166666661375
 40
2.469444443827083
 40
2.469444443827083
 40
2.469444443827083
 40
2.822222221516667
 40
2.822222221516667
 40
2.822222221516667
 40
3.17499999920625
 40
3.17499999920625
 40
3.17499999920625
 40
3.527777776895833
 40
3.527777776895833
 40
3.527777776895833
 40
3.880555554585417
 40
3.880555554585417
 40
3.880555554585417
 40
4.233333332275
 40
4.233333332275
 40
4.233333332275
 40
4.586111109964584
 40
4.586111109964584
 40
4.586111109964584
 40
4.938888887654167
 40
4.938888887654167
 40
4.938888887654167
 40
5.29166666534375
 40
5.29166666534375
 40
5.29166666534375
 40
5.644444443033334
 40
5.644444443033334
 40
5.644444443033334
 40
5.997222220722917
 40
5.997222220722917
 40
5.997222220722917
 40
6.349999998412501
 40
6.349999998412501
 40
6.349999998412501
 40
6.702777776102083
 40
6.702777776102083
 40
6.702777776102083
 40
7.055555553791667
 40
7.055555553791667
 40
7.055555553791667
 40
7.055555553791667
 10
94.95990841070424
 20
-129.9806899675045
 10
94.95990841070424
 20
-129.152156078823
 10
95.63170553164775
 20
-128.4807141345464
 10
96.45991948354688
 20
-128.4807141345464
 10
96.45991948354688
 20
-128.4807141345464
 10
142.2600341484219
 20
-128.4807141345464
 10
142.2600341484219
 20
-128.4807141345464
 10
142.2600341484219
 20
-128.4807141345464
 10
142.2600341484219
 20
-126.9807030238105
 10
142.2600341484219
 20
-126.9807030238105
 10
142.2600341484219
 20
-126.9807030238105
 10
96.45991948354688
 20
-126.9807030238105
 10
96.45991948354688
 20
-126.9807030238105
 10
95.63170553164775
 20
-126.9807030238105
 10
94.95990841070424
 20
-126.3092610795339
 10
94.95990841070424
 20
-125.4807271908521
 10
94.95990841070424
 20
-125.4807271908521
 10
94.96163702177125
 20
-79.67281498008164
 10
94.96163702177125
 20
-79.67281498008164
 10
94.96163702177125
 20
-79.67281498008164
 10
93.46166122670549
 20
-79.67281498008164
 10
93.46166122670549
 20
-79.67281498008164
 10
93.46166122670549
 20
-79.67281498008164
 10
93.46166122670549
 20
-176.6338224558413
 10
93.46166122670549
 20
-176.6338224558413
 10
93.46166122670549
 20
-177.4620388445232
 10
92.79018402161408
 20
-178.1338335665775
 10
91.96165015386285
 20
-178.1338335665775
 10
91.96165015386285
 20
-178.1338335665775
 10
44.94367607561352
 20
-178.1338335665775
 10
44.94367607561352
 20
-178.1338335665775
 10
44.11514220786229
 20
-178.1338335665775
 10
43.44370028054776
 20
-177.4620388445232
 10
43.44370028054776
 20
-176.6338224558413
 10
43.44370028054776
 20
-176.6338224558413
 10
43.44370028054776
 20
-109.6449913614775
 10
43.44370028054776
 20
-109.6449913614775
 10
42.61513113501965
 20
-109.6449913614775
 10
41.94368920770512
 20
-110.3167860835319
 10
41.94368920770512
 20
-111.1449671944359
 10
41.94368920770512
 20
-111.1449671944359
 10
41.94368920770512
 20
-178.1334807887998
 10
41.94368920770512
 20
-178.1334807887998
 10
41.94368920770512
 20
-178.9620146774819
 10
42.61530752390404
 20
-179.633491899536
 10
43.44370028054776
 20
-179.633491899536
 10
43.44370028054776
 20
-179.633491899536
 10
110.760507174264
 20
-179.633491899536
 10
110.760507174264
 20
-179.633491899536
 10
111.5887235420234
 20
-179.633491899536
 10
112.2605182471067
 20
-178.9620146774819
 10
112.2605182471067
 20
-178.1334807887998
 10
112.2605182471067
 20
-178.1334807887998
 10
96.46164809461389
 20
-178.1338335665775
 10
96.46164809461389
 20
-178.1338335665775
 10
95.63307894908579
 20
-178.1338335665775
 10
94.96163702177125
 20
-177.4620388445232
 10
94.96163702177125
 20
-176.6338224558413
 10
94.96163702177125
 20
-176.6338224558413
 10
94.96163702177125
 20
-129.9448830230694
 10
94.96163702177125
 20
-129.9448830230694
 97
        0
 72
     1
 10
94.96163702177125
 20
-129.9448830230694
 11
94.95990841070424
 21
-129.9806899675045
 97
        0
 75
     2
 76
     1
 98
        0
  0
POLYLINE
  5
43
330
1F
100
AcDbEntity
  8
_U+30EC_U+30A4_U+30E4_U+30FC 1
 62
   179
420
  2234388
370
     9
100
AcDb2dPolyline
 66
     1
 10
0.0
 20
0.0
 30
0.0
  0
VERTEX
  5
44
330
43
100
AcDbEntity
  8
_U+30EC_U+30A4_U+30E4_U+30FC 1
 62
   179
420
  2234388
370
     9
100
AcDbVertex
100
AcDb2dVertex
 10
42.99687195861397
 20
-178.0752724554813
 30
0.0
  0
VERTEX
  5
45
330
43
100
AcDbEntity
  8
_U+30EC_U+30A4_U+30E4_U+30FC 1
 62
   179
420
  2234388
370
     9
100
AcDbVertex
100
AcDb2dVertex
 10
42.42995808418826
 20
-179.1315243996617
 30
0.0
  0
VERTEX
  5
46
330
43
100
AcDbEntity
  8
_U+30EC_U+30A4_U+30E4_U+30FC 1
 62
   179
420
  2234388
370
     9
100
AcDbVertex
100
AcDb2dVertex
 10
43.59631194332098
 20
-178.631285510898
 30
0.0
  0
SEQEND
  5
47
330
43
100
AcDbEntity
  8
_U+30EC_U+30A4_U+30E4_U+30FC 1
 62
   179
420
  2234388
370
     9
  0
SPLINE
  5
48
330
1F
100
AcDbEntity
  8
_U+30EC_U+30A4_U+30E4_U+30FC 1
 62
   179
420
  2234388
370
     9
100
AcDbSpline
210
0.0
220
0.0
230
1.0
 70
    11
 71
     3
 72
    17
 73
    13
 74
     0
 42
0.0000000001
 43
0.0000000001
 12
1.0
 22
0.0
 32
0.0
 13
1.0
 23
0.0
 33
0.0
 40
0.0
 40
0.0
 40
0.0
 40
0.0
 40
1.0
 40
1.0
 40
1.0
 40
2.0
 40
2.0
 40
2.0
 40
3.0
 40
3.0
 40
3.0
 40
4.0
 40
4.0
 40
4.0
 40
4.0
 10
93.560509557517
 20
-75.64430442553329
 30
0.0
 10
93.560509557517
 20
-75.58920053665838
 30
0.0
 10
93.51574442106578
 20
-75.54439775889166
 30
0.0
 10
93.45993261563848
 20
-75.54439775889166
 30
0.0
 10
93.40479345037852
 20
-75.54439775889166
 30
0.0
 10
93.36002595152064
 20
-75.58920053665838
 30
0.0
 10
93.36002595152064
 20
-75.64430442553329
 30
0.0
 10
93.36002595152064
 20
-75.69944359218637
 30
0.0
 10
93.40479345037852
 20
-75.74421109217494
 30
0.0
 10
93.45993261563848
 20
-75.74421109217494
 30
0.0
 10
93.51574442106578
 20
-75.74421109217494
 30
0.0
 10
93.560509557517
 20
-75.69944359218637
 30
0.0
 10
93.560509557517
 20
-75.64430442553329
 30
0.0
  0
SPLINE
  5
49
330
1F
100
AcDbEntity
  8
_U+30EC_U+30A4_U+30E4_U+30FC 1
 62
   179
420
  2234388
370
     9
100
AcDbSpline
210
0.0
220
0.0
230
1.0
 70
    11
 71
     3
 72
    17
 73
    13
 74
     0
 42
0.0000000001
 43
0.0000000001
 12
1.0
 22
0.0
 32
0.0
 13
1.0
 23
0.0
 33
0.0
 40
0.0
 40
0.0
 40
0.0
 40
0.0
 40
1.0
 40
1.0
 40
1.0
 40
2.0
 40
2.0
 40
2.0
 40
3.0
 40
3.0
 40
3.0
 40
4.0
 40
4.0
 40
4.0
 40
4.0
 10
43.56011694424438
 20
-75.64430442553329
 30
0.0
 10
43.56011694424438
 20
-75.58920053665838
 30
0.0
 10
43.51552583427089
 20
-75.54439775889166
 30
0.0
 10
43.46021028012655
 20
-75.54439775889166
 30
0.0
 10
43.40493000375909
 20
-75.54439775889166
 30
0.0
 10
43.36012722712433
 20
-75.58920053665838
 30
0.0
 10
43.36012722712433
 20
-75.64430442553329
 30
0.0
 10
43.36012722712433
 20
-75.69944359218637
 30
0.0
 10
43.40493000375909
 20
-75.74421109217494
 30
0.0
 10
43.46021028012655
 20
-75.74421109217494
 30
0.0
 10
43.51552583427089
 20
-75.74421109217494
 30
0.0
 10
43.56011694424438
 20
-75.69944359218637
 30
0.0
 10
43.56011694424438
 20
-75.64430442553329
 30
0.0
  0
SPLINE
  5
4A
330
1F
100
AcDbEntity
  8
_U+30EC_U+30A4_U+30E4_U+30FC 1
 62
   179
420
  2234388
370
     9
100
AcDbSpline
210
0.0
220
0.0
230
1.0
 70
    11
 71
     3
 72
    17
 73
    13
 74
     0
 42
0.0000000001
 43
0.0000000001
 12
1.0
 22
0.0
 32
0.0
 13
1.0
 23
0.0
 33
0.0
 40
0.0
 40
0.0
 40
0.0
 40
0.0
 40
1.0
 40
1.0
 40
1.0
 40
2.0
 40
2.0
 40
2.0
 40
3.0
 40
3.0
 40
3.0
 40
4.0
 40
4.0
 40
4.0
 40
4.0
 10
38.06002930678554
 20
-79.64388720231129
 30
0.0
 10
38.06002930678554
 20
-79.58878331343605
 30
0.0
 10
38.01526180792765
 20
-79.54398053566966
 30
0.0
 10
37.95994721273226
 20
-79.54398053566966
 30
0.0
 10
37.90466597741585
 20
-79.54398053566966
 30
0.0
 10
37.86003958966548
 20
-79.58878331343605
 30
0.0
 10
37.86003958966548
 20
-79.64388720231129
 30
0.0
 10
37.86003958966548
 20
-79.69969664674174
 30
0.0
 10
37.90466597741585
 20
-79.74449942450846
 30
0.0
 10
37.95994721273226
 20
-79.74449942450846
 30
0.0
 10
38.01526180792765
 20
-79.74449942450846
 30
0.0
 10
38.06002930678554
 20
-79.69969664674174
 30
0.0
 10
38.06002930678554
 20
-79.64388720231129
 30
0.0
  0
SPLINE
  5
4B
330
1F
100
AcDbEntity
  8
_U+30EC_U+30A4_U+30E4_U+30FC 1
 62
   179
420
  2234388
370
     9
100
AcDbSpline
210
0.0
220
0.0
230
1.0
 70
    11
 71
     3
 72
    17
 73
    13
 74
     0
 42
0.0000000001
 43
0.0000000001
 12
1.0
 22
0.0
 32
0.0
 13
1.0
 23
0.0
 33
0.0
 40
0.0
 40
0.0
 40
0.0
 40
0.0
 40
1.0
 40
1.0
 40
1.0
 40
2.0
 40
2.0
 40
2.0
 40
3.0
 40
3.0
 40
3.0
 40
4.0
 40
4.0
 40
4.0
 40
4.0
 10
38.06002930678554
 20
-109.6449913614775
 30
0.0
 10
38.06002930678554
 20
-109.5891819170471
 30
0.0
 10
38.01526180792765
 20
-109.5443791392807
 30
0.0
 10
37.95994721273226
 20
-109.5443791392807
 30
0.0
 10
37.90466597741585
 20
-109.5443791392807
 30
0.0
 10
37.86003958966548
 20
-109.5891819170471
 30
0.0
 10
37.86003958966548
 20
-109.6449913614775
 30
0.0
 10
37.86003958966548
 20
-109.7000952503528
 30
0.0
 10
37.90466597741585
 20
-109.7448980281195
 30
0.0
 10
37.95994721273226
 20
-109.7448980281195
 30
0.0
 10
38.01526180792765
 20
-109.7448980281195
 30
0.0
 10
38.06002930678554
 20
-109.7000952503528
 30
0.0
 10
38.06002930678554
 20
-109.6449913614775
 30
0.0
  0
SPLINE
  5
4C
330
1F
100
AcDbEntity
  8
_U+30EC_U+30A4_U+30E4_U+30FC 1
 62
   179
420
  2234388
370
     9
100
AcDbSpline
210
0.0
220
0.0
230
1.0
 70
    11
 71
     3
 72
    17
 73
    13
 74
     0
 42
0.0000000001
 43
0.0000000001
 12
1.0
 22
0.0
 32
0.0
 13
1.0
 23
0.0
 33
0.0
 40
0.0
 40
0.0
 40
0.0
 40
0.0
 40
1.0
 40
1.0
 40
1.0
 40
2.0
 40
2.0
 40
2.0
 40
3.0
 40
3.0
 40
3.0
 40
4.0
 40
4.0
 40
4.0
 40
4.0
 10
38.06002930678554
 20
-179.6444985661997
 30
0.0
 10
38.06002930678554
 20
-179.5893946773248
 30
0.0
 10
38.01526180792765
 20
-179.5445918995581
 30
0.0
 10
37.95994721273226
 20
-179.5445918995581
 30
0.0
 10
37.90466597741585
 20
-179.5445918995581
 30
0.0
 10
37.86003958966548
 20
-179.5893946773248
 30
0.0
 10
37.86003958966548
 20
-179.6444985661997
 30
0.0
 10
37.86003958966548
 20
-179.7003080106302
 30
0.0
 10
37.90466597741585
 20
-179.7451107883969
 30
0.0
 10
37.95994721273226
 20
-179.7451107883969
 30
0.0
 10
38.01526180792765
 20
-179.7451107883969
 30
0.0
 10
38.06002930678554
 20
-179.7003080106302
 30
0.0
 10
38.06002930678554
 20
-179.6444985661997
 30
0.0
  0
SPLINE
  5
4D
330
1F
100
AcDbEntity
  8
_U+30EC_U+30A4_U+30E4_U+30FC 1
 62
   179
420
  2234388
370
     9
100
AcDbSpline
210
0.0
220
0.0
230
1.0
 70
    11
 71
     3
 72
    17
 73
    13
 74
     0
 42
0.0000000001
 43
0.0000000001
 12
1.0
 22
0.0
 32
0.0
 13
1.0
 23
0.0
 33
0.0
 40
0.0
 40
0.0
 40
0.0
 40
0.0
 40
1.0
 40
1.0
 40
1.0
 40
2.0
 40
2.0
 40
2.0
 40
3.0
 40
3.0
 40
3.0
 40
4.0
 40
4.0
 40
4.0
 40
4.0
 10
42.05996476029424
 20
-183.6449632874221
 30
0.0
 10
42.05996476029424
 20
-183.5898241207691
 30
0.0
 10
42.01516198365947
 20
-183.5450566207805
 30
0.0
 10
41.95988170729201
 20
-183.5450566207805
 30
0.0
 10
41.90477781980894
 20
-183.5450566207805
 30
0.0
 10
41.85997504317417
 20
-183.5898241207691
 30
0.0
 10
41.85997504317417
 20
-183.6449632874221
 30
0.0
 10
41.85997504317417
 20
-183.7000671762971
 30
0.0
 10
41.90477781980894
 20
-183.7448699540638
 30
0.0
 10
41.95988170729201
 20
-183.7448699540638
 30
0.0
 10
42.01516198365947
 20
-183.7448699540638
 30
0.0
 10
42.05996476029424
 20
-183.7000671762971
 30
0.0
 10
42.05996476029424
 20
-183.6449632874221
 30
0.0
  0
SPLINE
  5
4E
330
1F
100
AcDbEntity
  8
_U+30EC_U+30A4_U+30E4_U+30FC 1
 62
   179
420
  2234388
370
     9
100
AcDbSpline
210
0.0
220
0.0
230
1.0
 70
    11
 71
     3
 72
    17
 73
    13
 74
     0
 42
0.0000000001
 43
0.0000000001
 12
1.0
 22
0.0
 32
0.0
 13
1.0
 23
0.0
 33
0.0
 40
0.0
 40
0.0
 40
0.0
 40
0.0
 40
1.0
 40
1.0
 40
1.0
 40
2.0
 40
2.0
 40
2.0
 40
3.0
 40
3.0
 40
3.0
 40
4.0
 40
4.0
 40
4.0
 40
4.0
 10
112.3604277496878
 20
-183.6449632874221
 30
0.0
 10
112.3604277496878
 20
-183.5898241207691
 30
0.0
 10
112.3156249719211
 20
-183.5450566207805
 30
0.0
 10
112.2605182471067
 20
-183.5450566207805
 30
0.0
 10
112.2046735263092
 20
-183.5450566207805
 30
0.0
 10
112.1599060274513
 20
-183.5898241207691
 30
0.0
 10
112.1599060274513
 20
-183.6449632874221
 30
0.0
 10
112.1599060274513
 20
-183.7000671762971
 30
0.0
 10
112.2046735263092
 20
-183.7448699540638
 30
0.0
 10
112.2605182471067
 20
-183.7448699540638
 30
0.0
 10
112.3156249719211
 20
-183.7448699540638
 30
0.0
 10
112.3604277496878
 20
-183.7000671762971
 30
0.0
 10
112.3604277496878
 20
-183.6449632874221
 30
0.0
  0
SPLINE
  5
4F
330
1F
100
AcDbEntity
  8
_U+30EC_U+30A4_U+30E4_U+30FC 1
 62
   179
420
  2234388
370
     9
100
AcDbSpline
210
0.0
220
0.0
230
1.0
 70
    11
 71
     3
 72
    17
 73
    13
 74
     0
 42
0.0000000001
 43
0.0000000001
 12
1.0
 22
0.0
 32
0.0
 13
1.0
 23
0.0
 33
0.0
 40
0.0
 40
0.0
 40
0.0
 40
0.0
 40
1.0
 40
1.0
 40
1.0
 40
2.0
 40
2.0
 40
2.0
 40
3.0
 40
3.0
 40
3.0
 40
4.0
 40
4.0
 40
4.0
 40
4.0
 10
142.3599444088548
 20
-183.6449632874221
 30
0.0
 10
142.3599444088548
 20
-183.5898241207691
 30
0.0
 10
142.3151733136819
 20
-183.5450566207805
 30
0.0
 10
142.2600341484219
 20
-183.5450566207805
 30
0.0
 10
142.2049302609389
 20
-183.5450566207805
 30
0.0
 10
142.1601274843041
 20
-183.5898241207691
 30
0.0
 10
142.1601274843041
 20
-183.6449632874221
 30
0.0
 10
142.1601274843041
 20
-183.7000671762971
 30
0.0
 10
142.2049302609389
 20
-183.7448699540638
 30
0.0
 10
142.2600341484219
 20
-183.7448699540638
 30
0.0
 10
142.3151733136819
 20
-183.7448699540638
 30
0.0
 10
142.3599444088548
 20
-183.7000671762971
 30
0.0
 10
142.3599444088548
 20
-183.6449632874221
 30
0.0
  0
SPLINE
  5
50
330
1F
100
AcDbEntity
  8
_U+30EC_U+30A4_U+30E4_U+30FC 1
 62
   179
420
  2234388
370
     9
100
AcDbSpline
210
0.0
220
0.0
230
1.0
 70
    11
 71
     3
 72
    17
 73
    13
 74
     0
 42
0.0000000001
 43
0.0000000001
 12
1.0
 22
0.0
 32
0.0
 13
1.0
 23
0.0
 33
0.0
 40
0.0
 40
0.0
 40
0.0
 40
0.0
 40
1.0
 40
1.0
 40
1.0
 40
2.0
 40
2.0
 40
2.0
 40
3.0
 40
3.0
 40
3.0
 40
4.0
 40
4.0
 40
4.0
 40
4.0
 10
146.3596998771641
 20
-178.4449130109446
 30
0.0
 10
146.3596998771641
 20
-178.389809122069
 30
0.0
 10
146.3149360745325
 20
-178.3450063443029
 30
0.0
 10
146.2597932130463
 20
-178.3450063443029
 30
0.0
 10
146.2046893255632
 20
-178.3450063443029
 30
0.0
 10
146.1598865489284
 20
-178.389809122069
 30
0.0
 10
146.1598865489284
 20
-178.4449130109446
 30
0.0
 10
146.1598865489284
 20
-178.500052177597
 30
0.0
 10
146.2046893255632
 20
-178.5448196775862
 30
0.0
 10
146.2597932130463
 20
-178.5448196775862
 30
0.0
 10
146.3149360745325
 20
-178.5448196775862
 30
0.0
 10
146.3596998771641
 20
-178.500052177597
 30
0.0
 10
146.3596998771641
 20
-178.4449130109446
 30
0.0
  0
SPLINE
  5
51
330
1F
100
AcDbEntity
  8
_U+30EC_U+30A4_U+30E4_U+30FC 1
 62
   179
420
  2234388
370
     9
100
AcDbSpline
210
0.0
220
0.0
230
1.0
 70
    11
 71
     3
 72
    17
 73
    13
 74
     0
 42
0.0000000001
 43
0.0000000001
 12
1.0
 22
0.0
 32
0.0
 13
1.0
 23
0.0
 33
0.0
 40
0.0
 40
0.0
 40
0.0
 40
0.0
 40
1.0
 40
1.0
 40
1.0
 40
2.0
 40
2.0
 40
2.0
 40
3.0
 40
3.0
 40
3.0
 40
4.0
 40
4.0
 40
4.0
 40
4.0
 10
146.3596998771641
 20
-126.9445433015973
 30
0.0
 10
146.3596998771641
 20
-126.8894041349442
 30
0.0
 10
146.3149360745325
 20
-126.8446366349554
 30
0.0
 10
146.2597932130463
 20
-126.8446366349554
 30
0.0
 10
146.2046893255632
 20
-126.8446366349554
 30
0.0
 10
146.1598865489284
 20
-126.8894041349442
 30
0.0
 10
146.1598865489284
 20
-126.9445433015973
 30
0.0
 10
146.1598865489284
 20
-126.9996471904722
 30
0.0
 10
146.2046893255632
 20
-127.044449968239
 30
0.0
 10
146.2597932130463
 20
-127.044449968239
 30
0.0
 10
146.3149360745325
 20
-127.044449968239
 30
0.0
 10
146.3596998771641
 20
-126.9996471904722
 30
0.0
 10
146.3596998771641
 20
-126.9445433015973
 30
0.0
  0
SPLINE
  5
52
330
1F
100
AcDbEntity
  8
_U+30EC_U+30A4_U+30E4_U+30FC 1
 62
   179
420
  2234388
370
     9
100
AcDbSpline
210
0.0
220
0.0
230
1.0
 70
    11
 71
     3
 72
    17
 73
    13
 74
     0
 42
0.0000000001
 43
0.0000000001
 12
1.0
 22
0.0
 32
0.0
 13
1.0
 23
0.0
 33
0.0
 40
0.0
 40
0.0
 40
0.0
 40
0.0
 40
1.0
 40
1.0
 40
1.0
 40
2.0
 40
2.0
 40
2.0
 40
3.0
 40
3.0
 40
3.0
 40
4.0
 40
4.0
 40
4.0
 40
4.0
 10
146.3596998771641
 20
-128.4807141345464
 30
0.0
 10
146.3596998771641
 20
-128.4255749678937
 30
0.0
 10
146.3149360745325
 20
-128.3808074679048
 30
0.0
 10
146.2597932130463
 20
-128.3808074679048
 30
0.0
 10
146.2046893255632
 20
-128.3808074679048
 30
0.0
 10
146.1598865489284
 20
-128.4255749678937
 30
0.0
 10
146.1598865489284
 20
-128.4807141345464
 30
0.0
 10
146.1598865489284
 20
-128.5358180234217
 30
0.0
 10
146.2046893255632
 20
-128.5806208011881
 30
0.0
 10
146.2597932130463
 20
-128.5806208011881
 30
0.0
 10
146.3149360745325
 20
-128.5806208011881
 30
0.0
 10
146.3596998771641
 20
-128.5358180234217
 30
0.0
 10
146.3596998771641
 20
-128.4807141345464
 30
0.0
  0
POLYLINE
  5
53
330
1F
100
AcDbEntity
  8
_U+30EC_U+30A4_U+30E4_U+30FC 1
 62
   179
420
  2234388
370
     9
100
AcDb2dPolyline
 66
     1
 10
0.0
 20
0.0
 30
0.0
  0
VERTEX
  5
54
330
53
100
AcDbEntity
  8
_U+30EC_U+30A4_U+30E4_U+30FC 1
 62
   179
420
  2234388
370
     9
100
AcDbVertex
100
AcDb2dVertex
 10
43.46021028012655
 20
-75.64430442553329
 30
0.0
  0
VERTEX
  5
55
330
53
100
AcDbEntity
  8
_U+30EC_U+30A4_U+30E4_U+30FC 1
 62
   179
420
  2234388
370
     9
100
AcDbVertex
100
AcDb2dVertex
 10
93.45993261563848
 20
-75.64430442553329
 30
0.0
  0
SEQEND
  5
56
330
53
100
AcDbEntity
  8
_U+30EC_U+30A4_U+30E4_U+30FC 1
 62
   179
420
  2234388
370
     9
  0
POLYLINE
  5
57
330
1F
100
AcDbEntity
  8
_U+30EC_U+30A4_U+30E4_U+30FC 1
 62
   179
420
  2234388
370
     9
100
AcDb2dPolyline
 66
     1
 10
0.0
 20
0.0
 30
0.0
  0
VERTEX
  5
58
330
57
100
AcDbEntity
  8
_U+30EC_U+30A4_U+30E4_U+30FC 1
 62
   179
420
  2234388
370
     9
100
AcDbVertex
100
AcDb2dVertex
 10
43.46021028012655
 20
-107.1045680287795
 30
0.0
  0
VERTEX
  5
59
330
57
100
AcDbEntity
  8
_U+30EC_U+30A4_U+30E4_U+30FC 1
 62
   179
420
  2234388
370
     9
100
AcDbVertex
100
AcDb2dVertex
 10
43.46021028012655
 20
-74.6441794257833
 30
0.0
  0
SEQEND
  5
5A
330
57
100
AcDbEntity
  8
_U+30EC_U+30A4_U+30E4_U+30FC 1
 62
   179
420
  2234388
370
     9
  0
POLYLINE
  5
5B
330
1F
100
AcDbEntity
  8
_U+30EC_U+30A4_U+30E4_U+30FC 1
 62
   179
420
  2234388
370
     9
100
AcDb2dPolyline
 66
     1
 10
0.0
 20
0.0
 30
0.0
  0
VERTEX
  5
5C
330
5B
100
AcDbEntity
  8
_U+30EC_U+30A4_U+30E4_U+30FC 1
 62
   179
420
  2234388
370
     9
100
AcDbVertex
100
AcDb2dVertex
 10
93.45993261563848
 20
-77.10434581405733
 30
0.0
  0
VERTEX
  5
5D
330
5B
100
AcDbEntity
  8
_U+30EC_U+30A4_U+30E4_U+30FC 1
 62
   179
420
  2234388
370
     9
100
AcDbVertex
100
AcDb2dVertex
 10
93.45993261563848
 20
-74.6441794257833
 30
0.0
  0
SEQEND
  5
5E
330
5B
100
AcDbEntity
  8
_U+30EC_U+30A4_U+30E4_U+30FC 1
 62
   179
420
  2234388
370
     9
  0
INSERT
  5
60
330
1F
100
AcDbEntity
  8
_U+30EC_U+30A4_U+30E4_U+30FC 1
100
AcDbBlockReference
  2
block 2
 10
0.0
 20
0.0
 30
0.0
  0
POLYLINE
  5
68
330
1F
100
AcDbEntity
  8
_U+30EC_U+30A4_U+30E4_U+30FC 1
 62
   179
420
  2234388
370
     9
100
AcDb2dPolyline
 66
     1
 10
0.0
 20
0.0
 30
0.0
  0
VERTEX
  5
69
330
68
100
AcDbEntity
  8
_U+30EC_U+30A4_U+30E4_U+30FC 1
 62
   179
420
  2234388
370
     9
100
AcDbVertex
100
AcDb2dVertex
 10
41.95988170729201
 20
-183.6449632874221
 30
0.0
  0
VERTEX
  5
6A
330
68
100
AcDbEntity
  8
_U+30EC_U+30A4_U+30E4_U+30FC 1
 62
   179
420
  2234388
370
     9
100
AcDbVertex
100
AcDb2dVertex
 10
112.2605182471067
 20
-183.6449632874221
 30
0.0
  0
SEQEND
  5
6B
330
68
100
AcDbEntity
  8
_U+30EC_U+30A4_U+30E4_U+30FC 1
 62
   179
420
  2234388
370
     9
  0
POLYLINE
  5
6C
330
1F
100
AcDbEntity
  8
_U+30EC_U+30A4_U+30E4_U+30FC 1
 62
   179
420
  2234388
370
     9
100
AcDb2dPolyline
 66
     1
 10
0.0
 20
0.0
 30
0.0
  0
VERTEX
  5
6D
330
6C
100
AcDbEntity
  8
_U+30EC_U+30A4_U+30E4_U+30FC 1
 62
   179
420
  2234388
370
     9
100
AcDbVertex
100
AcDb2dVertex
 10
41.95988170729201
 20
-179.6444985661997
 30
0.0
  0
VERTEX
  5
6E
330
6C
100
AcDbEntity
  8
_U+30EC_U+30A4_U+30E4_U+30FC 1
 62
   179
420
  2234388
370
     9
100
AcDbVertex
100
AcDb2dVertex
 10
41.95988170729201
 20
-184.6447002316165
 30
0.0
  0
SEQEND
  5
6F
330
6C
100
AcDbEntity
  8
_U+30EC_U+30A4_U+30E4_U+30FC 1
 62
   179
420
  2234388
370
     9
  0
POLYLINE
  5
70
330
1F
100
AcDbEntity
  8
_U+30EC_U+30A4_U+30E4_U+30FC 1
 62
   179
420
  2234388
370
     9
100
AcDb2dPolyline
 66
     1
 10
0.0
 20
0.0
 30
0.0
  0
VERTEX
  5
71
330
70
100
AcDbEntity
  8
_U+30EC_U+30A4_U+30E4_U+30FC 1
 62
   179
420
  2234388
370
     9
100
AcDbVertex
100
AcDb2dVertex
 10
112.2605182471067
 20
-182.1849218988984
 30
0.0
  0
VERTEX
  5
72
330
70
100
AcDbEntity
  8
_U+30EC_U+30A4_U+30E4_U+30FC 1
 62
   179
420
  2234388
370
     9
100
AcDbVertex
100
AcDb2dVertex
 10
112.2605182471067
 20
-184.6447002316165
 30
0.0
  0
SEQEND
  5
73
330
70
100
AcDbEntity
  8
_U+30EC_U+30A4_U+30E4_U+30FC 1
 62
   179
420
  2234388
370
     9
  0
INSERT
  5
75
330
1F
100
AcDbEntity
  8
_U+30EC_U+30A4_U+30E4_U+30FC 1
100
AcDbBlockReference
  2
block 3
 10
0.0
 20
0.0
 30
0.0
  0
POLYLINE
  5
7D
330
1F
100
AcDbEntity
  8
_U+30EC_U+30A4_U+30E4_U+30FC 1
 62
   179
420
  2234388
370
     9
100
AcDb2dPolyline
 66
     1
 10
0.0
 20
0.0
 30
0.0
  0
VERTEX
  5
7E
330
7D
100
AcDbEntity
  8
_U+30EC_U+30A4_U+30E4_U+30FC 1
 62
   179
420
  2234388
370
     9
100
AcDbVertex
100
AcDb2dVertex
 10
112.2605182471067
 20
-183.6449632874221
 30
0.0
  0
VERTEX
  5
7F
330
7D
100
AcDbEntity
  8
_U+30EC_U+30A4_U+30E4_U+30FC 1
 62
   179
420
  2234388
370
     9
100
AcDbVertex
100
AcDb2dVertex
 10
142.2600341484219
 20
-183.6449632874221
 30
0.0
  0
SEQEND
  5
80
330
7D
100
AcDbEntity
  8
_U+30EC_U+30A4_U+30E4_U+30FC 1
 62
   179
420
  2234388
370
     9
  0
POLYLINE
  5
81
330
1F
100
AcDbEntity
  8
_U+30EC_U+30A4_U+30E4_U+30FC 1
 62
   179
420
  2234388
370
     9
100
AcDb2dPolyline
 66
     1
 10
0.0
 20
0.0
 30
0.0
  0
VERTEX
  5
82
330
81
100
AcDbEntity
  8
_U+30EC_U+30A4_U+30E4_U+30FC 1
 62
   179
420
  2234388
370
     9
100
AcDbVertex
100
AcDb2dVertex
 10
142.2600341484219
 20
-130.9845896894764
 30
0.0
  0
VERTEX
  5
83
330
81
100
AcDbEntity
  8
_U+30EC_U+30A4_U+30E4_U+30FC 1
 62
   179
420
  2234388
370
     9
100
AcDbVertex
100
AcDb2dVertex
 10
142.2600341484219
 20
-184.6447002316165
 30
0.0
  0
SEQEND
  5
84
330
81
100
AcDbEntity
  8
_U+30EC_U+30A4_U+30E4_U+30FC 1
 62
   179
420
  2234388
370
     9
  0
INSERT
  5
86
330
1F
100
AcDbEntity
  8
_U+30EC_U+30A4_U+30E4_U+30FC 1
100
AcDbBlockReference
  2
block 4
 10
0.0
 20
0.0
 30
0.0
  0
POLYLINE
  5
8E
330
1F
100
AcDbEntity
  8
_U+30EC_U+30A4_U+30E4_U+30FC 1
 62
   179
420
  2234388
370
     9
100
AcDb2dPolyline
 66
     1
 10
0.0
 20
0.0
 30
0.0
  0
VERTEX
  5
8F
330
8E
100
AcDbEntity
  8
_U+30EC_U+30A4_U+30E4_U+30FC 1
 62
   179
420
  2234388
370
     9
100
AcDbVertex
100
AcDb2dVertex
 10
37.95994721273226
 20
-79.64388720231129
 30
0.0
  0
VERTEX
  5
90
330
8E
100
AcDbEntity
  8
_U+30EC_U+30A4_U+30E4_U+30FC 1
 62
   179
420
  2234388
370
     9
100
AcDbVertex
100
AcDb2dVertex
 10
37.95994721273226
 20
-109.6449913614775
 30
0.0
  0
SEQEND
  5
91
330
8E
100
AcDbEntity
  8
_U+30EC_U+30A4_U+30E4_U+30FC 1
 62
   179
420
  2234388
370
     9
  0
POLYLINE
  5
92
330
1F
100
AcDbEntity
  8
_U+30EC_U+30A4_U+30E4_U+30FC 1
 62
   179
420
  2234388
370
     9
100
AcDb2dPolyline
 66
     1
 10
0.0
 20
0.0
 30
0.0
  0
VERTEX
  5
93
330
92
100
AcDbEntity
  8
_U+30EC_U+30A4_U+30E4_U+30FC 1
 62
   179
420
  2234388
370
     9
100
AcDbVertex
100
AcDb2dVertex
 10
91.11985184200557
 20
-79.64388720231129
 30
0.0
  0
VERTEX
  5
94
330
92
100
AcDbEntity
  8
_U+30EC_U+30A4_U+30E4_U+30FC 1
 62
   179
420
  2234388
370
     9
100
AcDbVertex
100
AcDb2dVertex
 10
36.9600329459599
 20
-79.64388720231129
 30
0.0
  0
SEQEND
  5
95
330
92
100
AcDbEntity
  8
_U+30EC_U+30A4_U+30E4_U+30FC 1
 62
   179
420
  2234388
370
     9
  0
POLYLINE
  5
96
330
1F
100
AcDbEntity
  8
_U+30EC_U+30A4_U+30E4_U+30FC 1
 62
   179
420
  2234388
370
     9
100
AcDb2dPolyline
 66
     1
 10
0.0
 20
0.0
 30
0.0
  0
VERTEX
  5
97
330
96
100
AcDbEntity
  8
_U+30EC_U+30A4_U+30E4_U+30FC 1
 62
   179
420
  2234388
370
     9
100
AcDbVertex
100
AcDb2dVertex
 10
40.6199259081438
 20
-109.6449913614775
 30
0.0
  0
VERTEX
  5
98
330
96
100
AcDbEntity
  8
_U+30EC_U+30A4_U+30E4_U+30FC 1
 62
   179
420
  2234388
370
     9
100
AcDbVertex
100
AcDb2dVertex
 10
36.9600329459599
 20
-109.6449913614775
 30
0.0
  0
SEQEND
  5
99
330
96
100
AcDbEntity
  8
_U+30EC_U+30A4_U+30E4_U+30FC 1
 62
   179
420
  2234388
370
     9
  0
INSERT
  5
9B
330
1F
100
AcDbEntity
  8
_U+30EC_U+30A4_U+30E4_U+30FC 1
100
AcDbBlockReference
  2
block 5
 10
0.0
 20
0.0
 30
0.0
  0
POLYLINE
  5
A3
330
1F
100
AcDbEntity
  8
_U+30EC_U+30A4_U+30E4_U+30FC 1
 62
   179
420
  2234388
370
     9
100
AcDb2dPolyline
 66
     1
 10
0.0
 20
0.0
 30
0.0
  0
VERTEX
  5
A4
330
A3
100
AcDbEntity
  8
_U+30EC_U+30A4_U+30E4_U+30FC 1
 62
   179
420
  2234388
370
     9
100
AcDbVertex
100
AcDb2dVertex
 10
37.95994721273226
 20
-109.6449913614775
 30
0.0
  0
VERTEX
  5
A5
330
A3
100
AcDbEntity
  8
_U+30EC_U+30A4_U+30E4_U+30FC 1
 62
   179
420
  2234388
370
     9
100
AcDbVertex
100
AcDb2dVertex
 10
37.95994721273226
 20
-179.6444985661997
 30
0.0
  0
SEQEND
  5
A6
330
A3
100
AcDbEntity
  8
_U+30EC_U+30A4_U+30E4_U+30FC 1
 62
   179
420
  2234388
370
     9
  0
POLYLINE
  5
A7
330
1F
100
AcDbEntity
  8
_U+30EC_U+30A4_U+30E4_U+30FC 1
 62
   179
420
  2234388
370
     9
100
AcDb2dPolyline
 66
     1
 10
0.0
 20
0.0
 30
0.0
  0
VERTEX
  5
A8
330
A7
100
AcDbEntity
  8
_U+30EC_U+30A4_U+30E4_U+30FC 1
 62
   179
420
  2234388
370
     9
100
AcDbVertex
100
AcDb2dVertex
 10
39.41998760542344
 20
-109.6449913614775
 30
0.0
  0
VERTEX
  5
A9
330
A7
100
AcDbEntity
  8
_U+30EC_U+30A4_U+30E4_U+30FC 1
 62
   179
420
  2234388
370
     9
100
AcDbVertex
100
AcDb2dVertex
 10
36.9600329459599
 20
-109.6449913614775
 30
0.0
  0
SEQEND
  5
AA
330
A7
100
AcDbEntity
  8
_U+30EC_U+30A4_U+30E4_U+30FC 1
 62
   179
420
  2234388
370
     9
  0
POLYLINE
  5
AB
330
1F
100
AcDbEntity
  8
_U+30EC_U+30A4_U+30E4_U+30FC 1
 62
   179
420
  2234388
370
     9
100
AcDb2dPolyline
 66
     1
 10
0.0
 20
0.0
 30
0.0
  0
VERTEX
  5
AC
330
AB
100
AcDbEntity
  8
_U+30EC_U+30A4_U+30E4_U+30FC 1
 62
   179
420
  2234388
370
     9
100
AcDbVertex
100
AcDb2dVertex
 10
41.96213948501219
 20
-179.6444985661997
 30
0.0
  0
VERTEX
  5
AD
330
AB
100
AcDbEntity
  8
_U+30EC_U+30A4_U+30E4_U+30FC 1
 62
   179
420
  2234388
370
     9
100
AcDbVertex
100
AcDb2dVertex
 10
36.9600329459599
 20
-179.6444985661997
 30
0.0
  0
SEQEND
  5
AE
330
AB
100
AcDbEntity
  8
_U+30EC_U+30A4_U+30E4_U+30FC 1
 62
   179
420
  2234388
370
     9
  0
INSERT
  5
B0
330
1F
100
AcDbEntity
  8
_U+30EC_U+30A4_U+30E4_U+30FC 1
100
AcDbBlockReference
  2
block 6
 10
0.0
 20
0.0
 30
0.0
  0
POLYLINE
  5
B8
330
1F
100
AcDbEntity
  8
_U+30EC_U+30A4_U+30E4_U+30FC 1
 62
   179
420
  2234388
370
     9
100
AcDb2dPolyline
 66
     1
 10
0.0
 20
0.0
 30
0.0
  0
VERTEX
  5
B9
330
B8
100
AcDbEntity
  8
_U+30EC_U+30A4_U+30E4_U+30FC 1
 62
   179
420
  2234388
370
     9
100
AcDbVertex
100
AcDb2dVertex
 10
146.2597932130463
 20
-126.9944966349181
 30
0.0
  0
VERTEX
  5
BA
330
B8
100
AcDbEntity
  8
_U+30EC_U+30A4_U+30E4_U+30FC 1
 62
   179
420
  2234388
370
     9
100
AcDbVertex
100
AcDb2dVertex
 10
146.2597932130463
 20
-128.4448719123332
 30
0.0
  0
SEQEND
  5
BB
330
B8
100
AcDbEntity
  8
_U+30EC_U+30A4_U+30E4_U+30FC 1
 62
   179
420
  2234388
370
     9
  0
POLYLINE
  5
BC
330
1F
100
AcDbEntity
  8
_U+30EC_U+30A4_U+30E4_U+30FC 1
 62
   179
420
  2234388
370
     9
100
AcDb2dPolyline
 66
     1
 10
0.0
 20
0.0
 30
0.0
  0
VERTEX
  5
BD
330
BC
100
AcDbEntity
  8
_U+30EC_U+30A4_U+30E4_U+30FC 1
 62
   179
420
  2234388
370
     9
100
AcDbVertex
100
AcDb2dVertex
 10
144.799787139183
 20
-126.9445433015973
 30
0.0
  0
VERTEX
  5
BE
330
BC
100
AcDbEntity
  8
_U+30EC_U+30A4_U+30E4_U+30FC 1
 62
   179
420
  2234388
370
     9
100
AcDbVertex
100
AcDb2dVertex
 10
147.2595654097622
 20
-126.9445433015973
 30
0.0
  0
SEQEND
  5
BF
330
BC
100
AcDbEntity
  8
_U+30EC_U+30A4_U+30E4_U+30FC 1
 62
   179
420
  2234388
370
     9
  0
POLYLINE
  5
C0
330
1F
100
AcDbEntity
  8
_U+30EC_U+30A4_U+30E4_U+30FC 1
 62
   179
420
  2234388
370
     9
100
AcDb2dPolyline
 66
     1
 10
0.0
 20
0.0
 30
0.0
  0
VERTEX
  5
C1
330
C0
100
AcDbEntity
  8
_U+30EC_U+30A4_U+30E4_U+30FC 1
 62
   179
420
  2234388
370
     9
100
AcDbVertex
100
AcDb2dVertex
 10
144.799787139183
 20
-128.4807141345464
 30
0.0
  0
VERTEX
  5
C2
330
C0
100
AcDbEntity
  8
_U+30EC_U+30A4_U+30E4_U+30FC 1
 62
   179
420
  2234388
370
     9
100
AcDbVertex
100
AcDb2dVertex
 10
147.2595654097622
 20
-128.4807141345464
 30
0.0
  0
SEQEND
  5
C3
330
C0
100
AcDbEntity
  8
_U+30EC_U+30A4_U+30E4_U+30FC 1
 62
   179
420
  2234388
370
     9
  0
INSERT
  5
C5
330
1F
100
AcDbEntity
  8
_U+30EC_U+30A4_U+30E4_U+30FC 1
100
AcDbBlockReference
  2
block 7
 10
0.0
 20
0.0
 30
0.0
  0
POLYLINE
  5
D4
330
1F
100
AcDbEntity
  8
_U+30EC_U+30A4_U+30E4_U+30FC 1
 62
   179
420
  2234388
370
     9
100
AcDb2dPolyline
 66
     1
 10
0.0
 20
0.0
 30
0.0
  0
VERTEX
  5
D5
330
D4
100
AcDbEntity
  8
_U+30EC_U+30A4_U+30E4_U+30FC 1
 62
   179
420
  2234388
370
     9
100
AcDbVertex
100
AcDb2dVertex
 10
146.2597932130463
 20
-128.4448719123332
 30
0.0
  0
VERTEX
  5
D6
330
D4
100
AcDbEntity
  8
_U+30EC_U+30A4_U+30E4_U+30FC 1
 62
   179
420
  2234388
370
     9
100
AcDbVertex
100
AcDb2dVertex
 10
146.2597932130463
 20
-178.4449130109446
 30
0.0
  0
SEQEND
  5
D7
330
D4
100
AcDbEntity
  8
_U+30EC_U+30A4_U+30E4_U+30FC 1
 62
   179
420
  2234388
370
     9
  0
POLYLINE
  5
D8
330
1F
100
AcDbEntity
  8
_U+30EC_U+30A4_U+30E4_U+30FC 1
 62
   179
420
  2234388
370
     9
100
AcDb2dPolyline
 66
     1
 10
0.0
 20
0.0
 30
0.0
  0
VERTEX
  5
D9
330
D8
100
AcDbEntity
  8
_U+30EC_U+30A4_U+30E4_U+30FC 1
 62
   179
420
  2234388
370
     9
100
AcDbVertex
100
AcDb2dVertex
 10
114.8002388601887
 20
-178.4449130109446
 30
0.0
  0
VERTEX
  5
DA
330
D8
100
AcDbEntity
  8
_U+30EC_U+30A4_U+30E4_U+30FC 1
 62
   179
420
  2234388
370
     9
100
AcDbVertex
100
AcDb2dVertex
 10
147.2595654097622
 20
-178.4449130109446
 30
0.0
  0
SEQEND
  5
DB
330
D8
100
AcDbEntity
  8
_U+30EC_U+30A4_U+30E4_U+30FC 1
 62
   179
420
  2234388
370
     9
  0
INSERT
  5
DD
330
1F
100
AcDbEntity
  8
_U+30EC_U+30A4_U+30E4_U+30FC 1
100
AcDbBlockReference
  2
block 8
 10
0.0
 20
0.0
 30
0.0
  0
POLYLINE
  5
E5
330
1F
100
AcDbEntity
  8
_U+30EC_U+30A4_U+30E4_U+30FC 1
 62
   179
420
  2234388
370
     9
100
AcDb2dPolyline
 66
     1
 10
0.0
 20
0.0
 30
0.0
  0
VERTEX
  5
E6
330
E5
100
AcDbEntity
  8
_U+30EC_U+30A4_U+30E4_U+30FC 1
 62
   179
420
  2234388
370
     9
100
AcDbVertex
100
AcDb2dVertex
 10
42.50749863776559
 20
-179.0850282885618
 30
0.0
  0
VERTEX
  5
E7
330
E5
100
AcDbEntity
  8
_U+30EC_U+30A4_U+30E4_U+30FC 1
 62
   179
420
  2234388
370
     9
100
AcDbVertex
100
AcDb2dVertex
 10
47.92404849957789
 20
-173.9807571787272
 30
0.0
  0
SEQEND
  5
E8
330
E5
100
AcDbEntity
  8
_U+30EC_U+30A4_U+30E4_U+30FC 1
 62
   179
420
  2234388
370
     9
  0
POLYLINE
  5
E9
330
1F
100
AcDbEntity
  8
_U+30EC_U+30A4_U+30E4_U+30FC 1
 62
   179
420
  2234388
370
     9
100
AcDb2dPolyline
 66
     1
 10
0.0
 20
0.0
 30
0.0
  0
VERTEX
  5
EA
330
E9
100
AcDbEntity
  8
_U+30EC_U+30A4_U+30E4_U+30FC 1
 62
   179
420
  2234388
370
     9
100
AcDbVertex
100
AcDb2dVertex
 10
47.92404849957789
 20
-173.9807571787272
 30
0.0
  0
VERTEX
  5
EB
330
E9
100
AcDbEntity
  8
_U+30EC_U+30A4_U+30E4_U+30FC 1
 62
   179
420
  2234388
370
     9
100
AcDbVertex
100
AcDb2dVertex
 10
53.64635085358979
 20
-173.9807571787272
 30
0.0
  0
SEQEND
  5
EC
330
E9
100
AcDbEntity
  8
_U+30EC_U+30A4_U+30E4_U+30FC 1
 62
   179
420
  2234388
370
     9
  0
INSERT
  5
EE
330
1F
100
AcDbEntity
  8
_U+30EC_U+30A4_U+30E4_U+30FC 1
100
AcDbBlockReference
  2
block 9
 10
0.0
 20
0.0
 30
0.0
  0
POLYLINE
  5
100
330
1F
100
AcDbEntity
  8
_U+30EC_U+30A4_U+30E4_U+30FC 1
 62
   179
420
  2234388
370
    25
100
AcDb2dPolyline
 66
     1
 10
0.0
 20
0.0
 30
0.0
  0
VERTEX
  5
101
330
100
100
AcDbEntity
  8
_U+30EC_U+30A4_U+30E4_U+30FC 1
 62
   179
420
  2234388
370
    25
100
AcDbVertex
100
AcDb2dVertex
 10
142.2600341484219
 20
-126.9445433015973
 30
0.0
  0
VERTEX
  5
106
330
100
100
AcDbEntity
  8
0
100
AcDbVertex
100
AcDb2dVertex
 10
142.2600341484219
 20
-126.9445433015973
 30
0.0
  0
SEQEND
  5
102
330
100
100
AcDbEntity
  8
_U+30EC_U+30A4_U+30E4_U+30FC 1
 62
   179
420
  2234388
370
    25
  0
POLYLINE
  5
103
330
1F
100
AcDbEntity
  8
_U+30EC_U+30A4_U+30E4_U+30FC 1
 62
   179
420
  2234388
370
    25
100
AcDb2dPolyline
 66
     1
 10
0.0
 20
0.0
 30
0.0
  0
VERTEX
  5
104
330
103
100
AcDbEntity
  8
_U+30EC_U+30A4_U+30E4_U+30FC 1
 62
   179
420
  2234388
370
    25
100
AcDbVertex
100
AcDb2dVertex
 10
142.2600341484219
 20
-128.4448719123332
 30
0.0
  0
VERTEX
  5
107
330
103
100
AcDbEntity
  8
0
100
AcDbVertex
100
AcDb2dVertex
 10
142.2600341484219
 20
-128.4448719123332
 30
0.0
  0
SEQEND
  5
105
330
103
100
AcDbEntity
  8
_U+30EC_U+30A4_U+30E4_U+30FC 1
 62
   179
420
  2234388
370
    25
  0
ENDSEC
  0
SECTION
  2
OBJECTS
  0
DICTIONARY
  5
C
330
0
100
AcDbDictionary
281
     1
  3
ACAD_GROUP
350
D
  3
ACAD_LAYOUT
350
1A
  3
ACAD_MATERIAL
350
3B
  3
ACAD_MLEADERSTYLE
350
109
  3
ACAD_MLINESTYLE
350
17
  3
ACAD_PLOTSETTINGS
350
19
  3
ACAD_PLOTSTYLENAME
350
E
  3
ACAD_TABLESTYLE
350
108
  3
ACAD_VISUALSTYLE
350
2A
  0
SUN
  5
3F
330
29
100
AcDbSun
 90
        1
290
     0
 63
     7
421
 16777215
 40
1.0
291
     1
 91
  2455826
 92
 54000000
292
     0
 70
     2
 71
   256
280
     1
  0
DICTIONARY
  5
D
102
{ACAD_REACTORS
330
C
102
}
330
C
100
AcDbDictionary
281
     1
  0
DICTIONARY
  5
1A
102
{ACAD_REACTORS
330
C
102
}
330
C
100
AcDbDictionary
281
     1
  3
Layout1
350
1E
  3
Layout2
350
26
  3
Model
350
22
  0
DICTIONARY
  5
3B
102
{ACAD_REACTORS
330
C
102
}
330
C
100
AcDbDictionary
281
     1
  3
ByBlock
350
3D
  3
ByLayer
350
3C
  3
Global
350
3E
  0
DICTIONARY
  5
109
102
{ACAD_REACTORS
330
C
102
}
330
C
100
AcDbDictionary
281
     1
  0
DICTIONARY
  5
17
102
{ACAD_REACTORS
330
C
102
}
330
C
100
AcDbDictionary
281
     1
  3
Standard
350
18
  0
DICTIONARY
  5
19
102
{ACAD_REACTORS
330
C
102
}
330
C
100
AcDbDictionary
281
     1
  0
ACDBDICTIONARYWDFLT
  5
E
102
{ACAD_REACTORS
330
C
102
}
330
C
100
AcDbDictionary
281
     1
  3
Normal
350
F
100
AcDbDictionaryWithDefault
340
F
  0
DICTIONARY
  5
108
102
{ACAD_REACTORS
330
C
102
}
330
C
100
AcDbDictionary
281
     1
  0
DICTIONARY
  5
2A
102
{ACAD_REACTORS
330
C
102
}
330
C
100
AcDbDictionary
281
     1
  3
2dWireframe
350
2F
  3
3D Hidden
350
31
  3
3dWireframe
350
30
  3
Basic
350
32
  3
Brighten
350
36
  3
ColorChange
350
3A
  3
Conceptual
350
34
  3
Dim
350
35
  3
Facepattern
350
39
  3
Flat
350
2B
  3
FlatWithEdges
350
2C
  3
Gouraud
350
2D
  3
GouraudWithEdges
350
2E
  3
Linepattern
350
38
  3
Realistic
350
33
  3
Thicken
350
37
  0
LAYOUT
  5
1E
102
{ACAD_REACTORS
330
1A
102
}
330
1A
100
AcDbPlotSettings
  1

  2
none_device
  4

  6

 40
0.0
 41
0.0
 42
0.0
 43
0.0
 44
0.0
 45
0.0
 46
0.0
 47
0.0
 48
0.0
 49
0.0
140
0.0
141
0.0
142
1.0
143
1.0
 70
   688
 72
     0
 73
     0
 74
     5
  7

 75
    16
 76
     0
 77
     2
 78
   300
147
1.0
148
0.0
149
0.0
100
AcDbLayout
  1
Layout1
 70
     1
 71
     1
 10
0.0
 20
0.0
 11
12.0
 21
9.0
 12
0.0
 22
0.0
 32
0.0
 14
1.000000000000000E+20
 24
1.000000000000000E+20
 34
1.000000000000000E+20
 15
-1.000000000000000E+20
 25
-1.000000000000000E+20
 35
-1.000000000000000E+20
146
0.0
 13
0.0
 23
0.0
 33
0.0
 16
1.0
 26
0.0
 36
0.0
 17
0.0
 27
1.0
 37
0.0
 76
     0
330
1B
  0
LAYOUT
  5
26
102
{ACAD_REACTORS
330
1A
102
}
330
1A
100
AcDbPlotSettings
  1

  2
none_device
  4

  6

 40
0.0
 41
0.0
 42
0.0
 43
0.0
 44
0.0
 45
0.0
 46
0.0
 47
0.0
 48
0.0
 49
0.0
140
0.0
141
0.0
142
1.0
143
1.0
 70
   688
 72
     0
 73
     0
 74
     5
  7

 75
    16
 76
     0
 77
     2
 78
   300
147
1.0
148
0.0
149
0.0
100
AcDbLayout
  1
Layout2
 70
     1
 71
     2
 10
0.0
 20
0.0
 11
0.0
 21
0.0
 12
0.0
 22
0.0
 32
0.0
 14
0.0
 24
0.0
 34
0.0
 15
0.0
 25
0.0
 35
0.0
146
0.0
 13
0.0
 23
0.0
 33
0.0
 16
1.0
 26
0.0
 36
0.0
 17
0.0
 27
1.0
 37
0.0
 76
     0
330
23
  0
LAYOUT
  5
22
102
{ACAD_REACTORS
330
1A
102
}
330
1A
100
AcDbPlotSettings
  1

  2
none_device
  4

  6

 40
0.0
 41
0.0
 42
0.0
 43
0.0
 44
0.0
 45
0.0
 46
0.0
 47
0.0
 48
0.0
 49
0.0
140
0.0
141
0.0
142
1.0
143
1.0
 70
  1712
 72
     0
 73
     0
 74
     0
  7

 75
     0
 76
     0
 77
     2
 78
   300
147
1.0
148
0.0
149
0.0
100
AcDbLayout
  1
Model
 70
     1
 71
     0
 10
0.0
 20
0.0
 11
12.0
 21
9.0
 12
0.0
 22
0.0
 32
0.0
 14
1.000000000000000E+20
 24
1.000000000000000E+20
 34
1.000000000000000E+20
 15
-1.000000000000000E+20
 25
-1.000000000000000E+20
 35
-1.000000000000000E+20
146
0.0
 13
0.0
 23
0.0
 33
0.0
 16
1.0
 26
0.0
 36
0.0
 17
0.0
 27
1.0
 37
0.0
 76
     0
330
1F
331
29
  0
MATERIAL
  5
3D
102
{ACAD_REACTORS
330
3B
102
}
330
3B
100
AcDbMaterial
  1
ByBlock
 72
     1
 94
      127
  0
MATERIAL
  5
3C
102
{ACAD_REACTORS
330
3B
102
}
330
3B
100
AcDbMaterial
  1
ByLayer
 72
     1
 94
      127
  0
MATERIAL
  5
3E
102
{ACAD_REACTORS
330
3B
102
}
330
3B
100
AcDbMaterial
  1
Global
 72
     1
 94
      127
  0
MLINESTYLE
  5
18
102
{ACAD_REACTORS
330
17
102
}
330
17
100
AcDbMlineStyle
  2
Standard
 70
     0
  3

 62
   256
 51
90.0
 52
90.0
 71
     2
 49
0.5
 62
   256
  6
BYLAYER
 49
-0.5
 62
   256
  6
BYLAYER
  0
ACDBPLACEHOLDER
  5
F
102
{ACAD_REACTORS
330
E
102
}
330
E
  0
VISUALSTYLE
  5
2F
102
{ACAD_REACTORS
330
2A
102
}
330
2A
100
AcDbVisualStyle
  2
2dWireframe
 70
     4
177
     2
291
     0
 71
     0
176
     1
 72
     2
176
     1
 73
     0
176
     1
 90
        0
176
     1
 40
-0.6
176
     1
 41
-30.0
176
     1
 62
     5
 63
     7
421
 16777215
176
     1
 74
     1
176
     1
 91
        4
176
     1
 64
     7
176
     1
 65
   257
176
     1
 75
     1
176
     1
175
     1
176
     1
 42
1.0
176
     1
 92
        0
176
     1
 66
   257
176
     1
 43
1.0
176
     1
 76
     1
176
     1
 77
     6
176
     1
 78
     2
176
     1
 67
     7
176
     1
 79
     5
176
     1
170
     0
176
     1
171
     0
176
     1
290
     0
176
     1
 93
        1
176
     1
 44
0.0
176
     1
173
     0
176
     1
  0
VISUALSTYLE
  5
31
102
{ACAD_REACTORS
330
2A
102
}
330
2A
100
AcDbVisualStyle
  2
3D Hidden
 70
     6
177
     2
291
     0
 71
     1
176
     1
 72
     2
176
     1
 73
     2
176
     1
 90
        0
176
     1
 40
-0.6
176
     1
 41
-30.0
176
     1
 62
     5
 63
     7
421
 16777215
176
     1
 74
     2
176
     1
 91
        2
176
     1
 64
     7
176
     1
 65
   257
176
     1
 75
     2
176
     1
175
     1
176
     1
 42
40.0
176
     1
 92
        0
176
     1
 66
   257
176
     1
 43
1.0
176
     1
 76
     1
176
     1
 77
     6
176
     1
 78
     2
176
     1
 67
     7
176
     1
 79
     3
176
     1
170
     0
176
     1
171
     0
176
     1
290
     0
176
     1
 93
        1
176
     1
 44
0.0
176
     1
173
     0
176
     1
  0
VISUALSTYLE
  5
30
102
{ACAD_REACTORS
330
2A
102
}
330
2A
100
AcDbVisualStyle
  2
3dWireframe
 70
     5
177
     2
291
     0
 71
     0
176
     1
 72
     2
176
     1
 73
     0
176
     1
 90
        0
176
     1
 40
-0.6
176
     1
 41
-30.0
176
     1
 62
     5
 63
     7
421
 16777215
176
     1
 74
     1
176
     1
 91
        4
176
     1
 64
     7
176
     1
 65
   257
176
     1
 75
     1
176
     1
175
     1
176
     1
 42
1.0
176
     1
 92
        0
176
     1
 66
   257
176
     1
 43
1.0
176
     1
 76
     1
176
     1
 77
     6
176
     1
 78
     2
176
     1
 67
     7
176
     1
 79
     5
176
     1
170
     0
176
     1
171
     0
176
     1
290
     0
176
     1
 93
        1
176
     1
 44
0.0
176
     1
173
     0
176
     1
  0
VISUALSTYLE
  5
32
102
{ACAD_REACTORS
330
2A
102
}
330
2A
100
AcDbVisualStyle
  2
Basic
 70
     7
177
     2
291
     1
 71
     1
176
     1
 72
     0
176
     1
 73
     1
176
     1
 90
        0
176
     1
 40
-0.6
176
     1
 41
-30.0
176
     1
 62
     5
 63
     7
421
 16777215
176
     1
 74
     0
176
     1
 91
        4
176
     1
 64
     7
176
     1
 65
   257
176
     1
 75
     1
176
     1
175
     1
176
     1
 42
1.0
176
     1
 92
        8
176
     1
 66
     7
176
     1
 43
1.0
176
     1
 76
     1
176
     1
 77
     6
176
     1
 78
     2
176
     1
 67
     7
176
     1
 79
     5
176
     1
170
     0
176
     1
171
     0
176
     1
290
     0
176
     1
 93
        1
176
     1
 44
0.0
176
     1
173
     0
176
     1
  0
VISUALSTYLE
  5
36
102
{ACAD_REACTORS
330
2A
102
}
330
2A
100
AcDbVisualStyle
  2
Brighten
 70
    12
177
     2
291
     1
 71
     2
176
     1
 72
     2
176
     1
 73
     0
176
     1
 90
        0
176
     1
 40
-0.6
176
     1
 41
-30.0
176
     1
 62
     5
 63
     7
421
 16777215
176
     1
 74
     1
176
     1
 91
        4
176
     1
 64
     7
176
     1
 65
   257
176
     1
 75
     1
176
     1
175
     1
176
     1
 42
1.0
176
     1
 92
        8
176
     1
 66
     7
176
     1
 43
1.0
176
     1
 76
     1
176
     1
 77
     6
176
     1
 78
     2
176
     1
 67
     7
176
     1
 79
     5
176
     1
170
     0
176
     1
171
     0
176
     1
290
     0
176
     1
 93
        1
176
     1
 44
50.0
176
     1
173
     0
176
     1
  0
VISUALSTYLE
  5
3A
102
{ACAD_REACTORS
330
2A
102
}
330
2A
100
AcDbVisualStyle
  2
ColorChange
 70
    16
177
     2
291
     1
 71
     2
176
     1
 72
     2
176
     1
 73
     3
176
     1
 90
        0
176
     1
 40
-0.6
176
     1
 41
-30.0
176
     1
 62
     5
 63
     8
421
  8421504
176
     1
 74
     1
176
     1
 91
        4
176
     1
 64
     7
176
     1
 65
   257
176
     1
 75
     1
176
     1
175
     1
176
     1
 42
1.0
176
     1
 92
        8
176
     1
 66
     8
424
  8421504
176
     1
 43
1.0
176
     1
 76
     1
176
     1
 77
     6
176
     1
 78
     2
176
     1
 67
     7
176
     1
 79
     5
176
     1
170
     0
176
     1
171
     0
176
     1
290
     0
176
     1
 93
        1
176
     1
 44
0.0
176
     1
173
     0
176
     1
  0
VISUALSTYLE
  5
34
102
{ACAD_REACTORS
330
2A
102
}
330
2A
100
AcDbVisualStyle
  2
Conceptual
 70
     9
177
     2
291
     0
 71
     3
176
     1
 72
     2
176
     1
 73
     0
176
     1
 90
        0
176
     1
 40
-0.6
176
     1
 41
-30.0
176
     1
 62
     5
 63
     7
421
 16777215
176
     1
 74
     2
176
     1
 91
        2
176
     1
 64
     7
176
     1
 65
   257
176
     1
 75
     1
176
     1
175
     1
176
     1
 42
40.0
176
     1
 92
        8
176
     1
 66
     7
176
     1
 43
1.0
176
     1
 76
     1
176
     1
 77
     6
176
     1
 78
     2
176
     1
 67
     7
176
     1
 79
     3
176
     1
170
     0
176
     1
171
     0
176
     1
290
     0
176
     1
 93
        1
176
     1
 44
0.0
176
     1
173
     0
176
     1
  0
VISUALSTYLE
  5
35
102
{ACAD_REACTORS
330
2A
102
}
330
2A
100
AcDbVisualStyle
  2
Dim
 70
    11
177
     2
291
     1
 71
     2
176
     1
 72
     2
176
     1
 73
     0
176
     1
 90
        0
176
     1
 40
-0.6
176
     1
 41
-30.0
176
     1
 62
     5
 63
     7
421
 16777215
176
     1
 74
     1
176
     1
 91
        4
176
     1
 64
     7
176
     1
 65
   257
176
     1
 75
     1
176
     1
175
     1
176
     1
 42
1.0
176
     1
 92
        8
176
     1
 66
     7
176
     1
 43
1.0
176
     1
 76
     1
176
     1
 77
     6
176
     1
 78
     2
176
     1
 67
     7
176
     1
 79
     5
176
     1
170
     0
176
     1
171
     0
176
     1
290
     0
176
     1
 93
        1
176
     1
 44
-50.0
176
     1
173
     0
176
     1
  0
VISUALSTYLE
  5
39
102
{ACAD_REACTORS
330
2A
102
}
330
2A
100
AcDbVisualStyle
  2
Facepattern
 70
    15
177
     2
291
     1
 71
     2
176
     1
 72
     2
176
     1
 73
     0
176
     1
 90
        0
176
     1
 40
-0.6
176
     1
 41
-30.0
176
     1
 62
     5
 63
     7
421
 16777215
176
     1
 74
     1
176
     1
 91
        4
176
     1
 64
     7
176
     1
 65
   257
176
     1
 75
     1
176
     1
175
     1
176
     1
 42
1.0
176
     1
 92
        8
176
     1
 66
     7
176
     1
 43
1.0
176
     1
 76
     1
176
     1
 77
     6
176
     1
 78
     2
176
     1
 67
     7
176
     1
 79
     5
176
     1
170
     0
176
     1
171
     0
176
     1
290
     0
176
     1
 93
        1
176
     1
 44
0.0
176
     1
173
     0
176
     1
  0
VISUALSTYLE
  5
2B
102
{ACAD_REACTORS
330
2A
102
}
330
2A
100
AcDbVisualStyle
  2
Flat
 70
     0
177
     2
291
     1
 71
     2
176
     1
 72
     1
176
     1
 73
     1
176
     1
 90
        2
176
     1
 40
-0.6
176
     1
 41
30.0
176
     1
 62
     5
 63
     7
421
 16777215
176
     1
 74
     0
176
     1
 91
        4
176
     1
 64
     7
176
     1
 65
   257
176
     1
 75
     1
176
     1
175
     1
176
     1
 42
1.0
176
     1
 92
        8
176
     1
 66
     7
176
     1
 43
1.0
176
     1
 76
     1
176
     1
 77
     6
176
     1
 78
     2
176
     1
 67
     7
176
     1
 79
     5
176
     1
170
     0
176
     1
171
     0
176
     1
290
     0
176
     1
 93
       13
176
     1
 44
0.0
176
     1
173
     0
176
     1
  0
VISUALSTYLE
  5
2C
102
{ACAD_REACTORS
330
2A
102
}
330
2A
100
AcDbVisualStyle
  2
FlatWithEdges
 70
     1
177
     2
291
     1
 71
     2
176
     1
 72
     1
176
     1
 73
     1
176
     1
 90
        2
176
     1
 40
-0.6
176
     1
 41
30.0
176
     1
 62
     5
 63
     7
421
 16777215
176
     1
 74
     1
176
     1
 91
        4
176
     1
 64
     7
176
     1
 65
   257
176
     1
 75
     1
176
     1
175
     1
176
     1
 42
1.0
176
     1
 92
        0
176
     1
 66
   257
176
     1
 43
1.0
176
     1
 76
     1
176
     1
 77
     6
176
     1
 78
     2
176
     1
 67
     7
176
     1
 79
     5
176
     1
170
     0
176
     1
171
     0
176
     1
290
     0
176
     1
 93
       13
176
     1
 44
0.0
176
     1
173
     0
176
     1
  0
VISUALSTYLE
  5
2D
102
{ACAD_REACTORS
330
2A
102
}
330
2A
100
AcDbVisualStyle
  2
Gouraud
 70
     2
177
     2
291
     1
 71
     2
176
     1
 72
     2
176
     1
 73
     1
176
     1
 90
        2
176
     1
 40
-0.6
176
     1
 41
30.0
176
     1
 62
     5
 63
     7
421
 16777215
176
     1
 74
     0
176
     1
 91
        4
176
     1
 64
     7
176
     1
 65
   257
176
     1
 75
     1
176
     1
175
     1
176
     1
 42
1.0
176
     1
 92
        0
176
     1
 66
     7
176
     1
 43
1.0
176
     1
 76
     1
176
     1
 77
     6
176
     1
 78
     2
176
     1
 67
     7
176
     1
 79
     5
176
     1
170
     0
176
     1
171
     0
176
     1
290
     0
176
     1
 93
       13
176
     1
 44
0.0
176
     1
173
     0
176
     1
  0
VISUALSTYLE
  5
2E
102
{ACAD_REACTORS
330
2A
102
}
330
2A
100
AcDbVisualStyle
  2
GouraudWithEdges
 70
     3
177
     2
291
     1
 71
     2
176
     1
 72
     2
176
     1
 73
     1
176
     1
 90
        2
176
     1
 40
-0.6
176
     1
 41
30.0
176
     1
 62
     5
 63
     7
421
 16777215
176
     1
 74
     1
176
     1
 91
        4
176
     1
 64
     7
176
     1
 65
   257
176
     1
 75
     1
176
     1
175
     1
176
     1
 42
1.0
176
     1
 92
        0
176
     1
 66
   257
176
     1
 43
1.0
176
     1
 76
     1
176
     1
 77
     6
176
     1
 78
     2
176
     1
 67
     7
176
     1
 79
     5
176
     1
170
     0
176
     1
171
     0
176
     1
290
     0
176
     1
 93
       13
176
     1
 44
0.0
176
     1
173
     0
176
     1
  0
VISUALSTYLE
  5
38
102
{ACAD_REACTORS
330
2A
102
}
330
2A
100
AcDbVisualStyle
  2
Linepattern
 70
    14
177
     2
291
     1
 71
     2
176
     1
 72
     2
176
     1
 73
     0
176
     1
 90
        0
176
     1
 40
-0.6
176
     1
 41
-30.0
176
     1
 62
     5
 63
     7
421
 16777215
176
     1
 74
     1
176
     1
 91
        4
176
     1
 64
     7
176
     1
 65
   257
176
     1
 75
     7
176
     1
175
     7
176
     1
 42
1.0
176
     1
 92
        8
176
     1
 66
     7
176
     1
 43
1.0
176
     1
 76
     1
176
     1
 77
     6
176
     1
 78
     2
176
     1
 67
     7
176
     1
 79
     5
176
     1
170
     0
176
     1
171
     0
176
     1
290
     0
176
     1
 93
        1
176
     1
 44
0.0
176
     1
173
     0
176
     1
  0
VISUALSTYLE
  5
33
102
{ACAD_REACTORS
330
2A
102
}
330
2A
100
AcDbVisualStyle
  2
Realistic
 70
     8
177
     2
291
     0
 71
     2
176
     1
 72
     2
176
     1
 73
     0
176
     1
 90
        0
176
     1
 40
-0.6
176
     1
 41
-30.0
176
     1
 62
     5
 63
     7
421
 16777215
176
     1
 74
     1
176
     1
 91
        0
176
     1
 64
     7
176
     1
 65
   257
176
     1
 75
     1
176
     1
175
     1
176
     1
 42
1.0
176
     1
 92
        8
176
     1
 66
     8
424
  7895160
176
     1
 43
1.0
176
     1
 76
     1
176
     1
 77
     6
176
     1
 78
     2
176
     1
 67
     7
176
     1
 79
     5
176
     1
170
     0
176
     1
171
     0
176
     1
290
     0
176
     1
 93
       13
176
     1
 44
0.0
176
     1
173
     0
176
     1
  0
VISUALSTYLE
  5
37
102
{ACAD_REACTORS
330
2A
102
}
330
2A
100
AcDbVisualStyle
  2
Thicken
 70
    13
177
     2
291
     1
 71
     2
176
     1
 72
     2
176
     1
 73
     0
176
     1
 90
        0
176
     1
 40
-0.6
176
     1
 41
-30.0
176
     1
 62
     5
 63
     7
421
 16777215
176
     1
 74
     1
176
     1
 91
        4
176
     1
 64
     7
176
     1
 65
   257
176
     1
 75
     1
176
     1
175
     1
176
     1
 42
1.0
176
     1
 92
       12
176
     1
 66
     7
176
     1
 43
1.0
176
     1
 76
     1
176
     1
 77
     6
176
     1
 78
     2
176
     1
 67
     7
176
     1
 79
     5
176
     1
170
     0
176
     1
171
     0
176
     1
290
     0
176
     1
 93
        1
176
     1
 44
0.0
176
     1
173
     0
176
     1
  0
ENDSEC
  0
EOF
