  0
SECTION
  2
HEADER
  9
$ACADVER
  1
AC1024
  9
$ACADMAINTVER
 70
     6
  9
$DWGCODEPAGE
  3
UNDEFINED
  9
$INSBASE
 10
0.0
 20
0.0
 30
0.0
  9
$EXTMIN
 10
1.000000000000000E+20
 20
1.000000000000000E+20
 30
1.000000000000000E+20
  9
$EXTMAX
 10
-1.000000000000000E+20
 20
-1.000000000000000E+20
 30
-1.000000000000000E+20
  9
$LIMMIN
 10
0.0
 20
0.0
  9
$LIMMAX
 10
12.0
 20
9.0
  9
$ORTHOMODE
 70
     0
  9
$REGENMODE
 70
     1
  9
$FILLMODE
 70
     1
  9
$QTEXTMODE
 70
     0
  9
$MIRRTEXT
 70
     1
  9
$LTSCALE
 40
1.0
  9
$ATTMODE
 70
     1
  9
$TEXTSIZE
 40
0.2
  9
$TRACEWID
 40
0.05
  9
$TEXTSTYLE
  7
Standard
  9
$CLAYER
  8
0
  9
$CELTYPE
  6
ByLayer
  9
$CECOLOR
 62
   256
  9
$CELTSCALE
 40
1.0
  9
$DISPSILH
 70
     0
  9
$DIMSCALE
 40
1.0
  9
$DIMASZ
 40
0.18
  9
$DIMEXO
 40
0.0625
  9
$DIMDLI
 40
0.38
  9
$DIMRND
 40
0.0
  9
$DIMDLE
 40
0.0
  9
$DIMEXE
 40
0.18
  9
$DIMTP
 40
0.0
  9
$DIMTM
 40
0.0
  9
$DIMTXT
 40
0.18
  9
$DIMCEN
 40
0.09
  9
$DIMTSZ
 40
0.0
  9
$DIMTOL
 70
     0
  9
$DIMLIM
 70
     0
  9
$DIMTIH
 70
     1
  9
$DIMTOH
 70
     1
  9
$DIMSE1
 70
     0
  9
$DIMSE2
 70
     0
  9
$DIMTAD
 70
     0
  9
$DIMZIN
 70
     0
  9
$DIMBLK
  1

  9
$DIMASO
 70
     1
  9
$DIMSHO
 70
     1
  9
$DIMPOST
  1

  9
$DIMAPOST
  1

  9
$DIMALT
 70
     0
  9
$DIMALTD
 70
     2
  9
$DIMALTF
 40
25.4
  9
$DIMLFAC
 40
1.0
  9
$DIMTOFL
 70
     0
  9
$DIMTVP
 40
0.0
  9
$DIMTIX
 70
     0
  9
$DIMSOXD
 70
     0
  9
$DIMSAH
 70
     0
  9
$DIMBLK1
  1

  9
$DIMBLK2
  1

  9
$DIMSTYLE
  2
Standard
  9
$DIMCLRD
 70
     0
  9
$DIMCLRE
 70
     0
  9
$DIMCLRT
 70
     0
  9
$DIMTFAC
 40
1.0
  9
$DIMGAP
 40
0.09
  9
$DIMJUST
 70
     0
  9
$DIMSD1
 70
     0
  9
$DIMSD2
 70
     0
  9
$DIMTOLJ
 70
     1
  9
$DIMTZIN
 70
     0
  9
$DIMALTZ
 70
     0
  9
$DIMALTTZ
 70
     0
  9
$DIMUPT
 70
     0
  9
$DIMDEC
 70
     4
  9
$DIMTDEC
 70
     4
  9
$DIMALTU
 70
     2
  9
$DIMALTTD
 70
     2
  9
$DIMTXSTY
  7
Standard
  9
$DIMAUNIT
 70
     0
  9
$DIMADEC
 70
     0
  9
$DIMALTRND
 40
0.0
  9
$DIMAZIN
 70
     0
  9
$DIMDSEP
 70
    46
  9
$DIMATFIT
 70
     3
  9
$DIMFRAC
 70
     0
  9
$DIMLDRBLK
  1

  9
$DIMLUNIT
 70
     2
  9
$DIMLWD
 70
    -2
  9
$DIMLWE
 70
    -2
  9
$DIMTMOVE
 70
     0
  9
$DIMFXL
 40
1.0
  9
$DIMFXLON
 70
     0
  9
$DIMJOGANG
 40
0.7853981633974483
  9
$DIMTFILL
 70
     0
  9
$DIMTFILLCLR
 70
     0
  9
$DIMARCSYM
 70
     0
  9
$DIMLTYPE
  6

  9
$DIMLTEX1
  6

  9
$DIMLTEX2
  6

  9
$DIMTXTDIRECTION
 70
     0
  9
$LUNITS
 70
     2
  9
$LUPREC
 70
     4
  9
$SKETCHINC
 40
0.1
  9
$FILLETRAD
 40
0.5
  9
$AUNITS
 70
     0
  9
$AUPREC
 70
     0
  9
$MENU
  1
.
  9
$ELEVATION
 40
0.0
  9
$PELEVATION
 40
0.0
  9
$THICKNESS
 40
0.0
  9
$LIMCHECK
 70
     0
  9
$CHAMFERA
 40
0.5
  9
$CHAMFERB
 40
0.5
  9
$CHAMFERC
 40
1.0
  9
$CHAMFERD
 40
0.0
  9
$SKPOLY
 70
     0
  9
$TDCREATE
 40
2457917.599189803
  9
$TDUCREATE
 40
2457917.224189815
  9
$TDUPDATE
 40
2457917.599189803
  9
$TDUUPDATE
 40
2457917.224189815
  9
$TDINDWG
 40
0.0000000116
  9
$TDUSRTIMER
 40
0.0000000116
  9
$USRTIMER
 70
     1
  9
$ANGBASE
 50
0.0
  9
$ANGDIR
 70
     0
  9
$PDMODE
 70
     0
  9
$PDSIZE
 40
0.0
  9
$PLINEWID
 40
0.0
  9
$SPLFRAME
 70
     0
  9
$SPLINETYPE
 70
     6
  9
$SPLINESEGS
 70
     8
  9
$HANDSEED
  5
DE
  9
$SURFTAB1
 70
     6
  9
$SURFTAB2
 70
     6
  9
$SURFTYPE
 70
     6
  9
$SURFU
 70
     6
  9
$SURFV
 70
     6
  9
$UCSBASE
  2

  9
$UCSNAME
  2

  9
$UCSORG
 10
0.0
 20
0.0
 30
0.0
  9
$UCSXDIR
 10
1.0
 20
0.0
 30
0.0
  9
$UCSYDIR
 10
0.0
 20
1.0
 30
0.0
  9
$UCSORTHOREF
  2

  9
$UCSORTHOVIEW
 70
     0
  9
$UCSORGTOP
 10
0.0
 20
0.0
 30
0.0
  9
$UCSORGBOTTOM
 10
0.0
 20
0.0
 30
0.0
  9
$UCSORGLEFT
 10
0.0
 20
0.0
 30
0.0
  9
$UCSORGRIGHT
 10
0.0
 20
0.0
 30
0.0
  9
$UCSORGFRONT
 10
0.0
 20
0.0
 30
0.0
  9
$UCSORGBACK
 10
0.0
 20
0.0
 30
0.0
  9
$PUCSBASE
  2

  9
$PUCSNAME
  2

  9
$PUCSORG
 10
0.0
 20
0.0
 30
0.0
  9
$PUCSXDIR
 10
1.0
 20
0.0
 30
0.0
  9
$PUCSYDIR
 10
0.0
 20
1.0
 30
0.0
  9
$PUCSORTHOREF
  2

  9
$PUCSORTHOVIEW
 70
     0
  9
$PUCSORGTOP
 10
0.0
 20
0.0
 30
0.0
  9
$PUCSORGBOTTOM
 10
0.0
 20
0.0
 30
0.0
  9
$PUCSORGLEFT
 10
0.0
 20
0.0
 30
0.0
  9
$PUCSORGRIGHT
 10
0.0
 20
0.0
 30
0.0
  9
$PUCSORGFRONT
 10
0.0
 20
0.0
 30
0.0
  9
$PUCSORGBACK
 10
0.0
 20
0.0
 30
0.0
  9
$USERI1
 70
     0
  9
$USERI2
 70
     0
  9
$USERI3
 70
     0
  9
$USERI4
 70
     0
  9
$USERI5
 70
     0
  9
$USERR1
 40
0.0
  9
$USERR2
 40
0.0
  9
$USERR3
 40
0.0
  9
$USERR4
 40
0.0
  9
$USERR5
 40
0.0
  9
$WORLDVIEW
 70
     1
  9
$SHADEDGE
 70
     3
  9
$SHADEDIF
 70
    70
  9
$TILEMODE
 70
     1
  9
$MAXACTVP
 70
    64
  9
$PINSBASE
 10
0.0
 20
0.0
 30
0.0
  9
$PLIMCHECK
 70
     0
  9
$PEXTMIN
 10
1.000000000000000E+20
 20
1.000000000000000E+20
 30
1.000000000000000E+20
  9
$PEXTMAX
 10
-1.000000000000000E+20
 20
-1.000000000000000E+20
 30
-1.000000000000000E+20
  9
$PLIMMIN
 10
0.0
 20
0.0
  9
$PLIMMAX
 10
12.0
 20
9.0
  9
$UNITMODE
 70
     0
  9
$VISRETAIN
 70
     1
  9
$PLINEGEN
 70
     0
  9
$PSLTSCALE
 70
     1
  9
$TREEDEPTH
 70
  3020
  9
$CMLSTYLE
  2
Standard
  9
$CMLJUST
 70
     0
  9
$CMLSCALE
 40
1.0
  9
$PROXYGRAPHICS
 70
     1
  9
$MEASUREMENT
 70
     0
  9
$CELWEIGHT
370
    -1
  9
$ENDCAPS
280
     0
  9
$JOINSTYLE
280
     0
  9
$LWDISPLAY
290
     1
  9
$INSUNITS
 70
     1
  9
$HYPERLINKBASE
  1

  9
$STYLESHEET
  1

  9
$XEDIT
290
     1
  9
$CEPSNTYPE
380
     0
  9
$PSTYLEMODE
290
     1
  9
$FINGERPRINTGUID
  2
{A1C99449-AF7D-406C-DC76-F20A174509A8}
  9
$VERSIONGUID
  2
{FAEB1C32-E019-11D5-929B-00C0DF256EC4}
  9
$EXTNAMES
290
     1
  9
$PSVPSCALE
 40
0.0
  9
$OLESTARTUP
290
     0
  9
$SORTENTS
280
   127
  9
$INDEXCTL
280
     0
  9
$HIDETEXT
280
     1
  9
$XCLIPFRAME
280
     2
  9
$HALOGAP
280
     0
  9
$OBSCOLOR
 70
   257
  9
$OBSLTYPE
280
     0
  9
$INTERSECTIONDISPLAY
280
     0
  9
$INTERSECTIONCOLOR
 70
   257
  9
$DIMASSOC
280
     2
  9
$PROJECTNAME
  1

  9
$CAMERADISPLAY
290
     0
  9
$LENSLENGTH
 40
50.0
  9
$CAMERAHEIGHT
 40
0.0
  9
$STEPSPERSEC
 40
2.0
  9
$STEPSIZE
 40
6.0
  9
$3DDWFPREC
 40
2.0
  9
$PSOLWIDTH
 40
0.25
  9
$PSOLHEIGHT
 40
4.0
  9
$LOFTANG1
 40
1.570796326794897
  9
$LOFTANG2
 40
1.570796326794897
  9
$LOFTMAG1
 40
0.0
  9
$LOFTMAG2
 40
0.0
  9
$LOFTPARAM
 70
     7
  9
$LOFTNORMALS
280
     1
  9
$LATITUDE
 40
37.795
  9
$LONGITUDE
 40
-122.394
  9
$NORTHDIRECTION
 40
0.0
  9
$TIMEZONE
 70
 -8000
  9
$LIGHTGLYPHDISPLAY
280
     1
  9
$TILEMODELIGHTSYNCH
280
     1
  9
$CMATERIAL
347
3C
  9
$SOLIDHIST
280
     1
  9
$SHOWHIST
280
     1
  9
$DWFFRAME
280
     2
  9
$DGNFRAME
280
     2
  9
$REALWORLDSCALE
290
     1
  9
$INTERFERECOLOR
 62
   256
  9
$CSHADOW
280
     0
  9
$SHADOWPLANELOCATION
 40
0.0
  0
ENDSEC
  0
SECTION
  2
CLASSES
  0
CLASS
  1
ACDBDICTIONARYWDFLT
  2
AcDbDictionaryWithDefault
  3
ObjectDBX Classes
 90
        0
 91
        4
280
     0
281
     0
  0
CLASS
  1
VISUALSTYLE
  2
AcDbVisualStyle
  3
ObjectDBX Classes
 90
     4095
 91
        4
280
     0
281
     0
  0
CLASS
  1
MATERIAL
  2
AcDbMaterial
  3
ObjectDBX Classes
 90
     1153
 91
        4
280
     0
281
     0
  0
CLASS
  1
SUN
  2
AcDbSun
  3
SCENEOE
 90
     1024
 91
        4
280
     0
281
     0
  0
ENDSEC
  0
SECTION
  2
TABLES
  0
TABLE
  2
VPORT
  5
8
330
0
100
AcDbSymbolTable
 70
     1
  0
VPORT
  5
29
330
8
100
AcDbSymbolTableRecord
100
AcDbViewportTableRecord
  2
*Active
 70
     0
 10
0.0
 20
0.0
 11
1.0
 21
1.0
 12
0.0
 22
0.0
 13
0.0
 23
0.0
 14
0.5
 24
0.5
 15
0.5
 25
0.5
 16
0.0
 26
0.0
 36
1.0
 17
91.00082462281999
 27
-128.4993055234307
 37
0.0
 40
256.9986110468615
 41
0.7081814508812795
 42
50.0
 43
0.0
 44
0.0
 50
0.0
 51
0.0
 71
     0
 72
   100
 73
     1
 74
     3
 75
     0
 76
     0
 77
     0
 78
     0
281
     0
 65
     1
110
0.0
120
0.0
130
0.0
111
1.0
121
0.0
131
0.0
112
0.0
122
1.0
132
0.0
 79
     0
146
0.0
 60
     3
 61
     5
292
     1
282
     1
141
0.0
142
0.0
 63
   250
361
3F
  0
ENDTAB
  0
TABLE
  2
LTYPE
  5
5
330
0
100
AcDbSymbolTable
 70
     3
  0
LTYPE
  5
14
330
5
100
AcDbSymbolTableRecord
100
AcDbLinetypeTableRecord
  2
ByBlock
 70
     0
  3

 72
    65
 73
     0
 40
0.0
  0
LTYPE
  5
15
330
5
100
AcDbSymbolTableRecord
100
AcDbLinetypeTableRecord
  2
ByLayer
 70
     0
  3

 72
    65
 73
     0
 40
0.0
  0
LTYPE
  5
16
330
5
100
AcDbSymbolTableRecord
100
AcDbLinetypeTableRecord
  2
Continuous
 70
     0
  3
Solid line
 72
    65
 73
     0
 40
0.0
  0
LTYPE
  5
CF
330
5
100
AcDbSymbolTableRecord
100
AcDbLinetypeTableRecord
  2
AI-Linetype-1
 70
     0
  3
Adobe Illustrator Linetype No. 1
 72
    65
 73
     2
 40
1.411111110758333
 49
0.7055555553791667
 74
     0
 49
-0.7055555553791667
 74
     0
  0
LTYPE
  5
D6
330
5
100
AcDbSymbolTableRecord
100
AcDbLinetypeTableRecord
  2
AI-Linetype-2
 70
     0
  3
Adobe Illustrator Linetype No. 2
 72
    65
 73
     2
 40
1.411111110758333
 49
0.7055555553791667
 74
     0
 49
-0.7055555553791667
 74
     0
  0
ENDTAB
  0
TABLE
  2
LAYER
  5
2
330
0
100
AcDbSymbolTable
 70
     2
  0
LAYER
  5
10
330
2
100
AcDbSymbolTableRecord
100
AcDbLayerTableRecord
  2
0
 70
     0
 62
     7
  6
Continuous
370
    -3
390
F
347
3E
  0
LAYER
  5
40
330
2
100
AcDbSymbolTableRecord
100
AcDbLayerTableRecord
  2
_U+30EC_U+30A4_U+30E4_U+30FC 1
 70
     0
 62
     7
  6
Continuous
370
    -3
390
F
347
3E
  0
ENDTAB
  0
TABLE
  2
STYLE
  5
3
330
0
100
AcDbSymbolTable
 70
     1
  0
STYLE
  5
11
330
3
100
AcDbSymbolTableRecord
100
AcDbTextStyleTableRecord
  2
Standard
 70
     0
 40
0.0
 41
1.0
 50
0.0
 71
     0
 42
0.2
  3
txt
  4

  0
ENDTAB
  0
TABLE
  2
VIEW
  5
6
330
0
100
AcDbSymbolTable
 70
     0
  0
ENDTAB
  0
TABLE
  2
UCS
  5
7
330
0
100
AcDbSymbolTable
 70
     0
  0
ENDTAB
  0
TABLE
  2
APPID
  5
9
330
0
100
AcDbSymbolTable
 70
     1
  0
APPID
  5
12
330
9
100
AcDbSymbolTableRecord
100
AcDbRegAppTableRecord
  2
ACAD
 70
     0
  0
ENDTAB
  0
TABLE
  2
DIMSTYLE
  5
A
330
0
100
AcDbSymbolTable
 70
     1
100
AcDbDimStyleTable
  0
DIMSTYLE
105
27
330
A
100
AcDbSymbolTableRecord
100
AcDbDimStyleTableRecord
  2
Standard
 70
     0
178
     0
340
11
  0
ENDTAB
  0
TABLE
  2
BLOCK_RECORD
  5
1
330
0
100
AcDbSymbolTable
 70
     4
  0
BLOCK_RECORD
  5
1F
330
1
100
AcDbSymbolTableRecord
100
AcDbBlockTableRecord
  2
*Model_Space
340
22
 70
     0
280
     1
281
     0
  0
BLOCK_RECORD
  5
1B
330
1
100
AcDbSymbolTableRecord
100
AcDbBlockTableRecord
  2
*Paper_Space
340
1E
 70
     0
280
     1
281
     0
  0
BLOCK_RECORD
  5
23
330
1
100
AcDbSymbolTableRecord
100
AcDbBlockTableRecord
  2
*Paper_Space0
340
26
 70
     0
280
     1
281
     0
  0
BLOCK_RECORD
  5
55
330
1
100
AcDbSymbolTableRecord
100
AcDbBlockTableRecord
  2
block 2
340
0
102
{BLKREFS
331
56
102
}
 70
     0
280
     1
281
     0
  0
BLOCK_RECORD
  5
6D
330
1
100
AcDbSymbolTableRecord
100
AcDbBlockTableRecord
  2
block 3
340
0
102
{BLKREFS
331
6E
102
}
 70
     0
280
     1
281
     0
  0
BLOCK_RECORD
  5
8A
330
1
100
AcDbSymbolTableRecord
100
AcDbBlockTableRecord
  2
block 4
340
0
102
{BLKREFS
331
8B
102
}
 70
     0
280
     1
281
     0
  0
ENDTAB
  0
ENDSEC
  0
SECTION
  2
BLOCKS
  0
BLOCK
  5
20
330
1F
100
AcDbEntity
  8
0
100
AcDbBlockBegin
  2
*Model_Space
 70
     0
 10
0.0
 20
0.0
 30
0.0
  3
*Model_Space
  1

  0
ENDBLK
  5
21
330
1F
100
AcDbEntity
  8
0
100
AcDbBlockEnd
  0
BLOCK
  5
1C
330
1B
100
AcDbEntity
 67
     1
  8
0
100
AcDbBlockBegin
  2
*Paper_Space
 70
     0
 10
0.0
 20
0.0
 30
0.0
  3
*Paper_Space
  1

  0
ENDBLK
  5
1D
330
1B
100
AcDbEntity
 67
     1
  8
0
100
AcDbBlockEnd
  0
BLOCK
  5
24
330
23
100
AcDbEntity
  8
0
100
AcDbBlockBegin
  2
*Paper_Space0
 70
     0
 10
0.0
 20
0.0
 30
0.0
  3
*Paper_Space0
  1

  0
ENDBLK
  5
25
330
23
100
AcDbEntity
  8
0
100
AcDbBlockEnd
  0
BLOCK
  5
57
330
55
100
AcDbEntity
  8
0
100
AcDbBlockBegin
  2
block 2
 70
     0
 10
0.0
 20
0.0
 30
0.0
  3
block 2
  1

  0
SPLINE
  5
59
330
55
100
AcDbEntity
  8
_U+30EC_U+30A4_U+30E4_U+30FC 1
370
     0
100
AcDbSpline
210
0.0
220
0.0
230
1.0
 70
    11
 71
     3
 72
    44
 73
    40
 74
     0
 42
0.0000000001
 43
0.0000000001
 12
1.0
 22
0.0
 32
0.0
 13
1.0
 23
0.0
 33
0.0
 40
0.0
 40
0.0
 40
0.0
 40
0.0
 40
1.0
 40
1.0
 40
1.0
 40
2.0
 40
2.0
 40
2.0
 40
3.0
 40
3.0
 40
3.0
 40
4.0
 40
4.0
 40
4.0
 40
5.0
 40
5.0
 40
5.0
 40
6.0
 40
6.0
 40
6.0
 40
7.0
 40
7.0
 40
7.0
 40
8.0
 40
8.0
 40
8.0
 40
9.0
 40
9.0
 40
9.0
 40
10.0
 40
10.0
 40
10.0
 40
11.0
 40
11.0
 40
11.0
 40
12.0
 40
12.0
 40
12.0
 40
13.0
 40
13.0
 40
13.0
 40
13.0
 10
100.0772677701196
 20
-141.1948268961249
 30
0.0
 10
99.85919322590327
 20
-141.3533012884464
 30
0.0
 10
99.76583113825299
 20
-141.4273708413793
 30
0.0
 10
99.71691078236245
 20
-141.5706868135657
 30
0.0
 10
99.71691078236245
 20
-141.5706868135657
 30
0.0
 10
100.4955023620289
 20
-141.5720648517598
 30
0.0
 10
100.4955023620289
 20
-141.5720648517598
 30
0.0
 10
100.4955023620289
 20
-141.5720648517598
 30
0.0
 10
100.4951578524804
 20
-141.7773925426806
 30
0.0
 10
100.4951578524804
 20
-141.7773925426806
 30
0.0
 10
100.4951578524804
 20
-141.7773925426806
 30
0.0
 10
99.46714135968183
 20
-141.775669994938
 30
0.0
 10
99.46714135968183
 20
-141.775669994938
 30
0.0
 10
99.49952525724318
 20
-141.4180690835691
 30
0.0
 10
99.56532658101145
 20
-141.3398654160539
 30
0.0
 10
99.9508327658109
 20
-141.0422091661283
 30
0.0
 10
100.2071478699135
 20
-140.8441161757265
 30
0.0
 10
100.2726046841332
 20
-140.7762477946671
 30
0.0
 10
100.2729491936818
 20
-140.6387884848056
 30
0.0
 10
100.2729491936818
 20
-140.520277200113
 30
0.0
 10
100.2012912075886
 20
-140.3893635716735
 30
0.0
 10
100.0049207649293
 20
-140.389019062125
 30
0.0
 10
99.74447154624444
 20
-140.3883300430279
 30
0.0
 10
99.73551429798279
 20
-140.6188069309911
 30
0.0
 10
99.73138018340049
 20
-140.7352511583926
 30
0.0
 10
99.73138018340049
 20
-140.7352511583926
 30
0.0
 10
99.50710446731073
 20
-140.7349066488441
 30
0.0
 10
99.50710446731073
 20
-140.7349066488441
 30
0.0
 10
99.51571720602385
 20
-140.6077826254383
 30
0.0
 10
99.52639700202813
 20
-140.4958170221677
 30
0.0
 10
99.60701223638297
 20
-140.3776502470236
 30
0.0
 10
99.71725529191097
 20
-140.2167642878625
 30
0.0
 10
99.90363495766299
 20
-140.1833468616556
 30
0.0
 10
100.0200791850644
 20
-140.1836913712041
 30
0.0
 10
100.2970648620785
 20
-140.1840358807526
 30
0.0
 10
100.5037705911935
 20
-140.3683484892135
 30
0.0
 10
100.5037705911935
 20
-140.6412000516453
 30
0.0
 10
100.5030815720965
 20
-140.8699543918659
 30
0.0
 10
100.386637344695
 20
-140.9691731418411
 30
0.0
 10
100.0772677701196
 20
-141.1948268961249
 30
0.0
  0
HATCH
  5
5A
330
55
100
AcDbEntity
  8
_U+30EC_U+30A4_U+30E4_U+30FC 1
 62
     7
420
 16777215
100
AcDbHatch
 10
0.0
 20
0.0
 30
0.0
210
0.0
220
0.0
230
1.0
  2
SOLID
 70
     1
 71
     0
 91
        1
 92
        1
 93
        1
 72
     4
 94
        3
 73
     0
 74
     1
 95
       44
 96
       40
 40
0.0
 40
0.0
 40
0.0
 40
0.0
 40
1.0
 40
1.0
 40
1.0
 40
2.0
 40
2.0
 40
2.0
 40
3.0
 40
3.0
 40
3.0
 40
4.0
 40
4.0
 40
4.0
 40
5.0
 40
5.0
 40
5.0
 40
6.0
 40
6.0
 40
6.0
 40
7.0
 40
7.0
 40
7.0
 40
8.0
 40
8.0
 40
8.0
 40
9.0
 40
9.0
 40
9.0
 40
10.0
 40
10.0
 40
10.0
 40
11.0
 40
11.0
 40
11.0
 40
12.0
 40
12.0
 40
12.0
 40
13.0
 40
13.0
 40
13.0
 40
13.0
 10
100.0772677701196
 20
-141.1948268961249
 10
99.85919322590327
 20
-141.3533012884464
 10
99.76583113825299
 20
-141.4273708413793
 10
99.71691078236245
 20
-141.5706868135657
 10
99.71691078236245
 20
-141.5706868135657
 10
100.4955023620289
 20
-141.5720648517598
 10
100.4955023620289
 20
-141.5720648517598
 10
100.4955023620289
 20
-141.5720648517598
 10
100.4951578524804
 20
-141.7773925426806
 10
100.4951578524804
 20
-141.7773925426806
 10
100.4951578524804
 20
-141.7773925426806
 10
99.46714135968183
 20
-141.775669994938
 10
99.46714135968183
 20
-141.775669994938
 10
99.49952525724318
 20
-141.4180690835691
 10
99.56532658101145
 20
-141.3398654160539
 10
99.9508327658109
 20
-141.0422091661283
 10
100.2071478699135
 20
-140.8441161757265
 10
100.2726046841332
 20
-140.7762477946671
 10
100.2729491936818
 20
-140.6387884848056
 10
100.2729491936818
 20
-140.520277200113
 10
100.2012912075886
 20
-140.3893635716735
 10
100.0049207649293
 20
-140.389019062125
 10
99.74447154624444
 20
-140.3883300430279
 10
99.73551429798279
 20
-140.6188069309911
 10
99.73138018340049
 20
-140.7352511583926
 10
99.73138018340049
 20
-140.7352511583926
 10
99.50710446731073
 20
-140.7349066488441
 10
99.50710446731073
 20
-140.7349066488441
 10
99.51571720602385
 20
-140.6077826254383
 10
99.52639700202813
 20
-140.4958170221677
 10
99.60701223638297
 20
-140.3776502470236
 10
99.71725529191097
 20
-140.2167642878625
 10
99.90363495766299
 20
-140.1833468616556
 10
100.0200791850644
 20
-140.1836913712041
 10
100.2970648620785
 20
-140.1840358807526
 10
100.5037705911935
 20
-140.3683484892135
 10
100.5037705911935
 20
-140.6412000516453
 10
100.5030815720965
 20
-140.8699543918659
 10
100.386637344695
 20
-140.9691731418411
 10
100.0772677701196
 20
-141.1948268961249
 97
        0
 97
        0
 75
     2
 76
     1
 98
        0
  0
SPLINE
  5
5B
330
55
100
AcDbEntity
  8
_U+30EC_U+30A4_U+30E4_U+30FC 1
370
     0
100
AcDbSpline
210
0.0
220
0.0
230
1.0
 70
    11
 71
     3
 72
    53
 73
    49
 74
     0
 42
0.0000000001
 43
0.0000000001
 12
1.0
 22
0.0
 32
0.0
 13
1.0
 23
0.0
 33
0.0
 40
0.0
 40
0.0
 40
0.0
 40
0.0
 40
1.0
 40
1.0
 40
1.0
 40
2.0
 40
2.0
 40
2.0
 40
3.0
 40
3.0
 40
3.0
 40
4.0
 40
4.0
 40
4.0
 40
5.0
 40
5.0
 40
5.0
 40
6.0
 40
6.0
 40
6.0
 40
7.0
 40
7.0
 40
7.0
 40
8.0
 40
8.0
 40
8.0
 40
9.0
 40
9.0
 40
9.0
 40
10.0
 40
10.0
 40
10.0
 40
11.0
 40
11.0
 40
11.0
 40
12.0
 40
12.0
 40
12.0
 40
13.0
 40
13.0
 40
13.0
 40
14.0
 40
14.0
 40
14.0
 40
15.0
 40
15.0
 40
15.0
 40
16.0
 40
16.0
 40
16.0
 40
16.0
 10
101.1411132559647
 20
-141.8294134845079
 30
0.0
 10
101.062565078901
 20
-141.8290689749594
 30
0.0
 10
100.9612792716347
 20
-141.8121880070817
 30
0.0
 10
100.8596489548198
 20
-141.7484537406046
 30
0.0
 10
100.6863606519117
 20
-141.6382106850766
 30
0.0
 10
100.6656900790002
 20
-141.5069525470886
 30
0.0
 10
100.6467420538314
 20
-141.3991210584002
 30
0.0
 10
100.6467420538314
 20
-141.3991210584002
 30
0.0
 10
100.86895071263
 20
-141.3994655679487
 30
0.0
 10
100.86895071263
 20
-141.3994655679487
 30
0.0
 10
100.9233832212969
 20
-141.5982475774477
 30
0.0
 10
101.0505072447027
 20
-141.6282199081693
 30
0.0
 10
101.1435248228044
 20
-141.6285644177179
 30
0.0
 10
101.283051189957
 20
-141.6285644177179
 30
0.0
 10
101.4356689199536
 20
-141.5293456677427
 30
0.0
 10
101.4360134295021
 20
-141.2968017224883
 30
0.0
 10
101.4367024485992
 20
-141.0408311279342
 30
0.0
 10
101.2568684642691
 20
-140.9705511800352
 30
0.0
 10
101.1362901222854
 20
-140.9705511800352
 30
0.0
 10
101.1045952438211
 20
-140.9702066704866
 30
0.0
 10
100.9626573098288
 20
-140.9702066704866
 30
0.0
 10
100.8737738463093
 20
-141.099053241635
 30
0.0
 10
100.8737738463093
 20
-141.099053241635
 30
0.0
 10
100.6980739765616
 20
-141.0797607069176
 30
0.0
 10
100.6980739765616
 20
-141.0797607069176
 30
0.0
 10
100.6980739765616
 20
-141.0797607069176
 30
0.0
 10
100.8200303567394
 20
-140.2336452557402
 30
0.0
 10
100.8200303567394
 20
-140.2336452557402
 30
0.0
 10
100.8200303567394
 20
-140.2336452557402
 30
0.0
 10
101.5986219364059
 20
-140.2350232939343
 30
0.0
 10
101.5986219364059
 20
-140.2350232939343
 30
0.0
 10
101.5986219364059
 20
-140.2350232939343
 30
0.0
 10
101.5982774268574
 20
-140.4296711888509
 30
0.0
 10
101.5982774268574
 20
-140.4296711888509
 30
0.0
 10
101.5982774268574
 20
-140.4296711888509
 30
0.0
 10
100.9826388636432
 20
-140.4286376602053
 30
0.0
 10
100.9826388636432
 20
-140.4286376602053
 30
0.0
 10
100.9826388636432
 20
-140.4286376602053
 30
0.0
 10
100.9164930303264
 20
-140.8513508762455
 30
0.0
 10
100.9164930303264
 20
-140.8513508762455
 30
0.0
 10
100.9778157299639
 20
-140.8179334500386
 30
0.0
 10
101.0604980216099
 20
-140.7776258328612
 30
0.0
 10
101.1786647967539
 20
-140.7779703424097
 30
0.0
 10
101.4325683340169
 20
-140.7783148519582
 30
0.0
 10
101.6692463938535
 20
-140.9650390272587
 30
0.0
 10
101.668901884305
 20
-141.278198206868
 30
0.0
 10
101.6682128652079
 20
-141.5954915010595
 30
0.0
 10
101.4435926395697
 20
-141.8297579940565
 30
0.0
 10
101.1411132559647
 20
-141.8294134845079
 30
0.0
  0
HATCH
  5
5C
330
55
100
AcDbEntity
  8
_U+30EC_U+30A4_U+30E4_U+30FC 1
 62
     7
420
 16777215
100
AcDbHatch
 10
0.0
 20
0.0
 30
0.0
210
0.0
220
0.0
230
1.0
  2
SOLID
 70
     1
 71
     0
 91
        1
 92
        1
 93
        1
 72
     4
 94
        3
 73
     0
 74
     1
 95
       53
 96
       49
 40
0.0
 40
0.0
 40
0.0
 40
0.0
 40
1.0
 40
1.0
 40
1.0
 40
2.0
 40
2.0
 40
2.0
 40
3.0
 40
3.0
 40
3.0
 40
4.0
 40
4.0
 40
4.0
 40
5.0
 40
5.0
 40
5.0
 40
6.0
 40
6.0
 40
6.0
 40
7.0
 40
7.0
 40
7.0
 40
8.0
 40
8.0
 40
8.0
 40
9.0
 40
9.0
 40
9.0
 40
10.0
 40
10.0
 40
10.0
 40
11.0
 40
11.0
 40
11.0
 40
12.0
 40
12.0
 40
12.0
 40
13.0
 40
13.0
 40
13.0
 40
14.0
 40
14.0
 40
14.0
 40
15.0
 40
15.0
 40
15.0
 40
16.0
 40
16.0
 40
16.0
 40
16.0
 10
101.1411132559647
 20
-141.8294134845079
 10
101.062565078901
 20
-141.8290689749594
 10
100.9612792716347
 20
-141.8121880070817
 10
100.8596489548198
 20
-141.7484537406046
 10
100.6863606519117
 20
-141.6382106850766
 10
100.6656900790002
 20
-141.5069525470886
 10
100.6467420538314
 20
-141.3991210584002
 10
100.6467420538314
 20
-141.3991210584002
 10
100.86895071263
 20
-141.3994655679487
 10
100.86895071263
 20
-141.3994655679487
 10
100.9233832212969
 20
-141.5982475774477
 10
101.0505072447027
 20
-141.6282199081693
 10
101.1435248228044
 20
-141.6285644177179
 10
101.283051189957
 20
-141.6285644177179
 10
101.4356689199536
 20
-141.5293456677427
 10
101.4360134295021
 20
-141.2968017224883
 10
101.4367024485992
 20
-141.0408311279342
 10
101.2568684642691
 20
-140.9705511800352
 10
101.1362901222854
 20
-140.9705511800352
 10
101.1045952438211
 20
-140.9702066704866
 10
100.9626573098288
 20
-140.9702066704866
 10
100.8737738463093
 20
-141.099053241635
 10
100.8737738463093
 20
-141.099053241635
 10
100.6980739765616
 20
-141.0797607069176
 10
100.6980739765616
 20
-141.0797607069176
 10
100.6980739765616
 20
-141.0797607069176
 10
100.8200303567394
 20
-140.2336452557402
 10
100.8200303567394
 20
-140.2336452557402
 10
100.8200303567394
 20
-140.2336452557402
 10
101.5986219364059
 20
-140.2350232939343
 10
101.5986219364059
 20
-140.2350232939343
 10
101.5986219364059
 20
-140.2350232939343
 10
101.5982774268574
 20
-140.4296711888509
 10
101.5982774268574
 20
-140.4296711888509
 10
101.5982774268574
 20
-140.4296711888509
 10
100.9826388636432
 20
-140.4286376602053
 10
100.9826388636432
 20
-140.4286376602053
 10
100.9826388636432
 20
-140.4286376602053
 10
100.9164930303264
 20
-140.8513508762455
 10
100.9164930303264
 20
-140.8513508762455
 10
100.9778157299639
 20
-140.8179334500386
 10
101.0604980216099
 20
-140.7776258328612
 10
101.1786647967539
 20
-140.7779703424097
 10
101.4325683340169
 20
-140.7783148519582
 10
101.6692463938535
 20
-140.9650390272587
 10
101.668901884305
 20
-141.278198206868
 10
101.6682128652079
 20
-141.5954915010595
 10
101.4435926395697
 20
-141.8297579940565
 10
101.1411132559647
 20
-141.8294134845079
 97
        0
 97
        0
 75
     2
 76
     1
 98
        0
  0
ENDBLK
  5
58
330
55
100
AcDbEntity
  8
0
100
AcDbBlockEnd
  0
BLOCK
  5
6F
330
6D
100
AcDbEntity
  8
0
100
AcDbBlockBegin
  2
block 3
 70
     0
 10
0.0
 20
0.0
 30
0.0
  3
block 3
  1

  0
SPLINE
  5
71
330
6D
100
AcDbEntity
  8
_U+30EC_U+30A4_U+30E4_U+30FC 1
370
     0
100
AcDbSpline
210
0.0
220
0.0
230
1.0
 70
    11
 71
     3
 72
    26
 73
    22
 74
     0
 42
0.0000000001
 43
0.0000000001
 12
1.0
 22
0.0
 32
0.0
 13
1.0
 23
0.0
 33
0.0
 40
0.0
 40
0.0
 40
0.0
 40
0.0
 40
1.0
 40
1.0
 40
1.0
 40
2.0
 40
2.0
 40
2.0
 40
3.0
 40
3.0
 40
3.0
 40
4.0
 40
4.0
 40
4.0
 40
5.0
 40
5.0
 40
5.0
 40
6.0
 40
6.0
 40
6.0
 40
7.0
 40
7.0
 40
7.0
 40
7.0
 10
115.4334363860722
 20
-135.2093180000518
 30
0.0
 10
115.4334363860722
 20
-135.2093180000518
 30
0.0
 10
114.3292832830496
 20
-135.2075954523092
 30
0.0
 10
114.3292832830496
 20
-135.2075954523092
 30
0.0
 10
114.3292832830496
 20
-135.2075954523092
 30
0.0
 10
114.3289387735011
 20
-135.5376355997961
 30
0.0
 10
114.3289387735011
 20
-135.5376355997961
 30
0.0
 10
114.3289387735011
 20
-135.5376355997961
 30
0.0
 10
114.1807996676354
 20
-135.5372910902476
 30
0.0
 10
114.1807996676354
 20
-135.5372910902476
 30
0.0
 10
114.1663302665973
 20
-135.2051838854696
 30
0.0
 10
114.0037217596935
 20
-135.1583305868701
 30
0.0
 10
113.8893445895832
 20
-135.1283582561485
 30
0.0
 10
113.8893445895832
 20
-135.1283582561485
 30
0.0
 10
113.8900336086803
 20
-134.9822862075739
 30
0.0
 10
113.8900336086803
 20
-134.9822862075739
 30
0.0
 10
113.8900336086803
 20
-134.9822862075739
 30
0.0
 10
115.4341254051693
 20
-134.9850422839621
 30
0.0
 10
115.4341254051693
 20
-134.9850422839621
 30
0.0
 10
115.4341254051693
 20
-134.9850422839621
 30
0.0
 10
115.4334363860722
 20
-135.2093180000518
 30
0.0
 10
115.4334363860722
 20
-135.2093180000518
 30
0.0
  0
HATCH
  5
72
330
6D
100
AcDbEntity
  8
_U+30EC_U+30A4_U+30E4_U+30FC 1
 62
     7
420
 16777215
100
AcDbHatch
 10
0.0
 20
0.0
 30
0.0
210
0.0
220
0.0
230
1.0
  2
SOLID
 70
     1
 71
     0
 91
        1
 92
        1
 93
        1
 72
     4
 94
        3
 73
     0
 74
     1
 95
       26
 96
       22
 40
0.0
 40
0.0
 40
0.0
 40
0.0
 40
1.0
 40
1.0
 40
1.0
 40
2.0
 40
2.0
 40
2.0
 40
3.0
 40
3.0
 40
3.0
 40
4.0
 40
4.0
 40
4.0
 40
5.0
 40
5.0
 40
5.0
 40
6.0
 40
6.0
 40
6.0
 40
7.0
 40
7.0
 40
7.0
 40
7.0
 10
115.4334363860722
 20
-135.2093180000518
 10
115.4334363860722
 20
-135.2093180000518
 10
114.3292832830496
 20
-135.2075954523092
 10
114.3292832830496
 20
-135.2075954523092
 10
114.3292832830496
 20
-135.2075954523092
 10
114.3289387735011
 20
-135.5376355997961
 10
114.3289387735011
 20
-135.5376355997961
 10
114.3289387735011
 20
-135.5376355997961
 10
114.1807996676354
 20
-135.5372910902476
 10
114.1807996676354
 20
-135.5372910902476
 10
114.1663302665973
 20
-135.2051838854696
 10
114.0037217596935
 20
-135.1583305868701
 10
113.8893445895832
 20
-135.1283582561485
 10
113.8893445895832
 20
-135.1283582561485
 10
113.8900336086803
 20
-134.9822862075739
 10
113.8900336086803
 20
-134.9822862075739
 10
113.8900336086803
 20
-134.9822862075739
 10
115.4341254051693
 20
-134.9850422839621
 10
115.4341254051693
 20
-134.9850422839621
 10
115.4341254051693
 20
-134.9850422839621
 10
115.4334363860722
 20
-135.2093180000518
 10
115.4334363860722
 20
-135.2093180000518
 97
        0
 97
        0
 75
     2
 76
     1
 98
        0
  0
POLYLINE
  5
73
330
6D
100
AcDbEntity
  8
_U+30EC_U+30A4_U+30E4_U+30FC 1
370
     0
100
AcDb2dPolyline
 66
     1
 10
0.0
 20
0.0
 30
0.0
  0
VERTEX
  5
74
330
73
100
AcDbEntity
  8
_U+30EC_U+30A4_U+30E4_U+30FC 1
370
     0
100
AcDbVertex
100
AcDb2dVertex
 10
115.4351589338148
 20
-134.4238362294149
 30
0.0
  0
VERTEX
  5
75
330
73
100
AcDbEntity
  8
_U+30EC_U+30A4_U+30E4_U+30FC 1
370
     0
100
AcDbVertex
100
AcDb2dVertex
 10
115.1833224538431
 20
-134.4234917198663
 30
0.0
  0
VERTEX
  5
76
330
73
100
AcDbEntity
  8
_U+30EC_U+30A4_U+30E4_U+30FC 1
370
     0
100
AcDbVertex
100
AcDb2dVertex
 10
115.1840114729401
 20
-134.1716552398946
 30
0.0
  0
VERTEX
  5
77
330
73
100
AcDbEntity
  8
_U+30EC_U+30A4_U+30E4_U+30FC 1
370
     0
100
AcDbVertex
100
AcDb2dVertex
 10
115.4355034433633
 20
-134.1719997494431
 30
0.0
  0
VERTEX
  5
78
330
73
100
AcDbEntity
  8
_U+30EC_U+30A4_U+30E4_U+30FC 1
370
     0
100
AcDbVertex
100
AcDb2dVertex
 10
115.4351589338148
 20
-134.4238362294149
 30
0.0
  0
SEQEND
  5
79
330
73
100
AcDbEntity
  8
_U+30EC_U+30A4_U+30E4_U+30FC 1
370
     0
  0
HATCH
  5
7A
330
6D
100
AcDbEntity
  8
_U+30EC_U+30A4_U+30E4_U+30FC 1
 62
     7
420
 16777215
100
AcDbHatch
 10
0.0
 20
0.0
 30
0.0
210
0.0
220
0.0
230
1.0
  2
SOLID
 70
     1
 71
     0
 91
        1
 92
        1
 93
        4
 72
     1
 10
115.4351589338148
 20
-134.4238362294149
 11
115.1833224538431
 21
-134.4234917198663
 72
     1
 10
115.1833224538431
 20
-134.4234917198663
 11
115.1840114729401
 21
-134.1716552398946
 72
     1
 10
115.1840114729401
 20
-134.1716552398946
 11
115.4355034433633
 21
-134.1719997494431
 72
     1
 10
115.4355034433633
 20
-134.1719997494431
 11
115.4351589338148
 21
-134.4238362294149
 97
        0
 75
     2
 76
     1
 98
        0
  0
SPLINE
  5
7B
330
6D
100
AcDbEntity
  8
_U+30EC_U+30A4_U+30E4_U+30FC 1
370
     0
100
AcDbSpline
210
0.0
220
0.0
230
1.0
 70
    11
 71
     3
 72
    44
 73
    40
 74
     0
 42
0.0000000001
 43
0.0000000001
 12
1.0
 22
0.0
 32
0.0
 13
1.0
 23
0.0
 33
0.0
 40
0.0
 40
0.0
 40
0.0
 40
0.0
 40
1.0
 40
1.0
 40
1.0
 40
2.0
 40
2.0
 40
2.0
 40
3.0
 40
3.0
 40
3.0
 40
4.0
 40
4.0
 40
4.0
 40
5.0
 40
5.0
 40
5.0
 40
6.0
 40
6.0
 40
6.0
 40
7.0
 40
7.0
 40
7.0
 40
8.0
 40
8.0
 40
8.0
 40
9.0
 40
9.0
 40
9.0
 40
10.0
 40
10.0
 40
10.0
 40
11.0
 40
11.0
 40
11.0
 40
12.0
 40
12.0
 40
12.0
 40
13.0
 40
13.0
 40
13.0
 40
13.0
 10
114.8553493636473
 20
-133.3417317374979
 30
0.0
 10
115.0138237559688
 20
-133.5598062817142
 30
0.0
 10
115.0875487993531
 20
-133.6531683693645
 30
0.0
 10
115.231209281088
 20
-133.702088725255
 30
0.0
 10
115.231209281088
 20
-133.702088725255
 30
0.0
 10
115.2325873192821
 20
-132.9234971455886
 30
0.0
 10
115.2325873192821
 20
-132.9234971455886
 30
0.0
 10
115.2325873192821
 20
-132.9234971455886
 30
0.0
 10
115.4375705006545
 20
-132.9238416551371
 30
0.0
 10
115.4375705006545
 20
-132.9238416551371
 30
0.0
 10
115.4375705006545
 20
-132.9238416551371
 30
0.0
 10
115.4361924624604
 20
-133.9518581479356
 30
0.0
 10
115.4361924624604
 20
-133.9518581479356
 30
0.0
 10
115.0785915510915
 20
-133.9194742503743
 30
0.0
 10
115.0003878835763
 20
-133.8540174361545
 30
0.0
 10
114.7027316336507
 20
-133.4685112513551
 30
0.0
 10
114.5042941337003
 20
-133.2121961472525
 30
0.0
 10
114.4367702621894
 20
-133.1463948234842
 30
0.0
 10
114.299310952328
 20
-133.1460503139357
 30
0.0
 10
114.1807996676354
 20
-133.1460503139357
 30
0.0
 10
114.0495415296473
 20
-133.2177083000289
 30
0.0
 10
114.0491970200988
 20
-133.4144232522367
 30
0.0
 10
114.0485080010018
 20
-133.674527961373
 30
0.0
 10
114.2793293985135
 20
-133.6831407000862
 30
0.0
 10
114.395773625915
 20
-133.6879638337655
 30
0.0
 10
114.395773625915
 20
-133.6879638337655
 30
0.0
 10
114.3950846068179
 20
-133.9122395498553
 30
0.0
 10
114.3950846068179
 20
-133.9122395498553
 30
0.0
 10
114.2683050929607
 20
-133.9032823015936
 30
0.0
 10
114.1559949801416
 20
-133.8926025055894
 30
0.0
 10
114.0378282049975
 20
-133.8119872712345
 30
0.0
 10
113.8772867553848
 20
-133.7017442157065
 30
0.0
 10
113.8438693291779
 20
-133.5153645499545
 30
0.0
 10
113.8438693291779
 20
-133.3992648321016
 30
0.0
 10
113.844558348275
 20
-133.121934645539
 30
0.0
 10
114.0288709567358
 20
-132.9148844068754
 30
0.0
 10
114.3017225191676
 20
-132.915228916424
 30
0.0
 10
114.5301323498397
 20
-132.915917935521
 30
0.0
 10
114.6293510998149
 20
-133.0323621629225
 30
0.0
 10
114.8553493636473
 20
-133.3417317374979
 30
0.0
  0
HATCH
  5
7C
330
6D
100
AcDbEntity
  8
_U+30EC_U+30A4_U+30E4_U+30FC 1
 62
     7
420
 16777215
100
AcDbHatch
 10
0.0
 20
0.0
 30
0.0
210
0.0
220
0.0
230
1.0
  2
SOLID
 70
     1
 71
     0
 91
        1
 92
        1
 93
        1
 72
     4
 94
        3
 73
     0
 74
     1
 95
       44
 96
       40
 40
0.0
 40
0.0
 40
0.0
 40
0.0
 40
1.0
 40
1.0
 40
1.0
 40
2.0
 40
2.0
 40
2.0
 40
3.0
 40
3.0
 40
3.0
 40
4.0
 40
4.0
 40
4.0
 40
5.0
 40
5.0
 40
5.0
 40
6.0
 40
6.0
 40
6.0
 40
7.0
 40
7.0
 40
7.0
 40
8.0
 40
8.0
 40
8.0
 40
9.0
 40
9.0
 40
9.0
 40
10.0
 40
10.0
 40
10.0
 40
11.0
 40
11.0
 40
11.0
 40
12.0
 40
12.0
 40
12.0
 40
13.0
 40
13.0
 40
13.0
 40
13.0
 10
114.8553493636473
 20
-133.3417317374979
 10
115.0138237559688
 20
-133.5598062817142
 10
115.0875487993531
 20
-133.6531683693645
 10
115.231209281088
 20
-133.702088725255
 10
115.231209281088
 20
-133.702088725255
 10
115.2325873192821
 20
-132.9234971455886
 10
115.2325873192821
 20
-132.9234971455886
 10
115.2325873192821
 20
-132.9234971455886
 10
115.4375705006545
 20
-132.9238416551371
 10
115.4375705006545
 20
-132.9238416551371
 10
115.4375705006545
 20
-132.9238416551371
 10
115.4361924624604
 20
-133.9518581479356
 10
115.4361924624604
 20
-133.9518581479356
 10
115.0785915510915
 20
-133.9194742503743
 10
115.0003878835763
 20
-133.8540174361545
 10
114.7027316336507
 20
-133.4685112513551
 10
114.5042941337003
 20
-133.2121961472525
 10
114.4367702621894
 20
-133.1463948234842
 10
114.299310952328
 20
-133.1460503139357
 10
114.1807996676354
 20
-133.1460503139357
 10
114.0495415296473
 20
-133.2177083000289
 10
114.0491970200988
 20
-133.4144232522367
 10
114.0485080010018
 20
-133.674527961373
 10
114.2793293985135
 20
-133.6831407000862
 10
114.395773625915
 20
-133.6879638337655
 10
114.395773625915
 20
-133.6879638337655
 10
114.3950846068179
 20
-133.9122395498553
 10
114.3950846068179
 20
-133.9122395498553
 10
114.2683050929607
 20
-133.9032823015936
 10
114.1559949801416
 20
-133.8926025055894
 10
114.0378282049975
 20
-133.8119872712345
 10
113.8772867553848
 20
-133.7017442157065
 10
113.8438693291779
 20
-133.5153645499545
 10
113.8438693291779
 20
-133.3992648321016
 10
113.844558348275
 20
-133.121934645539
 10
114.0288709567358
 20
-132.9148844068754
 10
114.3017225191676
 20
-132.915228916424
 10
114.5301323498397
 20
-132.915917935521
 10
114.6293510998149
 20
-133.0323621629225
 10
114.8553493636473
 20
-133.3417317374979
 97
        0
 97
        0
 75
     2
 76
     1
 98
        0
  0
ENDBLK
  5
70
330
6D
100
AcDbEntity
  8
0
100
AcDbBlockEnd
  0
BLOCK
  5
8C
330
8A
100
AcDbEntity
  8
0
100
AcDbBlockBegin
  2
block 4
 70
     0
 10
0.0
 20
0.0
 30
0.0
  3
block 4
  1

  0
SPLINE
  5
8E
330
8A
100
AcDbEntity
  8
_U+30EC_U+30A4_U+30E4_U+30FC 1
370
     0
100
AcDbSpline
210
0.0
220
0.0
230
1.0
 70
    11
 71
     3
 72
   197
 73
   193
 74
     0
 42
0.0000000001
 43
0.0000000001
 12
1.0
 22
0.0
 32
0.0
 13
1.0
 23
0.0
 33
0.0
 40
0.0
 40
0.0
 40
0.0
 40
0.0
 40
1.0
 40
1.0
 40
1.0
 40
2.0
 40
2.0
 40
2.0
 40
3.0
 40
3.0
 40
3.0
 40
4.0
 40
4.0
 40
4.0
 40
5.0
 40
5.0
 40
5.0
 40
6.0
 40
6.0
 40
6.0
 40
7.0
 40
7.0
 40
7.0
 40
8.0
 40
8.0
 40
8.0
 40
9.0
 40
9.0
 40
9.0
 40
10.0
 40
10.0
 40
10.0
 40
11.0
 40
11.0
 40
11.0
 40
12.0
 40
12.0
 40
12.0
 40
13.0
 40
13.0
 40
13.0
 40
14.0
 40
14.0
 40
14.0
 40
15.0
 40
15.0
 40
15.0
 40
16.0
 40
16.0
 40
16.0
 40
17.0
 40
17.0
 40
17.0
 40
18.0
 40
18.0
 40
18.0
 40
19.0
 40
19.0
 40
19.0
 40
20.0
 40
20.0
 40
20.0
 40
21.0
 40
21.0
 40
21.0
 40
22.0
 40
22.0
 40
22.0
 40
23.0
 40
23.0
 40
23.0
 40
24.0
 40
24.0
 40
24.0
 40
25.0
 40
25.0
 40
25.0
 40
26.0
 40
26.0
 40
26.0
 40
27.0
 40
27.0
 40
27.0
 40
28.0
 40
28.0
 40
28.0
 40
29.0
 40
29.0
 40
29.0
 40
30.0
 40
30.0
 40
30.0
 40
31.0
 40
31.0
 40
31.0
 40
32.0
 40
32.0
 40
32.0
 40
33.0
 40
33.0
 40
33.0
 40
34.0
 40
34.0
 40
34.0
 40
35.0
 40
35.0
 40
35.0
 40
36.0
 40
36.0
 40
36.0
 40
37.0
 40
37.0
 40
37.0
 40
38.0
 40
38.0
 40
38.0
 40
39.0
 40
39.0
 40
39.0
 40
40.0
 40
40.0
 40
40.0
 40
41.0
 40
41.0
 40
41.0
 40
42.0
 40
42.0
 40
42.0
 40
43.0
 40
43.0
 40
43.0
 40
44.0
 40
44.0
 40
44.0
 40
45.0
 40
45.0
 40
45.0
 40
46.0
 40
46.0
 40
46.0
 40
47.0
 40
47.0
 40
47.0
 40
48.0
 40
48.0
 40
48.0
 40
49.0
 40
49.0
 40
49.0
 40
50.0
 40
50.0
 40
50.0
 40
51.0
 40
51.0
 40
51.0
 40
52.0
 40
52.0
 40
52.0
 40
53.0
 40
53.0
 40
53.0
 40
54.0
 40
54.0
 40
54.0
 40
55.0
 40
55.0
 40
55.0
 40
56.0
 40
56.0
 40
56.0
 40
57.0
 40
57.0
 40
57.0
 40
58.0
 40
58.0
 40
58.0
 40
59.0
 40
59.0
 40
59.0
 40
60.0
 40
60.0
 40
60.0
 40
61.0
 40
61.0
 40
61.0
 40
62.0
 40
62.0
 40
62.0
 40
63.0
 40
63.0
 40
63.0
 40
64.0
 40
64.0
 40
64.0
 40
64.0
 10
97.3556423367722
 20
-129.4422281577436
 30
0.0
 10
97.34496254076792
 20
-129.4718559789168
 30
0.0
 10
97.32188040101676
 20
-129.5183647679676
 30
0.0
 10
97.31085609546396
 20
-129.5459255318496
 30
0.0
 10
97.31085609546396
 20
-129.5459255318496
 30
0.0
 10
97.2495333958265
 20
-129.6981987522977
 30
0.0
 10
97.2495333958265
 20
-129.6981987522977
 30
0.0
 10
97.23919810937076
 20
-129.7236924588885
 30
0.0
 10
97.19027775348022
 20
-129.8356580621592
 30
0.0
 10
97.17787540973332
 20
-129.8590847114588
 30
0.0
 10
97.17580835244216
 20
-129.8652858833323
 30
0.0
 10
97.17167423785986
 20
-129.8738986220454
 30
0.0
 10
97.16926267102019
 20
-129.8800997939189
 30
0.0
 10
97.16926267102019
 20
-129.8800997939189
 30
0.0
 10
96.96014537506552
 20
-129.8273898329946
 30
0.0
 10
96.96014537506552
 20
-129.8273898329946
 30
0.0
 10
97.03800453303216
 20
-129.7174912870151
 30
0.0
 10
97.09932723266962
 20
-129.5820990344448
 30
0.0
 10
97.13102211113392
 20
-129.4718559789168
 30
0.0
 10
97.13102211113392
 20
-129.4718559789168
 30
0.0
 10
96.66593422062519
 20
-129.4718559789168
 30
0.0
 10
96.66593422062519
 20
-129.4718559789168
 30
0.0
 10
96.58531898627034
 20
-129.6368760526602
 30
0.0
 10
96.51779511475945
 20
-129.7150797201754
 30
0.0
 10
96.484033179004
 20
-129.7553873373528
 30
0.0
 10
96.484033179004
 20
-129.7553873373528
 30
0.0
 10
96.3613877797291
 20
-129.6899305231331
 30
0.0
 10
96.3613877797291
 20
-129.6899305231331
 30
0.0
 10
96.3613877797291
 20
-129.6899305231331
 30
0.0
 10
96.3613877797291
 20
-129.86115176875
 30
0.0
 10
96.3613877797291
 20
-129.86115176875
 30
0.0
 10
96.3613877797291
 20
-129.9689832574383
 30
0.0
 10
96.36345483702026
 20
-130.0179036133289
 30
0.0
 10
96.373790123476
 20
-130.123668044726
 30
0.0
 10
96.3021321373828
 20
-130.1212564778864
 30
0.0
 10
96.28077254537426
 20
-130.1212564778864
 30
0.0
 10
96.07544485445337
 20
-130.1212564778864
 30
0.0
 10
96.07544485445337
 20
-130.1212564778864
 30
0.0
 10
96.02066783623789
 20
-130.1212564778864
 30
0.0
 10
96.02066783623789
 20
-130.1212564778864
 30
0.0
 10
96.02066783623789
 20
-130.1212564778864
 30
0.0
 10
96.02066783623789
 20
-130.2566487304567
 30
0.0
 10
96.02066783623789
 20
-130.2566487304567
 30
0.0
 10
96.02066783623789
 20
-130.2566487304567
 30
0.0
 10
96.09267033187962
 20
-130.2566487304567
 30
0.0
 10
96.09267033187962
 20
-130.2566487304567
 30
0.0
 10
96.15812714609936
 20
-130.2566487304567
 30
0.0
 10
96.30419919467396
 20
-130.2525146158744
 30
0.0
 10
96.4096191165226
 20
-130.2442463867098
 30
0.0
 10
96.4096191165226
 20
-130.2442463867098
 30
0.0
 10
96.4096191165226
 20
-130.4216688042002
 30
0.0
 10
96.4096191165226
 20
-130.4216688042002
 30
0.0
 10
96.31246742383856
 20
-130.4154676323267
 30
0.0
 10
96.15399303151706
 20
-130.4113335177444
 30
0.0
 10
96.09267033187962
 20
-130.4113335177444
 30
0.0
 10
96.09267033187962
 20
-130.4113335177444
 30
0.0
 10
96.02066783623789
 20
-130.4113335177444
 30
0.0
 10
96.02066783623789
 20
-130.4113335177444
 30
0.0
 10
96.02273489352905
 20
-130.5002169812638
 30
0.0
 10
96.02721351765987
 20
-130.7389620983917
 30
0.0
 10
96.02928057495102
 20
-130.8130316513245
 30
0.0
 10
96.02928057495102
 20
-130.8130316513245
 30
0.0
 10
95.82808699861242
 20
-130.8130316513245
 30
0.0
 10
95.82808699861242
 20
-130.8130316513245
 30
0.0
 10
95.84083385190785
 20
-130.599435731239
 30
0.0
 10
95.84083385190785
 20
-130.5698079100659
 30
0.0
 10
95.84496796649015
 20
-130.4113335177444
 30
0.0
 10
95.84496796649015
 20
-130.4113335177444
 30
0.0
 10
95.77503252813958
 20
-130.4113335177444
 30
0.0
 10
95.77503252813958
 20
-130.4113335177444
 30
0.0
 10
95.71818845263296
 20
-130.4113335177444
 30
0.0
 10
95.5655707226364
 20
-130.4154676323267
 30
0.0
 10
95.45601668620544
 20
-130.4216688042002
 30
0.0
 10
95.45601668620544
 20
-130.4216688042002
 30
0.0
 10
95.45601668620544
 20
-130.2442463867098
 30
0.0
 10
95.45601668620544
 20
-130.2442463867098
 30
0.0
 10
95.5614366080541
 20
-130.2525146158744
 30
0.0
 10
95.70544159933753
 20
-130.2566487304567
 30
0.0
 10
95.77503252813958
 20
-130.2566487304567
 30
0.0
 10
95.77503252813958
 20
-130.2566487304567
 30
0.0
 10
95.84944659062097
 20
-130.2566487304567
 30
0.0
 10
95.84944659062097
 20
-130.2566487304567
 30
0.0
 10
95.84944659062097
 20
-130.2566487304567
 30
0.0
 10
95.84944659062097
 20
-130.1212564778864
 30
0.0
 10
95.84944659062097
 20
-130.1212564778864
 30
0.0
 10
95.84944659062097
 20
-130.1212564778864
 30
0.0
 10
95.80466034931273
 20
-130.1212564778864
 30
0.0
 10
95.80466034931273
 20
-130.1212564778864
 30
0.0
 10
95.72886824863723
 20
-130.1212564778864
 30
0.0
 10
95.53594290146324
 20
-130.123668044726
 30
0.0
 10
95.5021809657078
 20
-130.123668044726
 30
0.0
 10
95.50872664712976
 20
-130.0516655490843
 30
0.0
 10
95.51733938584289
 20
-129.9710503147295
 30
0.0
 10
95.51733938584289
 20
-129.8504719727457
 30
0.0
 10
95.51733938584289
 20
-129.8504719727457
 30
0.0
 10
95.51733938584289
 20
-129.6771836698377
 30
0.0
 10
95.51733938584289
 20
-129.6771836698377
 30
0.0
 10
95.51733938584289
 20
-129.6051811741959
 30
0.0
 10
95.50872664712976
 20
-129.4846028322122
 30
0.0
 10
95.5021809657078
 20
-129.4043321074059
 30
0.0
 10
95.58072914277149
 20
-129.4084662219882
 30
0.0
 10
95.61862519310924
 20
-129.4105332792793
 30
0.0
 10
95.74540470696643
 20
-129.4105332792793
 30
0.0
 10
95.74540470696643
 20
-129.4105332792793
 30
0.0
 10
95.84944659062097
 20
-129.4105332792793
 30
0.0
 10
95.84944659062097
 20
-129.4105332792793
 30
0.0
 10
95.84944659062097
 20
-129.4105332792793
 30
0.0
 10
95.84944659062097
 20
-129.2644612307047
 30
0.0
 10
95.84944659062097
 20
-129.2644612307047
 30
0.0
 10
95.84944659062097
 20
-129.2644612307047
 30
0.0
 10
95.77089841355728
 20
-129.2644612307047
 30
0.0
 10
95.77089841355728
 20
-129.2644612307047
 30
0.0
 10
95.71577688579329
 20
-129.2644612307047
 30
0.0
 10
95.54455564017637
 20
-129.2689398548355
 30
0.0
 10
95.46015080078774
 20
-129.275141026709
 30
0.0
 10
95.46015080078774
 20
-129.275141026709
 30
0.0
 10
95.46015080078774
 20
-129.0973740996701
 30
0.0
 10
95.46015080078774
 20
-129.0973740996701
 30
0.0
 10
95.54248858288521
 20
-129.1039197810921
 30
0.0
 10
95.70544159933753
 20
-129.1080538956744
 30
0.0
 10
95.77089841355728
 20
-129.1080538956744
 30
0.0
 10
95.77089841355728
 20
-129.1080538956744
 30
0.0
 10
95.84944659062097
 20
-129.1080538956744
 30
0.0
 10
95.84944659062097
 20
-129.1080538956744
 30
0.0
 10
95.84944659062097
 20
-129.0742919599189
 30
0.0
 10
95.84496796649015
 20
-128.9199516821797
 30
0.0
 10
95.84496796649015
 20
-128.8879122941669
 30
0.0
 10
95.84496796649015
 20
-128.8879122941669
 30
0.0
 10
96.04168291869792
 20
-128.9051377715932
 30
0.0
 10
96.04168291869792
 20
-128.9051377715932
 30
0.0
 10
96.05890839612417
 20
-128.9072048288843
 30
0.0
 10
96.07992347858419
 20
-128.9092718861755
 30
0.0
 10
96.07992347858419
 20
-128.9302869686355
 30
0.0
 10
96.07992347858419
 20
-128.9537136179352
 30
0.0
 10
96.05890839612417
 20
-128.9619818470998
 30
0.0
 10
96.03134763224217
 20
-128.9747287003952
 30
0.0
 10
96.03134763224217
 20
-128.9960882924038
 30
0.0
 10
96.02928057495102
 20
-129.0911729277967
 30
0.0
 10
96.02928057495102
 20
-129.1080538956744
 30
0.0
 10
96.02928057495102
 20
-129.1080538956744
 30
0.0
 10
96.08853621729732
 20
-129.1080538956744
 30
0.0
 10
96.08853621729732
 20
-129.1080538956744
 30
0.0
 10
96.15606008880822
 20
-129.1080538956744
 30
0.0
 10
96.30006508009166
 20
-129.1039197810921
 30
0.0
 10
96.4054850019403
 20
-129.0973740996701
 30
0.0
 10
96.4054850019403
 20
-129.0973740996701
 30
0.0
 10
96.4054850019403
 20
-129.275141026709
 30
0.0
 10
96.4054850019403
 20
-129.275141026709
 30
0.0
 10
96.30833330925626
 20
-129.2689398548355
 30
0.0
 10
96.15192597422592
 20
-129.2644612307047
 30
0.0
 10
96.08853621729732
 20
-129.2644612307047
 30
0.0
 10
96.08853621729732
 20
-129.2644612307047
 30
0.0
 10
96.02066783623789
 20
-129.2644612307047
 30
0.0
 10
96.02066783623789
 20
-129.2644612307047
 30
0.0
 10
96.02066783623789
 20
-129.2644612307047
 30
0.0
 10
96.02066783623789
 20
-129.4105332792793
 30
0.0
 10
96.02066783623789
 20
-129.4105332792793
 30
0.0
 10
96.02066783623789
 20
-129.4105332792793
 30
0.0
 10
96.09060327458846
 20
-129.4105332792793
 30
0.0
 10
96.09060327458846
 20
-129.4105332792793
 30
0.0
 10
96.24080943774536
 20
-129.4105332792793
 30
0.0
 10
96.31246742383856
 20
-129.406399164697
 30
0.0
 10
96.373790123476
 20
-129.4043321074059
 30
0.0
 10
96.3655218943114
 20
-129.4994167427988
 30
0.0
 10
96.36345483702026
 20
-129.5776204103139
 30
0.0
 10
96.3613877797291
 20
-129.6158609702002
 30
0.0
 10
96.5157280574683
 20
-129.4043321074059
 30
0.0
 10
96.62149248886547
 20
-129.1566297420164
 30
0.0
 10
96.6383734567432
 20
-128.8944579755889
 30
0.0
 10
96.6383734567432
 20
-128.8944579755889
 30
0.0
 10
96.85403643411983
 20
-128.9451008792221
 30
0.0
 10
96.85403643411983
 20
-128.9451008792221
 30
0.0
 10
96.86919485425493
 20
-128.9495795033529
 30
0.0
 10
96.88366425529297
 20
-128.9557806752264
 30
0.0
 10
96.88366425529297
 20
-128.9726616431041
 30
0.0
 10
96.88366425529297
 20
-128.9895426109818
 30
0.0
 10
96.87953014071067
 20
-128.9916096682729
 30
0.0
 10
96.82854272752898
 20
-129.0129692602815
 30
0.0
 10
96.81200626919978
 20
-129.0891058705055
 30
0.0
 10
96.78651256260893
 20
-129.1800563913161
 30
0.0
 10
96.73759220671839
 20
-129.3068359051733
 30
0.0
 10
96.73759220671839
 20
-129.3068359051733
 30
0.0
 10
97.07624509291844
 20
-129.3068359051733
 30
0.0
 10
97.07624509291844
 20
-129.3068359051733
 30
0.0
 10
97.11448565280472
 20
-129.3068359051733
 30
0.0
 10
97.24333222395306
 20
-129.302701790591
 30
0.0
 10
97.2922525798436
 20
-129.2965006187175
 30
0.0
 10
97.2922525798436
 20
-129.2965006187175
 30
0.0
 10
97.38527015794536
 20
-129.3660915475196
 30
0.0
 10
97.38527015794536
 20
-129.3660915475196
 30
0.0
 10
97.37665741923223
 20
-129.3874511395281
 30
0.0
 10
97.37011173781025
 20
-129.406399164697
 30
0.0
 10
97.3556423367722
 20
-129.4422281577436
 30
0.0
  0
POLYLINE
  5
8F
330
8A
100
AcDbEntity
  8
_U+30EC_U+30A4_U+30E4_U+30FC 1
370
     0
100
AcDb2dPolyline
 66
     1
 10
0.0
 20
0.0
 30
0.0
  0
VERTEX
  5
90
330
8F
100
AcDbEntity
  8
_U+30EC_U+30A4_U+30E4_U+30FC 1
370
     0
100
AcDbVertex
100
AcDb2dVertex
 10
95.84944659062097
 20
-129.5672851238582
 30
0.0
  0
VERTEX
  5
91
330
8F
100
AcDbEntity
  8
_U+30EC_U+30A4_U+30E4_U+30FC 1
370
     0
100
AcDbVertex
100
AcDb2dVertex
 10
95.69062768875096
 20
-129.5672851238582
 30
0.0
  0
VERTEX
  5
92
330
8F
100
AcDbEntity
  8
_U+30EC_U+30A4_U+30E4_U+30FC 1
370
     0
100
AcDbVertex
100
AcDb2dVertex
 10
95.69062768875096
 20
-129.6961316950065
 30
0.0
  0
VERTEX
  5
93
330
8F
100
AcDbEntity
  8
_U+30EC_U+30A4_U+30E4_U+30FC 1
370
     0
100
AcDbVertex
100
AcDb2dVertex
 10
95.84944659062097
 20
-129.6961316950065
 30
0.0
  0
VERTEX
  5
94
330
8F
100
AcDbEntity
  8
_U+30EC_U+30A4_U+30E4_U+30FC 1
370
     0
100
AcDbVertex
100
AcDb2dVertex
 10
95.84944659062097
 20
-129.5672851238582
 30
0.0
  0
SEQEND
  5
95
330
8F
100
AcDbEntity
  8
_U+30EC_U+30A4_U+30E4_U+30FC 1
370
     0
  0
POLYLINE
  5
96
330
8A
100
AcDbEntity
  8
_U+30EC_U+30A4_U+30E4_U+30FC 1
370
     0
100
AcDb2dPolyline
 66
     1
 10
0.0
 20
0.0
 30
0.0
  0
VERTEX
  5
97
330
96
100
AcDbEntity
  8
_U+30EC_U+30A4_U+30E4_U+30FC 1
370
     0
100
AcDbVertex
100
AcDb2dVertex
 10
95.84944659062097
 20
-129.84013668629
 30
0.0
  0
VERTEX
  5
98
330
96
100
AcDbEntity
  8
_U+30EC_U+30A4_U+30E4_U+30FC 1
370
     0
100
AcDbVertex
100
AcDb2dVertex
 10
95.69062768875096
 20
-129.84013668629
 30
0.0
  0
VERTEX
  5
99
330
96
100
AcDbEntity
  8
_U+30EC_U+30A4_U+30E4_U+30FC 1
370
     0
100
AcDbVertex
100
AcDb2dVertex
 10
95.69062768875096
 20
-129.9689832574383
 30
0.0
  0
VERTEX
  5
9A
330
96
100
AcDbEntity
  8
_U+30EC_U+30A4_U+30E4_U+30FC 1
370
     0
100
AcDbVertex
100
AcDb2dVertex
 10
95.84944659062097
 20
-129.9689832574383
 30
0.0
  0
VERTEX
  5
9B
330
96
100
AcDbEntity
  8
_U+30EC_U+30A4_U+30E4_U+30FC 1
370
     0
100
AcDbVertex
100
AcDb2dVertex
 10
95.84944659062097
 20
-129.84013668629
 30
0.0
  0
SEQEND
  5
9C
330
96
100
AcDbEntity
  8
_U+30EC_U+30A4_U+30E4_U+30FC 1
370
     0
  0
POLYLINE
  5
9D
330
8A
100
AcDbEntity
  8
_U+30EC_U+30A4_U+30E4_U+30FC 1
370
     0
100
AcDb2dPolyline
 66
     1
 10
0.0
 20
0.0
 30
0.0
  0
VERTEX
  5
9E
330
9D
100
AcDbEntity
  8
_U+30EC_U+30A4_U+30E4_U+30FC 1
370
     0
100
AcDbVertex
100
AcDb2dVertex
 10
96.18155379539905
 20
-129.5672851238582
 30
0.0
  0
VERTEX
  5
9F
330
9D
100
AcDbEntity
  8
_U+30EC_U+30A4_U+30E4_U+30FC 1
370
     0
100
AcDbVertex
100
AcDb2dVertex
 10
96.02066783623789
 20
-129.5672851238582
 30
0.0
  0
VERTEX
  5
A0
330
9D
100
AcDbEntity
  8
_U+30EC_U+30A4_U+30E4_U+30FC 1
370
     0
100
AcDbVertex
100
AcDb2dVertex
 10
96.02066783623789
 20
-129.6961316950065
 30
0.0
  0
VERTEX
  5
A1
330
9D
100
AcDbEntity
  8
_U+30EC_U+30A4_U+30E4_U+30FC 1
370
     0
100
AcDbVertex
100
AcDb2dVertex
 10
96.18155379539905
 20
-129.6961316950065
 30
0.0
  0
VERTEX
  5
A2
330
9D
100
AcDbEntity
  8
_U+30EC_U+30A4_U+30E4_U+30FC 1
370
     0
100
AcDbVertex
100
AcDb2dVertex
 10
96.18155379539905
 20
-129.5672851238582
 30
0.0
  0
SEQEND
  5
A3
330
9D
100
AcDbEntity
  8
_U+30EC_U+30A4_U+30E4_U+30FC 1
370
     0
  0
POLYLINE
  5
A4
330
8A
100
AcDbEntity
  8
_U+30EC_U+30A4_U+30E4_U+30FC 1
370
     0
100
AcDb2dPolyline
 66
     1
 10
0.0
 20
0.0
 30
0.0
  0
VERTEX
  5
A5
330
A4
100
AcDbEntity
  8
_U+30EC_U+30A4_U+30E4_U+30FC 1
370
     0
100
AcDbVertex
100
AcDb2dVertex
 10
96.18155379539905
 20
-129.84013668629
 30
0.0
  0
VERTEX
  5
A6
330
A4
100
AcDbEntity
  8
_U+30EC_U+30A4_U+30E4_U+30FC 1
370
     0
100
AcDbVertex
100
AcDb2dVertex
 10
96.02066783623789
 20
-129.84013668629
 30
0.0
  0
VERTEX
  5
A7
330
A4
100
AcDbEntity
  8
_U+30EC_U+30A4_U+30E4_U+30FC 1
370
     0
100
AcDbVertex
100
AcDb2dVertex
 10
96.02066783623789
 20
-129.9689832574383
 30
0.0
  0
VERTEX
  5
A8
330
A4
100
AcDbEntity
  8
_U+30EC_U+30A4_U+30E4_U+30FC 1
370
     0
100
AcDbVertex
100
AcDb2dVertex
 10
96.18155379539905
 20
-129.9689832574383
 30
0.0
  0
VERTEX
  5
A9
330
A4
100
AcDbEntity
  8
_U+30EC_U+30A4_U+30E4_U+30FC 1
370
     0
100
AcDbVertex
100
AcDb2dVertex
 10
96.18155379539905
 20
-129.84013668629
 30
0.0
  0
SEQEND
  5
AA
330
A4
100
AcDbEntity
  8
_U+30EC_U+30A4_U+30E4_U+30FC 1
370
     0
  0
SPLINE
  5
AB
330
8A
100
AcDbEntity
  8
_U+30EC_U+30A4_U+30E4_U+30FC 1
370
     0
100
AcDbSpline
210
0.0
220
0.0
230
1.0
 70
    11
 71
     3
 72
    41
 73
    37
 74
     0
 42
0.0000000001
 43
0.0000000001
 12
1.0
 22
0.0
 32
0.0
 13
1.0
 23
0.0
 33
0.0
 40
0.0
 40
0.0
 40
0.0
 40
0.0
 40
1.0
 40
1.0
 40
1.0
 40
2.0
 40
2.0
 40
2.0
 40
3.0
 40
3.0
 40
3.0
 40
4.0
 40
4.0
 40
4.0
 40
5.0
 40
5.0
 40
5.0
 40
6.0
 40
6.0
 40
6.0
 40
7.0
 40
7.0
 40
7.0
 40
8.0
 40
8.0
 40
8.0
 40
9.0
 40
9.0
 40
9.0
 40
10.0
 40
10.0
 40
10.0
 40
11.0
 40
11.0
 40
11.0
 40
12.0
 40
12.0
 40
12.0
 40
12.0
 10
97.27089298783505
 20
-130.798217740738
 30
0.0
 10
97.02973630386757
 20
-130.6628254881676
 30
0.0
 10
96.85196937682868
 20
-130.3668917859847
 30
0.0
 10
96.81200626919978
 20
-130.2377007052878
 30
0.0
 10
96.69142792721604
 20
-130.502284038555
 30
0.0
 10
96.5281304012152
 20
-130.6800509655939
 30
0.0
 10
96.346229359594
 20
-130.7940836261556
 30
0.0
 10
96.346229359594
 20
-130.7940836261556
 30
0.0
 10
96.14985891693476
 20
-130.6566243162942
 30
0.0
 10
96.14985891693476
 20
-130.6566243162942
 30
0.0
 10
96.2194498457368
 20
-130.6311306097033
 30
0.0
 10
96.3655218943114
 20
-130.5698079100659
 30
0.0
 10
96.4881672935863
 20
-130.4154676323267
 30
0.0
 10
96.61287975015235
 20
-130.2590602972963
 30
0.0
 10
96.70176321367178
 20
-130.0261718424935
 30
0.0
 10
96.70176321367178
 20
-129.7660671333571
 30
0.0
 10
96.70176321367178
 20
-129.6644368165422
 30
0.0
 10
96.68936086992488
 20
-129.5924343209005
 30
0.0
 10
96.67833656437209
 20
-129.5459255318496
 30
0.0
 10
96.67833656437209
 20
-129.5459255318496
 30
0.0
 10
96.88366425529297
 20
-129.5672851238582
 30
0.0
 10
96.88366425529297
 20
-129.5672851238582
 30
0.0
 10
96.90502384730152
 20
-129.5693521811493
 30
0.0
 10
96.92603892976155
 20
-129.5714192384405
 30
0.0
 10
96.92603892976155
 20
-129.5924343209005
 30
0.0
 10
96.92603892976155
 20
-129.6117268556179
 30
0.0
 10
96.91535913375728
 20
-129.6199950847825
 30
0.0
 10
96.88159719800183
 20
-129.6410101672425
 30
0.0
 10
96.87332896883723
 20
-129.8422037435811
 30
0.0
 10
96.93051755389237
 20
-130.0854274848398
 30
0.0
 10
96.99184025352982
 20
-130.2060058268235
 30
0.0
 10
97.08279077434042
 20
-130.3817056965713
 30
0.0
 10
97.27709415970851
 20
-130.5615396809013
 30
0.0
 10
97.41283092182735
 20
-130.6183837564079
 30
0.0
 10
97.41283092182735
 20
-130.6183837564079
 30
0.0
 10
97.27089298783505
 20
-130.798217740738
 30
0.0
 10
97.27089298783505
 20
-130.798217740738
 30
0.0
  0
HATCH
  5
AC
330
8A
100
AcDbEntity
  8
_U+30EC_U+30A4_U+30E4_U+30FC 1
 62
     7
420
 16777215
100
AcDbHatch
 10
0.0
 20
0.0
 30
0.0
210
0.0
220
0.0
230
1.0
  2
SOLID
 70
     1
 71
     0
 91
        6
 92
        1
 93
        1
 72
     4
 94
        3
 73
     0
 74
     1
 95
      197
 96
      193
 40
0.0
 40
0.0
 40
0.0
 40
0.0
 40
1.0
 40
1.0
 40
1.0
 40
2.0
 40
2.0
 40
2.0
 40
3.0
 40
3.0
 40
3.0
 40
4.0
 40
4.0
 40
4.0
 40
5.0
 40
5.0
 40
5.0
 40
6.0
 40
6.0
 40
6.0
 40
7.0
 40
7.0
 40
7.0
 40
8.0
 40
8.0
 40
8.0
 40
9.0
 40
9.0
 40
9.0
 40
10.0
 40
10.0
 40
10.0
 40
11.0
 40
11.0
 40
11.0
 40
12.0
 40
12.0
 40
12.0
 40
13.0
 40
13.0
 40
13.0
 40
14.0
 40
14.0
 40
14.0
 40
15.0
 40
15.0
 40
15.0
 40
16.0
 40
16.0
 40
16.0
 40
17.0
 40
17.0
 40
17.0
 40
18.0
 40
18.0
 40
18.0
 40
19.0
 40
19.0
 40
19.0
 40
20.0
 40
20.0
 40
20.0
 40
21.0
 40
21.0
 40
21.0
 40
22.0
 40
22.0
 40
22.0
 40
23.0
 40
23.0
 40
23.0
 40
24.0
 40
24.0
 40
24.0
 40
25.0
 40
25.0
 40
25.0
 40
26.0
 40
26.0
 40
26.0
 40
27.0
 40
27.0
 40
27.0
 40
28.0
 40
28.0
 40
28.0
 40
29.0
 40
29.0
 40
29.0
 40
30.0
 40
30.0
 40
30.0
 40
31.0
 40
31.0
 40
31.0
 40
32.0
 40
32.0
 40
32.0
 40
33.0
 40
33.0
 40
33.0
 40
34.0
 40
34.0
 40
34.0
 40
35.0
 40
35.0
 40
35.0
 40
36.0
 40
36.0
 40
36.0
 40
37.0
 40
37.0
 40
37.0
 40
38.0
 40
38.0
 40
38.0
 40
39.0
 40
39.0
 40
39.0
 40
40.0
 40
40.0
 40
40.0
 40
41.0
 40
41.0
 40
41.0
 40
42.0
 40
42.0
 40
42.0
 40
43.0
 40
43.0
 40
43.0
 40
44.0
 40
44.0
 40
44.0
 40
45.0
 40
45.0
 40
45.0
 40
46.0
 40
46.0
 40
46.0
 40
47.0
 40
47.0
 40
47.0
 40
48.0
 40
48.0
 40
48.0
 40
49.0
 40
49.0
 40
49.0
 40
50.0
 40
50.0
 40
50.0
 40
51.0
 40
51.0
 40
51.0
 40
52.0
 40
52.0
 40
52.0
 40
53.0
 40
53.0
 40
53.0
 40
54.0
 40
54.0
 40
54.0
 40
55.0
 40
55.0
 40
55.0
 40
56.0
 40
56.0
 40
56.0
 40
57.0
 40
57.0
 40
57.0
 40
58.0
 40
58.0
 40
58.0
 40
59.0
 40
59.0
 40
59.0
 40
60.0
 40
60.0
 40
60.0
 40
61.0
 40
61.0
 40
61.0
 40
62.0
 40
62.0
 40
62.0
 40
63.0
 40
63.0
 40
63.0
 40
64.0
 40
64.0
 40
64.0
 40
64.0
 10
97.3556423367722
 20
-129.4422281577436
 10
97.34496254076792
 20
-129.4718559789168
 10
97.32188040101676
 20
-129.5183647679676
 10
97.31085609546396
 20
-129.5459255318496
 10
97.31085609546396
 20
-129.5459255318496
 10
97.2495333958265
 20
-129.6981987522977
 10
97.2495333958265
 20
-129.6981987522977
 10
97.23919810937076
 20
-129.7236924588885
 10
97.19027775348022
 20
-129.8356580621592
 10
97.17787540973332
 20
-129.8590847114588
 10
97.17580835244216
 20
-129.8652858833323
 10
97.17167423785986
 20
-129.8738986220454
 10
97.16926267102019
 20
-129.8800997939189
 10
97.16926267102019
 20
-129.8800997939189
 10
96.96014537506552
 20
-129.8273898329946
 10
96.96014537506552
 20
-129.8273898329946
 10
97.03800453303216
 20
-129.7174912870151
 10
97.09932723266962
 20
-129.5820990344448
 10
97.13102211113392
 20
-129.4718559789168
 10
97.13102211113392
 20
-129.4718559789168
 10
96.66593422062519
 20
-129.4718559789168
 10
96.66593422062519
 20
-129.4718559789168
 10
96.58531898627034
 20
-129.6368760526602
 10
96.51779511475945
 20
-129.7150797201754
 10
96.484033179004
 20
-129.7553873373528
 10
96.484033179004
 20
-129.7553873373528
 10
96.3613877797291
 20
-129.6899305231331
 10
96.3613877797291
 20
-129.6899305231331
 10
96.3613877797291
 20
-129.6899305231331
 10
96.3613877797291
 20
-129.86115176875
 10
96.3613877797291
 20
-129.86115176875
 10
96.3613877797291
 20
-129.9689832574383
 10
96.36345483702026
 20
-130.0179036133289
 10
96.373790123476
 20
-130.123668044726
 10
96.3021321373828
 20
-130.1212564778864
 10
96.28077254537426
 20
-130.1212564778864
 10
96.07544485445337
 20
-130.1212564778864
 10
96.07544485445337
 20
-130.1212564778864
 10
96.02066783623789
 20
-130.1212564778864
 10
96.02066783623789
 20
-130.1212564778864
 10
96.02066783623789
 20
-130.1212564778864
 10
96.02066783623789
 20
-130.2566487304567
 10
96.02066783623789
 20
-130.2566487304567
 10
96.02066783623789
 20
-130.2566487304567
 10
96.09267033187962
 20
-130.2566487304567
 10
96.09267033187962
 20
-130.2566487304567
 10
96.15812714609936
 20
-130.2566487304567
 10
96.30419919467396
 20
-130.2525146158744
 10
96.4096191165226
 20
-130.2442463867098
 10
96.4096191165226
 20
-130.2442463867098
 10
96.4096191165226
 20
-130.4216688042002
 10
96.4096191165226
 20
-130.4216688042002
 10
96.31246742383856
 20
-130.4154676323267
 10
96.15399303151706
 20
-130.4113335177444
 10
96.09267033187962
 20
-130.4113335177444
 10
96.09267033187962
 20
-130.4113335177444
 10
96.02066783623789
 20
-130.4113335177444
 10
96.02066783623789
 20
-130.4113335177444
 10
96.02273489352905
 20
-130.5002169812638
 10
96.02721351765987
 20
-130.7389620983917
 10
96.02928057495102
 20
-130.8130316513245
 10
96.02928057495102
 20
-130.8130316513245
 10
95.82808699861242
 20
-130.8130316513245
 10
95.82808699861242
 20
-130.8130316513245
 10
95.84083385190785
 20
-130.599435731239
 10
95.84083385190785
 20
-130.5698079100659
 10
95.84496796649015
 20
-130.4113335177444
 10
95.84496796649015
 20
-130.4113335177444
 10
95.77503252813958
 20
-130.4113335177444
 10
95.77503252813958
 20
-130.4113335177444
 10
95.71818845263296
 20
-130.4113335177444
 10
95.5655707226364
 20
-130.4154676323267
 10
95.45601668620544
 20
-130.4216688042002
 10
95.45601668620544
 20
-130.4216688042002
 10
95.45601668620544
 20
-130.2442463867098
 10
95.45601668620544
 20
-130.2442463867098
 10
95.5614366080541
 20
-130.2525146158744
 10
95.70544159933753
 20
-130.2566487304567
 10
95.77503252813958
 20
-130.2566487304567
 10
95.77503252813958
 20
-130.2566487304567
 10
95.84944659062097
 20
-130.2566487304567
 10
95.84944659062097
 20
-130.2566487304567
 10
95.84944659062097
 20
-130.2566487304567
 10
95.84944659062097
 20
-130.1212564778864
 10
95.84944659062097
 20
-130.1212564778864
 10
95.84944659062097
 20
-130.1212564778864
 10
95.80466034931273
 20
-130.1212564778864
 10
95.80466034931273
 20
-130.1212564778864
 10
95.72886824863723
 20
-130.1212564778864
 10
95.53594290146324
 20
-130.123668044726
 10
95.5021809657078
 20
-130.123668044726
 10
95.50872664712976
 20
-130.0516655490843
 10
95.51733938584289
 20
-129.9710503147295
 10
95.51733938584289
 20
-129.8504719727457
 10
95.51733938584289
 20
-129.8504719727457
 10
95.51733938584289
 20
-129.6771836698377
 10
95.51733938584289
 20
-129.6771836698377
 10
95.51733938584289
 20
-129.6051811741959
 10
95.50872664712976
 20
-129.4846028322122
 10
95.5021809657078
 20
-129.4043321074059
 10
95.58072914277149
 20
-129.4084662219882
 10
95.61862519310924
 20
-129.4105332792793
 10
95.74540470696643
 20
-129.4105332792793
 10
95.74540470696643
 20
-129.4105332792793
 10
95.84944659062097
 20
-129.4105332792793
 10
95.84944659062097
 20
-129.4105332792793
 10
95.84944659062097
 20
-129.4105332792793
 10
95.84944659062097
 20
-129.2644612307047
 10
95.84944659062097
 20
-129.2644612307047
 10
95.84944659062097
 20
-129.2644612307047
 10
95.77089841355728
 20
-129.2644612307047
 10
95.77089841355728
 20
-129.2644612307047
 10
95.71577688579329
 20
-129.2644612307047
 10
95.54455564017637
 20
-129.2689398548355
 10
95.46015080078774
 20
-129.275141026709
 10
95.46015080078774
 20
-129.275141026709
 10
95.46015080078774
 20
-129.0973740996701
 10
95.46015080078774
 20
-129.0973740996701
 10
95.54248858288521
 20
-129.1039197810921
 10
95.70544159933753
 20
-129.1080538956744
 10
95.77089841355728
 20
-129.1080538956744
 10
95.77089841355728
 20
-129.1080538956744
 10
95.84944659062097
 20
-129.1080538956744
 10
95.84944659062097
 20
-129.1080538956744
 10
95.84944659062097
 20
-129.0742919599189
 10
95.84496796649015
 20
-128.9199516821797
 10
95.84496796649015
 20
-128.8879122941669
 10
95.84496796649015
 20
-128.8879122941669
 10
96.04168291869792
 20
-128.9051377715932
 10
96.04168291869792
 20
-128.9051377715932
 10
96.05890839612417
 20
-128.9072048288843
 10
96.07992347858419
 20
-128.9092718861755
 10
96.07992347858419
 20
-128.9302869686355
 10
96.07992347858419
 20
-128.9537136179352
 10
96.05890839612417
 20
-128.9619818470998
 10
96.03134763224217
 20
-128.9747287003952
 10
96.03134763224217
 20
-128.9960882924038
 10
96.02928057495102
 20
-129.0911729277967
 10
96.02928057495102
 20
-129.1080538956744
 10
96.02928057495102
 20
-129.1080538956744
 10
96.08853621729732
 20
-129.1080538956744
 10
96.08853621729732
 20
-129.1080538956744
 10
96.15606008880822
 20
-129.1080538956744
 10
96.30006508009166
 20
-129.1039197810921
 10
96.4054850019403
 20
-129.0973740996701
 10
96.4054850019403
 20
-129.0973740996701
 10
96.4054850019403
 20
-129.275141026709
 10
96.4054850019403
 20
-129.275141026709
 10
96.30833330925626
 20
-129.2689398548355
 10
96.15192597422592
 20
-129.2644612307047
 10
96.08853621729732
 20
-129.2644612307047
 10
96.08853621729732
 20
-129.2644612307047
 10
96.02066783623789
 20
-129.2644612307047
 10
96.02066783623789
 20
-129.2644612307047
 10
96.02066783623789
 20
-129.2644612307047
 10
96.02066783623789
 20
-129.4105332792793
 10
96.02066783623789
 20
-129.4105332792793
 10
96.02066783623789
 20
-129.4105332792793
 10
96.09060327458846
 20
-129.4105332792793
 10
96.09060327458846
 20
-129.4105332792793
 10
96.24080943774536
 20
-129.4105332792793
 10
96.31246742383856
 20
-129.406399164697
 10
96.373790123476
 20
-129.4043321074059
 10
96.3655218943114
 20
-129.4994167427988
 10
96.36345483702026
 20
-129.5776204103139
 10
96.3613877797291
 20
-129.6158609702002
 10
96.5157280574683
 20
-129.4043321074059
 10
96.62149248886547
 20
-129.1566297420164
 10
96.6383734567432
 20
-128.8944579755889
 10
96.6383734567432
 20
-128.8944579755889
 10
96.85403643411983
 20
-128.9451008792221
 10
96.85403643411983
 20
-128.9451008792221
 10
96.86919485425493
 20
-128.9495795033529
 10
96.88366425529297
 20
-128.9557806752264
 10
96.88366425529297
 20
-128.9726616431041
 10
96.88366425529297
 20
-128.9895426109818
 10
96.87953014071067
 20
-128.9916096682729
 10
96.82854272752898
 20
-129.0129692602815
 10
96.81200626919978
 20
-129.0891058705055
 10
96.78651256260893
 20
-129.1800563913161
 10
96.73759220671839
 20
-129.3068359051733
 10
96.73759220671839
 20
-129.3068359051733
 10
97.07624509291844
 20
-129.3068359051733
 10
97.07624509291844
 20
-129.3068359051733
 10
97.11448565280472
 20
-129.3068359051733
 10
97.24333222395306
 20
-129.302701790591
 10
97.2922525798436
 20
-129.2965006187175
 10
97.2922525798436
 20
-129.2965006187175
 10
97.38527015794536
 20
-129.3660915475196
 10
97.38527015794536
 20
-129.3660915475196
 10
97.37665741923223
 20
-129.3874511395281
 10
97.37011173781025
 20
-129.406399164697
 10
97.3556423367722
 20
-129.4422281577436
 97
        0
 97
        0
 92
        1
 93
        4
 72
     1
 10
95.84944659062097
 20
-129.5672851238582
 11
95.69062768875096
 21
-129.5672851238582
 72
     1
 10
95.69062768875096
 20
-129.5672851238582
 11
95.69062768875096
 21
-129.6961316950065
 72
     1
 10
95.69062768875096
 20
-129.6961316950065
 11
95.84944659062097
 21
-129.6961316950065
 72
     1
 10
95.84944659062097
 20
-129.6961316950065
 11
95.84944659062097
 21
-129.5672851238582
 97
        0
 92
        1
 93
        4
 72
     1
 10
95.84944659062097
 20
-129.84013668629
 11
95.69062768875096
 21
-129.84013668629
 72
     1
 10
95.69062768875096
 20
-129.84013668629
 11
95.69062768875096
 21
-129.9689832574383
 72
     1
 10
95.69062768875096
 20
-129.9689832574383
 11
95.84944659062097
 21
-129.9689832574383
 72
     1
 10
95.84944659062097
 20
-129.9689832574383
 11
95.84944659062097
 21
-129.84013668629
 97
        0
 92
        1
 93
        4
 72
     1
 10
96.18155379539905
 20
-129.5672851238582
 11
96.02066783623789
 21
-129.5672851238582
 72
     1
 10
96.02066783623789
 20
-129.5672851238582
 11
96.02066783623789
 21
-129.6961316950065
 72
     1
 10
96.02066783623789
 20
-129.6961316950065
 11
96.18155379539905
 21
-129.6961316950065
 72
     1
 10
96.18155379539905
 20
-129.6961316950065
 11
96.18155379539905
 21
-129.5672851238582
 97
        0
 92
        1
 93
        4
 72
     1
 10
96.18155379539905
 20
-129.84013668629
 11
96.02066783623789
 21
-129.84013668629
 72
     1
 10
96.02066783623789
 20
-129.84013668629
 11
96.02066783623789
 21
-129.9689832574383
 72
     1
 10
96.02066783623789
 20
-129.9689832574383
 11
96.18155379539905
 21
-129.9689832574383
 72
     1
 10
96.18155379539905
 20
-129.9689832574383
 11
96.18155379539905
 21
-129.84013668629
 97
        0
 92
        1
 93
        1
 72
     4
 94
        3
 73
     0
 74
     1
 95
       41
 96
       37
 40
0.0
 40
0.0
 40
0.0
 40
0.0
 40
1.0
 40
1.0
 40
1.0
 40
2.0
 40
2.0
 40
2.0
 40
3.0
 40
3.0
 40
3.0
 40
4.0
 40
4.0
 40
4.0
 40
5.0
 40
5.0
 40
5.0
 40
6.0
 40
6.0
 40
6.0
 40
7.0
 40
7.0
 40
7.0
 40
8.0
 40
8.0
 40
8.0
 40
9.0
 40
9.0
 40
9.0
 40
10.0
 40
10.0
 40
10.0
 40
11.0
 40
11.0
 40
11.0
 40
12.0
 40
12.0
 40
12.0
 40
12.0
 10
97.27089298783505
 20
-130.798217740738
 10
97.02973630386757
 20
-130.6628254881676
 10
96.85196937682868
 20
-130.3668917859847
 10
96.81200626919978
 20
-130.2377007052878
 10
96.69142792721604
 20
-130.502284038555
 10
96.5281304012152
 20
-130.6800509655939
 10
96.346229359594
 20
-130.7940836261556
 10
96.346229359594
 20
-130.7940836261556
 10
96.14985891693476
 20
-130.6566243162942
 10
96.14985891693476
 20
-130.6566243162942
 10
96.2194498457368
 20
-130.6311306097033
 10
96.3655218943114
 20
-130.5698079100659
 10
96.4881672935863
 20
-130.4154676323267
 10
96.61287975015235
 20
-130.2590602972963
 10
96.70176321367178
 20
-130.0261718424935
 10
96.70176321367178
 20
-129.7660671333571
 10
96.70176321367178
 20
-129.6644368165422
 10
96.68936086992488
 20
-129.5924343209005
 10
96.67833656437209
 20
-129.5459255318496
 10
96.67833656437209
 20
-129.5459255318496
 10
96.88366425529297
 20
-129.5672851238582
 10
96.88366425529297
 20
-129.5672851238582
 10
96.90502384730152
 20
-129.5693521811493
 10
96.92603892976155
 20
-129.5714192384405
 10
96.92603892976155
 20
-129.5924343209005
 10
96.92603892976155
 20
-129.6117268556179
 10
96.91535913375728
 20
-129.6199950847825
 10
96.88159719800183
 20
-129.6410101672425
 10
96.87332896883723
 20
-129.8422037435811
 10
96.93051755389237
 20
-130.0854274848398
 10
96.99184025352982
 20
-130.2060058268235
 10
97.08279077434042
 20
-130.3817056965713
 10
97.27709415970851
 20
-130.5615396809013
 10
97.41283092182735
 20
-130.6183837564079
 10
97.41283092182735
 20
-130.6183837564079
 10
97.27089298783505
 20
-130.798217740738
 10
97.27089298783505
 20
-130.798217740738
 97
        0
 97
        0
 75
     2
 76
     1
 98
        0
  0
SPLINE
  5
AD
330
8A
100
AcDbEntity
  8
_U+30EC_U+30A4_U+30E4_U+30FC 1
370
     0
100
AcDbSpline
210
0.0
220
0.0
230
1.0
 70
    11
 71
     3
 72
    71
 73
    67
 74
     0
 42
0.0000000001
 43
0.0000000001
 12
1.0
 22
0.0
 32
0.0
 13
1.0
 23
0.0
 33
0.0
 40
0.0
 40
0.0
 40
0.0
 40
0.0
 40
1.0
 40
1.0
 40
1.0
 40
2.0
 40
2.0
 40
2.0
 40
3.0
 40
3.0
 40
3.0
 40
4.0
 40
4.0
 40
4.0
 40
5.0
 40
5.0
 40
5.0
 40
6.0
 40
6.0
 40
6.0
 40
7.0
 40
7.0
 40
7.0
 40
8.0
 40
8.0
 40
8.0
 40
9.0
 40
9.0
 40
9.0
 40
10.0
 40
10.0
 40
10.0
 40
11.0
 40
11.0
 40
11.0
 40
12.0
 40
12.0
 40
12.0
 40
13.0
 40
13.0
 40
13.0
 40
14.0
 40
14.0
 40
14.0
 40
15.0
 40
15.0
 40
15.0
 40
16.0
 40
16.0
 40
16.0
 40
17.0
 40
17.0
 40
17.0
 40
18.0
 40
18.0
 40
18.0
 40
19.0
 40
19.0
 40
19.0
 40
20.0
 40
20.0
 40
20.0
 40
21.0
 40
21.0
 40
21.0
 40
22.0
 40
22.0
 40
22.0
 40
22.0
 10
98.46496308302265
 20
-129.0656792212058
 30
0.0
 10
98.4504936819846
 20
-129.0656792212058
 30
0.0
 10
98.43774682868919
 20
-129.0615451066235
 30
0.0
 10
98.41225312209833
 20
-129.0529323679104
 30
0.0
 10
98.27065969765457
 20
-129.0994411569613
 30
0.0
 10
98.09702688519798
 20
-129.1166666343875
 30
0.0
 10
97.95750051804535
 20
-129.1208007489698
 30
0.0
 10
97.95750051804535
 20
-129.1208007489698
 30
0.0
 10
97.95543346075421
 20
-129.2096842124893
 30
0.0
 10
97.95543346075421
 20
-129.2096842124893
 30
0.0
 10
97.95543346075421
 20
-129.2096842124893
 30
0.0
 10
98.21553816989056
 20
-129.2096842124893
 30
0.0
 10
98.21553816989056
 20
-129.2096842124893
 30
0.0
 10
98.26859264036341
 20
-129.2096842124893
 30
0.0
 10
98.4504936819846
 20
-129.2010714737761
 30
0.0
 10
98.4945909041958
 20
-129.1948703019027
 30
0.0
 10
98.4945909041958
 20
-129.1948703019027
 30
0.0
 10
98.4945909041958
 20
-129.3557562610638
 30
0.0
 10
98.4945909041958
 20
-129.3557562610638
 30
0.0
 10
98.43981388598033
 20
-129.3492105796419
 30
0.0
 10
98.31475691986576
 20
-129.3471435223507
 30
0.0
 10
98.27686086952801
 20
-129.3492105796419
 30
0.0
 10
98.27686086952801
 20
-129.3492105796419
 30
0.0
 10
98.27686086952801
 20
-129.4591091256214
 30
0.0
 10
98.27686086952801
 20
-129.4591091256214
 30
0.0
 10
98.27686086952801
 20
-129.5059624242207
 30
0.0
 10
98.27892792681916
 20
-129.5693521811493
 30
0.0
 10
98.28512909869261
 20
-129.6072482314871
 30
0.0
 10
98.28512909869261
 20
-129.6072482314871
 30
0.0
 10
98.09289277061568
 20
-129.6072482314871
 30
0.0
 10
98.09289277061568
 20
-129.6072482314871
 30
0.0
 10
98.09909394248912
 20
-129.5672851238582
 30
0.0
 10
98.10563962391109
 20
-129.4846028322122
 30
0.0
 10
98.10563962391109
 20
-129.4697889216256
 30
0.0
 10
98.10563962391109
 20
-129.4697889216256
 30
0.0
 10
98.10563962391109
 20
-129.3492105796419
 30
0.0
 10
98.10563962391109
 20
-129.3492105796419
 30
0.0
 10
98.10563962391109
 20
-129.3492105796419
 30
0.0
 10
97.94061955016763
 20
-129.3492105796419
 30
0.0
 10
97.94061955016763
 20
-129.3492105796419
 30
0.0
 10
97.89824487569905
 20
-129.5693521811493
 30
0.0
 10
97.84346785748359
 20
-129.6496229059557
 30
0.0
 10
97.73735891653789
 20
-129.7491861654794
 30
0.0
 10
97.73735891653789
 20
-129.7491861654794
 30
0.0
 10
97.57027178550327
 20
-129.6348089953691
 30
0.0
 10
97.57027178550327
 20
-129.6348089953691
 30
0.0
 10
97.63400605198039
 20
-129.5862331490271
 30
0.0
 10
97.78421221513729
 20
-129.4739230362079
 30
0.0
 10
97.78421221513729
 20
-129.1249348635521
 30
0.0
 10
97.78421221513729
 20
-129.0425970814546
 30
0.0
 10
97.77559947642416
 20
-128.9960882924038
 30
0.0
 10
97.76698673771104
 20
-128.9471679365132
 30
0.0
 10
97.91305878628563
 20
-128.9619818470998
 30
0.0
 10
97.9278726968722
 20
-128.9619818470998
 30
0.0
 10
97.96404619946733
 20
-128.9619818470998
 30
0.0
 10
98.07153317860713
 20
-128.9619818470998
 30
0.0
 10
98.21347111259942
 20
-128.9451008792221
 30
0.0
 10
98.37401256221206
 20
-128.8837781795846
 30
0.0
 10
98.37401256221206
 20
-128.8837781795846
 30
0.0
 10
98.48838973232235
 20
-129.0150363175726
 30
0.0
 10
98.48838973232235
 20
-129.0150363175726
 30
0.0
 10
98.4945909041958
 20
-129.0212374894461
 30
0.0
 10
98.49906952832663
 20
-129.0298502281592
 30
0.0
 10
98.49906952832663
 20
-129.0381184573238
 30
0.0
 10
98.49906952832663
 20
-129.0615451066235
 30
0.0
 10
98.48012150315775
 20
-129.0656792212058
 30
0.0
 10
98.46496308302265
 20
-129.0656792212058
 30
0.0
  0
SPLINE
  5
AE
330
8A
100
AcDbEntity
  8
_U+30EC_U+30A4_U+30E4_U+30FC 1
370
     0
100
AcDbSpline
210
0.0
220
0.0
230
1.0
 70
    11
 71
     3
 72
    74
 73
    70
 74
     0
 42
0.0000000001
 43
0.0000000001
 12
1.0
 22
0.0
 32
0.0
 13
1.0
 23
0.0
 33
0.0
 40
0.0
 40
0.0
 40
0.0
 40
0.0
 40
1.0
 40
1.0
 40
1.0
 40
2.0
 40
2.0
 40
2.0
 40
3.0
 40
3.0
 40
3.0
 40
4.0
 40
4.0
 40
4.0
 40
5.0
 40
5.0
 40
5.0
 40
6.0
 40
6.0
 40
6.0
 40
7.0
 40
7.0
 40
7.0
 40
8.0
 40
8.0
 40
8.0
 40
9.0
 40
9.0
 40
9.0
 40
10.0
 40
10.0
 40
10.0
 40
11.0
 40
11.0
 40
11.0
 40
12.0
 40
12.0
 40
12.0
 40
13.0
 40
13.0
 40
13.0
 40
14.0
 40
14.0
 40
14.0
 40
15.0
 40
15.0
 40
15.0
 40
16.0
 40
16.0
 40
16.0
 40
17.0
 40
17.0
 40
17.0
 40
18.0
 40
18.0
 40
18.0
 40
19.0
 40
19.0
 40
19.0
 40
20.0
 40
20.0
 40
20.0
 40
21.0
 40
21.0
 40
21.0
 40
22.0
 40
22.0
 40
22.0
 40
23.0
 40
23.0
 40
23.0
 40
23.0
 10
99.30281030503541
 20
-130.8323241860419
 30
0.0
 10
99.08921438494993
 20
-130.8216443900376
 30
0.0
 10
98.88836531815986
 20
-130.7348279838094
 30
0.0
 10
98.71266544841211
 20
-130.6142496418256
 30
0.0
 10
98.71266544841211
 20
-130.6142496418256
 30
0.0
 10
98.81016165064469
 20
-130.5274332355973
 30
0.0
 10
98.81016165064469
 20
-130.5274332355973
 30
0.0
 10
98.81016165064469
 20
-130.5274332355973
 30
0.0
 10
98.25791284435914
 20
-130.5274332355973
 30
0.0
 10
98.25791284435914
 20
-130.5274332355973
 30
0.0
 10
98.25791284435914
 20
-130.5274332355973
 30
0.0
 10
98.33818356916545
 20
-130.5911675020744
 30
0.0
 10
98.33818356916545
 20
-130.5911675020744
 30
0.0
 10
98.34438474103891
 20
-130.5953016166567
 30
0.0
 10
98.3554090465917
 20
-130.605981412661
 30
0.0
 10
98.3554090465917
 20
-130.6207953232476
 30
0.0
 10
98.3554090465917
 20
-130.6607584308765
 30
0.0
 10
98.28099498411031
 20
-130.654557259003
 30
0.0
 10
98.26652558307227
 20
-130.6524902017119
 30
0.0
 10
98.03570418556052
 20
-130.7920165688645
 30
0.0
 10
97.89169919427708
 20
-130.8237114473288
 30
0.0
 10
97.78834632971959
 20
-130.8405924152065
 30
0.0
 10
97.78834632971959
 20
-130.8405924152065
 30
0.0
 10
97.65915524902272
 20
-130.6628254881676
 30
0.0
 10
97.65915524902272
 20
-130.6628254881676
 30
0.0
 10
97.90685761441217
 20
-130.6311306097033
 30
0.0
 10
98.00814342167853
 20
-130.5846218206525
 30
0.0
 10
98.09702688519798
 20
-130.5319118597281
 30
0.0
 10
98.02330184181362
 20
-130.5339789170193
 30
0.0
 10
97.90892467170333
 20
-130.5360459743104
 30
0.0
 10
97.87722979323902
 20
-130.5381130316016
 30
0.0
 10
97.89169919427708
 20
-130.4492295680821
 30
0.0
 10
97.89376625156822
 20
-130.3203829969338
 30
0.0
 10
97.89376625156822
 20
-130.2463134440009
 30
0.0
 10
97.89376625156822
 20
-130.2463134440009
 30
0.0
 10
97.89376625156822
 20
-129.9459011176871
 30
0.0
 10
97.89376625156822
 20
-129.9459011176871
 30
0.0
 10
97.89376625156822
 20
-129.8463378581634
 30
0.0
 10
97.88756507969478
 20
-129.7471191081882
 30
0.0
 10
97.87722979323902
 20
-129.6496229059557
 30
0.0
 10
97.97851560050538
 20
-129.6558240778291
 30
0.0
 10
98.20933699801711
 20
-129.6623697592511
 30
0.0
 10
98.31716848670544
 20
-129.6623697592511
 30
0.0
 10
98.31716848670544
 20
-129.6623697592511
 30
0.0
 10
98.74022621229412
 20
-129.6623697592511
 30
0.0
 10
98.74022621229412
 20
-129.6623697592511
 30
0.0
 10
98.8587374969867
 20
-129.6623697592511
 30
0.0
 10
98.90111217145528
 20
-129.6623697592511
 30
0.0
 10
98.98344995355275
 20
-129.6582356446688
 30
0.0
 10
99.1315890594185
 20
-129.6516899632468
 30
0.0
 10
99.14847002729623
 20
-129.6516899632468
 30
0.0
 10
99.19497881634709
 20
-129.6496229059557
 30
0.0
 10
99.18636607763396
 20
-129.729893630762
 30
0.0
 10
99.18223196305166
 20
-129.888712532632
 30
0.0
 10
99.18223196305166
 20
-129.9710503147295
 30
0.0
 10
99.18223196305166
 20
-129.9710503147295
 30
0.0
 10
99.18223196305166
 20
-130.2566487304567
 30
0.0
 10
99.18223196305166
 20
-130.2566487304567
 30
0.0
 10
99.18223196305166
 20
-130.3286512260984
 30
0.0
 10
99.18429902034282
 20
-130.4599093640864
 30
0.0
 10
99.19497881634709
 20
-130.5381130316016
 30
0.0
 10
99.12297632070538
 20
-130.5339789170193
 30
0.0
 10
99.00033092143047
 20
-130.5319118597281
 30
0.0
 10
98.9221272539153
 20
-130.529844802437
 30
0.0
 10
99.03202579989478
 20
-130.5973686739479
 30
0.0
 10
99.18429902034282
 20
-130.6480115775811
 30
0.0
 10
99.39582788313716
 20
-130.6524902017119
 30
0.0
 10
99.39582788313716
 20
-130.6524902017119
 30
0.0
 10
99.30281030503541
 20
-130.8323241860419
 30
0.0
 10
99.30281030503541
 20
-130.8323241860419
 30
0.0
  0
POLYLINE
  5
AF
330
8A
100
AcDbEntity
  8
_U+30EC_U+30A4_U+30E4_U+30FC 1
370
     0
100
AcDb2dPolyline
 66
     1
 10
0.0
 20
0.0
 30
0.0
  0
VERTEX
  5
B0
330
AF
100
AcDbEntity
  8
_U+30EC_U+30A4_U+30E4_U+30FC 1
370
     0
100
AcDbVertex
100
AcDb2dVertex
 10
98.99826386413933
 20
-129.7977620118214
 30
0.0
  0
VERTEX
  5
B1
330
AF
100
AcDbEntity
  8
_U+30EC_U+30A4_U+30E4_U+30FC 1
370
     0
100
AcDbVertex
100
AcDb2dVertex
 10
98.08669159874222
 20
-129.7977620118214
 30
0.0
  0
VERTEX
  5
B2
330
AF
100
AcDbEntity
  8
_U+30EC_U+30A4_U+30E4_U+30FC 1
370
     0
100
AcDbVertex
100
AcDb2dVertex
 10
98.08669159874222
 20
-129.909727615092
 30
0.0
  0
VERTEX
  5
B3
330
AF
100
AcDbEntity
  8
_U+30EC_U+30A4_U+30E4_U+30FC 1
370
     0
100
AcDbVertex
100
AcDb2dVertex
 10
98.99826386413933
 20
-129.909727615092
 30
0.0
  0
VERTEX
  5
B4
330
AF
100
AcDbEntity
  8
_U+30EC_U+30A4_U+30E4_U+30FC 1
370
     0
100
AcDbVertex
100
AcDb2dVertex
 10
98.99826386413933
 20
-129.7977620118214
 30
0.0
  0
SEQEND
  5
B5
330
AF
100
AcDbEntity
  8
_U+30EC_U+30A4_U+30E4_U+30FC 1
370
     0
  0
POLYLINE
  5
B6
330
8A
100
AcDbEntity
  8
_U+30EC_U+30A4_U+30E4_U+30FC 1
370
     0
100
AcDb2dPolyline
 66
     1
 10
0.0
 20
0.0
 30
0.0
  0
VERTEX
  5
B7
330
B6
100
AcDbEntity
  8
_U+30EC_U+30A4_U+30E4_U+30FC 1
370
     0
100
AcDbVertex
100
AcDb2dVertex
 10
98.99826386413933
 20
-130.0430528103712
 30
0.0
  0
VERTEX
  5
B8
330
B6
100
AcDbEntity
  8
_U+30EC_U+30A4_U+30E4_U+30FC 1
370
     0
100
AcDbVertex
100
AcDb2dVertex
 10
98.08669159874222
 20
-130.0430528103712
 30
0.0
  0
VERTEX
  5
B9
330
B6
100
AcDbEntity
  8
_U+30EC_U+30A4_U+30E4_U+30FC 1
370
     0
100
AcDbVertex
100
AcDb2dVertex
 10
98.08669159874222
 20
-130.1532958658992
 30
0.0
  0
VERTEX
  5
BA
330
B6
100
AcDbEntity
  8
_U+30EC_U+30A4_U+30E4_U+30FC 1
370
     0
100
AcDbVertex
100
AcDb2dVertex
 10
98.99826386413933
 20
-130.1532958658992
 30
0.0
  0
VERTEX
  5
BB
330
B6
100
AcDbEntity
  8
_U+30EC_U+30A4_U+30E4_U+30FC 1
370
     0
100
AcDbVertex
100
AcDb2dVertex
 10
98.99826386413933
 20
-130.0430528103712
 30
0.0
  0
SEQEND
  5
BC
330
B6
100
AcDbEntity
  8
_U+30EC_U+30A4_U+30E4_U+30FC 1
370
     0
  0
POLYLINE
  5
BD
330
8A
100
AcDbEntity
  8
_U+30EC_U+30A4_U+30E4_U+30FC 1
370
     0
100
AcDb2dPolyline
 66
     1
 10
0.0
 20
0.0
 30
0.0
  0
VERTEX
  5
BE
330
BD
100
AcDbEntity
  8
_U+30EC_U+30A4_U+30E4_U+30FC 1
370
     0
100
AcDbVertex
100
AcDb2dVertex
 10
98.99826386413933
 20
-130.2886881184695
 30
0.0
  0
VERTEX
  5
BF
330
BD
100
AcDbEntity
  8
_U+30EC_U+30A4_U+30E4_U+30FC 1
370
     0
100
AcDbVertex
100
AcDb2dVertex
 10
98.08669159874222
 20
-130.2886881184695
 30
0.0
  0
VERTEX
  5
C0
330
BD
100
AcDbEntity
  8
_U+30EC_U+30A4_U+30E4_U+30FC 1
370
     0
100
AcDbVertex
100
AcDb2dVertex
 10
98.08669159874222
 20
-130.3965196071578
 30
0.0
  0
VERTEX
  5
C1
330
BD
100
AcDbEntity
  8
_U+30EC_U+30A4_U+30E4_U+30FC 1
370
     0
100
AcDbVertex
100
AcDb2dVertex
 10
98.99826386413933
 20
-130.3965196071578
 30
0.0
  0
VERTEX
  5
C2
330
BD
100
AcDbEntity
  8
_U+30EC_U+30A4_U+30E4_U+30FC 1
370
     0
100
AcDbVertex
100
AcDb2dVertex
 10
98.99826386413933
 20
-130.2886881184695
 30
0.0
  0
SEQEND
  5
C3
330
BD
100
AcDbEntity
  8
_U+30EC_U+30A4_U+30E4_U+30FC 1
370
     0
  0
SPLINE
  5
C4
330
8A
100
AcDbEntity
  8
_U+30EC_U+30A4_U+30E4_U+30FC 1
370
     0
100
AcDbSpline
210
0.0
220
0.0
230
1.0
 70
    11
 71
     3
 72
    74
 73
    70
 74
     0
 42
0.0000000001
 43
0.0000000001
 12
1.0
 22
0.0
 32
0.0
 13
1.0
 23
0.0
 33
0.0
 40
0.0
 40
0.0
 40
0.0
 40
0.0
 40
1.0
 40
1.0
 40
1.0
 40
2.0
 40
2.0
 40
2.0
 40
3.0
 40
3.0
 40
3.0
 40
4.0
 40
4.0
 40
4.0
 40
5.0
 40
5.0
 40
5.0
 40
6.0
 40
6.0
 40
6.0
 40
7.0
 40
7.0
 40
7.0
 40
8.0
 40
8.0
 40
8.0
 40
9.0
 40
9.0
 40
9.0
 40
10.0
 40
10.0
 40
10.0
 40
11.0
 40
11.0
 40
11.0
 40
12.0
 40
12.0
 40
12.0
 40
13.0
 40
13.0
 40
13.0
 40
14.0
 40
14.0
 40
14.0
 40
15.0
 40
15.0
 40
15.0
 40
16.0
 40
16.0
 40
16.0
 40
17.0
 40
17.0
 40
17.0
 40
18.0
 40
18.0
 40
18.0
 40
19.0
 40
19.0
 40
19.0
 40
20.0
 40
20.0
 40
20.0
 40
21.0
 40
21.0
 40
21.0
 40
22.0
 40
22.0
 40
22.0
 40
23.0
 40
23.0
 40
23.0
 40
23.0
 10
99.31555715833083
 20
-129.3450764650596
 30
0.0
 10
99.31555715833083
 20
-129.3450764650596
 30
0.0
 10
99.15467119916967
 20
-129.3450764650596
 30
0.0
 10
99.15467119916967
 20
-129.3450764650596
 30
0.0
 10
99.15467119916967
 20
-129.3450764650596
 30
0.0
 10
99.15467119916967
 20
-129.4591091256214
 30
0.0
 10
99.15467119916967
 20
-129.4591091256214
 30
0.0
 10
99.15467119916967
 20
-129.4994167427988
 30
0.0
 10
99.16121688059164
 20
-129.5734862957316
 30
0.0
 10
99.16535099517394
 20
-129.5989800023225
 30
0.0
 10
99.16535099517394
 20
-129.5989800023225
 30
0.0
 10
98.9538221323796
 20
-129.5989800023225
 30
0.0
 10
98.9538221323796
 20
-129.5989800023225
 30
0.0
 10
98.96450192838388
 20
-129.5331786785542
 30
0.0
 10
98.96656898567502
 20
-129.4739230362079
 30
0.0
 10
98.96656898567502
 20
-129.4718559789168
 30
0.0
 10
98.96656898567502
 20
-129.4718559789168
 30
0.0
 10
98.96656898567502
 20
-129.3492105796419
 30
0.0
 10
98.96656898567502
 20
-129.3492105796419
 30
0.0
 10
98.96656898567502
 20
-129.3492105796419
 30
0.0
 10
98.786735001345
 20
-129.3492105796419
 30
0.0
 10
98.786735001345
 20
-129.3492105796419
 30
0.0
 10
98.76778697617611
 20
-129.4084662219882
 30
0.0
 10
98.72127818712524
 20
-129.5545382705628
 30
0.0
 10
98.60690101701495
 20
-129.6368760526602
 30
0.0
 10
98.60690101701495
 20
-129.6368760526602
 30
0.0
 10
98.4504936819846
 20
-129.5311116212631
 30
0.0
 10
98.4504936819846
 20
-129.5311116212631
 30
0.0
 10
98.52421872536895
 20
-129.4846028322122
 30
0.0
 10
98.6406629527704
 20
-129.4105332792793
 30
0.0
 10
98.6406629527704
 20
-129.0891058705055
 30
0.0
 10
98.6406629527704
 20
-129.0339843427415
 30
0.0
 10
98.6365288381881
 20
-128.9895426109818
 30
0.0
 10
98.63446178089694
 20
-128.951646560644
 30
0.0
 10
98.71059839112097
 20
-128.9599147898086
 30
0.0
 10
98.78466794405384
 20
-128.9664604712306
 30
0.0
 10
98.84805770098244
 20
-128.9664604712306
 30
0.0
 10
99.02582462802133
 20
-128.9664604712306
 30
0.0
 10
99.22460663752024
 20
-128.9072048288843
 30
0.0
 10
99.28592933715768
 20
-128.8775770077112
 30
0.0
 10
99.28592933715768
 20
-128.8775770077112
 30
0.0
 10
99.41305336056341
 20
-129.0129692602815
 30
0.0
 10
99.41305336056341
 20
-129.0129692602815
 30
0.0
 10
99.41718747514571
 20
-129.0171033748638
 30
0.0
 10
99.41925453243685
 20
-129.0257161135769
 30
0.0
 10
99.41925453243685
 20
-129.0319172854504
 30
0.0
 10
99.41925453243685
 20
-129.0529323679104
 30
0.0
 10
99.40444062185028
 20
-129.0594780493324
 30
0.0
 10
99.38755965397256
 20
-129.0594780493324
 30
0.0
 10
99.36620006196401
 20
-129.0594780493324
 30
0.0
 10
99.35173066092597
 20
-129.0508653106192
 30
0.0
 10
99.33243812620856
 20
-129.0405300241635
 30
0.0
 10
99.1591498233005
 20
-129.0973740996701
 30
0.0
 10
98.94107527908417
 20
-129.122867806261
 30
0.0
 10
98.80809459335353
 20
-129.1249348635521
 30
0.0
 10
98.80809459335353
 20
-129.1249348635521
 30
0.0
 10
98.80361596922272
 20
-129.2076171551981
 30
0.0
 10
98.80361596922272
 20
-129.2076171551981
 30
0.0
 10
98.80361596922272
 20
-129.2076171551981
 30
0.0
 10
99.07681204120303
 20
-129.2076171551981
 30
0.0
 10
99.07681204120303
 20
-129.2076171551981
 30
0.0
 10
99.13365611670964
 20
-129.2076171551981
 30
0.0
 10
99.39582788313716
 20
-129.1883246204807
 30
0.0
 10
99.4406141244454
 20
-129.1821234486073
 30
0.0
 10
99.4406141244454
 20
-129.1821234486073
 30
0.0
 10
99.4406141244454
 20
-129.351277636933
 30
0.0
 10
99.4406141244454
 20
-129.351277636933
 30
0.0
 10
99.40685218868995
 20
-129.3471435223507
 30
0.0
 10
99.393760825846
 20
-129.3450764650596
 30
0.0
 10
99.31555715833083
 20
-129.3450764650596
 30
0.0
  0
HATCH
  5
C5
330
8A
100
AcDbEntity
  8
_U+30EC_U+30A4_U+30E4_U+30FC 1
 62
     7
420
 16777215
100
AcDbHatch
 10
0.0
 20
0.0
 30
0.0
210
0.0
220
0.0
230
1.0
  2
SOLID
 70
     1
 71
     0
 91
        6
 92
        1
 93
        1
 72
     4
 94
        3
 73
     0
 74
     1
 95
       71
 96
       67
 40
0.0
 40
0.0
 40
0.0
 40
0.0
 40
1.0
 40
1.0
 40
1.0
 40
2.0
 40
2.0
 40
2.0
 40
3.0
 40
3.0
 40
3.0
 40
4.0
 40
4.0
 40
4.0
 40
5.0
 40
5.0
 40
5.0
 40
6.0
 40
6.0
 40
6.0
 40
7.0
 40
7.0
 40
7.0
 40
8.0
 40
8.0
 40
8.0
 40
9.0
 40
9.0
 40
9.0
 40
10.0
 40
10.0
 40
10.0
 40
11.0
 40
11.0
 40
11.0
 40
12.0
 40
12.0
 40
12.0
 40
13.0
 40
13.0
 40
13.0
 40
14.0
 40
14.0
 40
14.0
 40
15.0
 40
15.0
 40
15.0
 40
16.0
 40
16.0
 40
16.0
 40
17.0
 40
17.0
 40
17.0
 40
18.0
 40
18.0
 40
18.0
 40
19.0
 40
19.0
 40
19.0
 40
20.0
 40
20.0
 40
20.0
 40
21.0
 40
21.0
 40
21.0
 40
22.0
 40
22.0
 40
22.0
 40
22.0
 10
98.46496308302265
 20
-129.0656792212058
 10
98.4504936819846
 20
-129.0656792212058
 10
98.43774682868919
 20
-129.0615451066235
 10
98.41225312209833
 20
-129.0529323679104
 10
98.27065969765457
 20
-129.0994411569613
 10
98.09702688519798
 20
-129.1166666343875
 10
97.95750051804535
 20
-129.1208007489698
 10
97.95750051804535
 20
-129.1208007489698
 10
97.95543346075421
 20
-129.2096842124893
 10
97.95543346075421
 20
-129.2096842124893
 10
97.95543346075421
 20
-129.2096842124893
 10
98.21553816989056
 20
-129.2096842124893
 10
98.21553816989056
 20
-129.2096842124893
 10
98.26859264036341
 20
-129.2096842124893
 10
98.4504936819846
 20
-129.2010714737761
 10
98.4945909041958
 20
-129.1948703019027
 10
98.4945909041958
 20
-129.1948703019027
 10
98.4945909041958
 20
-129.3557562610638
 10
98.4945909041958
 20
-129.3557562610638
 10
98.43981388598033
 20
-129.3492105796419
 10
98.31475691986576
 20
-129.3471435223507
 10
98.27686086952801
 20
-129.3492105796419
 10
98.27686086952801
 20
-129.3492105796419
 10
98.27686086952801
 20
-129.4591091256214
 10
98.27686086952801
 20
-129.4591091256214
 10
98.27686086952801
 20
-129.5059624242207
 10
98.27892792681916
 20
-129.5693521811493
 10
98.28512909869261
 20
-129.6072482314871
 10
98.28512909869261
 20
-129.6072482314871
 10
98.09289277061568
 20
-129.6072482314871
 10
98.09289277061568
 20
-129.6072482314871
 10
98.09909394248912
 20
-129.5672851238582
 10
98.10563962391109
 20
-129.4846028322122
 10
98.10563962391109
 20
-129.4697889216256
 10
98.10563962391109
 20
-129.4697889216256
 10
98.10563962391109
 20
-129.3492105796419
 10
98.10563962391109
 20
-129.3492105796419
 10
98.10563962391109
 20
-129.3492105796419
 10
97.94061955016763
 20
-129.3492105796419
 10
97.94061955016763
 20
-129.3492105796419
 10
97.89824487569905
 20
-129.5693521811493
 10
97.84346785748359
 20
-129.6496229059557
 10
97.73735891653789
 20
-129.7491861654794
 10
97.73735891653789
 20
-129.7491861654794
 10
97.57027178550327
 20
-129.6348089953691
 10
97.57027178550327
 20
-129.6348089953691
 10
97.63400605198039
 20
-129.5862331490271
 10
97.78421221513729
 20
-129.4739230362079
 10
97.78421221513729
 20
-129.1249348635521
 10
97.78421221513729
 20
-129.0425970814546
 10
97.77559947642416
 20
-128.9960882924038
 10
97.76698673771104
 20
-128.9471679365132
 10
97.91305878628563
 20
-128.9619818470998
 10
97.9278726968722
 20
-128.9619818470998
 10
97.96404619946733
 20
-128.9619818470998
 10
98.07153317860713
 20
-128.9619818470998
 10
98.21347111259942
 20
-128.9451008792221
 10
98.37401256221206
 20
-128.8837781795846
 10
98.37401256221206
 20
-128.8837781795846
 10
98.48838973232235
 20
-129.0150363175726
 10
98.48838973232235
 20
-129.0150363175726
 10
98.4945909041958
 20
-129.0212374894461
 10
98.49906952832663
 20
-129.0298502281592
 10
98.49906952832663
 20
-129.0381184573238
 10
98.49906952832663
 20
-129.0615451066235
 10
98.48012150315775
 20
-129.0656792212058
 10
98.46496308302265
 20
-129.0656792212058
 97
        0
 97
        0
 92
        1
 93
        1
 72
     4
 94
        3
 73
     0
 74
     1
 95
       74
 96
       70
 40
0.0
 40
0.0
 40
0.0
 40
0.0
 40
1.0
 40
1.0
 40
1.0
 40
2.0
 40
2.0
 40
2.0
 40
3.0
 40
3.0
 40
3.0
 40
4.0
 40
4.0
 40
4.0
 40
5.0
 40
5.0
 40
5.0
 40
6.0
 40
6.0
 40
6.0
 40
7.0
 40
7.0
 40
7.0
 40
8.0
 40
8.0
 40
8.0
 40
9.0
 40
9.0
 40
9.0
 40
10.0
 40
10.0
 40
10.0
 40
11.0
 40
11.0
 40
11.0
 40
12.0
 40
12.0
 40
12.0
 40
13.0
 40
13.0
 40
13.0
 40
14.0
 40
14.0
 40
14.0
 40
15.0
 40
15.0
 40
15.0
 40
16.0
 40
16.0
 40
16.0
 40
17.0
 40
17.0
 40
17.0
 40
18.0
 40
18.0
 40
18.0
 40
19.0
 40
19.0
 40
19.0
 40
20.0
 40
20.0
 40
20.0
 40
21.0
 40
21.0
 40
21.0
 40
22.0
 40
22.0
 40
22.0
 40
23.0
 40
23.0
 40
23.0
 40
23.0
 10
99.30281030503541
 20
-130.8323241860419
 10
99.08921438494993
 20
-130.8216443900376
 10
98.88836531815986
 20
-130.7348279838094
 10
98.71266544841211
 20
-130.6142496418256
 10
98.71266544841211
 20
-130.6142496418256
 10
98.81016165064469
 20
-130.5274332355973
 10
98.81016165064469
 20
-130.5274332355973
 10
98.81016165064469
 20
-130.5274332355973
 10
98.25791284435914
 20
-130.5274332355973
 10
98.25791284435914
 20
-130.5274332355973
 10
98.25791284435914
 20
-130.5274332355973
 10
98.33818356916545
 20
-130.5911675020744
 10
98.33818356916545
 20
-130.5911675020744
 10
98.34438474103891
 20
-130.5953016166567
 10
98.3554090465917
 20
-130.605981412661
 10
98.3554090465917
 20
-130.6207953232476
 10
98.3554090465917
 20
-130.6607584308765
 10
98.28099498411031
 20
-130.654557259003
 10
98.26652558307227
 20
-130.6524902017119
 10
98.03570418556052
 20
-130.7920165688645
 10
97.89169919427708
 20
-130.8237114473288
 10
97.78834632971959
 20
-130.8405924152065
 10
97.78834632971959
 20
-130.8405924152065
 10
97.65915524902272
 20
-130.6628254881676
 10
97.65915524902272
 20
-130.6628254881676
 10
97.90685761441217
 20
-130.6311306097033
 10
98.00814342167853
 20
-130.5846218206525
 10
98.09702688519798
 20
-130.5319118597281
 10
98.02330184181362
 20
-130.5339789170193
 10
97.90892467170333
 20
-130.5360459743104
 10
97.87722979323902
 20
-130.5381130316016
 10
97.89169919427708
 20
-130.4492295680821
 10
97.89376625156822
 20
-130.3203829969338
 10
97.89376625156822
 20
-130.2463134440009
 10
97.89376625156822
 20
-130.2463134440009
 10
97.89376625156822
 20
-129.9459011176871
 10
97.89376625156822
 20
-129.9459011176871
 10
97.89376625156822
 20
-129.8463378581634
 10
97.88756507969478
 20
-129.7471191081882
 10
97.87722979323902
 20
-129.6496229059557
 10
97.97851560050538
 20
-129.6558240778291
 10
98.20933699801711
 20
-129.6623697592511
 10
98.31716848670544
 20
-129.6623697592511
 10
98.31716848670544
 20
-129.6623697592511
 10
98.74022621229412
 20
-129.6623697592511
 10
98.74022621229412
 20
-129.6623697592511
 10
98.8587374969867
 20
-129.6623697592511
 10
98.90111217145528
 20
-129.6623697592511
 10
98.98344995355275
 20
-129.6582356446688
 10
99.1315890594185
 20
-129.6516899632468
 10
99.14847002729623
 20
-129.6516899632468
 10
99.19497881634709
 20
-129.6496229059557
 10
99.18636607763396
 20
-129.729893630762
 10
99.18223196305166
 20
-129.888712532632
 10
99.18223196305166
 20
-129.9710503147295
 10
99.18223196305166
 20
-129.9710503147295
 10
99.18223196305166
 20
-130.2566487304567
 10
99.18223196305166
 20
-130.2566487304567
 10
99.18223196305166
 20
-130.3286512260984
 10
99.18429902034282
 20
-130.4599093640864
 10
99.19497881634709
 20
-130.5381130316016
 10
99.12297632070538
 20
-130.5339789170193
 10
99.00033092143047
 20
-130.5319118597281
 10
98.9221272539153
 20
-130.529844802437
 10
99.03202579989478
 20
-130.5973686739479
 10
99.18429902034282
 20
-130.6480115775811
 10
99.39582788313716
 20
-130.6524902017119
 10
99.39582788313716
 20
-130.6524902017119
 10
99.30281030503541
 20
-130.8323241860419
 10
99.30281030503541
 20
-130.8323241860419
 97
        0
 97
        0
 92
        1
 93
        4
 72
     1
 10
98.99826386413933
 20
-129.7977620118214
 11
98.08669159874222
 21
-129.7977620118214
 72
     1
 10
98.08669159874222
 20
-129.7977620118214
 11
98.08669159874222
 21
-129.909727615092
 72
     1
 10
98.08669159874222
 20
-129.909727615092
 11
98.99826386413933
 21
-129.909727615092
 72
     1
 10
98.99826386413933
 20
-129.909727615092
 11
98.99826386413933
 21
-129.7977620118214
 97
        0
 92
        1
 93
        4
 72
     1
 10
98.99826386413933
 20
-130.0430528103712
 11
98.08669159874222
 21
-130.0430528103712
 72
     1
 10
98.08669159874222
 20
-130.0430528103712
 11
98.08669159874222
 21
-130.1532958658992
 72
     1
 10
98.08669159874222
 20
-130.1532958658992
 11
98.99826386413933
 21
-130.1532958658992
 72
     1
 10
98.99826386413933
 20
-130.1532958658992
 11
98.99826386413933
 21
-130.0430528103712
 97
        0
 92
        1
 93
        4
 72
     1
 10
98.99826386413933
 20
-130.2886881184695
 11
98.08669159874222
 21
-130.2886881184695
 72
     1
 10
98.08669159874222
 20
-130.2886881184695
 11
98.08669159874222
 21
-130.3965196071578
 72
     1
 10
98.08669159874222
 20
-130.3965196071578
 11
98.99826386413933
 21
-130.3965196071578
 72
     1
 10
98.99826386413933
 20
-130.3965196071578
 11
98.99826386413933
 21
-130.2886881184695
 97
        0
 92
        1
 93
        1
 72
     4
 94
        3
 73
     0
 74
     1
 95
       74
 96
       70
 40
0.0
 40
0.0
 40
0.0
 40
0.0
 40
1.0
 40
1.0
 40
1.0
 40
2.0
 40
2.0
 40
2.0
 40
3.0
 40
3.0
 40
3.0
 40
4.0
 40
4.0
 40
4.0
 40
5.0
 40
5.0
 40
5.0
 40
6.0
 40
6.0
 40
6.0
 40
7.0
 40
7.0
 40
7.0
 40
8.0
 40
8.0
 40
8.0
 40
9.0
 40
9.0
 40
9.0
 40
10.0
 40
10.0
 40
10.0
 40
11.0
 40
11.0
 40
11.0
 40
12.0
 40
12.0
 40
12.0
 40
13.0
 40
13.0
 40
13.0
 40
14.0
 40
14.0
 40
14.0
 40
15.0
 40
15.0
 40
15.0
 40
16.0
 40
16.0
 40
16.0
 40
17.0
 40
17.0
 40
17.0
 40
18.0
 40
18.0
 40
18.0
 40
19.0
 40
19.0
 40
19.0
 40
20.0
 40
20.0
 40
20.0
 40
21.0
 40
21.0
 40
21.0
 40
22.0
 40
22.0
 40
22.0
 40
23.0
 40
23.0
 40
23.0
 40
23.0
 10
99.31555715833083
 20
-129.3450764650596
 10
99.31555715833083
 20
-129.3450764650596
 10
99.15467119916967
 20
-129.3450764650596
 10
99.15467119916967
 20
-129.3450764650596
 10
99.15467119916967
 20
-129.3450764650596
 10
99.15467119916967
 20
-129.4591091256214
 10
99.15467119916967
 20
-129.4591091256214
 10
99.15467119916967
 20
-129.4994167427988
 10
99.16121688059164
 20
-129.5734862957316
 10
99.16535099517394
 20
-129.5989800023225
 10
99.16535099517394
 20
-129.5989800023225
 10
98.9538221323796
 20
-129.5989800023225
 10
98.9538221323796
 20
-129.5989800023225
 10
98.96450192838388
 20
-129.5331786785542
 10
98.96656898567502
 20
-129.4739230362079
 10
98.96656898567502
 20
-129.4718559789168
 10
98.96656898567502
 20
-129.4718559789168
 10
98.96656898567502
 20
-129.3492105796419
 10
98.96656898567502
 20
-129.3492105796419
 10
98.96656898567502
 20
-129.3492105796419
 10
98.786735001345
 20
-129.3492105796419
 10
98.786735001345
 20
-129.3492105796419
 10
98.76778697617611
 20
-129.4084662219882
 10
98.72127818712524
 20
-129.5545382705628
 10
98.60690101701495
 20
-129.6368760526602
 10
98.60690101701495
 20
-129.6368760526602
 10
98.4504936819846
 20
-129.5311116212631
 10
98.4504936819846
 20
-129.5311116212631
 10
98.52421872536895
 20
-129.4846028322122
 10
98.6406629527704
 20
-129.4105332792793
 10
98.6406629527704
 20
-129.0891058705055
 10
98.6406629527704
 20
-129.0339843427415
 10
98.6365288381881
 20
-128.9895426109818
 10
98.63446178089694
 20
-128.951646560644
 10
98.71059839112097
 20
-128.9599147898086
 10
98.78466794405384
 20
-128.9664604712306
 10
98.84805770098244
 20
-128.9664604712306
 10
99.02582462802133
 20
-128.9664604712306
 10
99.22460663752024
 20
-128.9072048288843
 10
99.28592933715768
 20
-128.8775770077112
 10
99.28592933715768
 20
-128.8775770077112
 10
99.41305336056341
 20
-129.0129692602815
 10
99.41305336056341
 20
-129.0129692602815
 10
99.41718747514571
 20
-129.0171033748638
 10
99.41925453243685
 20
-129.0257161135769
 10
99.41925453243685
 20
-129.0319172854504
 10
99.41925453243685
 20
-129.0529323679104
 10
99.40444062185028
 20
-129.0594780493324
 10
99.38755965397256
 20
-129.0594780493324
 10
99.36620006196401
 20
-129.0594780493324
 10
99.35173066092597
 20
-129.0508653106192
 10
99.33243812620856
 20
-129.0405300241635
 10
99.1591498233005
 20
-129.0973740996701
 10
98.94107527908417
 20
-129.122867806261
 10
98.80809459335353
 20
-129.1249348635521
 10
98.80809459335353
 20
-129.1249348635521
 10
98.80361596922272
 20
-129.2076171551981
 10
98.80361596922272
 20
-129.2076171551981
 10
98.80361596922272
 20
-129.2076171551981
 10
99.07681204120303
 20
-129.2076171551981
 10
99.07681204120303
 20
-129.2076171551981
 10
99.13365611670964
 20
-129.2076171551981
 10
99.39582788313716
 20
-129.1883246204807
 10
99.4406141244454
 20
-129.1821234486073
 10
99.4406141244454
 20
-129.1821234486073
 10
99.4406141244454
 20
-129.351277636933
 10
99.4406141244454
 20
-129.351277636933
 10
99.40685218868995
 20
-129.3471435223507
 10
99.393760825846
 20
-129.3450764650596
 10
99.31555715833083
 20
-129.3450764650596
 97
        0
 97
        0
 75
     2
 76
     1
 98
        0
  0
ENDBLK
  5
8D
330
8A
100
AcDbEntity
  8
0
100
AcDbBlockEnd
  0
ENDSEC
  0
SECTION
  2
ENTITIES
  0
POLYLINE
  5
41
330
1F
100
AcDbEntity
  8
_U+30EC_U+30A4_U+30E4_U+30FC 1
 62
     7
420
 16777215
370
    25
100
AcDb2dPolyline
 66
     1
 10
0.0
 20
0.0
 30
0.0
  0
VERTEX
  5
42
330
41
100
AcDbEntity
  8
_U+30EC_U+30A4_U+30E4_U+30FC 1
 62
     7
420
 16777215
370
    25
100
AcDbVertex
100
AcDb2dVertex
 10
113.0701079486746
 20
-138.3984263542891
 30
0.0
  0
VERTEX
  5
43
330
41
100
AcDbEntity
  8
_U+30EC_U+30A4_U+30E4_U+30FC 1
 62
     7
420
 16777215
370
    25
100
AcDbVertex
100
AcDb2dVertex
 10
113.0714837819728
 20
-137.1940430212573
 30
0.0
  0
SEQEND
  5
44
330
41
100
AcDbEntity
  8
_U+30EC_U+30A4_U+30E4_U+30FC 1
 62
     7
420
 16777215
370
    25
  0
POLYLINE
  5
45
330
1F
100
AcDbEntity
  8
_U+30EC_U+30A4_U+30E4_U+30FC 1
 62
     7
420
 16777215
370
    25
100
AcDb2dPolyline
 66
     1
 10
0.0
 20
0.0
 30
0.0
  0
VERTEX
  5
46
330
45
100
AcDbEntity
  8
_U+30EC_U+30A4_U+30E4_U+30FC 1
 62
     7
420
 16777215
370
    25
100
AcDbVertex
100
AcDb2dVertex
 10
91.57271266378547
 20
-138.3715799654069
 30
0.0
  0
VERTEX
  5
47
330
45
100
AcDbEntity
  8
_U+30EC_U+30A4_U+30E4_U+30FC 1
 62
     7
420
 16777215
370
    25
100
AcDbVertex
100
AcDb2dVertex
 10
91.5751138659953
 20
-137.2036738545881
 30
0.0
  0
SEQEND
  5
48
330
45
100
AcDbEntity
  8
_U+30EC_U+30A4_U+30E4_U+30FC 1
 62
     7
420
 16777215
370
    25
  0
SPLINE
  5
49
330
1F
100
AcDbEntity
  8
_U+30EC_U+30A4_U+30E4_U+30FC 1
 62
     7
420
 16777215
370
     9
100
AcDbSpline
210
0.0
220
0.0
230
1.0
 70
    11
 71
     3
 72
    17
 73
    13
 74
     0
 42
0.0000000001
 43
0.0000000001
 12
1.0
 22
0.0
 32
0.0
 13
1.0
 23
0.0
 33
0.0
 40
0.0
 40
0.0
 40
0.0
 40
0.0
 40
1.0
 40
1.0
 40
1.0
 40
2.0
 40
2.0
 40
2.0
 40
3.0
 40
3.0
 40
3.0
 40
4.0
 40
4.0
 40
4.0
 40
4.0
 10
116.1792795360196
 20
-137.2336599656915
 30
0.0
 10
116.1975534244423
 20
-137.1813077434823
 30
0.0
 10
116.1692959251632
 20
-137.1247927434964
 30
0.0
 10
116.1169437042766
 20
-137.1072244101678
 30
0.0
 10
116.0645944154284
 20
-137.0893032990608
 30
0.0
 10
116.0077237070631
 20
-137.1175607990542
 30
0.0
 10
115.9898055265584
 20
-137.1695602434855
 30
0.0
 10
115.972234263524
 20
-137.2215949656945
 30
0.0
 10
116.0004917628031
 20
-137.2787802434578
 30
0.0
 10
116.0528792614666
 20
-137.296348576787
 30
0.0
 10
116.1052314823532
 20
-137.3139169101161
 30
0.0
 10
116.1617112031345
 20
-137.2860121879006
 30
0.0
 10
116.1792795360196
 20
-137.2336599656915
 30
0.0
  0
SPLINE
  5
4A
330
1F
100
AcDbEntity
  8
_U+30EC_U+30A4_U+30E4_U+30FC 1
 62
     7
420
 16777215
370
     9
100
AcDbSpline
210
0.0
220
0.0
230
1.0
 70
    11
 71
     3
 72
    17
 73
    13
 74
     0
 42
0.0000000001
 43
0.0000000001
 12
1.0
 22
0.0
 32
0.0
 13
1.0
 23
0.0
 33
0.0
 40
0.0
 40
0.0
 40
0.0
 40
0.0
 40
1.0
 40
1.0
 40
1.0
 40
2.0
 40
2.0
 40
2.0
 40
3.0
 40
3.0
 40
3.0
 40
4.0
 40
4.0
 40
4.0
 40
4.0
 10
116.1775862027295
 20
-138.4363499653908
 30
0.0
 10
116.195474970951
 20
-138.3839624654041
 30
0.0
 10
116.1672527487358
 20
-138.3267771876408
 30
0.0
 10
116.1152150932096
 20
-138.3092088543116
 30
0.0
 10
116.0625100945542
 20
-138.2912877432047
 30
0.0
 10
116.0059950959961
 20
-138.3198980209758
 30
0.0
 10
115.988109263119
 20
-138.3715799654069
 30
0.0
 10
115.9705409302339
 20
-138.4242849653938
 30
0.0
 10
115.9984456517442
 20
-138.48111746538
 30
0.0
 10
116.0511506503996
 20
-138.4990385764863
 30
0.0
 10
116.1031500935174
 20
-138.5162541320377
 30
0.0
 10
116.1603353698363
 20
-138.4880319098226
 30
0.0
 10
116.1775862027295
 20
-138.4363499653908
 30
0.0
  0
SPLINE
  5
4B
330
1F
100
AcDbEntity
  8
_U+30EC_U+30A4_U+30E4_U+30FC 1
 62
     7
420
 16777215
370
     9
100
AcDbSpline
210
0.0
220
0.0
230
1.0
 70
    11
 71
     3
 72
    17
 73
    13
 74
     0
 42
0.0000000001
 43
0.0000000001
 12
1.0
 22
0.0
 32
0.0
 13
1.0
 23
0.0
 33
0.0
 40
0.0
 40
0.0
 40
0.0
 40
0.0
 40
1.0
 40
1.0
 40
1.0
 40
2.0
 40
2.0
 40
2.0
 40
3.0
 40
3.0
 40
3.0
 40
4.0
 40
4.0
 40
4.0
 40
4.0
 10
113.1631001685244
 20
-142.4302530199477
 30
0.0
 10
113.1803510014176
 20
-142.3782182977388
 30
0.0
 10
113.1527666383783
 20
-142.3217032977529
 30
0.0
 10
113.1004115590126
 20
-142.3038174644241
 30
0.0
 10
113.0473537825884
 20
-142.2862491310949
 30
0.0
 10
112.9908740618071
 20
-142.3141538533104
 30
0.0
 10
112.973305728922
 20
-142.3665060755196
 30
0.0
 10
112.9553846182681
 20
-142.4192110755065
 30
0.0
 10
112.9832893397784
 20
-142.4760435754921
 30
0.0
 10
113.0356444161853
 20
-142.493964686599
 30
0.0
 10
113.0880290593285
 20
-142.5118857977053
 30
0.0
 10
113.1448615578785
 20
-142.4832755199349
 30
0.0
 10
113.1631001685244
 20
-142.4302530199477
 30
0.0
  0
SPLINE
  5
4C
330
1F
100
AcDbEntity
  8
_U+30EC_U+30A4_U+30E4_U+30FC 1
 62
     7
420
 16777215
370
     9
100
AcDbSpline
210
0.0
220
0.0
230
1.0
 70
    11
 71
     3
 72
    17
 73
    13
 74
     0
 42
0.0000000001
 43
0.0000000001
 12
1.0
 22
0.0
 32
0.0
 13
1.0
 23
0.0
 33
0.0
 40
0.0
 40
0.0
 40
0.0
 40
0.0
 40
1.0
 40
1.0
 40
1.0
 40
2.0
 40
2.0
 40
2.0
 40
3.0
 40
3.0
 40
3.0
 40
4.0
 40
4.0
 40
4.0
 40
4.0
 10
88.17274636163694
 20
-142.3988910755116
 30
0.0
 10
88.19049108340646
 20
-142.3465388533024
 30
0.0
 10
88.16240997301176
 20
-142.2900238533165
 30
0.0
 10
88.11037525211705
 20
-142.2721027422095
 30
0.0
 10
88.05767025346167
 20
-142.2541816311032
 30
0.0
 10
88.00133164378788
 20
-142.2827919088736
 30
0.0
 10
87.98376331090275
 20
-142.3348266310832
 30
0.0
 10
87.96570108914133
 20
-142.3878491310697
 30
0.0
 10
87.99325303288286
 20
-142.4443641310556
 30
0.0
 10
88.04595803153825
 20
-142.4622852421619
 30
0.0
 10
88.09831025242485
 20
-142.4802063532689
 30
0.0
 10
88.15482525098304
 20
-142.4519488532762
 30
0.0
 10
88.17274636163694
 20
-142.3988910755116
 30
0.0
  0
POLYLINE
  5
4D
330
1F
100
AcDbEntity
  8
_U+30EC_U+30A4_U+30E4_U+30FC 1
 62
     7
420
 16777215
370
     9
100
AcDb2dPolyline
 66
     1
 10
0.0
 20
0.0
 30
0.0
  0
VERTEX
  5
4E
330
4D
100
AcDbEntity
  8
_U+30EC_U+30A4_U+30E4_U+30FC 1
 62
     7
420
 16777215
370
     9
100
AcDbVertex
100
AcDb2dVertex
 10
113.0697551709058
 20
-140.9388496869872
 30
0.0
  0
VERTEX
  5
4F
330
4D
100
AcDbEntity
  8
_U+30EC_U+30A4_U+30E4_U+30FC 1
 62
     7
420
 16777215
370
     9
100
AcDbVertex
100
AcDb2dVertex
 10
113.0666507265405
 20
-143.3986632974834
 30
0.0
  0
SEQEND
  5
50
330
4D
100
AcDbEntity
  8
_U+30EC_U+30A4_U+30E4_U+30FC 1
 62
     7
420
 16777215
370
     9
  0
POLYLINE
  5
51
330
1F
100
AcDbEntity
  8
_U+30EC_U+30A4_U+30E4_U+30FC 1
 62
     7
420
 16777215
370
     9
100
AcDb2dPolyline
 66
     1
 10
0.0
 20
0.0
 30
0.0
  0
VERTEX
  5
52
330
51
100
AcDbEntity
  8
_U+30EC_U+30A4_U+30E4_U+30FC 1
 62
     7
420
 16777215
370
     9
100
AcDbVertex
100
AcDb2dVertex
 10
88.08007164177906
 20
-140.906817464773
 30
0.0
  0
VERTEX
  5
53
330
51
100
AcDbEntity
  8
_U+30EC_U+30A4_U+30E4_U+30FC 1
 62
     7
420
 16777215
370
     9
100
AcDbVertex
100
AcDb2dVertex
 10
88.07661664464757
 20
-143.367654130825
 30
0.0
  0
SEQEND
  5
54
330
51
100
AcDbEntity
  8
_U+30EC_U+30A4_U+30E4_U+30FC 1
 62
     7
420
 16777215
370
     9
  0
INSERT
  5
56
330
1F
100
AcDbEntity
  8
_U+30EC_U+30A4_U+30E4_U+30FC 1
100
AcDbBlockReference
  2
block 2
 10
0.0
 20
0.0
 30
0.0
  0
POLYLINE
  5
5D
330
1F
100
AcDbEntity
  8
_U+30EC_U+30A4_U+30E4_U+30FC 1
 62
     7
420
 16777215
370
     9
100
AcDb2dPolyline
 66
     1
 10
0.0
 20
0.0
 30
0.0
  0
VERTEX
  5
5E
330
5D
100
AcDbEntity
  8
_U+30EC_U+30A4_U+30E4_U+30FC 1
 62
     7
420
 16777215
370
     9
100
AcDbVertex
100
AcDb2dVertex
 10
116.0849114828716
 20
-137.2016277434772
 30
0.0
  0
VERTEX
  5
5F
330
5D
100
AcDbEntity
  8
_U+30EC_U+30A4_U+30E4_U+30FC 1
 62
     7
420
 16777215
370
     9
100
AcDbVertex
100
AcDb2dVertex
 10
116.0917906493628
 20
-131.6460480226443
 30
0.0
  0
SEQEND
  5
60
330
5D
100
AcDbEntity
  8
_U+30EC_U+30A4_U+30E4_U+30FC 1
 62
     7
420
 16777215
370
     9
  0
POLYLINE
  5
61
330
1F
100
AcDbEntity
  8
_U+30EC_U+30A4_U+30E4_U+30FC 1
 62
     7
420
 16777215
370
     9
100
AcDb2dPolyline
 66
     1
 10
0.0
 20
0.0
 30
0.0
  0
VERTEX
  5
62
330
61
100
AcDbEntity
  8
_U+30EC_U+30A4_U+30E4_U+30FC 1
 62
     7
420
 16777215
370
     9
100
AcDbVertex
100
AcDb2dVertex
 10
116.0849114828716
 20
-137.2016277434772
 30
0.0
  0
VERTEX
  5
63
330
61
100
AcDbEntity
  8
_U+30EC_U+30A4_U+30E4_U+30FC 1
 62
     7
420
 16777215
370
     9
100
AcDbVertex
100
AcDb2dVertex
 10
116.0818070385064
 20
-139.404054687371
 30
0.0
  0
SEQEND
  5
64
330
61
100
AcDbEntity
  8
_U+30EC_U+30A4_U+30E4_U+30FC 1
 62
     7
420
 16777215
370
     9
  0
POLYLINE
  5
65
330
1F
100
AcDbEntity
  8
_U+30EC_U+30A4_U+30E4_U+30FC 1
 62
     7
420
 16777215
370
     9
100
AcDb2dPolyline
 66
     1
 10
0.0
 20
0.0
 30
0.0
  0
VERTEX
  5
66
330
65
100
AcDbEntity
  8
_U+30EC_U+30A4_U+30E4_U+30FC 1
 62
     7
420
 16777215
370
     9
100
AcDbVertex
100
AcDb2dVertex
 10
114.6248701312315
 20
-137.2002519101444
 30
0.0
  0
VERTEX
  5
67
330
65
100
AcDbEntity
  8
_U+30EC_U+30A4_U+30E4_U+30FC 1
 62
     7
420
 16777215
370
     9
100
AcDbVertex
100
AcDb2dVertex
 10
117.0846836795875
 20
-137.2026507990324
 30
0.0
  0
SEQEND
  5
68
330
65
100
AcDbEntity
  8
_U+30EC_U+30A4_U+30E4_U+30FC 1
 62
     7
420
 16777215
370
     9
  0
POLYLINE
  5
69
330
1F
100
AcDbEntity
  8
_U+30EC_U+30A4_U+30E4_U+30FC 1
 62
     7
420
 16777215
370
     9
100
AcDb2dPolyline
 66
     1
 10
0.0
 20
0.0
 30
0.0
  0
VERTEX
  5
6A
330
69
100
AcDbEntity
  8
_U+30EC_U+30A4_U+30E4_U+30FC 1
 62
     7
420
 16777215
370
     9
100
AcDbVertex
100
AcDb2dVertex
 10
114.6231444157884
 20
-138.4018835765104
 30
0.0
  0
VERTEX
  5
6B
330
69
100
AcDbEntity
  8
_U+30EC_U+30A4_U+30E4_U+30FC 1
 62
     7
420
 16777215
370
     9
100
AcDbVertex
100
AcDb2dVertex
 10
117.0829550685205
 20
-138.4053407987317
 30
0.0
  0
SEQEND
  5
6C
330
69
100
AcDbEntity
  8
_U+30EC_U+30A4_U+30E4_U+30FC 1
 62
     7
420
 16777215
370
     9
  0
INSERT
  5
6E
330
1F
100
AcDbEntity
  8
_U+30EC_U+30A4_U+30E4_U+30FC 1
100
AcDbBlockReference
  2
block 3
 10
0.0
 20
0.0
 30
0.0
  0
SPLINE
  5
7D
330
1F
100
AcDbEntity
  8
_U+30EC_U+30A4_U+30E4_U+30FC 1
 62
     7
420
 16777215
370
    25
100
AcDbSpline
210
0.0
220
0.0
230
1.0
 70
     8
 71
     3
 72
    38
 73
    34
 74
     0
 42
0.0000000001
 43
0.0000000001
 12
1.0
 22
0.0
 32
0.0
 13
1.0
 23
0.0
 33
0.0
 40
0.0
 40
0.0
 40
0.0
 40
0.0
 40
1.0
 40
1.0
 40
1.0
 40
2.0
 40
2.0
 40
2.0
 40
3.0
 40
3.0
 40
3.0
 40
4.0
 40
4.0
 40
4.0
 40
5.0
 40
5.0
 40
5.0
 40
6.0
 40
6.0
 40
6.0
 40
7.0
 40
7.0
 40
7.0
 40
8.0
 40
8.0
 40
8.0
 40
9.0
 40
9.0
 40
9.0
 40
10.0
 40
10.0
 40
10.0
 40
11.0
 40
11.0
 40
11.0
 40
11.0
 10
113.0714837819728
 20
-137.2036738545881
 30
0.0
 10
113.0714837819728
 20
-137.2036738545881
 30
0.0
 10
90.86285553283996
 20
-137.2071310768094
 30
0.0
 10
90.86285553283996
 20
-137.2071310768094
 30
0.0
 10
90.86285553283996
 20
-137.2071310768094
 30
0.0
 10
90.32659575113212
 20
-137.2064255212539
 30
0.0
 10
90.32659575113212
 20
-137.2064255212539
 30
0.0
 10
89.35751522029986
 20
-137.2064255212539
 30
0.0
 10
89.26381744491252
 20
-137.1017210768356
 30
0.0
 10
89.26688886657216
 20
-136.1295007993009
 30
0.0
 10
89.26688886657216
 20
-136.1295007993009
 30
0.0
 10
89.26688886657216
 20
-135.7677624660578
 30
0.0
 10
89.26688886657216
 20
-135.7677624660578
 30
0.0
 10
89.26688886657216
 20
-135.7677624660578
 30
0.0
 10
89.26688886657216
 20
-113.3980883049839
 30
0.0
 10
89.26688886657216
 20
-113.3980883049839
 30
0.0
 10
89.26688886657216
 20
-113.3980883049839
 30
0.0
 10
88.07661664464757
 20
-113.3980883049839
 30
0.0
 10
88.07661664464757
 20
-113.3980883049839
 30
0.0
 10
88.07661664464757
 20
-113.3980883049839
 30
0.0
 10
88.07661664464757
 20
-136.6042338547377
 30
0.0
 10
88.07661664464757
 20
-136.6042338547377
 30
0.0
 10
88.07661664464757
 20
-136.6042338547377
 30
0.0
 10
88.07661664464757
 20
-136.8805294102241
 30
0.0
 10
88.07661664464757
 20
-136.8805294102241
 30
0.0
 10
88.07661664464757
 20
-137.7094160766841
 30
0.0
 10
88.74823273584396
 20
-138.3812107987377
 30
0.0
 10
89.57662775538351
 20
-138.3812107987377
 30
0.0
 10
89.57662775538351
 20
-138.3812107987377
 30
0.0
 10
91.07677767643783
 20
-138.3798349654048
 30
0.0
 10
91.07677767643783
 20
-138.3798349654048
 30
0.0
 10
91.07677767643783
 20
-138.3798349654048
 30
0.0
 10
113.0701079486746
 20
-138.4084452431759
 30
0.0
 10
113.0701079486746
 20
-138.4084452431759
 30
0.0
  0
POLYLINE
  5
7E
330
1F
100
AcDbEntity
  8
_U+30EC_U+30A4_U+30E4_U+30FC 1
 62
     7
420
 16777215
370
     9
100
AcDb2dPolyline
 66
     1
 10
0.0
 20
0.0
 30
0.0
  0
VERTEX
  5
7F
330
7E
100
AcDbEntity
  8
_U+30EC_U+30A4_U+30E4_U+30FC 1
 62
     7
420
 16777215
370
     9
100
AcDbVertex
100
AcDb2dVertex
 10
90.15073603339644
 20
-136.259711077046
 30
0.0
  0
VERTEX
  5
80
330
7E
100
AcDbEntity
  8
_U+30EC_U+30A4_U+30E4_U+30FC 1
 62
     7
420
 16777215
370
     9
100
AcDbVertex
100
AcDb2dVertex
 10
91.01719351129128
 20
-135.7595074660599
 30
0.0
  0
SEQEND
  5
81
330
7E
100
AcDbEntity
  8
_U+30EC_U+30A4_U+30E4_U+30FC 1
 62
     7
420
 16777215
370
     9
  0
POLYLINE
  5
82
330
1F
100
AcDbEntity
  8
_U+30EC_U+30A4_U+30E4_U+30FC 1
 62
     7
420
 16777215
370
     9
100
AcDb2dPolyline
 66
     1
 10
0.0
 20
0.0
 30
0.0
  0
VERTEX
  5
83
330
82
100
AcDbEntity
  8
_U+30EC_U+30A4_U+30E4_U+30FC 1
 62
     7
420
 16777215
370
     9
100
AcDbVertex
100
AcDb2dVertex
 10
90.15073603339644
 20
-136.259711077046
 30
0.0
  0
VERTEX
  5
84
330
82
100
AcDbEntity
  8
_U+30EC_U+30A4_U+30E4_U+30FC 1
 62
     7
420
 16777215
370
     9
100
AcDbVertex
100
AcDb2dVertex
 10
95.16388451661149
 20
-131.2464213560771
 30
0.0
  0
SEQEND
  5
85
330
82
100
AcDbEntity
  8
_U+30EC_U+30A4_U+30E4_U+30FC 1
 62
     7
420
 16777215
370
     9
  0
POLYLINE
  5
86
330
1F
100
AcDbEntity
  8
_U+30EC_U+30A4_U+30E4_U+30FC 1
 62
     7
420
 16777215
370
     9
100
AcDb2dPolyline
 66
     1
 10
0.0
 20
0.0
 30
0.0
  0
VERTEX
  5
87
330
86
100
AcDbEntity
  8
_U+30EC_U+30A4_U+30E4_U+30FC 1
 62
     7
420
 16777215
370
     9
100
AcDbVertex
100
AcDb2dVertex
 10
90.15073603339644
 20
-136.259711077046
 30
0.0
  0
VERTEX
  5
88
330
86
100
AcDbEntity
  8
_U+30EC_U+30A4_U+30E4_U+30FC 1
 62
     7
420
 16777215
370
     9
100
AcDbVertex
100
AcDb2dVertex
 10
90.65132768729195
 20
-135.3936416328181
 30
0.0
  0
SEQEND
  5
89
330
86
100
AcDbEntity
  8
_U+30EC_U+30A4_U+30E4_U+30FC 1
 62
     7
420
 16777215
370
     9
  0
INSERT
  5
8B
330
1F
100
AcDbEntity
  8
_U+30EC_U+30A4_U+30E4_U+30FC 1
100
AcDbBlockReference
  2
block 4
 10
0.0
 20
0.0
 30
0.0
  0
POLYLINE
  5
C6
330
1F
100
AcDbEntity
  8
_U+30EC_U+30A4_U+30E4_U+30FC 1
 62
     7
420
 16777215
370
    25
100
AcDb2dPolyline
 66
     1
 10
0.0
 20
0.0
 30
0.0
  0
VERTEX
  5
C7
330
C6
100
AcDbEntity
  8
_U+30EC_U+30A4_U+30E4_U+30FC 1
 62
     7
420
 16777215
370
    25
100
AcDbVertex
100
AcDb2dVertex
 10
88.07319247528788
 20
-134.897177466276
 30
0.0
  0
VERTEX
  5
C8
330
C6
100
AcDbEntity
  8
_U+30EC_U+30A4_U+30E4_U+30FC 1
 62
     7
420
 16777215
370
    25
100
AcDbVertex
100
AcDb2dVertex
 10
89.26586355597142
 20
-134.897177466276
 30
0.0
  0
SEQEND
  5
C9
330
C6
100
AcDbEntity
  8
_U+30EC_U+30A4_U+30E4_U+30FC 1
 62
     7
420
 16777215
370
    25
  0
POLYLINE
  5
CA
330
1F
100
AcDbEntity
  8
_U+30EC_U+30A4_U+30E4_U+30FC 1
  6
AI-Linetype-1
 62
     7
420
 16777215
370
     9
100
AcDb2dPolyline
 66
     1
 10
0.0
 20
0.0
 30
0.0
  0
VERTEX
  5
CB
330
CA
100
AcDbEntity
  8
_U+30EC_U+30A4_U+30E4_U+30FC 1
  6
AI-Linetype-1
 62
     7
420
 16777215
370
     9
100
AcDbVertex
100
AcDb2dVertex
 10
88.33707024633358
 20
-138.2337849654417
 30
0.0
  0
VERTEX
  5
CC
330
CA
100
AcDbEntity
  8
_U+30EC_U+30A4_U+30E4_U+30FC 1
  6
AI-Linetype-1
 62
     7
420
 16777215
370
     9
100
AcDbVertex
100
AcDb2dVertex
 10
75.91079084113215
 20
-116.695713859715
 30
0.0
  0
VERTEX
  5
CD
330
CA
100
AcDbEntity
  8
_U+30EC_U+30A4_U+30E4_U+30FC 1
  6
AI-Linetype-1
 62
     7
420
 16777215
370
     9
100
AcDbVertex
100
AcDb2dVertex
 10
76.94912164797547
 20
-116.093169415421
 30
0.0
  0
VERTEX
  5
CE
330
CA
100
AcDbEntity
  8
_U+30EC_U+30A4_U+30E4_U+30FC 1
  6
AI-Linetype-1
 62
     7
420
 16777215
370
     9
100
AcDbVertex
100
AcDb2dVertex
 10
88.05699997570099
 20
-135.3474630217185
 30
0.0
  0
SEQEND
  5
D0
330
CA
100
AcDbEntity
  8
_U+30EC_U+30A4_U+30E4_U+30FC 1
  6
AI-Linetype-1
 62
     7
420
 16777215
370
     9
  0
POLYLINE
  5
D1
330
1F
100
AcDbEntity
  8
_U+30EC_U+30A4_U+30E4_U+30FC 1
  6
AI-Linetype-2
 62
     7
420
 16777215
370
     9
100
AcDb2dPolyline
 66
     1
 10
0.0
 20
0.0
 30
0.0
  0
VERTEX
  5
D2
330
D1
100
AcDbEntity
  8
_U+30EC_U+30A4_U+30E4_U+30FC 1
  6
AI-Linetype-2
 62
     7
420
 16777215
370
     9
100
AcDbVertex
100
AcDb2dVertex
 10
88.07661664464757
 20
-138.3812107987377
 30
0.0
  0
VERTEX
  5
D3
330
D1
100
AcDbEntity
  8
_U+30EC_U+30A4_U+30E4_U+30FC 1
  6
AI-Linetype-2
 62
     7
420
 16777215
370
     9
100
AcDbVertex
100
AcDb2dVertex
 10
64.83565029034921
 20
-129.9255860786296
 30
0.0
  0
VERTEX
  5
D4
330
D1
100
AcDbEntity
  8
_U+30EC_U+30A4_U+30E4_U+30FC 1
  6
AI-Linetype-2
 62
     7
420
 16777215
370
     9
100
AcDbVertex
100
AcDb2dVertex
 10
65.25683331701897
 20
-128.7804341344713
 30
0.0
  0
VERTEX
  5
D5
330
D1
100
AcDbEntity
  8
_U+30EC_U+30A4_U+30E4_U+30FC 1
  6
AI-Linetype-2
 62
     7
420
 16777215
370
     9
100
AcDbVertex
100
AcDb2dVertex
 10
86.79229167463306
 20
-136.614570243624
 30
0.0
  0
SEQEND
  5
D7
330
D1
100
AcDbEntity
  8
_U+30EC_U+30A4_U+30E4_U+30FC 1
  6
AI-Linetype-2
 62
     7
420
 16777215
370
     9
  0
POLYLINE
  5
D8
330
1F
100
AcDbEntity
  8
_U+30EC_U+30A4_U+30E4_U+30FC 1
 62
     7
420
 16777215
370
     9
100
AcDb2dPolyline
 66
     1
 10
0.0
 20
0.0
 30
0.0
  0
VERTEX
  5
D9
330
D8
100
AcDbEntity
  8
_U+30EC_U+30A4_U+30E4_U+30FC 1
 62
     7
420
 16777215
370
     9
100
AcDbVertex
100
AcDb2dVertex
 10
88.07816664182765
 20
-142.3668588532973
 30
0.0
  0
VERTEX
  5
DA
330
D8
100
AcDbEntity
  8
_U+30EC_U+30A4_U+30E4_U+30FC 1
 62
     7
420
 16777215
370
     9
100
AcDbVertex
100
AcDb2dVertex
 10
113.0783629484639
 20
-142.3668588532973
 30
0.0
  0
SEQEND
  5
DB
330
D8
100
AcDbEntity
  8
_U+30EC_U+30A4_U+30E4_U+30FC 1
 62
     7
420
 16777215
370
     9
  0
ENDSEC
  0
SECTION
  2
OBJECTS
  0
DICTIONARY
  5
C
330
0
100
AcDbDictionary
281
     1
  3
ACAD_GROUP
350
D
  3
ACAD_LAYOUT
350
1A
  3
ACAD_MATERIAL
350
3B
  3
ACAD_MLEADERSTYLE
350
DD
  3
ACAD_MLINESTYLE
350
17
  3
ACAD_PLOTSETTINGS
350
19
  3
ACAD_PLOTSTYLENAME
350
E
  3
ACAD_TABLESTYLE
350
DC
  3
ACAD_VISUALSTYLE
350
2A
  0
SUN
  5
3F
330
29
100
AcDbSun
 90
        1
290
     0
 63
     7
421
 16777215
 40
1.0
291
     1
 91
  2455826
 92
 54000000
292
     0
 70
     2
 71
   256
280
     1
  0
DICTIONARY
  5
D
102
{ACAD_REACTORS
330
C
102
}
330
C
100
AcDbDictionary
281
     1
  0
DICTIONARY
  5
1A
102
{ACAD_REACTORS
330
C
102
}
330
C
100
AcDbDictionary
281
     1
  3
Layout1
350
1E
  3
Layout2
350
26
  3
Model
350
22
  0
DICTIONARY
  5
3B
102
{ACAD_REACTORS
330
C
102
}
330
C
100
AcDbDictionary
281
     1
  3
ByBlock
350
3D
  3
ByLayer
350
3C
  3
Global
350
3E
  0
DICTIONARY
  5
DD
102
{ACAD_REACTORS
330
C
102
}
330
C
100
AcDbDictionary
281
     1
  0
DICTIONARY
  5
17
102
{ACAD_REACTORS
330
C
102
}
330
C
100
AcDbDictionary
281
     1
  3
Standard
350
18
  0
DICTIONARY
  5
19
102
{ACAD_REACTORS
330
C
102
}
330
C
100
AcDbDictionary
281
     1
  0
ACDBDICTIONARYWDFLT
  5
E
102
{ACAD_REACTORS
330
C
102
}
330
C
100
AcDbDictionary
281
     1
  3
Normal
350
F
100
AcDbDictionaryWithDefault
340
F
  0
DICTIONARY
  5
DC
102
{ACAD_REACTORS
330
C
102
}
330
C
100
AcDbDictionary
281
     1
  0
DICTIONARY
  5
2A
102
{ACAD_REACTORS
330
C
102
}
330
C
100
AcDbDictionary
281
     1
  3
2dWireframe
350
2F
  3
3D Hidden
350
31
  3
3dWireframe
350
30
  3
Basic
350
32
  3
Brighten
350
36
  3
ColorChange
350
3A
  3
Conceptual
350
34
  3
Dim
350
35
  3
Facepattern
350
39
  3
Flat
350
2B
  3
FlatWithEdges
350
2C
  3
Gouraud
350
2D
  3
GouraudWithEdges
350
2E
  3
Linepattern
350
38
  3
Realistic
350
33
  3
Thicken
350
37
  0
LAYOUT
  5
1E
102
{ACAD_REACTORS
330
1A
102
}
330
1A
100
AcDbPlotSettings
  1

  2
none_device
  4

  6

 40
0.0
 41
0.0
 42
0.0
 43
0.0
 44
0.0
 45
0.0
 46
0.0
 47
0.0
 48
0.0
 49
0.0
140
0.0
141
0.0
142
1.0
143
1.0
 70
   688
 72
     0
 73
     0
 74
     5
  7

 75
    16
 76
     0
 77
     2
 78
   300
147
1.0
148
0.0
149
0.0
100
AcDbLayout
  1
Layout1
 70
     1
 71
     1
 10
0.0
 20
0.0
 11
12.0
 21
9.0
 12
0.0
 22
0.0
 32
0.0
 14
1.000000000000000E+20
 24
1.000000000000000E+20
 34
1.000000000000000E+20
 15
-1.000000000000000E+20
 25
-1.000000000000000E+20
 35
-1.000000000000000E+20
146
0.0
 13
0.0
 23
0.0
 33
0.0
 16
1.0
 26
0.0
 36
0.0
 17
0.0
 27
1.0
 37
0.0
 76
     0
330
1B
  0
LAYOUT
  5
26
102
{ACAD_REACTORS
330
1A
102
}
330
1A
100
AcDbPlotSettings
  1

  2
none_device
  4

  6

 40
0.0
 41
0.0
 42
0.0
 43
0.0
 44
0.0
 45
0.0
 46
0.0
 47
0.0
 48
0.0
 49
0.0
140
0.0
141
0.0
142
1.0
143
1.0
 70
   688
 72
     0
 73
     0
 74
     5
  7

 75
    16
 76
     0
 77
     2
 78
   300
147
1.0
148
0.0
149
0.0
100
AcDbLayout
  1
Layout2
 70
     1
 71
     2
 10
0.0
 20
0.0
 11
0.0
 21
0.0
 12
0.0
 22
0.0
 32
0.0
 14
0.0
 24
0.0
 34
0.0
 15
0.0
 25
0.0
 35
0.0
146
0.0
 13
0.0
 23
0.0
 33
0.0
 16
1.0
 26
0.0
 36
0.0
 17
0.0
 27
1.0
 37
0.0
 76
     0
330
23
  0
LAYOUT
  5
22
102
{ACAD_REACTORS
330
1A
102
}
330
1A
100
AcDbPlotSettings
  1

  2
none_device
  4

  6

 40
0.0
 41
0.0
 42
0.0
 43
0.0
 44
0.0
 45
0.0
 46
0.0
 47
0.0
 48
0.0
 49
0.0
140
0.0
141
0.0
142
1.0
143
1.0
 70
  1712
 72
     0
 73
     0
 74
     0
  7

 75
     0
 76
     0
 77
     2
 78
   300
147
1.0
148
0.0
149
0.0
100
AcDbLayout
  1
Model
 70
     1
 71
     0
 10
0.0
 20
0.0
 11
12.0
 21
9.0
 12
0.0
 22
0.0
 32
0.0
 14
1.000000000000000E+20
 24
1.000000000000000E+20
 34
1.000000000000000E+20
 15
-1.000000000000000E+20
 25
-1.000000000000000E+20
 35
-1.000000000000000E+20
146
0.0
 13
0.0
 23
0.0
 33
0.0
 16
1.0
 26
0.0
 36
0.0
 17
0.0
 27
1.0
 37
0.0
 76
     0
330
1F
331
29
  0
MATERIAL
  5
3D
102
{ACAD_REACTORS
330
3B
102
}
330
3B
100
AcDbMaterial
  1
ByBlock
 72
     1
 94
      127
  0
MATERIAL
  5
3C
102
{ACAD_REACTORS
330
3B
102
}
330
3B
100
AcDbMaterial
  1
ByLayer
 72
     1
 94
      127
  0
MATERIAL
  5
3E
102
{ACAD_REACTORS
330
3B
102
}
330
3B
100
AcDbMaterial
  1
Global
 72
     1
 94
      127
  0
MLINESTYLE
  5
18
102
{ACAD_REACTORS
330
17
102
}
330
17
100
AcDbMlineStyle
  2
Standard
 70
     0
  3

 62
   256
 51
90.0
 52
90.0
 71
     2
 49
0.5
 62
   256
  6
BYLAYER
 49
-0.5
 62
   256
  6
BYLAYER
  0
ACDBPLACEHOLDER
  5
F
102
{ACAD_REACTORS
330
E
102
}
330
E
  0
VISUALSTYLE
  5
2F
102
{ACAD_REACTORS
330
2A
102
}
330
2A
100
AcDbVisualStyle
  2
2dWireframe
 70
     4
177
     2
291
     0
 71
     0
176
     1
 72
     2
176
     1
 73
     0
176
     1
 90
        0
176
     1
 40
-0.6
176
     1
 41
-30.0
176
     1
 62
     5
 63
     7
421
 16777215
176
     1
 74
     1
176
     1
 91
        4
176
     1
 64
     7
176
     1
 65
   257
176
     1
 75
     1
176
     1
175
     1
176
     1
 42
1.0
176
     1
 92
        0
176
     1
 66
   257
176
     1
 43
1.0
176
     1
 76
     1
176
     1
 77
     6
176
     1
 78
     2
176
     1
 67
     7
176
     1
 79
     5
176
     1
170
     0
176
     1
171
     0
176
     1
290
     0
176
     1
 93
        1
176
     1
 44
0.0
176
     1
173
     0
176
     1
  0
VISUALSTYLE
  5
31
102
{ACAD_REACTORS
330
2A
102
}
330
2A
100
AcDbVisualStyle
  2
3D Hidden
 70
     6
177
     2
291
     0
 71
     1
176
     1
 72
     2
176
     1
 73
     2
176
     1
 90
        0
176
     1
 40
-0.6
176
     1
 41
-30.0
176
     1
 62
     5
 63
     7
421
 16777215
176
     1
 74
     2
176
     1
 91
        2
176
     1
 64
     7
176
     1
 65
   257
176
     1
 75
     2
176
     1
175
     1
176
     1
 42
40.0
176
     1
 92
        0
176
     1
 66
   257
176
     1
 43
1.0
176
     1
 76
     1
176
     1
 77
     6
176
     1
 78
     2
176
     1
 67
     7
176
     1
 79
     3
176
     1
170
     0
176
     1
171
     0
176
     1
290
     0
176
     1
 93
        1
176
     1
 44
0.0
176
     1
173
     0
176
     1
  0
VISUALSTYLE
  5
30
102
{ACAD_REACTORS
330
2A
102
}
330
2A
100
AcDbVisualStyle
  2
3dWireframe
 70
     5
177
     2
291
     0
 71
     0
176
     1
 72
     2
176
     1
 73
     0
176
     1
 90
        0
176
     1
 40
-0.6
176
     1
 41
-30.0
176
     1
 62
     5
 63
     7
421
 16777215
176
     1
 74
     1
176
     1
 91
        4
176
     1
 64
     7
176
     1
 65
   257
176
     1
 75
     1
176
     1
175
     1
176
     1
 42
1.0
176
     1
 92
        0
176
     1
 66
   257
176
     1
 43
1.0
176
     1
 76
     1
176
     1
 77
     6
176
     1
 78
     2
176
     1
 67
     7
176
     1
 79
     5
176
     1
170
     0
176
     1
171
     0
176
     1
290
     0
176
     1
 93
        1
176
     1
 44
0.0
176
     1
173
     0
176
     1
  0
VISUALSTYLE
  5
32
102
{ACAD_REACTORS
330
2A
102
}
330
2A
100
AcDbVisualStyle
  2
Basic
 70
     7
177
     2
291
     1
 71
     1
176
     1
 72
     0
176
     1
 73
     1
176
     1
 90
        0
176
     1
 40
-0.6
176
     1
 41
-30.0
176
     1
 62
     5
 63
     7
421
 16777215
176
     1
 74
     0
176
     1
 91
        4
176
     1
 64
     7
176
     1
 65
   257
176
     1
 75
     1
176
     1
175
     1
176
     1
 42
1.0
176
     1
 92
        8
176
     1
 66
     7
176
     1
 43
1.0
176
     1
 76
     1
176
     1
 77
     6
176
     1
 78
     2
176
     1
 67
     7
176
     1
 79
     5
176
     1
170
     0
176
     1
171
     0
176
     1
290
     0
176
     1
 93
        1
176
     1
 44
0.0
176
     1
173
     0
176
     1
  0
VISUALSTYLE
  5
36
102
{ACAD_REACTORS
330
2A
102
}
330
2A
100
AcDbVisualStyle
  2
Brighten
 70
    12
177
     2
291
     1
 71
     2
176
     1
 72
     2
176
     1
 73
     0
176
     1
 90
        0
176
     1
 40
-0.6
176
     1
 41
-30.0
176
     1
 62
     5
 63
     7
421
 16777215
176
     1
 74
     1
176
     1
 91
        4
176
     1
 64
     7
176
     1
 65
   257
176
     1
 75
     1
176
     1
175
     1
176
     1
 42
1.0
176
     1
 92
        8
176
     1
 66
     7
176
     1
 43
1.0
176
     1
 76
     1
176
     1
 77
     6
176
     1
 78
     2
176
     1
 67
     7
176
     1
 79
     5
176
     1
170
     0
176
     1
171
     0
176
     1
290
     0
176
     1
 93
        1
176
     1
 44
50.0
176
     1
173
     0
176
     1
  0
VISUALSTYLE
  5
3A
102
{ACAD_REACTORS
330
2A
102
}
330
2A
100
AcDbVisualStyle
  2
ColorChange
 70
    16
177
     2
291
     1
 71
     2
176
     1
 72
     2
176
     1
 73
     3
176
     1
 90
        0
176
     1
 40
-0.6
176
     1
 41
-30.0
176
     1
 62
     5
 63
     8
421
  8421504
176
     1
 74
     1
176
     1
 91
        4
176
     1
 64
     7
176
     1
 65
   257
176
     1
 75
     1
176
     1
175
     1
176
     1
 42
1.0
176
     1
 92
        8
176
     1
 66
     8
424
  8421504
176
     1
 43
1.0
176
     1
 76
     1
176
     1
 77
     6
176
     1
 78
     2
176
     1
 67
     7
176
     1
 79
     5
176
     1
170
     0
176
     1
171
     0
176
     1
290
     0
176
     1
 93
        1
176
     1
 44
0.0
176
     1
173
     0
176
     1
  0
VISUALSTYLE
  5
34
102
{ACAD_REACTORS
330
2A
102
}
330
2A
100
AcDbVisualStyle
  2
Conceptual
 70
     9
177
     2
291
     0
 71
     3
176
     1
 72
     2
176
     1
 73
     0
176
     1
 90
        0
176
     1
 40
-0.6
176
     1
 41
-30.0
176
     1
 62
     5
 63
     7
421
 16777215
176
     1
 74
     2
176
     1
 91
        2
176
     1
 64
     7
176
     1
 65
   257
176
     1
 75
     1
176
     1
175
     1
176
     1
 42
40.0
176
     1
 92
        8
176
     1
 66
     7
176
     1
 43
1.0
176
     1
 76
     1
176
     1
 77
     6
176
     1
 78
     2
176
     1
 67
     7
176
     1
 79
     3
176
     1
170
     0
176
     1
171
     0
176
     1
290
     0
176
     1
 93
        1
176
     1
 44
0.0
176
     1
173
     0
176
     1
  0
VISUALSTYLE
  5
35
102
{ACAD_REACTORS
330
2A
102
}
330
2A
100
AcDbVisualStyle
  2
Dim
 70
    11
177
     2
291
     1
 71
     2
176
     1
 72
     2
176
     1
 73
     0
176
     1
 90
        0
176
     1
 40
-0.6
176
     1
 41
-30.0
176
     1
 62
     5
 63
     7
421
 16777215
176
     1
 74
     1
176
     1
 91
        4
176
     1
 64
     7
176
     1
 65
   257
176
     1
 75
     1
176
     1
175
     1
176
     1
 42
1.0
176
     1
 92
        8
176
     1
 66
     7
176
     1
 43
1.0
176
     1
 76
     1
176
     1
 77
     6
176
     1
 78
     2
176
     1
 67
     7
176
     1
 79
     5
176
     1
170
     0
176
     1
171
     0
176
     1
290
     0
176
     1
 93
        1
176
     1
 44
-50.0
176
     1
173
     0
176
     1
  0
VISUALSTYLE
  5
39
102
{ACAD_REACTORS
330
2A
102
}
330
2A
100
AcDbVisualStyle
  2
Facepattern
 70
    15
177
     2
291
     1
 71
     2
176
     1
 72
     2
176
     1
 73
     0
176
     1
 90
        0
176
     1
 40
-0.6
176
     1
 41
-30.0
176
     1
 62
     5
 63
     7
421
 16777215
176
     1
 74
     1
176
     1
 91
        4
176
     1
 64
     7
176
     1
 65
   257
176
     1
 75
     1
176
     1
175
     1
176
     1
 42
1.0
176
     1
 92
        8
176
     1
 66
     7
176
     1
 43
1.0
176
     1
 76
     1
176
     1
 77
     6
176
     1
 78
     2
176
     1
 67
     7
176
     1
 79
     5
176
     1
170
     0
176
     1
171
     0
176
     1
290
     0
176
     1
 93
        1
176
     1
 44
0.0
176
     1
173
     0
176
     1
  0
VISUALSTYLE
  5
2B
102
{ACAD_REACTORS
330
2A
102
}
330
2A
100
AcDbVisualStyle
  2
Flat
 70
     0
177
     2
291
     1
 71
     2
176
     1
 72
     1
176
     1
 73
     1
176
     1
 90
        2
176
     1
 40
-0.6
176
     1
 41
30.0
176
     1
 62
     5
 63
     7
421
 16777215
176
     1
 74
     0
176
     1
 91
        4
176
     1
 64
     7
176
     1
 65
   257
176
     1
 75
     1
176
     1
175
     1
176
     1
 42
1.0
176
     1
 92
        8
176
     1
 66
     7
176
     1
 43
1.0
176
     1
 76
     1
176
     1
 77
     6
176
     1
 78
     2
176
     1
 67
     7
176
     1
 79
     5
176
     1
170
     0
176
     1
171
     0
176
     1
290
     0
176
     1
 93
       13
176
     1
 44
0.0
176
     1
173
     0
176
     1
  0
VISUALSTYLE
  5
2C
102
{ACAD_REACTORS
330
2A
102
}
330
2A
100
AcDbVisualStyle
  2
FlatWithEdges
 70
     1
177
     2
291
     1
 71
     2
176
     1
 72
     1
176
     1
 73
     1
176
     1
 90
        2
176
     1
 40
-0.6
176
     1
 41
30.0
176
     1
 62
     5
 63
     7
421
 16777215
176
     1
 74
     1
176
     1
 91
        4
176
     1
 64
     7
176
     1
 65
   257
176
     1
 75
     1
176
     1
175
     1
176
     1
 42
1.0
176
     1
 92
        0
176
     1
 66
   257
176
     1
 43
1.0
176
     1
 76
     1
176
     1
 77
     6
176
     1
 78
     2
176
     1
 67
     7
176
     1
 79
     5
176
     1
170
     0
176
     1
171
     0
176
     1
290
     0
176
     1
 93
       13
176
     1
 44
0.0
176
     1
173
     0
176
     1
  0
VISUALSTYLE
  5
2D
102
{ACAD_REACTORS
330
2A
102
}
330
2A
100
AcDbVisualStyle
  2
Gouraud
 70
     2
177
     2
291
     1
 71
     2
176
     1
 72
     2
176
     1
 73
     1
176
     1
 90
        2
176
     1
 40
-0.6
176
     1
 41
30.0
176
     1
 62
     5
 63
     7
421
 16777215
176
     1
 74
     0
176
     1
 91
        4
176
     1
 64
     7
176
     1
 65
   257
176
     1
 75
     1
176
     1
175
     1
176
     1
 42
1.0
176
     1
 92
        0
176
     1
 66
     7
176
     1
 43
1.0
176
     1
 76
     1
176
     1
 77
     6
176
     1
 78
     2
176
     1
 67
     7
176
     1
 79
     5
176
     1
170
     0
176
     1
171
     0
176
     1
290
     0
176
     1
 93
       13
176
     1
 44
0.0
176
     1
173
     0
176
     1
  0
VISUALSTYLE
  5
2E
102
{ACAD_REACTORS
330
2A
102
}
330
2A
100
AcDbVisualStyle
  2
GouraudWithEdges
 70
     3
177
     2
291
     1
 71
     2
176
     1
 72
     2
176
     1
 73
     1
176
     1
 90
        2
176
     1
 40
-0.6
176
     1
 41
30.0
176
     1
 62
     5
 63
     7
421
 16777215
176
     1
 74
     1
176
     1
 91
        4
176
     1
 64
     7
176
     1
 65
   257
176
     1
 75
     1
176
     1
175
     1
176
     1
 42
1.0
176
     1
 92
        0
176
     1
 66
   257
176
     1
 43
1.0
176
     1
 76
     1
176
     1
 77
     6
176
     1
 78
     2
176
     1
 67
     7
176
     1
 79
     5
176
     1
170
     0
176
     1
171
     0
176
     1
290
     0
176
     1
 93
       13
176
     1
 44
0.0
176
     1
173
     0
176
     1
  0
VISUALSTYLE
  5
38
102
{ACAD_REACTORS
330
2A
102
}
330
2A
100
AcDbVisualStyle
  2
Linepattern
 70
    14
177
     2
291
     1
 71
     2
176
     1
 72
     2
176
     1
 73
     0
176
     1
 90
        0
176
     1
 40
-0.6
176
     1
 41
-30.0
176
     1
 62
     5
 63
     7
421
 16777215
176
     1
 74
     1
176
     1
 91
        4
176
     1
 64
     7
176
     1
 65
   257
176
     1
 75
     7
176
     1
175
     7
176
     1
 42
1.0
176
     1
 92
        8
176
     1
 66
     7
176
     1
 43
1.0
176
     1
 76
     1
176
     1
 77
     6
176
     1
 78
     2
176
     1
 67
     7
176
     1
 79
     5
176
     1
170
     0
176
     1
171
     0
176
     1
290
     0
176
     1
 93
        1
176
     1
 44
0.0
176
     1
173
     0
176
     1
  0
VISUALSTYLE
  5
33
102
{ACAD_REACTORS
330
2A
102
}
330
2A
100
AcDbVisualStyle
  2
Realistic
 70
     8
177
     2
291
     0
 71
     2
176
     1
 72
     2
176
     1
 73
     0
176
     1
 90
        0
176
     1
 40
-0.6
176
     1
 41
-30.0
176
     1
 62
     5
 63
     7
421
 16777215
176
     1
 74
     1
176
     1
 91
        0
176
     1
 64
     7
176
     1
 65
   257
176
     1
 75
     1
176
     1
175
     1
176
     1
 42
1.0
176
     1
 92
        8
176
     1
 66
     8
424
  7895160
176
     1
 43
1.0
176
     1
 76
     1
176
     1
 77
     6
176
     1
 78
     2
176
     1
 67
     7
176
     1
 79
     5
176
     1
170
     0
176
     1
171
     0
176
     1
290
     0
176
     1
 93
       13
176
     1
 44
0.0
176
     1
173
     0
176
     1
  0
VISUALSTYLE
  5
37
102
{ACAD_REACTORS
330
2A
102
}
330
2A
100
AcDbVisualStyle
  2
Thicken
 70
    13
177
     2
291
     1
 71
     2
176
     1
 72
     2
176
     1
 73
     0
176
     1
 90
        0
176
     1
 40
-0.6
176
     1
 41
-30.0
176
     1
 62
     5
 63
     7
421
 16777215
176
     1
 74
     1
176
     1
 91
        4
176
     1
 64
     7
176
     1
 65
   257
176
     1
 75
     1
176
     1
175
     1
176
     1
 42
1.0
176
     1
 92
       12
176
     1
 66
     7
176
     1
 43
1.0
176
     1
 76
     1
176
     1
 77
     6
176
     1
 78
     2
176
     1
 67
     7
176
     1
 79
     5
176
     1
170
     0
176
     1
171
     0
176
     1
290
     0
176
     1
 93
        1
176
     1
 44
0.0
176
     1
173
     0
176
     1
  0
ENDSEC
  0
EOF
