  0
SECTION
  2
HEADER
  9
$ACADVER
  1
AC1024
  9
$ACADMAINTVER
 70
     6
  9
$DWGCODEPAGE
  3
UNDEFINED
  9
$INSBASE
 10
0.0
 20
0.0
 30
0.0
  9
$EXTMIN
 10
1.000000000000000E+20
 20
1.000000000000000E+20
 30
1.000000000000000E+20
  9
$EXTMAX
 10
-1.000000000000000E+20
 20
-1.000000000000000E+20
 30
-1.000000000000000E+20
  9
$LIMMIN
 10
0.0
 20
0.0
  9
$LIMMAX
 10
12.0
 20
9.0
  9
$ORTHOMODE
 70
     0
  9
$REGENMODE
 70
     1
  9
$FILLMODE
 70
     1
  9
$QTEXTMODE
 70
     0
  9
$MIRRTEXT
 70
     1
  9
$LTSCALE
 40
1.0
  9
$ATTMODE
 70
     1
  9
$TEXTSIZE
 40
0.2
  9
$TRACEWID
 40
0.05
  9
$TEXTSTYLE
  7
Standard
  9
$CLAYER
  8
0
  9
$CELTYPE
  6
ByLayer
  9
$CECOLOR
 62
   256
  9
$CELTSCALE
 40
1.0
  9
$DISPSILH
 70
     0
  9
$DIMSCALE
 40
1.0
  9
$DIMASZ
 40
0.18
  9
$DIMEXO
 40
0.0625
  9
$DIMDLI
 40
0.38
  9
$DIMRND
 40
0.0
  9
$DIMDLE
 40
0.0
  9
$DIMEXE
 40
0.18
  9
$DIMTP
 40
0.0
  9
$DIMTM
 40
0.0
  9
$DIMTXT
 40
0.18
  9
$DIMCEN
 40
0.09
  9
$DIMTSZ
 40
0.0
  9
$DIMTOL
 70
     0
  9
$DIMLIM
 70
     0
  9
$DIMTIH
 70
     1
  9
$DIMTOH
 70
     1
  9
$DIMSE1
 70
     0
  9
$DIMSE2
 70
     0
  9
$DIMTAD
 70
     0
  9
$DIMZIN
 70
     0
  9
$DIMBLK
  1

  9
$DIMASO
 70
     1
  9
$DIMSHO
 70
     1
  9
$DIMPOST
  1

  9
$DIMAPOST
  1

  9
$DIMALT
 70
     0
  9
$DIMALTD
 70
     2
  9
$DIMALTF
 40
25.4
  9
$DIMLFAC
 40
1.0
  9
$DIMTOFL
 70
     0
  9
$DIMTVP
 40
0.0
  9
$DIMTIX
 70
     0
  9
$DIMSOXD
 70
     0
  9
$DIMSAH
 70
     0
  9
$DIMBLK1
  1

  9
$DIMBLK2
  1

  9
$DIMSTYLE
  2
Standard
  9
$DIMCLRD
 70
     0
  9
$DIMCLRE
 70
     0
  9
$DIMCLRT
 70
     0
  9
$DIMTFAC
 40
1.0
  9
$DIMGAP
 40
0.09
  9
$DIMJUST
 70
     0
  9
$DIMSD1
 70
     0
  9
$DIMSD2
 70
     0
  9
$DIMTOLJ
 70
     1
  9
$DIMTZIN
 70
     0
  9
$DIMALTZ
 70
     0
  9
$DIMALTTZ
 70
     0
  9
$DIMUPT
 70
     0
  9
$DIMDEC
 70
     4
  9
$DIMTDEC
 70
     4
  9
$DIMALTU
 70
     2
  9
$DIMALTTD
 70
     2
  9
$DIMTXSTY
  7
Standard
  9
$DIMAUNIT
 70
     0
  9
$DIMADEC
 70
     0
  9
$DIMALTRND
 40
0.0
  9
$DIMAZIN
 70
     0
  9
$DIMDSEP
 70
    46
  9
$DIMATFIT
 70
     3
  9
$DIMFRAC
 70
     0
  9
$DIMLDRBLK
  1

  9
$DIMLUNIT
 70
     2
  9
$DIMLWD
 70
    -2
  9
$DIMLWE
 70
    -2
  9
$DIMTMOVE
 70
     0
  9
$DIMFXL
 40
1.0
  9
$DIMFXLON
 70
     0
  9
$DIMJOGANG
 40
0.7853981633974483
  9
$DIMTFILL
 70
     0
  9
$DIMTFILLCLR
 70
     0
  9
$DIMARCSYM
 70
     0
  9
$DIMLTYPE
  6

  9
$DIMLTEX1
  6

  9
$DIMLTEX2
  6

  9
$DIMTXTDIRECTION
 70
     0
  9
$LUNITS
 70
     2
  9
$LUPREC
 70
     4
  9
$SKETCHINC
 40
0.1
  9
$FILLETRAD
 40
0.5
  9
$AUNITS
 70
     0
  9
$AUPREC
 70
     0
  9
$MENU
  1
.
  9
$ELEVATION
 40
0.0
  9
$PELEVATION
 40
0.0
  9
$THICKNESS
 40
0.0
  9
$LIMCHECK
 70
     0
  9
$CHAMFERA
 40
0.5
  9
$CHAMFERB
 40
0.5
  9
$CHAMFERC
 40
1.0
  9
$CHAMFERD
 40
0.0
  9
$SKPOLY
 70
     0
  9
$TDCREATE
 40
2457917.599120371
  9
$TDUCREATE
 40
2457917.224120371
  9
$TDUPDATE
 40
2457917.599120371
  9
$TDUUPDATE
 40
2457917.224120371
  9
$TDINDWG
 40
0.0000000116
  9
$TDUSRTIMER
 40
0.0000000116
  9
$USRTIMER
 70
     1
  9
$ANGBASE
 50
0.0
  9
$ANGDIR
 70
     0
  9
$PDMODE
 70
     0
  9
$PDSIZE
 40
0.0
  9
$PLINEWID
 40
0.0
  9
$SPLFRAME
 70
     0
  9
$SPLINETYPE
 70
     6
  9
$SPLINESEGS
 70
     8
  9
$HANDSEED
  5
A9
  9
$SURFTAB1
 70
     6
  9
$SURFTAB2
 70
     6
  9
$SURFTYPE
 70
     6
  9
$SURFU
 70
     6
  9
$SURFV
 70
     6
  9
$UCSBASE
  2

  9
$UCSNAME
  2

  9
$UCSORG
 10
0.0
 20
0.0
 30
0.0
  9
$UCSXDIR
 10
1.0
 20
0.0
 30
0.0
  9
$UCSYDIR
 10
0.0
 20
1.0
 30
0.0
  9
$UCSORTHOREF
  2

  9
$UCSORTHOVIEW
 70
     0
  9
$UCSORGTOP
 10
0.0
 20
0.0
 30
0.0
  9
$UCSORGBOTTOM
 10
0.0
 20
0.0
 30
0.0
  9
$UCSORGLEFT
 10
0.0
 20
0.0
 30
0.0
  9
$UCSORGRIGHT
 10
0.0
 20
0.0
 30
0.0
  9
$UCSORGFRONT
 10
0.0
 20
0.0
 30
0.0
  9
$UCSORGBACK
 10
0.0
 20
0.0
 30
0.0
  9
$PUCSBASE
  2

  9
$PUCSNAME
  2

  9
$PUCSORG
 10
0.0
 20
0.0
 30
0.0
  9
$PUCSXDIR
 10
1.0
 20
0.0
 30
0.0
  9
$PUCSYDIR
 10
0.0
 20
1.0
 30
0.0
  9
$PUCSORTHOREF
  2

  9
$PUCSORTHOVIEW
 70
     0
  9
$PUCSORGTOP
 10
0.0
 20
0.0
 30
0.0
  9
$PUCSORGBOTTOM
 10
0.0
 20
0.0
 30
0.0
  9
$PUCSORGLEFT
 10
0.0
 20
0.0
 30
0.0
  9
$PUCSORGRIGHT
 10
0.0
 20
0.0
 30
0.0
  9
$PUCSORGFRONT
 10
0.0
 20
0.0
 30
0.0
  9
$PUCSORGBACK
 10
0.0
 20
0.0
 30
0.0
  9
$USERI1
 70
     0
  9
$USERI2
 70
     0
  9
$USERI3
 70
     0
  9
$USERI4
 70
     0
  9
$USERI5
 70
     0
  9
$USERR1
 40
0.0
  9
$USERR2
 40
0.0
  9
$USERR3
 40
0.0
  9
$USERR4
 40
0.0
  9
$USERR5
 40
0.0
  9
$WORLDVIEW
 70
     1
  9
$SHADEDGE
 70
     3
  9
$SHADEDIF
 70
    70
  9
$TILEMODE
 70
     1
  9
$MAXACTVP
 70
    64
  9
$PINSBASE
 10
0.0
 20
0.0
 30
0.0
  9
$PLIMCHECK
 70
     0
  9
$PEXTMIN
 10
1.000000000000000E+20
 20
1.000000000000000E+20
 30
1.000000000000000E+20
  9
$PEXTMAX
 10
-1.000000000000000E+20
 20
-1.000000000000000E+20
 30
-1.000000000000000E+20
  9
$PLIMMIN
 10
0.0
 20
0.0
  9
$PLIMMAX
 10
12.0
 20
9.0
  9
$UNITMODE
 70
     0
  9
$VISRETAIN
 70
     1
  9
$PLINEGEN
 70
     0
  9
$PSLTSCALE
 70
     1
  9
$TREEDEPTH
 70
  3020
  9
$CMLSTYLE
  2
Standard
  9
$CMLJUST
 70
     0
  9
$CMLSCALE
 40
1.0
  9
$PROXYGRAPHICS
 70
     1
  9
$MEASUREMENT
 70
     0
  9
$CELWEIGHT
370
    -1
  9
$ENDCAPS
280
     0
  9
$JOINSTYLE
280
     0
  9
$LWDISPLAY
290
     1
  9
$INSUNITS
 70
     1
  9
$HYPERLINKBASE
  1

  9
$STYLESHEET
  1

  9
$XEDIT
290
     1
  9
$CEPSNTYPE
380
     0
  9
$PSTYLEMODE
290
     1
  9
$FINGERPRINTGUID
  2
{6FDBE375-03ED-6EFA-2BC8-22131C452D21}
  9
$VERSIONGUID
  2
{FAEB1C32-E019-11D5-929B-00C0DF256EC4}
  9
$EXTNAMES
290
     1
  9
$PSVPSCALE
 40
0.0
  9
$OLESTARTUP
290
     0
  9
$SORTENTS
280
   127
  9
$INDEXCTL
280
     0
  9
$HIDETEXT
280
     1
  9
$XCLIPFRAME
280
     2
  9
$HALOGAP
280
     0
  9
$OBSCOLOR
 70
   257
  9
$OBSLTYPE
280
     0
  9
$INTERSECTIONDISPLAY
280
     0
  9
$INTERSECTIONCOLOR
 70
   257
  9
$DIMASSOC
280
     2
  9
$PROJECTNAME
  1

  9
$CAMERADISPLAY
290
     0
  9
$LENSLENGTH
 40
50.0
  9
$CAMERAHEIGHT
 40
0.0
  9
$STEPSPERSEC
 40
2.0
  9
$STEPSIZE
 40
6.0
  9
$3DDWFPREC
 40
2.0
  9
$PSOLWIDTH
 40
0.25
  9
$PSOLHEIGHT
 40
4.0
  9
$LOFTANG1
 40
1.570796326794897
  9
$LOFTANG2
 40
1.570796326794897
  9
$LOFTMAG1
 40
0.0
  9
$LOFTMAG2
 40
0.0
  9
$LOFTPARAM
 70
     7
  9
$LOFTNORMALS
280
     1
  9
$LATITUDE
 40
37.795
  9
$LONGITUDE
 40
-122.394
  9
$NORTHDIRECTION
 40
0.0
  9
$TIMEZONE
 70
 -8000
  9
$LIGHTGLYPHDISPLAY
280
     1
  9
$TILEMODELIGHTSYNCH
280
     1
  9
$CMATERIAL
347
3C
  9
$SOLIDHIST
280
     1
  9
$SHOWHIST
280
     1
  9
$DWFFRAME
280
     2
  9
$DGNFRAME
280
     2
  9
$REALWORLDSCALE
290
     1
  9
$INTERFERECOLOR
 62
   256
  9
$CSHADOW
280
     0
  9
$SHADOWPLANELOCATION
 40
0.0
  0
ENDSEC
  0
SECTION
  2
CLASSES
  0
CLASS
  1
ACDBDICTIONARYWDFLT
  2
AcDbDictionaryWithDefault
  3
ObjectDBX Classes
 90
        0
 91
        4
280
     0
281
     0
  0
CLASS
  1
VISUALSTYLE
  2
AcDbVisualStyle
  3
ObjectDBX Classes
 90
     4095
 91
        4
280
     0
281
     0
  0
CLASS
  1
MATERIAL
  2
AcDbMaterial
  3
ObjectDBX Classes
 90
     1153
 91
        4
280
     0
281
     0
  0
CLASS
  1
SUN
  2
AcDbSun
  3
SCENEOE
 90
     1024
 91
        4
280
     0
281
     0
  0
ENDSEC
  0
SECTION
  2
TABLES
  0
TABLE
  2
VPORT
  5
8
330
0
100
AcDbSymbolTable
 70
     1
  0
VPORT
  5
29
330
8
100
AcDbSymbolTableRecord
100
AcDbViewportTableRecord
  2
*Active
 70
     0
 10
0.0
 20
0.0
 11
1.0
 21
1.0
 12
0.0
 22
0.0
 13
0.0
 23
0.0
 14
0.5
 24
0.5
 15
0.5
 25
0.5
 16
0.0
 26
0.0
 36
1.0
 17
91.00082462281999
 27
-128.4993055234307
 37
0.0
 40
256.9986110468615
 41
0.7081814508812795
 42
50.0
 43
0.0
 44
0.0
 50
0.0
 51
0.0
 71
     0
 72
   100
 73
     1
 74
     3
 75
     0
 76
     0
 77
     0
 78
     0
281
     0
 65
     1
110
0.0
120
0.0
130
0.0
111
1.0
121
0.0
131
0.0
112
0.0
122
1.0
132
0.0
 79
     0
146
0.0
 60
     3
 61
     5
292
     1
282
     1
141
0.0
142
0.0
 63
   250
361
3F
  0
ENDTAB
  0
TABLE
  2
LTYPE
  5
5
330
0
100
AcDbSymbolTable
 70
     1
  0
LTYPE
  5
14
330
5
100
AcDbSymbolTableRecord
100
AcDbLinetypeTableRecord
  2
ByBlock
 70
     0
  3

 72
    65
 73
     0
 40
0.0
  0
LTYPE
  5
15
330
5
100
AcDbSymbolTableRecord
100
AcDbLinetypeTableRecord
  2
ByLayer
 70
     0
  3

 72
    65
 73
     0
 40
0.0
  0
LTYPE
  5
16
330
5
100
AcDbSymbolTableRecord
100
AcDbLinetypeTableRecord
  2
Continuous
 70
     0
  3
Solid line
 72
    65
 73
     0
 40
0.0
  0
ENDTAB
  0
TABLE
  2
LAYER
  5
2
330
0
100
AcDbSymbolTable
 70
     2
  0
LAYER
  5
10
330
2
100
AcDbSymbolTableRecord
100
AcDbLayerTableRecord
  2
0
 70
     0
 62
     7
  6
Continuous
370
    -3
390
F
347
3E
  0
LAYER
  5
40
330
2
100
AcDbSymbolTableRecord
100
AcDbLayerTableRecord
  2
_U+30EC_U+30A4_U+30E4_U+30FC 1
 70
     0
 62
     7
  6
Continuous
370
    -3
390
F
347
3E
  0
ENDTAB
  0
TABLE
  2
STYLE
  5
3
330
0
100
AcDbSymbolTable
 70
     1
  0
STYLE
  5
11
330
3
100
AcDbSymbolTableRecord
100
AcDbTextStyleTableRecord
  2
Standard
 70
     0
 40
0.0
 41
1.0
 50
0.0
 71
     0
 42
0.2
  3
txt
  4

  0
ENDTAB
  0
TABLE
  2
VIEW
  5
6
330
0
100
AcDbSymbolTable
 70
     0
  0
ENDTAB
  0
TABLE
  2
UCS
  5
7
330
0
100
AcDbSymbolTable
 70
     0
  0
ENDTAB
  0
TABLE
  2
APPID
  5
9
330
0
100
AcDbSymbolTable
 70
     1
  0
APPID
  5
12
330
9
100
AcDbSymbolTableRecord
100
AcDbRegAppTableRecord
  2
ACAD
 70
     0
  0
ENDTAB
  0
TABLE
  2
DIMSTYLE
  5
A
330
0
100
AcDbSymbolTable
 70
     1
100
AcDbDimStyleTable
  0
DIMSTYLE
105
27
330
A
100
AcDbSymbolTableRecord
100
AcDbDimStyleTableRecord
  2
Standard
 70
     0
178
     0
340
11
  0
ENDTAB
  0
TABLE
  2
BLOCK_RECORD
  5
1
330
0
100
AcDbSymbolTable
 70
     5
  0
BLOCK_RECORD
  5
1F
330
1
100
AcDbSymbolTableRecord
100
AcDbBlockTableRecord
  2
*Model_Space
340
22
 70
     0
280
     1
281
     0
  0
BLOCK_RECORD
  5
1B
330
1
100
AcDbSymbolTableRecord
100
AcDbBlockTableRecord
  2
*Paper_Space
340
1E
 70
     0
280
     1
281
     0
  0
BLOCK_RECORD
  5
23
330
1
100
AcDbSymbolTableRecord
100
AcDbBlockTableRecord
  2
*Paper_Space0
340
26
 70
     0
280
     1
281
     0
  0
BLOCK_RECORD
  5
57
330
1
100
AcDbSymbolTableRecord
100
AcDbBlockTableRecord
  2
block 2
340
0
102
{BLKREFS
331
58
102
}
 70
     0
280
     1
281
     0
  0
BLOCK_RECORD
  5
68
330
1
100
AcDbSymbolTableRecord
100
AcDbBlockTableRecord
  2
block 3
340
0
102
{BLKREFS
331
69
102
}
 70
     0
280
     1
281
     0
  0
BLOCK_RECORD
  5
81
330
1
100
AcDbSymbolTableRecord
100
AcDbBlockTableRecord
  2
block 4
340
0
102
{BLKREFS
331
82
102
}
 70
     0
280
     1
281
     0
  0
BLOCK_RECORD
  5
95
330
1
100
AcDbSymbolTableRecord
100
AcDbBlockTableRecord
  2
block 5
340
0
102
{BLKREFS
331
96
102
}
 70
     0
280
     1
281
     0
  0
ENDTAB
  0
ENDSEC
  0
SECTION
  2
BLOCKS
  0
BLOCK
  5
20
330
1F
100
AcDbEntity
  8
0
100
AcDbBlockBegin
  2
*Model_Space
 70
     0
 10
0.0
 20
0.0
 30
0.0
  3
*Model_Space
  1

  0
ENDBLK
  5
21
330
1F
100
AcDbEntity
  8
0
100
AcDbBlockEnd
  0
BLOCK
  5
1C
330
1B
100
AcDbEntity
 67
     1
  8
0
100
AcDbBlockBegin
  2
*Paper_Space
 70
     0
 10
0.0
 20
0.0
 30
0.0
  3
*Paper_Space
  1

  0
ENDBLK
  5
1D
330
1B
100
AcDbEntity
 67
     1
  8
0
100
AcDbBlockEnd
  0
BLOCK
  5
24
330
23
100
AcDbEntity
  8
0
100
AcDbBlockBegin
  2
*Paper_Space0
 70
     0
 10
0.0
 20
0.0
 30
0.0
  3
*Paper_Space0
  1

  0
ENDBLK
  5
25
330
23
100
AcDbEntity
  8
0
100
AcDbBlockEnd
  0
BLOCK
  5
59
330
57
100
AcDbEntity
  8
0
100
AcDbBlockBegin
  2
block 2
 70
     0
 10
0.0
 20
0.0
 30
0.0
  3
block 2
  1

  0
SPLINE
  5
5B
330
57
100
AcDbEntity
  8
_U+30EC_U+30A4_U+30E4_U+30FC 1
370
     0
100
AcDbSpline
210
0.0
220
0.0
230
1.0
 70
    11
 71
     3
 72
    26
 73
    22
 74
     0
 42
0.0000000001
 43
0.0000000001
 12
1.0
 22
0.0
 32
0.0
 13
1.0
 23
0.0
 33
0.0
 40
0.0
 40
0.0
 40
0.0
 40
0.0
 40
1.0
 40
1.0
 40
1.0
 40
2.0
 40
2.0
 40
2.0
 40
3.0
 40
3.0
 40
3.0
 40
4.0
 40
4.0
 40
4.0
 40
5.0
 40
5.0
 40
5.0
 40
6.0
 40
6.0
 40
6.0
 40
7.0
 40
7.0
 40
7.0
 40
7.0
 10
114.761987275997
 20
-131.7631889861564
 30
0.0
 10
114.761987275997
 20
-131.7631889861564
 30
0.0
 10
113.6578341729744
 20
-131.7631889861564
 30
0.0
 10
113.6578341729744
 20
-131.7631889861564
 30
0.0
 10
113.6578341729744
 20
-131.7631889861564
 30
0.0
 10
113.6578341729744
 20
-132.0932291336434
 30
0.0
 10
113.6578341729744
 20
-132.0932291336434
 30
0.0
 10
113.6578341729744
 20
-132.0932291336434
 30
0.0
 10
113.5096950671087
 20
-132.0932291336434
 30
0.0
 10
113.5096950671087
 20
-132.0932291336434
 30
0.0
 10
113.4948811565221
 20
-131.7611219288653
 30
0.0
 10
113.3319281400698
 20
-131.7146131398144
 30
0.0
 10
113.2175509699595
 20
-131.6849853186413
 30
0.0
 10
113.2175509699595
 20
-131.6849853186413
 30
0.0
 10
113.2175509699595
 20
-131.5389132700667
 30
0.0
 10
113.2175509699595
 20
-131.5389132700667
 30
0.0
 10
113.2175509699595
 20
-131.5389132700667
 30
0.0
 10
114.761987275997
 20
-131.5389132700667
 30
0.0
 10
114.761987275997
 20
-131.5389132700667
 30
0.0
 10
114.761987275997
 20
-131.5389132700667
 30
0.0
 10
114.761987275997
 20
-131.7631889861564
 30
0.0
 10
114.761987275997
 20
-131.7631889861564
 30
0.0
  0
HATCH
  5
5C
330
57
100
AcDbEntity
  8
_U+30EC_U+30A4_U+30E4_U+30FC 1
 62
     7
420
 16777215
100
AcDbHatch
 10
0.0
 20
0.0
 30
0.0
210
0.0
220
0.0
230
1.0
  2
SOLID
 70
     1
 71
     0
 91
        1
 92
        1
 93
        1
 72
     4
 94
        3
 73
     0
 74
     1
 95
       26
 96
       22
 40
0.0
 40
0.0
 40
0.0
 40
0.0
 40
1.0
 40
1.0
 40
1.0
 40
2.0
 40
2.0
 40
2.0
 40
3.0
 40
3.0
 40
3.0
 40
4.0
 40
4.0
 40
4.0
 40
5.0
 40
5.0
 40
5.0
 40
6.0
 40
6.0
 40
6.0
 40
7.0
 40
7.0
 40
7.0
 40
7.0
 10
114.761987275997
 20
-131.7631889861564
 10
114.761987275997
 20
-131.7631889861564
 10
113.6578341729744
 20
-131.7631889861564
 10
113.6578341729744
 20
-131.7631889861564
 10
113.6578341729744
 20
-131.7631889861564
 10
113.6578341729744
 20
-132.0932291336434
 10
113.6578341729744
 20
-132.0932291336434
 10
113.6578341729744
 20
-132.0932291336434
 10
113.5096950671087
 20
-132.0932291336434
 10
113.5096950671087
 20
-132.0932291336434
 10
113.4948811565221
 20
-131.7611219288653
 10
113.3319281400698
 20
-131.7146131398144
 10
113.2175509699595
 20
-131.6849853186413
 10
113.2175509699595
 20
-131.6849853186413
 10
113.2175509699595
 20
-131.5389132700667
 10
113.2175509699595
 20
-131.5389132700667
 10
113.2175509699595
 20
-131.5389132700667
 10
114.761987275997
 20
-131.5389132700667
 10
114.761987275997
 20
-131.5389132700667
 10
114.761987275997
 20
-131.5389132700667
 10
114.761987275997
 20
-131.7631889861564
 10
114.761987275997
 20
-131.7631889861564
 97
        0
 97
        0
 75
     2
 76
     1
 98
        0
  0
POLYLINE
  5
5D
330
57
100
AcDbEntity
  8
_U+30EC_U+30A4_U+30E4_U+30FC 1
370
     0
100
AcDb2dPolyline
 66
     1
 10
0.0
 20
0.0
 30
0.0
  0
VERTEX
  5
5E
330
5D
100
AcDbEntity
  8
_U+30EC_U+30A4_U+30E4_U+30FC 1
370
     0
100
AcDbVertex
100
AcDb2dVertex
 10
114.761987275997
 20
-130.9777072155195
 30
0.0
  0
VERTEX
  5
5F
330
5D
100
AcDbEntity
  8
_U+30EC_U+30A4_U+30E4_U+30FC 1
370
     0
100
AcDbVertex
100
AcDb2dVertex
 10
114.5101507960252
 20
-130.9777072155195
 30
0.0
  0
VERTEX
  5
60
330
5D
100
AcDbEntity
  8
_U+30EC_U+30A4_U+30E4_U+30FC 1
370
     0
100
AcDbVertex
100
AcDb2dVertex
 10
114.5101507960252
 20
-130.7258707355477
 30
0.0
  0
VERTEX
  5
61
330
5D
100
AcDbEntity
  8
_U+30EC_U+30A4_U+30E4_U+30FC 1
370
     0
100
AcDbVertex
100
AcDb2dVertex
 10
114.761987275997
 20
-130.7258707355477
 30
0.0
  0
VERTEX
  5
62
330
5D
100
AcDbEntity
  8
_U+30EC_U+30A4_U+30E4_U+30FC 1
370
     0
100
AcDbVertex
100
AcDb2dVertex
 10
114.761987275997
 20
-130.9777072155195
 30
0.0
  0
SEQEND
  5
63
330
5D
100
AcDbEntity
  8
_U+30EC_U+30A4_U+30E4_U+30FC 1
370
     0
  0
HATCH
  5
64
330
57
100
AcDbEntity
  8
_U+30EC_U+30A4_U+30E4_U+30FC 1
 62
     7
420
 16777215
100
AcDbHatch
 10
0.0
 20
0.0
 30
0.0
210
0.0
220
0.0
230
1.0
  2
SOLID
 70
     1
 71
     0
 91
        1
 92
        1
 93
        4
 72
     1
 10
114.761987275997
 20
-130.9777072155195
 11
114.5101507960252
 21
-130.9777072155195
 72
     1
 10
114.5101507960252
 20
-130.9777072155195
 11
114.5101507960252
 21
-130.7258707355477
 72
     1
 10
114.5101507960252
 20
-130.7258707355477
 11
114.761987275997
 21
-130.7258707355477
 72
     1
 10
114.761987275997
 20
-130.7258707355477
 11
114.761987275997
 21
-130.9777072155195
 97
        0
 75
     2
 76
     1
 98
        0
  0
SPLINE
  5
65
330
57
100
AcDbEntity
  8
_U+30EC_U+30A4_U+30E4_U+30FC 1
370
     0
100
AcDbSpline
210
0.0
220
0.0
230
1.0
 70
    11
 71
     3
 72
    53
 73
    49
 74
     0
 42
0.0000000001
 43
0.0000000001
 12
1.0
 22
0.0
 32
0.0
 13
1.0
 23
0.0
 33
0.0
 40
0.0
 40
0.0
 40
0.0
 40
0.0
 40
1.0
 40
1.0
 40
1.0
 40
2.0
 40
2.0
 40
2.0
 40
3.0
 40
3.0
 40
3.0
 40
4.0
 40
4.0
 40
4.0
 40
5.0
 40
5.0
 40
5.0
 40
6.0
 40
6.0
 40
6.0
 40
7.0
 40
7.0
 40
7.0
 40
8.0
 40
8.0
 40
8.0
 40
9.0
 40
9.0
 40
9.0
 40
10.0
 40
10.0
 40
10.0
 40
11.0
 40
11.0
 40
11.0
 40
12.0
 40
12.0
 40
12.0
 40
13.0
 40
13.0
 40
13.0
 40
14.0
 40
14.0
 40
14.0
 40
15.0
 40
15.0
 40
15.0
 40
16.0
 40
16.0
 40
16.0
 40
16.0
 10
114.8126301796302
 20
-130.0086018555187
 30
0.0
 10
114.8126301796302
 20
-130.0868055230339
 30
0.0
 10
114.7957492117525
 20
-130.1884358398487
 30
0.0
 10
114.7323594548239
 20
-130.2900661566636
 30
0.0
 10
114.6224609088444
 20
-130.4633544595717
 30
0.0
 10
114.4912027708564
 20
-130.4847140515802
 30
0.0
 10
114.3833712821681
 20
-130.5036620767491
 30
0.0
 10
114.3833712821681
 20
-130.5036620767491
 30
0.0
 10
114.3833712821681
 20
-130.2814534179505
 30
0.0
 10
114.3833712821681
 20
-130.2814534179505
 30
0.0
 10
114.582153291667
 20
-130.226676399735
 30
0.0
 10
114.6117811128401
 20
-130.0995523763293
 30
0.0
 10
114.6117811128401
 20
-130.0065347982275
 30
0.0
 10
114.6117811128401
 20
-129.8670084310749
 30
0.0
 10
114.5122178533164
 20
-129.7147352106269
 30
0.0
 10
114.279673908062
 20
-129.7147352106269
 30
0.0
 10
114.023703313508
 20
-129.7147352106269
 30
0.0
 10
113.9537678751574
 20
-129.8945691949569
 30
0.0
 10
113.9537678751574
 20
-130.0151475369407
 30
0.0
 10
113.9537678751574
 20
-130.046842415405
 30
0.0
 10
113.9537678751574
 20
-130.1884358398487
 30
0.0
 10
114.0829589558543
 20
-130.2773193033682
 30
0.0
 10
114.0829589558543
 20
-130.2773193033682
 30
0.0
 10
114.0640109306854
 20
-130.4530191731159
 30
0.0
 10
114.0640109306854
 20
-130.4530191731159
 30
0.0
 10
114.0640109306854
 20
-130.4530191731159
 30
0.0
 10
113.2175509699595
 20
-130.3324408311322
 30
0.0
 10
113.2175509699595
 20
-130.3324408311322
 30
0.0
 10
113.2175509699595
 20
-130.3324408311322
 30
0.0
 10
113.2175509699595
 20
-129.5538492514657
 30
0.0
 10
113.2175509699595
 20
-129.5538492514657
 30
0.0
 10
113.2175509699595
 20
-129.5538492514657
 30
0.0
 10
113.4121988648761
 20
-129.5538492514657
 30
0.0
 10
113.4121988648761
 20
-129.5538492514657
 30
0.0
 10
113.4121988648761
 20
-129.5538492514657
 30
0.0
 10
113.4121988648761
 20
-130.1694878146799
 30
0.0
 10
113.4121988648761
 20
-130.1694878146799
 30
0.0
 10
113.4121988648761
 20
-130.1694878146799
 30
0.0
 10
113.8352565904648
 20
-130.2349446288996
 30
0.0
 10
113.8352565904648
 20
-130.2349446288996
 30
0.0
 10
113.8014946547094
 20
-130.1736219292622
 30
0.0
 10
113.7611870375319
 20
-130.0912841471647
 30
0.0
 10
113.7611870375319
 20
-129.9727728624721
 30
0.0
 10
113.7611870375319
 20
-129.7188693252092
 30
0.0
 10
113.947566703284
 20
-129.481846755824
 30
0.0
 10
114.2607258828932
 20
-129.481846755824
 30
0.0
 10
114.5780191770847
 20
-129.481846755824
 30
0.0
 10
114.8126301796302
 20
-129.7061224719137
 30
0.0
 10
114.8126301796302
 20
-130.0086018555187
 30
0.0
  0
HATCH
  5
66
330
57
100
AcDbEntity
  8
_U+30EC_U+30A4_U+30E4_U+30FC 1
 62
     7
420
 16777215
100
AcDbHatch
 10
0.0
 20
0.0
 30
0.0
210
0.0
220
0.0
230
1.0
  2
SOLID
 70
     1
 71
     0
 91
        1
 92
        1
 93
        1
 72
     4
 94
        3
 73
     0
 74
     1
 95
       53
 96
       49
 40
0.0
 40
0.0
 40
0.0
 40
0.0
 40
1.0
 40
1.0
 40
1.0
 40
2.0
 40
2.0
 40
2.0
 40
3.0
 40
3.0
 40
3.0
 40
4.0
 40
4.0
 40
4.0
 40
5.0
 40
5.0
 40
5.0
 40
6.0
 40
6.0
 40
6.0
 40
7.0
 40
7.0
 40
7.0
 40
8.0
 40
8.0
 40
8.0
 40
9.0
 40
9.0
 40
9.0
 40
10.0
 40
10.0
 40
10.0
 40
11.0
 40
11.0
 40
11.0
 40
12.0
 40
12.0
 40
12.0
 40
13.0
 40
13.0
 40
13.0
 40
14.0
 40
14.0
 40
14.0
 40
15.0
 40
15.0
 40
15.0
 40
16.0
 40
16.0
 40
16.0
 40
16.0
 10
114.8126301796302
 20
-130.0086018555187
 10
114.8126301796302
 20
-130.0868055230339
 10
114.7957492117525
 20
-130.1884358398487
 10
114.7323594548239
 20
-130.2900661566636
 10
114.6224609088444
 20
-130.4633544595717
 10
114.4912027708564
 20
-130.4847140515802
 10
114.3833712821681
 20
-130.5036620767491
 10
114.3833712821681
 20
-130.5036620767491
 10
114.3833712821681
 20
-130.2814534179505
 10
114.3833712821681
 20
-130.2814534179505
 10
114.582153291667
 20
-130.226676399735
 10
114.6117811128401
 20
-130.0995523763293
 10
114.6117811128401
 20
-130.0065347982275
 10
114.6117811128401
 20
-129.8670084310749
 10
114.5122178533164
 20
-129.7147352106269
 10
114.279673908062
 20
-129.7147352106269
 10
114.023703313508
 20
-129.7147352106269
 10
113.9537678751574
 20
-129.8945691949569
 10
113.9537678751574
 20
-130.0151475369407
 10
113.9537678751574
 20
-130.046842415405
 10
113.9537678751574
 20
-130.1884358398487
 10
114.0829589558543
 20
-130.2773193033682
 10
114.0829589558543
 20
-130.2773193033682
 10
114.0640109306854
 20
-130.4530191731159
 10
114.0640109306854
 20
-130.4530191731159
 10
114.0640109306854
 20
-130.4530191731159
 10
113.2175509699595
 20
-130.3324408311322
 10
113.2175509699595
 20
-130.3324408311322
 10
113.2175509699595
 20
-130.3324408311322
 10
113.2175509699595
 20
-129.5538492514657
 10
113.2175509699595
 20
-129.5538492514657
 10
113.2175509699595
 20
-129.5538492514657
 10
113.4121988648761
 20
-129.5538492514657
 10
113.4121988648761
 20
-129.5538492514657
 10
113.4121988648761
 20
-129.5538492514657
 10
113.4121988648761
 20
-130.1694878146799
 10
113.4121988648761
 20
-130.1694878146799
 10
113.4121988648761
 20
-130.1694878146799
 10
113.8352565904648
 20
-130.2349446288996
 10
113.8352565904648
 20
-130.2349446288996
 10
113.8014946547094
 20
-130.1736219292622
 10
113.7611870375319
 20
-130.0912841471647
 10
113.7611870375319
 20
-129.9727728624721
 10
113.7611870375319
 20
-129.7188693252092
 10
113.947566703284
 20
-129.481846755824
 10
114.2607258828932
 20
-129.481846755824
 10
114.5780191770847
 20
-129.481846755824
 10
114.8126301796302
 20
-129.7061224719137
 10
114.8126301796302
 20
-130.0086018555187
 97
        0
 97
        0
 75
     2
 76
     1
 98
        0
  0
ENDBLK
  5
5A
330
57
100
AcDbEntity
  8
0
100
AcDbBlockEnd
  0
BLOCK
  5
6A
330
68
100
AcDbEntity
  8
0
100
AcDbBlockBegin
  2
block 3
 70
     0
 10
0.0
 20
0.0
 30
0.0
  3
block 3
  1

  0
SPLINE
  5
6C
330
68
100
AcDbEntity
  8
_U+30EC_U+30A4_U+30E4_U+30FC 1
370
     0
100
AcDbSpline
210
0.0
220
0.0
230
1.0
 70
    11
 71
     3
 72
    26
 73
    22
 74
     0
 42
0.0000000001
 43
0.0000000001
 12
1.0
 22
0.0
 32
0.0
 13
1.0
 23
0.0
 33
0.0
 40
0.0
 40
0.0
 40
0.0
 40
0.0
 40
1.0
 40
1.0
 40
1.0
 40
2.0
 40
2.0
 40
2.0
 40
3.0
 40
3.0
 40
3.0
 40
4.0
 40
4.0
 40
4.0
 40
5.0
 40
5.0
 40
5.0
 40
6.0
 40
6.0
 40
6.0
 40
7.0
 40
7.0
 40
7.0
 40
7.0
 10
87.41791990002052
 20
-129.0994411569613
 30
0.0
 10
87.41791990002052
 20
-129.0994411569613
 30
0.0
 10
87.84063311606067
 20
-128.0793483837788
 30
0.0
 10
87.84063311606067
 20
-128.0793483837788
 30
0.0
 10
87.84063311606067
 20
-128.0793483837788
 30
0.0
 10
87.53574216561607
 20
-127.9529133794701
 30
0.0
 10
87.53574216561607
 20
-127.9529133794701
 30
0.0
 10
87.53574216561607
 20
-127.9529133794701
 30
0.0
 10
87.59224173157416
 20
-127.8164875982542
 30
0.0
 10
87.59224173157416
 20
-127.8164875982542
 30
0.0
 10
87.90505640163485
 20
-127.9294867301704
 30
0.0
 10
88.0104763234835
 20
-127.7971950635368
 30
0.0
 10
88.08110078093112
 20
-127.702799447241
 30
0.0
 10
88.08110078093112
 20
-127.702799447241
 30
0.0
 10
88.21614852395291
 20
-127.758609994102
 30
0.0
 10
88.21614852395291
 20
-127.758609994102
 30
0.0
 10
88.21614852395291
 20
-127.758609994102
 30
0.0
 10
87.62531464823256
 20
-129.1855685440925
 30
0.0
 10
87.62531464823256
 20
-129.1855685440925
 30
0.0
 10
87.62531464823256
 20
-129.1855685440925
 30
0.0
 10
87.41791990002052
 20
-129.0994411569613
 30
0.0
 10
87.41791990002052
 20
-129.0994411569613
 30
0.0
  0
HATCH
  5
6D
330
68
100
AcDbEntity
  8
_U+30EC_U+30A4_U+30E4_U+30FC 1
 62
     7
420
 16777215
100
AcDbHatch
 10
0.0
 20
0.0
 30
0.0
210
0.0
220
0.0
230
1.0
  2
SOLID
 70
     1
 71
     0
 91
        1
 92
        1
 93
        1
 72
     4
 94
        3
 73
     0
 74
     1
 95
       26
 96
       22
 40
0.0
 40
0.0
 40
0.0
 40
0.0
 40
1.0
 40
1.0
 40
1.0
 40
2.0
 40
2.0
 40
2.0
 40
3.0
 40
3.0
 40
3.0
 40
4.0
 40
4.0
 40
4.0
 40
5.0
 40
5.0
 40
5.0
 40
6.0
 40
6.0
 40
6.0
 40
7.0
 40
7.0
 40
7.0
 40
7.0
 10
87.41791990002052
 20
-129.0994411569613
 10
87.41791990002052
 20
-129.0994411569613
 10
87.84063311606067
 20
-128.0793483837788
 10
87.84063311606067
 20
-128.0793483837788
 10
87.84063311606067
 20
-128.0793483837788
 10
87.53574216561607
 20
-127.9529133794701
 10
87.53574216561607
 20
-127.9529133794701
 10
87.53574216561607
 20
-127.9529133794701
 10
87.59224173157416
 20
-127.8164875982542
 10
87.59224173157416
 20
-127.8164875982542
 10
87.90505640163485
 20
-127.9294867301704
 10
88.0104763234835
 20
-127.7971950635368
 10
88.08110078093112
 20
-127.702799447241
 10
88.08110078093112
 20
-127.702799447241
 10
88.21614852395291
 20
-127.758609994102
 10
88.21614852395291
 20
-127.758609994102
 10
88.21614852395291
 20
-127.758609994102
 10
87.62531464823256
 20
-129.1855685440925
 10
87.62531464823256
 20
-129.1855685440925
 10
87.62531464823256
 20
-129.1855685440925
 10
87.41791990002052
 20
-129.0994411569613
 10
87.41791990002052
 20
-129.0994411569613
 97
        0
 97
        0
 75
     2
 76
     1
 98
        0
  0
SPLINE
  5
6E
330
68
100
AcDbEntity
  8
_U+30EC_U+30A4_U+30E4_U+30FC 1
370
     0
100
AcDbSpline
210
0.0
220
0.0
230
1.0
 70
    11
 71
     3
 72
    62
 73
    58
 74
     0
 42
0.0000000001
 43
0.0000000001
 12
1.0
 22
0.0
 32
0.0
 13
1.0
 23
0.0
 33
0.0
 40
0.0
 40
0.0
 40
0.0
 40
0.0
 40
1.0
 40
1.0
 40
1.0
 40
2.0
 40
2.0
 40
2.0
 40
3.0
 40
3.0
 40
3.0
 40
4.0
 40
4.0
 40
4.0
 40
5.0
 40
5.0
 40
5.0
 40
6.0
 40
6.0
 40
6.0
 40
7.0
 40
7.0
 40
7.0
 40
8.0
 40
8.0
 40
8.0
 40
9.0
 40
9.0
 40
9.0
 40
10.0
 40
10.0
 40
10.0
 40
11.0
 40
11.0
 40
11.0
 40
12.0
 40
12.0
 40
12.0
 40
13.0
 40
13.0
 40
13.0
 40
14.0
 40
14.0
 40
14.0
 40
15.0
 40
15.0
 40
15.0
 40
16.0
 40
16.0
 40
16.0
 40
17.0
 40
17.0
 40
17.0
 40
18.0
 40
18.0
 40
18.0
 40
19.0
 40
19.0
 40
19.0
 40
19.0
 10
88.52310653168867
 20
-129.6120713651664
 30
0.0
 10
88.43491208726627
 20
-129.5755533530228
 30
0.0
 10
88.24198674009229
 20
-129.4728895075623
 30
0.0
 10
88.19754500833257
 20
-129.2530924156034
 30
0.0
 10
88.17205130174172
 20
-129.1211452585183
 30
0.0
 10
88.2065022565942
 20
-129.027783170868
 30
0.0
 10
88.23509654912179
 20
-128.9478569556103
 30
0.0
 10
88.23509654912179
 20
-128.9478569556103
 30
0.0
 10
88.43835718275153
 20
-129.0319172854504
 30
0.0
 10
88.43835718275153
 20
-129.0319172854504
 30
0.0
 10
88.41148543796658
 20
-129.1015082142524
 30
0.0
 10
88.33155922270878
 20
-129.3223388348569
 30
0.0
 10
88.59373098913629
 20
-129.4308593426423
 30
0.0
 10
88.72051050299349
 20
-129.4832247940181
 30
0.0
 10
88.88794214357662
 20
-129.4773681316932
 30
0.0
 10
88.97544756890197
 20
-129.2661837784474
 30
0.0
 10
89.0198893006617
 20
-129.1586967993076
 30
0.0
 10
89.0033528423325
 20
-129.0990966474127
 30
0.0
 10
88.98647187445478
 20
-129.0574109920412
 30
0.0
 10
88.94616425727735
 20
-128.9609483184542
 30
0.0
 10
88.8435004118169
 20
-128.9044487524961
 30
0.0
 10
88.79285750818373
 20
-128.8837781795846
 30
0.0
 10
88.77494301166044
 20
-128.8761989695171
 30
0.0
 10
88.74083656635646
 20
-128.8644856448672
 30
0.0
 10
88.71396482157151
 20
-128.8575954538967
 30
0.0
 10
88.71396482157151
 20
-128.8575954538967
 30
0.0
 10
88.7883788840529
 20
-128.6777614695667
 30
0.0
 10
88.7883788840529
 20
-128.6777614695667
 30
0.0
 10
88.8214518007113
 20
-128.6984320424782
 30
0.0
 10
88.85969236059758
 20
-128.7163465390015
 30
0.0
 10
88.86554902292251
 20
-128.7191026153897
 30
0.0
 10
88.9261827034629
 20
-128.7439073028835
 30
0.0
 10
89.11773001244279
 20
-128.8007513783901
 30
0.0
 10
89.20868053325339
 20
-128.5816433055282
 30
0.0
 10
89.27654891431281
 20
-128.4176567604303
 30
0.0
 10
89.17664114524057
 20
-128.3167154627125
 30
0.0
 10
89.07466631887718
 20
-128.2743407882439
 30
0.0
 10
88.83040904897295
 20
-128.1733994905261
 30
0.0
 10
88.73325735628892
 20
-128.3849283533204
 30
0.0
 10
88.70225149692166
 20
-128.4500406579917
 30
0.0
 10
88.70225149692166
 20
-128.4500406579917
 30
0.0
 10
88.51414928342702
 20
-128.372181500025
 30
0.0
 10
88.51414928342702
 20
-128.372181500025
 30
0.0
 10
88.56995983028807
 20
-128.2602158967544
 30
0.0
 10
88.73945852816236
 20
-127.9225965391999
 30
0.0
 10
89.161827234654
 20
-128.0976073898506
 30
0.0
 10
89.36922198286604
 20
-128.1833902674333
 30
0.0
 10
89.54285479532263
 20
-128.3928520729365
 30
0.0
 10
89.42985566340643
 20
-128.6663926544653
 30
0.0
 10
89.35854218686175
 20
-128.8383029191793
 30
0.0
 10
89.23899737352359
 20
-128.8782660268082
 30
0.0
 10
89.12358667476772
 20
-128.8968695424286
 30
0.0
 10
89.16975095427007
 20
-128.9457898983191
 30
0.0
 10
89.30721026413154
 20
-129.0897948896026
 30
0.0
 10
89.20110132318584
 20
-129.3457654841566
 30
0.0
 10
89.07156573294044
 20
-129.6585801542173
 30
0.0
 10
88.77873261669421
 20
-129.7181803061121
 30
0.0
 10
88.52310653168867
 20
-129.6120713651664
 30
0.0
  0
HATCH
  5
6F
330
68
100
AcDbEntity
  8
_U+30EC_U+30A4_U+30E4_U+30FC 1
 62
     7
420
 16777215
100
AcDbHatch
 10
0.0
 20
0.0
 30
0.0
210
0.0
220
0.0
230
1.0
  2
SOLID
 70
     1
 71
     0
 91
        1
 92
        1
 93
        1
 72
     4
 94
        3
 73
     0
 74
     1
 95
       62
 96
       58
 40
0.0
 40
0.0
 40
0.0
 40
0.0
 40
1.0
 40
1.0
 40
1.0
 40
2.0
 40
2.0
 40
2.0
 40
3.0
 40
3.0
 40
3.0
 40
4.0
 40
4.0
 40
4.0
 40
5.0
 40
5.0
 40
5.0
 40
6.0
 40
6.0
 40
6.0
 40
7.0
 40
7.0
 40
7.0
 40
8.0
 40
8.0
 40
8.0
 40
9.0
 40
9.0
 40
9.0
 40
10.0
 40
10.0
 40
10.0
 40
11.0
 40
11.0
 40
11.0
 40
12.0
 40
12.0
 40
12.0
 40
13.0
 40
13.0
 40
13.0
 40
14.0
 40
14.0
 40
14.0
 40
15.0
 40
15.0
 40
15.0
 40
16.0
 40
16.0
 40
16.0
 40
17.0
 40
17.0
 40
17.0
 40
18.0
 40
18.0
 40
18.0
 40
19.0
 40
19.0
 40
19.0
 40
19.0
 10
88.52310653168867
 20
-129.6120713651664
 10
88.43491208726627
 20
-129.5755533530228
 10
88.24198674009229
 20
-129.4728895075623
 10
88.19754500833257
 20
-129.2530924156034
 10
88.17205130174172
 20
-129.1211452585183
 10
88.2065022565942
 20
-129.027783170868
 10
88.23509654912179
 20
-128.9478569556103
 10
88.23509654912179
 20
-128.9478569556103
 10
88.43835718275153
 20
-129.0319172854504
 10
88.43835718275153
 20
-129.0319172854504
 10
88.41148543796658
 20
-129.1015082142524
 10
88.33155922270878
 20
-129.3223388348569
 10
88.59373098913629
 20
-129.4308593426423
 10
88.72051050299349
 20
-129.4832247940181
 10
88.88794214357662
 20
-129.4773681316932
 10
88.97544756890197
 20
-129.2661837784474
 10
89.0198893006617
 20
-129.1586967993076
 10
89.0033528423325
 20
-129.0990966474127
 10
88.98647187445478
 20
-129.0574109920412
 10
88.94616425727735
 20
-128.9609483184542
 10
88.8435004118169
 20
-128.9044487524961
 10
88.79285750818373
 20
-128.8837781795846
 10
88.77494301166044
 20
-128.8761989695171
 10
88.74083656635646
 20
-128.8644856448672
 10
88.71396482157151
 20
-128.8575954538967
 10
88.71396482157151
 20
-128.8575954538967
 10
88.7883788840529
 20
-128.6777614695667
 10
88.7883788840529
 20
-128.6777614695667
 10
88.8214518007113
 20
-128.6984320424782
 10
88.85969236059758
 20
-128.7163465390015
 10
88.86554902292251
 20
-128.7191026153897
 10
88.9261827034629
 20
-128.7439073028835
 10
89.11773001244279
 20
-128.8007513783901
 10
89.20868053325339
 20
-128.5816433055282
 10
89.27654891431281
 20
-128.4176567604303
 10
89.17664114524057
 20
-128.3167154627125
 10
89.07466631887718
 20
-128.2743407882439
 10
88.83040904897295
 20
-128.1733994905261
 10
88.73325735628892
 20
-128.3849283533204
 10
88.70225149692166
 20
-128.4500406579917
 10
88.70225149692166
 20
-128.4500406579917
 10
88.51414928342702
 20
-128.372181500025
 10
88.51414928342702
 20
-128.372181500025
 10
88.56995983028807
 20
-128.2602158967544
 10
88.73945852816236
 20
-127.9225965391999
 10
89.161827234654
 20
-128.0976073898506
 10
89.36922198286604
 20
-128.1833902674333
 10
89.54285479532263
 20
-128.3928520729365
 10
89.42985566340643
 20
-128.6663926544653
 10
89.35854218686175
 20
-128.8383029191793
 10
89.23899737352359
 20
-128.8782660268082
 10
89.12358667476772
 20
-128.8968695424286
 10
89.16975095427007
 20
-128.9457898983191
 10
89.30721026413154
 20
-129.0897948896026
 10
89.20110132318584
 20
-129.3457654841566
 10
89.07156573294044
 20
-129.6585801542173
 10
88.77873261669421
 20
-129.7181803061121
 10
88.52310653168867
 20
-129.6120713651664
 97
        0
 97
        0
 75
     2
 76
     1
 98
        0
  0
SPLINE
  5
70
330
68
100
AcDbEntity
  8
_U+30EC_U+30A4_U+30E4_U+30FC 1
370
     0
100
AcDbSpline
210
0.0
220
0.0
230
1.0
 70
    11
 71
     3
 72
    53
 73
    49
 74
     0
 42
0.0000000001
 43
0.0000000001
 12
1.0
 22
0.0
 32
0.0
 13
1.0
 23
0.0
 33
0.0
 40
0.0
 40
0.0
 40
0.0
 40
0.0
 40
1.0
 40
1.0
 40
1.0
 40
2.0
 40
2.0
 40
2.0
 40
3.0
 40
3.0
 40
3.0
 40
4.0
 40
4.0
 40
4.0
 40
5.0
 40
5.0
 40
5.0
 40
6.0
 40
6.0
 40
6.0
 40
7.0
 40
7.0
 40
7.0
 40
8.0
 40
8.0
 40
8.0
 40
9.0
 40
9.0
 40
9.0
 40
10.0
 40
10.0
 40
10.0
 40
11.0
 40
11.0
 40
11.0
 40
12.0
 40
12.0
 40
12.0
 40
13.0
 40
13.0
 40
13.0
 40
14.0
 40
14.0
 40
14.0
 40
15.0
 40
15.0
 40
15.0
 40
16.0
 40
16.0
 40
16.0
 40
16.0
 10
89.6003878899263
 20
-130.0585557400548
 30
0.0
 10
89.52804088473604
 20
-130.0285834093332
 30
0.0
 10
89.44087996895922
 20
-129.9738063911177
 30
0.0
 10
89.37128904015718
 20
-129.8766546984336
 30
0.0
 10
89.25312226501312
 20
-129.7085340387534
 30
0.0
 10
89.28378361483183
 20
-129.578998448508
 30
0.0
 10
89.30721026413154
 20
-129.4722004884653
 30
0.0
 10
89.30721026413154
 20
-129.4722004884653
 30
0.0
 10
89.51253795505242
 20
-129.5576388564995
 30
0.0
 10
89.51253795505242
 20
-129.5576388564995
 30
0.0
 10
89.4873887580101
 20
-129.7619330187748
 30
0.0
 10
89.5934976989558
 20
-129.8380696289988
 30
0.0
 10
89.67928057653852
 20
-129.8735541124969
 30
0.0
 10
89.80847165723539
 20
-129.9269530925183
 30
0.0
 10
89.98692760337133
 20
-129.8935356663114
 30
0.0
 10
90.0761555764393
 20
-129.6782171984832
 30
0.0
 10
90.1739962882204
 20
-129.4418836481951
 30
0.0
 10
90.0348144306163
 20
-129.3085584529159
 30
0.0
 10
89.9231933368942
 20
-129.2623941734136
 30
0.0
 10
89.89356551572105
 20
-129.2503363392152
 30
0.0
 10
89.76334090637862
 20
-129.1959038305482
 30
0.0
 10
89.63139374929355
 20
-129.2813421985825
 30
0.0
 10
89.63139374929355
 20
-129.2813421985825
 30
0.0
 10
89.4763644524573
 20
-129.1965928496453
 30
0.0
 10
89.4763644524573
 20
-129.1965928496453
 30
0.0
 10
89.4763644524573
 20
-129.1965928496453
 30
0.0
 10
89.91148001224435
 20
-128.4607204539959
 30
0.0
 10
89.91148001224435
 20
-128.4607204539959
 30
0.0
 10
89.91148001224435
 20
-128.4607204539959
 30
0.0
 10
90.63081594956452
 20
-128.7590657230186
 30
0.0
 10
90.63081594956452
 20
-128.7590657230186
 30
0.0
 10
90.63081594956452
 20
-128.7590657230186
 30
0.0
 10
90.55640188708313
 20
-128.9388997073486
 30
0.0
 10
90.55640188708313
 20
-128.9388997073486
 30
0.0
 10
90.55640188708313
 20
-128.9388997073486
 30
0.0
 10
89.98761662246838
 20
-128.7032551761575
 30
0.0
 10
89.98761662246838
 20
-128.7032551761575
 30
0.0
 10
89.98761662246838
 20
-128.7032551761575
 30
0.0
 10
89.76540796366976
 20
-129.069124316691
 30
0.0
 10
89.76540796366976
 20
-129.069124316691
 30
0.0
 10
89.83499889247182
 20
-129.0608560875264
 30
0.0
 10
89.92629392283094
 20
-129.0553439347501
 30
0.0
 10
90.03584795926187
 20
-129.1008191951554
 30
0.0
 10
90.27045896180739
 20
-129.1979708878394
 30
0.0
 10
90.41859806767313
 20
-129.4604871638154
 30
0.0
 10
90.29870874478644
 20
-129.7498751845764
 30
0.0
 10
90.17709687415712
 20
-130.0433973199197
 30
0.0
 10
89.87978513378006
 20
-130.1743109483592
 30
0.0
 10
89.6003878899263
 20
-130.0585557400548
 30
0.0
  0
HATCH
  5
71
330
68
100
AcDbEntity
  8
_U+30EC_U+30A4_U+30E4_U+30FC 1
 62
     7
420
 16777215
100
AcDbHatch
 10
0.0
 20
0.0
 30
0.0
210
0.0
220
0.0
230
1.0
  2
SOLID
 70
     1
 71
     0
 91
        1
 92
        1
 93
        1
 72
     4
 94
        3
 73
     0
 74
     1
 95
       53
 96
       49
 40
0.0
 40
0.0
 40
0.0
 40
0.0
 40
1.0
 40
1.0
 40
1.0
 40
2.0
 40
2.0
 40
2.0
 40
3.0
 40
3.0
 40
3.0
 40
4.0
 40
4.0
 40
4.0
 40
5.0
 40
5.0
 40
5.0
 40
6.0
 40
6.0
 40
6.0
 40
7.0
 40
7.0
 40
7.0
 40
8.0
 40
8.0
 40
8.0
 40
9.0
 40
9.0
 40
9.0
 40
10.0
 40
10.0
 40
10.0
 40
11.0
 40
11.0
 40
11.0
 40
12.0
 40
12.0
 40
12.0
 40
13.0
 40
13.0
 40
13.0
 40
14.0
 40
14.0
 40
14.0
 40
15.0
 40
15.0
 40
15.0
 40
16.0
 40
16.0
 40
16.0
 40
16.0
 10
89.6003878899263
 20
-130.0585557400548
 10
89.52804088473604
 20
-130.0285834093332
 10
89.44087996895922
 20
-129.9738063911177
 10
89.37128904015718
 20
-129.8766546984336
 10
89.25312226501312
 20
-129.7085340387534
 10
89.28378361483183
 20
-129.578998448508
 10
89.30721026413154
 20
-129.4722004884653
 10
89.30721026413154
 20
-129.4722004884653
 10
89.51253795505242
 20
-129.5576388564995
 10
89.51253795505242
 20
-129.5576388564995
 10
89.4873887580101
 20
-129.7619330187748
 10
89.5934976989558
 20
-129.8380696289988
 10
89.67928057653852
 20
-129.8735541124969
 10
89.80847165723539
 20
-129.9269530925183
 10
89.98692760337133
 20
-129.8935356663114
 10
90.0761555764393
 20
-129.6782171984832
 10
90.1739962882204
 20
-129.4418836481951
 10
90.0348144306163
 20
-129.3085584529159
 10
89.9231933368942
 20
-129.2623941734136
 10
89.89356551572105
 20
-129.2503363392152
 10
89.76334090637862
 20
-129.1959038305482
 10
89.63139374929355
 20
-129.2813421985825
 10
89.63139374929355
 20
-129.2813421985825
 10
89.4763644524573
 20
-129.1965928496453
 10
89.4763644524573
 20
-129.1965928496453
 10
89.4763644524573
 20
-129.1965928496453
 10
89.91148001224435
 20
-128.4607204539959
 10
89.91148001224435
 20
-128.4607204539959
 10
89.91148001224435
 20
-128.4607204539959
 10
90.63081594956452
 20
-128.7590657230186
 10
90.63081594956452
 20
-128.7590657230186
 10
90.63081594956452
 20
-128.7590657230186
 10
90.55640188708313
 20
-128.9388997073486
 10
90.55640188708313
 20
-128.9388997073486
 10
90.55640188708313
 20
-128.9388997073486
 10
89.98761662246838
 20
-128.7032551761575
 10
89.98761662246838
 20
-128.7032551761575
 10
89.98761662246838
 20
-128.7032551761575
 10
89.76540796366976
 20
-129.069124316691
 10
89.76540796366976
 20
-129.069124316691
 10
89.83499889247182
 20
-129.0608560875264
 10
89.92629392283094
 20
-129.0553439347501
 10
90.03584795926187
 20
-129.1008191951554
 10
90.27045896180739
 20
-129.1979708878394
 10
90.41859806767313
 20
-129.4604871638154
 10
90.29870874478644
 20
-129.7498751845764
 10
90.17709687415712
 20
-130.0433973199197
 10
89.87978513378006
 20
-130.1743109483592
 10
89.6003878899263
 20
-130.0585557400548
 97
        0
 97
        0
 75
     2
 76
     1
 98
        0
  0
SPLINE
  5
72
330
68
100
AcDbEntity
  8
_U+30EC_U+30A4_U+30E4_U+30FC 1
370
     0
100
AcDbSpline
210
0.0
220
0.0
230
1.0
 70
    11
 71
     3
 72
    17
 73
    13
 74
     0
 42
0.0000000001
 43
0.0000000001
 12
1.0
 22
0.0
 32
0.0
 13
1.0
 23
0.0
 33
0.0
 40
0.0
 40
0.0
 40
0.0
 40
0.0
 40
1.0
 40
1.0
 40
1.0
 40
2.0
 40
2.0
 40
2.0
 40
3.0
 40
3.0
 40
3.0
 40
4.0
 40
4.0
 40
4.0
 40
4.0
 10
91.3349934667496
 20
-129.3275064780848
 30
0.0
 10
91.27194821936952
 20
-129.4797796985328
 30
0.0
 10
91.0952148209762
 20
-129.5576388564995
 30
0.0
 10
90.93708493820323
 20
-129.4921820422798
 30
0.0
 10
90.78067760317289
 20
-129.427414247157
 30
0.0
 10
90.70798608843413
 20
-129.2489583010211
 30
0.0
 10
90.77206486445976
 20
-129.0942735137334
 30
0.0
 10
90.83614364048542
 20
-128.9395887264457
 30
0.0
 10
91.0139105675243
 20
-128.8644856448672
 30
0.0
 10
91.17031790255464
 20
-128.9292534399899
 30
0.0
 10
91.32810327577909
 20
-128.9947102542097
 30
0.0
 10
91.39803871412965
 20
-129.1748887480882
 30
0.0
 10
91.3349934667496
 20
-129.3275064780848
 30
0.0
  0
SPLINE
  5
73
330
68
100
AcDbEntity
  8
_U+30EC_U+30A4_U+30E4_U+30FC 1
370
     0
100
AcDbSpline
210
0.0
220
0.0
230
1.0
 70
    11
 71
     3
 72
    17
 73
    13
 74
     0
 42
0.0000000001
 43
0.0000000001
 12
1.0
 22
0.0
 32
0.0
 13
1.0
 23
0.0
 33
0.0
 40
0.0
 40
0.0
 40
0.0
 40
0.0
 40
1.0
 40
1.0
 40
1.0
 40
2.0
 40
2.0
 40
2.0
 40
3.0
 40
3.0
 40
3.0
 40
4.0
 40
4.0
 40
4.0
 40
4.0
 10
90.88747556321563
 20
-129.1421603409784
 30
0.0
 10
90.84957951287788
 20
-129.233799880886
 30
0.0
 10
90.89264320644351
 20
-129.3388752931861
 30
0.0
 10
90.98462725589968
 20
-129.3771158530724
 30
0.0
 10
91.07661130535585
 20
-129.4150119034101
 30
0.0
 10
91.18168671765598
 20
-129.371603700296
 30
0.0
 10
91.21958276799371
 20
-129.2796196508398
 30
0.0
 10
91.25747881833146
 20
-129.1876356013836
 30
0.0
 10
91.21648218205699
 20
-129.0835937177291
 30
0.0
 10
91.12243107530968
 20
-129.0446641387458
 30
0.0
 10
91.02837996856235
 20
-129.0057345597625
 30
0.0
 10
90.92537161355338
 20
-129.0501762915222
 30
0.0
 10
90.88747556321563
 20
-129.1421603409784
 30
0.0
  0
HATCH
  5
74
330
68
100
AcDbEntity
  8
_U+30EC_U+30A4_U+30E4_U+30FC 1
 62
     7
420
 16777215
100
AcDbHatch
 10
0.0
 20
0.0
 30
0.0
210
0.0
220
0.0
230
1.0
  2
SOLID
 70
     1
 71
     0
 91
        2
 92
        1
 93
        1
 72
     4
 94
        3
 73
     0
 74
     1
 95
       17
 96
       13
 40
0.0
 40
0.0
 40
0.0
 40
0.0
 40
1.0
 40
1.0
 40
1.0
 40
2.0
 40
2.0
 40
2.0
 40
3.0
 40
3.0
 40
3.0
 40
4.0
 40
4.0
 40
4.0
 40
4.0
 10
91.3349934667496
 20
-129.3275064780848
 10
91.27194821936952
 20
-129.4797796985328
 10
91.0952148209762
 20
-129.5576388564995
 10
90.93708493820323
 20
-129.4921820422798
 10
90.78067760317289
 20
-129.427414247157
 10
90.70798608843413
 20
-129.2489583010211
 10
90.77206486445976
 20
-129.0942735137334
 10
90.83614364048542
 20
-128.9395887264457
 10
91.0139105675243
 20
-128.8644856448672
 10
91.17031790255464
 20
-128.9292534399899
 10
91.32810327577909
 20
-128.9947102542097
 10
91.39803871412965
 20
-129.1748887480882
 10
91.3349934667496
 20
-129.3275064780848
 97
        0
 97
        0
 92
        1
 93
        1
 72
     4
 94
        3
 73
     0
 74
     1
 95
       17
 96
       13
 40
0.0
 40
0.0
 40
0.0
 40
0.0
 40
1.0
 40
1.0
 40
1.0
 40
2.0
 40
2.0
 40
2.0
 40
3.0
 40
3.0
 40
3.0
 40
4.0
 40
4.0
 40
4.0
 40
4.0
 10
90.88747556321563
 20
-129.1421603409784
 10
90.84957951287788
 20
-129.233799880886
 10
90.89264320644351
 20
-129.3388752931861
 10
90.98462725589968
 20
-129.3771158530724
 10
91.07661130535585
 20
-129.4150119034101
 10
91.18168671765598
 20
-129.371603700296
 10
91.21958276799371
 20
-129.2796196508398
 10
91.25747881833146
 20
-129.1876356013836
 10
91.21648218205699
 20
-129.0835937177291
 10
91.12243107530968
 20
-129.0446641387458
 10
91.02837996856235
 20
-129.0057345597625
 10
90.92537161355338
 20
-129.0501762915222
 10
90.88747556321563
 20
-129.1421603409784
 97
        0
 97
        0
 75
     2
 76
     1
 98
        0
  0
ENDBLK
  5
6B
330
68
100
AcDbEntity
  8
0
100
AcDbBlockEnd
  0
BLOCK
  5
83
330
81
100
AcDbEntity
  8
0
100
AcDbBlockBegin
  2
block 4
 70
     0
 10
0.0
 20
0.0
 30
0.0
  3
block 4
  1

  0
SPLINE
  5
85
330
81
100
AcDbEntity
  8
_U+30EC_U+30A4_U+30E4_U+30FC 1
370
     0
100
AcDbSpline
210
0.0
220
0.0
230
1.0
 70
    11
 71
     3
 72
    44
 73
    40
 74
     0
 42
0.0000000001
 43
0.0000000001
 12
1.0
 22
0.0
 32
0.0
 13
1.0
 23
0.0
 33
0.0
 40
0.0
 40
0.0
 40
0.0
 40
0.0
 40
1.0
 40
1.0
 40
1.0
 40
2.0
 40
2.0
 40
2.0
 40
3.0
 40
3.0
 40
3.0
 40
4.0
 40
4.0
 40
4.0
 40
5.0
 40
5.0
 40
5.0
 40
6.0
 40
6.0
 40
6.0
 40
7.0
 40
7.0
 40
7.0
 40
8.0
 40
8.0
 40
8.0
 40
9.0
 40
9.0
 40
9.0
 40
10.0
 40
10.0
 40
10.0
 40
11.0
 40
11.0
 40
11.0
 40
12.0
 40
12.0
 40
12.0
 40
13.0
 40
13.0
 40
13.0
 40
13.0
 10
75.06931964269101
 20
-128.0376627284073
 30
0.0
 10
74.80318601645546
 20
-127.9959770730357
 30
0.0
 10
74.6853637508599
 20
-127.9828857101918
 30
0.0
 10
74.54876571486976
 20
-128.0497205626056
 30
0.0
 10
74.54876571486976
 20
-128.0497205626056
 30
0.0
 10
75.09929197341268
 20
-128.6002468211485
 30
0.0
 10
75.09929197341268
 20
-128.6002468211485
 30
0.0
 10
75.09929197341268
 20
-128.6002468211485
 30
0.0
 10
74.95425345348366
 20
-128.7456298506261
 30
0.0
 10
74.95425345348366
 20
-128.7456298506261
 30
0.0
 10
74.95425345348366
 20
-128.7456298506261
 30
0.0
 10
74.22733830609594
 20
-128.0187147032384
 30
0.0
 10
74.22733830609594
 20
-128.0187147032384
 30
0.0
 10
74.50260143536741
 20
-127.7882378152752
 30
0.0
 10
74.60440400695654
 20
-127.7792805670135
 30
0.0
 10
75.08740639398857
 20
-127.840603266651
 30
0.0
 10
75.40935056708517
 20
-127.8812553933769
 30
0.0
 10
75.50340167383249
 20
-127.8795328456343
 30
0.0
 10
75.60055336651654
 20
-127.7820366434017
 30
0.0
 10
75.68426918680811
 20
-127.6983208231102
 30
0.0
 10
75.72612709695389
 20
-127.5546603413752
 30
0.0
 10
75.58694523934979
 20
-127.4154784837711
 30
0.0
 10
75.40297714043746
 20
-127.2315103848588
 30
0.0
 10
75.23399520688595
 20
-127.3886067389862
 30
0.0
 10
75.14872909362602
 20
-127.4678439351469
 30
0.0
 10
75.14872909362602
 20
-127.4678439351469
 30
0.0
 10
74.99025470130452
 20
-127.3093695428254
 30
0.0
 10
74.99025470130452
 20
-127.3093695428254
 30
0.0
 10
75.08620061056872
 20
-127.2259982320824
 30
0.0
 10
75.17301701679703
 20
-127.1543402459892
 30
0.0
 10
75.3132324030467
 20
-127.1267794821072
 30
0.0
 10
75.50477971202659
 20
-127.0909504890606
 30
0.0
 10
75.66032577318562
 20
-127.1987819777489
 30
0.0
 10
75.74266355528309
 20
-127.2811197598464
 30
0.0
 10
75.9386894883938
 20
-127.4771456929571
 30
0.0
 10
75.95539820149726
 20
-127.7541313699712
 30
0.0
 10
75.76230059954901
 20
-127.9470567171452
 30
0.0
 10
75.60072562129079
 20
-128.1086316954034
 30
0.0
 10
75.44810789129423
 20
-128.096573861205
 30
0.0
 10
75.06931964269101
 20
-128.0376627284073
 30
0.0
  0
HATCH
  5
86
330
81
100
AcDbEntity
  8
_U+30EC_U+30A4_U+30E4_U+30FC 1
 62
     7
420
 16777215
100
AcDbHatch
 10
0.0
 20
0.0
 30
0.0
210
0.0
220
0.0
230
1.0
  2
SOLID
 70
     1
 71
     0
 91
        1
 92
        1
 93
        1
 72
     4
 94
        3
 73
     0
 74
     1
 95
       44
 96
       40
 40
0.0
 40
0.0
 40
0.0
 40
0.0
 40
1.0
 40
1.0
 40
1.0
 40
2.0
 40
2.0
 40
2.0
 40
3.0
 40
3.0
 40
3.0
 40
4.0
 40
4.0
 40
4.0
 40
5.0
 40
5.0
 40
5.0
 40
6.0
 40
6.0
 40
6.0
 40
7.0
 40
7.0
 40
7.0
 40
8.0
 40
8.0
 40
8.0
 40
9.0
 40
9.0
 40
9.0
 40
10.0
 40
10.0
 40
10.0
 40
11.0
 40
11.0
 40
11.0
 40
12.0
 40
12.0
 40
12.0
 40
13.0
 40
13.0
 40
13.0
 40
13.0
 10
75.06931964269101
 20
-128.0376627284073
 10
74.80318601645546
 20
-127.9959770730357
 10
74.6853637508599
 20
-127.9828857101918
 10
74.54876571486976
 20
-128.0497205626056
 10
74.54876571486976
 20
-128.0497205626056
 10
75.09929197341268
 20
-128.6002468211485
 10
75.09929197341268
 20
-128.6002468211485
 10
75.09929197341268
 20
-128.6002468211485
 10
74.95425345348366
 20
-128.7456298506261
 10
74.95425345348366
 20
-128.7456298506261
 10
74.95425345348366
 20
-128.7456298506261
 10
74.22733830609594
 20
-128.0187147032384
 10
74.22733830609594
 20
-128.0187147032384
 10
74.50260143536741
 20
-127.7882378152752
 10
74.60440400695654
 20
-127.7792805670135
 10
75.08740639398857
 20
-127.840603266651
 10
75.40935056708517
 20
-127.8812553933769
 10
75.50340167383249
 20
-127.8795328456343
 10
75.60055336651654
 20
-127.7820366434017
 10
75.68426918680811
 20
-127.6983208231102
 10
75.72612709695389
 20
-127.5546603413752
 10
75.58694523934979
 20
-127.4154784837711
 10
75.40297714043746
 20
-127.2315103848588
 10
75.23399520688595
 20
-127.3886067389862
 10
75.14872909362602
 20
-127.4678439351469
 10
75.14872909362602
 20
-127.4678439351469
 10
74.99025470130452
 20
-127.3093695428254
 10
74.99025470130452
 20
-127.3093695428254
 10
75.08620061056872
 20
-127.2259982320824
 10
75.17301701679703
 20
-127.1543402459892
 10
75.3132324030467
 20
-127.1267794821072
 10
75.50477971202659
 20
-127.0909504890606
 10
75.66032577318562
 20
-127.1987819777489
 10
75.74266355528309
 20
-127.2811197598464
 10
75.9386894883938
 20
-127.4771456929571
 10
75.95539820149726
 20
-127.7541313699712
 10
75.76230059954901
 20
-127.9470567171452
 10
75.60072562129079
 20
-128.1086316954034
 10
75.44810789129423
 20
-128.096573861205
 10
75.06931964269101
 20
-128.0376627284073
 97
        0
 97
        0
 75
     2
 76
     1
 98
        0
  0
SPLINE
  5
87
330
81
100
AcDbEntity
  8
_U+30EC_U+30A4_U+30E4_U+30FC 1
370
     0
100
AcDbSpline
210
0.0
220
0.0
230
1.0
 70
    11
 71
     3
 72
    53
 73
    49
 74
     0
 42
0.0000000001
 43
0.0000000001
 12
1.0
 22
0.0
 32
0.0
 13
1.0
 23
0.0
 33
0.0
 40
0.0
 40
0.0
 40
0.0
 40
0.0
 40
1.0
 40
1.0
 40
1.0
 40
2.0
 40
2.0
 40
2.0
 40
3.0
 40
3.0
 40
3.0
 40
4.0
 40
4.0
 40
4.0
 40
5.0
 40
5.0
 40
5.0
 40
6.0
 40
6.0
 40
6.0
 40
7.0
 40
7.0
 40
7.0
 40
8.0
 40
8.0
 40
8.0
 40
9.0
 40
9.0
 40
9.0
 40
10.0
 40
10.0
 40
10.0
 40
11.0
 40
11.0
 40
11.0
 40
12.0
 40
12.0
 40
12.0
 40
13.0
 40
13.0
 40
13.0
 40
14.0
 40
14.0
 40
14.0
 40
15.0
 40
15.0
 40
15.0
 40
16.0
 40
16.0
 40
16.0
 40
16.0
 10
75.3752441217812
 20
-129.2382785050168
 30
0.0
 10
75.32012259401719
 20
-129.1831569772528
 30
0.0
 10
75.26000567779958
 20
-129.0990966474127
 30
0.0
 10
75.23296167824037
 20
-128.9823079104628
 30
0.0
 10
75.18834769170638
 20
-128.7821478627697
 30
0.0
 10
75.26603459489877
 20
-128.6743163740814
 30
0.0
 10
75.32873533273032
 20
-128.5843993819164
 30
0.0
 10
75.32873533273032
 20
-128.5843993819164
 30
0.0
 10
75.48583168685771
 20
-128.7414957360438
 30
0.0
 10
75.48583168685771
 20
-128.7414957360438
 30
0.0
 10
75.38385686049432
 20
-128.9206407012768
 30
0.0
 10
75.45293102497358
 20
-129.0315727759018
 30
0.0
 10
75.51873234874185
 20
-129.0973740996701
 30
0.0
 10
75.61760658916852
 20
-129.1962483400968
 30
0.0
 10
75.7953735162074
 20
-129.2334553713375
 30
0.0
 10
75.95987682562809
 20
-129.069124316691
 30
0.0
 10
76.14091659337797
 20
-128.8879122941669
 30
0.0
 10
76.06305743541132
 20
-128.7115234053221
 30
0.0
 10
75.97796357692565
 20
-128.6264295468364
 30
0.0
 10
75.95557045627153
 20
-128.6040364261823
 30
0.0
 10
75.85531817765076
 20
-128.5037841475616
 30
0.0
 10
75.70115015468583
 20
-128.5320339305406
 30
0.0
 10
75.70115015468583
 20
-128.5320339305406
 30
0.0
 10
75.5905625896093
 20
-128.3945746206792
 30
0.0
 10
75.5905625896093
 20
-128.3945746206792
 30
0.0
 10
75.5905625896093
 20
-128.3945746206792
 30
0.0
 10
76.27389727910861
 20
-127.8812553933769
 30
0.0
 10
76.27389727910861
 20
-127.8812553933769
 30
0.0
 10
76.27389727910861
 20
-127.8812553933769
 30
0.0
 10
76.82442353765154
 20
-128.4317816519198
 30
0.0
 10
76.82442353765154
 20
-128.4317816519198
 30
0.0
 10
76.82442353765154
 20
-128.4317816519198
 30
0.0
 10
76.6867919730158
 20
-128.5692409617813
 30
0.0
 10
76.6867919730158
 20
-128.5692409617813
 30
0.0
 10
76.6867919730158
 20
-128.5692409617813
 30
0.0
 10
76.25167641322875
 20
-128.1341254019943
 30
0.0
 10
76.25167641322875
 20
-128.1341254019943
 30
0.0
 10
76.25167641322875
 20
-128.1341254019943
 30
0.0
 10
75.90613333605819
 20
-128.3869954106116
 30
0.0
 10
75.90613333605819
 20
-128.3869954106116
 30
0.0
 10
75.97348495279482
 20
-128.406287945329
 30
0.0
 10
76.06012910424886
 20
-128.4362602760507
 30
0.0
 10
76.14418943408896
 20
-128.5203206058908
 30
0.0
 10
76.32367890887048
 20
-128.6998100806723
 30
0.0
 10
76.35933564714281
 20
-128.998844368792
 30
0.0
 10
76.1379882622155
 20
-129.220019498945
 30
0.0
 10
75.91354029135148
 20
-129.4446397245833
 30
0.0
 10
75.5891845514152
 20
-129.4522189346508
 30
0.0
 10
75.3752441217812
 20
-129.2382785050168
 30
0.0
  0
HATCH
  5
88
330
81
100
AcDbEntity
  8
_U+30EC_U+30A4_U+30E4_U+30FC 1
 62
     7
420
 16777215
100
AcDbHatch
 10
0.0
 20
0.0
 30
0.0
210
0.0
220
0.0
230
1.0
  2
SOLID
 70
     1
 71
     0
 91
        1
 92
        1
 93
        1
 72
     4
 94
        3
 73
     0
 74
     1
 95
       53
 96
       49
 40
0.0
 40
0.0
 40
0.0
 40
0.0
 40
1.0
 40
1.0
 40
1.0
 40
2.0
 40
2.0
 40
2.0
 40
3.0
 40
3.0
 40
3.0
 40
4.0
 40
4.0
 40
4.0
 40
5.0
 40
5.0
 40
5.0
 40
6.0
 40
6.0
 40
6.0
 40
7.0
 40
7.0
 40
7.0
 40
8.0
 40
8.0
 40
8.0
 40
9.0
 40
9.0
 40
9.0
 40
10.0
 40
10.0
 40
10.0
 40
11.0
 40
11.0
 40
11.0
 40
12.0
 40
12.0
 40
12.0
 40
13.0
 40
13.0
 40
13.0
 40
14.0
 40
14.0
 40
14.0
 40
15.0
 40
15.0
 40
15.0
 40
16.0
 40
16.0
 40
16.0
 40
16.0
 10
75.3752441217812
 20
-129.2382785050168
 10
75.32012259401719
 20
-129.1831569772528
 10
75.26000567779958
 20
-129.0990966474127
 10
75.23296167824037
 20
-128.9823079104628
 10
75.18834769170638
 20
-128.7821478627697
 10
75.26603459489877
 20
-128.6743163740814
 10
75.32873533273032
 20
-128.5843993819164
 10
75.32873533273032
 20
-128.5843993819164
 10
75.48583168685771
 20
-128.7414957360438
 10
75.48583168685771
 20
-128.7414957360438
 10
75.38385686049432
 20
-128.9206407012768
 10
75.45293102497358
 20
-129.0315727759018
 10
75.51873234874185
 20
-129.0973740996701
 10
75.61760658916852
 20
-129.1962483400968
 10
75.7953735162074
 20
-129.2334553713375
 10
75.95987682562809
 20
-129.069124316691
 10
76.14091659337797
 20
-128.8879122941669
 10
76.06305743541132
 20
-128.7115234053221
 10
75.97796357692565
 20
-128.6264295468364
 10
75.95557045627153
 20
-128.6040364261823
 10
75.85531817765076
 20
-128.5037841475616
 10
75.70115015468583
 20
-128.5320339305406
 10
75.70115015468583
 20
-128.5320339305406
 10
75.5905625896093
 20
-128.3945746206792
 10
75.5905625896093
 20
-128.3945746206792
 10
75.5905625896093
 20
-128.3945746206792
 10
76.27389727910861
 20
-127.8812553933769
 10
76.27389727910861
 20
-127.8812553933769
 10
76.27389727910861
 20
-127.8812553933769
 10
76.82442353765154
 20
-128.4317816519198
 10
76.82442353765154
 20
-128.4317816519198
 10
76.82442353765154
 20
-128.4317816519198
 10
76.6867919730158
 20
-128.5692409617813
 10
76.6867919730158
 20
-128.5692409617813
 10
76.6867919730158
 20
-128.5692409617813
 10
76.25167641322875
 20
-128.1341254019943
 10
76.25167641322875
 20
-128.1341254019943
 10
76.25167641322875
 20
-128.1341254019943
 10
75.90613333605819
 20
-128.3869954106116
 10
75.90613333605819
 20
-128.3869954106116
 10
75.97348495279482
 20
-128.406287945329
 10
76.06012910424886
 20
-128.4362602760507
 10
76.14418943408896
 20
-128.5203206058908
 10
76.32367890887048
 20
-128.6998100806723
 10
76.35933564714281
 20
-128.998844368792
 10
76.1379882622155
 20
-129.220019498945
 10
75.91354029135148
 20
-129.4446397245833
 10
75.5891845514152
 20
-129.4522189346508
 10
75.3752441217812
 20
-129.2382785050168
 97
        0
 97
        0
 75
     2
 76
     1
 98
        0
  0
ENDBLK
  5
84
330
81
100
AcDbEntity
  8
0
100
AcDbBlockEnd
  0
BLOCK
  5
97
330
95
100
AcDbEntity
  8
0
100
AcDbBlockBegin
  2
block 5
 70
     0
 10
0.0
 20
0.0
 30
0.0
  3
block 5
  1

  0
SPLINE
  5
99
330
95
100
AcDbEntity
  8
_U+30EC_U+30A4_U+30E4_U+30FC 1
370
     0
100
AcDbSpline
210
0.0
220
0.0
230
1.0
 70
    11
 71
     3
 72
    44
 73
    40
 74
     0
 42
0.0000000001
 43
0.0000000001
 12
1.0
 22
0.0
 32
0.0
 13
1.0
 23
0.0
 33
0.0
 40
0.0
 40
0.0
 40
0.0
 40
0.0
 40
1.0
 40
1.0
 40
1.0
 40
2.0
 40
2.0
 40
2.0
 40
3.0
 40
3.0
 40
3.0
 40
4.0
 40
4.0
 40
4.0
 40
5.0
 40
5.0
 40
5.0
 40
6.0
 40
6.0
 40
6.0
 40
7.0
 40
7.0
 40
7.0
 40
8.0
 40
8.0
 40
8.0
 40
9.0
 40
9.0
 40
9.0
 40
10.0
 40
10.0
 40
10.0
 40
11.0
 40
11.0
 40
11.0
 40
12.0
 40
12.0
 40
12.0
 40
13.0
 40
13.0
 40
13.0
 40
13.0
 10
98.30545516205558
 20
-138.231355759713
 30
0.0
 10
98.0877251273878
 20
-138.390174661583
 30
0.0
 10
97.99470754928605
 20
-138.4642442145159
 30
0.0
 10
97.9457871933955
 20
-138.6079046962508
 30
0.0
 10
97.9457871933955
 20
-138.6079046962508
 30
0.0
 10
98.72437877306197
 20
-138.6079046962508
 30
0.0
 10
98.72437877306197
 20
-138.6079046962508
 30
0.0
 10
98.72437877306197
 20
-138.6079046962508
 30
0.0
 10
98.72437877306197
 20
-138.8132323871717
 30
0.0
 10
98.72437877306197
 20
-138.8132323871717
 30
0.0
 10
98.72437877306197
 20
-138.8132323871717
 30
0.0
 10
97.69636228026341
 20
-138.8132323871717
 30
0.0
 10
97.69636228026341
 20
-138.8132323871717
 30
0.0
 10
97.72805715872771
 20
-138.4556314758028
 30
0.0
 10
97.79351397294747
 20
-138.3774278082876
 30
0.0
 10
98.17867564819839
 20
-138.079082539265
 30
0.0
 10
98.43464624275245
 20
-137.880300529766
 30
0.0
 10
98.50010305697221
 20
-137.8124321487066
 30
0.0
 10
98.50010305697221
 20
-137.6749728388452
 30
0.0
 10
98.50010305697221
 20
-137.5564615541525
 30
0.0
 10
98.42810056133048
 20
-137.4255479257131
 30
0.0
 10
98.23138560912271
 20
-137.4255479257131
 30
0.0
 10
97.97128089998635
 20
-137.4255479257131
 30
0.0
 10
97.96301267082175
 20
-137.6560248136763
 30
0.0
 10
97.95853404669093
 20
-137.7724690410777
 30
0.0
 10
97.95853404669093
 20
-137.7724690410777
 30
0.0
 10
97.73425833060116
 20
-137.7724690410777
 30
0.0
 10
97.73425833060116
 20
-137.7724690410777
 30
0.0
 10
97.74287106931429
 20
-137.645345017672
 30
0.0
 10
97.75355086531856
 20
-137.5333794144014
 30
0.0
 10
97.83382159012488
 20
-137.4148681297088
 30
0.0
 10
97.94372013610435
 20
-137.2539821705476
 30
0.0
 10
98.13009980185637
 20
-137.2202202347922
 30
0.0
 10
98.2461995197093
 20
-137.2202202347922
 30
0.0
 10
98.5235297062719
 20
-137.2202202347922
 30
0.0
 10
98.73092445448394
 20
-137.4041883337045
 30
0.0
 10
98.73092445448394
 20
-137.6770398961363
 30
0.0
 10
98.73092445448394
 20
-137.9057942363569
 30
0.0
 10
98.6144802270825
 20
-138.0050129863321
 30
0.0
 10
98.30545516205558
 20
-138.231355759713
 30
0.0
  0
HATCH
  5
9A
330
95
100
AcDbEntity
  8
_U+30EC_U+30A4_U+30E4_U+30FC 1
 62
     7
420
 16777215
100
AcDbHatch
 10
0.0
 20
0.0
 30
0.0
210
0.0
220
0.0
230
1.0
  2
SOLID
 70
     1
 71
     0
 91
        1
 92
        1
 93
        1
 72
     4
 94
        3
 73
     0
 74
     1
 95
       44
 96
       40
 40
0.0
 40
0.0
 40
0.0
 40
0.0
 40
1.0
 40
1.0
 40
1.0
 40
2.0
 40
2.0
 40
2.0
 40
3.0
 40
3.0
 40
3.0
 40
4.0
 40
4.0
 40
4.0
 40
5.0
 40
5.0
 40
5.0
 40
6.0
 40
6.0
 40
6.0
 40
7.0
 40
7.0
 40
7.0
 40
8.0
 40
8.0
 40
8.0
 40
9.0
 40
9.0
 40
9.0
 40
10.0
 40
10.0
 40
10.0
 40
11.0
 40
11.0
 40
11.0
 40
12.0
 40
12.0
 40
12.0
 40
13.0
 40
13.0
 40
13.0
 40
13.0
 10
98.30545516205558
 20
-138.231355759713
 10
98.0877251273878
 20
-138.390174661583
 10
97.99470754928605
 20
-138.4642442145159
 10
97.9457871933955
 20
-138.6079046962508
 10
97.9457871933955
 20
-138.6079046962508
 10
98.72437877306197
 20
-138.6079046962508
 10
98.72437877306197
 20
-138.6079046962508
 10
98.72437877306197
 20
-138.6079046962508
 10
98.72437877306197
 20
-138.8132323871717
 10
98.72437877306197
 20
-138.8132323871717
 10
98.72437877306197
 20
-138.8132323871717
 10
97.69636228026341
 20
-138.8132323871717
 10
97.69636228026341
 20
-138.8132323871717
 10
97.72805715872771
 20
-138.4556314758028
 10
97.79351397294747
 20
-138.3774278082876
 10
98.17867564819839
 20
-138.079082539265
 10
98.43464624275245
 20
-137.880300529766
 10
98.50010305697221
 20
-137.8124321487066
 10
98.50010305697221
 20
-137.6749728388452
 10
98.50010305697221
 20
-137.5564615541525
 10
98.42810056133048
 20
-137.4255479257131
 10
98.23138560912271
 20
-137.4255479257131
 10
97.97128089998635
 20
-137.4255479257131
 10
97.96301267082175
 20
-137.6560248136763
 10
97.95853404669093
 20
-137.7724690410777
 10
97.95853404669093
 20
-137.7724690410777
 10
97.73425833060116
 20
-137.7724690410777
 10
97.73425833060116
 20
-137.7724690410777
 10
97.74287106931429
 20
-137.645345017672
 10
97.75355086531856
 20
-137.5333794144014
 10
97.83382159012488
 20
-137.4148681297088
 10
97.94372013610435
 20
-137.2539821705476
 10
98.13009980185637
 20
-137.2202202347922
 10
98.2461995197093
 20
-137.2202202347922
 10
98.5235297062719
 20
-137.2202202347922
 10
98.73092445448394
 20
-137.4041883337045
 10
98.73092445448394
 20
-137.6770398961363
 10
98.73092445448394
 20
-137.9057942363569
 10
98.6144802270825
 20
-138.0050129863321
 10
98.30545516205558
 20
-138.231355759713
 97
        0
 97
        0
 75
     2
 76
     1
 98
        0
  0
SPLINE
  5
9B
330
95
100
AcDbEntity
  8
_U+30EC_U+30A4_U+30E4_U+30FC 1
370
     0
100
AcDbSpline
210
0.0
220
0.0
230
1.0
 70
    11
 71
     3
 72
    53
 73
    49
 74
     0
 42
0.0000000001
 43
0.0000000001
 12
1.0
 22
0.0
 32
0.0
 13
1.0
 23
0.0
 33
0.0
 40
0.0
 40
0.0
 40
0.0
 40
0.0
 40
1.0
 40
1.0
 40
1.0
 40
2.0
 40
2.0
 40
2.0
 40
3.0
 40
3.0
 40
3.0
 40
4.0
 40
4.0
 40
4.0
 40
5.0
 40
5.0
 40
5.0
 40
6.0
 40
6.0
 40
6.0
 40
7.0
 40
7.0
 40
7.0
 40
8.0
 40
8.0
 40
8.0
 40
9.0
 40
9.0
 40
9.0
 40
10.0
 40
10.0
 40
10.0
 40
11.0
 40
11.0
 40
11.0
 40
12.0
 40
12.0
 40
12.0
 40
13.0
 40
13.0
 40
13.0
 40
14.0
 40
14.0
 40
14.0
 40
15.0
 40
15.0
 40
15.0
 40
16.0
 40
16.0
 40
16.0
 40
16.0
 10
99.37033417654631
 20
-138.8638752908049
 30
0.0
 10
99.29213050903114
 20
-138.8638752908049
 30
0.0
 10
99.19050019221626
 20
-138.8469943229271
 30
0.0
 10
99.0888698754014
 20
-138.7836045659986
 30
0.0
 10
98.91558157249334
 20
-138.6737060200191
 30
0.0
 10
98.89422198048479
 20
-138.5424478820311
 30
0.0
 10
98.8752739553159
 20
-138.4346163933427
 30
0.0
 10
98.8752739553159
 20
-138.4346163933427
 30
0.0
 10
99.09748261411453
 20
-138.4346163933427
 30
0.0
 10
99.09748261411453
 20
-138.4346163933427
 30
0.0
 10
99.15225963233
 20
-138.6333984028417
 30
0.0
 10
99.27938365573571
 20
-138.6630262240148
 30
0.0
 10
99.37240123383746
 20
-138.6630262240148
 30
0.0
 10
99.51192760099008
 20
-138.6630262240148
 30
0.0
 10
99.66420082143811
 20
-138.5634629644911
 30
0.0
 10
99.66420082143811
 20
-138.3309190192367
 30
0.0
 10
99.66420082143811
 20
-138.0749484246826
 30
0.0
 10
99.48436683710808
 20
-138.0050129863321
 30
0.0
 10
99.36378849512434
 20
-138.0050129863321
 30
0.0
 10
99.33209361666003
 20
-138.0050129863321
 30
0.0
 10
99.19050019221626
 20
-138.0050129863321
 30
0.0
 10
99.10161672869683
 20
-138.1342040670289
 30
0.0
 10
99.10161672869683
 20
-138.1342040670289
 30
0.0
 10
98.92591685894908
 20
-138.1152560418601
 30
0.0
 10
98.92591685894908
 20
-138.1152560418601
 30
0.0
 10
98.92591685894908
 20
-138.1152560418601
 30
0.0
 10
99.04649520093282
 20
-137.2687960811342
 30
0.0
 10
99.04649520093282
 20
-137.2687960811342
 30
0.0
 10
99.04649520093282
 20
-137.2687960811342
 30
0.0
 10
99.82508678059929
 20
-137.2687960811342
 30
0.0
 10
99.82508678059929
 20
-137.2687960811342
 30
0.0
 10
99.82508678059929
 20
-137.2687960811342
 30
0.0
 10
99.82508678059929
 20
-137.4634439760508
 30
0.0
 10
99.82508678059929
 20
-137.4634439760508
 30
0.0
 10
99.82508678059929
 20
-137.4634439760508
 30
0.0
 10
99.20944821738514
 20
-137.4634439760508
 30
0.0
 10
99.20944821738514
 20
-137.4634439760508
 30
0.0
 10
99.20944821738514
 20
-137.4634439760508
 30
0.0
 10
99.1439914031654
 20
-137.8865017016395
 30
0.0
 10
99.1439914031654
 20
-137.8865017016395
 30
0.0
 10
99.20531410280284
 20
-137.8527397658841
 30
0.0
 10
99.28765188490031
 20
-137.8124321487066
 30
0.0
 10
99.40616316959292
 20
-137.8124321487066
 30
0.0
 10
99.66006670685582
 20
-137.8124321487066
 30
0.0
 10
99.897089276241
 20
-137.9988118144586
 30
0.0
 10
99.897089276241
 20
-138.3119709940678
 30
0.0
 10
99.897089276241
 20
-138.6292642882593
 30
0.0
 10
99.67281356015124
 20
-138.8638752908049
 30
0.0
 10
99.37033417654631
 20
-138.8638752908049
 30
0.0
  0
HATCH
  5
9C
330
95
100
AcDbEntity
  8
_U+30EC_U+30A4_U+30E4_U+30FC 1
 62
     7
420
 16777215
100
AcDbHatch
 10
0.0
 20
0.0
 30
0.0
210
0.0
220
0.0
230
1.0
  2
SOLID
 70
     1
 71
     0
 91
        1
 92
        1
 93
        1
 72
     4
 94
        3
 73
     0
 74
     1
 95
       53
 96
       49
 40
0.0
 40
0.0
 40
0.0
 40
0.0
 40
1.0
 40
1.0
 40
1.0
 40
2.0
 40
2.0
 40
2.0
 40
3.0
 40
3.0
 40
3.0
 40
4.0
 40
4.0
 40
4.0
 40
5.0
 40
5.0
 40
5.0
 40
6.0
 40
6.0
 40
6.0
 40
7.0
 40
7.0
 40
7.0
 40
8.0
 40
8.0
 40
8.0
 40
9.0
 40
9.0
 40
9.0
 40
10.0
 40
10.0
 40
10.0
 40
11.0
 40
11.0
 40
11.0
 40
12.0
 40
12.0
 40
12.0
 40
13.0
 40
13.0
 40
13.0
 40
14.0
 40
14.0
 40
14.0
 40
15.0
 40
15.0
 40
15.0
 40
16.0
 40
16.0
 40
16.0
 40
16.0
 10
99.37033417654631
 20
-138.8638752908049
 10
99.29213050903114
 20
-138.8638752908049
 10
99.19050019221626
 20
-138.8469943229271
 10
99.0888698754014
 20
-138.7836045659986
 10
98.91558157249334
 20
-138.6737060200191
 10
98.89422198048479
 20
-138.5424478820311
 10
98.8752739553159
 20
-138.4346163933427
 10
98.8752739553159
 20
-138.4346163933427
 10
99.09748261411453
 20
-138.4346163933427
 10
99.09748261411453
 20
-138.4346163933427
 10
99.15225963233
 20
-138.6333984028417
 10
99.27938365573571
 20
-138.6630262240148
 10
99.37240123383746
 20
-138.6630262240148
 10
99.51192760099008
 20
-138.6630262240148
 10
99.66420082143811
 20
-138.5634629644911
 10
99.66420082143811
 20
-138.3309190192367
 10
99.66420082143811
 20
-138.0749484246826
 10
99.48436683710808
 20
-138.0050129863321
 10
99.36378849512434
 20
-138.0050129863321
 10
99.33209361666003
 20
-138.0050129863321
 10
99.19050019221626
 20
-138.0050129863321
 10
99.10161672869683
 20
-138.1342040670289
 10
99.10161672869683
 20
-138.1342040670289
 10
98.92591685894908
 20
-138.1152560418601
 10
98.92591685894908
 20
-138.1152560418601
 10
98.92591685894908
 20
-138.1152560418601
 10
99.04649520093282
 20
-137.2687960811342
 10
99.04649520093282
 20
-137.2687960811342
 10
99.04649520093282
 20
-137.2687960811342
 10
99.82508678059929
 20
-137.2687960811342
 10
99.82508678059929
 20
-137.2687960811342
 10
99.82508678059929
 20
-137.2687960811342
 10
99.82508678059929
 20
-137.4634439760508
 10
99.82508678059929
 20
-137.4634439760508
 10
99.82508678059929
 20
-137.4634439760508
 10
99.20944821738514
 20
-137.4634439760508
 10
99.20944821738514
 20
-137.4634439760508
 10
99.20944821738514
 20
-137.4634439760508
 10
99.1439914031654
 20
-137.8865017016395
 10
99.1439914031654
 20
-137.8865017016395
 10
99.20531410280284
 20
-137.8527397658841
 10
99.28765188490031
 20
-137.8124321487066
 10
99.40616316959292
 20
-137.8124321487066
 10
99.66006670685582
 20
-137.8124321487066
 10
99.897089276241
 20
-137.9988118144586
 10
99.897089276241
 20
-138.3119709940678
 10
99.897089276241
 20
-138.6292642882593
 10
99.67281356015124
 20
-138.8638752908049
 10
99.37033417654631
 20
-138.8638752908049
 97
        0
 97
        0
 75
     2
 76
     1
 98
        0
  0
ENDBLK
  5
98
330
95
100
AcDbEntity
  8
0
100
AcDbBlockEnd
  0
ENDSEC
  0
SECTION
  2
ENTITIES
  0
SPLINE
  5
41
330
1F
100
AcDbEntity
  8
_U+30EC_U+30A4_U+30E4_U+30FC 1
 62
     7
420
 16777215
370
     9
100
AcDbSpline
210
0.0
220
0.0
230
1.0
 70
     8
 71
     3
 72
    17
 73
    13
 74
     0
 42
0.0000000001
 43
0.0000000001
 12
1.0
 22
0.0
 32
0.0
 13
1.0
 23
0.0
 33
0.0
 40
0.0
 40
0.0
 40
0.0
 40
0.0
 40
1.0
 40
1.0
 40
1.0
 40
2.0
 40
2.0
 40
2.0
 40
3.0
 40
3.0
 40
3.0
 40
4.0
 40
4.0
 40
4.0
 40
4.0
 10
111.4467657678672
 20
-139.338261631832
 30
0.0
 10
111.4078543799711
 20
-139.2996677429529
 30
0.0
 10
111.3444602149217
 20
-139.2996677429529
 30
0.0
 10
111.3055135492487
 20
-139.338261631832
 30
0.0
 10
111.2662493835837
 20
-139.377525798489
 30
0.0
 10
111.2662493835837
 20
-139.44091996514
 30
0.0
 10
111.3055135492487
 20
-139.4802194095745
 30
0.0
 10
111.3444602149217
 20
-139.518778020676
 30
0.0
 10
111.4078543799711
 20
-139.518778020676
 30
0.0
 10
111.4467657678672
 20
-139.4802194095745
 30
0.0
 10
111.4657099340506
 20
-139.4609224651347
 30
0.0
 10
111.4760463226758
 20
-139.4354166318078
 30
0.0
 10
111.4760463226758
 20
-139.4092405207036
 30
0.0
  0
SPLINE
  5
42
330
1F
100
AcDbEntity
  8
_U+30EC_U+30A4_U+30E4_U+30FC 1
 62
     7
420
 16777215
370
     9
100
AcDbSpline
210
0.0
220
0.0
230
1.0
 70
    11
 71
     3
 72
    17
 73
    13
 74
     0
 42
0.0000000001
 43
0.0000000001
 12
1.0
 22
0.0
 32
0.0
 13
1.0
 23
0.0
 33
0.0
 40
0.0
 40
0.0
 40
0.0
 40
0.0
 40
1.0
 40
1.0
 40
1.0
 40
2.0
 40
2.0
 40
2.0
 40
3.0
 40
3.0
 40
3.0
 40
4.0
 40
4.0
 40
4.0
 40
4.0
 10
115.4585898321837
 20
-135.4094813550367
 30
0.0
 10
115.4585898321837
 20
-135.3543421883836
 30
0.0
 10
115.413787055549
 20
-135.309574688395
 30
0.0
 10
115.3586860822715
 20
-135.309574688395
 30
0.0
 10
115.3032265028141
 20
-135.309574688395
 30
0.0
 10
115.2584237261793
 20
-135.3543421883836
 30
0.0
 10
115.2584237261793
 20
-135.4094813550367
 30
0.0
 10
115.2584237261793
 20
-135.4645852439116
 30
0.0
 10
115.3032265028141
 20
-135.5093880216783
 30
0.0
 10
115.3586860822715
 20
-135.5093880216783
 30
0.0
 10
115.413787055549
 20
-135.5093880216783
 30
0.0
 10
115.4585898321837
 20
-135.4645852439116
 30
0.0
 10
115.4585898321837
 20
-135.4094813550367
 30
0.0
  0
SPLINE
  5
43
330
1F
100
AcDbEntity
  8
_U+30EC_U+30A4_U+30E4_U+30FC 1
 62
     7
420
 16777215
370
     9
100
AcDbSpline
210
0.0
220
0.0
230
1.0
 70
    11
 71
     3
 72
    17
 73
    13
 74
     0
 42
0.0000000001
 43
0.0000000001
 12
1.0
 22
0.0
 32
0.0
 13
1.0
 23
0.0
 33
0.0
 40
0.0
 40
0.0
 40
0.0
 40
0.0
 40
1.0
 40
1.0
 40
1.0
 40
2.0
 40
2.0
 40
2.0
 40
3.0
 40
3.0
 40
3.0
 40
4.0
 40
4.0
 40
4.0
 40
4.0
 10
115.4585898321837
 20
-133.8998394109696
 30
0.0
 10
115.4585898321837
 20
-133.8447002443165
 30
0.0
 10
115.413787055549
 20
-133.7999327443279
 30
0.0
 10
115.3586860822715
 20
-133.7999327443279
 30
0.0
 10
115.3032265028141
 20
-133.7999327443279
 30
0.0
 10
115.2584237261793
 20
-133.8447002443165
 30
0.0
 10
115.2584237261793
 20
-133.8998394109696
 30
0.0
 10
115.2584237261793
 20
-133.9549432998445
 30
0.0
 10
115.3032265028141
 20
-133.9997460776112
 30
0.0
 10
115.3586860822715
 20
-133.9997460776112
 30
0.0
 10
115.413787055549
 20
-133.9997460776112
 30
0.0
 10
115.4585898321837
 20
-133.9549432998445
 30
0.0
 10
115.4585898321837
 20
-133.8998394109696
 30
0.0
  0
SPLINE
  5
44
330
1F
100
AcDbEntity
  8
_U+30EC_U+30A4_U+30E4_U+30FC 1
 62
     7
420
 16777215
370
     9
100
AcDbSpline
210
0.0
220
0.0
230
1.0
 70
    11
 71
     3
 72
    17
 73
    13
 74
     0
 42
0.0000000001
 43
0.0000000001
 12
1.0
 22
0.0
 32
0.0
 13
1.0
 23
0.0
 33
0.0
 40
0.0
 40
0.0
 40
0.0
 40
0.0
 40
1.0
 40
1.0
 40
1.0
 40
2.0
 40
2.0
 40
2.0
 40
3.0
 40
3.0
 40
3.0
 40
4.0
 40
4.0
 40
4.0
 40
4.0
 10
65.92326415149076
 20
-120.4713885809933
 30
0.0
 10
65.92326415149076
 20
-120.4162494143405
 30
0.0
 10
65.87849665263286
 20
-120.3714466365738
 30
0.0
 10
65.82335748737292
 20
-120.3714466365738
 30
0.0
 10
65.76825359988985
 20
-120.3714466365738
 30
0.0
 10
65.72345082325508
 20
-120.4162494143405
 30
0.0
 10
65.72345082325508
 20
-120.4713885809933
 30
0.0
 10
65.72345082325508
 20
-120.5264924698685
 30
0.0
 10
65.76825359988985
 20
-120.5712952476349
 30
0.0
 10
65.82335748737292
 20
-120.5712952476349
 30
0.0
 10
65.87849665263286
 20
-120.5712952476349
 30
0.0
 10
65.92326415149076
 20
-120.5264924698685
 30
0.0
 10
65.92326415149076
 20
-120.4713885809933
 30
0.0
  0
SPLINE
  5
45
330
1F
100
AcDbEntity
  8
_U+30EC_U+30A4_U+30E4_U+30FC 1
 62
     7
420
 16777215
370
     9
100
AcDbSpline
210
0.0
220
0.0
230
1.0
 70
    11
 71
     3
 72
    17
 73
    13
 74
     0
 42
0.0000000001
 43
0.0000000001
 12
1.0
 22
0.0
 32
0.0
 13
1.0
 23
0.0
 33
0.0
 40
0.0
 40
0.0
 40
0.0
 40
0.0
 40
1.0
 40
1.0
 40
1.0
 40
2.0
 40
2.0
 40
2.0
 40
3.0
 40
3.0
 40
3.0
 40
4.0
 40
4.0
 40
4.0
 40
4.0
 10
83.66001314343303
 20
-138.2379124654404
 30
0.0
 10
83.66001314343303
 20
-138.1827732987873
 30
0.0
 10
83.61521036679827
 20
-138.1380057987988
 30
0.0
 10
83.5601064793152
 20
-138.1380057987988
 30
0.0
 10
83.50496942356833
 20
-138.1380057987988
 30
0.0
 10
83.46019981519736
 20
-138.1827732987873
 30
0.0
 10
83.46019981519736
 20
-138.2379124654404
 30
0.0
 10
83.46019981519736
 20
-138.2930163543153
 30
0.0
 10
83.50496942356833
 20
-138.337819132082
 30
0.0
 10
83.5601064793152
 20
-138.337819132082
 30
0.0
 10
83.61521036679827
 20
-138.337819132082
 30
0.0
 10
83.66001314343303
 20
-138.2930163543153
 30
0.0
 10
83.66001314343303
 20
-138.2379124654404
 30
0.0
  0
SPLINE
  5
46
330
1F
100
AcDbEntity
  8
_U+30EC_U+30A4_U+30E4_U+30FC 1
 62
     7
420
 16777215
370
     9
100
AcDbSpline
210
0.0
220
0.0
230
1.0
 70
    11
 71
     3
 72
    17
 73
    13
 74
     0
 42
0.0000000001
 43
0.0000000001
 12
1.0
 22
0.0
 32
0.0
 13
1.0
 23
0.0
 33
0.0
 40
0.0
 40
0.0
 40
0.0
 40
0.0
 40
1.0
 40
1.0
 40
1.0
 40
2.0
 40
2.0
 40
2.0
 40
3.0
 40
3.0
 40
3.0
 40
4.0
 40
4.0
 40
4.0
 40
4.0
 10
86.48844418238485
 20
-139.4092405207036
 30
0.0
 10
86.48844418238485
 20
-139.3541013540505
 30
0.0
 10
86.44364140575009
 20
-139.3093338540613
 30
0.0
 10
86.38853751826701
 20
-139.3093338540613
 30
0.0
 10
86.33339835300707
 20
-139.3093338540613
 30
0.0
 10
86.28863085414918
 20
-139.3541013540505
 30
0.0
 10
86.28863085414918
 20
-139.4092405207036
 30
0.0
 10
86.28863085414918
 20
-139.4643444095785
 30
0.0
 10
86.33339835300707
 20
-139.5091471873452
 30
0.0
 10
86.38853751826701
 20
-139.5091471873452
 30
0.0
 10
86.44364140575009
 20
-139.5091471873452
 30
0.0
 10
86.48844418238485
 20
-139.4643444095785
 30
0.0
 10
86.48844418238485
 20
-139.4092405207036
 30
0.0
  0
POLYLINE
  5
47
330
1F
100
AcDbEntity
  8
_U+30EC_U+30A4_U+30E4_U+30FC 1
 62
     7
420
 16777215
370
     9
100
AcDb2dPolyline
 66
     1
 10
0.0
 20
0.0
 30
0.0
  0
VERTEX
  5
48
330
47
100
AcDbEntity
  8
_U+30EC_U+30A4_U+30E4_U+30FC 1
 62
     7
420
 16777215
370
     9
100
AcDbVertex
100
AcDb2dVertex
 10
115.3586860822715
 20
-133.8998394109696
 30
0.0
  0
VERTEX
  5
49
330
47
100
AcDbEntity
  8
_U+30EC_U+30A4_U+30E4_U+30FC 1
 62
     7
420
 16777215
370
     9
100
AcDbVertex
100
AcDb2dVertex
 10
115.3586860822715
 20
-128.6417571900618
 30
0.0
  0
SEQEND
  5
4A
330
47
100
AcDbEntity
  8
_U+30EC_U+30A4_U+30E4_U+30FC 1
 62
     7
420
 16777215
370
     9
  0
POLYLINE
  5
4B
330
1F
100
AcDbEntity
  8
_U+30EC_U+30A4_U+30E4_U+30FC 1
 62
     7
420
 16777215
370
     9
100
AcDb2dPolyline
 66
     1
 10
0.0
 20
0.0
 30
0.0
  0
VERTEX
  5
4C
330
4B
100
AcDbEntity
  8
_U+30EC_U+30A4_U+30E4_U+30FC 1
 62
     7
420
 16777215
370
     9
100
AcDbVertex
100
AcDb2dVertex
 10
115.3586860822715
 20
-136.4092535770086
 30
0.0
  0
VERTEX
  5
4D
330
4B
100
AcDbEntity
  8
_U+30EC_U+30A4_U+30E4_U+30FC 1
 62
     7
420
 16777215
370
     9
100
AcDbVertex
100
AcDb2dVertex
 10
115.3586860822715
 20
-133.8998394109696
 30
0.0
  0
SEQEND
  5
4E
330
4B
100
AcDbEntity
  8
_U+30EC_U+30A4_U+30E4_U+30FC 1
 62
     7
420
 16777215
370
     9
  0
POLYLINE
  5
4F
330
1F
100
AcDbEntity
  8
_U+30EC_U+30A4_U+30E4_U+30FC 1
 62
     7
420
 16777215
370
     9
100
AcDb2dPolyline
 66
     1
 10
0.0
 20
0.0
 30
0.0
  0
VERTEX
  5
50
330
4F
100
AcDbEntity
  8
_U+30EC_U+30A4_U+30E4_U+30FC 1
 62
     7
420
 16777215
370
     9
100
AcDbVertex
100
AcDb2dVertex
 10
113.8986418164258
 20
-135.4094813550367
 30
0.0
  0
VERTEX
  5
51
330
4F
100
AcDbEntity
  8
_U+30EC_U+30A4_U+30E4_U+30FC 1
 62
     7
420
 16777215
370
     9
100
AcDbVertex
100
AcDb2dVertex
 10
116.3584583042434
 20
-135.4094813550367
 30
0.0
  0
SEQEND
  5
52
330
4F
100
AcDbEntity
  8
_U+30EC_U+30A4_U+30E4_U+30FC 1
 62
     7
420
 16777215
370
     9
  0
POLYLINE
  5
53
330
1F
100
AcDbEntity
  8
_U+30EC_U+30A4_U+30E4_U+30FC 1
 62
     7
420
 16777215
370
     9
100
AcDb2dPolyline
 66
     1
 10
0.0
 20
0.0
 30
0.0
  0
VERTEX
  5
54
330
53
100
AcDbEntity
  8
_U+30EC_U+30A4_U+30E4_U+30FC 1
 62
     7
420
 16777215
370
     9
100
AcDbVertex
100
AcDb2dVertex
 10
113.8986418164258
 20
-133.8998394109696
 30
0.0
  0
VERTEX
  5
55
330
53
100
AcDbEntity
  8
_U+30EC_U+30A4_U+30E4_U+30FC 1
 62
     7
420
 16777215
370
     9
100
AcDbVertex
100
AcDb2dVertex
 10
116.3584583042434
 20
-133.8998394109696
 30
0.0
  0
SEQEND
  5
56
330
53
100
AcDbEntity
  8
_U+30EC_U+30A4_U+30E4_U+30FC 1
 62
     7
420
 16777215
370
     9
  0
INSERT
  5
58
330
1F
100
AcDbEntity
  8
_U+30EC_U+30A4_U+30E4_U+30FC 1
100
AcDbBlockReference
  2
block 2
 10
0.0
 20
0.0
 30
0.0
  0
SPLINE
  5
67
330
1F
100
AcDbEntity
  8
_U+30EC_U+30A4_U+30E4_U+30FC 1
 62
     7
420
 16777215
370
     9
100
AcDbSpline
210
0.0
220
0.0
230
1.0
 70
     8
 71
     3
 72
    11
 73
     7
 74
     0
 42
0.0000000001
 43
0.0000000001
 12
1.0
 22
0.0
 32
0.0
 13
1.0
 23
0.0
 33
0.0
 40
0.0
 40
0.0
 40
0.0
 40
0.0
 40
1.0
 40
1.0
 40
1.0
 40
2.0
 40
2.0
 40
2.0
 40
2.0
 10
91.00149719947197
 20
-133.9094702443004
 30
0.0
 10
91.00149719947197
 20
-131.7004816337412
 30
0.0
 10
89.21075966848835
 20
-129.9097110786335
 30
0.0
 10
87.00141833596446
 20
-129.9097110786335
 30
0.0
 10
85.94065086302689
 20
-129.9097110786335
 30
0.0
 10
84.92299283343395
 20
-130.3307160785283
 30
0.0
 10
84.17298729701264
 20
-131.0810744116742
 30
0.0
  0
INSERT
  5
69
330
1F
100
AcDbEntity
  8
_U+30EC_U+30A4_U+30E4_U+30FC 1
100
AcDbBlockReference
  2
block 3
 10
0.0
 20
0.0
 30
0.0
  0
POLYLINE
  5
75
330
1F
100
AcDbEntity
  8
_U+30EC_U+30A4_U+30E4_U+30FC 1
 62
     7
420
 16777215
370
     9
100
AcDb2dPolyline
 66
     1
 10
0.0
 20
0.0
 30
0.0
  0
VERTEX
  5
76
330
75
100
AcDbEntity
  8
_U+30EC_U+30A4_U+30E4_U+30FC 1
 62
     7
420
 16777215
370
     9
100
AcDbVertex
100
AcDb2dVertex
 10
65.82335748737292
 20
-120.4713885809933
 30
0.0
  0
VERTEX
  5
77
330
75
100
AcDbEntity
  8
_U+30EC_U+30A4_U+30E4_U+30FC 1
 62
     7
420
 16777215
370
     9
100
AcDbVertex
100
AcDb2dVertex
 10
83.5601064793152
 20
-138.2379124654404
 30
0.0
  0
SEQEND
  5
78
330
75
100
AcDbEntity
  8
_U+30EC_U+30A4_U+30E4_U+30FC 1
 62
     7
420
 16777215
370
     9
  0
POLYLINE
  5
79
330
1F
100
AcDbEntity
  8
_U+30EC_U+30A4_U+30E4_U+30FC 1
 62
     7
420
 16777215
370
     9
100
AcDb2dPolyline
 66
     1
 10
0.0
 20
0.0
 30
0.0
  0
VERTEX
  5
7A
330
79
100
AcDbEntity
  8
_U+30EC_U+30A4_U+30E4_U+30FC 1
 62
     7
420
 16777215
370
     9
100
AcDbVertex
100
AcDb2dVertex
 10
66.85551468326261
 20
-119.4385258034736
 30
0.0
  0
VERTEX
  5
7B
330
79
100
AcDbEntity
  8
_U+30EC_U+30A4_U+30E4_U+30FC 1
 62
     7
420
 16777215
370
     9
100
AcDbVertex
100
AcDb2dVertex
 10
65.1164277614988
 20
-121.1783199697053
 30
0.0
  0
SEQEND
  5
7C
330
79
100
AcDbEntity
  8
_U+30EC_U+30A4_U+30E4_U+30FC 1
 62
     7
420
 16777215
370
     9
  0
POLYLINE
  5
7D
330
1F
100
AcDbEntity
  8
_U+30EC_U+30A4_U+30E4_U+30FC 1
 62
     7
420
 16777215
370
     9
100
AcDb2dPolyline
 66
     1
 10
0.0
 20
0.0
 30
0.0
  0
VERTEX
  5
7E
330
7D
100
AcDbEntity
  8
_U+30EC_U+30A4_U+30E4_U+30FC 1
 62
     7
420
 16777215
370
     9
100
AcDbVertex
100
AcDb2dVertex
 10
84.59258331218518
 20
-137.205049687921
 30
0.0
  0
VERTEX
  5
7F
330
7D
100
AcDbEntity
  8
_U+30EC_U+30A4_U+30E4_U+30FC 1
 62
     7
420
 16777215
370
     9
100
AcDbVertex
100
AcDb2dVertex
 10
82.85317510846163
 20
-138.9448438541525
 30
0.0
  0
SEQEND
  5
80
330
7D
100
AcDbEntity
  8
_U+30EC_U+30A4_U+30E4_U+30FC 1
 62
     7
420
 16777215
370
     9
  0
INSERT
  5
82
330
1F
100
AcDbEntity
  8
_U+30EC_U+30A4_U+30E4_U+30FC 1
100
AcDbBlockReference
  2
block 4
 10
0.0
 20
0.0
 30
0.0
  0
POLYLINE
  5
89
330
1F
100
AcDbEntity
  8
_U+30EC_U+30A4_U+30E4_U+30FC 1
 62
     7
420
 16777215
370
     9
100
AcDb2dPolyline
 66
     1
 10
0.0
 20
0.0
 30
0.0
  0
VERTEX
  5
8A
330
89
100
AcDbEntity
  8
_U+30EC_U+30A4_U+30E4_U+30FC 1
 62
     7
420
 16777215
370
     9
100
AcDbVertex
100
AcDb2dVertex
 10
86.38853751826701
 20
-139.4092405207036
 30
0.0
  0
VERTEX
  5
8B
330
89
100
AcDbEntity
  8
_U+30EC_U+30A4_U+30E4_U+30FC 1
 62
     7
420
 16777215
370
     9
100
AcDbVertex
100
AcDb2dVertex
 10
111.376139658558
 20
-139.4092405207036
 30
0.0
  0
SEQEND
  5
8C
330
89
100
AcDbEntity
  8
_U+30EC_U+30A4_U+30E4_U+30FC 1
 62
     7
420
 16777215
370
     9
  0
POLYLINE
  5
8D
330
1F
100
AcDbEntity
  8
_U+30EC_U+30A4_U+30E4_U+30FC 1
 62
     7
420
 16777215
370
     9
100
AcDb2dPolyline
 66
     1
 10
0.0
 20
0.0
 30
0.0
  0
VERTEX
  5
8E
330
8D
100
AcDbEntity
  8
_U+30EC_U+30A4_U+30E4_U+30FC 1
 62
     7
420
 16777215
370
     9
100
AcDbVertex
100
AcDb2dVertex
 10
86.38853751826701
 20
-137.9491991321792
 30
0.0
  0
VERTEX
  5
8F
330
8D
100
AcDbEntity
  8
_U+30EC_U+30A4_U+30E4_U+30FC 1
 62
     7
420
 16777215
370
     9
100
AcDbVertex
100
AcDb2dVertex
 10
86.38853751826701
 20
-140.4090127426755
 30
0.0
  0
SEQEND
  5
90
330
8D
100
AcDbEntity
  8
_U+30EC_U+30A4_U+30E4_U+30FC 1
 62
     7
420
 16777215
370
     9
  0
POLYLINE
  5
91
330
1F
100
AcDbEntity
  8
_U+30EC_U+30A4_U+30E4_U+30FC 1
 62
     7
420
 16777215
370
     9
100
AcDb2dPolyline
 66
     1
 10
0.0
 20
0.0
 30
0.0
  0
VERTEX
  5
92
330
91
100
AcDbEntity
  8
_U+30EC_U+30A4_U+30E4_U+30FC 1
 62
     7
420
 16777215
370
     9
100
AcDbVertex
100
AcDb2dVertex
 10
111.376139658558
 20
-137.9491991321792
 30
0.0
  0
VERTEX
  5
93
330
91
100
AcDbEntity
  8
_U+30EC_U+30A4_U+30E4_U+30FC 1
 62
     7
420
 16777215
370
     9
100
AcDbVertex
100
AcDb2dVertex
 10
111.376139658558
 20
-140.4090127426755
 30
0.0
  0
SEQEND
  5
94
330
91
100
AcDbEntity
  8
_U+30EC_U+30A4_U+30E4_U+30FC 1
 62
     7
420
 16777215
370
     9
  0
INSERT
  5
96
330
1F
100
AcDbEntity
  8
_U+30EC_U+30A4_U+30E4_U+30FC 1
100
AcDbBlockReference
  2
block 5
 10
0.0
 20
0.0
 30
0.0
  0
POLYLINE
  5
9D
330
1F
100
AcDbEntity
  8
_U+30EC_U+30A4_U+30E4_U+30FC 1
 62
     7
420
 16777215
370
    25
100
AcDb2dPolyline
 66
     1
 10
0.0
 20
0.0
 30
0.0
  0
VERTEX
  5
9E
330
9D
100
AcDbEntity
  8
_U+30EC_U+30A4_U+30E4_U+30FC 1
 62
     7
420
 16777215
370
    25
100
AcDbVertex
100
AcDb2dVertex
 10
86.38853751826701
 20
-135.4094813550367
 30
0.0
  0
VERTEX
  5
9F
330
9D
100
AcDbEntity
  8
_U+30EC_U+30A4_U+30E4_U+30FC 1
 62
     7
420
 16777215
370
    25
100
AcDbVertex
100
AcDb2dVertex
 10
68.68967685869146
 20
-117.6532938594756
 30
0.0
  0
VERTEX
  5
A0
330
9D
100
AcDbEntity
  8
_U+30EC_U+30A4_U+30E4_U+30FC 1
 62
     7
420
 16777215
370
    25
100
AcDbVertex
100
AcDb2dVertex
 10
68.71105519147939
 20
-117.6532938594756
 30
0.0
  0
VERTEX
  5
A1
330
9D
100
AcDbEntity
  8
_U+30EC_U+30A4_U+30E4_U+30FC 1
 62
     7
420
 16777215
370
    25
100
AcDbVertex
100
AcDb2dVertex
 10
69.67636100018572
 20
-116.6435380263948
 30
0.0
  0
VERTEX
  5
A2
330
9D
100
AcDbEntity
  8
_U+30EC_U+30A4_U+30E4_U+30FC 1
 62
     7
420
 16777215
370
    25
100
AcDbVertex
100
AcDb2dVertex
 10
86.88563886716747
 20
-133.9094702443004
 30
0.0
  0
VERTEX
  5
A3
330
9D
100
AcDbEntity
  8
_U+30EC_U+30A4_U+30E4_U+30FC 1
 62
     7
420
 16777215
370
    25
100
AcDbVertex
100
AcDb2dVertex
 10
111.3885574360189
 20
-133.9094702443004
 30
0.0
  0
VERTEX
  5
A4
330
9D
100
AcDbEntity
  8
_U+30EC_U+30A4_U+30E4_U+30FC 1
 62
     7
420
 16777215
370
    25
100
AcDbVertex
100
AcDb2dVertex
 10
111.3885574360189
 20
-135.4094813550367
 30
0.0
  0
VERTEX
  5
A5
330
9D
100
AcDbEntity
  8
_U+30EC_U+30A4_U+30E4_U+30FC 1
 62
     7
420
 16777215
370
    25
100
AcDbVertex
100
AcDb2dVertex
 10
86.38853751826701
 20
-135.4094813550367
 30
0.0
  0
SEQEND
  5
A6
330
9D
100
AcDbEntity
  8
_U+30EC_U+30A4_U+30E4_U+30FC 1
 62
     7
420
 16777215
370
    25
  0
ENDSEC
  0
SECTION
  2
OBJECTS
  0
DICTIONARY
  5
C
330
0
100
AcDbDictionary
281
     1
  3
ACAD_GROUP
350
D
  3
ACAD_LAYOUT
350
1A
  3
ACAD_MATERIAL
350
3B
  3
ACAD_MLEADERSTYLE
350
A8
  3
ACAD_MLINESTYLE
350
17
  3
ACAD_PLOTSETTINGS
350
19
  3
ACAD_PLOTSTYLENAME
350
E
  3
ACAD_TABLESTYLE
350
A7
  3
ACAD_VISUALSTYLE
350
2A
  0
SUN
  5
3F
330
29
100
AcDbSun
 90
        1
290
     0
 63
     7
421
 16777215
 40
1.0
291
     1
 91
  2455826
 92
 54000000
292
     0
 70
     2
 71
   256
280
     1
  0
DICTIONARY
  5
D
102
{ACAD_REACTORS
330
C
102
}
330
C
100
AcDbDictionary
281
     1
  0
DICTIONARY
  5
1A
102
{ACAD_REACTORS
330
C
102
}
330
C
100
AcDbDictionary
281
     1
  3
Layout1
350
1E
  3
Layout2
350
26
  3
Model
350
22
  0
DICTIONARY
  5
3B
102
{ACAD_REACTORS
330
C
102
}
330
C
100
AcDbDictionary
281
     1
  3
ByBlock
350
3D
  3
ByLayer
350
3C
  3
Global
350
3E
  0
DICTIONARY
  5
A8
102
{ACAD_REACTORS
330
C
102
}
330
C
100
AcDbDictionary
281
     1
  0
DICTIONARY
  5
17
102
{ACAD_REACTORS
330
C
102
}
330
C
100
AcDbDictionary
281
     1
  3
Standard
350
18
  0
DICTIONARY
  5
19
102
{ACAD_REACTORS
330
C
102
}
330
C
100
AcDbDictionary
281
     1
  0
ACDBDICTIONARYWDFLT
  5
E
102
{ACAD_REACTORS
330
C
102
}
330
C
100
AcDbDictionary
281
     1
  3
Normal
350
F
100
AcDbDictionaryWithDefault
340
F
  0
DICTIONARY
  5
A7
102
{ACAD_REACTORS
330
C
102
}
330
C
100
AcDbDictionary
281
     1
  0
DICTIONARY
  5
2A
102
{ACAD_REACTORS
330
C
102
}
330
C
100
AcDbDictionary
281
     1
  3
2dWireframe
350
2F
  3
3D Hidden
350
31
  3
3dWireframe
350
30
  3
Basic
350
32
  3
Brighten
350
36
  3
ColorChange
350
3A
  3
Conceptual
350
34
  3
Dim
350
35
  3
Facepattern
350
39
  3
Flat
350
2B
  3
FlatWithEdges
350
2C
  3
Gouraud
350
2D
  3
GouraudWithEdges
350
2E
  3
Linepattern
350
38
  3
Realistic
350
33
  3
Thicken
350
37
  0
LAYOUT
  5
1E
102
{ACAD_REACTORS
330
1A
102
}
330
1A
100
AcDbPlotSettings
  1

  2
none_device
  4

  6

 40
0.0
 41
0.0
 42
0.0
 43
0.0
 44
0.0
 45
0.0
 46
0.0
 47
0.0
 48
0.0
 49
0.0
140
0.0
141
0.0
142
1.0
143
1.0
 70
   688
 72
     0
 73
     0
 74
     5
  7

 75
    16
 76
     0
 77
     2
 78
   300
147
1.0
148
0.0
149
0.0
100
AcDbLayout
  1
Layout1
 70
     1
 71
     1
 10
0.0
 20
0.0
 11
12.0
 21
9.0
 12
0.0
 22
0.0
 32
0.0
 14
1.000000000000000E+20
 24
1.000000000000000E+20
 34
1.000000000000000E+20
 15
-1.000000000000000E+20
 25
-1.000000000000000E+20
 35
-1.000000000000000E+20
146
0.0
 13
0.0
 23
0.0
 33
0.0
 16
1.0
 26
0.0
 36
0.0
 17
0.0
 27
1.0
 37
0.0
 76
     0
330
1B
  0
LAYOUT
  5
26
102
{ACAD_REACTORS
330
1A
102
}
330
1A
100
AcDbPlotSettings
  1

  2
none_device
  4

  6

 40
0.0
 41
0.0
 42
0.0
 43
0.0
 44
0.0
 45
0.0
 46
0.0
 47
0.0
 48
0.0
 49
0.0
140
0.0
141
0.0
142
1.0
143
1.0
 70
   688
 72
     0
 73
     0
 74
     5
  7

 75
    16
 76
     0
 77
     2
 78
   300
147
1.0
148
0.0
149
0.0
100
AcDbLayout
  1
Layout2
 70
     1
 71
     2
 10
0.0
 20
0.0
 11
0.0
 21
0.0
 12
0.0
 22
0.0
 32
0.0
 14
0.0
 24
0.0
 34
0.0
 15
0.0
 25
0.0
 35
0.0
146
0.0
 13
0.0
 23
0.0
 33
0.0
 16
1.0
 26
0.0
 36
0.0
 17
0.0
 27
1.0
 37
0.0
 76
     0
330
23
  0
LAYOUT
  5
22
102
{ACAD_REACTORS
330
1A
102
}
330
1A
100
AcDbPlotSettings
  1

  2
none_device
  4

  6

 40
0.0
 41
0.0
 42
0.0
 43
0.0
 44
0.0
 45
0.0
 46
0.0
 47
0.0
 48
0.0
 49
0.0
140
0.0
141
0.0
142
1.0
143
1.0
 70
  1712
 72
     0
 73
     0
 74
     0
  7

 75
     0
 76
     0
 77
     2
 78
   300
147
1.0
148
0.0
149
0.0
100
AcDbLayout
  1
Model
 70
     1
 71
     0
 10
0.0
 20
0.0
 11
12.0
 21
9.0
 12
0.0
 22
0.0
 32
0.0
 14
1.000000000000000E+20
 24
1.000000000000000E+20
 34
1.000000000000000E+20
 15
-1.000000000000000E+20
 25
-1.000000000000000E+20
 35
-1.000000000000000E+20
146
0.0
 13
0.0
 23
0.0
 33
0.0
 16
1.0
 26
0.0
 36
0.0
 17
0.0
 27
1.0
 37
0.0
 76
     0
330
1F
331
29
  0
MATERIAL
  5
3D
102
{ACAD_REACTORS
330
3B
102
}
330
3B
100
AcDbMaterial
  1
ByBlock
 72
     1
 94
      127
  0
MATERIAL
  5
3C
102
{ACAD_REACTORS
330
3B
102
}
330
3B
100
AcDbMaterial
  1
ByLayer
 72
     1
 94
      127
  0
MATERIAL
  5
3E
102
{ACAD_REACTORS
330
3B
102
}
330
3B
100
AcDbMaterial
  1
Global
 72
     1
 94
      127
  0
MLINESTYLE
  5
18
102
{ACAD_REACTORS
330
17
102
}
330
17
100
AcDbMlineStyle
  2
Standard
 70
     0
  3

 62
   256
 51
90.0
 52
90.0
 71
     2
 49
0.5
 62
   256
  6
BYLAYER
 49
-0.5
 62
   256
  6
BYLAYER
  0
ACDBPLACEHOLDER
  5
F
102
{ACAD_REACTORS
330
E
102
}
330
E
  0
VISUALSTYLE
  5
2F
102
{ACAD_REACTORS
330
2A
102
}
330
2A
100
AcDbVisualStyle
  2
2dWireframe
 70
     4
177
     2
291
     0
 71
     0
176
     1
 72
     2
176
     1
 73
     0
176
     1
 90
        0
176
     1
 40
-0.6
176
     1
 41
-30.0
176
     1
 62
     5
 63
     7
421
 16777215
176
     1
 74
     1
176
     1
 91
        4
176
     1
 64
     7
176
     1
 65
   257
176
     1
 75
     1
176
     1
175
     1
176
     1
 42
1.0
176
     1
 92
        0
176
     1
 66
   257
176
     1
 43
1.0
176
     1
 76
     1
176
     1
 77
     6
176
     1
 78
     2
176
     1
 67
     7
176
     1
 79
     5
176
     1
170
     0
176
     1
171
     0
176
     1
290
     0
176
     1
 93
        1
176
     1
 44
0.0
176
     1
173
     0
176
     1
  0
VISUALSTYLE
  5
31
102
{ACAD_REACTORS
330
2A
102
}
330
2A
100
AcDbVisualStyle
  2
3D Hidden
 70
     6
177
     2
291
     0
 71
     1
176
     1
 72
     2
176
     1
 73
     2
176
     1
 90
        0
176
     1
 40
-0.6
176
     1
 41
-30.0
176
     1
 62
     5
 63
     7
421
 16777215
176
     1
 74
     2
176
     1
 91
        2
176
     1
 64
     7
176
     1
 65
   257
176
     1
 75
     2
176
     1
175
     1
176
     1
 42
40.0
176
     1
 92
        0
176
     1
 66
   257
176
     1
 43
1.0
176
     1
 76
     1
176
     1
 77
     6
176
     1
 78
     2
176
     1
 67
     7
176
     1
 79
     3
176
     1
170
     0
176
     1
171
     0
176
     1
290
     0
176
     1
 93
        1
176
     1
 44
0.0
176
     1
173
     0
176
     1
  0
VISUALSTYLE
  5
30
102
{ACAD_REACTORS
330
2A
102
}
330
2A
100
AcDbVisualStyle
  2
3dWireframe
 70
     5
177
     2
291
     0
 71
     0
176
     1
 72
     2
176
     1
 73
     0
176
     1
 90
        0
176
     1
 40
-0.6
176
     1
 41
-30.0
176
     1
 62
     5
 63
     7
421
 16777215
176
     1
 74
     1
176
     1
 91
        4
176
     1
 64
     7
176
     1
 65
   257
176
     1
 75
     1
176
     1
175
     1
176
     1
 42
1.0
176
     1
 92
        0
176
     1
 66
   257
176
     1
 43
1.0
176
     1
 76
     1
176
     1
 77
     6
176
     1
 78
     2
176
     1
 67
     7
176
     1
 79
     5
176
     1
170
     0
176
     1
171
     0
176
     1
290
     0
176
     1
 93
        1
176
     1
 44
0.0
176
     1
173
     0
176
     1
  0
VISUALSTYLE
  5
32
102
{ACAD_REACTORS
330
2A
102
}
330
2A
100
AcDbVisualStyle
  2
Basic
 70
     7
177
     2
291
     1
 71
     1
176
     1
 72
     0
176
     1
 73
     1
176
     1
 90
        0
176
     1
 40
-0.6
176
     1
 41
-30.0
176
     1
 62
     5
 63
     7
421
 16777215
176
     1
 74
     0
176
     1
 91
        4
176
     1
 64
     7
176
     1
 65
   257
176
     1
 75
     1
176
     1
175
     1
176
     1
 42
1.0
176
     1
 92
        8
176
     1
 66
     7
176
     1
 43
1.0
176
     1
 76
     1
176
     1
 77
     6
176
     1
 78
     2
176
     1
 67
     7
176
     1
 79
     5
176
     1
170
     0
176
     1
171
     0
176
     1
290
     0
176
     1
 93
        1
176
     1
 44
0.0
176
     1
173
     0
176
     1
  0
VISUALSTYLE
  5
36
102
{ACAD_REACTORS
330
2A
102
}
330
2A
100
AcDbVisualStyle
  2
Brighten
 70
    12
177
     2
291
     1
 71
     2
176
     1
 72
     2
176
     1
 73
     0
176
     1
 90
        0
176
     1
 40
-0.6
176
     1
 41
-30.0
176
     1
 62
     5
 63
     7
421
 16777215
176
     1
 74
     1
176
     1
 91
        4
176
     1
 64
     7
176
     1
 65
   257
176
     1
 75
     1
176
     1
175
     1
176
     1
 42
1.0
176
     1
 92
        8
176
     1
 66
     7
176
     1
 43
1.0
176
     1
 76
     1
176
     1
 77
     6
176
     1
 78
     2
176
     1
 67
     7
176
     1
 79
     5
176
     1
170
     0
176
     1
171
     0
176
     1
290
     0
176
     1
 93
        1
176
     1
 44
50.0
176
     1
173
     0
176
     1
  0
VISUALSTYLE
  5
3A
102
{ACAD_REACTORS
330
2A
102
}
330
2A
100
AcDbVisualStyle
  2
ColorChange
 70
    16
177
     2
291
     1
 71
     2
176
     1
 72
     2
176
     1
 73
     3
176
     1
 90
        0
176
     1
 40
-0.6
176
     1
 41
-30.0
176
     1
 62
     5
 63
     8
421
  8421504
176
     1
 74
     1
176
     1
 91
        4
176
     1
 64
     7
176
     1
 65
   257
176
     1
 75
     1
176
     1
175
     1
176
     1
 42
1.0
176
     1
 92
        8
176
     1
 66
     8
424
  8421504
176
     1
 43
1.0
176
     1
 76
     1
176
     1
 77
     6
176
     1
 78
     2
176
     1
 67
     7
176
     1
 79
     5
176
     1
170
     0
176
     1
171
     0
176
     1
290
     0
176
     1
 93
        1
176
     1
 44
0.0
176
     1
173
     0
176
     1
  0
VISUALSTYLE
  5
34
102
{ACAD_REACTORS
330
2A
102
}
330
2A
100
AcDbVisualStyle
  2
Conceptual
 70
     9
177
     2
291
     0
 71
     3
176
     1
 72
     2
176
     1
 73
     0
176
     1
 90
        0
176
     1
 40
-0.6
176
     1
 41
-30.0
176
     1
 62
     5
 63
     7
421
 16777215
176
     1
 74
     2
176
     1
 91
        2
176
     1
 64
     7
176
     1
 65
   257
176
     1
 75
     1
176
     1
175
     1
176
     1
 42
40.0
176
     1
 92
        8
176
     1
 66
     7
176
     1
 43
1.0
176
     1
 76
     1
176
     1
 77
     6
176
     1
 78
     2
176
     1
 67
     7
176
     1
 79
     3
176
     1
170
     0
176
     1
171
     0
176
     1
290
     0
176
     1
 93
        1
176
     1
 44
0.0
176
     1
173
     0
176
     1
  0
VISUALSTYLE
  5
35
102
{ACAD_REACTORS
330
2A
102
}
330
2A
100
AcDbVisualStyle
  2
Dim
 70
    11
177
     2
291
     1
 71
     2
176
     1
 72
     2
176
     1
 73
     0
176
     1
 90
        0
176
     1
 40
-0.6
176
     1
 41
-30.0
176
     1
 62
     5
 63
     7
421
 16777215
176
     1
 74
     1
176
     1
 91
        4
176
     1
 64
     7
176
     1
 65
   257
176
     1
 75
     1
176
     1
175
     1
176
     1
 42
1.0
176
     1
 92
        8
176
     1
 66
     7
176
     1
 43
1.0
176
     1
 76
     1
176
     1
 77
     6
176
     1
 78
     2
176
     1
 67
     7
176
     1
 79
     5
176
     1
170
     0
176
     1
171
     0
176
     1
290
     0
176
     1
 93
        1
176
     1
 44
-50.0
176
     1
173
     0
176
     1
  0
VISUALSTYLE
  5
39
102
{ACAD_REACTORS
330
2A
102
}
330
2A
100
AcDbVisualStyle
  2
Facepattern
 70
    15
177
     2
291
     1
 71
     2
176
     1
 72
     2
176
     1
 73
     0
176
     1
 90
        0
176
     1
 40
-0.6
176
     1
 41
-30.0
176
     1
 62
     5
 63
     7
421
 16777215
176
     1
 74
     1
176
     1
 91
        4
176
     1
 64
     7
176
     1
 65
   257
176
     1
 75
     1
176
     1
175
     1
176
     1
 42
1.0
176
     1
 92
        8
176
     1
 66
     7
176
     1
 43
1.0
176
     1
 76
     1
176
     1
 77
     6
176
     1
 78
     2
176
     1
 67
     7
176
     1
 79
     5
176
     1
170
     0
176
     1
171
     0
176
     1
290
     0
176
     1
 93
        1
176
     1
 44
0.0
176
     1
173
     0
176
     1
  0
VISUALSTYLE
  5
2B
102
{ACAD_REACTORS
330
2A
102
}
330
2A
100
AcDbVisualStyle
  2
Flat
 70
     0
177
     2
291
     1
 71
     2
176
     1
 72
     1
176
     1
 73
     1
176
     1
 90
        2
176
     1
 40
-0.6
176
     1
 41
30.0
176
     1
 62
     5
 63
     7
421
 16777215
176
     1
 74
     0
176
     1
 91
        4
176
     1
 64
     7
176
     1
 65
   257
176
     1
 75
     1
176
     1
175
     1
176
     1
 42
1.0
176
     1
 92
        8
176
     1
 66
     7
176
     1
 43
1.0
176
     1
 76
     1
176
     1
 77
     6
176
     1
 78
     2
176
     1
 67
     7
176
     1
 79
     5
176
     1
170
     0
176
     1
171
     0
176
     1
290
     0
176
     1
 93
       13
176
     1
 44
0.0
176
     1
173
     0
176
     1
  0
VISUALSTYLE
  5
2C
102
{ACAD_REACTORS
330
2A
102
}
330
2A
100
AcDbVisualStyle
  2
FlatWithEdges
 70
     1
177
     2
291
     1
 71
     2
176
     1
 72
     1
176
     1
 73
     1
176
     1
 90
        2
176
     1
 40
-0.6
176
     1
 41
30.0
176
     1
 62
     5
 63
     7
421
 16777215
176
     1
 74
     1
176
     1
 91
        4
176
     1
 64
     7
176
     1
 65
   257
176
     1
 75
     1
176
     1
175
     1
176
     1
 42
1.0
176
     1
 92
        0
176
     1
 66
   257
176
     1
 43
1.0
176
     1
 76
     1
176
     1
 77
     6
176
     1
 78
     2
176
     1
 67
     7
176
     1
 79
     5
176
     1
170
     0
176
     1
171
     0
176
     1
290
     0
176
     1
 93
       13
176
     1
 44
0.0
176
     1
173
     0
176
     1
  0
VISUALSTYLE
  5
2D
102
{ACAD_REACTORS
330
2A
102
}
330
2A
100
AcDbVisualStyle
  2
Gouraud
 70
     2
177
     2
291
     1
 71
     2
176
     1
 72
     2
176
     1
 73
     1
176
     1
 90
        2
176
     1
 40
-0.6
176
     1
 41
30.0
176
     1
 62
     5
 63
     7
421
 16777215
176
     1
 74
     0
176
     1
 91
        4
176
     1
 64
     7
176
     1
 65
   257
176
     1
 75
     1
176
     1
175
     1
176
     1
 42
1.0
176
     1
 92
        0
176
     1
 66
     7
176
     1
 43
1.0
176
     1
 76
     1
176
     1
 77
     6
176
     1
 78
     2
176
     1
 67
     7
176
     1
 79
     5
176
     1
170
     0
176
     1
171
     0
176
     1
290
     0
176
     1
 93
       13
176
     1
 44
0.0
176
     1
173
     0
176
     1
  0
VISUALSTYLE
  5
2E
102
{ACAD_REACTORS
330
2A
102
}
330
2A
100
AcDbVisualStyle
  2
GouraudWithEdges
 70
     3
177
     2
291
     1
 71
     2
176
     1
 72
     2
176
     1
 73
     1
176
     1
 90
        2
176
     1
 40
-0.6
176
     1
 41
30.0
176
     1
 62
     5
 63
     7
421
 16777215
176
     1
 74
     1
176
     1
 91
        4
176
     1
 64
     7
176
     1
 65
   257
176
     1
 75
     1
176
     1
175
     1
176
     1
 42
1.0
176
     1
 92
        0
176
     1
 66
   257
176
     1
 43
1.0
176
     1
 76
     1
176
     1
 77
     6
176
     1
 78
     2
176
     1
 67
     7
176
     1
 79
     5
176
     1
170
     0
176
     1
171
     0
176
     1
290
     0
176
     1
 93
       13
176
     1
 44
0.0
176
     1
173
     0
176
     1
  0
VISUALSTYLE
  5
38
102
{ACAD_REACTORS
330
2A
102
}
330
2A
100
AcDbVisualStyle
  2
Linepattern
 70
    14
177
     2
291
     1
 71
     2
176
     1
 72
     2
176
     1
 73
     0
176
     1
 90
        0
176
     1
 40
-0.6
176
     1
 41
-30.0
176
     1
 62
     5
 63
     7
421
 16777215
176
     1
 74
     1
176
     1
 91
        4
176
     1
 64
     7
176
     1
 65
   257
176
     1
 75
     7
176
     1
175
     7
176
     1
 42
1.0
176
     1
 92
        8
176
     1
 66
     7
176
     1
 43
1.0
176
     1
 76
     1
176
     1
 77
     6
176
     1
 78
     2
176
     1
 67
     7
176
     1
 79
     5
176
     1
170
     0
176
     1
171
     0
176
     1
290
     0
176
     1
 93
        1
176
     1
 44
0.0
176
     1
173
     0
176
     1
  0
VISUALSTYLE
  5
33
102
{ACAD_REACTORS
330
2A
102
}
330
2A
100
AcDbVisualStyle
  2
Realistic
 70
     8
177
     2
291
     0
 71
     2
176
     1
 72
     2
176
     1
 73
     0
176
     1
 90
        0
176
     1
 40
-0.6
176
     1
 41
-30.0
176
     1
 62
     5
 63
     7
421
 16777215
176
     1
 74
     1
176
     1
 91
        0
176
     1
 64
     7
176
     1
 65
   257
176
     1
 75
     1
176
     1
175
     1
176
     1
 42
1.0
176
     1
 92
        8
176
     1
 66
     8
424
  7895160
176
     1
 43
1.0
176
     1
 76
     1
176
     1
 77
     6
176
     1
 78
     2
176
     1
 67
     7
176
     1
 79
     5
176
     1
170
     0
176
     1
171
     0
176
     1
290
     0
176
     1
 93
       13
176
     1
 44
0.0
176
     1
173
     0
176
     1
  0
VISUALSTYLE
  5
37
102
{ACAD_REACTORS
330
2A
102
}
330
2A
100
AcDbVisualStyle
  2
Thicken
 70
    13
177
     2
291
     1
 71
     2
176
     1
 72
     2
176
     1
 73
     0
176
     1
 90
        0
176
     1
 40
-0.6
176
     1
 41
-30.0
176
     1
 62
     5
 63
     7
421
 16777215
176
     1
 74
     1
176
     1
 91
        4
176
     1
 64
     7
176
     1
 65
   257
176
     1
 75
     1
176
     1
175
     1
176
     1
 42
1.0
176
     1
 92
       12
176
     1
 66
     7
176
     1
 43
1.0
176
     1
 76
     1
176
     1
 77
     6
176
     1
 78
     2
176
     1
 67
     7
176
     1
 79
     5
176
     1
170
     0
176
     1
171
     0
176
     1
290
     0
176
     1
 93
        1
176
     1
 44
0.0
176
     1
173
     0
176
     1
  0
ENDSEC
  0
EOF
