  0
SECTION
  2
HEADER
  9
$ACADVER
  1
AC1024
  9
$ACADMAINTVER
 70
     6
  9
$DWGCODEPAGE
  3
UNDEFINED
  9
$INSBASE
 10
0.0
 20
0.0
 30
0.0
  9
$EXTMIN
 10
1.000000000000000E+20
 20
1.000000000000000E+20
 30
1.000000000000000E+20
  9
$EXTMAX
 10
-1.000000000000000E+20
 20
-1.000000000000000E+20
 30
-1.000000000000000E+20
  9
$LIMMIN
 10
0.0
 20
0.0
  9
$LIMMAX
 10
12.0
 20
9.0
  9
$ORTHOMODE
 70
     0
  9
$REGENMODE
 70
     1
  9
$FILLMODE
 70
     1
  9
$QTEXTMODE
 70
     0
  9
$MIRRTEXT
 70
     1
  9
$LTSCALE
 40
1.0
  9
$ATTMODE
 70
     1
  9
$TEXTSIZE
 40
0.2
  9
$TRACEWID
 40
0.05
  9
$TEXTSTYLE
  7
Standard
  9
$CLAYER
  8
0
  9
$CELTYPE
  6
ByLayer
  9
$CECOLOR
 62
   256
  9
$CELTSCALE
 40
1.0
  9
$DISPSILH
 70
     0
  9
$DIMSCALE
 40
1.0
  9
$DIMASZ
 40
0.18
  9
$DIMEXO
 40
0.0625
  9
$DIMDLI
 40
0.38
  9
$DIMRND
 40
0.0
  9
$DIMDLE
 40
0.0
  9
$DIMEXE
 40
0.18
  9
$DIMTP
 40
0.0
  9
$DIMTM
 40
0.0
  9
$DIMTXT
 40
0.18
  9
$DIMCEN
 40
0.09
  9
$DIMTSZ
 40
0.0
  9
$DIMTOL
 70
     0
  9
$DIMLIM
 70
     0
  9
$DIMTIH
 70
     1
  9
$DIMTOH
 70
     1
  9
$DIMSE1
 70
     0
  9
$DIMSE2
 70
     0
  9
$DIMTAD
 70
     0
  9
$DIMZIN
 70
     0
  9
$DIMBLK
  1

  9
$DIMASO
 70
     1
  9
$DIMSHO
 70
     1
  9
$DIMPOST
  1

  9
$DIMAPOST
  1

  9
$DIMALT
 70
     0
  9
$DIMALTD
 70
     2
  9
$DIMALTF
 40
25.4
  9
$DIMLFAC
 40
1.0
  9
$DIMTOFL
 70
     0
  9
$DIMTVP
 40
0.0
  9
$DIMTIX
 70
     0
  9
$DIMSOXD
 70
     0
  9
$DIMSAH
 70
     0
  9
$DIMBLK1
  1

  9
$DIMBLK2
  1

  9
$DIMSTYLE
  2
Standard
  9
$DIMCLRD
 70
     0
  9
$DIMCLRE
 70
     0
  9
$DIMCLRT
 70
     0
  9
$DIMTFAC
 40
1.0
  9
$DIMGAP
 40
0.09
  9
$DIMJUST
 70
     0
  9
$DIMSD1
 70
     0
  9
$DIMSD2
 70
     0
  9
$DIMTOLJ
 70
     1
  9
$DIMTZIN
 70
     0
  9
$DIMALTZ
 70
     0
  9
$DIMALTTZ
 70
     0
  9
$DIMUPT
 70
     0
  9
$DIMDEC
 70
     4
  9
$DIMTDEC
 70
     4
  9
$DIMALTU
 70
     2
  9
$DIMALTTD
 70
     2
  9
$DIMTXSTY
  7
Standard
  9
$DIMAUNIT
 70
     0
  9
$DIMADEC
 70
     0
  9
$DIMALTRND
 40
0.0
  9
$DIMAZIN
 70
     0
  9
$DIMDSEP
 70
    46
  9
$DIMATFIT
 70
     3
  9
$DIMFRAC
 70
     0
  9
$DIMLDRBLK
  1

  9
$DIMLUNIT
 70
     2
  9
$DIMLWD
 70
    -2
  9
$DIMLWE
 70
    -2
  9
$DIMTMOVE
 70
     0
  9
$DIMFXL
 40
1.0
  9
$DIMFXLON
 70
     0
  9
$DIMJOGANG
 40
0.7853981633974483
  9
$DIMTFILL
 70
     0
  9
$DIMTFILLCLR
 70
     0
  9
$DIMARCSYM
 70
     0
  9
$DIMLTYPE
  6

  9
$DIMLTEX1
  6

  9
$DIMLTEX2
  6

  9
$DIMTXTDIRECTION
 70
     0
  9
$LUNITS
 70
     2
  9
$LUPREC
 70
     4
  9
$SKETCHINC
 40
0.1
  9
$FILLETRAD
 40
0.5
  9
$AUNITS
 70
     0
  9
$AUPREC
 70
     0
  9
$MENU
  1
.
  9
$ELEVATION
 40
0.0
  9
$PELEVATION
 40
0.0
  9
$THICKNESS
 40
0.0
  9
$LIMCHECK
 70
     0
  9
$CHAMFERA
 40
0.5
  9
$CHAMFERB
 40
0.5
  9
$CHAMFERC
 40
1.0
  9
$CHAMFERD
 40
0.0
  9
$SKPOLY
 70
     0
  9
$TDCREATE
 40
2457917.59909721
  9
$TDUCREATE
 40
2457917.224097222
  9
$TDUPDATE
 40
2457917.59909721
  9
$TDUUPDATE
 40
2457917.224097222
  9
$TDINDWG
 40
0.0000000116
  9
$TDUSRTIMER
 40
0.0000000116
  9
$USRTIMER
 70
     1
  9
$ANGBASE
 50
0.0
  9
$ANGDIR
 70
     0
  9
$PDMODE
 70
     0
  9
$PDSIZE
 40
0.0
  9
$PLINEWID
 40
0.0
  9
$SPLFRAME
 70
     0
  9
$SPLINETYPE
 70
     6
  9
$SPLINESEGS
 70
     8
  9
$HANDSEED
  5
DA
  9
$SURFTAB1
 70
     6
  9
$SURFTAB2
 70
     6
  9
$SURFTYPE
 70
     6
  9
$SURFU
 70
     6
  9
$SURFV
 70
     6
  9
$UCSBASE
  2

  9
$UCSNAME
  2

  9
$UCSORG
 10
0.0
 20
0.0
 30
0.0
  9
$UCSXDIR
 10
1.0
 20
0.0
 30
0.0
  9
$UCSYDIR
 10
0.0
 20
1.0
 30
0.0
  9
$UCSORTHOREF
  2

  9
$UCSORTHOVIEW
 70
     0
  9
$UCSORGTOP
 10
0.0
 20
0.0
 30
0.0
  9
$UCSORGBOTTOM
 10
0.0
 20
0.0
 30
0.0
  9
$UCSORGLEFT
 10
0.0
 20
0.0
 30
0.0
  9
$UCSORGRIGHT
 10
0.0
 20
0.0
 30
0.0
  9
$UCSORGFRONT
 10
0.0
 20
0.0
 30
0.0
  9
$UCSORGBACK
 10
0.0
 20
0.0
 30
0.0
  9
$PUCSBASE
  2

  9
$PUCSNAME
  2

  9
$PUCSORG
 10
0.0
 20
0.0
 30
0.0
  9
$PUCSXDIR
 10
1.0
 20
0.0
 30
0.0
  9
$PUCSYDIR
 10
0.0
 20
1.0
 30
0.0
  9
$PUCSORTHOREF
  2

  9
$PUCSORTHOVIEW
 70
     0
  9
$PUCSORGTOP
 10
0.0
 20
0.0
 30
0.0
  9
$PUCSORGBOTTOM
 10
0.0
 20
0.0
 30
0.0
  9
$PUCSORGLEFT
 10
0.0
 20
0.0
 30
0.0
  9
$PUCSORGRIGHT
 10
0.0
 20
0.0
 30
0.0
  9
$PUCSORGFRONT
 10
0.0
 20
0.0
 30
0.0
  9
$PUCSORGBACK
 10
0.0
 20
0.0
 30
0.0
  9
$USERI1
 70
     0
  9
$USERI2
 70
     0
  9
$USERI3
 70
     0
  9
$USERI4
 70
     0
  9
$USERI5
 70
     0
  9
$USERR1
 40
0.0
  9
$USERR2
 40
0.0
  9
$USERR3
 40
0.0
  9
$USERR4
 40
0.0
  9
$USERR5
 40
0.0
  9
$WORLDVIEW
 70
     1
  9
$SHADEDGE
 70
     3
  9
$SHADEDIF
 70
    70
  9
$TILEMODE
 70
     1
  9
$MAXACTVP
 70
    64
  9
$PINSBASE
 10
0.0
 20
0.0
 30
0.0
  9
$PLIMCHECK
 70
     0
  9
$PEXTMIN
 10
1.000000000000000E+20
 20
1.000000000000000E+20
 30
1.000000000000000E+20
  9
$PEXTMAX
 10
-1.000000000000000E+20
 20
-1.000000000000000E+20
 30
-1.000000000000000E+20
  9
$PLIMMIN
 10
0.0
 20
0.0
  9
$PLIMMAX
 10
12.0
 20
9.0
  9
$UNITMODE
 70
     0
  9
$VISRETAIN
 70
     1
  9
$PLINEGEN
 70
     0
  9
$PSLTSCALE
 70
     1
  9
$TREEDEPTH
 70
  3020
  9
$CMLSTYLE
  2
Standard
  9
$CMLJUST
 70
     0
  9
$CMLSCALE
 40
1.0
  9
$PROXYGRAPHICS
 70
     1
  9
$MEASUREMENT
 70
     0
  9
$CELWEIGHT
370
    -1
  9
$ENDCAPS
280
     0
  9
$JOINSTYLE
280
     0
  9
$LWDISPLAY
290
     1
  9
$INSUNITS
 70
     1
  9
$HYPERLINKBASE
  1

  9
$STYLESHEET
  1

  9
$XEDIT
290
     1
  9
$CEPSNTYPE
380
     0
  9
$PSTYLEMODE
290
     1
  9
$FINGERPRINTGUID
  2
{9FB47921-2847-315A-DE6D-4E74A2C41870}
  9
$VERSIONGUID
  2
{FAEB1C32-E019-11D5-929B-00C0DF256EC4}
  9
$EXTNAMES
290
     1
  9
$PSVPSCALE
 40
0.0
  9
$OLESTARTUP
290
     0
  9
$SORTENTS
280
   127
  9
$INDEXCTL
280
     0
  9
$HIDETEXT
280
     1
  9
$XCLIPFRAME
280
     2
  9
$HALOGAP
280
     0
  9
$OBSCOLOR
 70
   257
  9
$OBSLTYPE
280
     0
  9
$INTERSECTIONDISPLAY
280
     0
  9
$INTERSECTIONCOLOR
 70
   257
  9
$DIMASSOC
280
     2
  9
$PROJECTNAME
  1

  9
$CAMERADISPLAY
290
     0
  9
$LENSLENGTH
 40
50.0
  9
$CAMERAHEIGHT
 40
0.0
  9
$STEPSPERSEC
 40
2.0
  9
$STEPSIZE
 40
6.0
  9
$3DDWFPREC
 40
2.0
  9
$PSOLWIDTH
 40
0.25
  9
$PSOLHEIGHT
 40
4.0
  9
$LOFTANG1
 40
1.570796326794897
  9
$LOFTANG2
 40
1.570796326794897
  9
$LOFTMAG1
 40
0.0
  9
$LOFTMAG2
 40
0.0
  9
$LOFTPARAM
 70
     7
  9
$LOFTNORMALS
280
     1
  9
$LATITUDE
 40
37.795
  9
$LONGITUDE
 40
-122.394
  9
$NORTHDIRECTION
 40
0.0
  9
$TIMEZONE
 70
 -8000
  9
$LIGHTGLYPHDISPLAY
280
     1
  9
$TILEMODELIGHTSYNCH
280
     1
  9
$CMATERIAL
347
3C
  9
$SOLIDHIST
280
     1
  9
$SHOWHIST
280
     1
  9
$DWFFRAME
280
     2
  9
$DGNFRAME
280
     2
  9
$REALWORLDSCALE
290
     1
  9
$INTERFERECOLOR
 62
   256
  9
$CSHADOW
280
     0
  9
$SHADOWPLANELOCATION
 40
0.0
  0
ENDSEC
  0
SECTION
  2
CLASSES
  0
CLASS
  1
ACDBDICTIONARYWDFLT
  2
AcDbDictionaryWithDefault
  3
ObjectDBX Classes
 90
        0
 91
        4
280
     0
281
     0
  0
CLASS
  1
VISUALSTYLE
  2
AcDbVisualStyle
  3
ObjectDBX Classes
 90
     4095
 91
        4
280
     0
281
     0
  0
CLASS
  1
MATERIAL
  2
AcDbMaterial
  3
ObjectDBX Classes
 90
     1153
 91
        4
280
     0
281
     0
  0
CLASS
  1
SUN
  2
AcDbSun
  3
SCENEOE
 90
     1024
 91
        4
280
     0
281
     0
  0
ENDSEC
  0
SECTION
  2
TABLES
  0
TABLE
  2
VPORT
  5
8
330
0
100
AcDbSymbolTable
 70
     1
  0
VPORT
  5
29
330
8
100
AcDbSymbolTableRecord
100
AcDbViewportTableRecord
  2
*Active
 70
     0
 10
0.0
 20
0.0
 11
1.0
 21
1.0
 12
0.0
 22
0.0
 13
0.0
 23
0.0
 14
0.5
 24
0.5
 15
0.5
 25
0.5
 16
0.0
 26
0.0
 36
1.0
 17
91.00082462281999
 27
-128.4993055234307
 37
0.0
 40
256.9986110468615
 41
0.7081814508812795
 42
50.0
 43
0.0
 44
0.0
 50
0.0
 51
0.0
 71
     0
 72
   100
 73
     1
 74
     3
 75
     0
 76
     0
 77
     0
 78
     0
281
     0
 65
     1
110
0.0
120
0.0
130
0.0
111
1.0
121
0.0
131
0.0
112
0.0
122
1.0
132
0.0
 79
     0
146
0.0
 60
     3
 61
     5
292
     1
282
     1
141
0.0
142
0.0
 63
   250
361
3F
  0
ENDTAB
  0
TABLE
  2
LTYPE
  5
5
330
0
100
AcDbSymbolTable
 70
     1
  0
LTYPE
  5
14
330
5
100
AcDbSymbolTableRecord
100
AcDbLinetypeTableRecord
  2
ByBlock
 70
     0
  3

 72
    65
 73
     0
 40
0.0
  0
LTYPE
  5
15
330
5
100
AcDbSymbolTableRecord
100
AcDbLinetypeTableRecord
  2
ByLayer
 70
     0
  3

 72
    65
 73
     0
 40
0.0
  0
LTYPE
  5
16
330
5
100
AcDbSymbolTableRecord
100
AcDbLinetypeTableRecord
  2
Continuous
 70
     0
  3
Solid line
 72
    65
 73
     0
 40
0.0
  0
ENDTAB
  0
TABLE
  2
LAYER
  5
2
330
0
100
AcDbSymbolTable
 70
     2
  0
LAYER
  5
10
330
2
100
AcDbSymbolTableRecord
100
AcDbLayerTableRecord
  2
0
 70
     0
 62
     7
  6
Continuous
370
    -3
390
F
347
3E
  0
LAYER
  5
40
330
2
100
AcDbSymbolTableRecord
100
AcDbLayerTableRecord
  2
_U+30EC_U+30A4_U+30E4_U+30FC 1
 70
     0
 62
     7
  6
Continuous
370
    -3
390
F
347
3E
  0
ENDTAB
  0
TABLE
  2
STYLE
  5
3
330
0
100
AcDbSymbolTable
 70
     1
  0
STYLE
  5
11
330
3
100
AcDbSymbolTableRecord
100
AcDbTextStyleTableRecord
  2
Standard
 70
     0
 40
0.0
 41
1.0
 50
0.0
 71
     0
 42
0.2
  3
txt
  4

  0
ENDTAB
  0
TABLE
  2
VIEW
  5
6
330
0
100
AcDbSymbolTable
 70
     0
  0
ENDTAB
  0
TABLE
  2
UCS
  5
7
330
0
100
AcDbSymbolTable
 70
     0
  0
ENDTAB
  0
TABLE
  2
APPID
  5
9
330
0
100
AcDbSymbolTable
 70
     1
  0
APPID
  5
12
330
9
100
AcDbSymbolTableRecord
100
AcDbRegAppTableRecord
  2
ACAD
 70
     0
  0
ENDTAB
  0
TABLE
  2
DIMSTYLE
  5
A
330
0
100
AcDbSymbolTable
 70
     1
100
AcDbDimStyleTable
  0
DIMSTYLE
105
27
330
A
100
AcDbSymbolTableRecord
100
AcDbDimStyleTableRecord
  2
Standard
 70
     0
178
     0
340
11
  0
ENDTAB
  0
TABLE
  2
BLOCK_RECORD
  5
1
330
0
100
AcDbSymbolTable
 70
     6
  0
BLOCK_RECORD
  5
1F
330
1
100
AcDbSymbolTableRecord
100
AcDbBlockTableRecord
  2
*Model_Space
340
22
 70
     0
280
     1
281
     0
  0
BLOCK_RECORD
  5
1B
330
1
100
AcDbSymbolTableRecord
100
AcDbBlockTableRecord
  2
*Paper_Space
340
1E
 70
     0
280
     1
281
     0
  0
BLOCK_RECORD
  5
23
330
1
100
AcDbSymbolTableRecord
100
AcDbBlockTableRecord
  2
*Paper_Space0
340
26
 70
     0
280
     1
281
     0
  0
BLOCK_RECORD
  5
53
330
1
100
AcDbSymbolTableRecord
100
AcDbBlockTableRecord
  2
block 2
340
0
102
{BLKREFS
331
54
102
}
 70
     0
280
     1
281
     0
  0
BLOCK_RECORD
  5
71
330
1
100
AcDbSymbolTableRecord
100
AcDbBlockTableRecord
  2
block 3
340
0
102
{BLKREFS
331
72
102
}
 70
     0
280
     1
281
     0
  0
BLOCK_RECORD
  5
8D
330
1
100
AcDbSymbolTableRecord
100
AcDbBlockTableRecord
  2
block 4
340
0
102
{BLKREFS
331
8E
102
}
 70
     0
280
     1
281
     0
  0
BLOCK_RECORD
  5
A6
330
1
100
AcDbSymbolTableRecord
100
AcDbBlockTableRecord
  2
block 5
340
0
102
{BLKREFS
331
A7
102
}
 70
     0
280
     1
281
     0
  0
BLOCK_RECORD
  5
B0
330
1
100
AcDbSymbolTableRecord
100
AcDbBlockTableRecord
  2
block 6
340
0
102
{BLKREFS
331
B1
102
}
 70
     0
280
     1
281
     0
  0
ENDTAB
  0
ENDSEC
  0
SECTION
  2
BLOCKS
  0
BLOCK
  5
20
330
1F
100
AcDbEntity
  8
0
100
AcDbBlockBegin
  2
*Model_Space
 70
     0
 10
0.0
 20
0.0
 30
0.0
  3
*Model_Space
  1

  0
ENDBLK
  5
21
330
1F
100
AcDbEntity
  8
0
100
AcDbBlockEnd
  0
BLOCK
  5
1C
330
1B
100
AcDbEntity
 67
     1
  8
0
100
AcDbBlockBegin
  2
*Paper_Space
 70
     0
 10
0.0
 20
0.0
 30
0.0
  3
*Paper_Space
  1

  0
ENDBLK
  5
1D
330
1B
100
AcDbEntity
 67
     1
  8
0
100
AcDbBlockEnd
  0
BLOCK
  5
24
330
23
100
AcDbEntity
  8
0
100
AcDbBlockBegin
  2
*Paper_Space0
 70
     0
 10
0.0
 20
0.0
 30
0.0
  3
*Paper_Space0
  1

  0
ENDBLK
  5
25
330
23
100
AcDbEntity
  8
0
100
AcDbBlockEnd
  0
BLOCK
  5
55
330
53
100
AcDbEntity
  8
0
100
AcDbBlockBegin
  2
block 2
 70
     0
 10
0.0
 20
0.0
 30
0.0
  3
block 2
  1

  0
SPLINE
  5
57
330
53
100
AcDbEntity
  8
_U+30EC_U+30A4_U+30E4_U+30FC 1
370
     0
100
AcDbSpline
210
0.0
220
0.0
230
1.0
 70
    11
 71
     3
 72
    26
 73
    22
 74
     0
 42
0.0000000001
 43
0.0000000001
 12
1.0
 22
0.0
 32
0.0
 13
1.0
 23
0.0
 33
0.0
 40
0.0
 40
0.0
 40
0.0
 40
0.0
 40
1.0
 40
1.0
 40
1.0
 40
2.0
 40
2.0
 40
2.0
 40
3.0
 40
3.0
 40
3.0
 40
4.0
 40
4.0
 40
4.0
 40
5.0
 40
5.0
 40
5.0
 40
6.0
 40
6.0
 40
6.0
 40
7.0
 40
7.0
 40
7.0
 40
7.0
 10
105.2083929858507
 20
-132.5455701708567
 30
0.0
 10
105.2083929858507
 20
-132.5455701708567
 30
0.0
 10
104.1042398828281
 20
-132.5455701708567
 30
0.0
 10
104.1042398828281
 20
-132.5455701708567
 30
0.0
 10
104.1042398828281
 20
-132.5455701708567
 30
0.0
 10
104.1042398828281
 20
-132.8311685865839
 30
0.0
 10
104.1042398828281
 20
-132.8311685865839
 30
0.0
 10
104.1042398828281
 20
-132.8311685865839
 30
0.0
 10
103.9561007769624
 20
-132.8311685865839
 30
0.0
 10
103.9561007769624
 20
-132.8311685865839
 30
0.0
 10
103.9412868663758
 20
-132.543847623114
 30
0.0
 10
103.7783338499235
 20
-132.5035400059366
 30
0.0
 10
103.6639566798132
 20
-132.4780462993458
 30
0.0
 10
103.6639566798132
 20
-132.4780462993458
 30
0.0
 10
103.6639566798132
 20
-132.3516112950371
 30
0.0
 10
103.6639566798132
 20
-132.3516112950371
 30
0.0
 10
103.6639566798132
 20
-132.3516112950371
 30
0.0
 10
105.2083929858507
 20
-132.3516112950371
 30
0.0
 10
105.2083929858507
 20
-132.3516112950371
 30
0.0
 10
105.2083929858507
 20
-132.3516112950371
 30
0.0
 10
105.2083929858507
 20
-132.5455701708567
 30
0.0
 10
105.2083929858507
 20
-132.5455701708567
 30
0.0
  0
HATCH
  5
58
330
53
100
AcDbEntity
  8
_U+30EC_U+30A4_U+30E4_U+30FC 1
 62
   179
420
  2234388
100
AcDbHatch
 10
0.0
 20
0.0
 30
0.0
210
0.0
220
0.0
230
1.0
  2
SOLID
 70
     1
 71
     0
 91
        1
 92
        1
 93
        1
 72
     4
 94
        3
 73
     0
 74
     1
 95
       26
 96
       22
 40
0.0
 40
0.0
 40
0.0
 40
0.0
 40
1.0
 40
1.0
 40
1.0
 40
2.0
 40
2.0
 40
2.0
 40
3.0
 40
3.0
 40
3.0
 40
4.0
 40
4.0
 40
4.0
 40
5.0
 40
5.0
 40
5.0
 40
6.0
 40
6.0
 40
6.0
 40
7.0
 40
7.0
 40
7.0
 40
7.0
 10
105.2083929858507
 20
-132.5455701708567
 10
105.2083929858507
 20
-132.5455701708567
 10
104.1042398828281
 20
-132.5455701708567
 10
104.1042398828281
 20
-132.5455701708567
 10
104.1042398828281
 20
-132.5455701708567
 10
104.1042398828281
 20
-132.8311685865839
 10
104.1042398828281
 20
-132.8311685865839
 10
104.1042398828281
 20
-132.8311685865839
 10
103.9561007769624
 20
-132.8311685865839
 10
103.9561007769624
 20
-132.8311685865839
 10
103.9412868663758
 20
-132.543847623114
 10
103.7783338499235
 20
-132.5035400059366
 10
103.6639566798132
 20
-132.4780462993458
 10
103.6639566798132
 20
-132.4780462993458
 10
103.6639566798132
 20
-132.3516112950371
 10
103.6639566798132
 20
-132.3516112950371
 10
103.6639566798132
 20
-132.3516112950371
 10
105.2083929858507
 20
-132.3516112950371
 10
105.2083929858507
 20
-132.3516112950371
 10
105.2083929858507
 20
-132.3516112950371
 10
105.2083929858507
 20
-132.5455701708567
 10
105.2083929858507
 20
-132.5455701708567
 97
        0
 97
        0
 75
     2
 76
     1
 98
        0
  0
POLYLINE
  5
59
330
53
100
AcDbEntity
  8
_U+30EC_U+30A4_U+30E4_U+30FC 1
370
     0
100
AcDb2dPolyline
 66
     1
 10
0.0
 20
0.0
 30
0.0
  0
VERTEX
  5
5A
330
59
100
AcDbEntity
  8
_U+30EC_U+30A4_U+30E4_U+30FC 1
370
     0
100
AcDbVertex
100
AcDb2dVertex
 10
105.2083929858507
 20
-131.8668863602624
 30
0.0
  0
VERTEX
  5
5B
330
59
100
AcDbEntity
  8
_U+30EC_U+30A4_U+30E4_U+30FC 1
370
     0
100
AcDbVertex
100
AcDb2dVertex
 10
104.9565565058789
 20
-131.8668863602624
 30
0.0
  0
VERTEX
  5
5C
330
59
100
AcDbEntity
  8
_U+30EC_U+30A4_U+30E4_U+30FC 1
370
     0
100
AcDbVertex
100
AcDb2dVertex
 10
104.9565565058789
 20
-131.6491563255947
 30
0.0
  0
VERTEX
  5
5D
330
59
100
AcDbEntity
  8
_U+30EC_U+30A4_U+30E4_U+30FC 1
370
     0
100
AcDbVertex
100
AcDb2dVertex
 10
105.2083929858507
 20
-131.6491563255947
 30
0.0
  0
VERTEX
  5
5E
330
59
100
AcDbEntity
  8
_U+30EC_U+30A4_U+30E4_U+30FC 1
370
     0
100
AcDbVertex
100
AcDb2dVertex
 10
105.2083929858507
 20
-131.8668863602624
 30
0.0
  0
SEQEND
  5
5F
330
59
100
AcDbEntity
  8
_U+30EC_U+30A4_U+30E4_U+30FC 1
370
     0
  0
HATCH
  5
60
330
53
100
AcDbEntity
  8
_U+30EC_U+30A4_U+30E4_U+30FC 1
 62
   179
420
  2234388
100
AcDbHatch
 10
0.0
 20
0.0
 30
0.0
210
0.0
220
0.0
230
1.0
  2
SOLID
 70
     1
 71
     0
 91
        1
 92
        1
 93
        4
 72
     1
 10
105.2083929858507
 20
-131.8668863602624
 11
104.9565565058789
 21
-131.8668863602624
 72
     1
 10
104.9565565058789
 20
-131.8668863602624
 11
104.9565565058789
 21
-131.6491563255947
 72
     1
 10
104.9565565058789
 20
-131.6491563255947
 11
105.2083929858507
 21
-131.6491563255947
 72
     1
 10
105.2083929858507
 20
-131.6491563255947
 11
105.2083929858507
 21
-131.8668863602624
 97
        0
 75
     2
 76
     1
 98
        0
  0
SPLINE
  5
61
330
53
100
AcDbEntity
  8
_U+30EC_U+30A4_U+30E4_U+30FC 1
370
     0
100
AcDbSpline
210
0.0
220
0.0
230
1.0
 70
    11
 71
     3
 72
    53
 73
    49
 74
     0
 42
0.0000000001
 43
0.0000000001
 12
1.0
 22
0.0
 32
0.0
 13
1.0
 23
0.0
 33
0.0
 40
0.0
 40
0.0
 40
0.0
 40
0.0
 40
1.0
 40
1.0
 40
1.0
 40
2.0
 40
2.0
 40
2.0
 40
3.0
 40
3.0
 40
3.0
 40
4.0
 40
4.0
 40
4.0
 40
5.0
 40
5.0
 40
5.0
 40
6.0
 40
6.0
 40
6.0
 40
7.0
 40
7.0
 40
7.0
 40
8.0
 40
8.0
 40
8.0
 40
9.0
 40
9.0
 40
9.0
 40
10.0
 40
10.0
 40
10.0
 40
11.0
 40
11.0
 40
11.0
 40
12.0
 40
12.0
 40
12.0
 40
13.0
 40
13.0
 40
13.0
 40
14.0
 40
14.0
 40
14.0
 40
15.0
 40
15.0
 40
15.0
 40
16.0
 40
16.0
 40
16.0
 40
16.0
 10
105.2590358894839
 20
-131.0290391382497
 30
0.0
 10
105.2590358894839
 20
-131.0969075193091
 30
0.0
 10
105.2421549216061
 20
-131.1844129446345
 30
0.0
 10
105.1787651646775
 20
-131.2726073890568
 30
0.0
 10
105.0688666186981
 20
-131.4224690426652
 30
0.0
 10
104.9376084807101
 20
-131.440728048737
 30
0.0
 10
104.8297769920217
 20
-131.4572645070662
 30
0.0
 10
104.8297769920217
 20
-131.4572645070662
 30
0.0
 10
104.8297769920217
 20
-131.2650281789893
 30
0.0
 10
104.8297769920217
 20
-131.2650281789893
 30
0.0
 10
105.0285590015206
 20
-131.2174858612929
 30
0.0
 10
105.0581868226938
 20
-131.1075873153134
 30
0.0
 10
105.0581868226938
 20
-131.0273165905071
 30
0.0
 10
105.0581868226938
 20
-130.9063937389748
 30
0.0
 10
104.9586235631701
 20
-130.7744465818897
 30
0.0
 10
104.7260796179157
 20
-130.7744465818897
 30
0.0
 10
104.4701090233616
 20
-130.7744465818897
 30
0.0
 10
104.4001735850111
 20
-130.930164897823
 30
0.0
 10
104.4001735850111
 20
-131.0345512910261
 30
0.0
 10
104.4001735850111
 20
-131.0621120549081
 30
0.0
 10
104.4001735850111
 20
-131.1844129446345
 30
0.0
 10
104.5293646657079
 20
-131.2615830835041
 30
0.0
 10
104.5293646657079
 20
-131.2615830835041
 30
0.0
 10
104.5104166405391
 20
-131.4135117944036
 30
0.0
 10
104.5104166405391
 20
-131.4135117944036
 30
0.0
 10
104.5104166405391
 20
-131.4135117944036
 30
0.0
 10
103.6639566798132
 20
-131.3091254012005
 30
0.0
 10
103.6639566798132
 20
-131.3091254012005
 30
0.0
 10
103.6639566798132
 20
-131.3091254012005
 30
0.0
 10
103.6639566798132
 20
-130.6356092338341
 30
0.0
 10
103.6639566798132
 20
-130.6356092338341
 30
0.0
 10
103.6639566798132
 20
-130.6356092338341
 30
0.0
 10
103.8586045747298
 20
-130.6356092338341
 30
0.0
 10
103.8586045747298
 20
-130.6356092338341
 30
0.0
 10
103.8586045747298
 20
-130.6356092338341
 30
0.0
 10
103.8586045747298
 20
-131.1682209958538
 30
0.0
 10
103.8586045747298
 20
-131.1682209958538
 30
0.0
 10
103.8586045747298
 20
-131.1682209958538
 30
0.0
 10
104.2816623003185
 20
-131.2247205618119
 30
0.0
 10
104.2816623003185
 20
-131.2247205618119
 30
0.0
 10
104.247900364563
 20
-131.171666091339
 30
0.0
 10
104.2075927473856
 20
-131.1003526147944
 30
0.0
 10
104.2075927473856
 20
-130.9980332788824
 30
0.0
 10
104.2075927473856
 20
-130.7782361869235
 30
0.0
 10
104.3939724131376
 20
-130.5732530055511
 30
0.0
 10
104.7071315927468
 20
-130.5732530055511
 30
0.0
 10
105.0244248869383
 20
-130.5732530055511
 30
0.0
 10
105.2590358894839
 20
-130.7672118813707
 30
0.0
 10
105.2590358894839
 20
-131.0290391382497
 30
0.0
  0
HATCH
  5
62
330
53
100
AcDbEntity
  8
_U+30EC_U+30A4_U+30E4_U+30FC 1
 62
   179
420
  2234388
100
AcDbHatch
 10
0.0
 20
0.0
 30
0.0
210
0.0
220
0.0
230
1.0
  2
SOLID
 70
     1
 71
     0
 91
        1
 92
        1
 93
        1
 72
     4
 94
        3
 73
     0
 74
     1
 95
       53
 96
       49
 40
0.0
 40
0.0
 40
0.0
 40
0.0
 40
1.0
 40
1.0
 40
1.0
 40
2.0
 40
2.0
 40
2.0
 40
3.0
 40
3.0
 40
3.0
 40
4.0
 40
4.0
 40
4.0
 40
5.0
 40
5.0
 40
5.0
 40
6.0
 40
6.0
 40
6.0
 40
7.0
 40
7.0
 40
7.0
 40
8.0
 40
8.0
 40
8.0
 40
9.0
 40
9.0
 40
9.0
 40
10.0
 40
10.0
 40
10.0
 40
11.0
 40
11.0
 40
11.0
 40
12.0
 40
12.0
 40
12.0
 40
13.0
 40
13.0
 40
13.0
 40
14.0
 40
14.0
 40
14.0
 40
15.0
 40
15.0
 40
15.0
 40
16.0
 40
16.0
 40
16.0
 40
16.0
 10
105.2590358894839
 20
-131.0290391382497
 10
105.2590358894839
 20
-131.0969075193091
 10
105.2421549216061
 20
-131.1844129446345
 10
105.1787651646775
 20
-131.2726073890568
 10
105.0688666186981
 20
-131.4224690426652
 10
104.9376084807101
 20
-131.440728048737
 10
104.8297769920217
 20
-131.4572645070662
 10
104.8297769920217
 20
-131.4572645070662
 10
104.8297769920217
 20
-131.2650281789893
 10
104.8297769920217
 20
-131.2650281789893
 10
105.0285590015206
 20
-131.2174858612929
 10
105.0581868226938
 20
-131.1075873153134
 10
105.0581868226938
 20
-131.0273165905071
 10
105.0581868226938
 20
-130.9063937389748
 10
104.9586235631701
 20
-130.7744465818897
 10
104.7260796179157
 20
-130.7744465818897
 10
104.4701090233616
 20
-130.7744465818897
 10
104.4001735850111
 20
-130.930164897823
 10
104.4001735850111
 20
-131.0345512910261
 10
104.4001735850111
 20
-131.0621120549081
 10
104.4001735850111
 20
-131.1844129446345
 10
104.5293646657079
 20
-131.2615830835041
 10
104.5293646657079
 20
-131.2615830835041
 10
104.5104166405391
 20
-131.4135117944036
 10
104.5104166405391
 20
-131.4135117944036
 10
104.5104166405391
 20
-131.4135117944036
 10
103.6639566798132
 20
-131.3091254012005
 10
103.6639566798132
 20
-131.3091254012005
 10
103.6639566798132
 20
-131.3091254012005
 10
103.6639566798132
 20
-130.6356092338341
 10
103.6639566798132
 20
-130.6356092338341
 10
103.6639566798132
 20
-130.6356092338341
 10
103.8586045747298
 20
-130.6356092338341
 10
103.8586045747298
 20
-130.6356092338341
 10
103.8586045747298
 20
-130.6356092338341
 10
103.8586045747298
 20
-131.1682209958538
 10
103.8586045747298
 20
-131.1682209958538
 10
103.8586045747298
 20
-131.1682209958538
 10
104.2816623003185
 20
-131.2247205618119
 10
104.2816623003185
 20
-131.2247205618119
 10
104.247900364563
 20
-131.171666091339
 10
104.2075927473856
 20
-131.1003526147944
 10
104.2075927473856
 20
-130.9980332788824
 10
104.2075927473856
 20
-130.7782361869235
 10
104.3939724131376
 20
-130.5732530055511
 10
104.7071315927468
 20
-130.5732530055511
 10
105.0244248869383
 20
-130.5732530055511
 10
105.2590358894839
 20
-130.7672118813707
 10
105.2590358894839
 20
-131.0290391382497
 97
        0
 97
        0
 75
     2
 76
     1
 98
        0
  0
ENDBLK
  5
56
330
53
100
AcDbEntity
  8
0
100
AcDbBlockEnd
  0
BLOCK
  5
73
330
71
100
AcDbEntity
  8
0
100
AcDbBlockBegin
  2
block 3
 70
     0
 10
0.0
 20
0.0
 30
0.0
  3
block 3
  1

  0
SPLINE
  5
75
330
71
100
AcDbEntity
  8
_U+30EC_U+30A4_U+30E4_U+30FC 1
370
     0
100
AcDbSpline
210
0.0
220
0.0
230
1.0
 70
    11
 71
     3
 72
    44
 73
    40
 74
     0
 42
0.0000000001
 43
0.0000000001
 12
1.0
 22
0.0
 32
0.0
 13
1.0
 23
0.0
 33
0.0
 40
0.0
 40
0.0
 40
0.0
 40
0.0
 40
1.0
 40
1.0
 40
1.0
 40
2.0
 40
2.0
 40
2.0
 40
3.0
 40
3.0
 40
3.0
 40
4.0
 40
4.0
 40
4.0
 40
5.0
 40
5.0
 40
5.0
 40
6.0
 40
6.0
 40
6.0
 40
7.0
 40
7.0
 40
7.0
 40
8.0
 40
8.0
 40
8.0
 40
9.0
 40
9.0
 40
9.0
 40
10.0
 40
10.0
 40
10.0
 40
11.0
 40
11.0
 40
11.0
 40
12.0
 40
12.0
 40
12.0
 40
13.0
 40
13.0
 40
13.0
 40
13.0
 10
76.57827146523043
 20
-126.7726236662235
 30
0.0
 10
76.7369181123262
 20
-126.9614148988152
 30
0.0
 10
76.81098766525906
 20
-127.0416856236215
 30
0.0
 10
76.95482040176825
 20
-127.0837157885416
 30
0.0
 10
76.95482040176825
 20
-127.0837157885416
 30
0.0
 10
76.95482040176825
 20
-126.4105441307238
 30
0.0
 10
76.95482040176825
 20
-126.4105441307238
 30
0.0
 10
76.95482040176825
 20
-126.4105441307238
 30
0.0
 10
77.15997583791487
 20
-126.4105441307238
 30
0.0
 10
77.15997583791487
 20
-126.4105441307238
 30
0.0
 10
77.15997583791487
 20
-126.4105441307238
 30
0.0
 10
77.15997583791487
 20
-127.2997232754667
 30
0.0
 10
77.15997583791487
 20
-127.2997232754667
 30
0.0
 10
76.80237492654594
 20
-127.2725070211333
 30
0.0
 10
76.72417125903077
 20
-127.2156629456266
 30
0.0
 10
76.42582599000814
 20
-126.882522212203
 30
0.0
 10
76.22704398050921
 20
-126.6610025725014
 30
0.0
 10
76.15934785422405
 20
-126.6045030065433
 30
0.0
 10
76.02188854436258
 20
-126.6045030065433
 30
0.0
 10
75.90337725967
 20
-126.6045030065433
 30
0.0
 10
75.77229137645624
 20
-126.6665147252778
 30
0.0
 10
75.77229137645624
 20
-126.8367024422492
 30
0.0
 10
75.77229137645624
 20
-127.0620116869845
 30
0.0
 10
76.00276826441944
 20
-127.0692463875035
 30
0.0
 10
76.11921249182089
 20
-127.0730359925373
 30
0.0
 10
76.11921249182089
 20
-127.0730359925373
 30
0.0
 10
76.11921249182089
 20
-127.2669948683569
 30
0.0
 10
76.11921249182089
 20
-127.2669948683569
 30
0.0
 10
75.99226072318943
 20
-127.2594156582893
 30
0.0
 10
75.88012286514456
 20
-127.2504584100277
 30
0.0
 10
75.76161158045196
 20
-127.1808674812256
 30
0.0
 10
75.60089787606506
 20
-127.0857828458327
 30
0.0
 10
75.56696368553534
 20
-126.924552377123
 30
0.0
 10
75.56696368553534
 20
-126.8239555889537
 30
0.0
 10
75.56696368553534
 20
-126.5841769431804
 30
0.0
 10
75.75110403922194
 20
-126.4050319779474
 30
0.0
 10
76.02395560165374
 20
-126.4050319779474
 30
0.0
 10
76.2523654323258
 20
-126.4050319779474
 30
0.0
 10
76.35192869184952
 20
-126.5056287661167
 30
0.0
 10
76.57827146523043
 20
-126.7726236662235
 30
0.0
  0
HATCH
  5
76
330
71
100
AcDbEntity
  8
_U+30EC_U+30A4_U+30E4_U+30FC 1
 62
   179
420
  2234388
100
AcDbHatch
 10
0.0
 20
0.0
 30
0.0
210
0.0
220
0.0
230
1.0
  2
SOLID
 70
     1
 71
     0
 91
        1
 92
        1
 93
        1
 72
     4
 94
        3
 73
     0
 74
     1
 95
       44
 96
       40
 40
0.0
 40
0.0
 40
0.0
 40
0.0
 40
1.0
 40
1.0
 40
1.0
 40
2.0
 40
2.0
 40
2.0
 40
3.0
 40
3.0
 40
3.0
 40
4.0
 40
4.0
 40
4.0
 40
5.0
 40
5.0
 40
5.0
 40
6.0
 40
6.0
 40
6.0
 40
7.0
 40
7.0
 40
7.0
 40
8.0
 40
8.0
 40
8.0
 40
9.0
 40
9.0
 40
9.0
 40
10.0
 40
10.0
 40
10.0
 40
11.0
 40
11.0
 40
11.0
 40
12.0
 40
12.0
 40
12.0
 40
13.0
 40
13.0
 40
13.0
 40
13.0
 10
76.57827146523043
 20
-126.7726236662235
 10
76.7369181123262
 20
-126.9614148988152
 10
76.81098766525906
 20
-127.0416856236215
 10
76.95482040176825
 20
-127.0837157885416
 10
76.95482040176825
 20
-127.0837157885416
 10
76.95482040176825
 20
-126.4105441307238
 10
76.95482040176825
 20
-126.4105441307238
 10
76.95482040176825
 20
-126.4105441307238
 10
77.15997583791487
 20
-126.4105441307238
 10
77.15997583791487
 20
-126.4105441307238
 10
77.15997583791487
 20
-126.4105441307238
 10
77.15997583791487
 20
-127.2997232754667
 10
77.15997583791487
 20
-127.2997232754667
 10
76.80237492654594
 20
-127.2725070211333
 10
76.72417125903077
 20
-127.2156629456266
 10
76.42582599000814
 20
-126.882522212203
 10
76.22704398050921
 20
-126.6610025725014
 10
76.15934785422405
 20
-126.6045030065433
 10
76.02188854436258
 20
-126.6045030065433
 10
75.90337725967
 20
-126.6045030065433
 10
75.77229137645624
 20
-126.6665147252778
 10
75.77229137645624
 20
-126.8367024422492
 10
75.77229137645624
 20
-127.0620116869845
 10
76.00276826441944
 20
-127.0692463875035
 10
76.11921249182089
 20
-127.0730359925373
 10
76.11921249182089
 20
-127.0730359925373
 10
76.11921249182089
 20
-127.2669948683569
 10
76.11921249182089
 20
-127.2669948683569
 10
75.99226072318943
 20
-127.2594156582893
 10
75.88012286514456
 20
-127.2504584100277
 10
75.76161158045196
 20
-127.1808674812256
 10
75.60089787606506
 20
-127.0857828458327
 10
75.56696368553534
 20
-126.924552377123
 10
75.56696368553534
 20
-126.8239555889537
 10
75.56696368553534
 20
-126.5841769431804
 10
75.75110403922194
 20
-126.4050319779474
 10
76.02395560165374
 20
-126.4050319779474
 10
76.2523654323258
 20
-126.4050319779474
 10
76.35192869184952
 20
-126.5056287661167
 10
76.57827146523043
 20
-126.7726236662235
 97
        0
 97
        0
 75
     2
 76
     1
 98
        0
  0
SPLINE
  5
77
330
71
100
AcDbEntity
  8
_U+30EC_U+30A4_U+30E4_U+30FC 1
370
     0
100
AcDbSpline
210
0.0
220
0.0
230
1.0
 70
    11
 71
     3
 72
    29
 73
    25
 74
     0
 42
0.0000000001
 43
0.0000000001
 12
1.0
 22
0.0
 32
0.0
 13
1.0
 23
0.0
 33
0.0
 40
0.0
 40
0.0
 40
0.0
 40
0.0
 40
1.0
 40
1.0
 40
1.0
 40
2.0
 40
2.0
 40
2.0
 40
3.0
 40
3.0
 40
3.0
 40
4.0
 40
4.0
 40
4.0
 40
5.0
 40
5.0
 40
5.0
 40
6.0
 40
6.0
 40
6.0
 40
7.0
 40
7.0
 40
7.0
 40
8.0
 40
8.0
 40
8.0
 40
8.0
 10
76.98220891087598
 20
-125.4917371648076
 30
0.0
 10
77.19167071637916
 20
-125.5850992524579
 30
0.0
 10
77.2107909963223
 20
-125.7353054156148
 30
0.0
 10
77.2107909963223
 20
-125.8359022037841
 30
0.0
 10
77.2107909963223
 20
-125.9750840613882
 30
0.0
 10
77.16428220727143
 20
-126.0977294606631
 30
0.0
 10
76.98220891087598
 20
-126.1800672427605
 30
0.0
 10
76.78756101595937
 20
-126.269639725377
 30
0.0
 10
76.55071070134844
 20
-126.2861761837062
 30
0.0
 10
76.38775768489612
 20
-126.2861761837062
 30
0.0
 10
76.24392494838693
 20
-126.2861761837062
 30
0.0
 10
75.99226072318943
 20
-126.2713622731197
 30
0.0
 10
75.79330645891626
 20
-126.1800672427605
 30
0.0
 10
75.59021808006078
 20
-126.0867051551103
 30
0.0
 10
75.56696368553534
 20
-125.9475232975062
 30
0.0
 10
75.56696368553534
 20
-125.8359022037841
 30
0.0
 10
75.56696368553534
 20
-125.6987874034711
 30
0.0
 10
75.61140541729507
 20
-125.5740749469051
 30
0.0
 10
75.79330645891626
 20
-125.4917371648076
 30
0.0
 10
75.98588729654172
 20
-125.4059542872249
 30
0.0
 10
76.2142971272138
 20
-125.3856282238619
 30
0.0
 10
76.38775768489612
 20
-125.3856282238619
 30
0.0
 10
76.5591511852873
 20
-125.3856282238619
 30
0.0
 10
76.78980032802478
 20
-125.4038872299338
 30
0.0
 10
76.98220891087598
 20
-125.4917371648076
 30
0.0
  0
SPLINE
  5
78
330
71
100
AcDbEntity
  8
_U+30EC_U+30A4_U+30E4_U+30FC 1
370
     0
100
AcDbSpline
210
0.0
220
0.0
230
1.0
 70
    11
 71
     3
 72
    17
 73
    13
 74
     0
 42
0.0000000001
 43
0.0000000001
 12
1.0
 22
0.0
 32
0.0
 13
1.0
 23
0.0
 33
0.0
 40
0.0
 40
0.0
 40
0.0
 40
0.0
 40
1.0
 40
1.0
 40
1.0
 40
2.0
 40
2.0
 40
2.0
 40
3.0
 40
3.0
 40
3.0
 40
4.0
 40
4.0
 40
4.0
 40
4.0
 10
75.75954452316081
 20
-125.8359022037841
 30
0.0
 10
75.75954452316081
 20
-126.0519096907093
 30
0.0
 10
76.04307588159688
 20
-126.0922173078867
 30
0.0
 10
76.38775768489612
 20
-126.0922173078867
 30
0.0
 10
76.70729029115304
 20
-126.0922173078867
 30
0.0
 10
77.01614310140569
 20
-126.0612114485194
 30
0.0
 10
77.01614310140569
 20
-125.8359022037841
 30
0.0
 10
77.01614310140569
 20
-125.6219617741501
 30
0.0
 10
76.73467880026078
 20
-125.5795870996815
 30
0.0
 10
76.38775768489612
 20
-125.5795870996815
 30
0.0
 10
76.06839733341346
 20
-125.5795870996815
 30
0.0
 10
75.75954452316081
 20
-125.6126600163399
 30
0.0
 10
75.75954452316081
 20
-125.8359022037841
 30
0.0
  0
HATCH
  5
79
330
71
100
AcDbEntity
  8
_U+30EC_U+30A4_U+30E4_U+30FC 1
 62
   179
420
  2234388
100
AcDbHatch
 10
0.0
 20
0.0
 30
0.0
210
0.0
220
0.0
230
1.0
  2
SOLID
 70
     1
 71
     0
 91
        2
 92
        1
 93
        1
 72
     4
 94
        3
 73
     0
 74
     1
 95
       29
 96
       25
 40
0.0
 40
0.0
 40
0.0
 40
0.0
 40
1.0
 40
1.0
 40
1.0
 40
2.0
 40
2.0
 40
2.0
 40
3.0
 40
3.0
 40
3.0
 40
4.0
 40
4.0
 40
4.0
 40
5.0
 40
5.0
 40
5.0
 40
6.0
 40
6.0
 40
6.0
 40
7.0
 40
7.0
 40
7.0
 40
8.0
 40
8.0
 40
8.0
 40
8.0
 10
76.98220891087598
 20
-125.4917371648076
 10
77.19167071637916
 20
-125.5850992524579
 10
77.2107909963223
 20
-125.7353054156148
 10
77.2107909963223
 20
-125.8359022037841
 10
77.2107909963223
 20
-125.9750840613882
 10
77.16428220727143
 20
-126.0977294606631
 10
76.98220891087598
 20
-126.1800672427605
 10
76.78756101595937
 20
-126.269639725377
 10
76.55071070134844
 20
-126.2861761837062
 10
76.38775768489612
 20
-126.2861761837062
 10
76.24392494838693
 20
-126.2861761837062
 10
75.99226072318943
 20
-126.2713622731197
 10
75.79330645891626
 20
-126.1800672427605
 10
75.59021808006078
 20
-126.0867051551103
 10
75.56696368553534
 20
-125.9475232975062
 10
75.56696368553534
 20
-125.8359022037841
 10
75.56696368553534
 20
-125.6987874034711
 10
75.61140541729507
 20
-125.5740749469051
 10
75.79330645891626
 20
-125.4917371648076
 10
75.98588729654172
 20
-125.4059542872249
 10
76.2142971272138
 20
-125.3856282238619
 10
76.38775768489612
 20
-125.3856282238619
 10
76.5591511852873
 20
-125.3856282238619
 10
76.78980032802478
 20
-125.4038872299338
 10
76.98220891087598
 20
-125.4917371648076
 97
        0
 97
        0
 92
        1
 93
        1
 72
     4
 94
        3
 73
     0
 74
     1
 95
       17
 96
       13
 40
0.0
 40
0.0
 40
0.0
 40
0.0
 40
1.0
 40
1.0
 40
1.0
 40
2.0
 40
2.0
 40
2.0
 40
3.0
 40
3.0
 40
3.0
 40
4.0
 40
4.0
 40
4.0
 40
4.0
 10
75.75954452316081
 20
-125.8359022037841
 10
75.75954452316081
 20
-126.0519096907093
 10
76.04307588159688
 20
-126.0922173078867
 10
76.38775768489612
 20
-126.0922173078867
 10
76.70729029115304
 20
-126.0922173078867
 10
77.01614310140569
 20
-126.0612114485194
 10
77.01614310140569
 20
-125.8359022037841
 10
77.01614310140569
 20
-125.6219617741501
 10
76.73467880026078
 20
-125.5795870996815
 10
76.38775768489612
 20
-125.5795870996815
 10
76.06839733341346
 20
-125.5795870996815
 10
75.75954452316081
 20
-125.6126600163399
 10
75.75954452316081
 20
-125.8359022037841
 97
        0
 97
        0
 75
     2
 76
     1
 98
        0
  0
ENDBLK
  5
74
330
71
100
AcDbEntity
  8
0
100
AcDbBlockEnd
  0
BLOCK
  5
8F
330
8D
100
AcDbEntity
  8
0
100
AcDbBlockBegin
  2
block 4
 70
     0
 10
0.0
 20
0.0
 30
0.0
  3
block 4
  1

  0
POLYLINE
  5
91
330
8D
100
AcDbEntity
  8
_U+30EC_U+30A4_U+30E4_U+30FC 1
370
     0
100
AcDb2dPolyline
 66
     1
 10
0.0
 20
0.0
 30
0.0
  0
VERTEX
  5
92
330
91
100
AcDbEntity
  8
_U+30EC_U+30A4_U+30E4_U+30FC 1
370
     0
100
AcDbVertex
100
AcDb2dVertex
 10
83.90495603371126
 20
-139.1663546744098
 30
0.0
  0
VERTEX
  5
93
330
91
100
AcDbEntity
  8
_U+30EC_U+30A4_U+30E4_U+30FC 1
370
     0
100
AcDbVertex
100
AcDb2dVertex
 10
83.90495603371126
 20
-139.5132757897745
 30
0.0
  0
VERTEX
  5
94
330
91
100
AcDbEntity
  8
_U+30EC_U+30A4_U+30E4_U+30FC 1
370
     0
100
AcDbVertex
100
AcDb2dVertex
 10
83.7165093106681
 20
-139.5132757897745
 30
0.0
  0
VERTEX
  5
95
330
91
100
AcDbEntity
  8
_U+30EC_U+30A4_U+30E4_U+30FC 1
370
     0
100
AcDbVertex
100
AcDb2dVertex
 10
83.7165093106681
 20
-139.1663546744098
 30
0.0
  0
VERTEX
  5
96
330
91
100
AcDbEntity
  8
_U+30EC_U+30A4_U+30E4_U+30FC 1
370
     0
100
AcDbVertex
100
AcDb2dVertex
 10
83.14910208424745
 20
-139.1663546744098
 30
0.0
  0
VERTEX
  5
97
330
91
100
AcDbEntity
  8
_U+30EC_U+30A4_U+30E4_U+30FC 1
370
     0
100
AcDbVertex
100
AcDb2dVertex
 10
83.14910208424745
 20
-138.9420789583201
 30
0.0
  0
VERTEX
  5
98
330
91
100
AcDbEntity
  8
_U+30EC_U+30A4_U+30E4_U+30FC 1
370
     0
100
AcDbVertex
100
AcDb2dVertex
 10
83.73649086448255
 20
-137.968839483737
 30
0.0
  0
VERTEX
  5
99
330
91
100
AcDbEntity
  8
_U+30EC_U+30A4_U+30E4_U+30FC 1
370
     0
100
AcDbVertex
100
AcDb2dVertex
 10
83.90495603371126
 20
-137.968839483737
 30
0.0
  0
VERTEX
  5
9A
330
91
100
AcDbEntity
  8
_U+30EC_U+30A4_U+30E4_U+30FC 1
370
     0
100
AcDbVertex
100
AcDb2dVertex
 10
83.90495603371126
 20
-138.9675726649109
 30
0.0
  0
VERTEX
  5
9B
330
91
100
AcDbEntity
  8
_U+30EC_U+30A4_U+30E4_U+30FC 1
370
     0
100
AcDbVertex
100
AcDb2dVertex
 10
84.08444550849278
 20
-138.9675726649109
 30
0.0
  0
VERTEX
  5
9C
330
91
100
AcDbEntity
  8
_U+30EC_U+30A4_U+30E4_U+30FC 1
370
     0
100
AcDbVertex
100
AcDb2dVertex
 10
84.08444550849278
 20
-139.1663546744098
 30
0.0
  0
VERTEX
  5
9D
330
91
100
AcDbEntity
  8
_U+30EC_U+30A4_U+30E4_U+30FC 1
370
     0
100
AcDbVertex
100
AcDb2dVertex
 10
83.90495603371126
 20
-139.1663546744098
 30
0.0
  0
SEQEND
  5
9E
330
91
100
AcDbEntity
  8
_U+30EC_U+30A4_U+30E4_U+30FC 1
370
     0
  0
POLYLINE
  5
9F
330
8D
100
AcDbEntity
  8
_U+30EC_U+30A4_U+30E4_U+30FC 1
370
     0
100
AcDb2dPolyline
 66
     1
 10
0.0
 20
0.0
 30
0.0
  0
VERTEX
  5
A0
330
9F
100
AcDbEntity
  8
_U+30EC_U+30A4_U+30E4_U+30FC 1
370
     0
100
AcDbVertex
100
AcDb2dVertex
 10
83.7165093106681
 20
-138.3116264845193
 30
0.0
  0
VERTEX
  5
A1
330
9F
100
AcDbEntity
  8
_U+30EC_U+30A4_U+30E4_U+30FC 1
370
     0
100
AcDbVertex
100
AcDb2dVertex
 10
83.32101234896142
 20
-138.9675726649109
 30
0.0
  0
VERTEX
  5
A2
330
9F
100
AcDbEntity
  8
_U+30EC_U+30A4_U+30E4_U+30FC 1
370
     0
100
AcDbVertex
100
AcDb2dVertex
 10
83.7165093106681
 20
-138.9675726649109
 30
0.0
  0
VERTEX
  5
A3
330
9F
100
AcDbEntity
  8
_U+30EC_U+30A4_U+30E4_U+30FC 1
370
     0
100
AcDbVertex
100
AcDb2dVertex
 10
83.7165093106681
 20
-138.3116264845193
 30
0.0
  0
SEQEND
  5
A4
330
9F
100
AcDbEntity
  8
_U+30EC_U+30A4_U+30E4_U+30FC 1
370
     0
  0
HATCH
  5
A5
330
8D
100
AcDbEntity
  8
_U+30EC_U+30A4_U+30E4_U+30FC 1
 62
   179
420
  2234388
100
AcDbHatch
 10
0.0
 20
0.0
 30
0.0
210
0.0
220
0.0
230
1.0
  2
SOLID
 70
     1
 71
     0
 91
        2
 92
        1
 93
       11
 72
     1
 10
83.90495603371126
 20
-139.1663546744098
 11
83.90495603371126
 21
-139.5132757897745
 72
     1
 10
83.90495603371126
 20
-139.5132757897745
 11
83.7165093106681
 21
-139.5132757897745
 72
     1
 10
83.7165093106681
 20
-139.5132757897745
 11
83.7165093106681
 21
-139.1663546744098
 72
     1
 10
83.7165093106681
 20
-139.1663546744098
 11
83.14910208424745
 21
-139.1663546744098
 72
     1
 10
83.14910208424745
 20
-139.1663546744098
 11
83.14910208424745
 21
-138.9420789583201
 72
     1
 10
83.14910208424745
 20
-138.9420789583201
 11
83.73649086448255
 21
-137.968839483737
 72
     1
 10
83.73649086448255
 20
-137.968839483737
 11
83.90495603371126
 21
-137.968839483737
 72
     1
 10
83.90495603371126
 20
-137.968839483737
 11
83.90495603371126
 21
-138.9675726649109
 72
     1
 10
83.90495603371126
 20
-138.9675726649109
 11
84.08444550849278
 21
-138.9675726649109
 72
     1
 10
84.08444550849278
 20
-138.9675726649109
 11
84.08444550849278
 21
-139.1663546744098
 72
     1
 10
84.08444550849278
 20
-139.1663546744098
 11
83.90495603371126
 21
-139.1663546744098
 97
        0
 92
        1
 93
        3
 72
     1
 10
83.7165093106681
 20
-138.3116264845193
 11
83.32101234896142
 21
-138.9675726649109
 72
     1
 10
83.32101234896142
 20
-138.9675726649109
 11
83.7165093106681
 21
-138.9675726649109
 72
     1
 10
83.7165093106681
 20
-138.9675726649109
 11
83.7165093106681
 21
-138.3116264845193
 97
        0
 75
     2
 76
     1
 98
        0
  0
ENDBLK
  5
90
330
8D
100
AcDbEntity
  8
0
100
AcDbBlockEnd
  0
BLOCK
  5
A8
330
A6
100
AcDbEntity
  8
0
100
AcDbBlockBegin
  2
block 5
 70
     0
 10
0.0
 20
0.0
 30
0.0
  3
block 5
  1

  0
SPLINE
  5
AA
330
A6
100
AcDbEntity
  8
_U+30EC_U+30A4_U+30E4_U+30FC 1
370
     0
100
AcDbSpline
210
0.0
220
0.0
230
1.0
 70
    11
 71
     3
 72
    26
 73
    22
 74
     0
 42
0.0000000001
 43
0.0000000001
 12
1.0
 22
0.0
 32
0.0
 13
1.0
 23
0.0
 33
0.0
 40
0.0
 40
0.0
 40
0.0
 40
0.0
 40
1.0
 40
1.0
 40
1.0
 40
2.0
 40
2.0
 40
2.0
 40
3.0
 40
3.0
 40
3.0
 40
4.0
 40
4.0
 40
4.0
 40
5.0
 40
5.0
 40
5.0
 40
6.0
 40
6.0
 40
6.0
 40
7.0
 40
7.0
 40
7.0
 40
7.0
 10
92.58211803241004
 20
-139.5132757897745
 30
0.0
 10
92.58211803241004
 20
-139.5132757897745
 30
0.0
 10
92.58211803241004
 20
-138.4091226867519
 30
0.0
 10
92.58211803241004
 20
-138.4091226867519
 30
0.0
 10
92.58211803241004
 20
-138.4091226867519
 30
0.0
 10
92.29651961668282
 20
-138.4091226867519
 30
0.0
 10
92.29651961668282
 20
-138.4091226867519
 30
0.0
 10
92.29651961668282
 20
-138.4091226867519
 30
0.0
 10
92.29651961668282
 20
-138.2609835808861
 30
0.0
 10
92.29651961668282
 20
-138.2609835808861
 30
0.0
 10
92.58384058015265
 20
-138.2461696702996
 30
0.0
 10
92.62414819733007
 20
-138.0832166538472
 30
0.0
 10
92.64964190392092
 20
-137.968839483737
 30
0.0
 10
92.64964190392092
 20
-137.968839483737
 30
0.0
 10
92.7760769082296
 20
-137.968839483737
 30
0.0
 10
92.7760769082296
 20
-137.968839483737
 30
0.0
 10
92.7760769082296
 20
-137.968839483737
 30
0.0
 10
92.7760769082296
 20
-139.5132757897745
 30
0.0
 10
92.7760769082296
 20
-139.5132757897745
 30
0.0
 10
92.7760769082296
 20
-139.5132757897745
 30
0.0
 10
92.58211803241004
 20
-139.5132757897745
 30
0.0
 10
92.58211803241004
 20
-139.5132757897745
 30
0.0
  0
HATCH
  5
AB
330
A6
100
AcDbEntity
  8
_U+30EC_U+30A4_U+30E4_U+30FC 1
 62
   179
420
  2234388
100
AcDbHatch
 10
0.0
 20
0.0
 30
0.0
210
0.0
220
0.0
230
1.0
  2
SOLID
 70
     1
 71
     0
 91
        1
 92
        1
 93
        1
 72
     4
 94
        3
 73
     0
 74
     1
 95
       26
 96
       22
 40
0.0
 40
0.0
 40
0.0
 40
0.0
 40
1.0
 40
1.0
 40
1.0
 40
2.0
 40
2.0
 40
2.0
 40
3.0
 40
3.0
 40
3.0
 40
4.0
 40
4.0
 40
4.0
 40
5.0
 40
5.0
 40
5.0
 40
6.0
 40
6.0
 40
6.0
 40
7.0
 40
7.0
 40
7.0
 40
7.0
 10
92.58211803241004
 20
-139.5132757897745
 10
92.58211803241004
 20
-139.5132757897745
 10
92.58211803241004
 20
-138.4091226867519
 10
92.58211803241004
 20
-138.4091226867519
 10
92.58211803241004
 20
-138.4091226867519
 10
92.29651961668282
 20
-138.4091226867519
 10
92.29651961668282
 20
-138.4091226867519
 10
92.29651961668282
 20
-138.4091226867519
 10
92.29651961668282
 20
-138.2609835808861
 10
92.29651961668282
 20
-138.2609835808861
 10
92.58384058015265
 20
-138.2461696702996
 10
92.62414819733007
 20
-138.0832166538472
 10
92.64964190392092
 20
-137.968839483737
 10
92.64964190392092
 20
-137.968839483737
 10
92.7760769082296
 20
-137.968839483737
 10
92.7760769082296
 20
-137.968839483737
 10
92.7760769082296
 20
-137.968839483737
 10
92.7760769082296
 20
-139.5132757897745
 10
92.7760769082296
 20
-139.5132757897745
 10
92.7760769082296
 20
-139.5132757897745
 10
92.58211803241004
 20
-139.5132757897745
 10
92.58211803241004
 20
-139.5132757897745
 97
        0
 97
        0
 75
     2
 76
     1
 98
        0
  0
SPLINE
  5
AC
330
A6
100
AcDbEntity
  8
_U+30EC_U+30A4_U+30E4_U+30FC 1
370
     0
100
AcDbSpline
210
0.0
220
0.0
230
1.0
 70
    11
 71
     3
 72
    32
 73
    28
 74
     0
 42
0.0000000001
 43
0.0000000001
 12
1.0
 22
0.0
 32
0.0
 13
1.0
 23
0.0
 33
0.0
 40
0.0
 40
0.0
 40
0.0
 40
0.0
 40
1.0
 40
1.0
 40
1.0
 40
2.0
 40
2.0
 40
2.0
 40
3.0
 40
3.0
 40
3.0
 40
4.0
 40
4.0
 40
4.0
 40
5.0
 40
5.0
 40
5.0
 40
6.0
 40
6.0
 40
6.0
 40
7.0
 40
7.0
 40
7.0
 40
8.0
 40
8.0
 40
8.0
 40
9.0
 40
9.0
 40
9.0
 40
9.0
 10
93.64527449915813
 20
-139.5639186934076
 30
0.0
 10
93.19844561472122
 20
-139.5639186934076
 30
0.0
 10
93.1912109142022
 20
-139.0099473393795
 30
0.0
 10
93.1912109142022
 20
-138.7960069097454
 30
0.0
 10
93.1912109142022
 20
-138.5655300217822
 30
0.0
 10
93.2077473725314
 20
-137.9181965801038
 30
0.0
 10
93.678002906268
 20
-137.9181965801038
 30
0.0
 10
93.8282090694249
 20
-137.9181965801038
 30
0.0
 10
94.04042695131629
 20
-137.9881320184544
 30
0.0
 10
94.07349986797469
 20
-138.3202392232324
 30
0.0
 10
94.07349986797469
 20
-138.3202392232324
 30
0.0
 10
93.88849824041677
 20
-138.3202392232324
 30
0.0
 10
93.88849824041677
 20
-138.3202392232324
 30
0.0
 10
93.87954099215511
 20
-138.2630506381773
 30
0.0
 10
93.85198022827312
 20
-138.1149115323116
 30
0.0
 10
93.67628035852537
 20
-138.1149115323116
 30
0.0
 10
93.42375485945657
 20
-138.1149115323116
 30
0.0
 10
93.38895939505554
 20
-138.4428846225073
 30
0.0
 10
93.37793508950274
 20
-138.6478678038797
 30
0.0
 10
93.4585503238576
 20
-138.5696641363645
 30
0.0
 10
93.51711694710684
 20
-138.5104084940182
 30
0.0
 10
93.67421330123423
 20
-138.5104084940182
 30
0.0
 10
93.82993161716752
 20
-138.5104084940182
 30
0.0
 10
94.0917588740465
 20
-138.6185844922551
 30
0.0
 10
94.0917588740465
 20
-139.024761249966
 30
0.0
 10
94.0917588740465
 20
-139.3441216014487
 30
0.0
 10
93.91950409978402
 20
-139.5639186934076
 30
0.0
 10
93.64527449915813
 20
-139.5639186934076
 30
0.0
  0
SPLINE
  5
AD
330
A6
100
AcDbEntity
  8
_U+30EC_U+30A4_U+30E4_U+30FC 1
370
     0
100
AcDbSpline
210
0.0
220
0.0
230
1.0
 70
    11
 71
     3
 72
    17
 73
    13
 74
     0
 42
0.0000000001
 43
0.0000000001
 12
1.0
 22
0.0
 32
0.0
 13
1.0
 23
0.0
 33
0.0
 40
0.0
 40
0.0
 40
0.0
 40
0.0
 40
1.0
 40
1.0
 40
1.0
 40
2.0
 40
2.0
 40
2.0
 40
3.0
 40
3.0
 40
3.0
 40
4.0
 40
4.0
 40
4.0
 40
4.0
 10
93.65974390019618
 20
-138.7050563889348
 30
0.0
 10
93.43271210771822
 20
-138.7050563889348
 30
0.0
 10
93.39998370060835
 20
-138.9165852517292
 30
0.0
 10
93.39998370060835
 20
-139.0330294791306
 30
0.0
 10
93.39998370060835
 20
-139.2087293488784
 30
0.0
 10
93.48232148270581
 20
-139.3716823653307
 30
0.0
 10
93.64148489412436
 20
-139.3716823653307
 30
0.0
 10
93.74587128732743
 20
-139.3716823653307
 30
0.0
 10
93.89779999822694
 20
-139.3124267229844
 30
0.0
 10
93.89779999822694
 20
-139.0268283072572
 30
0.0
 10
93.89779999822694
 20
-138.8025525911674
 30
0.0
 10
93.77687714669467
 20
-138.7050563889348
 30
0.0
 10
93.65974390019618
 20
-138.7050563889348
 30
0.0
  0
HATCH
  5
AE
330
A6
100
AcDbEntity
  8
_U+30EC_U+30A4_U+30E4_U+30FC 1
 62
   179
420
  2234388
100
AcDbHatch
 10
0.0
 20
0.0
 30
0.0
210
0.0
220
0.0
230
1.0
  2
SOLID
 70
     1
 71
     0
 91
        2
 92
        1
 93
        1
 72
     4
 94
        3
 73
     0
 74
     1
 95
       32
 96
       28
 40
0.0
 40
0.0
 40
0.0
 40
0.0
 40
1.0
 40
1.0
 40
1.0
 40
2.0
 40
2.0
 40
2.0
 40
3.0
 40
3.0
 40
3.0
 40
4.0
 40
4.0
 40
4.0
 40
5.0
 40
5.0
 40
5.0
 40
6.0
 40
6.0
 40
6.0
 40
7.0
 40
7.0
 40
7.0
 40
8.0
 40
8.0
 40
8.0
 40
9.0
 40
9.0
 40
9.0
 40
9.0
 10
93.64527449915813
 20
-139.5639186934076
 10
93.19844561472122
 20
-139.5639186934076
 10
93.1912109142022
 20
-139.0099473393795
 10
93.1912109142022
 20
-138.7960069097454
 10
93.1912109142022
 20
-138.5655300217822
 10
93.2077473725314
 20
-137.9181965801038
 10
93.678002906268
 20
-137.9181965801038
 10
93.8282090694249
 20
-137.9181965801038
 10
94.04042695131629
 20
-137.9881320184544
 10
94.07349986797469
 20
-138.3202392232324
 10
94.07349986797469
 20
-138.3202392232324
 10
93.88849824041677
 20
-138.3202392232324
 10
93.88849824041677
 20
-138.3202392232324
 10
93.87954099215511
 20
-138.2630506381773
 10
93.85198022827312
 20
-138.1149115323116
 10
93.67628035852537
 20
-138.1149115323116
 10
93.42375485945657
 20
-138.1149115323116
 10
93.38895939505554
 20
-138.4428846225073
 10
93.37793508950274
 20
-138.6478678038797
 10
93.4585503238576
 20
-138.5696641363645
 10
93.51711694710684
 20
-138.5104084940182
 10
93.67421330123423
 20
-138.5104084940182
 10
93.82993161716752
 20
-138.5104084940182
 10
94.0917588740465
 20
-138.6185844922551
 10
94.0917588740465
 20
-139.024761249966
 10
94.0917588740465
 20
-139.3441216014487
 10
93.91950409978402
 20
-139.5639186934076
 10
93.64527449915813
 20
-139.5639186934076
 97
        0
 97
        0
 92
        1
 93
        1
 72
     4
 94
        3
 73
     0
 74
     1
 95
       17
 96
       13
 40
0.0
 40
0.0
 40
0.0
 40
0.0
 40
1.0
 40
1.0
 40
1.0
 40
2.0
 40
2.0
 40
2.0
 40
3.0
 40
3.0
 40
3.0
 40
4.0
 40
4.0
 40
4.0
 40
4.0
 10
93.65974390019618
 20
-138.7050563889348
 10
93.43271210771822
 20
-138.7050563889348
 10
93.39998370060835
 20
-138.9165852517292
 10
93.39998370060835
 20
-139.0330294791306
 10
93.39998370060835
 20
-139.2087293488784
 10
93.48232148270581
 20
-139.3716823653307
 10
93.64148489412436
 20
-139.3716823653307
 10
93.74587128732743
 20
-139.3716823653307
 10
93.89779999822694
 20
-139.3124267229844
 10
93.89779999822694
 20
-139.0268283072572
 10
93.89779999822694
 20
-138.8025525911674
 10
93.77687714669467
 20
-138.7050563889348
 10
93.65974390019618
 20
-138.7050563889348
 97
        0
 97
        0
 75
     2
 76
     1
 98
        0
  0
ENDBLK
  5
A9
330
A6
100
AcDbEntity
  8
0
100
AcDbBlockEnd
  0
BLOCK
  5
B2
330
B0
100
AcDbEntity
  8
0
100
AcDbBlockBegin
  2
block 6
 70
     0
 10
0.0
 20
0.0
 30
0.0
  3
block 6
  1

  0
POLYLINE
  5
B4
330
B0
100
AcDbEntity
  8
_U+30EC_U+30A4_U+30E4_U+30FC 1
370
     0
100
AcDb2dPolyline
 66
     1
 10
0.0
 20
0.0
 30
0.0
  0
VERTEX
  5
B5
330
B4
100
AcDbEntity
  8
_U+30EC_U+30A4_U+30E4_U+30FC 1
370
     0
100
AcDbVertex
100
AcDb2dVertex
 10
88.90482311145435
 20
-128.4514186961858
 30
0.0
  0
VERTEX
  5
B6
330
B4
100
AcDbEntity
  8
_U+30EC_U+30A4_U+30E4_U+30FC 1
370
     0
100
AcDbVertex
100
AcDb2dVertex
 10
88.90482311145435
 20
-128.7983398115504
 30
0.0
  0
VERTEX
  5
B7
330
B4
100
AcDbEntity
  8
_U+30EC_U+30A4_U+30E4_U+30FC 1
370
     0
100
AcDbVertex
100
AcDb2dVertex
 10
88.71396482157151
 20
-128.7983398115504
 30
0.0
  0
VERTEX
  5
B8
330
B4
100
AcDbEntity
  8
_U+30EC_U+30A4_U+30E4_U+30FC 1
370
     0
100
AcDbVertex
100
AcDb2dVertex
 10
88.71396482157151
 20
-128.4514186961858
 30
0.0
  0
VERTEX
  5
B9
330
B4
100
AcDbEntity
  8
_U+30EC_U+30A4_U+30E4_U+30FC 1
370
     0
100
AcDbVertex
100
AcDb2dVertex
 10
88.14001191372888
 20
-128.4514186961858
 30
0.0
  0
VERTEX
  5
BA
330
B4
100
AcDbEntity
  8
_U+30EC_U+30A4_U+30E4_U+30FC 1
370
     0
100
AcDbVertex
100
AcDb2dVertex
 10
88.14001191372888
 20
-128.227142980096
 30
0.0
  0
VERTEX
  5
BB
330
B4
100
AcDbEntity
  8
_U+30EC_U+30A4_U+30E4_U+30FC 1
370
     0
100
AcDbVertex
100
AcDb2dVertex
 10
88.734635394483
 20
-127.2539035055129
 30
0.0
  0
VERTEX
  5
BC
330
B4
100
AcDbEntity
  8
_U+30EC_U+30A4_U+30E4_U+30FC 1
370
     0
100
AcDbVertex
100
AcDb2dVertex
 10
88.90482311145435
 20
-127.2539035055129
 30
0.0
  0
VERTEX
  5
BD
330
B4
100
AcDbEntity
  8
_U+30EC_U+30A4_U+30E4_U+30FC 1
370
     0
100
AcDbVertex
100
AcDb2dVertex
 10
88.90482311145435
 20
-128.2526366866869
 30
0.0
  0
VERTEX
  5
BE
330
B4
100
AcDbEntity
  8
_U+30EC_U+30A4_U+30E4_U+30FC 1
370
     0
100
AcDbVertex
100
AcDb2dVertex
 10
89.08637964352702
 20
-128.2526366866869
 30
0.0
  0
VERTEX
  5
BF
330
B4
100
AcDbEntity
  8
_U+30EC_U+30A4_U+30E4_U+30FC 1
370
     0
100
AcDbVertex
100
AcDb2dVertex
 10
89.08637964352702
 20
-128.4514186961858
 30
0.0
  0
VERTEX
  5
C0
330
B4
100
AcDbEntity
  8
_U+30EC_U+30A4_U+30E4_U+30FC 1
370
     0
100
AcDbVertex
100
AcDb2dVertex
 10
88.90482311145435
 20
-128.4514186961858
 30
0.0
  0
SEQEND
  5
C1
330
B4
100
AcDbEntity
  8
_U+30EC_U+30A4_U+30E4_U+30FC 1
370
     0
  0
POLYLINE
  5
C2
330
B0
100
AcDbEntity
  8
_U+30EC_U+30A4_U+30E4_U+30FC 1
370
     0
100
AcDb2dPolyline
 66
     1
 10
0.0
 20
0.0
 30
0.0
  0
VERTEX
  5
C3
330
C2
100
AcDbEntity
  8
_U+30EC_U+30A4_U+30E4_U+30FC 1
370
     0
100
AcDbVertex
100
AcDb2dVertex
 10
88.71396482157151
 20
-127.5966905062953
 30
0.0
  0
VERTEX
  5
C4
330
C2
100
AcDbEntity
  8
_U+30EC_U+30A4_U+30E4_U+30FC 1
370
     0
100
AcDbVertex
100
AcDb2dVertex
 10
88.31433374528253
 20
-128.2526366866869
 30
0.0
  0
VERTEX
  5
C5
330
C2
100
AcDbEntity
  8
_U+30EC_U+30A4_U+30E4_U+30FC 1
370
     0
100
AcDbVertex
100
AcDb2dVertex
 10
88.71396482157151
 20
-128.2526366866869
 30
0.0
  0
VERTEX
  5
C6
330
C2
100
AcDbEntity
  8
_U+30EC_U+30A4_U+30E4_U+30FC 1
370
     0
100
AcDbVertex
100
AcDb2dVertex
 10
88.71396482157151
 20
-127.5966905062953
 30
0.0
  0
SEQEND
  5
C7
330
C2
100
AcDbEntity
  8
_U+30EC_U+30A4_U+30E4_U+30FC 1
370
     0
  0
HATCH
  5
C8
330
B0
100
AcDbEntity
  8
_U+30EC_U+30A4_U+30E4_U+30FC 1
 62
   179
420
  2234388
100
AcDbHatch
 10
0.0
 20
0.0
 30
0.0
210
0.0
220
0.0
230
1.0
  2
SOLID
 70
     1
 71
     0
 91
        2
 92
        1
 93
       11
 72
     1
 10
88.90482311145435
 20
-128.4514186961858
 11
88.90482311145435
 21
-128.7983398115504
 72
     1
 10
88.90482311145435
 20
-128.7983398115504
 11
88.71396482157151
 21
-128.7983398115504
 72
     1
 10
88.71396482157151
 20
-128.7983398115504
 11
88.71396482157151
 21
-128.4514186961858
 72
     1
 10
88.71396482157151
 20
-128.4514186961858
 11
88.14001191372888
 21
-128.4514186961858
 72
     1
 10
88.14001191372888
 20
-128.4514186961858
 11
88.14001191372888
 21
-128.227142980096
 72
     1
 10
88.14001191372888
 20
-128.227142980096
 11
88.734635394483
 21
-127.2539035055129
 72
     1
 10
88.734635394483
 20
-127.2539035055129
 11
88.90482311145435
 21
-127.2539035055129
 72
     1
 10
88.90482311145435
 20
-127.2539035055129
 11
88.90482311145435
 21
-128.2526366866869
 72
     1
 10
88.90482311145435
 20
-128.2526366866869
 11
89.08637964352702
 21
-128.2526366866869
 72
     1
 10
89.08637964352702
 20
-128.2526366866869
 11
89.08637964352702
 21
-128.4514186961858
 72
     1
 10
89.08637964352702
 20
-128.4514186961858
 11
88.90482311145435
 21
-128.4514186961858
 97
        0
 92
        1
 93
        3
 72
     1
 10
88.71396482157151
 20
-127.5966905062953
 11
88.31433374528253
 21
-128.2526366866869
 72
     1
 10
88.31433374528253
 20
-128.2526366866869
 11
88.71396482157151
 21
-128.2526366866869
 72
     1
 10
88.71396482157151
 20
-128.2526366866869
 11
88.71396482157151
 21
-127.5966905062953
 97
        0
 75
     2
 76
     1
 98
        0
  0
SPLINE
  5
C9
330
B0
100
AcDbEntity
  8
_U+30EC_U+30A4_U+30E4_U+30FC 1
370
     0
100
AcDbSpline
210
0.0
220
0.0
230
1.0
 70
    11
 71
     3
 72
    44
 73
    40
 74
     0
 42
0.0000000001
 43
0.0000000001
 12
1.0
 22
0.0
 32
0.0
 13
1.0
 23
0.0
 33
0.0
 40
0.0
 40
0.0
 40
0.0
 40
0.0
 40
1.0
 40
1.0
 40
1.0
 40
2.0
 40
2.0
 40
2.0
 40
3.0
 40
3.0
 40
3.0
 40
4.0
 40
4.0
 40
4.0
 40
5.0
 40
5.0
 40
5.0
 40
6.0
 40
6.0
 40
6.0
 40
7.0
 40
7.0
 40
7.0
 40
8.0
 40
8.0
 40
8.0
 40
9.0
 40
9.0
 40
9.0
 40
10.0
 40
10.0
 40
10.0
 40
11.0
 40
11.0
 40
11.0
 40
12.0
 40
12.0
 40
12.0
 40
13.0
 40
13.0
 40
13.0
 40
13.0
 10
90.09475909205965
 20
-128.7983398115504
 30
0.0
 10
90.07443302869667
 20
-128.7538980797907
 30
0.0
 10
90.05617402262484
 20
-128.7011881188664
 30
0.0
 10
90.0541069653337
 20
-128.4703667213546
 30
0.0
 10
90.05031736029993
 20
-128.227142980096
 30
0.0
 10
89.99864092802117
 20
-128.1572075417454
 30
0.0
 10
89.84292261208789
 20
-128.1572075417454
 30
0.0
 10
89.84292261208789
 20
-128.1572075417454
 30
0.0
 10
89.48566621026748
 20
-128.1572075417454
 30
0.0
 10
89.48566621026748
 20
-128.1572075417454
 30
0.0
 10
89.48566621026748
 20
-128.1572075417454
 30
0.0
 10
89.48566621026748
 20
-128.7983398115504
 30
0.0
 10
89.48566621026748
 20
-128.7983398115504
 30
0.0
 10
89.48566621026748
 20
-128.7983398115504
 30
0.0
 10
89.27999400979806
 20
-128.7983398115504
 30
0.0
 10
89.27999400979806
 20
-128.7983398115504
 30
0.0
 10
89.27999400979806
 20
-128.7983398115504
 30
0.0
 10
89.27999400979806
 20
-127.2539035055129
 30
0.0
 10
89.27999400979806
 20
-127.2539035055129
 30
0.0
 10
89.27999400979806
 20
-127.2539035055129
 30
0.0
 10
89.87082788551841
 20
-127.2539035055129
 30
0.0
 10
89.87082788551841
 20
-127.2539035055129
 30
0.0
 10
90.13920082381937
 20
-127.2539035055129
 30
0.0
 10
90.28561738194249
 20
-127.4254692606784
 30
0.0
 10
90.28561738194249
 20
-127.6814398552324
 30
0.0
 10
90.28561738194249
 20
-127.7320827588656
 30
0.0
 10
90.27803817187494
 20
-127.8147650505116
 30
0.0
 10
90.23945310244014
 20
-127.8950357753179
 30
0.0
 10
90.18743216061287
 20
-127.9987331494239
 30
0.0
 10
90.1298990660092
 20
-128.0176811745928
 30
0.0
 10
90.07650008598782
 20
-128.0345621424705
 30
0.0
 10
90.19673391842305
 20
-128.0769368169391
 30
0.0
 10
90.25598956076934
 20
-128.1255126632811
 30
0.0
 10
90.25977916580311
 20
-128.4407389001815
 30
0.0
 10
90.26356877083688
 20
-128.7115234053221
 30
0.0
 10
90.29491913975266
 20
-128.7432182837864
 30
0.0
 10
90.35417478209897
 20
-128.7983398115504
 30
0.0
 10
90.35417478209897
 20
-128.7983398115504
 30
0.0
 10
90.09475909205965
 20
-128.7983398115504
 30
0.0
 10
90.09475909205965
 20
-128.7983398115504
 30
0.0
  0
SPLINE
  5
CA
330
B0
100
AcDbEntity
  8
_U+30EC_U+30A4_U+30E4_U+30FC 1
370
     0
100
AcDbSpline
210
0.0
220
0.0
230
1.0
 70
    11
 71
     3
 72
    20
 73
    16
 74
     0
 42
0.0000000001
 43
0.0000000001
 12
1.0
 22
0.0
 32
0.0
 13
1.0
 23
0.0
 33
0.0
 40
0.0
 40
0.0
 40
0.0
 40
0.0
 40
1.0
 40
1.0
 40
1.0
 40
2.0
 40
2.0
 40
2.0
 40
3.0
 40
3.0
 40
3.0
 40
4.0
 40
4.0
 40
4.0
 40
5.0
 40
5.0
 40
5.0
 40
5.0
 10
89.87461749055218
 20
-127.4654323683073
 30
0.0
 10
89.87461749055218
 20
-127.4654323683073
 30
0.0
 10
89.48566621026748
 20
-127.4654323683073
 30
0.0
 10
89.48566621026748
 20
-127.4654323683073
 30
0.0
 10
89.48566621026748
 20
-127.4654323683073
 30
0.0
 10
89.48566621026748
 20
-127.9456786789511
 30
0.0
 10
89.48566621026748
 20
-127.9456786789511
 30
0.0
 10
89.48566621026748
 20
-127.9456786789511
 30
0.0
 10
89.87255043326104
 20
-127.9456786789511
 30
0.0
 10
89.87255043326104
 20
-127.9456786789511
 30
0.0
 10
89.95971134903786
 20
-127.9456786789511
 30
0.0
 10
90.07822263373045
 20
-127.8695420687271
 30
0.0
 10
90.07822263373045
 20
-127.6983208231102
 30
0.0
 10
90.07822263373045
 20
-127.620117155595
 30
0.0
 10
90.0485948125573
 20
-127.4654323683073
 30
0.0
 10
89.87461749055218
 20
-127.4654323683073
 30
0.0
  0
HATCH
  5
CB
330
B0
100
AcDbEntity
  8
_U+30EC_U+30A4_U+30E4_U+30FC 1
 62
   179
420
  2234388
100
AcDbHatch
 10
0.0
 20
0.0
 30
0.0
210
0.0
220
0.0
230
1.0
  2
SOLID
 70
     1
 71
     0
 91
        2
 92
        1
 93
        1
 72
     4
 94
        3
 73
     0
 74
     1
 95
       44
 96
       40
 40
0.0
 40
0.0
 40
0.0
 40
0.0
 40
1.0
 40
1.0
 40
1.0
 40
2.0
 40
2.0
 40
2.0
 40
3.0
 40
3.0
 40
3.0
 40
4.0
 40
4.0
 40
4.0
 40
5.0
 40
5.0
 40
5.0
 40
6.0
 40
6.0
 40
6.0
 40
7.0
 40
7.0
 40
7.0
 40
8.0
 40
8.0
 40
8.0
 40
9.0
 40
9.0
 40
9.0
 40
10.0
 40
10.0
 40
10.0
 40
11.0
 40
11.0
 40
11.0
 40
12.0
 40
12.0
 40
12.0
 40
13.0
 40
13.0
 40
13.0
 40
13.0
 10
90.09475909205965
 20
-128.7983398115504
 10
90.07443302869667
 20
-128.7538980797907
 10
90.05617402262484
 20
-128.7011881188664
 10
90.0541069653337
 20
-128.4703667213546
 10
90.05031736029993
 20
-128.227142980096
 10
89.99864092802117
 20
-128.1572075417454
 10
89.84292261208789
 20
-128.1572075417454
 10
89.84292261208789
 20
-128.1572075417454
 10
89.48566621026748
 20
-128.1572075417454
 10
89.48566621026748
 20
-128.1572075417454
 10
89.48566621026748
 20
-128.1572075417454
 10
89.48566621026748
 20
-128.7983398115504
 10
89.48566621026748
 20
-128.7983398115504
 10
89.48566621026748
 20
-128.7983398115504
 10
89.27999400979806
 20
-128.7983398115504
 10
89.27999400979806
 20
-128.7983398115504
 10
89.27999400979806
 20
-128.7983398115504
 10
89.27999400979806
 20
-127.2539035055129
 10
89.27999400979806
 20
-127.2539035055129
 10
89.27999400979806
 20
-127.2539035055129
 10
89.87082788551841
 20
-127.2539035055129
 10
89.87082788551841
 20
-127.2539035055129
 10
90.13920082381937
 20
-127.2539035055129
 10
90.28561738194249
 20
-127.4254692606784
 10
90.28561738194249
 20
-127.6814398552324
 10
90.28561738194249
 20
-127.7320827588656
 10
90.27803817187494
 20
-127.8147650505116
 10
90.23945310244014
 20
-127.8950357753179
 10
90.18743216061287
 20
-127.9987331494239
 10
90.1298990660092
 20
-128.0176811745928
 10
90.07650008598782
 20
-128.0345621424705
 10
90.19673391842305
 20
-128.0769368169391
 10
90.25598956076934
 20
-128.1255126632811
 10
90.25977916580311
 20
-128.4407389001815
 10
90.26356877083688
 20
-128.7115234053221
 10
90.29491913975266
 20
-128.7432182837864
 10
90.35417478209897
 20
-128.7983398115504
 10
90.35417478209897
 20
-128.7983398115504
 10
90.09475909205965
 20
-128.7983398115504
 10
90.09475909205965
 20
-128.7983398115504
 97
        0
 97
        0
 92
        1
 93
        1
 72
     4
 94
        3
 73
     0
 74
     1
 95
       20
 96
       16
 40
0.0
 40
0.0
 40
0.0
 40
0.0
 40
1.0
 40
1.0
 40
1.0
 40
2.0
 40
2.0
 40
2.0
 40
3.0
 40
3.0
 40
3.0
 40
4.0
 40
4.0
 40
4.0
 40
5.0
 40
5.0
 40
5.0
 40
5.0
 10
89.87461749055218
 20
-127.4654323683073
 10
89.87461749055218
 20
-127.4654323683073
 10
89.48566621026748
 20
-127.4654323683073
 10
89.48566621026748
 20
-127.4654323683073
 10
89.48566621026748
 20
-127.4654323683073
 10
89.48566621026748
 20
-127.9456786789511
 10
89.48566621026748
 20
-127.9456786789511
 10
89.48566621026748
 20
-127.9456786789511
 10
89.87255043326104
 20
-127.9456786789511
 10
89.87255043326104
 20
-127.9456786789511
 10
89.95971134903786
 20
-127.9456786789511
 10
90.07822263373045
 20
-127.8695420687271
 10
90.07822263373045
 20
-127.6983208231102
 10
90.07822263373045
 20
-127.620117155595
 10
90.0485948125573
 20
-127.4654323683073
 10
89.87461749055218
 20
-127.4654323683073
 97
        0
 97
        0
 75
     2
 76
     1
 98
        0
  0
ENDBLK
  5
B3
330
B0
100
AcDbEntity
  8
0
100
AcDbBlockEnd
  0
ENDSEC
  0
SECTION
  2
ENTITIES
  0
SPLINE
  5
41
330
1F
100
AcDbEntity
  8
_U+30EC_U+30A4_U+30E4_U+30FC 1
 62
   179
420
  2234388
370
     9
100
AcDbSpline
210
0.0
220
0.0
230
1.0
 70
    11
 71
     3
 72
    17
 73
    13
 74
     0
 42
0.0000000001
 43
0.0000000001
 12
1.0
 22
0.0
 32
0.0
 13
1.0
 23
0.0
 33
0.0
 40
0.0
 40
0.0
 40
0.0
 40
0.0
 40
1.0
 40
1.0
 40
1.0
 40
2.0
 40
2.0
 40
2.0
 40
3.0
 40
3.0
 40
3.0
 40
4.0
 40
4.0
 40
4.0
 40
4.0
 10
105.9043095203782
 20
-136.1088280215282
 30
0.0
 10
105.9043095203782
 20
-136.0537241326532
 30
0.0
 10
105.8595067437434
 20
-136.0089213548865
 30
0.0
 10
105.8044055291043
 20
-136.0089213548865
 30
0.0
 10
105.7492636910004
 20
-136.0089213548865
 30
0.0
 10
105.7044961921425
 20
-136.0537241326532
 30
0.0
 10
105.7044961921425
 20
-136.1088280215282
 30
0.0
 10
105.7044961921425
 20
-136.1639671881812
 30
0.0
 10
105.7492636910004
 20
-136.2087346881698
 30
0.0
 10
105.8044055291043
 20
-136.2087346881698
 30
0.0
 10
105.8595067437434
 20
-136.2087346881698
 30
0.0
 10
105.9043095203782
 20
-136.1639671881812
 30
0.0
 10
105.9043095203782
 20
-136.1088280215282
 30
0.0
  0
SPLINE
  5
42
330
1F
100
AcDbEntity
  8
_U+30EC_U+30A4_U+30E4_U+30FC 1
 62
   179
420
  2234388
370
     9
100
AcDbSpline
210
0.0
220
0.0
230
1.0
 70
    11
 71
     3
 72
    17
 73
    13
 74
     0
 42
0.0000000001
 43
0.0000000001
 12
1.0
 22
0.0
 32
0.0
 13
1.0
 23
0.0
 33
0.0
 40
0.0
 40
0.0
 40
0.0
 40
0.0
 40
1.0
 40
1.0
 40
1.0
 40
2.0
 40
2.0
 40
2.0
 40
3.0
 40
3.0
 40
3.0
 40
4.0
 40
4.0
 40
4.0
 40
4.0
 10
105.9043095203782
 20
-134.60885218857
 30
0.0
 10
105.9043095203782
 20
-134.553713021917
 30
0.0
 10
105.8595067437434
 20
-134.5089455219284
 30
0.0
 10
105.8044055291043
 20
-134.5089455219284
 30
0.0
 10
105.7492636910004
 20
-134.5089455219284
 30
0.0
 10
105.7044961921425
 20
-134.553713021917
 30
0.0
 10
105.7044961921425
 20
-134.60885218857
 30
0.0
 10
105.7044961921425
 20
-134.663956077445
 30
0.0
 10
105.7492636910004
 20
-134.7087588552117
 30
0.0
 10
105.8044055291043
 20
-134.7087588552117
 30
0.0
 10
105.8595067437434
 20
-134.7087588552117
 30
0.0
 10
105.9043095203782
 20
-134.663956077445
 30
0.0
 10
105.9043095203782
 20
-134.60885218857
 30
0.0
  0
POLYLINE
  5
43
330
1F
100
AcDbEntity
  8
_U+30EC_U+30A4_U+30E4_U+30FC 1
 62
   179
420
  2234388
370
     9
100
AcDb2dPolyline
 66
     1
 10
0.0
 20
0.0
 30
0.0
  0
VERTEX
  5
44
330
43
100
AcDbEntity
  8
_U+30EC_U+30A4_U+30E4_U+30FC 1
 62
   179
420
  2234388
370
     9
100
AcDbVertex
100
AcDb2dVertex
 10
105.8044055291043
 20
-134.60885218857
 30
0.0
  0
VERTEX
  5
45
330
43
100
AcDbEntity
  8
_U+30EC_U+30A4_U+30E4_U+30FC 1
 62
   179
420
  2234388
370
     9
100
AcDbVertex
100
AcDb2dVertex
 10
105.8044055291043
 20
-129.3509463565511
 30
0.0
  0
SEQEND
  5
46
330
43
100
AcDbEntity
  8
_U+30EC_U+30A4_U+30E4_U+30FC 1
 62
   179
420
  2234388
370
     9
  0
POLYLINE
  5
47
330
1F
100
AcDbEntity
  8
_U+30EC_U+30A4_U+30E4_U+30FC 1
 62
   179
420
  2234388
370
     9
100
AcDb2dPolyline
 66
     1
 10
0.0
 20
0.0
 30
0.0
  0
VERTEX
  5
48
330
47
100
AcDbEntity
  8
_U+30EC_U+30A4_U+30E4_U+30FC 1
 62
   179
420
  2234388
370
     9
100
AcDbVertex
100
AcDb2dVertex
 10
105.8044055291043
 20
-134.60885218857
 30
0.0
  0
VERTEX
  5
49
330
47
100
AcDbEntity
  8
_U+30EC_U+30A4_U+30E4_U+30FC 1
 62
   179
420
  2234388
370
     9
100
AcDbVertex
100
AcDb2dVertex
 10
105.8044055291043
 20
-137.1093057990562
 30
0.0
  0
SEQEND
  5
4A
330
47
100
AcDbEntity
  8
_U+30EC_U+30A4_U+30E4_U+30FC 1
 62
   179
420
  2234388
370
     9
  0
POLYLINE
  5
4B
330
1F
100
AcDbEntity
  8
_U+30EC_U+30A4_U+30E4_U+30FC 1
 62
   179
420
  2234388
370
     9
100
AcDb2dPolyline
 66
     1
 10
0.0
 20
0.0
 30
0.0
  0
VERTEX
  5
4C
330
4B
100
AcDbEntity
  8
_U+30EC_U+30A4_U+30E4_U+30FC 1
 62
   179
420
  2234388
370
     9
100
AcDbVertex
100
AcDb2dVertex
 10
104.3443615046202
 20
-134.60885218857
 30
0.0
  0
VERTEX
  5
4D
330
4B
100
AcDbEntity
  8
_U+30EC_U+30A4_U+30E4_U+30FC 1
 62
   179
420
  2234388
370
     9
100
AcDbVertex
100
AcDb2dVertex
 10
106.8048453307369
 20
-134.60885218857
 30
0.0
  0
SEQEND
  5
4E
330
4B
100
AcDbEntity
  8
_U+30EC_U+30A4_U+30E4_U+30FC 1
 62
   179
420
  2234388
370
     9
  0
POLYLINE
  5
4F
330
1F
100
AcDbEntity
  8
_U+30EC_U+30A4_U+30E4_U+30FC 1
 62
   179
420
  2234388
370
     9
100
AcDb2dPolyline
 66
     1
 10
0.0
 20
0.0
 30
0.0
  0
VERTEX
  5
50
330
4F
100
AcDbEntity
  8
_U+30EC_U+30A4_U+30E4_U+30FC 1
 62
   179
420
  2234388
370
     9
100
AcDbVertex
100
AcDb2dVertex
 10
104.3443615046202
 20
-136.1088280215282
 30
0.0
  0
VERTEX
  5
51
330
4F
100
AcDbEntity
  8
_U+30EC_U+30A4_U+30E4_U+30FC 1
 62
   179
420
  2234388
370
     9
100
AcDbVertex
100
AcDb2dVertex
 10
106.8048453307369
 20
-136.1088280215282
 30
0.0
  0
SEQEND
  5
52
330
4F
100
AcDbEntity
  8
_U+30EC_U+30A4_U+30E4_U+30FC 1
 62
   179
420
  2234388
370
     9
  0
INSERT
  5
54
330
1F
100
AcDbEntity
  8
_U+30EC_U+30A4_U+30E4_U+30FC 1
100
AcDbBlockReference
  2
block 2
 10
0.0
 20
0.0
 30
0.0
  0
SPLINE
  5
63
330
1F
100
AcDbEntity
  8
_U+30EC_U+30A4_U+30E4_U+30FC 1
 62
   179
420
  2234388
370
     9
100
AcDbSpline
210
0.0
220
0.0
230
1.0
 70
    11
 71
     3
 72
    17
 73
    13
 74
     0
 42
0.0000000001
 43
0.0000000001
 12
1.0
 22
0.0
 32
0.0
 13
1.0
 23
0.0
 33
0.0
 40
0.0
 40
0.0
 40
0.0
 40
0.0
 40
1.0
 40
1.0
 40
1.0
 40
2.0
 40
2.0
 40
2.0
 40
3.0
 40
3.0
 40
3.0
 40
4.0
 40
4.0
 40
4.0
 40
4.0
 10
77.85692468037104
 20
-116.1090091376396
 30
0.0
 10
77.85692468037104
 20
-116.0539052487643
 30
0.0
 10
77.81212190373627
 20
-116.0091024709976
 30
0.0
 10
77.75666523848443
 20
-116.0091024709976
 30
0.0
 10
77.70152607322447
 20
-116.0091024709976
 30
0.0
 10
77.65675857436659
 20
-116.0539052487643
 30
0.0
 10
77.65675857436659
 20
-116.1090091376396
 30
0.0
 10
77.65675857436659
 20
-116.1641483042923
 30
0.0
 10
77.70152607322447
 20
-116.2089158042812
 30
0.0
 10
77.75666523848443
 20
-116.2089158042812
 30
0.0
 10
77.81212190373627
 20
-116.2089158042812
 30
0.0
 10
77.85692468037104
 20
-116.1641483042923
 30
0.0
 10
77.85692468037104
 20
-116.1090091376396
 30
0.0
  0
SPLINE
  5
64
330
1F
100
AcDbEntity
  8
_U+30EC_U+30A4_U+30E4_U+30FC 1
 62
   179
420
  2234388
370
     9
100
AcDbSpline
210
0.0
220
0.0
230
1.0
 70
    11
 71
     3
 72
    17
 73
    13
 74
     0
 42
0.0000000001
 43
0.0000000001
 12
1.0
 22
0.0
 32
0.0
 13
1.0
 23
0.0
 33
0.0
 40
0.0
 40
0.0
 40
0.0
 40
0.0
 40
1.0
 40
1.0
 40
1.0
 40
2.0
 40
2.0
 40
2.0
 40
3.0
 40
3.0
 40
3.0
 40
4.0
 40
4.0
 40
4.0
 40
4.0
 10
77.85692468037104
 20
-136.1088280215282
 30
0.0
 10
77.85692468037104
 20
-136.0537241326532
 30
0.0
 10
77.81212190373627
 20
-136.0089213548865
 30
0.0
 10
77.75666523848443
 20
-136.0089213548865
 30
0.0
 10
77.70152607322447
 20
-136.0089213548865
 30
0.0
 10
77.65675857436659
 20
-136.0537241326532
 30
0.0
 10
77.65675857436659
 20
-136.1088280215282
 30
0.0
 10
77.65675857436659
 20
-136.1639671881812
 30
0.0
 10
77.70152607322447
 20
-136.2087346881698
 30
0.0
 10
77.75666523848443
 20
-136.2087346881698
 30
0.0
 10
77.81212190373627
 20
-136.2087346881698
 30
0.0
 10
77.85692468037104
 20
-136.1639671881812
 30
0.0
 10
77.85692468037104
 20
-136.1088280215282
 30
0.0
  0
POLYLINE
  5
65
330
1F
100
AcDbEntity
  8
_U+30EC_U+30A4_U+30E4_U+30FC 1
 62
   179
420
  2234388
370
     9
100
AcDb2dPolyline
 66
     1
 10
0.0
 20
0.0
 30
0.0
  0
VERTEX
  5
66
330
65
100
AcDbEntity
  8
_U+30EC_U+30A4_U+30E4_U+30FC 1
 62
   179
420
  2234388
370
     9
100
AcDbVertex
100
AcDb2dVertex
 10
77.75666523848443
 20
-116.1090091376396
 30
0.0
  0
VERTEX
  5
67
330
65
100
AcDbEntity
  8
_U+30EC_U+30A4_U+30E4_U+30FC 1
 62
   179
420
  2234388
370
     9
100
AcDbVertex
100
AcDb2dVertex
 10
77.75666523848443
 20
-136.1088280215282
 30
0.0
  0
SEQEND
  5
68
330
65
100
AcDbEntity
  8
_U+30EC_U+30A4_U+30E4_U+30FC 1
 62
   179
420
  2234388
370
     9
  0
POLYLINE
  5
69
330
1F
100
AcDbEntity
  8
_U+30EC_U+30A4_U+30E4_U+30FC 1
 62
   179
420
  2234388
370
     9
100
AcDb2dPolyline
 66
     1
 10
0.0
 20
0.0
 30
0.0
  0
VERTEX
  5
6A
330
69
100
AcDbEntity
  8
_U+30EC_U+30A4_U+30E4_U+30FC 1
 62
   179
420
  2234388
370
     9
100
AcDbVertex
100
AcDb2dVertex
 10
79.21670659012456
 20
-116.1090091376396
 30
0.0
  0
VERTEX
  5
6B
330
69
100
AcDbEntity
  8
_U+30EC_U+30A4_U+30E4_U+30FC 1
 62
   179
420
  2234388
370
     9
100
AcDbVertex
100
AcDb2dVertex
 10
76.75654026399974
 20
-116.1090091376396
 30
0.0
  0
SEQEND
  5
6C
330
69
100
AcDbEntity
  8
_U+30EC_U+30A4_U+30E4_U+30FC 1
 62
   179
420
  2234388
370
     9
  0
POLYLINE
  5
6D
330
1F
100
AcDbEntity
  8
_U+30EC_U+30A4_U+30E4_U+30FC 1
 62
   179
420
  2234388
370
     9
100
AcDb2dPolyline
 66
     1
 10
0.0
 20
0.0
 30
0.0
  0
VERTEX
  5
6E
330
6D
100
AcDbEntity
  8
_U+30EC_U+30A4_U+30E4_U+30FC 1
 62
   179
420
  2234388
370
     9
100
AcDbVertex
100
AcDb2dVertex
 10
79.21670659012456
 20
-136.1088280215282
 30
0.0
  0
VERTEX
  5
6F
330
6D
100
AcDbEntity
  8
_U+30EC_U+30A4_U+30E4_U+30FC 1
 62
   179
420
  2234388
370
     9
100
AcDbVertex
100
AcDb2dVertex
 10
76.75654026399974
 20
-136.1088280215282
 30
0.0
  0
SEQEND
  5
70
330
6D
100
AcDbEntity
  8
_U+30EC_U+30A4_U+30E4_U+30FC 1
 62
   179
420
  2234388
370
     9
  0
INSERT
  5
72
330
1F
100
AcDbEntity
  8
_U+30EC_U+30A4_U+30E4_U+30FC 1
100
AcDbBlockReference
  2
block 3
 10
0.0
 20
0.0
 30
0.0
  0
SPLINE
  5
7A
330
1F
100
AcDbEntity
  8
_U+30EC_U+30A4_U+30E4_U+30FC 1
 62
   179
420
  2234388
370
     9
100
AcDbSpline
210
0.0
220
0.0
230
1.0
 70
    11
 71
     3
 72
    17
 73
    13
 74
     0
 42
0.0000000001
 43
0.0000000001
 12
1.0
 22
0.0
 32
0.0
 13
1.0
 23
0.0
 33
0.0
 40
0.0
 40
0.0
 40
0.0
 40
0.0
 40
1.0
 40
1.0
 40
1.0
 40
2.0
 40
2.0
 40
2.0
 40
3.0
 40
3.0
 40
3.0
 40
4.0
 40
4.0
 40
4.0
 40
4.0
 10
101.856325734762
 20
-140.1092927427505
 30
0.0
 10
101.856325734762
 20
-140.0541535760975
 30
0.0
 10
101.8115229581272
 20
-140.0093860761089
 30
0.0
 10
101.7564190706441
 20
-140.0093860761089
 30
0.0
 10
101.7012799053842
 20
-140.0093860761089
 30
0.0
 10
101.6565124065263
 20
-140.0541535760975
 30
0.0
 10
101.6565124065263
 20
-140.1092927427505
 30
0.0
 10
101.6565124065263
 20
-140.1643966316255
 30
0.0
 10
101.7012799053842
 20
-140.2091994093922
 30
0.0
 10
101.7564190706441
 20
-140.2091994093922
 30
0.0
 10
101.8115229581272
 20
-140.2091994093922
 30
0.0
 10
101.856325734762
 20
-140.1643966316255
 30
0.0
 10
101.856325734762
 20
-140.1092927427505
 30
0.0
  0
SPLINE
  5
7B
330
1F
100
AcDbEntity
  8
_U+30EC_U+30A4_U+30E4_U+30FC 1
 62
   179
420
  2234388
370
     9
100
AcDbSpline
210
0.0
220
0.0
230
1.0
 70
    11
 71
     3
 72
    17
 73
    13
 74
     0
 42
0.0000000001
 43
0.0000000001
 12
1.0
 22
0.0
 32
0.0
 13
1.0
 23
0.0
 33
0.0
 40
0.0
 40
0.0
 40
0.0
 40
0.0
 40
1.0
 40
1.0
 40
1.0
 40
2.0
 40
2.0
 40
2.0
 40
3.0
 40
3.0
 40
3.0
 40
4.0
 40
4.0
 40
4.0
 40
4.0
 10
81.85668374499535
 20
-140.1092927427505
 30
0.0
 10
81.85668374499535
 20
-140.0541535760975
 30
0.0
 10
81.81188096836058
 20
-140.0093860761089
 30
0.0
 10
81.75677708087751
 20
-140.0093860761089
 30
0.0
 10
81.70163791561757
 20
-140.0093860761089
 30
0.0
 10
81.65687041675967
 20
-140.0541535760975
 30
0.0
 10
81.65687041675967
 20
-140.1092927427505
 30
0.0
 10
81.65687041675967
 20
-140.1643966316255
 30
0.0
 10
81.70163791561757
 20
-140.2091994093922
 30
0.0
 10
81.75677708087751
 20
-140.2091994093922
 30
0.0
 10
81.81188096836058
 20
-140.2091994093922
 30
0.0
 10
81.85668374499535
 20
-140.1643966316255
 30
0.0
 10
81.85668374499535
 20
-140.1092927427505
 30
0.0
  0
POLYLINE
  5
7C
330
1F
100
AcDbEntity
  8
_U+30EC_U+30A4_U+30E4_U+30FC 1
 62
   179
420
  2234388
370
     9
100
AcDb2dPolyline
 66
     1
 10
0.0
 20
0.0
 30
0.0
  0
VERTEX
  5
7D
330
7C
100
AcDbEntity
  8
_U+30EC_U+30A4_U+30E4_U+30FC 1
 62
   179
420
  2234388
370
     9
100
AcDbVertex
100
AcDb2dVertex
 10
81.75677708087751
 20
-140.1092927427505
 30
0.0
  0
VERTEX
  5
7E
330
7C
100
AcDbEntity
  8
_U+30EC_U+30A4_U+30E4_U+30FC 1
 62
   179
420
  2234388
370
     9
100
AcDbVertex
100
AcDb2dVertex
 10
101.7564190706441
 20
-140.1092927427505
 30
0.0
  0
SEQEND
  5
7F
330
7C
100
AcDbEntity
  8
_U+30EC_U+30A4_U+30E4_U+30FC 1
 62
   179
420
  2234388
370
     9
  0
POLYLINE
  5
80
330
1F
100
AcDbEntity
  8
_U+30EC_U+30A4_U+30E4_U+30FC 1
 62
   179
420
  2234388
370
     9
100
AcDb2dPolyline
 66
     1
 10
0.0
 20
0.0
 30
0.0
  0
VERTEX
  5
81
330
80
100
AcDbEntity
  8
_U+30EC_U+30A4_U+30E4_U+30FC 1
 62
   179
420
  2234388
370
     9
100
AcDbVertex
100
AcDb2dVertex
 10
81.75677708087751
 20
-138.6492513542268
 30
0.0
  0
VERTEX
  5
82
330
80
100
AcDbEntity
  8
_U+30EC_U+30A4_U+30E4_U+30FC 1
 62
   179
420
  2234388
370
     9
100
AcDbVertex
100
AcDb2dVertex
 10
81.75677708087751
 20
-141.1090296869449
 30
0.0
  0
SEQEND
  5
83
330
80
100
AcDbEntity
  8
_U+30EC_U+30A4_U+30E4_U+30FC 1
 62
   179
420
  2234388
370
     9
  0
SPLINE
  5
84
330
1F
100
AcDbEntity
  8
_U+30EC_U+30A4_U+30E4_U+30FC 1
 62
   179
420
  2234388
370
     9
100
AcDbSpline
210
0.0
220
0.0
230
1.0
 70
    11
 71
     3
 72
    17
 73
    13
 74
     0
 42
0.0000000001
 43
0.0000000001
 12
1.0
 22
0.0
 32
0.0
 13
1.0
 23
0.0
 33
0.0
 40
0.0
 40
0.0
 40
0.0
 40
0.0
 40
1.0
 40
1.0
 40
1.0
 40
2.0
 40
2.0
 40
2.0
 40
3.0
 40
3.0
 40
3.0
 40
4.0
 40
4.0
 40
4.0
 40
4.0
 10
85.85658608964683
 20
-140.1092927427505
 30
0.0
 10
85.85658608964683
 20
-140.0541535760975
 30
0.0
 10
85.81181642186928
 20
-140.0093860761089
 30
0.0
 10
85.75667725660934
 20
-140.0093860761089
 30
0.0
 10
85.70157336912627
 20
-140.0093860761089
 30
0.0
 10
85.6567705924915
 20
-140.0541535760975
 30
0.0
 10
85.6567705924915
 20
-140.1092927427505
 30
0.0
 10
85.6567705924915
 20
-140.1643966316255
 30
0.0
 10
85.70157336912627
 20
-140.2091994093922
 30
0.0
 10
85.75667725660934
 20
-140.2091994093922
 30
0.0
 10
85.81181642186928
 20
-140.2091994093922
 30
0.0
 10
85.85658608964683
 20
-140.1643966316255
 30
0.0
 10
85.85658608964683
 20
-140.1092927427505
 30
0.0
  0
POLYLINE
  5
85
330
1F
100
AcDbEntity
  8
_U+30EC_U+30A4_U+30E4_U+30FC 1
 62
   179
420
  2234388
370
     9
100
AcDb2dPolyline
 66
     1
 10
0.0
 20
0.0
 30
0.0
  0
VERTEX
  5
86
330
85
100
AcDbEntity
  8
_U+30EC_U+30A4_U+30E4_U+30FC 1
 62
   179
420
  2234388
370
     9
100
AcDbVertex
100
AcDb2dVertex
 10
85.75667725660934
 20
-138.6492513542268
 30
0.0
  0
VERTEX
  5
87
330
85
100
AcDbEntity
  8
_U+30EC_U+30A4_U+30E4_U+30FC 1
 62
   179
420
  2234388
370
     9
100
AcDbVertex
100
AcDb2dVertex
 10
85.75667725660934
 20
-141.1090296869449
 30
0.0
  0
SEQEND
  5
88
330
85
100
AcDbEntity
  8
_U+30EC_U+30A4_U+30E4_U+30FC 1
 62
   179
420
  2234388
370
     9
  0
POLYLINE
  5
89
330
1F
100
AcDbEntity
  8
_U+30EC_U+30A4_U+30E4_U+30FC 1
 62
   179
420
  2234388
370
     9
100
AcDb2dPolyline
 66
     1
 10
0.0
 20
0.0
 30
0.0
  0
VERTEX
  5
8A
330
89
100
AcDbEntity
  8
_U+30EC_U+30A4_U+30E4_U+30FC 1
 62
   179
420
  2234388
370
     9
100
AcDbVertex
100
AcDb2dVertex
 10
101.7564190706441
 20
-138.6492513542268
 30
0.0
  0
VERTEX
  5
8B
330
89
100
AcDbEntity
  8
_U+30EC_U+30A4_U+30E4_U+30FC 1
 62
   179
420
  2234388
370
     9
100
AcDbVertex
100
AcDb2dVertex
 10
101.7564190706441
 20
-141.1090296869449
 30
0.0
  0
SEQEND
  5
8C
330
89
100
AcDbEntity
  8
_U+30EC_U+30A4_U+30E4_U+30FC 1
 62
   179
420
  2234388
370
     9
  0
INSERT
  5
8E
330
1F
100
AcDbEntity
  8
_U+30EC_U+30A4_U+30E4_U+30FC 1
100
AcDbBlockReference
  2
block 4
 10
0.0
 20
0.0
 30
0.0
  0
INSERT
  5
A7
330
1F
100
AcDbEntity
  8
_U+30EC_U+30A4_U+30E4_U+30FC 1
100
AcDbBlockReference
  2
block 5
 10
0.0
 20
0.0
 30
0.0
  0
SPLINE
  5
AF
330
1F
100
AcDbEntity
  8
_U+30EC_U+30A4_U+30E4_U+30FC 1
 62
     7
420
 16777215
370
    25
100
AcDbSpline
210
0.0
220
0.0
230
1.0
 70
    11
 71
     3
 72
    35
 73
    31
 74
     0
 42
0.0000000001
 43
0.0000000001
 12
1.0
 22
0.0
 32
0.0
 13
1.0
 23
0.0
 33
0.0
 40
0.0
 40
0.0
 40
0.0
 40
0.0
 40
1.0
 40
1.0
 40
1.0
 40
2.0
 40
2.0
 40
2.0
 40
3.0
 40
3.0
 40
3.0
 40
4.0
 40
4.0
 40
4.0
 40
5.0
 40
5.0
 40
5.0
 40
6.0
 40
6.0
 40
6.0
 40
7.0
 40
7.0
 40
7.0
 40
8.0
 40
8.0
 40
8.0
 40
9.0
 40
9.0
 40
9.0
 40
10.0
 40
10.0
 40
10.0
 40
10.0
 10
83.30466009694328
 20
-131.5089585782341
 30
0.0
 10
83.30466009694328
 20
-131.5089585782341
 30
0.0
 10
83.30466009694328
 20
-116.1086916376396
 30
0.0
 10
83.30466009694328
 20
-116.1086916376396
 30
0.0
 10
83.30466009694328
 20
-116.1086916376396
 30
0.0
 10
81.80464902410064
 20
-116.1086916376396
 30
0.0
 10
81.80464902410064
 20
-116.1086916376396
 30
0.0
 10
81.80464902410064
 20
-116.1086916376396
 30
0.0
 10
81.80464902410064
 20
-131.5089585782341
 30
0.0
 10
81.80464902410064
 20
-131.5089585782341
 30
0.0
 10
81.80464902410064
 20
-131.5089585782341
 30
0.0
 10
81.81911291262053
 20
-132.1276955225237
 30
0.0
 10
81.81911291262053
 20
-132.1276955225237
 30
0.0
 10
81.81911291262053
 20
-134.3194332997533
 30
0.0
 10
83.59506675620106
 20
-136.1088280215282
 30
0.0
 10
85.78683975583982
 20
-136.1088280215282
 30
0.0
 10
85.78683975583982
 20
-136.1088280215282
 30
0.0
 10
101.8046437916361
 20
-136.1088280215282
 30
0.0
 10
101.8046437916361
 20
-136.1088280215282
 30
0.0
 10
101.8046437916361
 20
-136.1088280215282
 30
0.0
 10
101.8046437916361
 20
-134.5357919108107
 30
0.0
 10
101.8046437916361
 20
-134.5357919108107
 30
0.0
 10
101.8046437916361
 20
-134.5357919108107
 30
0.0
 10
85.80853558861965
 20
-134.5357919108107
 30
0.0
 10
85.80853558861965
 20
-134.5357919108107
 30
0.0
 10
84.26171090586021
 20
-134.5357919108107
 30
0.0
 10
83.30772926353166
 20
-133.6510957999203
 30
0.0
 10
83.30772926353166
 20
-132.1042710780852
 30
0.0
 10
83.30772926353166
 20
-132.1042710780852
 30
0.0
 10
83.30466009694328
 20
-131.5089585782341
 30
0.0
 10
83.30466009694328
 20
-131.5089585782341
 30
0.0
  0
INSERT
  5
B1
330
1F
100
AcDbEntity
  8
_U+30EC_U+30A4_U+30E4_U+30FC 1
100
AcDbBlockReference
  2
block 6
 10
0.0
 20
0.0
 30
0.0
  0
POLYLINE
  5
CC
330
1F
100
AcDbEntity
  8
_U+30EC_U+30A4_U+30E4_U+30FC 1
 62
   179
420
  2234388
370
     9
100
AcDb2dPolyline
 66
     1
 10
0.0
 20
0.0
 30
0.0
  0
VERTEX
  5
CD
330
CC
100
AcDbEntity
  8
_U+30EC_U+30A4_U+30E4_U+30FC 1
 62
   179
420
  2234388
370
     9
100
AcDbVertex
100
AcDb2dVertex
 10
83.01249164591344
 20
-134.7438955218694
 30
0.0
  0
VERTEX
  5
CE
330
CC
100
AcDbEntity
  8
_U+30EC_U+30A4_U+30E4_U+30FC 1
 62
   179
420
  2234388
370
     9
100
AcDbVertex
100
AcDb2dVertex
 10
83.87894702673645
 20
-134.2436566331057
 30
0.0
  0
SEQEND
  5
CF
330
CC
100
AcDbEntity
  8
_U+30EC_U+30A4_U+30E4_U+30FC 1
 62
   179
420
  2234388
370
     9
  0
POLYLINE
  5
D0
330
1F
100
AcDbEntity
  8
_U+30EC_U+30A4_U+30E4_U+30FC 1
 62
   179
420
  2234388
370
     9
100
AcDb2dPolyline
 66
     1
 10
0.0
 20
0.0
 30
0.0
  0
VERTEX
  5
D1
330
D0
100
AcDbEntity
  8
_U+30EC_U+30A4_U+30E4_U+30FC 1
 62
   179
420
  2234388
370
     9
100
AcDbVertex
100
AcDb2dVertex
 10
83.01249164591344
 20
-134.7438955218694
 30
0.0
  0
VERTEX
  5
D2
330
D0
100
AcDbEntity
  8
_U+30EC_U+30A4_U+30E4_U+30FC 1
 62
   179
420
  2234388
370
     9
100
AcDbVertex
100
AcDb2dVertex
 10
88.0258166446602
 20
-129.730570523123
 30
0.0
  0
SEQEND
  5
D3
330
D0
100
AcDbEntity
  8
_U+30EC_U+30A4_U+30E4_U+30FC 1
 62
   179
420
  2234388
370
     9
  0
POLYLINE
  5
D4
330
1F
100
AcDbEntity
  8
_U+30EC_U+30A4_U+30E4_U+30FC 1
 62
   179
420
  2234388
370
     9
100
AcDb2dPolyline
 66
     1
 10
0.0
 20
0.0
 30
0.0
  0
VERTEX
  5
D5
330
D4
100
AcDbEntity
  8
_U+30EC_U+30A4_U+30E4_U+30FC 1
 62
   179
420
  2234388
370
     9
100
AcDbVertex
100
AcDb2dVertex
 10
83.01249164591344
 20
-134.7438955218694
 30
0.0
  0
VERTEX
  5
D6
330
D4
100
AcDbEntity
  8
_U+30EC_U+30A4_U+30E4_U+30FC 1
 62
   179
420
  2234388
370
     9
100
AcDbVertex
100
AcDb2dVertex
 10
83.51308331245491
 20
-133.877790799864
 30
0.0
  0
SEQEND
  5
D7
330
D4
100
AcDbEntity
  8
_U+30EC_U+30A4_U+30E4_U+30FC 1
 62
   179
420
  2234388
370
     9
  0
ENDSEC
  0
SECTION
  2
OBJECTS
  0
DICTIONARY
  5
C
330
0
100
AcDbDictionary
281
     1
  3
ACAD_GROUP
350
D
  3
ACAD_LAYOUT
350
1A
  3
ACAD_MATERIAL
350
3B
  3
ACAD_MLEADERSTYLE
350
D9
  3
ACAD_MLINESTYLE
350
17
  3
ACAD_PLOTSETTINGS
350
19
  3
ACAD_PLOTSTYLENAME
350
E
  3
ACAD_TABLESTYLE
350
D8
  3
ACAD_VISUALSTYLE
350
2A
  0
SUN
  5
3F
330
29
100
AcDbSun
 90
        1
290
     0
 63
     7
421
 16777215
 40
1.0
291
     1
 91
  2455826
 92
 54000000
292
     0
 70
     2
 71
   256
280
     1
  0
DICTIONARY
  5
D
102
{ACAD_REACTORS
330
C
102
}
330
C
100
AcDbDictionary
281
     1
  0
DICTIONARY
  5
1A
102
{ACAD_REACTORS
330
C
102
}
330
C
100
AcDbDictionary
281
     1
  3
Layout1
350
1E
  3
Layout2
350
26
  3
Model
350
22
  0
DICTIONARY
  5
3B
102
{ACAD_REACTORS
330
C
102
}
330
C
100
AcDbDictionary
281
     1
  3
ByBlock
350
3D
  3
ByLayer
350
3C
  3
Global
350
3E
  0
DICTIONARY
  5
D9
102
{ACAD_REACTORS
330
C
102
}
330
C
100
AcDbDictionary
281
     1
  0
DICTIONARY
  5
17
102
{ACAD_REACTORS
330
C
102
}
330
C
100
AcDbDictionary
281
     1
  3
Standard
350
18
  0
DICTIONARY
  5
19
102
{ACAD_REACTORS
330
C
102
}
330
C
100
AcDbDictionary
281
     1
  0
ACDBDICTIONARYWDFLT
  5
E
102
{ACAD_REACTORS
330
C
102
}
330
C
100
AcDbDictionary
281
     1
  3
Normal
350
F
100
AcDbDictionaryWithDefault
340
F
  0
DICTIONARY
  5
D8
102
{ACAD_REACTORS
330
C
102
}
330
C
100
AcDbDictionary
281
     1
  0
DICTIONARY
  5
2A
102
{ACAD_REACTORS
330
C
102
}
330
C
100
AcDbDictionary
281
     1
  3
2dWireframe
350
2F
  3
3D Hidden
350
31
  3
3dWireframe
350
30
  3
Basic
350
32
  3
Brighten
350
36
  3
ColorChange
350
3A
  3
Conceptual
350
34
  3
Dim
350
35
  3
Facepattern
350
39
  3
Flat
350
2B
  3
FlatWithEdges
350
2C
  3
Gouraud
350
2D
  3
GouraudWithEdges
350
2E
  3
Linepattern
350
38
  3
Realistic
350
33
  3
Thicken
350
37
  0
LAYOUT
  5
1E
102
{ACAD_REACTORS
330
1A
102
}
330
1A
100
AcDbPlotSettings
  1

  2
none_device
  4

  6

 40
0.0
 41
0.0
 42
0.0
 43
0.0
 44
0.0
 45
0.0
 46
0.0
 47
0.0
 48
0.0
 49
0.0
140
0.0
141
0.0
142
1.0
143
1.0
 70
   688
 72
     0
 73
     0
 74
     5
  7

 75
    16
 76
     0
 77
     2
 78
   300
147
1.0
148
0.0
149
0.0
100
AcDbLayout
  1
Layout1
 70
     1
 71
     1
 10
0.0
 20
0.0
 11
12.0
 21
9.0
 12
0.0
 22
0.0
 32
0.0
 14
1.000000000000000E+20
 24
1.000000000000000E+20
 34
1.000000000000000E+20
 15
-1.000000000000000E+20
 25
-1.000000000000000E+20
 35
-1.000000000000000E+20
146
0.0
 13
0.0
 23
0.0
 33
0.0
 16
1.0
 26
0.0
 36
0.0
 17
0.0
 27
1.0
 37
0.0
 76
     0
330
1B
  0
LAYOUT
  5
26
102
{ACAD_REACTORS
330
1A
102
}
330
1A
100
AcDbPlotSettings
  1

  2
none_device
  4

  6

 40
0.0
 41
0.0
 42
0.0
 43
0.0
 44
0.0
 45
0.0
 46
0.0
 47
0.0
 48
0.0
 49
0.0
140
0.0
141
0.0
142
1.0
143
1.0
 70
   688
 72
     0
 73
     0
 74
     5
  7

 75
    16
 76
     0
 77
     2
 78
   300
147
1.0
148
0.0
149
0.0
100
AcDbLayout
  1
Layout2
 70
     1
 71
     2
 10
0.0
 20
0.0
 11
0.0
 21
0.0
 12
0.0
 22
0.0
 32
0.0
 14
0.0
 24
0.0
 34
0.0
 15
0.0
 25
0.0
 35
0.0
146
0.0
 13
0.0
 23
0.0
 33
0.0
 16
1.0
 26
0.0
 36
0.0
 17
0.0
 27
1.0
 37
0.0
 76
     0
330
23
  0
LAYOUT
  5
22
102
{ACAD_REACTORS
330
1A
102
}
330
1A
100
AcDbPlotSettings
  1

  2
none_device
  4

  6

 40
0.0
 41
0.0
 42
0.0
 43
0.0
 44
0.0
 45
0.0
 46
0.0
 47
0.0
 48
0.0
 49
0.0
140
0.0
141
0.0
142
1.0
143
1.0
 70
  1712
 72
     0
 73
     0
 74
     0
  7

 75
     0
 76
     0
 77
     2
 78
   300
147
1.0
148
0.0
149
0.0
100
AcDbLayout
  1
Model
 70
     1
 71
     0
 10
0.0
 20
0.0
 11
12.0
 21
9.0
 12
0.0
 22
0.0
 32
0.0
 14
1.000000000000000E+20
 24
1.000000000000000E+20
 34
1.000000000000000E+20
 15
-1.000000000000000E+20
 25
-1.000000000000000E+20
 35
-1.000000000000000E+20
146
0.0
 13
0.0
 23
0.0
 33
0.0
 16
1.0
 26
0.0
 36
0.0
 17
0.0
 27
1.0
 37
0.0
 76
     0
330
1F
331
29
  0
MATERIAL
  5
3D
102
{ACAD_REACTORS
330
3B
102
}
330
3B
100
AcDbMaterial
  1
ByBlock
 72
     1
 94
      127
  0
MATERIAL
  5
3C
102
{ACAD_REACTORS
330
3B
102
}
330
3B
100
AcDbMaterial
  1
ByLayer
 72
     1
 94
      127
  0
MATERIAL
  5
3E
102
{ACAD_REACTORS
330
3B
102
}
330
3B
100
AcDbMaterial
  1
Global
 72
     1
 94
      127
  0
MLINESTYLE
  5
18
102
{ACAD_REACTORS
330
17
102
}
330
17
100
AcDbMlineStyle
  2
Standard
 70
     0
  3

 62
   256
 51
90.0
 52
90.0
 71
     2
 49
0.5
 62
   256
  6
BYLAYER
 49
-0.5
 62
   256
  6
BYLAYER
  0
ACDBPLACEHOLDER
  5
F
102
{ACAD_REACTORS
330
E
102
}
330
E
  0
VISUALSTYLE
  5
2F
102
{ACAD_REACTORS
330
2A
102
}
330
2A
100
AcDbVisualStyle
  2
2dWireframe
 70
     4
177
     2
291
     0
 71
     0
176
     1
 72
     2
176
     1
 73
     0
176
     1
 90
        0
176
     1
 40
-0.6
176
     1
 41
-30.0
176
     1
 62
     5
 63
     7
421
 16777215
176
     1
 74
     1
176
     1
 91
        4
176
     1
 64
     7
176
     1
 65
   257
176
     1
 75
     1
176
     1
175
     1
176
     1
 42
1.0
176
     1
 92
        0
176
     1
 66
   257
176
     1
 43
1.0
176
     1
 76
     1
176
     1
 77
     6
176
     1
 78
     2
176
     1
 67
     7
176
     1
 79
     5
176
     1
170
     0
176
     1
171
     0
176
     1
290
     0
176
     1
 93
        1
176
     1
 44
0.0
176
     1
173
     0
176
     1
  0
VISUALSTYLE
  5
31
102
{ACAD_REACTORS
330
2A
102
}
330
2A
100
AcDbVisualStyle
  2
3D Hidden
 70
     6
177
     2
291
     0
 71
     1
176
     1
 72
     2
176
     1
 73
     2
176
     1
 90
        0
176
     1
 40
-0.6
176
     1
 41
-30.0
176
     1
 62
     5
 63
     7
421
 16777215
176
     1
 74
     2
176
     1
 91
        2
176
     1
 64
     7
176
     1
 65
   257
176
     1
 75
     2
176
     1
175
     1
176
     1
 42
40.0
176
     1
 92
        0
176
     1
 66
   257
176
     1
 43
1.0
176
     1
 76
     1
176
     1
 77
     6
176
     1
 78
     2
176
     1
 67
     7
176
     1
 79
     3
176
     1
170
     0
176
     1
171
     0
176
     1
290
     0
176
     1
 93
        1
176
     1
 44
0.0
176
     1
173
     0
176
     1
  0
VISUALSTYLE
  5
30
102
{ACAD_REACTORS
330
2A
102
}
330
2A
100
AcDbVisualStyle
  2
3dWireframe
 70
     5
177
     2
291
     0
 71
     0
176
     1
 72
     2
176
     1
 73
     0
176
     1
 90
        0
176
     1
 40
-0.6
176
     1
 41
-30.0
176
     1
 62
     5
 63
     7
421
 16777215
176
     1
 74
     1
176
     1
 91
        4
176
     1
 64
     7
176
     1
 65
   257
176
     1
 75
     1
176
     1
175
     1
176
     1
 42
1.0
176
     1
 92
        0
176
     1
 66
   257
176
     1
 43
1.0
176
     1
 76
     1
176
     1
 77
     6
176
     1
 78
     2
176
     1
 67
     7
176
     1
 79
     5
176
     1
170
     0
176
     1
171
     0
176
     1
290
     0
176
     1
 93
        1
176
     1
 44
0.0
176
     1
173
     0
176
     1
  0
VISUALSTYLE
  5
32
102
{ACAD_REACTORS
330
2A
102
}
330
2A
100
AcDbVisualStyle
  2
Basic
 70
     7
177
     2
291
     1
 71
     1
176
     1
 72
     0
176
     1
 73
     1
176
     1
 90
        0
176
     1
 40
-0.6
176
     1
 41
-30.0
176
     1
 62
     5
 63
     7
421
 16777215
176
     1
 74
     0
176
     1
 91
        4
176
     1
 64
     7
176
     1
 65
   257
176
     1
 75
     1
176
     1
175
     1
176
     1
 42
1.0
176
     1
 92
        8
176
     1
 66
     7
176
     1
 43
1.0
176
     1
 76
     1
176
     1
 77
     6
176
     1
 78
     2
176
     1
 67
     7
176
     1
 79
     5
176
     1
170
     0
176
     1
171
     0
176
     1
290
     0
176
     1
 93
        1
176
     1
 44
0.0
176
     1
173
     0
176
     1
  0
VISUALSTYLE
  5
36
102
{ACAD_REACTORS
330
2A
102
}
330
2A
100
AcDbVisualStyle
  2
Brighten
 70
    12
177
     2
291
     1
 71
     2
176
     1
 72
     2
176
     1
 73
     0
176
     1
 90
        0
176
     1
 40
-0.6
176
     1
 41
-30.0
176
     1
 62
     5
 63
     7
421
 16777215
176
     1
 74
     1
176
     1
 91
        4
176
     1
 64
     7
176
     1
 65
   257
176
     1
 75
     1
176
     1
175
     1
176
     1
 42
1.0
176
     1
 92
        8
176
     1
 66
     7
176
     1
 43
1.0
176
     1
 76
     1
176
     1
 77
     6
176
     1
 78
     2
176
     1
 67
     7
176
     1
 79
     5
176
     1
170
     0
176
     1
171
     0
176
     1
290
     0
176
     1
 93
        1
176
     1
 44
50.0
176
     1
173
     0
176
     1
  0
VISUALSTYLE
  5
3A
102
{ACAD_REACTORS
330
2A
102
}
330
2A
100
AcDbVisualStyle
  2
ColorChange
 70
    16
177
     2
291
     1
 71
     2
176
     1
 72
     2
176
     1
 73
     3
176
     1
 90
        0
176
     1
 40
-0.6
176
     1
 41
-30.0
176
     1
 62
     5
 63
     8
421
  8421504
176
     1
 74
     1
176
     1
 91
        4
176
     1
 64
     7
176
     1
 65
   257
176
     1
 75
     1
176
     1
175
     1
176
     1
 42
1.0
176
     1
 92
        8
176
     1
 66
     8
424
  8421504
176
     1
 43
1.0
176
     1
 76
     1
176
     1
 77
     6
176
     1
 78
     2
176
     1
 67
     7
176
     1
 79
     5
176
     1
170
     0
176
     1
171
     0
176
     1
290
     0
176
     1
 93
        1
176
     1
 44
0.0
176
     1
173
     0
176
     1
  0
VISUALSTYLE
  5
34
102
{ACAD_REACTORS
330
2A
102
}
330
2A
100
AcDbVisualStyle
  2
Conceptual
 70
     9
177
     2
291
     0
 71
     3
176
     1
 72
     2
176
     1
 73
     0
176
     1
 90
        0
176
     1
 40
-0.6
176
     1
 41
-30.0
176
     1
 62
     5
 63
     7
421
 16777215
176
     1
 74
     2
176
     1
 91
        2
176
     1
 64
     7
176
     1
 65
   257
176
     1
 75
     1
176
     1
175
     1
176
     1
 42
40.0
176
     1
 92
        8
176
     1
 66
     7
176
     1
 43
1.0
176
     1
 76
     1
176
     1
 77
     6
176
     1
 78
     2
176
     1
 67
     7
176
     1
 79
     3
176
     1
170
     0
176
     1
171
     0
176
     1
290
     0
176
     1
 93
        1
176
     1
 44
0.0
176
     1
173
     0
176
     1
  0
VISUALSTYLE
  5
35
102
{ACAD_REACTORS
330
2A
102
}
330
2A
100
AcDbVisualStyle
  2
Dim
 70
    11
177
     2
291
     1
 71
     2
176
     1
 72
     2
176
     1
 73
     0
176
     1
 90
        0
176
     1
 40
-0.6
176
     1
 41
-30.0
176
     1
 62
     5
 63
     7
421
 16777215
176
     1
 74
     1
176
     1
 91
        4
176
     1
 64
     7
176
     1
 65
   257
176
     1
 75
     1
176
     1
175
     1
176
     1
 42
1.0
176
     1
 92
        8
176
     1
 66
     7
176
     1
 43
1.0
176
     1
 76
     1
176
     1
 77
     6
176
     1
 78
     2
176
     1
 67
     7
176
     1
 79
     5
176
     1
170
     0
176
     1
171
     0
176
     1
290
     0
176
     1
 93
        1
176
     1
 44
-50.0
176
     1
173
     0
176
     1
  0
VISUALSTYLE
  5
39
102
{ACAD_REACTORS
330
2A
102
}
330
2A
100
AcDbVisualStyle
  2
Facepattern
 70
    15
177
     2
291
     1
 71
     2
176
     1
 72
     2
176
     1
 73
     0
176
     1
 90
        0
176
     1
 40
-0.6
176
     1
 41
-30.0
176
     1
 62
     5
 63
     7
421
 16777215
176
     1
 74
     1
176
     1
 91
        4
176
     1
 64
     7
176
     1
 65
   257
176
     1
 75
     1
176
     1
175
     1
176
     1
 42
1.0
176
     1
 92
        8
176
     1
 66
     7
176
     1
 43
1.0
176
     1
 76
     1
176
     1
 77
     6
176
     1
 78
     2
176
     1
 67
     7
176
     1
 79
     5
176
     1
170
     0
176
     1
171
     0
176
     1
290
     0
176
     1
 93
        1
176
     1
 44
0.0
176
     1
173
     0
176
     1
  0
VISUALSTYLE
  5
2B
102
{ACAD_REACTORS
330
2A
102
}
330
2A
100
AcDbVisualStyle
  2
Flat
 70
     0
177
     2
291
     1
 71
     2
176
     1
 72
     1
176
     1
 73
     1
176
     1
 90
        2
176
     1
 40
-0.6
176
     1
 41
30.0
176
     1
 62
     5
 63
     7
421
 16777215
176
     1
 74
     0
176
     1
 91
        4
176
     1
 64
     7
176
     1
 65
   257
176
     1
 75
     1
176
     1
175
     1
176
     1
 42
1.0
176
     1
 92
        8
176
     1
 66
     7
176
     1
 43
1.0
176
     1
 76
     1
176
     1
 77
     6
176
     1
 78
     2
176
     1
 67
     7
176
     1
 79
     5
176
     1
170
     0
176
     1
171
     0
176
     1
290
     0
176
     1
 93
       13
176
     1
 44
0.0
176
     1
173
     0
176
     1
  0
VISUALSTYLE
  5
2C
102
{ACAD_REACTORS
330
2A
102
}
330
2A
100
AcDbVisualStyle
  2
FlatWithEdges
 70
     1
177
     2
291
     1
 71
     2
176
     1
 72
     1
176
     1
 73
     1
176
     1
 90
        2
176
     1
 40
-0.6
176
     1
 41
30.0
176
     1
 62
     5
 63
     7
421
 16777215
176
     1
 74
     1
176
     1
 91
        4
176
     1
 64
     7
176
     1
 65
   257
176
     1
 75
     1
176
     1
175
     1
176
     1
 42
1.0
176
     1
 92
        0
176
     1
 66
   257
176
     1
 43
1.0
176
     1
 76
     1
176
     1
 77
     6
176
     1
 78
     2
176
     1
 67
     7
176
     1
 79
     5
176
     1
170
     0
176
     1
171
     0
176
     1
290
     0
176
     1
 93
       13
176
     1
 44
0.0
176
     1
173
     0
176
     1
  0
VISUALSTYLE
  5
2D
102
{ACAD_REACTORS
330
2A
102
}
330
2A
100
AcDbVisualStyle
  2
Gouraud
 70
     2
177
     2
291
     1
 71
     2
176
     1
 72
     2
176
     1
 73
     1
176
     1
 90
        2
176
     1
 40
-0.6
176
     1
 41
30.0
176
     1
 62
     5
 63
     7
421
 16777215
176
     1
 74
     0
176
     1
 91
        4
176
     1
 64
     7
176
     1
 65
   257
176
     1
 75
     1
176
     1
175
     1
176
     1
 42
1.0
176
     1
 92
        0
176
     1
 66
     7
176
     1
 43
1.0
176
     1
 76
     1
176
     1
 77
     6
176
     1
 78
     2
176
     1
 67
     7
176
     1
 79
     5
176
     1
170
     0
176
     1
171
     0
176
     1
290
     0
176
     1
 93
       13
176
     1
 44
0.0
176
     1
173
     0
176
     1
  0
VISUALSTYLE
  5
2E
102
{ACAD_REACTORS
330
2A
102
}
330
2A
100
AcDbVisualStyle
  2
GouraudWithEdges
 70
     3
177
     2
291
     1
 71
     2
176
     1
 72
     2
176
     1
 73
     1
176
     1
 90
        2
176
     1
 40
-0.6
176
     1
 41
30.0
176
     1
 62
     5
 63
     7
421
 16777215
176
     1
 74
     1
176
     1
 91
        4
176
     1
 64
     7
176
     1
 65
   257
176
     1
 75
     1
176
     1
175
     1
176
     1
 42
1.0
176
     1
 92
        0
176
     1
 66
   257
176
     1
 43
1.0
176
     1
 76
     1
176
     1
 77
     6
176
     1
 78
     2
176
     1
 67
     7
176
     1
 79
     5
176
     1
170
     0
176
     1
171
     0
176
     1
290
     0
176
     1
 93
       13
176
     1
 44
0.0
176
     1
173
     0
176
     1
  0
VISUALSTYLE
  5
38
102
{ACAD_REACTORS
330
2A
102
}
330
2A
100
AcDbVisualStyle
  2
Linepattern
 70
    14
177
     2
291
     1
 71
     2
176
     1
 72
     2
176
     1
 73
     0
176
     1
 90
        0
176
     1
 40
-0.6
176
     1
 41
-30.0
176
     1
 62
     5
 63
     7
421
 16777215
176
     1
 74
     1
176
     1
 91
        4
176
     1
 64
     7
176
     1
 65
   257
176
     1
 75
     7
176
     1
175
     7
176
     1
 42
1.0
176
     1
 92
        8
176
     1
 66
     7
176
     1
 43
1.0
176
     1
 76
     1
176
     1
 77
     6
176
     1
 78
     2
176
     1
 67
     7
176
     1
 79
     5
176
     1
170
     0
176
     1
171
     0
176
     1
290
     0
176
     1
 93
        1
176
     1
 44
0.0
176
     1
173
     0
176
     1
  0
VISUALSTYLE
  5
33
102
{ACAD_REACTORS
330
2A
102
}
330
2A
100
AcDbVisualStyle
  2
Realistic
 70
     8
177
     2
291
     0
 71
     2
176
     1
 72
     2
176
     1
 73
     0
176
     1
 90
        0
176
     1
 40
-0.6
176
     1
 41
-30.0
176
     1
 62
     5
 63
     7
421
 16777215
176
     1
 74
     1
176
     1
 91
        0
176
     1
 64
     7
176
     1
 65
   257
176
     1
 75
     1
176
     1
175
     1
176
     1
 42
1.0
176
     1
 92
        8
176
     1
 66
     8
424
  7895160
176
     1
 43
1.0
176
     1
 76
     1
176
     1
 77
     6
176
     1
 78
     2
176
     1
 67
     7
176
     1
 79
     5
176
     1
170
     0
176
     1
171
     0
176
     1
290
     0
176
     1
 93
       13
176
     1
 44
0.0
176
     1
173
     0
176
     1
  0
VISUALSTYLE
  5
37
102
{ACAD_REACTORS
330
2A
102
}
330
2A
100
AcDbVisualStyle
  2
Thicken
 70
    13
177
     2
291
     1
 71
     2
176
     1
 72
     2
176
     1
 73
     0
176
     1
 90
        0
176
     1
 40
-0.6
176
     1
 41
-30.0
176
     1
 62
     5
 63
     7
421
 16777215
176
     1
 74
     1
176
     1
 91
        4
176
     1
 64
     7
176
     1
 65
   257
176
     1
 75
     1
176
     1
175
     1
176
     1
 42
1.0
176
     1
 92
       12
176
     1
 66
     7
176
     1
 43
1.0
176
     1
 76
     1
176
     1
 77
     6
176
     1
 78
     2
176
     1
 67
     7
176
     1
 79
     5
176
     1
170
     0
176
     1
171
     0
176
     1
290
     0
176
     1
 93
        1
176
     1
 44
0.0
176
     1
173
     0
176
     1
  0
ENDSEC
  0
EOF
