  0
SECTION
  2
HEADER
  9
$ACADVER
  1
AC1024
  9
$ACADMAINTVER
 70
     6
  9
$DWGCODEPAGE
  3
UNDEFINED
  9
$INSBASE
 10
0.0
 20
0.0
 30
0.0
  9
$EXTMIN
 10
1.000000000000000E+20
 20
1.000000000000000E+20
 30
1.000000000000000E+20
  9
$EXTMAX
 10
-1.000000000000000E+20
 20
-1.000000000000000E+20
 30
-1.000000000000000E+20
  9
$LIMMIN
 10
0.0
 20
0.0
  9
$LIMMAX
 10
12.0
 20
9.0
  9
$ORTHOMODE
 70
     0
  9
$REGENMODE
 70
     1
  9
$FILLMODE
 70
     1
  9
$QTEXTMODE
 70
     0
  9
$MIRRTEXT
 70
     1
  9
$LTSCALE
 40
1.0
  9
$ATTMODE
 70
     1
  9
$TEXTSIZE
 40
0.2
  9
$TRACEWID
 40
0.05
  9
$TEXTSTYLE
  7
Standard
  9
$CLAYER
  8
0
  9
$CELTYPE
  6
ByLayer
  9
$CECOLOR
 62
   256
  9
$CELTSCALE
 40
1.0
  9
$DISPSILH
 70
     0
  9
$DIMSCALE
 40
1.0
  9
$DIMASZ
 40
0.18
  9
$DIMEXO
 40
0.0625
  9
$DIMDLI
 40
0.38
  9
$DIMRND
 40
0.0
  9
$DIMDLE
 40
0.0
  9
$DIMEXE
 40
0.18
  9
$DIMTP
 40
0.0
  9
$DIMTM
 40
0.0
  9
$DIMTXT
 40
0.18
  9
$DIMCEN
 40
0.09
  9
$DIMTSZ
 40
0.0
  9
$DIMTOL
 70
     0
  9
$DIMLIM
 70
     0
  9
$DIMTIH
 70
     1
  9
$DIMTOH
 70
     1
  9
$DIMSE1
 70
     0
  9
$DIMSE2
 70
     0
  9
$DIMTAD
 70
     0
  9
$DIMZIN
 70
     0
  9
$DIMBLK
  1

  9
$DIMASO
 70
     1
  9
$DIMSHO
 70
     1
  9
$DIMPOST
  1

  9
$DIMAPOST
  1

  9
$DIMALT
 70
     0
  9
$DIMALTD
 70
     2
  9
$DIMALTF
 40
25.4
  9
$DIMLFAC
 40
1.0
  9
$DIMTOFL
 70
     0
  9
$DIMTVP
 40
0.0
  9
$DIMTIX
 70
     0
  9
$DIMSOXD
 70
     0
  9
$DIMSAH
 70
     0
  9
$DIMBLK1
  1

  9
$DIMBLK2
  1

  9
$DIMSTYLE
  2
Standard
  9
$DIMCLRD
 70
     0
  9
$DIMCLRE
 70
     0
  9
$DIMCLRT
 70
     0
  9
$DIMTFAC
 40
1.0
  9
$DIMGAP
 40
0.09
  9
$DIMJUST
 70
     0
  9
$DIMSD1
 70
     0
  9
$DIMSD2
 70
     0
  9
$DIMTOLJ
 70
     1
  9
$DIMTZIN
 70
     0
  9
$DIMALTZ
 70
     0
  9
$DIMALTTZ
 70
     0
  9
$DIMUPT
 70
     0
  9
$DIMDEC
 70
     4
  9
$DIMTDEC
 70
     4
  9
$DIMALTU
 70
     2
  9
$DIMALTTD
 70
     2
  9
$DIMTXSTY
  7
Standard
  9
$DIMAUNIT
 70
     0
  9
$DIMADEC
 70
     0
  9
$DIMALTRND
 40
0.0
  9
$DIMAZIN
 70
     0
  9
$DIMDSEP
 70
    46
  9
$DIMATFIT
 70
     3
  9
$DIMFRAC
 70
     0
  9
$DIMLDRBLK
  1

  9
$DIMLUNIT
 70
     2
  9
$DIMLWD
 70
    -2
  9
$DIMLWE
 70
    -2
  9
$DIMTMOVE
 70
     0
  9
$DIMFXL
 40
1.0
  9
$DIMFXLON
 70
     0
  9
$DIMJOGANG
 40
0.7853981633974483
  9
$DIMTFILL
 70
     0
  9
$DIMTFILLCLR
 70
     0
  9
$DIMARCSYM
 70
     0
  9
$DIMLTYPE
  6

  9
$DIMLTEX1
  6

  9
$DIMLTEX2
  6

  9
$DIMTXTDIRECTION
 70
     0
  9
$LUNITS
 70
     2
  9
$LUPREC
 70
     4
  9
$SKETCHINC
 40
0.1
  9
$FILLETRAD
 40
0.5
  9
$AUNITS
 70
     0
  9
$AUPREC
 70
     0
  9
$MENU
  1
.
  9
$ELEVATION
 40
0.0
  9
$PELEVATION
 40
0.0
  9
$THICKNESS
 40
0.0
  9
$LIMCHECK
 70
     0
  9
$CHAMFERA
 40
0.5
  9
$CHAMFERB
 40
0.5
  9
$CHAMFERC
 40
1.0
  9
$CHAMFERD
 40
0.0
  9
$SKPOLY
 70
     0
  9
$TDCREATE
 40
2458263.575358796
  9
$TDUCREATE
 40
2458263.200358796
  9
$TDUPDATE
 40
2458263.575358796
  9
$TDUUPDATE
 40
2458263.200358796
  9
$TDINDWG
 40
0.0000000116
  9
$TDUSRTIMER
 40
0.0000000116
  9
$USRTIMER
 70
     1
  9
$ANGBASE
 50
0.0
  9
$ANGDIR
 70
     0
  9
$PDMODE
 70
     0
  9
$PDSIZE
 40
0.0
  9
$PLINEWID
 40
0.0
  9
$SPLFRAME
 70
     0
  9
$SPLINETYPE
 70
     6
  9
$SPLINESEGS
 70
     8
  9
$HANDSEED
  5
9E
  9
$SURFTAB1
 70
     6
  9
$SURFTAB2
 70
     6
  9
$SURFTYPE
 70
     6
  9
$SURFU
 70
     6
  9
$SURFV
 70
     6
  9
$UCSBASE
  2

  9
$UCSNAME
  2

  9
$UCSORG
 10
0.0
 20
0.0
 30
0.0
  9
$UCSXDIR
 10
1.0
 20
0.0
 30
0.0
  9
$UCSYDIR
 10
0.0
 20
1.0
 30
0.0
  9
$UCSORTHOREF
  2

  9
$UCSORTHOVIEW
 70
     0
  9
$UCSORGTOP
 10
0.0
 20
0.0
 30
0.0
  9
$UCSORGBOTTOM
 10
0.0
 20
0.0
 30
0.0
  9
$UCSORGLEFT
 10
0.0
 20
0.0
 30
0.0
  9
$UCSORGRIGHT
 10
0.0
 20
0.0
 30
0.0
  9
$UCSORGFRONT
 10
0.0
 20
0.0
 30
0.0
  9
$UCSORGBACK
 10
0.0
 20
0.0
 30
0.0
  9
$PUCSBASE
  2

  9
$PUCSNAME
  2

  9
$PUCSORG
 10
0.0
 20
0.0
 30
0.0
  9
$PUCSXDIR
 10
1.0
 20
0.0
 30
0.0
  9
$PUCSYDIR
 10
0.0
 20
1.0
 30
0.0
  9
$PUCSORTHOREF
  2

  9
$PUCSORTHOVIEW
 70
     0
  9
$PUCSORGTOP
 10
0.0
 20
0.0
 30
0.0
  9
$PUCSORGBOTTOM
 10
0.0
 20
0.0
 30
0.0
  9
$PUCSORGLEFT
 10
0.0
 20
0.0
 30
0.0
  9
$PUCSORGRIGHT
 10
0.0
 20
0.0
 30
0.0
  9
$PUCSORGFRONT
 10
0.0
 20
0.0
 30
0.0
  9
$PUCSORGBACK
 10
0.0
 20
0.0
 30
0.0
  9
$USERI1
 70
     0
  9
$USERI2
 70
     0
  9
$USERI3
 70
     0
  9
$USERI4
 70
     0
  9
$USERI5
 70
     0
  9
$USERR1
 40
0.0
  9
$USERR2
 40
0.0
  9
$USERR3
 40
0.0
  9
$USERR4
 40
0.0
  9
$USERR5
 40
0.0
  9
$WORLDVIEW
 70
     1
  9
$SHADEDGE
 70
     3
  9
$SHADEDIF
 70
    70
  9
$TILEMODE
 70
     1
  9
$MAXACTVP
 70
    64
  9
$PINSBASE
 10
0.0
 20
0.0
 30
0.0
  9
$PLIMCHECK
 70
     0
  9
$PEXTMIN
 10
1.000000000000000E+20
 20
1.000000000000000E+20
 30
1.000000000000000E+20
  9
$PEXTMAX
 10
-1.000000000000000E+20
 20
-1.000000000000000E+20
 30
-1.000000000000000E+20
  9
$PLIMMIN
 10
0.0
 20
0.0
  9
$PLIMMAX
 10
12.0
 20
9.0
  9
$UNITMODE
 70
     0
  9
$VISRETAIN
 70
     1
  9
$PLINEGEN
 70
     0
  9
$PSLTSCALE
 70
     1
  9
$TREEDEPTH
 70
  3020
  9
$CMLSTYLE
  2
Standard
  9
$CMLJUST
 70
     0
  9
$CMLSCALE
 40
1.0
  9
$PROXYGRAPHICS
 70
     1
  9
$MEASUREMENT
 70
     0
  9
$CELWEIGHT
370
    -1
  9
$ENDCAPS
280
     0
  9
$JOINSTYLE
280
     0
  9
$LWDISPLAY
290
     1
  9
$INSUNITS
 70
     1
  9
$HYPERLINKBASE
  1

  9
$STYLESHEET
  1

  9
$XEDIT
290
     1
  9
$CEPSNTYPE
380
     0
  9
$PSTYLEMODE
290
     1
  9
$FINGERPRINTGUID
  2
{E804BC65-154E-5074-C250-6C56D73682B2}
  9
$VERSIONGUID
  2
{FAEB1C32-E019-11D5-929B-00C0DF256EC4}
  9
$EXTNAMES
290
     1
  9
$PSVPSCALE
 40
0.0
  9
$OLESTARTUP
290
     0
  9
$SORTENTS
280
   127
  9
$INDEXCTL
280
     0
  9
$HIDETEXT
280
     1
  9
$XCLIPFRAME
280
     2
  9
$HALOGAP
280
     0
  9
$OBSCOLOR
 70
   257
  9
$OBSLTYPE
280
     0
  9
$INTERSECTIONDISPLAY
280
     0
  9
$INTERSECTIONCOLOR
 70
   257
  9
$DIMASSOC
280
     2
  9
$PROJECTNAME
  1

  9
$CAMERADISPLAY
290
     0
  9
$LENSLENGTH
 40
50.0
  9
$CAMERAHEIGHT
 40
0.0
  9
$STEPSPERSEC
 40
2.0
  9
$STEPSIZE
 40
6.0
  9
$3DDWFPREC
 40
2.0
  9
$PSOLWIDTH
 40
0.25
  9
$PSOLHEIGHT
 40
4.0
  9
$LOFTANG1
 40
1.570796326794897
  9
$LOFTANG2
 40
1.570796326794897
  9
$LOFTMAG1
 40
0.0
  9
$LOFTMAG2
 40
0.0
  9
$LOFTPARAM
 70
     7
  9
$LOFTNORMALS
280
     1
  9
$LATITUDE
 40
37.795
  9
$LONGITUDE
 40
-122.394
  9
$NORTHDIRECTION
 40
0.0
  9
$TIMEZONE
 70
 -8000
  9
$LIGHTGLYPHDISPLAY
280
     1
  9
$TILEMODELIGHTSYNCH
280
     1
  9
$CMATERIAL
347
3C
  9
$SOLIDHIST
280
     1
  9
$SHOWHIST
280
     1
  9
$DWFFRAME
280
     2
  9
$DGNFRAME
280
     2
  9
$REALWORLDSCALE
290
     1
  9
$INTERFERECOLOR
 62
   256
  9
$CSHADOW
280
     0
  9
$SHADOWPLANELOCATION
 40
0.0
  0
ENDSEC
  0
SECTION
  2
CLASSES
  0
CLASS
  1
ACDBDICTIONARYWDFLT
  2
AcDbDictionaryWithDefault
  3
ObjectDBX Classes
 90
        0
 91
        4
280
     0
281
     0
  0
CLASS
  1
VISUALSTYLE
  2
AcDbVisualStyle
  3
ObjectDBX Classes
 90
     4095
 91
        4
280
     0
281
     0
  0
CLASS
  1
MATERIAL
  2
AcDbMaterial
  3
ObjectDBX Classes
 90
     1153
 91
        4
280
     0
281
     0
  0
CLASS
  1
SUN
  2
AcDbSun
  3
SCENEOE
 90
     1024
 91
        4
280
     0
281
     0
  0
ENDSEC
  0
SECTION
  2
TABLES
  0
TABLE
  2
VPORT
  5
8
330
0
100
AcDbSymbolTable
 70
     1
  0
VPORT
  5
29
330
8
100
AcDbSymbolTableRecord
100
AcDbViewportTableRecord
  2
*Active
 70
     0
 10
0.0
 20
0.0
 11
1.0
 21
1.0
 12
0.0
 22
0.0
 13
0.0
 23
0.0
 14
0.5
 24
0.5
 15
0.5
 25
0.5
 16
0.0
 26
0.0
 36
1.0
 17
105.0007777515277
 27
-148.5000416295416
 37
0.0
 40
297.0000832590831
 41
0.7070757462376333
 42
50.0
 43
0.0
 44
0.0
 50
0.0
 51
0.0
 71
     0
 72
   100
 73
     1
 74
     3
 75
     0
 76
     0
 77
     0
 78
     0
281
     0
 65
     1
110
0.0
120
0.0
130
0.0
111
1.0
121
0.0
131
0.0
112
0.0
122
1.0
132
0.0
 79
     0
146
0.0
 60
     3
 61
     5
292
     1
282
     1
141
0.0
142
0.0
 63
   250
361
3F
  0
ENDTAB
  0
TABLE
  2
LTYPE
  5
5
330
0
100
AcDbSymbolTable
 70
     1
  0
LTYPE
  5
14
330
5
100
AcDbSymbolTableRecord
100
AcDbLinetypeTableRecord
  2
ByBlock
 70
     0
  3

 72
    65
 73
     0
 40
0.0
  0
LTYPE
  5
15
330
5
100
AcDbSymbolTableRecord
100
AcDbLinetypeTableRecord
  2
ByLayer
 70
     0
  3

 72
    65
 73
     0
 40
0.0
  0
LTYPE
  5
16
330
5
100
AcDbSymbolTableRecord
100
AcDbLinetypeTableRecord
  2
Continuous
 70
     0
  3
Solid line
 72
    65
 73
     0
 40
0.0
  0
ENDTAB
  0
TABLE
  2
LAYER
  5
2
330
0
100
AcDbSymbolTable
 70
     2
  0
LAYER
  5
10
330
2
100
AcDbSymbolTableRecord
100
AcDbLayerTableRecord
  2
0
 70
     0
 62
     7
  6
Continuous
370
    -3
390
F
347
3E
  0
LAYER
  5
40
330
2
100
AcDbSymbolTableRecord
100
AcDbLayerTableRecord
  2
_U+30EC_U+30A4_U+30E4_U+30FC 1
 70
     0
 62
     7
  6
Continuous
370
    -3
390
F
347
3E
  0
ENDTAB
  0
TABLE
  2
STYLE
  5
3
330
0
100
AcDbSymbolTable
 70
     1
  0
STYLE
  5
11
330
3
100
AcDbSymbolTableRecord
100
AcDbTextStyleTableRecord
  2
Standard
 70
     0
 40
0.0
 41
1.0
 50
0.0
 71
     0
 42
0.2
  3
txt
  4

  0
ENDTAB
  0
TABLE
  2
VIEW
  5
6
330
0
100
AcDbSymbolTable
 70
     0
  0
ENDTAB
  0
TABLE
  2
UCS
  5
7
330
0
100
AcDbSymbolTable
 70
     0
  0
ENDTAB
  0
TABLE
  2
APPID
  5
9
330
0
100
AcDbSymbolTable
 70
     1
  0
APPID
  5
12
330
9
100
AcDbSymbolTableRecord
100
AcDbRegAppTableRecord
  2
ACAD
 70
     0
  0
ENDTAB
  0
TABLE
  2
DIMSTYLE
  5
A
330
0
100
AcDbSymbolTable
 70
     1
100
AcDbDimStyleTable
  0
DIMSTYLE
105
27
330
A
100
AcDbSymbolTableRecord
100
AcDbDimStyleTableRecord
  2
Standard
 70
     0
178
     0
340
11
  0
ENDTAB
  0
TABLE
  2
BLOCK_RECORD
  5
1
330
0
100
AcDbSymbolTable
 70
     5
  0
BLOCK_RECORD
  5
1F
330
1
100
AcDbSymbolTableRecord
100
AcDbBlockTableRecord
  2
*Model_Space
340
22
 70
     0
280
     1
281
     0
  0
BLOCK_RECORD
  5
1B
330
1
100
AcDbSymbolTableRecord
100
AcDbBlockTableRecord
  2
*Paper_Space
340
1E
 70
     0
280
     1
281
     0
  0
BLOCK_RECORD
  5
23
330
1
100
AcDbSymbolTableRecord
100
AcDbBlockTableRecord
  2
*Paper_Space0
340
26
 70
     0
280
     1
281
     0
  0
BLOCK_RECORD
  5
51
330
1
100
AcDbSymbolTableRecord
100
AcDbBlockTableRecord
  2
block 2
340
0
102
{BLKREFS
331
52
102
}
 70
     0
280
     1
281
     0
  0
BLOCK_RECORD
  5
73
330
1
100
AcDbSymbolTableRecord
100
AcDbBlockTableRecord
  2
block 3
340
0
102
{BLKREFS
331
74
102
}
 70
     0
280
     1
281
     0
  0
BLOCK_RECORD
  5
7C
330
1
100
AcDbSymbolTableRecord
100
AcDbBlockTableRecord
  2
block 4
340
0
102
{BLKREFS
331
7D
102
}
 70
     0
280
     1
281
     0
  0
BLOCK_RECORD
  5
85
330
1
100
AcDbSymbolTableRecord
100
AcDbBlockTableRecord
  2
block 5
340
0
102
{BLKREFS
331
86
102
}
 70
     0
280
     1
281
     0
  0
ENDTAB
  0
ENDSEC
  0
SECTION
  2
BLOCKS
  0
BLOCK
  5
20
330
1F
100
AcDbEntity
  8
0
100
AcDbBlockBegin
  2
*Model_Space
 70
     0
 10
0.0
 20
0.0
 30
0.0
  3
*Model_Space
  1

  0
ENDBLK
  5
21
330
1F
100
AcDbEntity
  8
0
100
AcDbBlockEnd
  0
BLOCK
  5
1C
330
1B
100
AcDbEntity
 67
     1
  8
0
100
AcDbBlockBegin
  2
*Paper_Space
 70
     0
 10
0.0
 20
0.0
 30
0.0
  3
*Paper_Space
  1

  0
ENDBLK
  5
1D
330
1B
100
AcDbEntity
 67
     1
  8
0
100
AcDbBlockEnd
  0
BLOCK
  5
24
330
23
100
AcDbEntity
  8
0
100
AcDbBlockBegin
  2
*Paper_Space0
 70
     0
 10
0.0
 20
0.0
 30
0.0
  3
*Paper_Space0
  1

  0
ENDBLK
  5
25
330
23
100
AcDbEntity
  8
0
100
AcDbBlockEnd
  0
BLOCK
  5
53
330
51
100
AcDbEntity
  8
0
100
AcDbBlockBegin
  2
block 2
 70
     0
 10
0.0
 20
0.0
 30
0.0
  3
block 2
  1

  0
SPLINE
  5
55
330
51
100
AcDbEntity
  8
_U+30EC_U+30A4_U+30E4_U+30FC 1
370
     0
100
AcDbSpline
210
0.0
220
0.0
230
1.0
 70
    11
 71
     3
 72
    62
 73
    58
 74
     0
 42
0.0000000001
 43
0.0000000001
 12
1.0
 22
0.0
 32
0.0
 13
1.0
 23
0.0
 33
0.0
 40
0.0
 40
0.0
 40
0.0
 40
0.0
 40
1.0
 40
1.0
 40
1.0
 40
2.0
 40
2.0
 40
2.0
 40
3.0
 40
3.0
 40
3.0
 40
4.0
 40
4.0
 40
4.0
 40
5.0
 40
5.0
 40
5.0
 40
6.0
 40
6.0
 40
6.0
 40
7.0
 40
7.0
 40
7.0
 40
8.0
 40
8.0
 40
8.0
 40
9.0
 40
9.0
 40
9.0
 40
10.0
 40
10.0
 40
10.0
 40
11.0
 40
11.0
 40
11.0
 40
12.0
 40
12.0
 40
12.0
 40
13.0
 40
13.0
 40
13.0
 40
14.0
 40
14.0
 40
14.0
 40
15.0
 40
15.0
 40
15.0
 40
16.0
 40
16.0
 40
16.0
 40
17.0
 40
17.0
 40
17.0
 40
18.0
 40
18.0
 40
18.0
 40
19.0
 40
19.0
 40
19.0
 40
19.0
 10
119.2419894450159
 20
-154.8349934508746
 30
0.0
 10
119.2419894450159
 20
-154.930422595816
 30
0.0
 10
119.2206298530074
 20
-155.1481526304838
 30
0.0
 10
119.0345946968039
 20
-155.2732095965984
 30
0.0
 10
118.9222845839847
 20
-155.3469346399827
 30
0.0
 10
118.8230658340095
 20
-155.3514132641135
 30
0.0
 10
118.7383164850724
 20
-155.3555473786958
 30
0.0
 10
118.7383164850724
 20
-155.3555473786958
 30
0.0
 10
118.7383164850724
 20
-155.1354057771884
 30
0.0
 10
118.7383164850724
 20
-155.1354057771884
 30
0.0
 10
118.8123860380052
 20
-155.1333387198972
 30
0.0
 10
119.0473415500993
 20
-155.1230034334415
 30
0.0
 10
119.0473415500993
 20
-154.8394720750054
 30
0.0
 10
119.0473415500993
 20
-154.702012765144
 30
0.0
 10
118.9774061117487
 20
-154.5493950351474
 30
0.0
 10
118.7489962810766
 20
-154.5493950351474
 30
0.0
 10
118.6325520536752
 20
-154.5493950351474
 30
0.0
 10
118.5839762073332
 20
-154.5876355950336
 30
0.0
 10
118.5522813288689
 20
-154.6193304734979
 30
0.0
 10
118.478211775936
 20
-154.6934000264308
 30
0.0
 10
118.4654649226406
 20
-154.8098442538323
 30
0.0
 10
118.4654649226406
 20
-154.8646212720477
 30
0.0
 10
118.4654649226406
 20
-154.8839138067652
 30
0.0
 10
118.4675319799317
 20
-154.9197427998117
 30
0.0
 10
118.471666094514
 20
-154.9473035636937
 30
0.0
 10
118.471666094514
 20
-154.9473035636937
 30
0.0
 10
118.2770181995974
 20
-154.9473035636937
 30
0.0
 10
118.2770181995974
 20
-154.9473035636937
 30
0.0
 10
118.2835638810194
 20
-154.9090630038075
 30
0.0
 10
118.2856309383105
 20
-154.8670328388874
 30
0.0
 10
118.2856309383105
 20
-154.8604871574654
 30
0.0
 10
118.2856309383105
 20
-154.7950303432457
 30
0.0
 10
118.2646158558505
 20
-154.5962483337468
 30
0.0
 10
118.0275932864653
 20
-154.5962483337468
 30
0.0
 10
117.8498263594264
 20
-154.5962483337468
 30
0.0
 10
117.7947048316624
 20
-154.7271619621863
 30
0.0
 10
117.7947048316624
 20
-154.8374050177143
 30
0.0
 10
117.7947048316624
 20
-155.1016438414329
 30
0.0
 10
118.0275932864653
 20
-155.1102565801461
 30
0.0
 10
118.099595782107
 20
-155.1143906947283
 30
0.0
 10
118.099595782107
 20
-155.1143906947283
 30
0.0
 10
118.099595782107
 20
-155.3176513283581
 30
0.0
 10
118.099595782107
 20
-155.3176513283581
 30
0.0
 10
117.9745388159925
 20
-155.309038589645
 30
0.0
 10
117.5979898794547
 20
-155.281477825763
 30
0.0
 10
117.5979898794547
 20
-154.8246581644188
 30
0.0
 10
117.5979898794547
 20
-154.6003824483291
 30
0.0
 10
117.7251139028604
 20
-154.3592257643616
 30
0.0
 10
118.0210476050433
 20
-154.3592257643616
 30
0.0
 10
118.2074272707954
 20
-154.3592257643616
 30
0.0
 10
118.2897650528928
 20
-154.4543103997545
 30
0.0
 10
118.3510877525303
 20
-154.5538736592782
 30
0.0
 10
118.3786485164123
 20
-154.4925509596408
 30
0.0
 10
118.4592637507671
 20
-154.3106499180196
 30
0.0
 10
118.7362494277812
 20
-154.3106499180196
 30
0.0
 10
119.0749023139813
 20
-154.3106499180196
 30
0.0
 10
119.2419894450159
 20
-154.5580077738605
 30
0.0
 10
119.2419894450159
 20
-154.8349934508746
 30
0.0
  0
HATCH
  5
56
330
51
100
AcDbEntity
  8
_U+30EC_U+30A4_U+30E4_U+30FC 1
 62
   179
420
  2234388
100
AcDbHatch
 10
0.0
 20
0.0
 30
0.0
210
0.0
220
0.0
230
1.0
  2
SOLID
 70
     1
 71
     0
 91
        1
 92
        1
 93
        1
 72
     4
 94
        3
 73
     0
 74
     1
 95
       62
 96
       58
 40
0.0
 40
0.0
 40
0.0
 40
0.0
 40
1.0
 40
1.0
 40
1.0
 40
2.0
 40
2.0
 40
2.0
 40
3.0
 40
3.0
 40
3.0
 40
4.0
 40
4.0
 40
4.0
 40
5.0
 40
5.0
 40
5.0
 40
6.0
 40
6.0
 40
6.0
 40
7.0
 40
7.0
 40
7.0
 40
8.0
 40
8.0
 40
8.0
 40
9.0
 40
9.0
 40
9.0
 40
10.0
 40
10.0
 40
10.0
 40
11.0
 40
11.0
 40
11.0
 40
12.0
 40
12.0
 40
12.0
 40
13.0
 40
13.0
 40
13.0
 40
14.0
 40
14.0
 40
14.0
 40
15.0
 40
15.0
 40
15.0
 40
16.0
 40
16.0
 40
16.0
 40
17.0
 40
17.0
 40
17.0
 40
18.0
 40
18.0
 40
18.0
 40
19.0
 40
19.0
 40
19.0
 40
19.0
 10
119.2419894450159
 20
-154.8349934508746
 10
119.2419894450159
 20
-154.930422595816
 10
119.2206298530074
 20
-155.1481526304838
 10
119.0345946968039
 20
-155.2732095965984
 10
118.9222845839847
 20
-155.3469346399827
 10
118.8230658340095
 20
-155.3514132641135
 10
118.7383164850724
 20
-155.3555473786958
 10
118.7383164850724
 20
-155.3555473786958
 10
118.7383164850724
 20
-155.1354057771884
 10
118.7383164850724
 20
-155.1354057771884
 10
118.8123860380052
 20
-155.1333387198972
 10
119.0473415500993
 20
-155.1230034334415
 10
119.0473415500993
 20
-154.8394720750054
 10
119.0473415500993
 20
-154.702012765144
 10
118.9774061117487
 20
-154.5493950351474
 10
118.7489962810766
 20
-154.5493950351474
 10
118.6325520536752
 20
-154.5493950351474
 10
118.5839762073332
 20
-154.5876355950336
 10
118.5522813288689
 20
-154.6193304734979
 10
118.478211775936
 20
-154.6934000264308
 10
118.4654649226406
 20
-154.8098442538323
 10
118.4654649226406
 20
-154.8646212720477
 10
118.4654649226406
 20
-154.8839138067652
 10
118.4675319799317
 20
-154.9197427998117
 10
118.471666094514
 20
-154.9473035636937
 10
118.471666094514
 20
-154.9473035636937
 10
118.2770181995974
 20
-154.9473035636937
 10
118.2770181995974
 20
-154.9473035636937
 10
118.2835638810194
 20
-154.9090630038075
 10
118.2856309383105
 20
-154.8670328388874
 10
118.2856309383105
 20
-154.8604871574654
 10
118.2856309383105
 20
-154.7950303432457
 10
118.2646158558505
 20
-154.5962483337468
 10
118.0275932864653
 20
-154.5962483337468
 10
117.8498263594264
 20
-154.5962483337468
 10
117.7947048316624
 20
-154.7271619621863
 10
117.7947048316624
 20
-154.8374050177143
 10
117.7947048316624
 20
-155.1016438414329
 10
118.0275932864653
 20
-155.1102565801461
 10
118.099595782107
 20
-155.1143906947283
 10
118.099595782107
 20
-155.1143906947283
 10
118.099595782107
 20
-155.3176513283581
 10
118.099595782107
 20
-155.3176513283581
 10
117.9745388159925
 20
-155.309038589645
 10
117.5979898794547
 20
-155.281477825763
 10
117.5979898794547
 20
-154.8246581644188
 10
117.5979898794547
 20
-154.6003824483291
 10
117.7251139028604
 20
-154.3592257643616
 10
118.0210476050433
 20
-154.3592257643616
 10
118.2074272707954
 20
-154.3592257643616
 10
118.2897650528928
 20
-154.4543103997545
 10
118.3510877525303
 20
-154.5538736592782
 10
118.3786485164123
 20
-154.4925509596408
 10
118.4592637507671
 20
-154.3106499180196
 10
118.7362494277812
 20
-154.3106499180196
 10
119.0749023139813
 20
-154.3106499180196
 10
119.2419894450159
 20
-154.5580077738605
 10
119.2419894450159
 20
-154.8349934508746
 97
        0
 97
        0
 75
     2
 76
     1
 98
        0
  0
ENDBLK
  5
54
330
51
100
AcDbEntity
  8
0
100
AcDbBlockEnd
  0
BLOCK
  5
75
330
73
100
AcDbEntity
  8
0
100
AcDbBlockBegin
  2
block 3
 70
     0
 10
0.0
 20
0.0
 30
0.0
  3
block 3
  1

  0
SPLINE
  5
77
330
73
100
AcDbEntity
  8
_U+30EC_U+30A4_U+30E4_U+30FC 1
370
     0
100
AcDbSpline
210
0.0
220
0.0
230
1.0
 70
    11
 71
     3
 72
    44
 73
    40
 74
     0
 42
0.0000000001
 43
0.0000000001
 12
1.0
 22
0.0
 32
0.0
 13
1.0
 23
0.0
 33
0.0
 40
0.0
 40
0.0
 40
0.0
 40
0.0
 40
1.0
 40
1.0
 40
1.0
 40
2.0
 40
2.0
 40
2.0
 40
3.0
 40
3.0
 40
3.0
 40
4.0
 40
4.0
 40
4.0
 40
5.0
 40
5.0
 40
5.0
 40
6.0
 40
6.0
 40
6.0
 40
7.0
 40
7.0
 40
7.0
 40
8.0
 40
8.0
 40
8.0
 40
9.0
 40
9.0
 40
9.0
 40
10.0
 40
10.0
 40
10.0
 40
11.0
 40
11.0
 40
11.0
 40
12.0
 40
12.0
 40
12.0
 40
13.0
 40
13.0
 40
13.0
 40
13.0
 10
105.4030408807673
 20
-159.1485975079559
 30
0.0
 10
105.1853108460995
 20
-159.3070719002774
 30
0.0
 10
105.0922932679978
 20
-159.3811414532103
 30
0.0
 10
105.0433729121072
 20
-159.5251464444937
 30
0.0
 10
105.0433729121072
 20
-159.5251464444937
 30
0.0
 10
105.8219644917737
 20
-159.5251464444937
 30
0.0
 10
105.8219644917737
 20
-159.5251464444937
 30
0.0
 10
105.8219644917737
 20
-159.5251464444937
 30
0.0
 10
105.8219644917737
 20
-159.7301296258661
 30
0.0
 10
105.8219644917737
 20
-159.7301296258661
 30
0.0
 10
105.8219644917737
 20
-159.7301296258661
 30
0.0
 10
104.7939479989751
 20
-159.7301296258661
 30
0.0
 10
104.7939479989751
 20
-159.7301296258661
 30
0.0
 10
104.8256428774394
 20
-159.3725287144972
 30
0.0
 10
104.8910996916592
 20
-159.294325046982
 30
0.0
 10
105.2762613669101
 20
-158.9959797779593
 30
0.0
 10
105.5322319614642
 20
-158.7971977684604
 30
0.0
 10
105.5976887756839
 20
-158.7296738969495
 30
0.0
 10
105.5976887756839
 20
-158.5922145870881
 30
0.0
 10
105.5976887756839
 20
-158.4737033023955
 30
0.0
 10
105.5256862800422
 20
-158.3424451644075
 30
0.0
 10
105.3289713278344
 20
-158.3424451644075
 30
0.0
 10
105.0688666186981
 20
-158.3424451644075
 30
0.0
 10
105.0602538799849
 20
-158.5729220523707
 30
0.0
 10
105.0561197654026
 20
-158.6893662797721
 30
0.0
 10
105.0561197654026
 20
-158.6893662797721
 30
0.0
 10
104.8318440493129
 20
-158.6893662797721
 30
0.0
 10
104.8318440493129
 20
-158.6893662797721
 30
0.0
 10
104.840456788026
 20
-158.5625867659149
 30
0.0
 10
104.8511365840303
 20
-158.4502766530958
 30
0.0
 10
104.9314073088366
 20
-158.3317653684032
 30
0.0
 10
105.0413058548161
 20
-158.1712239187905
 30
0.0
 10
105.2276855205681
 20
-158.1371174734866
 30
0.0
 10
105.343785238421
 20
-158.1371174734866
 30
0.0
 10
105.6211154249836
 20
-158.1371174734866
 30
0.0
 10
105.8285101731957
 20
-158.3214300819474
 30
0.0
 10
105.8285101731957
 20
-158.5942816443792
 30
0.0
 10
105.8285101731957
 20
-158.8226914750513
 30
0.0
 10
105.7120659457942
 20
-158.922254734575
 30
0.0
 10
105.4030408807673
 20
-159.1485975079559
 30
0.0
  0
HATCH
  5
78
330
73
100
AcDbEntity
  8
_U+30EC_U+30A4_U+30E4_U+30FC 1
 62
   179
420
  2234388
100
AcDbHatch
 10
0.0
 20
0.0
 30
0.0
210
0.0
220
0.0
230
1.0
  2
SOLID
 70
     1
 71
     0
 91
        1
 92
        1
 93
        1
 72
     4
 94
        3
 73
     0
 74
     1
 95
       44
 96
       40
 40
0.0
 40
0.0
 40
0.0
 40
0.0
 40
1.0
 40
1.0
 40
1.0
 40
2.0
 40
2.0
 40
2.0
 40
3.0
 40
3.0
 40
3.0
 40
4.0
 40
4.0
 40
4.0
 40
5.0
 40
5.0
 40
5.0
 40
6.0
 40
6.0
 40
6.0
 40
7.0
 40
7.0
 40
7.0
 40
8.0
 40
8.0
 40
8.0
 40
9.0
 40
9.0
 40
9.0
 40
10.0
 40
10.0
 40
10.0
 40
11.0
 40
11.0
 40
11.0
 40
12.0
 40
12.0
 40
12.0
 40
13.0
 40
13.0
 40
13.0
 40
13.0
 10
105.4030408807673
 20
-159.1485975079559
 10
105.1853108460995
 20
-159.3070719002774
 10
105.0922932679978
 20
-159.3811414532103
 10
105.0433729121072
 20
-159.5251464444937
 10
105.0433729121072
 20
-159.5251464444937
 10
105.8219644917737
 20
-159.5251464444937
 10
105.8219644917737
 20
-159.5251464444937
 10
105.8219644917737
 20
-159.5251464444937
 10
105.8219644917737
 20
-159.7301296258661
 10
105.8219644917737
 20
-159.7301296258661
 10
105.8219644917737
 20
-159.7301296258661
 10
104.7939479989751
 20
-159.7301296258661
 10
104.7939479989751
 20
-159.7301296258661
 10
104.8256428774394
 20
-159.3725287144972
 10
104.8910996916592
 20
-159.294325046982
 10
105.2762613669101
 20
-158.9959797779593
 10
105.5322319614642
 20
-158.7971977684604
 10
105.5976887756839
 20
-158.7296738969495
 10
105.5976887756839
 20
-158.5922145870881
 10
105.5976887756839
 20
-158.4737033023955
 10
105.5256862800422
 20
-158.3424451644075
 10
105.3289713278344
 20
-158.3424451644075
 10
105.0688666186981
 20
-158.3424451644075
 10
105.0602538799849
 20
-158.5729220523707
 10
105.0561197654026
 20
-158.6893662797721
 10
105.0561197654026
 20
-158.6893662797721
 10
104.8318440493129
 20
-158.6893662797721
 10
104.8318440493129
 20
-158.6893662797721
 10
104.840456788026
 20
-158.5625867659149
 10
104.8511365840303
 20
-158.4502766530958
 10
104.9314073088366
 20
-158.3317653684032
 10
105.0413058548161
 20
-158.1712239187905
 10
105.2276855205681
 20
-158.1371174734866
 10
105.343785238421
 20
-158.1371174734866
 10
105.6211154249836
 20
-158.1371174734866
 10
105.8285101731957
 20
-158.3214300819474
 10
105.8285101731957
 20
-158.5942816443792
 10
105.8285101731957
 20
-158.8226914750513
 10
105.7120659457942
 20
-158.922254734575
 10
105.4030408807673
 20
-159.1485975079559
 97
        0
 97
        0
 75
     2
 76
     1
 98
        0
  0
SPLINE
  5
79
330
73
100
AcDbEntity
  8
_U+30EC_U+30A4_U+30E4_U+30FC 1
370
     0
100
AcDbSpline
210
0.0
220
0.0
230
1.0
 70
    11
 71
     3
 72
    29
 73
    25
 74
     0
 42
0.0000000001
 43
0.0000000001
 12
1.0
 22
0.0
 32
0.0
 13
1.0
 23
0.0
 33
0.0
 40
0.0
 40
0.0
 40
0.0
 40
0.0
 40
1.0
 40
1.0
 40
1.0
 40
2.0
 40
2.0
 40
2.0
 40
3.0
 40
3.0
 40
3.0
 40
4.0
 40
4.0
 40
4.0
 40
5.0
 40
5.0
 40
5.0
 40
6.0
 40
6.0
 40
6.0
 40
7.0
 40
7.0
 40
7.0
 40
8.0
 40
8.0
 40
8.0
 40
8.0
 10
106.8847764489733
 20
-159.5523626988272
 30
0.0
 10
106.7766004507364
 20
-159.7618245043304
 30
0.0
 10
106.6033121478283
 20
-159.7811170390478
 30
0.0
 10
106.4868679204269
 20
-159.7811170390478
 30
0.0
 10
106.3259819612657
 20
-159.7811170390478
 30
0.0
 10
106.184388536822
 20
-159.7346082499969
 30
0.0
 10
106.0893039014291
 20
-159.5523626988272
 30
0.0
 10
105.985606527323
 20
-159.3577148039106
 30
0.0
 10
105.9663139926056
 20
-159.1210367440739
 30
0.0
 10
105.9663139926056
 20
-158.9580837276216
 30
0.0
 10
105.9663139926056
 20
-158.8140787363382
 30
0.0
 10
105.9835394700319
 20
-158.5625867659149
 30
0.0
 10
106.0893039014291
 20
-158.3634602468675
 30
0.0
 10
106.1971353901174
 20
-158.1605441227863
 30
0.0
 10
106.3580213492786
 20
-158.1371174734866
 30
0.0
 10
106.4868679204269
 20
-158.1371174734866
 30
0.0
 10
106.6456868222969
 20
-158.1371174734866
 30
0.0
 10
106.7893473040318
 20
-158.1815592052463
 30
0.0
 10
106.8847764489733
 20
-158.3634602468675
 30
0.0
 10
106.9839951989484
 20
-158.5560410844929
 30
0.0
 10
107.0074218482481
 20
-158.784450915165
 30
0.0
 10
107.0074218482481
 20
-158.9580837276216
 30
0.0
 10
107.0074218482481
 20
-159.1293049732385
 30
0.0
 10
106.9860622562396
 20
-159.3601263707503
 30
0.0
 10
106.8847764489733
 20
-159.5523626988272
 30
0.0
  0
SPLINE
  5
7A
330
73
100
AcDbEntity
  8
_U+30EC_U+30A4_U+30E4_U+30FC 1
370
     0
100
AcDbSpline
210
0.0
220
0.0
230
1.0
 70
    11
 71
     3
 72
    17
 73
    13
 74
     0
 42
0.0000000001
 43
0.0000000001
 12
1.0
 22
0.0
 32
0.0
 13
1.0
 23
0.0
 33
0.0
 40
0.0
 40
0.0
 40
0.0
 40
0.0
 40
1.0
 40
1.0
 40
1.0
 40
2.0
 40
2.0
 40
2.0
 40
3.0
 40
3.0
 40
3.0
 40
4.0
 40
4.0
 40
4.0
 40
4.0
 10
106.4868679204269
 20
-158.329698311112
 30
0.0
 10
106.2370984977463
 20
-158.329698311112
 30
0.0
 10
106.1905897086954
 20
-158.6132296695481
 30
0.0
 10
106.1905897086954
 20
-158.9580837276216
 30
0.0
 10
106.1905897086954
 20
-159.2774440791043
 30
0.0
 10
106.2267632112905
 20
-159.5864691441312
 30
0.0
 10
106.4868679204269
 20
-159.5864691441312
 30
0.0
 10
106.7345702858164
 20
-159.5864691441312
 30
0.0
 10
106.7831461321584
 20
-159.3050048429862
 30
0.0
 10
106.7831461321584
 20
-158.9580837276216
 30
0.0
 10
106.7831461321584
 20
-158.6387233761389
 30
0.0
 10
106.7449055722721
 20
-158.329698311112
 30
0.0
 10
106.4868679204269
 20
-158.329698311112
 30
0.0
  0
HATCH
  5
7B
330
73
100
AcDbEntity
  8
_U+30EC_U+30A4_U+30E4_U+30FC 1
 62
   179
420
  2234388
100
AcDbHatch
 10
0.0
 20
0.0
 30
0.0
210
0.0
220
0.0
230
1.0
  2
SOLID
 70
     1
 71
     0
 91
        2
 92
        1
 93
        1
 72
     4
 94
        3
 73
     0
 74
     1
 95
       29
 96
       25
 40
0.0
 40
0.0
 40
0.0
 40
0.0
 40
1.0
 40
1.0
 40
1.0
 40
2.0
 40
2.0
 40
2.0
 40
3.0
 40
3.0
 40
3.0
 40
4.0
 40
4.0
 40
4.0
 40
5.0
 40
5.0
 40
5.0
 40
6.0
 40
6.0
 40
6.0
 40
7.0
 40
7.0
 40
7.0
 40
8.0
 40
8.0
 40
8.0
 40
8.0
 10
106.8847764489733
 20
-159.5523626988272
 10
106.7766004507364
 20
-159.7618245043304
 10
106.6033121478283
 20
-159.7811170390478
 10
106.4868679204269
 20
-159.7811170390478
 10
106.3259819612657
 20
-159.7811170390478
 10
106.184388536822
 20
-159.7346082499969
 10
106.0893039014291
 20
-159.5523626988272
 10
105.985606527323
 20
-159.3577148039106
 10
105.9663139926056
 20
-159.1210367440739
 10
105.9663139926056
 20
-158.9580837276216
 10
105.9663139926056
 20
-158.8140787363382
 10
105.9835394700319
 20
-158.5625867659149
 10
106.0893039014291
 20
-158.3634602468675
 10
106.1971353901174
 20
-158.1605441227863
 10
106.3580213492786
 20
-158.1371174734866
 10
106.4868679204269
 20
-158.1371174734866
 10
106.6456868222969
 20
-158.1371174734866
 10
106.7893473040318
 20
-158.1815592052463
 10
106.8847764489733
 20
-158.3634602468675
 10
106.9839951989484
 20
-158.5560410844929
 10
107.0074218482481
 20
-158.784450915165
 10
107.0074218482481
 20
-158.9580837276216
 10
107.0074218482481
 20
-159.1293049732385
 10
106.9860622562396
 20
-159.3601263707503
 10
106.8847764489733
 20
-159.5523626988272
 97
        0
 97
        0
 92
        1
 93
        1
 72
     4
 94
        3
 73
     0
 74
     1
 95
       17
 96
       13
 40
0.0
 40
0.0
 40
0.0
 40
0.0
 40
1.0
 40
1.0
 40
1.0
 40
2.0
 40
2.0
 40
2.0
 40
3.0
 40
3.0
 40
3.0
 40
4.0
 40
4.0
 40
4.0
 40
4.0
 10
106.4868679204269
 20
-158.329698311112
 10
106.2370984977463
 20
-158.329698311112
 10
106.1905897086954
 20
-158.6132296695481
 10
106.1905897086954
 20
-158.9580837276216
 10
106.1905897086954
 20
-159.2774440791043
 10
106.2267632112905
 20
-159.5864691441312
 10
106.4868679204269
 20
-159.5864691441312
 10
106.7345702858164
 20
-159.5864691441312
 10
106.7831461321584
 20
-159.3050048429862
 10
106.7831461321584
 20
-158.9580837276216
 10
106.7831461321584
 20
-158.6387233761389
 10
106.7449055722721
 20
-158.329698311112
 10
106.4868679204269
 20
-158.329698311112
 97
        0
 97
        0
 75
     2
 76
     1
 98
        0
  0
ENDBLK
  5
76
330
73
100
AcDbEntity
  8
0
100
AcDbBlockEnd
  0
BLOCK
  5
7E
330
7C
100
AcDbEntity
  8
0
100
AcDbBlockBegin
  2
block 4
 70
     0
 10
0.0
 20
0.0
 30
0.0
  3
block 4
  1

  0
SPLINE
  5
80
330
7C
100
AcDbEntity
  8
_U+30EC_U+30A4_U+30E4_U+30FC 1
370
     0
100
AcDbSpline
210
0.0
220
0.0
230
1.0
 70
    11
 71
     3
 72
    62
 73
    58
 74
     0
 42
0.0000000001
 43
0.0000000001
 12
1.0
 22
0.0
 32
0.0
 13
1.0
 23
0.0
 33
0.0
 40
0.0
 40
0.0
 40
0.0
 40
0.0
 40
1.0
 40
1.0
 40
1.0
 40
2.0
 40
2.0
 40
2.0
 40
3.0
 40
3.0
 40
3.0
 40
4.0
 40
4.0
 40
4.0
 40
5.0
 40
5.0
 40
5.0
 40
6.0
 40
6.0
 40
6.0
 40
7.0
 40
7.0
 40
7.0
 40
8.0
 40
8.0
 40
8.0
 40
9.0
 40
9.0
 40
9.0
 40
10.0
 40
10.0
 40
10.0
 40
11.0
 40
11.0
 40
11.0
 40
12.0
 40
12.0
 40
12.0
 40
13.0
 40
13.0
 40
13.0
 40
14.0
 40
14.0
 40
14.0
 40
15.0
 40
15.0
 40
15.0
 40
16.0
 40
16.0
 40
16.0
 40
17.0
 40
17.0
 40
17.0
 40
18.0
 40
18.0
 40
18.0
 40
19.0
 40
19.0
 40
19.0
 40
19.0
 10
90.1423014097561
 20
-160.8394503721165
 30
0.0
 10
90.04687226481468
 20
-160.8394503721165
 30
0.0
 10
89.82914223014689
 20
-160.818090780108
 30
0.0
 10
89.70408526403232
 20
-160.6320556239045
 30
0.0
 10
89.63036022064797
 20
-160.5197455110853
 30
0.0
 10
89.62588159651715
 20
-160.4205267611102
 30
0.0
 10
89.62174748193485
 20
-160.335777412173
 30
0.0
 10
89.62174748193485
 20
-160.335777412173
 30
0.0
 10
89.84188908344231
 20
-160.335777412173
 30
0.0
 10
89.84188908344231
 20
-160.335777412173
 30
0.0
 10
89.84395614073345
 20
-160.4098469651059
 30
0.0
 10
89.85429142718921
 20
-160.6448024771999
 30
0.0
 10
90.13782278562527
 20
-160.6448024771999
 30
0.0
 10
90.27528209548674
 20
-160.6448024771999
 30
0.0
 10
90.42789982548331
 20
-160.5748670388493
 30
0.0
 10
90.42789982548331
 20
-160.3464572081773
 30
0.0
 10
90.42789982548331
 20
-160.2300129807758
 30
0.0
 10
90.38965926559703
 20
-160.1814371344338
 30
0.0
 10
90.35796438713274
 20
-160.1497422559695
 30
0.0
 10
90.28389483419987
 20
-160.0756727030366
 30
0.0
 10
90.16745060679843
 20
-160.0629258497412
 30
0.0
 10
90.11267358858295
 20
-160.0629258497412
 30
0.0
 10
90.09338105386554
 20
-160.0629258497412
 30
0.0
 10
90.05755206081895
 20
-160.0649929070324
 30
0.0
 10
90.02999129693696
 20
-160.0691270216147
 30
0.0
 10
90.02999129693696
 20
-160.0691270216147
 30
0.0
 10
90.02999129693696
 20
-159.874479126698
 30
0.0
 10
90.02999129693696
 20
-159.874479126698
 30
0.0
 10
90.06823185682322
 20
-159.88102480812
 30
0.0
 10
90.11026202174327
 20
-159.8830918654112
 30
0.0
 10
90.11680770316525
 20
-159.8830918654112
 30
0.0
 10
90.182264517385
 20
-159.8830918654112
 30
0.0
 10
90.3810465268839
 20
-159.8620767829512
 30
0.0
 10
90.3810465268839
 20
-159.625054213566
 30
0.0
 10
90.3810465268839
 20
-159.4472872865271
 30
0.0
 10
90.25013289844442
 20
-159.3921657587631
 30
0.0
 10
90.13988984291642
 20
-159.3921657587631
 30
0.0
 10
89.87565101919776
 20
-159.3921657587631
 30
0.0
 10
89.86703828048464
 20
-159.625054213566
 30
0.0
 10
89.86290416590234
 20
-159.6970567092077
 30
0.0
 10
89.86290416590234
 20
-159.6970567092077
 30
0.0
 10
89.6596435322726
 20
-159.6970567092077
 30
0.0
 10
89.6596435322726
 20
-159.6970567092077
 30
0.0
 10
89.66825627098572
 20
-159.5719997430931
 30
0.0
 10
89.69581703486772
 20
-159.1954508065553
 30
0.0
 10
90.15263669621184
 20
-159.1954508065553
 30
0.0
 10
90.3769124123016
 20
-159.1954508065553
 30
0.0
 10
90.6180690962691
 20
-159.322574829961
 30
0.0
 10
90.6180690962691
 20
-159.618508532144
 30
0.0
 10
90.6180690962691
 20
-159.804888197896
 30
0.0
 10
90.5229844608762
 20
-159.8872259799935
 30
0.0
 10
90.42342120135248
 20
-159.9485486796309
 30
0.0
 10
90.48474390098993
 20
-159.9761094435129
 30
0.0
 10
90.66664494261111
 20
-160.0567246778678
 30
0.0
 10
90.66664494261111
 20
-160.3337103548818
 30
0.0
 10
90.66664494261111
 20
-160.6723632410819
 30
0.0
 10
90.41928708677018
 20
-160.8394503721165
 30
0.0
 10
90.1423014097561
 20
-160.8394503721165
 30
0.0
  0
HATCH
  5
81
330
7C
100
AcDbEntity
  8
_U+30EC_U+30A4_U+30E4_U+30FC 1
 62
   179
420
  2234388
100
AcDbHatch
 10
0.0
 20
0.0
 30
0.0
210
0.0
220
0.0
230
1.0
  2
SOLID
 70
     1
 71
     0
 91
        1
 92
        1
 93
        1
 72
     4
 94
        3
 73
     0
 74
     1
 95
       62
 96
       58
 40
0.0
 40
0.0
 40
0.0
 40
0.0
 40
1.0
 40
1.0
 40
1.0
 40
2.0
 40
2.0
 40
2.0
 40
3.0
 40
3.0
 40
3.0
 40
4.0
 40
4.0
 40
4.0
 40
5.0
 40
5.0
 40
5.0
 40
6.0
 40
6.0
 40
6.0
 40
7.0
 40
7.0
 40
7.0
 40
8.0
 40
8.0
 40
8.0
 40
9.0
 40
9.0
 40
9.0
 40
10.0
 40
10.0
 40
10.0
 40
11.0
 40
11.0
 40
11.0
 40
12.0
 40
12.0
 40
12.0
 40
13.0
 40
13.0
 40
13.0
 40
14.0
 40
14.0
 40
14.0
 40
15.0
 40
15.0
 40
15.0
 40
16.0
 40
16.0
 40
16.0
 40
17.0
 40
17.0
 40
17.0
 40
18.0
 40
18.0
 40
18.0
 40
19.0
 40
19.0
 40
19.0
 40
19.0
 10
90.1423014097561
 20
-160.8394503721165
 10
90.04687226481468
 20
-160.8394503721165
 10
89.82914223014689
 20
-160.818090780108
 10
89.70408526403232
 20
-160.6320556239045
 10
89.63036022064797
 20
-160.5197455110853
 10
89.62588159651715
 20
-160.4205267611102
 10
89.62174748193485
 20
-160.335777412173
 10
89.62174748193485
 20
-160.335777412173
 10
89.84188908344231
 20
-160.335777412173
 10
89.84188908344231
 20
-160.335777412173
 10
89.84395614073345
 20
-160.4098469651059
 10
89.85429142718921
 20
-160.6448024771999
 10
90.13782278562527
 20
-160.6448024771999
 10
90.27528209548674
 20
-160.6448024771999
 10
90.42789982548331
 20
-160.5748670388493
 10
90.42789982548331
 20
-160.3464572081773
 10
90.42789982548331
 20
-160.2300129807758
 10
90.38965926559703
 20
-160.1814371344338
 10
90.35796438713274
 20
-160.1497422559695
 10
90.28389483419987
 20
-160.0756727030366
 10
90.16745060679843
 20
-160.0629258497412
 10
90.11267358858295
 20
-160.0629258497412
 10
90.09338105386554
 20
-160.0629258497412
 10
90.05755206081895
 20
-160.0649929070324
 10
90.02999129693696
 20
-160.0691270216147
 10
90.02999129693696
 20
-160.0691270216147
 10
90.02999129693696
 20
-159.874479126698
 10
90.02999129693696
 20
-159.874479126698
 10
90.06823185682322
 20
-159.88102480812
 10
90.11026202174327
 20
-159.8830918654112
 10
90.11680770316525
 20
-159.8830918654112
 10
90.182264517385
 20
-159.8830918654112
 10
90.3810465268839
 20
-159.8620767829512
 10
90.3810465268839
 20
-159.625054213566
 10
90.3810465268839
 20
-159.4472872865271
 10
90.25013289844442
 20
-159.3921657587631
 10
90.13988984291642
 20
-159.3921657587631
 10
89.87565101919776
 20
-159.3921657587631
 10
89.86703828048464
 20
-159.625054213566
 10
89.86290416590234
 20
-159.6970567092077
 10
89.86290416590234
 20
-159.6970567092077
 10
89.6596435322726
 20
-159.6970567092077
 10
89.6596435322726
 20
-159.6970567092077
 10
89.66825627098572
 20
-159.5719997430931
 10
89.69581703486772
 20
-159.1954508065553
 10
90.15263669621184
 20
-159.1954508065553
 10
90.3769124123016
 20
-159.1954508065553
 10
90.6180690962691
 20
-159.322574829961
 10
90.6180690962691
 20
-159.618508532144
 10
90.6180690962691
 20
-159.804888197896
 10
90.5229844608762
 20
-159.8872259799935
 10
90.42342120135248
 20
-159.9485486796309
 10
90.48474390098993
 20
-159.9761094435129
 10
90.66664494261111
 20
-160.0567246778678
 10
90.66664494261111
 20
-160.3337103548818
 10
90.66664494261111
 20
-160.6723632410819
 10
90.41928708677018
 20
-160.8394503721165
 10
90.1423014097561
 20
-160.8394503721165
 97
        0
 97
        0
 75
     2
 76
     1
 98
        0
  0
SPLINE
  5
82
330
7C
100
AcDbEntity
  8
_U+30EC_U+30A4_U+30E4_U+30FC 1
370
     0
100
AcDbSpline
210
0.0
220
0.0
230
1.0
 70
    11
 71
     3
 72
    44
 73
    40
 74
     0
 42
0.0000000001
 43
0.0000000001
 12
1.0
 22
0.0
 32
0.0
 13
1.0
 23
0.0
 33
0.0
 40
0.0
 40
0.0
 40
0.0
 40
0.0
 40
1.0
 40
1.0
 40
1.0
 40
2.0
 40
2.0
 40
2.0
 40
3.0
 40
3.0
 40
3.0
 40
4.0
 40
4.0
 40
4.0
 40
5.0
 40
5.0
 40
5.0
 40
6.0
 40
6.0
 40
6.0
 40
7.0
 40
7.0
 40
7.0
 40
8.0
 40
8.0
 40
8.0
 40
9.0
 40
9.0
 40
9.0
 40
10.0
 40
10.0
 40
10.0
 40
11.0
 40
11.0
 40
11.0
 40
12.0
 40
12.0
 40
12.0
 40
13.0
 40
13.0
 40
13.0
 40
13.0
 10
91.84142250308132
 20
-160.7884629589348
 30
0.0
 10
91.81834036333014
 20
-160.7440212271751
 30
0.0
 10
91.79698077132159
 20
-160.6913112662508
 30
0.0
 10
91.79491371403044
 20
-160.460489868739
 30
0.0
 10
91.79077959944814
 20
-160.2172661274804
 30
0.0
 10
91.73152395710184
 20
-160.1476751986784
 30
0.0
 10
91.55375703006295
 20
-160.1476751986784
 30
0.0
 10
91.55375703006295
 20
-160.1476751986784
 30
0.0
 10
91.14551321506084
 20
-160.1476751986784
 30
0.0
 10
91.14551321506084
 20
-160.1476751986784
 30
0.0
 10
91.14551321506084
 20
-160.1476751986784
 30
0.0
 10
91.14551321506084
 20
-160.7884629589348
 30
0.0
 10
91.14551321506084
 20
-160.7884629589348
 30
0.0
 10
91.14551321506084
 20
-160.7884629589348
 30
0.0
 10
90.91055770296681
 20
-160.7884629589348
 30
0.0
 10
90.91055770296681
 20
-160.7884629589348
 30
0.0
 10
90.91055770296681
 20
-160.7884629589348
 30
0.0
 10
90.91055770296681
 20
-159.2443711624459
 30
0.0
 10
90.91055770296681
 20
-159.2443711624459
 30
0.0
 10
90.91055770296681
 20
-159.2443711624459
 30
0.0
 10
91.58545190852725
 20
-159.2443711624459
 30
0.0
 10
91.58545190852725
 20
-159.2443711624459
 30
0.0
 10
91.89240991626302
 20
-159.2443711624459
 30
0.0
 10
92.05949704729763
 20
-159.4155924080628
 30
0.0
 10
92.05949704729763
 20
-159.6715630026168
 30
0.0
 10
92.05949704729763
 20
-159.72220590625
 30
0.0
 10
92.0508843085845
 20
-159.804888197896
 30
0.0
 10
92.00644257682478
 20
-159.8851589227023
 30
0.0
 10
91.94718693447848
 20
-159.9888562968083
 30
0.0
 10
91.88173012025874
 20
-160.0078043219772
 30
0.0
 10
91.8204074206213
 20
-160.0246852898549
 30
0.0
 10
91.95786673048276
 20
-160.0670599643235
 30
0.0
 10
92.02539060199366
 20
-160.1159803202141
 30
0.0
 10
92.02986922612448
 20
-160.4308620475659
 30
0.0
 10
92.03400334070678
 20
-160.7016465527065
 30
0.0
 10
92.06983233375338
 20
-160.7336859407194
 30
0.0
 10
92.1377007148128
 20
-160.7884629589348
 30
0.0
 10
92.1377007148128
 20
-160.7884629589348
 30
0.0
 10
91.84142250308132
 20
-160.7884629589348
 30
0.0
 10
91.84142250308132
 20
-160.7884629589348
 30
0.0
  0
SPLINE
  5
83
330
7C
100
AcDbEntity
  8
_U+30EC_U+30A4_U+30E4_U+30FC 1
370
     0
100
AcDbSpline
210
0.0
220
0.0
230
1.0
 70
    11
 71
     3
 72
    20
 73
    16
 74
     0
 42
0.0000000001
 43
0.0000000001
 12
1.0
 22
0.0
 32
0.0
 13
1.0
 23
0.0
 33
0.0
 40
0.0
 40
0.0
 40
0.0
 40
0.0
 40
1.0
 40
1.0
 40
1.0
 40
2.0
 40
2.0
 40
2.0
 40
3.0
 40
3.0
 40
3.0
 40
4.0
 40
4.0
 40
4.0
 40
5.0
 40
5.0
 40
5.0
 40
5.0
 10
91.58993053265807
 20
-159.4559000252402
 30
0.0
 10
91.58993053265807
 20
-159.4559000252402
 30
0.0
 10
91.14551321506084
 20
-159.4559000252402
 30
0.0
 10
91.14551321506084
 20
-159.4559000252402
 30
0.0
 10
91.14551321506084
 20
-159.4559000252402
 30
0.0
 10
91.14551321506084
 20
-159.936146335884
 30
0.0
 10
91.14551321506084
 20
-159.936146335884
 30
0.0
 10
91.14551321506084
 20
-159.936146335884
 30
0.0
 10
91.5875189658184
 20
-159.936146335884
 30
0.0
 10
91.5875189658184
 20
-159.936146335884
 30
0.0
 10
91.68708222534212
 20
-159.936146335884
 30
0.0
 10
91.82247447791244
 20
-159.86000972566
 30
0.0
 10
91.82247447791244
 20
-159.6884439704946
 30
0.0
 10
91.82247447791244
 20
-159.6102403029794
 30
0.0
 10
91.78871254215699
 20
-159.4559000252402
 30
0.0
 10
91.58993053265807
 20
-159.4559000252402
 30
0.0
  0
HATCH
  5
84
330
7C
100
AcDbEntity
  8
_U+30EC_U+30A4_U+30E4_U+30FC 1
 62
   179
420
  2234388
100
AcDbHatch
 10
0.0
 20
0.0
 30
0.0
210
0.0
220
0.0
230
1.0
  2
SOLID
 70
     1
 71
     0
 91
        2
 92
        1
 93
        1
 72
     4
 94
        3
 73
     0
 74
     1
 95
       44
 96
       40
 40
0.0
 40
0.0
 40
0.0
 40
0.0
 40
1.0
 40
1.0
 40
1.0
 40
2.0
 40
2.0
 40
2.0
 40
3.0
 40
3.0
 40
3.0
 40
4.0
 40
4.0
 40
4.0
 40
5.0
 40
5.0
 40
5.0
 40
6.0
 40
6.0
 40
6.0
 40
7.0
 40
7.0
 40
7.0
 40
8.0
 40
8.0
 40
8.0
 40
9.0
 40
9.0
 40
9.0
 40
10.0
 40
10.0
 40
10.0
 40
11.0
 40
11.0
 40
11.0
 40
12.0
 40
12.0
 40
12.0
 40
13.0
 40
13.0
 40
13.0
 40
13.0
 10
91.84142250308132
 20
-160.7884629589348
 10
91.81834036333014
 20
-160.7440212271751
 10
91.79698077132159
 20
-160.6913112662508
 10
91.79491371403044
 20
-160.460489868739
 10
91.79077959944814
 20
-160.2172661274804
 10
91.73152395710184
 20
-160.1476751986784
 10
91.55375703006295
 20
-160.1476751986784
 10
91.55375703006295
 20
-160.1476751986784
 10
91.14551321506084
 20
-160.1476751986784
 10
91.14551321506084
 20
-160.1476751986784
 10
91.14551321506084
 20
-160.1476751986784
 10
91.14551321506084
 20
-160.7884629589348
 10
91.14551321506084
 20
-160.7884629589348
 10
91.14551321506084
 20
-160.7884629589348
 10
90.91055770296681
 20
-160.7884629589348
 10
90.91055770296681
 20
-160.7884629589348
 10
90.91055770296681
 20
-160.7884629589348
 10
90.91055770296681
 20
-159.2443711624459
 10
90.91055770296681
 20
-159.2443711624459
 10
90.91055770296681
 20
-159.2443711624459
 10
91.58545190852725
 20
-159.2443711624459
 10
91.58545190852725
 20
-159.2443711624459
 10
91.89240991626302
 20
-159.2443711624459
 10
92.05949704729763
 20
-159.4155924080628
 10
92.05949704729763
 20
-159.6715630026168
 10
92.05949704729763
 20
-159.72220590625
 10
92.0508843085845
 20
-159.804888197896
 10
92.00644257682478
 20
-159.8851589227023
 10
91.94718693447848
 20
-159.9888562968083
 10
91.88173012025874
 20
-160.0078043219772
 10
91.8204074206213
 20
-160.0246852898549
 10
91.95786673048276
 20
-160.0670599643235
 10
92.02539060199366
 20
-160.1159803202141
 10
92.02986922612448
 20
-160.4308620475659
 10
92.03400334070678
 20
-160.7016465527065
 10
92.06983233375338
 20
-160.7336859407194
 10
92.1377007148128
 20
-160.7884629589348
 10
92.1377007148128
 20
-160.7884629589348
 10
91.84142250308132
 20
-160.7884629589348
 10
91.84142250308132
 20
-160.7884629589348
 97
        0
 97
        0
 92
        1
 93
        1
 72
     4
 94
        3
 73
     0
 74
     1
 95
       20
 96
       16
 40
0.0
 40
0.0
 40
0.0
 40
0.0
 40
1.0
 40
1.0
 40
1.0
 40
2.0
 40
2.0
 40
2.0
 40
3.0
 40
3.0
 40
3.0
 40
4.0
 40
4.0
 40
4.0
 40
5.0
 40
5.0
 40
5.0
 40
5.0
 10
91.58993053265807
 20
-159.4559000252402
 10
91.58993053265807
 20
-159.4559000252402
 10
91.14551321506084
 20
-159.4559000252402
 10
91.14551321506084
 20
-159.4559000252402
 10
91.14551321506084
 20
-159.4559000252402
 10
91.14551321506084
 20
-159.936146335884
 10
91.14551321506084
 20
-159.936146335884
 10
91.14551321506084
 20
-159.936146335884
 10
91.5875189658184
 20
-159.936146335884
 10
91.5875189658184
 20
-159.936146335884
 10
91.68708222534212
 20
-159.936146335884
 10
91.82247447791244
 20
-159.86000972566
 10
91.82247447791244
 20
-159.6884439704946
 10
91.82247447791244
 20
-159.6102403029794
 10
91.78871254215699
 20
-159.4559000252402
 10
91.58993053265807
 20
-159.4559000252402
 97
        0
 97
        0
 75
     2
 76
     1
 98
        0
  0
ENDBLK
  5
7F
330
7C
100
AcDbEntity
  8
0
100
AcDbBlockEnd
  0
BLOCK
  5
87
330
85
100
AcDbEntity
  8
0
100
AcDbBlockBegin
  2
block 5
 70
     0
 10
0.0
 20
0.0
 30
0.0
  3
block 5
  1

  0
SPLINE
  5
89
330
85
100
AcDbEntity
  8
_U+30EC_U+30A4_U+30E4_U+30FC 1
370
     0
100
AcDbSpline
210
0.0
220
0.0
230
1.0
 70
    11
 71
     3
 72
    44
 73
    40
 74
     0
 42
0.0000000001
 43
0.0000000001
 12
1.0
 22
0.0
 32
0.0
 13
1.0
 23
0.0
 33
0.0
 40
0.0
 40
0.0
 40
0.0
 40
0.0
 40
1.0
 40
1.0
 40
1.0
 40
2.0
 40
2.0
 40
2.0
 40
3.0
 40
3.0
 40
3.0
 40
4.0
 40
4.0
 40
4.0
 40
5.0
 40
5.0
 40
5.0
 40
6.0
 40
6.0
 40
6.0
 40
7.0
 40
7.0
 40
7.0
 40
8.0
 40
8.0
 40
8.0
 40
9.0
 40
9.0
 40
9.0
 40
10.0
 40
10.0
 40
10.0
 40
11.0
 40
11.0
 40
11.0
 40
12.0
 40
12.0
 40
12.0
 40
13.0
 40
13.0
 40
13.0
 40
13.0
 10
90.6478691722165
 20
-146.890947771437
 30
0.0
 10
90.80651581931227
 20
-147.1086778061048
 30
0.0
 10
90.88058537224514
 20
-147.2016953842065
 30
0.0
 10
91.02441810875432
 20
-147.2506157400971
 30
0.0
 10
91.02441810875432
 20
-147.2506157400971
 30
0.0
 10
91.02441810875432
 20
-146.4720241604306
 30
0.0
 10
91.02441810875432
 20
-146.4720241604306
 30
0.0
 10
91.02441810875432
 20
-146.4720241604306
 30
0.0
 10
91.22957354490094
 20
-146.4720241604306
 30
0.0
 10
91.22957354490094
 20
-146.4720241604306
 30
0.0
 10
91.22957354490094
 20
-146.4720241604306
 30
0.0
 10
91.22957354490094
 20
-147.5000406532291
 30
0.0
 10
91.22957354490094
 20
-147.5000406532291
 30
0.0
 10
90.87197263353201
 20
-147.4683457747649
 30
0.0
 10
90.79376896601684
 20
-147.4028889605451
 30
0.0
 10
90.49542369699421
 20
-147.0177272852942
 30
0.0
 10
90.29664168749528
 20
-146.7617566907401
 30
0.0
 10
90.22894556121012
 20
-146.6962998765204
 30
0.0
 10
90.09148625134866
 20
-146.6962998765204
 30
0.0
 10
89.97297496665607
 20
-146.6962998765204
 30
0.0
 10
89.84188908344231
 20
-146.7683023721621
 30
0.0
 10
89.84188908344231
 20
-146.9650173243699
 30
0.0
 10
89.84188908344231
 20
-147.2251220335062
 30
0.0
 10
90.07236597140552
 20
-147.2337347722193
 30
0.0
 10
90.18881019880696
 20
-147.2378688868017
 30
0.0
 10
90.18881019880696
 20
-147.2378688868017
 30
0.0
 10
90.18881019880696
 20
-147.4621446028914
 30
0.0
 10
90.18881019880696
 20
-147.4621446028914
 30
0.0
 10
90.0618584301755
 20
-147.4535318641783
 30
0.0
 10
89.94972057213063
 20
-147.442852068174
 30
0.0
 10
89.83120928743803
 20
-147.3625813433677
 30
0.0
 10
89.67049558305114
 20
-147.2526827973882
 30
0.0
 10
89.63656139252141
 20
-147.0663031316362
 30
0.0
 10
89.63656139252141
 20
-146.9502034137833
 30
0.0
 10
89.63656139252141
 20
-146.6728732272207
 30
0.0
 10
89.82070174620803
 20
-146.4654784790086
 30
0.0
 10
90.09355330863981
 20
-146.4654784790086
 30
0.0
 10
90.32196313931188
 20
-146.4654784790086
 30
0.0
 10
90.4215263988356
 20
-146.5819227064101
 30
0.0
 10
90.6478691722165
 20
-146.890947771437
 30
0.0
  0
HATCH
  5
8A
330
85
100
AcDbEntity
  8
_U+30EC_U+30A4_U+30E4_U+30FC 1
 62
   179
420
  2234388
100
AcDbHatch
 10
0.0
 20
0.0
 30
0.0
210
0.0
220
0.0
230
1.0
  2
SOLID
 70
     1
 71
     0
 91
        1
 92
        1
 93
        1
 72
     4
 94
        3
 73
     0
 74
     1
 95
       44
 96
       40
 40
0.0
 40
0.0
 40
0.0
 40
0.0
 40
1.0
 40
1.0
 40
1.0
 40
2.0
 40
2.0
 40
2.0
 40
3.0
 40
3.0
 40
3.0
 40
4.0
 40
4.0
 40
4.0
 40
5.0
 40
5.0
 40
5.0
 40
6.0
 40
6.0
 40
6.0
 40
7.0
 40
7.0
 40
7.0
 40
8.0
 40
8.0
 40
8.0
 40
9.0
 40
9.0
 40
9.0
 40
10.0
 40
10.0
 40
10.0
 40
11.0
 40
11.0
 40
11.0
 40
12.0
 40
12.0
 40
12.0
 40
13.0
 40
13.0
 40
13.0
 40
13.0
 10
90.6478691722165
 20
-146.890947771437
 10
90.80651581931227
 20
-147.1086778061048
 10
90.88058537224514
 20
-147.2016953842065
 10
91.02441810875432
 20
-147.2506157400971
 10
91.02441810875432
 20
-147.2506157400971
 10
91.02441810875432
 20
-146.4720241604306
 10
91.02441810875432
 20
-146.4720241604306
 10
91.02441810875432
 20
-146.4720241604306
 10
91.22957354490094
 20
-146.4720241604306
 10
91.22957354490094
 20
-146.4720241604306
 10
91.22957354490094
 20
-146.4720241604306
 10
91.22957354490094
 20
-147.5000406532291
 10
91.22957354490094
 20
-147.5000406532291
 10
90.87197263353201
 20
-147.4683457747649
 10
90.79376896601684
 20
-147.4028889605451
 10
90.49542369699421
 20
-147.0177272852942
 10
90.29664168749528
 20
-146.7617566907401
 10
90.22894556121012
 20
-146.6962998765204
 10
90.09148625134866
 20
-146.6962998765204
 10
89.97297496665607
 20
-146.6962998765204
 10
89.84188908344231
 20
-146.7683023721621
 10
89.84188908344231
 20
-146.9650173243699
 10
89.84188908344231
 20
-147.2251220335062
 10
90.07236597140552
 20
-147.2337347722193
 10
90.18881019880696
 20
-147.2378688868017
 10
90.18881019880696
 20
-147.2378688868017
 10
90.18881019880696
 20
-147.4621446028914
 10
90.18881019880696
 20
-147.4621446028914
 10
90.0618584301755
 20
-147.4535318641783
 10
89.94972057213063
 20
-147.442852068174
 10
89.83120928743803
 20
-147.3625813433677
 10
89.67049558305114
 20
-147.2526827973882
 10
89.63656139252141
 20
-147.0663031316362
 10
89.63656139252141
 20
-146.9502034137833
 10
89.63656139252141
 20
-146.6728732272207
 10
89.82070174620803
 20
-146.4654784790086
 10
90.09355330863981
 20
-146.4654784790086
 10
90.32196313931188
 20
-146.4654784790086
 10
90.4215263988356
 20
-146.5819227064101
 10
90.6478691722165
 20
-146.890947771437
 97
        0
 97
        0
 75
     2
 76
     1
 98
        0
  0
SPLINE
  5
8B
330
85
100
AcDbEntity
  8
_U+30EC_U+30A4_U+30E4_U+30FC 1
370
     0
100
AcDbSpline
210
0.0
220
0.0
230
1.0
 70
    11
 71
     3
 72
    29
 73
    25
 74
     0
 42
0.0000000001
 43
0.0000000001
 12
1.0
 22
0.0
 32
0.0
 13
1.0
 23
0.0
 33
0.0
 40
0.0
 40
0.0
 40
0.0
 40
0.0
 40
1.0
 40
1.0
 40
1.0
 40
2.0
 40
2.0
 40
2.0
 40
3.0
 40
3.0
 40
3.0
 40
4.0
 40
4.0
 40
4.0
 40
5.0
 40
5.0
 40
5.0
 40
6.0
 40
6.0
 40
6.0
 40
7.0
 40
7.0
 40
7.0
 40
8.0
 40
8.0
 40
8.0
 40
8.0
 10
91.05180661786206
 20
-145.409212203231
 30
0.0
 10
91.26126842336524
 20
-145.5173882014679
 30
0.0
 10
91.28038870330838
 20
-145.6906765043759
 30
0.0
 10
91.28038870330838
 20
-145.8071207317774
 30
0.0
 10
91.28038870330838
 20
-145.9680066909386
 30
0.0
 10
91.2338799142575
 20
-146.1096001153823
 30
0.0
 10
91.05180661786206
 20
-146.2046847507752
 30
0.0
 10
90.85715872294544
 20
-146.3083821248812
 30
0.0
 10
90.62030840833451
 20
-146.3276746595986
 30
0.0
 10
90.45735539188219
 20
-146.3276746595986
 30
0.0
 10
90.313522655373
 20
-146.3276746595986
 30
0.0
 10
90.0618584301755
 20
-146.3104491821724
 30
0.0
 10
89.86290416590234
 20
-146.2046847507752
 30
0.0
 10
89.65981578704685
 20
-146.0968532620869
 30
0.0
 10
89.63656139252141
 20
-145.9359673029257
 30
0.0
 10
89.63656139252141
 20
-145.8071207317774
 30
0.0
 10
89.63656139252141
 20
-145.6483018299074
 30
0.0
 10
89.68100312428115
 20
-145.5046413481725
 30
0.0
 10
89.86290416590234
 20
-145.409212203231
 30
0.0
 10
90.0554850035278
 20
-145.3099934532558
 30
0.0
 10
90.28389483419987
 20
-145.2865668039561
 30
0.0
 10
90.45735539188219
 20
-145.2865668039561
 30
0.0
 10
90.62874889227338
 20
-145.2865668039561
 30
0.0
 10
90.85939803501086
 20
-145.3079263959647
 30
0.0
 10
91.05180661786206
 20
-145.409212203231
 30
0.0
  0
SPLINE
  5
8C
330
85
100
AcDbEntity
  8
_U+30EC_U+30A4_U+30E4_U+30FC 1
370
     0
100
AcDbSpline
210
0.0
220
0.0
230
1.0
 70
    11
 71
     3
 72
    17
 73
    13
 74
     0
 42
0.0000000001
 43
0.0000000001
 12
1.0
 22
0.0
 32
0.0
 13
1.0
 23
0.0
 33
0.0
 40
0.0
 40
0.0
 40
0.0
 40
0.0
 40
1.0
 40
1.0
 40
1.0
 40
2.0
 40
2.0
 40
2.0
 40
3.0
 40
3.0
 40
3.0
 40
4.0
 40
4.0
 40
4.0
 40
4.0
 10
89.82914223014689
 20
-145.8071207317774
 30
0.0
 10
89.82914223014689
 20
-146.056890154458
 30
0.0
 10
90.11267358858295
 20
-146.1033989435089
 30
0.0
 10
90.45735539188219
 20
-146.1033989435089
 30
0.0
 10
90.77688799813912
 20
-146.1033989435089
 30
0.0
 10
91.08574080839176
 20
-146.0672254409137
 30
0.0
 10
91.08574080839176
 20
-145.8071207317774
 30
0.0
 10
91.08574080839176
 20
-145.5594183663879
 30
0.0
 10
90.80427650724685
 20
-145.5108425200459
 30
0.0
 10
90.45735539188219
 20
-145.5108425200459
 30
0.0
 10
90.13799504039953
 20
-145.5108425200459
 30
0.0
 10
89.82914223014689
 20
-145.5490830799322
 30
0.0
 10
89.82914223014689
 20
-145.8071207317774
 30
0.0
  0
HATCH
  5
8D
330
85
100
AcDbEntity
  8
_U+30EC_U+30A4_U+30E4_U+30FC 1
 62
   179
420
  2234388
100
AcDbHatch
 10
0.0
 20
0.0
 30
0.0
210
0.0
220
0.0
230
1.0
  2
SOLID
 70
     1
 71
     0
 91
        2
 92
        1
 93
        1
 72
     4
 94
        3
 73
     0
 74
     1
 95
       29
 96
       25
 40
0.0
 40
0.0
 40
0.0
 40
0.0
 40
1.0
 40
1.0
 40
1.0
 40
2.0
 40
2.0
 40
2.0
 40
3.0
 40
3.0
 40
3.0
 40
4.0
 40
4.0
 40
4.0
 40
5.0
 40
5.0
 40
5.0
 40
6.0
 40
6.0
 40
6.0
 40
7.0
 40
7.0
 40
7.0
 40
8.0
 40
8.0
 40
8.0
 40
8.0
 10
91.05180661786206
 20
-145.409212203231
 10
91.26126842336524
 20
-145.5173882014679
 10
91.28038870330838
 20
-145.6906765043759
 10
91.28038870330838
 20
-145.8071207317774
 10
91.28038870330838
 20
-145.9680066909386
 10
91.2338799142575
 20
-146.1096001153823
 10
91.05180661786206
 20
-146.2046847507752
 10
90.85715872294544
 20
-146.3083821248812
 10
90.62030840833451
 20
-146.3276746595986
 10
90.45735539188219
 20
-146.3276746595986
 10
90.313522655373
 20
-146.3276746595986
 10
90.0618584301755
 20
-146.3104491821724
 10
89.86290416590234
 20
-146.2046847507752
 10
89.65981578704685
 20
-146.0968532620869
 10
89.63656139252141
 20
-145.9359673029257
 10
89.63656139252141
 20
-145.8071207317774
 10
89.63656139252141
 20
-145.6483018299074
 10
89.68100312428115
 20
-145.5046413481725
 10
89.86290416590234
 20
-145.409212203231
 10
90.0554850035278
 20
-145.3099934532558
 10
90.28389483419987
 20
-145.2865668039561
 10
90.45735539188219
 20
-145.2865668039561
 10
90.62874889227338
 20
-145.2865668039561
 10
90.85939803501086
 20
-145.3079263959647
 10
91.05180661786206
 20
-145.409212203231
 97
        0
 97
        0
 92
        1
 93
        1
 72
     4
 94
        3
 73
     0
 74
     1
 95
       17
 96
       13
 40
0.0
 40
0.0
 40
0.0
 40
0.0
 40
1.0
 40
1.0
 40
1.0
 40
2.0
 40
2.0
 40
2.0
 40
3.0
 40
3.0
 40
3.0
 40
4.0
 40
4.0
 40
4.0
 40
4.0
 10
89.82914223014689
 20
-145.8071207317774
 10
89.82914223014689
 20
-146.056890154458
 10
90.11267358858295
 20
-146.1033989435089
 10
90.45735539188219
 20
-146.1033989435089
 10
90.77688799813912
 20
-146.1033989435089
 10
91.08574080839176
 20
-146.0672254409137
 10
91.08574080839176
 20
-145.8071207317774
 10
91.08574080839176
 20
-145.5594183663879
 10
90.80427650724685
 20
-145.5108425200459
 10
90.45735539188219
 20
-145.5108425200459
 10
90.13799504039953
 20
-145.5108425200459
 10
89.82914223014689
 20
-145.5490830799322
 10
89.82914223014689
 20
-145.8071207317774
 97
        0
 97
        0
 75
     2
 76
     1
 98
        0
  0
ENDBLK
  5
88
330
85
100
AcDbEntity
  8
0
100
AcDbBlockEnd
  0
ENDSEC
  0
SECTION
  2
ENTITIES
  0
SPLINE
  5
41
330
1F
100
AcDbEntity
  8
_U+30EC_U+30A4_U+30E4_U+30FC 1
370
     0
100
AcDbSpline
210
0.0
220
0.0
230
1.0
 70
    11
 71
     3
 72
    26
 73
    22
 74
     0
 42
0.0000000001
 43
0.0000000001
 12
1.0
 22
0.0
 32
0.0
 13
1.0
 23
0.0
 33
0.0
 40
0.0
 40
0.0
 40
0.0
 40
0.0
 40
1.0
 40
1.0
 40
1.0
 40
2.0
 40
2.0
 40
2.0
 40
3.0
 40
3.0
 40
3.0
 40
4.0
 40
4.0
 40
4.0
 40
5.0
 40
5.0
 40
5.0
 40
6.0
 40
6.0
 40
6.0
 40
7.0
 40
7.0
 40
7.0
 40
7.0
 10
98.82579377140932
 20
-156.3261384361246
 30
0.0
 10
97.16878897039129
 20
-156.3261384361246
 30
0.0
 10
95.82541704961136
 20
-154.9831325567403
 30
0.0
 10
95.82541704961136
 20
-153.3261277557223
 30
0.0
 10
95.82541704961136
 20
-153.3261277557223
 30
0.0
 10
95.82541704961136
 20
-136.3261102971359
 30
0.0
 10
95.82541704961136
 20
-136.3261102971359
 30
0.0
 10
95.82541704961136
 20
-136.3261102971359
 30
0.0
 10
98.82579377140932
 20
-136.3261102971359
 30
0.0
 10
98.82579377140932
 20
-136.3261102971359
 30
0.0
 10
98.82579377140932
 20
-136.3261102971359
 30
0.0
 10
98.82579377140932
 20
-153.3261277557223
 30
0.0
 10
98.82579377140932
 20
-153.3261277557223
 30
0.0
 10
98.82579377140932
 20
-153.3261277557223
 30
0.0
 10
115.825800464072
 20
-153.3261277557223
 30
0.0
 10
115.825800464072
 20
-153.3261277557223
 30
0.0
 10
115.825800464072
 20
-153.3261277557223
 30
0.0
 10
115.825800464072
 20
-156.3261384361246
 30
0.0
 10
115.825800464072
 20
-156.3261384361246
 30
0.0
 10
115.825800464072
 20
-156.3261384361246
 30
0.0
 10
98.82579377140932
 20
-156.3261384361246
 30
0.0
 10
98.82579377140932
 20
-156.3261384361246
 30
0.0
  0
HATCH
  5
42
330
1F
100
AcDbEntity
  8
_U+30EC_U+30A4_U+30E4_U+30FC 1
 62
   179
420
  2234388
100
AcDbHatch
 10
0.0
 20
0.0
 30
0.0
210
0.0
220
0.0
230
1.0
  2
SOLID
 70
     1
 71
     0
 91
        1
 92
        1
 93
        1
 72
     4
 94
        3
 73
     0
 74
     1
 95
       26
 96
       22
 40
0.0
 40
0.0
 40
0.0
 40
0.0
 40
1.0
 40
1.0
 40
1.0
 40
2.0
 40
2.0
 40
2.0
 40
3.0
 40
3.0
 40
3.0
 40
4.0
 40
4.0
 40
4.0
 40
5.0
 40
5.0
 40
5.0
 40
6.0
 40
6.0
 40
6.0
 40
7.0
 40
7.0
 40
7.0
 40
7.0
 10
98.82579377140932
 20
-156.3261384361246
 10
97.16878897039129
 20
-156.3261384361246
 10
95.82541704961136
 20
-154.9831325567403
 10
95.82541704961136
 20
-153.3261277557223
 10
95.82541704961136
 20
-153.3261277557223
 10
95.82541704961136
 20
-136.3261102971359
 10
95.82541704961136
 20
-136.3261102971359
 10
95.82541704961136
 20
-136.3261102971359
 10
98.82579377140932
 20
-136.3261102971359
 10
98.82579377140932
 20
-136.3261102971359
 10
98.82579377140932
 20
-136.3261102971359
 10
98.82579377140932
 20
-153.3261277557223
 10
98.82579377140932
 20
-153.3261277557223
 10
98.82579377140932
 20
-153.3261277557223
 10
115.825800464072
 20
-153.3261277557223
 10
115.825800464072
 20
-153.3261277557223
 10
115.825800464072
 20
-153.3261277557223
 10
115.825800464072
 20
-156.3261384361246
 10
115.825800464072
 20
-156.3261384361246
 10
115.825800464072
 20
-156.3261384361246
 10
98.82579377140932
 20
-156.3261384361246
 10
98.82579377140932
 20
-156.3261384361246
 97
        0
 97
        0
 75
     2
 76
     1
 98
        0
  0
SPLINE
  5
43
330
1F
100
AcDbEntity
  8
_U+30EC_U+30A4_U+30E4_U+30FC 1
 62
   179
420
  2234388
370
     9
100
AcDbSpline
210
0.0
220
0.0
230
1.0
 70
    11
 71
     3
 72
    17
 73
    13
 74
     0
 42
0.0000000001
 43
0.0000000001
 12
1.0
 22
0.0
 32
0.0
 13
1.0
 23
0.0
 33
0.0
 40
0.0
 40
0.0
 40
0.0
 40
0.0
 40
1.0
 40
1.0
 40
1.0
 40
2.0
 40
2.0
 40
2.0
 40
3.0
 40
3.0
 40
3.0
 40
4.0
 40
4.0
 40
4.0
 40
4.0
 10
119.7854101941205
 20
-153.2413784067851
 30
0.0
 10
119.7303747937436
 20
-153.2413784067851
 30
0.0
 10
119.6855670205886
 20
-153.2861861799402
 30
0.0
 10
119.6855670205886
 20
-153.341221580317
 30
0.0
 10
119.6855670205886
 20
-153.3962569806939
 30
0.0
 10
119.7303747937436
 20
-153.4410647538489
 30
0.0
 10
119.7854101941205
 20
-153.4410647538489
 30
0.0
 10
119.840434828574
 20
-153.4410647538489
 30
0.0
 10
119.885242601729
 20
-153.3962569806939
 30
0.0
 10
119.885242601729
 20
-153.341221580317
 30
0.0
 10
119.885242601729
 20
-153.2861861799402
 30
0.0
 10
119.840434828574
 20
-153.2413784067851
 30
0.0
 10
119.7854101941205
 20
-153.2413784067851
 30
0.0
  0
SPLINE
  5
44
330
1F
100
AcDbEntity
  8
_U+30EC_U+30A4_U+30E4_U+30FC 1
 62
   179
420
  2234388
370
     9
100
AcDbSpline
210
0.0
220
0.0
230
1.0
 70
    11
 71
     3
 72
    17
 73
    13
 74
     0
 42
0.0000000001
 43
0.0000000001
 12
1.0
 22
0.0
 32
0.0
 13
1.0
 23
0.0
 33
0.0
 40
0.0
 40
0.0
 40
0.0
 40
0.0
 40
1.0
 40
1.0
 40
1.0
 40
2.0
 40
2.0
 40
2.0
 40
3.0
 40
3.0
 40
3.0
 40
4.0
 40
4.0
 40
4.0
 40
4.0
 10
119.7854101941205
 20
-156.2183069474363
 30
0.0
 10
119.7303747937436
 20
-156.2183069474363
 30
0.0
 10
119.6855670205886
 20
-156.2631147205913
 30
0.0
 10
119.6855670205886
 20
-156.3181501209682
 30
0.0
 10
119.6855670205886
 20
-156.3731855213451
 30
0.0
 10
119.7303747937436
 20
-156.4179932945001
 30
0.0
 10
119.7854101941205
 20
-156.4179932945001
 30
0.0
 10
119.840434828574
 20
-156.4179932945001
 30
0.0
 10
119.885242601729
 20
-156.3731855213451
 30
0.0
 10
119.885242601729
 20
-156.3181501209682
 30
0.0
 10
119.885242601729
 20
-156.2631147205913
 30
0.0
 10
119.840434828574
 20
-156.2183069474363
 30
0.0
 10
119.7854101941205
 20
-156.2183069474363
 30
0.0
  0
POLYLINE
  5
45
330
1F
100
AcDbEntity
  8
_U+30EC_U+30A4_U+30E4_U+30FC 1
 62
   179
420
  2234388
370
     9
100
AcDb2dPolyline
 66
     1
 10
0.0
 20
0.0
 30
0.0
  0
VERTEX
  5
46
330
45
100
AcDbEntity
  8
_U+30EC_U+30A4_U+30E4_U+30FC 1
 62
   179
420
  2234388
370
     9
100
AcDbVertex
100
AcDb2dVertex
 10
119.7854101941205
 20
-156.3182147165085
 30
0.0
  0
VERTEX
  5
47
330
45
100
AcDbEntity
  8
_U+30EC_U+30A4_U+30E4_U+30FC 1
 62
   179
420
  2234388
370
     9
100
AcDbVertex
100
AcDb2dVertex
 10
119.7854101941205
 20
-153.2808032182445
 30
0.0
  0
SEQEND
  5
48
330
45
100
AcDbEntity
  8
_U+30EC_U+30A4_U+30E4_U+30FC 1
 62
   179
420
  2234388
370
     9
  0
POLYLINE
  5
49
330
1F
100
AcDbEntity
  8
_U+30EC_U+30A4_U+30E4_U+30FC 1
 62
   179
420
  2234388
370
     9
100
AcDb2dPolyline
 66
     1
 10
0.0
 20
0.0
 30
0.0
  0
VERTEX
  5
4A
330
49
100
AcDbEntity
  8
_U+30EC_U+30A4_U+30E4_U+30FC 1
 62
   179
420
  2234388
370
     9
100
AcDbVertex
100
AcDb2dVertex
 10
117.3259565272006
 20
-156.3182147165085
 30
0.0
  0
VERTEX
  5
4B
330
49
100
AcDbEntity
  8
_U+30EC_U+30A4_U+30E4_U+30FC 1
 62
   179
420
  2234388
370
     9
100
AcDbVertex
100
AcDb2dVertex
 10
120.7859951141177
 20
-156.3182147165085
 30
0.0
  0
SEQEND
  5
4C
330
49
100
AcDbEntity
  8
_U+30EC_U+30A4_U+30E4_U+30FC 1
 62
   179
420
  2234388
370
     9
  0
POLYLINE
  5
4D
330
1F
100
AcDbEntity
  8
_U+30EC_U+30A4_U+30E4_U+30FC 1
 62
   179
420
  2234388
370
     9
100
AcDb2dPolyline
 66
     1
 10
0.0
 20
0.0
 30
0.0
  0
VERTEX
  5
4E
330
4D
100
AcDbEntity
  8
_U+30EC_U+30A4_U+30E4_U+30FC 1
 62
   179
420
  2234388
370
     9
100
AcDbVertex
100
AcDb2dVertex
 10
117.3259565272006
 20
-153.3412861758574
 30
0.0
  0
VERTEX
  5
4F
330
4D
100
AcDbEntity
  8
_U+30EC_U+30A4_U+30E4_U+30FC 1
 62
   179
420
  2234388
370
     9
100
AcDbVertex
100
AcDb2dVertex
 10
120.7859951141177
 20
-153.3412861758574
 30
0.0
  0
SEQEND
  5
50
330
4D
100
AcDbEntity
  8
_U+30EC_U+30A4_U+30E4_U+30FC 1
 62
   179
420
  2234388
370
     9
  0
INSERT
  5
52
330
1F
100
AcDbEntity
  8
_U+30EC_U+30A4_U+30E4_U+30FC 1
100
AcDbBlockReference
  2
block 2
 10
0.0
 20
0.0
 30
0.0
  0
SPLINE
  5
57
330
1F
100
AcDbEntity
  8
_U+30EC_U+30A4_U+30E4_U+30FC 1
 62
   179
420
  2234388
370
     9
100
AcDbSpline
210
0.0
220
0.0
230
1.0
 70
    11
 71
     3
 72
    17
 73
    13
 74
     0
 42
0.0000000001
 43
0.0000000001
 12
1.0
 22
0.0
 32
0.0
 13
1.0
 23
0.0
 33
0.0
 40
0.0
 40
0.0
 40
0.0
 40
0.0
 40
1.0
 40
1.0
 40
1.0
 40
2.0
 40
2.0
 40
2.0
 40
3.0
 40
3.0
 40
3.0
 40
4.0
 40
4.0
 40
4.0
 40
4.0
 10
115.9307143875212
 20
-160.32656178175
 30
0.0
 10
115.9307143875212
 20
-160.2715479132199
 30
0.0
 10
115.8859066143662
 20
-160.2267401400649
 30
0.0
 10
115.8308712139893
 20
-160.2267401400649
 30
0.0
 10
115.7758358136125
 20
-160.2267401400649
 30
0.0
 10
115.7310388063808
 20
-160.2715479132199
 30
0.0
 10
115.7310388063808
 20
-160.32656178175
 30
0.0
 10
115.7310388063808
 20
-160.3815971821268
 30
0.0
 10
115.7758358136125
 20
-160.4264049552819
 30
0.0
 10
115.8308712139893
 20
-160.4264049552819
 30
0.0
 10
115.8859066143662
 20
-160.4264049552819
 30
0.0
 10
115.9307143875212
 20
-160.3815971821268
 30
0.0
 10
115.9307143875212
 20
-160.32656178175
 30
0.0
  0
SPLINE
  5
58
330
1F
100
AcDbEntity
  8
_U+30EC_U+30A4_U+30E4_U+30FC 1
 62
   179
420
  2234388
370
     9
100
AcDbSpline
210
0.0
220
0.0
230
1.0
 70
    11
 71
     3
 72
    17
 73
    13
 74
     0
 42
0.0000000001
 43
0.0000000001
 12
1.0
 22
0.0
 32
0.0
 13
1.0
 23
0.0
 33
0.0
 40
0.0
 40
0.0
 40
0.0
 40
0.0
 40
1.0
 40
1.0
 40
1.0
 40
2.0
 40
2.0
 40
2.0
 40
3.0
 40
3.0
 40
3.0
 40
4.0
 40
4.0
 40
4.0
 40
4.0
 10
95.92606766739762
 20
-160.32656178175
 30
0.0
 10
95.92606766739762
 20
-160.2715479132199
 30
0.0
 10
95.88125989424258
 20
-160.2267401400649
 30
0.0
 10
95.82552470884528
 20
-160.2267401400649
 30
0.0
 10
95.77048930846841
 20
-160.2267401400649
 30
0.0
 10
95.72568153531337
 20
-160.2715479132199
 30
0.0
 10
95.72568153531337
 20
-160.32656178175
 30
0.0
 10
95.72568153531337
 20
-160.3815971821268
 30
0.0
 10
95.77048930846841
 20
-160.4264049552819
 30
0.0
 10
95.82552470884528
 20
-160.4264049552819
 30
0.0
 10
95.88125989424258
 20
-160.4264049552819
 30
0.0
 10
95.92606766739762
 20
-160.3815971821268
 30
0.0
 10
95.92606766739762
 20
-160.32656178175
 30
0.0
  0
SPLINE
  5
59
330
1F
100
AcDbEntity
  8
_U+30EC_U+30A4_U+30E4_U+30FC 1
 62
   179
420
  2234388
370
     9
100
AcDbSpline
210
0.0
220
0.0
230
1.0
 70
    11
 71
     3
 72
    17
 73
    13
 74
     0
 42
0.0000000001
 43
0.0000000001
 12
1.0
 22
0.0
 32
0.0
 13
1.0
 23
0.0
 33
0.0
 40
0.0
 40
0.0
 40
0.0
 40
0.0
 40
1.0
 40
1.0
 40
1.0
 40
2.0
 40
2.0
 40
2.0
 40
3.0
 40
3.0
 40
3.0
 40
4.0
 40
4.0
 40
4.0
 40
4.0
 10
91.92563355584889
 20
-156.2255201161086
 30
0.0
 10
91.92563355584889
 20
-156.1705062475785
 30
0.0
 10
91.88082578269417
 20
-156.1256984744234
 30
0.0
 10
91.82579038231731
 20
-156.1256984744234
 30
0.0
 10
91.77075498194044
 20
-156.1256984744234
 30
0.0
 10
91.72595797470849
 20
-156.1705062475785
 30
0.0
 10
91.72595797470849
 20
-156.2255201161086
 30
0.0
 10
91.72595797470849
 20
-156.2812660674292
 30
0.0
 10
91.77075498194044
 20
-156.3260738405843
 30
0.0
 10
91.82579038231731
 20
-156.3260738405843
 30
0.0
 10
91.88082578269417
 20
-156.3260738405843
 30
0.0
 10
91.92563355584889
 20
-156.2812660674292
 30
0.0
 10
91.92563355584889
 20
-156.2255201161086
 30
0.0
  0
POLYLINE
  5
5A
330
1F
100
AcDbEntity
  8
_U+30EC_U+30A4_U+30E4_U+30FC 1
 62
   179
420
  2234388
370
     9
100
AcDb2dPolyline
 66
     1
 10
0.0
 20
0.0
 30
0.0
  0
VERTEX
  5
5B
330
5A
100
AcDbEntity
  8
_U+30EC_U+30A4_U+30E4_U+30FC 1
 62
   179
420
  2234388
370
     9
100
AcDbVertex
100
AcDb2dVertex
 10
91.82572578677664
 20
-156.3261384361246
 30
0.0
  0
VERTEX
  5
5C
330
5A
100
AcDbEntity
  8
_U+30EC_U+30A4_U+30E4_U+30FC 1
 62
   179
420
  2234388
370
     9
100
AcDbVertex
100
AcDb2dVertex
 10
91.82572578677664
 20
-136.3194138927865
 30
0.0
  0
SEQEND
  5
5D
330
5A
100
AcDbEntity
  8
_U+30EC_U+30A4_U+30E4_U+30FC 1
 62
   179
420
  2234388
370
     9
  0
POLYLINE
  5
5E
330
1F
100
AcDbEntity
  8
_U+30EC_U+30A4_U+30E4_U+30FC 1
 62
   179
420
  2234388
370
     9
100
AcDb2dPolyline
 66
     1
 10
0.0
 20
0.0
 30
0.0
  0
VERTEX
  5
5F
330
5E
100
AcDbEntity
  8
_U+30EC_U+30A4_U+30E4_U+30FC 1
 62
   179
420
  2234388
370
     9
100
AcDbVertex
100
AcDb2dVertex
 10
94.28550243139857
 20
-156.2255201161086
 30
0.0
  0
VERTEX
  5
60
330
5E
100
AcDbEntity
  8
_U+30EC_U+30A4_U+30E4_U+30FC 1
 62
   179
420
  2234388
370
     9
100
AcDbVertex
100
AcDb2dVertex
 10
90.82580835402966
 20
-156.2255201161086
 30
0.0
  0
SEQEND
  5
61
330
5E
100
AcDbEntity
  8
_U+30EC_U+30A4_U+30E4_U+30FC 1
 62
   179
420
  2234388
370
     9
  0
SPLINE
  5
62
330
1F
100
AcDbEntity
  8
_U+30EC_U+30A4_U+30E4_U+30FC 1
 62
   179
420
  2234388
370
     9
100
AcDbSpline
210
0.0
220
0.0
230
1.0
 70
    11
 71
     3
 72
    17
 73
    13
 74
     0
 42
0.0000000001
 43
0.0000000001
 12
1.0
 22
0.0
 32
0.0
 13
1.0
 23
0.0
 33
0.0
 40
0.0
 40
0.0
 40
0.0
 40
0.0
 40
1.0
 40
1.0
 40
1.0
 40
2.0
 40
2.0
 40
2.0
 40
3.0
 40
3.0
 40
3.0
 40
4.0
 40
4.0
 40
4.0
 40
4.0
 10
91.92563355584889
 20
-136.3194354246332
 30
0.0
 10
91.92563355584889
 20
-136.2644215561035
 30
0.0
 10
91.88082578269417
 20
-136.2196137829481
 30
0.0
 10
91.82579038231731
 20
-136.2196137829481
 30
0.0
 10
91.77075498194044
 20
-136.2196137829481
 30
0.0
 10
91.72595797470849
 20
-136.2644215561035
 30
0.0
 10
91.72595797470849
 20
-136.3194354246332
 30
0.0
 10
91.72595797470849
 20
-136.3751813759543
 30
0.0
 10
91.77075498194044
 20
-136.419989149109
 30
0.0
 10
91.82579038231731
 20
-136.419989149109
 30
0.0
 10
91.88082578269417
 20
-136.419989149109
 30
0.0
 10
91.92563355584889
 20
-136.3751813759543
 30
0.0
 10
91.92563355584889
 20
-136.3194354246332
 30
0.0
  0
POLYLINE
  5
63
330
1F
100
AcDbEntity
  8
_U+30EC_U+30A4_U+30E4_U+30FC 1
 62
   179
420
  2234388
370
     9
100
AcDb2dPolyline
 66
     1
 10
0.0
 20
0.0
 30
0.0
  0
VERTEX
  5
64
330
63
100
AcDbEntity
  8
_U+30EC_U+30A4_U+30E4_U+30FC 1
 62
   179
420
  2234388
370
     9
100
AcDbVertex
100
AcDb2dVertex
 10
94.28550243139857
 20
-136.3194354246332
 30
0.0
  0
VERTEX
  5
65
330
63
100
AcDbEntity
  8
_U+30EC_U+30A4_U+30E4_U+30FC 1
 62
   179
420
  2234388
370
     9
100
AcDbVertex
100
AcDb2dVertex
 10
90.82580835402966
 20
-136.3194354246332
 30
0.0
  0
SEQEND
  5
66
330
63
100
AcDbEntity
  8
_U+30EC_U+30A4_U+30E4_U+30FC 1
 62
   179
420
  2234388
370
     9
  0
POLYLINE
  5
67
330
1F
100
AcDbEntity
  8
_U+30EC_U+30A4_U+30E4_U+30FC 1
 62
   179
420
  2234388
370
     9
100
AcDb2dPolyline
 66
     1
 10
0.0
 20
0.0
 30
0.0
  0
VERTEX
  5
68
330
67
100
AcDbEntity
  8
_U+30EC_U+30A4_U+30E4_U+30FC 1
 62
   179
420
  2234388
370
     9
100
AcDbVertex
100
AcDb2dVertex
 10
95.82544934738154
 20
-160.32656178175
 30
0.0
  0
VERTEX
  5
69
330
67
100
AcDbEntity
  8
_U+30EC_U+30A4_U+30E4_U+30FC 1
 62
   179
420
  2234388
370
     9
100
AcDbVertex
100
AcDb2dVertex
 10
115.8307635547554
 20
-160.32656178175
 30
0.0
  0
SEQEND
  5
6A
330
67
100
AcDbEntity
  8
_U+30EC_U+30A4_U+30E4_U+30FC 1
 62
   179
420
  2234388
370
     9
  0
POLYLINE
  5
6B
330
1F
100
AcDbEntity
  8
_U+30EC_U+30A4_U+30E4_U+30FC 1
 62
   179
420
  2234388
370
     9
100
AcDb2dPolyline
 66
     1
 10
0.0
 20
0.0
 30
0.0
  0
VERTEX
  5
6C
330
6B
100
AcDbEntity
  8
_U+30EC_U+30A4_U+30E4_U+30FC 1
 62
   179
420
  2234388
370
     9
100
AcDbVertex
100
AcDb2dVertex
 10
95.82544934738154
 20
-157.8660961180313
 30
0.0
  0
VERTEX
  5
6D
330
6B
100
AcDbEntity
  8
_U+30EC_U+30A4_U+30E4_U+30FC 1
 62
   179
420
  2234388
370
     9
100
AcDbVertex
100
AcDb2dVertex
 10
95.82544934738154
 20
-161.3265007463437
 30
0.0
  0
SEQEND
  5
6E
330
6B
100
AcDbEntity
  8
_U+30EC_U+30A4_U+30E4_U+30FC 1
 62
   179
420
  2234388
370
     9
  0
POLYLINE
  5
6F
330
1F
100
AcDbEntity
  8
_U+30EC_U+30A4_U+30E4_U+30FC 1
 62
   179
420
  2234388
370
     9
100
AcDb2dPolyline
 66
     1
 10
0.0
 20
0.0
 30
0.0
  0
VERTEX
  5
70
330
6F
100
AcDbEntity
  8
_U+30EC_U+30A4_U+30E4_U+30FC 1
 62
   179
420
  2234388
370
     9
100
AcDbVertex
100
AcDb2dVertex
 10
115.830806618449
 20
-158.8664872514075
 30
0.0
  0
VERTEX
  5
71
330
6F
100
AcDbEntity
  8
_U+30EC_U+30A4_U+30E4_U+30FC 1
 62
   179
420
  2234388
370
     9
100
AcDbVertex
100
AcDb2dVertex
 10
115.830806618449
 20
-161.3264146189566
 30
0.0
  0
SEQEND
  5
72
330
6F
100
AcDbEntity
  8
_U+30EC_U+30A4_U+30E4_U+30FC 1
 62
   179
420
  2234388
370
     9
  0
INSERT
  5
74
330
1F
100
AcDbEntity
  8
_U+30EC_U+30A4_U+30E4_U+30FC 1
100
AcDbBlockReference
  2
block 3
 10
0.0
 20
0.0
 30
0.0
  0
INSERT
  5
7D
330
1F
100
AcDbEntity
  8
_U+30EC_U+30A4_U+30E4_U+30FC 1
100
AcDbBlockReference
  2
block 4
 10
0.0
 20
0.0
 30
0.0
  0
INSERT
  5
86
330
1F
100
AcDbEntity
  8
_U+30EC_U+30A4_U+30E4_U+30FC 1
100
AcDbBlockReference
  2
block 5
 10
0.0
 20
0.0
 30
0.0
  0
SPLINE
  5
8E
330
1F
100
AcDbEntity
  8
_U+30EC_U+30A4_U+30E4_U+30FC 1
 62
   179
420
  2234388
370
    25
100
AcDbSpline
210
0.0
220
0.0
230
1.0
 70
    11
 71
     3
 72
    26
 73
    22
 74
     0
 42
0.0000000001
 43
0.0000000001
 12
1.0
 22
0.0
 32
0.0
 13
1.0
 23
0.0
 33
0.0
 40
0.0
 40
0.0
 40
0.0
 40
0.0
 40
1.0
 40
1.0
 40
1.0
 40
2.0
 40
2.0
 40
2.0
 40
3.0
 40
3.0
 40
3.0
 40
4.0
 40
4.0
 40
4.0
 40
5.0
 40
5.0
 40
5.0
 40
6.0
 40
6.0
 40
6.0
 40
7.0
 40
7.0
 40
7.0
 40
7.0
 10
98.82579377140932
 20
-156.3261384361246
 30
0.0
 10
97.16878897039129
 20
-156.3261384361246
 30
0.0
 10
95.82541704961136
 20
-154.9831325567403
 30
0.0
 10
95.82541704961136
 20
-153.3261277557223
 30
0.0
 10
95.82541704961136
 20
-153.3261277557223
 30
0.0
 10
95.82541704961136
 20
-136.3261102971359
 30
0.0
 10
95.82541704961136
 20
-136.3261102971359
 30
0.0
 10
95.82541704961136
 20
-136.3261102971359
 30
0.0
 10
98.82579377140932
 20
-136.3261102971359
 30
0.0
 10
98.82579377140932
 20
-136.3261102971359
 30
0.0
 10
98.82579377140932
 20
-136.3261102971359
 30
0.0
 10
98.82579377140932
 20
-153.3261277557223
 30
0.0
 10
98.82579377140932
 20
-153.3261277557223
 30
0.0
 10
98.82579377140932
 20
-153.3261277557223
 30
0.0
 10
115.825800464072
 20
-153.3261277557223
 30
0.0
 10
115.825800464072
 20
-153.3261277557223
 30
0.0
 10
115.825800464072
 20
-153.3261277557223
 30
0.0
 10
115.825800464072
 20
-156.3261384361246
 30
0.0
 10
115.825800464072
 20
-156.3261384361246
 30
0.0
 10
115.825800464072
 20
-156.3261384361246
 30
0.0
 10
98.82579377140932
 20
-156.3261384361246
 30
0.0
 10
98.82579377140932
 20
-156.3261384361246
 30
0.0
  0
SPLINE
  5
8F
330
1F
100
AcDbEntity
  8
_U+30EC_U+30A4_U+30E4_U+30FC 1
 62
   179
420
  2234388
370
    25
100
AcDbSpline
210
0.0
220
0.0
230
1.0
 70
     8
 71
     3
 72
     8
 73
     4
 74
     0
 42
0.0000000001
 43
0.0000000001
 12
1.0
 22
0.0
 32
0.0
 13
1.0
 23
0.0
 33
0.0
 40
0.0
 40
0.0
 40
0.0
 40
0.0
 40
1.0
 40
1.0
 40
1.0
 40
1.0
 10
98.82579377140932
 20
-156.3261384361246
 30
0.0
 10
97.16878897039129
 20
-156.3261384361246
 30
0.0
 10
95.82541704961136
 20
-154.9831325567403
 30
0.0
 10
95.82541704961136
 20
-153.3261277557223
 30
0.0
  0
POLYLINE
  5
90
330
1F
100
AcDbEntity
  8
_U+30EC_U+30A4_U+30E4_U+30FC 1
 62
   179
420
  2234388
370
     9
100
AcDb2dPolyline
 66
     1
 10
0.0
 20
0.0
 30
0.0
  0
VERTEX
  5
91
330
90
100
AcDbEntity
  8
_U+30EC_U+30A4_U+30E4_U+30FC 1
 62
   179
420
  2234388
370
     9
100
AcDbVertex
100
AcDb2dVertex
 10
96.594405425613
 20
-155.690324532475
 30
0.0
  0
VERTEX
  5
92
330
90
100
AcDbEntity
  8
_U+30EC_U+30A4_U+30E4_U+30FC 1
 62
   179
420
  2234388
370
     9
100
AcDbVertex
100
AcDb2dVertex
 10
95.69128441007783
 20
-156.2120842437161
 30
0.0
  0
SEQEND
  5
93
330
90
100
AcDbEntity
  8
_U+30EC_U+30A4_U+30E4_U+30FC 1
 62
   179
420
  2234388
370
     9
  0
POLYLINE
  5
94
330
1F
100
AcDbEntity
  8
_U+30EC_U+30A4_U+30E4_U+30FC 1
 62
   179
420
  2234388
370
     9
100
AcDb2dPolyline
 66
     1
 10
0.0
 20
0.0
 30
0.0
  0
VERTEX
  5
95
330
94
100
AcDbEntity
  8
_U+30EC_U+30A4_U+30E4_U+30FC 1
 62
   179
420
  2234388
370
     9
100
AcDbVertex
100
AcDb2dVertex
 10
96.594405425613
 20
-155.690324532475
 30
0.0
  0
VERTEX
  5
96
330
94
100
AcDbEntity
  8
_U+30EC_U+30A4_U+30E4_U+30FC 1
 62
   179
420
  2234388
370
     9
100
AcDbVertex
100
AcDb2dVertex
 10
92.4859460387546
 20
-159.9511755649384
 30
0.0
  0
SEQEND
  5
97
330
94
100
AcDbEntity
  8
_U+30EC_U+30A4_U+30E4_U+30FC 1
 62
   179
420
  2234388
370
     9
  0
POLYLINE
  5
98
330
1F
100
AcDbEntity
  8
_U+30EC_U+30A4_U+30E4_U+30FC 1
 62
   179
420
  2234388
370
     9
100
AcDb2dPolyline
 66
     1
 10
0.0
 20
0.0
 30
0.0
  0
VERTEX
  5
99
330
98
100
AcDbEntity
  8
_U+30EC_U+30A4_U+30E4_U+30FC 1
 62
   179
420
  2234388
370
     9
100
AcDbVertex
100
AcDb2dVertex
 10
96.594405425613
 20
-155.690324532475
 30
0.0
  0
VERTEX
  5
9A
330
98
100
AcDbEntity
  8
_U+30EC_U+30A4_U+30E4_U+30FC 1
 62
   179
420
  2234388
370
     9
100
AcDbVertex
100
AcDb2dVertex
 10
96.07264571437192
 20
-156.5930902725379
 30
0.0
  0
SEQEND
  5
9B
330
98
100
AcDbEntity
  8
_U+30EC_U+30A4_U+30E4_U+30FC 1
 62
   179
420
  2234388
370
     9
  0
ENDSEC
  0
SECTION
  2
OBJECTS
  0
DICTIONARY
  5
C
330
0
100
AcDbDictionary
281
     1
  3
ACAD_GROUP
350
D
  3
ACAD_LAYOUT
350
1A
  3
ACAD_MATERIAL
350
3B
  3
ACAD_MLEADERSTYLE
350
9D
  3
ACAD_MLINESTYLE
350
17
  3
ACAD_PLOTSETTINGS
350
19
  3
ACAD_PLOTSTYLENAME
350
E
  3
ACAD_TABLESTYLE
350
9C
  3
ACAD_VISUALSTYLE
350
2A
  0
SUN
  5
3F
330
29
100
AcDbSun
 90
        1
290
     0
 63
     7
421
 16777215
 40
1.0
291
     1
 91
  2455826
 92
 54000000
292
     0
 70
     2
 71
   256
280
     1
  0
DICTIONARY
  5
D
102
{ACAD_REACTORS
330
C
102
}
330
C
100
AcDbDictionary
281
     1
  0
DICTIONARY
  5
1A
102
{ACAD_REACTORS
330
C
102
}
330
C
100
AcDbDictionary
281
     1
  3
Layout1
350
1E
  3
Layout2
350
26
  3
Model
350
22
  0
DICTIONARY
  5
3B
102
{ACAD_REACTORS
330
C
102
}
330
C
100
AcDbDictionary
281
     1
  3
ByBlock
350
3D
  3
ByLayer
350
3C
  3
Global
350
3E
  0
DICTIONARY
  5
9D
102
{ACAD_REACTORS
330
C
102
}
330
C
100
AcDbDictionary
281
     1
  0
DICTIONARY
  5
17
102
{ACAD_REACTORS
330
C
102
}
330
C
100
AcDbDictionary
281
     1
  3
Standard
350
18
  0
DICTIONARY
  5
19
102
{ACAD_REACTORS
330
C
102
}
330
C
100
AcDbDictionary
281
     1
  0
ACDBDICTIONARYWDFLT
  5
E
102
{ACAD_REACTORS
330
C
102
}
330
C
100
AcDbDictionary
281
     1
  3
Normal
350
F
100
AcDbDictionaryWithDefault
340
F
  0
DICTIONARY
  5
9C
102
{ACAD_REACTORS
330
C
102
}
330
C
100
AcDbDictionary
281
     1
  0
DICTIONARY
  5
2A
102
{ACAD_REACTORS
330
C
102
}
330
C
100
AcDbDictionary
281
     1
  3
2dWireframe
350
2F
  3
3D Hidden
350
31
  3
3dWireframe
350
30
  3
Basic
350
32
  3
Brighten
350
36
  3
ColorChange
350
3A
  3
Conceptual
350
34
  3
Dim
350
35
  3
Facepattern
350
39
  3
Flat
350
2B
  3
FlatWithEdges
350
2C
  3
Gouraud
350
2D
  3
GouraudWithEdges
350
2E
  3
Linepattern
350
38
  3
Realistic
350
33
  3
Thicken
350
37
  0
LAYOUT
  5
1E
102
{ACAD_REACTORS
330
1A
102
}
330
1A
100
AcDbPlotSettings
  1

  2
none_device
  4

  6

 40
0.0
 41
0.0
 42
0.0
 43
0.0
 44
0.0
 45
0.0
 46
0.0
 47
0.0
 48
0.0
 49
0.0
140
0.0
141
0.0
142
1.0
143
1.0
 70
   688
 72
     0
 73
     0
 74
     5
  7

 75
    16
 76
     0
 77
     2
 78
   300
147
1.0
148
0.0
149
0.0
100
AcDbLayout
  1
Layout1
 70
     1
 71
     1
 10
0.0
 20
0.0
 11
12.0
 21
9.0
 12
0.0
 22
0.0
 32
0.0
 14
1.000000000000000E+20
 24
1.000000000000000E+20
 34
1.000000000000000E+20
 15
-1.000000000000000E+20
 25
-1.000000000000000E+20
 35
-1.000000000000000E+20
146
0.0
 13
0.0
 23
0.0
 33
0.0
 16
1.0
 26
0.0
 36
0.0
 17
0.0
 27
1.0
 37
0.0
 76
     0
330
1B
  0
LAYOUT
  5
26
102
{ACAD_REACTORS
330
1A
102
}
330
1A
100
AcDbPlotSettings
  1

  2
none_device
  4

  6

 40
0.0
 41
0.0
 42
0.0
 43
0.0
 44
0.0
 45
0.0
 46
0.0
 47
0.0
 48
0.0
 49
0.0
140
0.0
141
0.0
142
1.0
143
1.0
 70
   688
 72
     0
 73
     0
 74
     5
  7

 75
    16
 76
     0
 77
     2
 78
   300
147
1.0
148
0.0
149
0.0
100
AcDbLayout
  1
Layout2
 70
     1
 71
     2
 10
0.0
 20
0.0
 11
0.0
 21
0.0
 12
0.0
 22
0.0
 32
0.0
 14
0.0
 24
0.0
 34
0.0
 15
0.0
 25
0.0
 35
0.0
146
0.0
 13
0.0
 23
0.0
 33
0.0
 16
1.0
 26
0.0
 36
0.0
 17
0.0
 27
1.0
 37
0.0
 76
     0
330
23
  0
LAYOUT
  5
22
102
{ACAD_REACTORS
330
1A
102
}
330
1A
100
AcDbPlotSettings
  1

  2
none_device
  4

  6

 40
0.0
 41
0.0
 42
0.0
 43
0.0
 44
0.0
 45
0.0
 46
0.0
 47
0.0
 48
0.0
 49
0.0
140
0.0
141
0.0
142
1.0
143
1.0
 70
  1712
 72
     0
 73
     0
 74
     0
  7

 75
     0
 76
     0
 77
     2
 78
   300
147
1.0
148
0.0
149
0.0
100
AcDbLayout
  1
Model
 70
     1
 71
     0
 10
0.0
 20
0.0
 11
12.0
 21
9.0
 12
0.0
 22
0.0
 32
0.0
 14
1.000000000000000E+20
 24
1.000000000000000E+20
 34
1.000000000000000E+20
 15
-1.000000000000000E+20
 25
-1.000000000000000E+20
 35
-1.000000000000000E+20
146
0.0
 13
0.0
 23
0.0
 33
0.0
 16
1.0
 26
0.0
 36
0.0
 17
0.0
 27
1.0
 37
0.0
 76
     0
330
1F
331
29
  0
MATERIAL
  5
3D
102
{ACAD_REACTORS
330
3B
102
}
330
3B
100
AcDbMaterial
  1
ByBlock
 72
     1
 94
      127
  0
MATERIAL
  5
3C
102
{ACAD_REACTORS
330
3B
102
}
330
3B
100
AcDbMaterial
  1
ByLayer
 72
     1
 94
      127
  0
MATERIAL
  5
3E
102
{ACAD_REACTORS
330
3B
102
}
330
3B
100
AcDbMaterial
  1
Global
 72
     1
 94
      127
  0
MLINESTYLE
  5
18
102
{ACAD_REACTORS
330
17
102
}
330
17
100
AcDbMlineStyle
  2
Standard
 70
     0
  3

 62
   256
 51
90.0
 52
90.0
 71
     2
 49
0.5
 62
   256
  6
BYLAYER
 49
-0.5
 62
   256
  6
BYLAYER
  0
ACDBPLACEHOLDER
  5
F
102
{ACAD_REACTORS
330
E
102
}
330
E
  0
VISUALSTYLE
  5
2F
102
{ACAD_REACTORS
330
2A
102
}
330
2A
100
AcDbVisualStyle
  2
2dWireframe
 70
     4
177
     2
291
     0
 71
     0
176
     1
 72
     2
176
     1
 73
     0
176
     1
 90
        0
176
     1
 40
-0.6
176
     1
 41
-30.0
176
     1
 62
     5
 63
     7
421
 16777215
176
     1
 74
     1
176
     1
 91
        4
176
     1
 64
     7
176
     1
 65
   257
176
     1
 75
     1
176
     1
175
     1
176
     1
 42
1.0
176
     1
 92
        0
176
     1
 66
   257
176
     1
 43
1.0
176
     1
 76
     1
176
     1
 77
     6
176
     1
 78
     2
176
     1
 67
     7
176
     1
 79
     5
176
     1
170
     0
176
     1
171
     0
176
     1
290
     0
176
     1
 93
        1
176
     1
 44
0.0
176
     1
173
     0
176
     1
  0
VISUALSTYLE
  5
31
102
{ACAD_REACTORS
330
2A
102
}
330
2A
100
AcDbVisualStyle
  2
3D Hidden
 70
     6
177
     2
291
     0
 71
     1
176
     1
 72
     2
176
     1
 73
     2
176
     1
 90
        0
176
     1
 40
-0.6
176
     1
 41
-30.0
176
     1
 62
     5
 63
     7
421
 16777215
176
     1
 74
     2
176
     1
 91
        2
176
     1
 64
     7
176
     1
 65
   257
176
     1
 75
     2
176
     1
175
     1
176
     1
 42
40.0
176
     1
 92
        0
176
     1
 66
   257
176
     1
 43
1.0
176
     1
 76
     1
176
     1
 77
     6
176
     1
 78
     2
176
     1
 67
     7
176
     1
 79
     3
176
     1
170
     0
176
     1
171
     0
176
     1
290
     0
176
     1
 93
        1
176
     1
 44
0.0
176
     1
173
     0
176
     1
  0
VISUALSTYLE
  5
30
102
{ACAD_REACTORS
330
2A
102
}
330
2A
100
AcDbVisualStyle
  2
3dWireframe
 70
     5
177
     2
291
     0
 71
     0
176
     1
 72
     2
176
     1
 73
     0
176
     1
 90
        0
176
     1
 40
-0.6
176
     1
 41
-30.0
176
     1
 62
     5
 63
     7
421
 16777215
176
     1
 74
     1
176
     1
 91
        4
176
     1
 64
     7
176
     1
 65
   257
176
     1
 75
     1
176
     1
175
     1
176
     1
 42
1.0
176
     1
 92
        0
176
     1
 66
   257
176
     1
 43
1.0
176
     1
 76
     1
176
     1
 77
     6
176
     1
 78
     2
176
     1
 67
     7
176
     1
 79
     5
176
     1
170
     0
176
     1
171
     0
176
     1
290
     0
176
     1
 93
        1
176
     1
 44
0.0
176
     1
173
     0
176
     1
  0
VISUALSTYLE
  5
32
102
{ACAD_REACTORS
330
2A
102
}
330
2A
100
AcDbVisualStyle
  2
Basic
 70
     7
177
     2
291
     1
 71
     1
176
     1
 72
     0
176
     1
 73
     1
176
     1
 90
        0
176
     1
 40
-0.6
176
     1
 41
-30.0
176
     1
 62
     5
 63
     7
421
 16777215
176
     1
 74
     0
176
     1
 91
        4
176
     1
 64
     7
176
     1
 65
   257
176
     1
 75
     1
176
     1
175
     1
176
     1
 42
1.0
176
     1
 92
        8
176
     1
 66
     7
176
     1
 43
1.0
176
     1
 76
     1
176
     1
 77
     6
176
     1
 78
     2
176
     1
 67
     7
176
     1
 79
     5
176
     1
170
     0
176
     1
171
     0
176
     1
290
     0
176
     1
 93
        1
176
     1
 44
0.0
176
     1
173
     0
176
     1
  0
VISUALSTYLE
  5
36
102
{ACAD_REACTORS
330
2A
102
}
330
2A
100
AcDbVisualStyle
  2
Brighten
 70
    12
177
     2
291
     1
 71
     2
176
     1
 72
     2
176
     1
 73
     0
176
     1
 90
        0
176
     1
 40
-0.6
176
     1
 41
-30.0
176
     1
 62
     5
 63
     7
421
 16777215
176
     1
 74
     1
176
     1
 91
        4
176
     1
 64
     7
176
     1
 65
   257
176
     1
 75
     1
176
     1
175
     1
176
     1
 42
1.0
176
     1
 92
        8
176
     1
 66
     7
176
     1
 43
1.0
176
     1
 76
     1
176
     1
 77
     6
176
     1
 78
     2
176
     1
 67
     7
176
     1
 79
     5
176
     1
170
     0
176
     1
171
     0
176
     1
290
     0
176
     1
 93
        1
176
     1
 44
50.0
176
     1
173
     0
176
     1
  0
VISUALSTYLE
  5
3A
102
{ACAD_REACTORS
330
2A
102
}
330
2A
100
AcDbVisualStyle
  2
ColorChange
 70
    16
177
     2
291
     1
 71
     2
176
     1
 72
     2
176
     1
 73
     3
176
     1
 90
        0
176
     1
 40
-0.6
176
     1
 41
-30.0
176
     1
 62
     5
 63
     8
421
  8421504
176
     1
 74
     1
176
     1
 91
        4
176
     1
 64
     7
176
     1
 65
   257
176
     1
 75
     1
176
     1
175
     1
176
     1
 42
1.0
176
     1
 92
        8
176
     1
 66
     8
424
  8421504
176
     1
 43
1.0
176
     1
 76
     1
176
     1
 77
     6
176
     1
 78
     2
176
     1
 67
     7
176
     1
 79
     5
176
     1
170
     0
176
     1
171
     0
176
     1
290
     0
176
     1
 93
        1
176
     1
 44
0.0
176
     1
173
     0
176
     1
  0
VISUALSTYLE
  5
34
102
{ACAD_REACTORS
330
2A
102
}
330
2A
100
AcDbVisualStyle
  2
Conceptual
 70
     9
177
     2
291
     0
 71
     3
176
     1
 72
     2
176
     1
 73
     0
176
     1
 90
        0
176
     1
 40
-0.6
176
     1
 41
-30.0
176
     1
 62
     5
 63
     7
421
 16777215
176
     1
 74
     2
176
     1
 91
        2
176
     1
 64
     7
176
     1
 65
   257
176
     1
 75
     1
176
     1
175
     1
176
     1
 42
40.0
176
     1
 92
        8
176
     1
 66
     7
176
     1
 43
1.0
176
     1
 76
     1
176
     1
 77
     6
176
     1
 78
     2
176
     1
 67
     7
176
     1
 79
     3
176
     1
170
     0
176
     1
171
     0
176
     1
290
     0
176
     1
 93
        1
176
     1
 44
0.0
176
     1
173
     0
176
     1
  0
VISUALSTYLE
  5
35
102
{ACAD_REACTORS
330
2A
102
}
330
2A
100
AcDbVisualStyle
  2
Dim
 70
    11
177
     2
291
     1
 71
     2
176
     1
 72
     2
176
     1
 73
     0
176
     1
 90
        0
176
     1
 40
-0.6
176
     1
 41
-30.0
176
     1
 62
     5
 63
     7
421
 16777215
176
     1
 74
     1
176
     1
 91
        4
176
     1
 64
     7
176
     1
 65
   257
176
     1
 75
     1
176
     1
175
     1
176
     1
 42
1.0
176
     1
 92
        8
176
     1
 66
     7
176
     1
 43
1.0
176
     1
 76
     1
176
     1
 77
     6
176
     1
 78
     2
176
     1
 67
     7
176
     1
 79
     5
176
     1
170
     0
176
     1
171
     0
176
     1
290
     0
176
     1
 93
        1
176
     1
 44
-50.0
176
     1
173
     0
176
     1
  0
VISUALSTYLE
  5
39
102
{ACAD_REACTORS
330
2A
102
}
330
2A
100
AcDbVisualStyle
  2
Facepattern
 70
    15
177
     2
291
     1
 71
     2
176
     1
 72
     2
176
     1
 73
     0
176
     1
 90
        0
176
     1
 40
-0.6
176
     1
 41
-30.0
176
     1
 62
     5
 63
     7
421
 16777215
176
     1
 74
     1
176
     1
 91
        4
176
     1
 64
     7
176
     1
 65
   257
176
     1
 75
     1
176
     1
175
     1
176
     1
 42
1.0
176
     1
 92
        8
176
     1
 66
     7
176
     1
 43
1.0
176
     1
 76
     1
176
     1
 77
     6
176
     1
 78
     2
176
     1
 67
     7
176
     1
 79
     5
176
     1
170
     0
176
     1
171
     0
176
     1
290
     0
176
     1
 93
        1
176
     1
 44
0.0
176
     1
173
     0
176
     1
  0
VISUALSTYLE
  5
2B
102
{ACAD_REACTORS
330
2A
102
}
330
2A
100
AcDbVisualStyle
  2
Flat
 70
     0
177
     2
291
     1
 71
     2
176
     1
 72
     1
176
     1
 73
     1
176
     1
 90
        2
176
     1
 40
-0.6
176
     1
 41
30.0
176
     1
 62
     5
 63
     7
421
 16777215
176
     1
 74
     0
176
     1
 91
        4
176
     1
 64
     7
176
     1
 65
   257
176
     1
 75
     1
176
     1
175
     1
176
     1
 42
1.0
176
     1
 92
        8
176
     1
 66
     7
176
     1
 43
1.0
176
     1
 76
     1
176
     1
 77
     6
176
     1
 78
     2
176
     1
 67
     7
176
     1
 79
     5
176
     1
170
     0
176
     1
171
     0
176
     1
290
     0
176
     1
 93
       13
176
     1
 44
0.0
176
     1
173
     0
176
     1
  0
VISUALSTYLE
  5
2C
102
{ACAD_REACTORS
330
2A
102
}
330
2A
100
AcDbVisualStyle
  2
FlatWithEdges
 70
     1
177
     2
291
     1
 71
     2
176
     1
 72
     1
176
     1
 73
     1
176
     1
 90
        2
176
     1
 40
-0.6
176
     1
 41
30.0
176
     1
 62
     5
 63
     7
421
 16777215
176
     1
 74
     1
176
     1
 91
        4
176
     1
 64
     7
176
     1
 65
   257
176
     1
 75
     1
176
     1
175
     1
176
     1
 42
1.0
176
     1
 92
        0
176
     1
 66
   257
176
     1
 43
1.0
176
     1
 76
     1
176
     1
 77
     6
176
     1
 78
     2
176
     1
 67
     7
176
     1
 79
     5
176
     1
170
     0
176
     1
171
     0
176
     1
290
     0
176
     1
 93
       13
176
     1
 44
0.0
176
     1
173
     0
176
     1
  0
VISUALSTYLE
  5
2D
102
{ACAD_REACTORS
330
2A
102
}
330
2A
100
AcDbVisualStyle
  2
Gouraud
 70
     2
177
     2
291
     1
 71
     2
176
     1
 72
     2
176
     1
 73
     1
176
     1
 90
        2
176
     1
 40
-0.6
176
     1
 41
30.0
176
     1
 62
     5
 63
     7
421
 16777215
176
     1
 74
     0
176
     1
 91
        4
176
     1
 64
     7
176
     1
 65
   257
176
     1
 75
     1
176
     1
175
     1
176
     1
 42
1.0
176
     1
 92
        0
176
     1
 66
     7
176
     1
 43
1.0
176
     1
 76
     1
176
     1
 77
     6
176
     1
 78
     2
176
     1
 67
     7
176
     1
 79
     5
176
     1
170
     0
176
     1
171
     0
176
     1
290
     0
176
     1
 93
       13
176
     1
 44
0.0
176
     1
173
     0
176
     1
  0
VISUALSTYLE
  5
2E
102
{ACAD_REACTORS
330
2A
102
}
330
2A
100
AcDbVisualStyle
  2
GouraudWithEdges
 70
     3
177
     2
291
     1
 71
     2
176
     1
 72
     2
176
     1
 73
     1
176
     1
 90
        2
176
     1
 40
-0.6
176
     1
 41
30.0
176
     1
 62
     5
 63
     7
421
 16777215
176
     1
 74
     1
176
     1
 91
        4
176
     1
 64
     7
176
     1
 65
   257
176
     1
 75
     1
176
     1
175
     1
176
     1
 42
1.0
176
     1
 92
        0
176
     1
 66
   257
176
     1
 43
1.0
176
     1
 76
     1
176
     1
 77
     6
176
     1
 78
     2
176
     1
 67
     7
176
     1
 79
     5
176
     1
170
     0
176
     1
171
     0
176
     1
290
     0
176
     1
 93
       13
176
     1
 44
0.0
176
     1
173
     0
176
     1
  0
VISUALSTYLE
  5
38
102
{ACAD_REACTORS
330
2A
102
}
330
2A
100
AcDbVisualStyle
  2
Linepattern
 70
    14
177
     2
291
     1
 71
     2
176
     1
 72
     2
176
     1
 73
     0
176
     1
 90
        0
176
     1
 40
-0.6
176
     1
 41
-30.0
176
     1
 62
     5
 63
     7
421
 16777215
176
     1
 74
     1
176
     1
 91
        4
176
     1
 64
     7
176
     1
 65
   257
176
     1
 75
     7
176
     1
175
     7
176
     1
 42
1.0
176
     1
 92
        8
176
     1
 66
     7
176
     1
 43
1.0
176
     1
 76
     1
176
     1
 77
     6
176
     1
 78
     2
176
     1
 67
     7
176
     1
 79
     5
176
     1
170
     0
176
     1
171
     0
176
     1
290
     0
176
     1
 93
        1
176
     1
 44
0.0
176
     1
173
     0
176
     1
  0
VISUALSTYLE
  5
33
102
{ACAD_REACTORS
330
2A
102
}
330
2A
100
AcDbVisualStyle
  2
Realistic
 70
     8
177
     2
291
     0
 71
     2
176
     1
 72
     2
176
     1
 73
     0
176
     1
 90
        0
176
     1
 40
-0.6
176
     1
 41
-30.0
176
     1
 62
     5
 63
     7
421
 16777215
176
     1
 74
     1
176
     1
 91
        0
176
     1
 64
     7
176
     1
 65
   257
176
     1
 75
     1
176
     1
175
     1
176
     1
 42
1.0
176
     1
 92
        8
176
     1
 66
     8
424
  7895160
176
     1
 43
1.0
176
     1
 76
     1
176
     1
 77
     6
176
     1
 78
     2
176
     1
 67
     7
176
     1
 79
     5
176
     1
170
     0
176
     1
171
     0
176
     1
290
     0
176
     1
 93
       13
176
     1
 44
0.0
176
     1
173
     0
176
     1
  0
VISUALSTYLE
  5
37
102
{ACAD_REACTORS
330
2A
102
}
330
2A
100
AcDbVisualStyle
  2
Thicken
 70
    13
177
     2
291
     1
 71
     2
176
     1
 72
     2
176
     1
 73
     0
176
     1
 90
        0
176
     1
 40
-0.6
176
     1
 41
-30.0
176
     1
 62
     5
 63
     7
421
 16777215
176
     1
 74
     1
176
     1
 91
        4
176
     1
 64
     7
176
     1
 65
   257
176
     1
 75
     1
176
     1
175
     1
176
     1
 42
1.0
176
     1
 92
       12
176
     1
 66
     7
176
     1
 43
1.0
176
     1
 76
     1
176
     1
 77
     6
176
     1
 78
     2
176
     1
 67
     7
176
     1
 79
     5
176
     1
170
     0
176
     1
171
     0
176
     1
290
     0
176
     1
 93
        1
176
     1
 44
0.0
176
     1
173
     0
176
     1
  0
ENDSEC
  0
EOF
