  0
SECTION
  2
HEADER
  9
$ACADVER
  1
AC1024
  9
$ACADMAINTVER
 70
     6
  9
$DWGCODEPAGE
  3
UNDEFINED
  9
$INSBASE
 10
0.0
 20
0.0
 30
0.0
  9
$EXTMIN
 10
1.000000000000000E+20
 20
1.000000000000000E+20
 30
1.000000000000000E+20
  9
$EXTMAX
 10
-1.000000000000000E+20
 20
-1.000000000000000E+20
 30
-1.000000000000000E+20
  9
$LIMMIN
 10
0.0
 20
0.0
  9
$LIMMAX
 10
12.0
 20
9.0
  9
$ORTHOMODE
 70
     0
  9
$REGENMODE
 70
     1
  9
$FILLMODE
 70
     1
  9
$QTEXTMODE
 70
     0
  9
$MIRRTEXT
 70
     1
  9
$LTSCALE
 40
1.0
  9
$ATTMODE
 70
     1
  9
$TEXTSIZE
 40
0.2
  9
$TRACEWID
 40
0.05
  9
$TEXTSTYLE
  7
Standard
  9
$CLAYER
  8
0
  9
$CELTYPE
  6
ByLayer
  9
$CECOLOR
 62
   256
  9
$CELTSCALE
 40
1.0
  9
$DISPSILH
 70
     0
  9
$DIMSCALE
 40
1.0
  9
$DIMASZ
 40
0.18
  9
$DIMEXO
 40
0.0625
  9
$DIMDLI
 40
0.38
  9
$DIMRND
 40
0.0
  9
$DIMDLE
 40
0.0
  9
$DIMEXE
 40
0.18
  9
$DIMTP
 40
0.0
  9
$DIMTM
 40
0.0
  9
$DIMTXT
 40
0.18
  9
$DIMCEN
 40
0.09
  9
$DIMTSZ
 40
0.0
  9
$DIMTOL
 70
     0
  9
$DIMLIM
 70
     0
  9
$DIMTIH
 70
     1
  9
$DIMTOH
 70
     1
  9
$DIMSE1
 70
     0
  9
$DIMSE2
 70
     0
  9
$DIMTAD
 70
     0
  9
$DIMZIN
 70
     0
  9
$DIMBLK
  1

  9
$DIMASO
 70
     1
  9
$DIMSHO
 70
     1
  9
$DIMPOST
  1

  9
$DIMAPOST
  1

  9
$DIMALT
 70
     0
  9
$DIMALTD
 70
     2
  9
$DIMALTF
 40
25.4
  9
$DIMLFAC
 40
1.0
  9
$DIMTOFL
 70
     0
  9
$DIMTVP
 40
0.0
  9
$DIMTIX
 70
     0
  9
$DIMSOXD
 70
     0
  9
$DIMSAH
 70
     0
  9
$DIMBLK1
  1

  9
$DIMBLK2
  1

  9
$DIMSTYLE
  2
Standard
  9
$DIMCLRD
 70
     0
  9
$DIMCLRE
 70
     0
  9
$DIMCLRT
 70
     0
  9
$DIMTFAC
 40
1.0
  9
$DIMGAP
 40
0.09
  9
$DIMJUST
 70
     0
  9
$DIMSD1
 70
     0
  9
$DIMSD2
 70
     0
  9
$DIMTOLJ
 70
     1
  9
$DIMTZIN
 70
     0
  9
$DIMALTZ
 70
     0
  9
$DIMALTTZ
 70
     0
  9
$DIMUPT
 70
     0
  9
$DIMDEC
 70
     4
  9
$DIMTDEC
 70
     4
  9
$DIMALTU
 70
     2
  9
$DIMALTTD
 70
     2
  9
$DIMTXSTY
  7
Standard
  9
$DIMAUNIT
 70
     0
  9
$DIMADEC
 70
     0
  9
$DIMALTRND
 40
0.0
  9
$DIMAZIN
 70
     0
  9
$DIMDSEP
 70
    46
  9
$DIMATFIT
 70
     3
  9
$DIMFRAC
 70
     0
  9
$DIMLDRBLK
  1

  9
$DIMLUNIT
 70
     2
  9
$DIMLWD
 70
    -2
  9
$DIMLWE
 70
    -2
  9
$DIMTMOVE
 70
     0
  9
$DIMFXL
 40
1.0
  9
$DIMFXLON
 70
     0
  9
$DIMJOGANG
 40
0.7853981633974483
  9
$DIMTFILL
 70
     0
  9
$DIMTFILLCLR
 70
     0
  9
$DIMARCSYM
 70
     0
  9
$DIMLTYPE
  6

  9
$DIMLTEX1
  6

  9
$DIMLTEX2
  6

  9
$DIMTXTDIRECTION
 70
     0
  9
$LUNITS
 70
     2
  9
$LUPREC
 70
     4
  9
$SKETCHINC
 40
0.1
  9
$FILLETRAD
 40
0.5
  9
$AUNITS
 70
     0
  9
$AUPREC
 70
     0
  9
$MENU
  1
.
  9
$ELEVATION
 40
0.0
  9
$PELEVATION
 40
0.0
  9
$THICKNESS
 40
0.0
  9
$LIMCHECK
 70
     0
  9
$CHAMFERA
 40
0.5
  9
$CHAMFERB
 40
0.5
  9
$CHAMFERC
 40
1.0
  9
$CHAMFERD
 40
0.0
  9
$SKPOLY
 70
     0
  9
$TDCREATE
 40
2457917.599085636
  9
$TDUCREATE
 40
2457917.224085648
  9
$TDUPDATE
 40
2457917.599085636
  9
$TDUUPDATE
 40
2457917.224085648
  9
$TDINDWG
 40
0.0000000116
  9
$TDUSRTIMER
 40
0.0000000116
  9
$USRTIMER
 70
     1
  9
$ANGBASE
 50
0.0
  9
$ANGDIR
 70
     0
  9
$PDMODE
 70
     0
  9
$PDSIZE
 40
0.0
  9
$PLINEWID
 40
0.0
  9
$SPLFRAME
 70
     0
  9
$SPLINETYPE
 70
     6
  9
$SPLINESEGS
 70
     8
  9
$HANDSEED
  5
9C
  9
$SURFTAB1
 70
     6
  9
$SURFTAB2
 70
     6
  9
$SURFTYPE
 70
     6
  9
$SURFU
 70
     6
  9
$SURFV
 70
     6
  9
$UCSBASE
  2

  9
$UCSNAME
  2

  9
$UCSORG
 10
0.0
 20
0.0
 30
0.0
  9
$UCSXDIR
 10
1.0
 20
0.0
 30
0.0
  9
$UCSYDIR
 10
0.0
 20
1.0
 30
0.0
  9
$UCSORTHOREF
  2

  9
$UCSORTHOVIEW
 70
     0
  9
$UCSORGTOP
 10
0.0
 20
0.0
 30
0.0
  9
$UCSORGBOTTOM
 10
0.0
 20
0.0
 30
0.0
  9
$UCSORGLEFT
 10
0.0
 20
0.0
 30
0.0
  9
$UCSORGRIGHT
 10
0.0
 20
0.0
 30
0.0
  9
$UCSORGFRONT
 10
0.0
 20
0.0
 30
0.0
  9
$UCSORGBACK
 10
0.0
 20
0.0
 30
0.0
  9
$PUCSBASE
  2

  9
$PUCSNAME
  2

  9
$PUCSORG
 10
0.0
 20
0.0
 30
0.0
  9
$PUCSXDIR
 10
1.0
 20
0.0
 30
0.0
  9
$PUCSYDIR
 10
0.0
 20
1.0
 30
0.0
  9
$PUCSORTHOREF
  2

  9
$PUCSORTHOVIEW
 70
     0
  9
$PUCSORGTOP
 10
0.0
 20
0.0
 30
0.0
  9
$PUCSORGBOTTOM
 10
0.0
 20
0.0
 30
0.0
  9
$PUCSORGLEFT
 10
0.0
 20
0.0
 30
0.0
  9
$PUCSORGRIGHT
 10
0.0
 20
0.0
 30
0.0
  9
$PUCSORGFRONT
 10
0.0
 20
0.0
 30
0.0
  9
$PUCSORGBACK
 10
0.0
 20
0.0
 30
0.0
  9
$USERI1
 70
     0
  9
$USERI2
 70
     0
  9
$USERI3
 70
     0
  9
$USERI4
 70
     0
  9
$USERI5
 70
     0
  9
$USERR1
 40
0.0
  9
$USERR2
 40
0.0
  9
$USERR3
 40
0.0
  9
$USERR4
 40
0.0
  9
$USERR5
 40
0.0
  9
$WORLDVIEW
 70
     1
  9
$SHADEDGE
 70
     3
  9
$SHADEDIF
 70
    70
  9
$TILEMODE
 70
     1
  9
$MAXACTVP
 70
    64
  9
$PINSBASE
 10
0.0
 20
0.0
 30
0.0
  9
$PLIMCHECK
 70
     0
  9
$PEXTMIN
 10
1.000000000000000E+20
 20
1.000000000000000E+20
 30
1.000000000000000E+20
  9
$PEXTMAX
 10
-1.000000000000000E+20
 20
-1.000000000000000E+20
 30
-1.000000000000000E+20
  9
$PLIMMIN
 10
0.0
 20
0.0
  9
$PLIMMAX
 10
12.0
 20
9.0
  9
$UNITMODE
 70
     0
  9
$VISRETAIN
 70
     1
  9
$PLINEGEN
 70
     0
  9
$PSLTSCALE
 70
     1
  9
$TREEDEPTH
 70
  3020
  9
$CMLSTYLE
  2
Standard
  9
$CMLJUST
 70
     0
  9
$CMLSCALE
 40
1.0
  9
$PROXYGRAPHICS
 70
     1
  9
$MEASUREMENT
 70
     0
  9
$CELWEIGHT
370
    -1
  9
$ENDCAPS
280
     0
  9
$JOINSTYLE
280
     0
  9
$LWDISPLAY
290
     1
  9
$INSUNITS
 70
     1
  9
$HYPERLINKBASE
  1

  9
$STYLESHEET
  1

  9
$XEDIT
290
     1
  9
$CEPSNTYPE
380
     0
  9
$PSTYLEMODE
290
     1
  9
$FINGERPRINTGUID
  2
{FF181F1A-D13C-6FC8-DF31-65EDB441243F}
  9
$VERSIONGUID
  2
{FAEB1C32-E019-11D5-929B-00C0DF256EC4}
  9
$EXTNAMES
290
     1
  9
$PSVPSCALE
 40
0.0
  9
$OLESTARTUP
290
     0
  9
$SORTENTS
280
   127
  9
$INDEXCTL
280
     0
  9
$HIDETEXT
280
     1
  9
$XCLIPFRAME
280
     2
  9
$HALOGAP
280
     0
  9
$OBSCOLOR
 70
   257
  9
$OBSLTYPE
280
     0
  9
$INTERSECTIONDISPLAY
280
     0
  9
$INTERSECTIONCOLOR
 70
   257
  9
$DIMASSOC
280
     2
  9
$PROJECTNAME
  1

  9
$CAMERADISPLAY
290
     0
  9
$LENSLENGTH
 40
50.0
  9
$CAMERAHEIGHT
 40
0.0
  9
$STEPSPERSEC
 40
2.0
  9
$STEPSIZE
 40
6.0
  9
$3DDWFPREC
 40
2.0
  9
$PSOLWIDTH
 40
0.25
  9
$PSOLHEIGHT
 40
4.0
  9
$LOFTANG1
 40
1.570796326794897
  9
$LOFTANG2
 40
1.570796326794897
  9
$LOFTMAG1
 40
0.0
  9
$LOFTMAG2
 40
0.0
  9
$LOFTPARAM
 70
     7
  9
$LOFTNORMALS
280
     1
  9
$LATITUDE
 40
37.795
  9
$LONGITUDE
 40
-122.394
  9
$NORTHDIRECTION
 40
0.0
  9
$TIMEZONE
 70
 -8000
  9
$LIGHTGLYPHDISPLAY
280
     1
  9
$TILEMODELIGHTSYNCH
280
     1
  9
$CMATERIAL
347
3C
  9
$SOLIDHIST
280
     1
  9
$SHOWHIST
280
     1
  9
$DWFFRAME
280
     2
  9
$DGNFRAME
280
     2
  9
$REALWORLDSCALE
290
     1
  9
$INTERFERECOLOR
 62
   256
  9
$CSHADOW
280
     0
  9
$SHADOWPLANELOCATION
 40
0.0
  0
ENDSEC
  0
SECTION
  2
CLASSES
  0
CLASS
  1
ACDBDICTIONARYWDFLT
  2
AcDbDictionaryWithDefault
  3
ObjectDBX Classes
 90
        0
 91
        4
280
     0
281
     0
  0
CLASS
  1
VISUALSTYLE
  2
AcDbVisualStyle
  3
ObjectDBX Classes
 90
     4095
 91
        4
280
     0
281
     0
  0
CLASS
  1
MATERIAL
  2
AcDbMaterial
  3
ObjectDBX Classes
 90
     1153
 91
        4
280
     0
281
     0
  0
CLASS
  1
SUN
  2
AcDbSun
  3
SCENEOE
 90
     1024
 91
        4
280
     0
281
     0
  0
ENDSEC
  0
SECTION
  2
TABLES
  0
TABLE
  2
VPORT
  5
8
330
0
100
AcDbSymbolTable
 70
     1
  0
VPORT
  5
29
330
8
100
AcDbSymbolTableRecord
100
AcDbViewportTableRecord
  2
*Active
 70
     0
 10
0.0
 20
0.0
 11
1.0
 21
1.0
 12
0.0
 22
0.0
 13
0.0
 23
0.0
 14
0.5
 24
0.5
 15
0.5
 25
0.5
 16
0.0
 26
0.0
 36
1.0
 17
91.00082462281999
 27
-128.4993055234307
 37
0.0
 40
256.9986110468615
 41
0.7081814508812795
 42
50.0
 43
0.0
 44
0.0
 50
0.0
 51
0.0
 71
     0
 72
   100
 73
     1
 74
     3
 75
     0
 76
     0
 77
     0
 78
     0
281
     0
 65
     1
110
0.0
120
0.0
130
0.0
111
1.0
121
0.0
131
0.0
112
0.0
122
1.0
132
0.0
 79
     0
146
0.0
 60
     3
 61
     5
292
     1
282
     1
141
0.0
142
0.0
 63
   250
361
3F
  0
ENDTAB
  0
TABLE
  2
LTYPE
  5
5
330
0
100
AcDbSymbolTable
 70
     1
  0
LTYPE
  5
14
330
5
100
AcDbSymbolTableRecord
100
AcDbLinetypeTableRecord
  2
ByBlock
 70
     0
  3

 72
    65
 73
     0
 40
0.0
  0
LTYPE
  5
15
330
5
100
AcDbSymbolTableRecord
100
AcDbLinetypeTableRecord
  2
ByLayer
 70
     0
  3

 72
    65
 73
     0
 40
0.0
  0
LTYPE
  5
16
330
5
100
AcDbSymbolTableRecord
100
AcDbLinetypeTableRecord
  2
Continuous
 70
     0
  3
Solid line
 72
    65
 73
     0
 40
0.0
  0
ENDTAB
  0
TABLE
  2
LAYER
  5
2
330
0
100
AcDbSymbolTable
 70
     2
  0
LAYER
  5
10
330
2
100
AcDbSymbolTableRecord
100
AcDbLayerTableRecord
  2
0
 70
     0
 62
     7
  6
Continuous
370
    -3
390
F
347
3E
  0
LAYER
  5
40
330
2
100
AcDbSymbolTableRecord
100
AcDbLayerTableRecord
  2
_U+30EC_U+30A4_U+30E4_U+30FC 1
 70
     0
 62
     7
  6
Continuous
370
    -3
390
F
347
3E
  0
ENDTAB
  0
TABLE
  2
STYLE
  5
3
330
0
100
AcDbSymbolTable
 70
     1
  0
STYLE
  5
11
330
3
100
AcDbSymbolTableRecord
100
AcDbTextStyleTableRecord
  2
Standard
 70
     0
 40
0.0
 41
1.0
 50
0.0
 71
     0
 42
0.2
  3
txt
  4

  0
ENDTAB
  0
TABLE
  2
VIEW
  5
6
330
0
100
AcDbSymbolTable
 70
     0
  0
ENDTAB
  0
TABLE
  2
UCS
  5
7
330
0
100
AcDbSymbolTable
 70
     0
  0
ENDTAB
  0
TABLE
  2
APPID
  5
9
330
0
100
AcDbSymbolTable
 70
     1
  0
APPID
  5
12
330
9
100
AcDbSymbolTableRecord
100
AcDbRegAppTableRecord
  2
ACAD
 70
     0
  0
ENDTAB
  0
TABLE
  2
DIMSTYLE
  5
A
330
0
100
AcDbSymbolTable
 70
     1
100
AcDbDimStyleTable
  0
DIMSTYLE
105
27
330
A
100
AcDbSymbolTableRecord
100
AcDbDimStyleTableRecord
  2
Standard
 70
     0
178
     0
340
11
  0
ENDTAB
  0
TABLE
  2
BLOCK_RECORD
  5
1
330
0
100
AcDbSymbolTable
 70
     5
  0
BLOCK_RECORD
  5
1F
330
1
100
AcDbSymbolTableRecord
100
AcDbBlockTableRecord
  2
*Model_Space
340
22
 70
     0
280
     1
281
     0
  0
BLOCK_RECORD
  5
1B
330
1
100
AcDbSymbolTableRecord
100
AcDbBlockTableRecord
  2
*Paper_Space
340
1E
 70
     0
280
     1
281
     0
  0
BLOCK_RECORD
  5
23
330
1
100
AcDbSymbolTableRecord
100
AcDbBlockTableRecord
  2
*Paper_Space0
340
26
 70
     0
280
     1
281
     0
  0
BLOCK_RECORD
  5
4F
330
1
100
AcDbSymbolTableRecord
100
AcDbBlockTableRecord
  2
block 2
340
0
102
{BLKREFS
331
50
102
}
 70
     0
280
     1
281
     0
  0
BLOCK_RECORD
  5
71
330
1
100
AcDbSymbolTableRecord
100
AcDbBlockTableRecord
  2
block 3
340
0
102
{BLKREFS
331
72
102
}
 70
     0
280
     1
281
     0
  0
BLOCK_RECORD
  5
7A
330
1
100
AcDbSymbolTableRecord
100
AcDbBlockTableRecord
  2
block 4
340
0
102
{BLKREFS
331
7B
102
}
 70
     0
280
     1
281
     0
  0
BLOCK_RECORD
  5
83
330
1
100
AcDbSymbolTableRecord
100
AcDbBlockTableRecord
  2
block 5
340
0
102
{BLKREFS
331
84
102
}
 70
     0
280
     1
281
     0
  0
ENDTAB
  0
ENDSEC
  0
SECTION
  2
BLOCKS
  0
BLOCK
  5
20
330
1F
100
AcDbEntity
  8
0
100
AcDbBlockBegin
  2
*Model_Space
 70
     0
 10
0.0
 20
0.0
 30
0.0
  3
*Model_Space
  1

  0
ENDBLK
  5
21
330
1F
100
AcDbEntity
  8
0
100
AcDbBlockEnd
  0
BLOCK
  5
1C
330
1B
100
AcDbEntity
 67
     1
  8
0
100
AcDbBlockBegin
  2
*Paper_Space
 70
     0
 10
0.0
 20
0.0
 30
0.0
  3
*Paper_Space
  1

  0
ENDBLK
  5
1D
330
1B
100
AcDbEntity
 67
     1
  8
0
100
AcDbBlockEnd
  0
BLOCK
  5
24
330
23
100
AcDbEntity
  8
0
100
AcDbBlockBegin
  2
*Paper_Space0
 70
     0
 10
0.0
 20
0.0
 30
0.0
  3
*Paper_Space0
  1

  0
ENDBLK
  5
25
330
23
100
AcDbEntity
  8
0
100
AcDbBlockEnd
  0
BLOCK
  5
51
330
4F
100
AcDbEntity
  8
0
100
AcDbBlockBegin
  2
block 2
 70
     0
 10
0.0
 20
0.0
 30
0.0
  3
block 2
  1

  0
SPLINE
  5
53
330
4F
100
AcDbEntity
  8
_U+30EC_U+30A4_U+30E4_U+30FC 1
370
     0
100
AcDbSpline
210
0.0
220
0.0
230
1.0
 70
    11
 71
     3
 72
    62
 73
    58
 74
     0
 42
0.0000000001
 43
0.0000000001
 12
1.0
 22
0.0
 32
0.0
 13
1.0
 23
0.0
 33
0.0
 40
0.0
 40
0.0
 40
0.0
 40
0.0
 40
1.0
 40
1.0
 40
1.0
 40
2.0
 40
2.0
 40
2.0
 40
3.0
 40
3.0
 40
3.0
 40
4.0
 40
4.0
 40
4.0
 40
5.0
 40
5.0
 40
5.0
 40
6.0
 40
6.0
 40
6.0
 40
7.0
 40
7.0
 40
7.0
 40
8.0
 40
8.0
 40
8.0
 40
9.0
 40
9.0
 40
9.0
 40
10.0
 40
10.0
 40
10.0
 40
11.0
 40
11.0
 40
11.0
 40
12.0
 40
12.0
 40
12.0
 40
13.0
 40
13.0
 40
13.0
 40
14.0
 40
14.0
 40
14.0
 40
15.0
 40
15.0
 40
15.0
 40
16.0
 40
16.0
 40
16.0
 40
17.0
 40
17.0
 40
17.0
 40
18.0
 40
18.0
 40
18.0
 40
19.0
 40
19.0
 40
19.0
 40
19.0
 10
110.1772542042265
 20
-139.520165980745
 30
0.0
 10
110.1772542042265
 20
-139.6155951256864
 30
0.0
 10
110.1562391217665
 20
-139.8333251603542
 30
0.0
 10
109.970203965563
 20
-139.9583821264687
 30
0.0
 10
109.8578938527439
 20
-140.0321071698531
 30
0.0
 10
109.7586751027687
 20
-140.0365857939839
 30
0.0
 10
109.6739257538315
 20
-140.0407199085662
 30
0.0
 10
109.6739257538315
 20
-140.0407199085662
 30
0.0
 10
109.6739257538315
 20
-139.8205783070588
 30
0.0
 10
109.6739257538315
 20
-139.8205783070588
 30
0.0
 10
109.7479953067644
 20
-139.8185112497676
 30
0.0
 10
109.9826063093099
 20
-139.8081759633118
 30
0.0
 10
109.9826063093099
 20
-139.5246446048758
 30
0.0
 10
109.9826063093099
 20
-139.3871852950143
 30
0.0
 10
109.9130153805079
 20
-139.2345675650178
 30
0.0
 10
109.6846055498358
 20
-139.2345675650178
 30
0.0
 10
109.5681613224343
 20
-139.2345675650178
 30
0.0
 10
109.5195854760923
 20
-139.272808124904
 30
0.0
 10
109.487890597628
 20
-139.3045030033683
 30
0.0
 10
109.4138210446952
 20
-139.3785725563012
 30
0.0
 10
109.4010741913997
 20
-139.4950167837027
 30
0.0
 10
109.4010741913997
 20
-139.5497938019181
 30
0.0
 10
109.4010741913997
 20
-139.5690863366355
 30
0.0
 10
109.4031412486909
 20
-139.6049153296821
 30
0.0
 10
109.4072753632732
 20
-139.6324760935641
 30
0.0
 10
109.4072753632732
 20
-139.6324760935641
 30
0.0
 10
109.2126274683566
 20
-139.6324760935641
 30
0.0
 10
109.2126274683566
 20
-139.6324760935641
 30
0.0
 10
109.2191731497785
 20
-139.5942355336778
 30
0.0
 10
109.2212402070697
 20
-139.5522053687578
 30
0.0
 10
109.2212402070697
 20
-139.5456596873358
 30
0.0
 10
109.2212402070697
 20
-139.4802028731161
 30
0.0
 10
109.1998806150611
 20
-139.2814208636171
 30
0.0
 10
108.9632025552245
 20
-139.2814208636171
 30
0.0
 10
108.7854356281856
 20
-139.2814208636171
 30
0.0
 10
108.7303141004216
 20
-139.4123344920567
 30
0.0
 10
108.7303141004216
 20
-139.5225775475846
 30
0.0
 10
108.7303141004216
 20
-139.7868163713033
 30
0.0
 10
108.9632025552245
 20
-139.7954291100164
 30
0.0
 10
109.0348605413177
 20
-139.7995632245987
 30
0.0
 10
109.0348605413177
 20
-139.7995632245987
 30
0.0
 10
109.0348605413177
 20
-140.0028238582285
 30
0.0
 10
109.0348605413177
 20
-140.0028238582285
 30
0.0
 10
108.9101480847516
 20
-139.9942111195153
 30
0.0
 10
108.5335991482138
 20
-139.9666503556333
 30
0.0
 10
108.5335991482138
 20
-139.5098306942892
 30
0.0
 10
108.5335991482138
 20
-139.2855549781995
 30
0.0
 10
108.6607231716196
 20
-139.044398294232
 30
0.0
 10
108.9566568738025
 20
-139.044398294232
 30
0.0
 10
109.1430365395545
 20
-139.044398294232
 30
0.0
 10
109.225374321652
 20
-139.1394829296248
 30
0.0
 10
109.2866970212894
 20
-139.2390461891486
 30
0.0
 10
109.3142577851714
 20
-139.1777234895111
 30
0.0
 10
109.3945285099778
 20
-138.9958224478899
 30
0.0
 10
109.6718586965404
 20
-138.9958224478899
 30
0.0
 10
110.0101670731919
 20
-138.9958224478899
 30
0.0
 10
110.1772542042265
 20
-139.2431803037309
 30
0.0
 10
110.1772542042265
 20
-139.520165980745
 30
0.0
  0
HATCH
  5
54
330
4F
100
AcDbEntity
  8
_U+30EC_U+30A4_U+30E4_U+30FC 1
 62
   179
420
  2234388
100
AcDbHatch
 10
0.0
 20
0.0
 30
0.0
210
0.0
220
0.0
230
1.0
  2
SOLID
 70
     1
 71
     0
 91
        1
 92
        1
 93
        1
 72
     4
 94
        3
 73
     0
 74
     1
 95
       62
 96
       58
 40
0.0
 40
0.0
 40
0.0
 40
0.0
 40
1.0
 40
1.0
 40
1.0
 40
2.0
 40
2.0
 40
2.0
 40
3.0
 40
3.0
 40
3.0
 40
4.0
 40
4.0
 40
4.0
 40
5.0
 40
5.0
 40
5.0
 40
6.0
 40
6.0
 40
6.0
 40
7.0
 40
7.0
 40
7.0
 40
8.0
 40
8.0
 40
8.0
 40
9.0
 40
9.0
 40
9.0
 40
10.0
 40
10.0
 40
10.0
 40
11.0
 40
11.0
 40
11.0
 40
12.0
 40
12.0
 40
12.0
 40
13.0
 40
13.0
 40
13.0
 40
14.0
 40
14.0
 40
14.0
 40
15.0
 40
15.0
 40
15.0
 40
16.0
 40
16.0
 40
16.0
 40
17.0
 40
17.0
 40
17.0
 40
18.0
 40
18.0
 40
18.0
 40
19.0
 40
19.0
 40
19.0
 40
19.0
 10
110.1772542042265
 20
-139.520165980745
 10
110.1772542042265
 20
-139.6155951256864
 10
110.1562391217665
 20
-139.8333251603542
 10
109.970203965563
 20
-139.9583821264687
 10
109.8578938527439
 20
-140.0321071698531
 10
109.7586751027687
 20
-140.0365857939839
 10
109.6739257538315
 20
-140.0407199085662
 10
109.6739257538315
 20
-140.0407199085662
 10
109.6739257538315
 20
-139.8205783070588
 10
109.6739257538315
 20
-139.8205783070588
 10
109.7479953067644
 20
-139.8185112497676
 10
109.9826063093099
 20
-139.8081759633118
 10
109.9826063093099
 20
-139.5246446048758
 10
109.9826063093099
 20
-139.3871852950143
 10
109.9130153805079
 20
-139.2345675650178
 10
109.6846055498358
 20
-139.2345675650178
 10
109.5681613224343
 20
-139.2345675650178
 10
109.5195854760923
 20
-139.272808124904
 10
109.487890597628
 20
-139.3045030033683
 10
109.4138210446952
 20
-139.3785725563012
 10
109.4010741913997
 20
-139.4950167837027
 10
109.4010741913997
 20
-139.5497938019181
 10
109.4010741913997
 20
-139.5690863366355
 10
109.4031412486909
 20
-139.6049153296821
 10
109.4072753632732
 20
-139.6324760935641
 10
109.4072753632732
 20
-139.6324760935641
 10
109.2126274683566
 20
-139.6324760935641
 10
109.2126274683566
 20
-139.6324760935641
 10
109.2191731497785
 20
-139.5942355336778
 10
109.2212402070697
 20
-139.5522053687578
 10
109.2212402070697
 20
-139.5456596873358
 10
109.2212402070697
 20
-139.4802028731161
 10
109.1998806150611
 20
-139.2814208636171
 10
108.9632025552245
 20
-139.2814208636171
 10
108.7854356281856
 20
-139.2814208636171
 10
108.7303141004216
 20
-139.4123344920567
 10
108.7303141004216
 20
-139.5225775475846
 10
108.7303141004216
 20
-139.7868163713033
 10
108.9632025552245
 20
-139.7954291100164
 10
109.0348605413177
 20
-139.7995632245987
 10
109.0348605413177
 20
-139.7995632245987
 10
109.0348605413177
 20
-140.0028238582285
 10
109.0348605413177
 20
-140.0028238582285
 10
108.9101480847516
 20
-139.9942111195153
 10
108.5335991482138
 20
-139.9666503556333
 10
108.5335991482138
 20
-139.5098306942892
 10
108.5335991482138
 20
-139.2855549781995
 10
108.6607231716196
 20
-139.044398294232
 10
108.9566568738025
 20
-139.044398294232
 10
109.1430365395545
 20
-139.044398294232
 10
109.225374321652
 20
-139.1394829296248
 10
109.2866970212894
 20
-139.2390461891486
 10
109.3142577851714
 20
-139.1777234895111
 10
109.3945285099778
 20
-138.9958224478899
 10
109.6718586965404
 20
-138.9958224478899
 10
110.0101670731919
 20
-138.9958224478899
 10
110.1772542042265
 20
-139.2431803037309
 10
110.1772542042265
 20
-139.520165980745
 97
        0
 97
        0
 75
     2
 76
     1
 98
        0
  0
ENDBLK
  5
52
330
4F
100
AcDbEntity
  8
0
100
AcDbBlockEnd
  0
BLOCK
  5
73
330
71
100
AcDbEntity
  8
0
100
AcDbBlockBegin
  2
block 3
 70
     0
 10
0.0
 20
0.0
 30
0.0
  3
block 3
  1

  0
SPLINE
  5
75
330
71
100
AcDbEntity
  8
_U+30EC_U+30A4_U+30E4_U+30FC 1
370
     0
100
AcDbSpline
210
0.0
220
0.0
230
1.0
 70
    11
 71
     3
 72
    62
 73
    58
 74
     0
 42
0.0000000001
 43
0.0000000001
 12
1.0
 22
0.0
 32
0.0
 13
1.0
 23
0.0
 33
0.0
 40
0.0
 40
0.0
 40
0.0
 40
0.0
 40
1.0
 40
1.0
 40
1.0
 40
2.0
 40
2.0
 40
2.0
 40
3.0
 40
3.0
 40
3.0
 40
4.0
 40
4.0
 40
4.0
 40
5.0
 40
5.0
 40
5.0
 40
6.0
 40
6.0
 40
6.0
 40
7.0
 40
7.0
 40
7.0
 40
8.0
 40
8.0
 40
8.0
 40
9.0
 40
9.0
 40
9.0
 40
10.0
 40
10.0
 40
10.0
 40
11.0
 40
11.0
 40
11.0
 40
12.0
 40
12.0
 40
12.0
 40
13.0
 40
13.0
 40
13.0
 40
14.0
 40
14.0
 40
14.0
 40
15.0
 40
15.0
 40
15.0
 40
16.0
 40
16.0
 40
16.0
 40
17.0
 40
17.0
 40
17.0
 40
18.0
 40
18.0
 40
18.0
 40
19.0
 40
19.0
 40
19.0
 40
19.0
 10
91.23749726451702
 20
-144.4652560402726
 30
0.0
 10
91.1420681195756
 20
-144.4652560402726
 30
0.0
 10
90.9243380849078
 20
-144.4442409578126
 30
0.0
 10
90.79928111879325
 20
-144.2582058016091
 30
0.0
 10
90.72555607540889
 20
-144.1458956887899
 30
0.0
 10
90.72107745127806
 20
-144.0466769388147
 30
0.0
 10
90.71694333669576
 20
-143.9619275898776
 30
0.0
 10
90.71694333669576
 20
-143.9619275898776
 30
0.0
 10
90.93708493820323
 20
-143.9619275898776
 30
0.0
 10
90.93708493820323
 20
-143.9619275898776
 30
0.0
 10
90.93915199549438
 20
-144.0359971428105
 30
0.0
 10
90.94948728195013
 20
-144.270608145356
 30
0.0
 10
91.23301864038619
 20
-144.270608145356
 30
0.0
 10
91.37047795024766
 20
-144.270608145356
 30
0.0
 10
91.52309568024423
 20
-144.2010172165539
 30
0.0
 10
91.52309568024423
 20
-143.9726073858818
 30
0.0
 10
91.52309568024423
 20
-143.8561631584804
 30
0.0
 10
91.48485512035796
 20
-143.8075873121384
 30
0.0
 10
91.45316024189366
 20
-143.7758924336741
 30
0.0
 10
91.37909068896079
 20
-143.7018228807412
 30
0.0
 10
91.26264646155934
 20
-143.6890760274458
 30
0.0
 10
91.20786944334387
 20
-143.6890760274458
 30
0.0
 10
91.18857690862647
 20
-143.6890760274458
 30
0.0
 10
91.15274791557987
 20
-143.691143084737
 30
0.0
 10
91.12518715169787
 20
-143.6952771993192
 30
0.0
 10
91.12518715169787
 20
-143.6952771993192
 30
0.0
 10
91.12518715169787
 20
-143.5006293044026
 30
0.0
 10
91.12518715169787
 20
-143.5006293044026
 30
0.0
 10
91.16342771158415
 20
-143.5071749858246
 30
0.0
 10
91.2054578765042
 20
-143.5092420431158
 30
0.0
 10
91.21200355792617
 20
-143.5092420431158
 30
0.0
 10
91.27746037214591
 20
-143.5092420431158
 30
0.0
 10
91.47624238164484
 20
-143.4878824511072
 30
0.0
 10
91.47624238164484
 20
-143.2512043912705
 30
0.0
 10
91.47624238164484
 20
-143.0734374642317
 30
0.0
 10
91.34532875320534
 20
-143.0183159364676
 30
0.0
 10
91.23508569767735
 20
-143.0183159364676
 30
0.0
 10
90.97084687395868
 20
-143.0183159364676
 30
0.0
 10
90.96223413524555
 20
-143.2512043912705
 30
0.0
 10
90.95810002066325
 20
-143.3228623773637
 30
0.0
 10
90.95810002066325
 20
-143.3228623773637
 30
0.0
 10
90.75483938703351
 20
-143.3228623773637
 30
0.0
 10
90.75483938703351
 20
-143.3228623773637
 30
0.0
 10
90.76345212574664
 20
-143.1981499207977
 30
0.0
 10
90.79101288962865
 20
-142.8216009842599
 30
0.0
 10
91.24783255097277
 20
-142.8216009842599
 30
0.0
 10
91.47210826706254
 20
-142.8216009842599
 30
0.0
 10
91.71326495103003
 20
-142.9487250076656
 30
0.0
 10
91.71326495103003
 20
-143.2446587098486
 30
0.0
 10
91.71326495103003
 20
-143.4310383756006
 30
0.0
 10
91.61818031563712
 20
-143.513376157698
 30
0.0
 10
91.5186170561134
 20
-143.5746988573355
 30
0.0
 10
91.57993975575086
 20
-143.6022596212175
 30
0.0
 10
91.76184079737205
 20
-143.6825303460238
 30
0.0
 10
91.76184079737205
 20
-143.9598605325864
 30
0.0
 10
91.76184079737205
 20
-144.298168909238
 30
0.0
 10
91.5144829415311
 20
-144.4652560402726
 30
0.0
 10
91.23749726451702
 20
-144.4652560402726
 30
0.0
  0
HATCH
  5
76
330
71
100
AcDbEntity
  8
_U+30EC_U+30A4_U+30E4_U+30FC 1
 62
   179
420
  2234388
100
AcDbHatch
 10
0.0
 20
0.0
 30
0.0
210
0.0
220
0.0
230
1.0
  2
SOLID
 70
     1
 71
     0
 91
        1
 92
        1
 93
        1
 72
     4
 94
        3
 73
     0
 74
     1
 95
       62
 96
       58
 40
0.0
 40
0.0
 40
0.0
 40
0.0
 40
1.0
 40
1.0
 40
1.0
 40
2.0
 40
2.0
 40
2.0
 40
3.0
 40
3.0
 40
3.0
 40
4.0
 40
4.0
 40
4.0
 40
5.0
 40
5.0
 40
5.0
 40
6.0
 40
6.0
 40
6.0
 40
7.0
 40
7.0
 40
7.0
 40
8.0
 40
8.0
 40
8.0
 40
9.0
 40
9.0
 40
9.0
 40
10.0
 40
10.0
 40
10.0
 40
11.0
 40
11.0
 40
11.0
 40
12.0
 40
12.0
 40
12.0
 40
13.0
 40
13.0
 40
13.0
 40
14.0
 40
14.0
 40
14.0
 40
15.0
 40
15.0
 40
15.0
 40
16.0
 40
16.0
 40
16.0
 40
17.0
 40
17.0
 40
17.0
 40
18.0
 40
18.0
 40
18.0
 40
19.0
 40
19.0
 40
19.0
 40
19.0
 10
91.23749726451702
 20
-144.4652560402726
 10
91.1420681195756
 20
-144.4652560402726
 10
90.9243380849078
 20
-144.4442409578126
 10
90.79928111879325
 20
-144.2582058016091
 10
90.72555607540889
 20
-144.1458956887899
 10
90.72107745127806
 20
-144.0466769388147
 10
90.71694333669576
 20
-143.9619275898776
 10
90.71694333669576
 20
-143.9619275898776
 10
90.93708493820323
 20
-143.9619275898776
 10
90.93708493820323
 20
-143.9619275898776
 10
90.93915199549438
 20
-144.0359971428105
 10
90.94948728195013
 20
-144.270608145356
 10
91.23301864038619
 20
-144.270608145356
 10
91.37047795024766
 20
-144.270608145356
 10
91.52309568024423
 20
-144.2010172165539
 10
91.52309568024423
 20
-143.9726073858818
 10
91.52309568024423
 20
-143.8561631584804
 10
91.48485512035796
 20
-143.8075873121384
 10
91.45316024189366
 20
-143.7758924336741
 10
91.37909068896079
 20
-143.7018228807412
 10
91.26264646155934
 20
-143.6890760274458
 10
91.20786944334387
 20
-143.6890760274458
 10
91.18857690862647
 20
-143.6890760274458
 10
91.15274791557987
 20
-143.691143084737
 10
91.12518715169787
 20
-143.6952771993192
 10
91.12518715169787
 20
-143.6952771993192
 10
91.12518715169787
 20
-143.5006293044026
 10
91.12518715169787
 20
-143.5006293044026
 10
91.16342771158415
 20
-143.5071749858246
 10
91.2054578765042
 20
-143.5092420431158
 10
91.21200355792617
 20
-143.5092420431158
 10
91.27746037214591
 20
-143.5092420431158
 10
91.47624238164484
 20
-143.4878824511072
 10
91.47624238164484
 20
-143.2512043912705
 10
91.47624238164484
 20
-143.0734374642317
 10
91.34532875320534
 20
-143.0183159364676
 10
91.23508569767735
 20
-143.0183159364676
 10
90.97084687395868
 20
-143.0183159364676
 10
90.96223413524555
 20
-143.2512043912705
 10
90.95810002066325
 20
-143.3228623773637
 10
90.95810002066325
 20
-143.3228623773637
 10
90.75483938703351
 20
-143.3228623773637
 10
90.75483938703351
 20
-143.3228623773637
 10
90.76345212574664
 20
-143.1981499207977
 10
90.79101288962865
 20
-142.8216009842599
 10
91.24783255097277
 20
-142.8216009842599
 10
91.47210826706254
 20
-142.8216009842599
 10
91.71326495103003
 20
-142.9487250076656
 10
91.71326495103003
 20
-143.2446587098486
 10
91.71326495103003
 20
-143.4310383756006
 10
91.61818031563712
 20
-143.513376157698
 10
91.5186170561134
 20
-143.5746988573355
 10
91.57993975575086
 20
-143.6022596212175
 10
91.76184079737205
 20
-143.6825303460238
 10
91.76184079737205
 20
-143.9598605325864
 10
91.76184079737205
 20
-144.298168909238
 10
91.5144829415311
 20
-144.4652560402726
 10
91.23749726451702
 20
-144.4652560402726
 97
        0
 97
        0
 75
     2
 76
     1
 98
        0
  0
SPLINE
  5
77
330
71
100
AcDbEntity
  8
_U+30EC_U+30A4_U+30E4_U+30FC 1
370
     0
100
AcDbSpline
210
0.0
220
0.0
230
1.0
 70
    11
 71
     3
 72
    29
 73
    25
 74
     0
 42
0.0000000001
 43
0.0000000001
 12
1.0
 22
0.0
 32
0.0
 13
1.0
 23
0.0
 33
0.0
 40
0.0
 40
0.0
 40
0.0
 40
0.0
 40
1.0
 40
1.0
 40
1.0
 40
2.0
 40
2.0
 40
2.0
 40
3.0
 40
3.0
 40
3.0
 40
4.0
 40
4.0
 40
4.0
 40
5.0
 40
5.0
 40
5.0
 40
6.0
 40
6.0
 40
6.0
 40
7.0
 40
7.0
 40
7.0
 40
8.0
 40
8.0
 40
8.0
 40
8.0
 10
92.82051863998932
 20
-144.2368462096005
 30
0.0
 10
92.71234264175247
 20
-144.4463080151037
 30
0.0
 10
92.53905433884441
 20
-144.4652560402726
 30
0.0
 10
92.42261011144296
 20
-144.4652560402726
 30
0.0
 10
92.2617241522818
 20
-144.4652560402726
 30
0.0
 10
92.12013072783803
 20
-144.4187472512217
 30
0.0
 10
92.02504609244514
 20
-144.2368462096005
 30
0.0
 10
91.92134871833912
 20
-144.0421983146839
 30
0.0
 10
91.90240069317024
 20
-143.8055202548472
 30
0.0
 10
91.90240069317024
 20
-143.6425672383949
 30
0.0
 10
91.90240069317024
 20
-143.4985622471115
 30
0.0
 10
91.91928166104796
 20
-143.2467257671397
 30
0.0
 10
92.02504609244514
 20
-143.0479437576408
 30
0.0
 10
92.13287758113346
 20
-142.8450276335596
 30
0.0
 10
92.29376354029462
 20
-142.8216009842599
 30
0.0
 10
92.42261011144296
 20
-142.8216009842599
 30
0.0
 10
92.58142901331298
 20
-142.8216009842599
 30
0.0
 10
92.7250894950479
 20
-142.8660427160196
 30
0.0
 10
92.82051863998932
 20
-143.0479437576408
 30
0.0
 10
92.91973738996451
 20
-143.2405245952663
 30
0.0
 10
92.94316403926422
 20
-143.4689344259383
 30
0.0
 10
92.94316403926422
 20
-143.6425672383949
 30
0.0
 10
92.94316403926422
 20
-143.8137884840118
 30
0.0
 10
92.92180444725567
 20
-144.0442653719751
 30
0.0
 10
92.82051863998932
 20
-144.2368462096005
 30
0.0
  0
SPLINE
  5
78
330
71
100
AcDbEntity
  8
_U+30EC_U+30A4_U+30E4_U+30FC 1
370
     0
100
AcDbSpline
210
0.0
220
0.0
230
1.0
 70
    11
 71
     3
 72
    17
 73
    13
 74
     0
 42
0.0000000001
 43
0.0000000001
 12
1.0
 22
0.0
 32
0.0
 13
1.0
 23
0.0
 33
0.0
 40
0.0
 40
0.0
 40
0.0
 40
0.0
 40
1.0
 40
1.0
 40
1.0
 40
2.0
 40
2.0
 40
2.0
 40
3.0
 40
3.0
 40
3.0
 40
4.0
 40
4.0
 40
4.0
 40
4.0
 10
92.42261011144296
 20
-143.0141818218854
 30
0.0
 10
92.17318519831088
 20
-143.0141818218854
 30
0.0
 10
92.12633189971147
 20
-143.2977131803214
 30
0.0
 10
92.12633189971147
 20
-143.6425672383949
 30
0.0
 10
92.12633189971147
 20
-143.9619275898776
 30
0.0
 10
92.1625054023066
 20
-144.270608145356
 30
0.0
 10
92.42261011144296
 20
-144.270608145356
 30
0.0
 10
92.67031247683242
 20
-144.270608145356
 30
0.0
 10
92.71888832317445
 20
-143.9894883537596
 30
0.0
 10
92.71888832317445
 20
-143.6425672383949
 30
0.0
 10
92.71888832317445
 20
-143.3228623773637
 30
0.0
 10
92.68064776328818
 20
-143.0141818218854
 30
0.0
 10
92.42261011144296
 20
-143.0141818218854
 30
0.0
  0
HATCH
  5
79
330
71
100
AcDbEntity
  8
_U+30EC_U+30A4_U+30E4_U+30FC 1
 62
   179
420
  2234388
100
AcDbHatch
 10
0.0
 20
0.0
 30
0.0
210
0.0
220
0.0
230
1.0
  2
SOLID
 70
     1
 71
     0
 91
        2
 92
        1
 93
        1
 72
     4
 94
        3
 73
     0
 74
     1
 95
       29
 96
       25
 40
0.0
 40
0.0
 40
0.0
 40
0.0
 40
1.0
 40
1.0
 40
1.0
 40
2.0
 40
2.0
 40
2.0
 40
3.0
 40
3.0
 40
3.0
 40
4.0
 40
4.0
 40
4.0
 40
5.0
 40
5.0
 40
5.0
 40
6.0
 40
6.0
 40
6.0
 40
7.0
 40
7.0
 40
7.0
 40
8.0
 40
8.0
 40
8.0
 40
8.0
 10
92.82051863998932
 20
-144.2368462096005
 10
92.71234264175247
 20
-144.4463080151037
 10
92.53905433884441
 20
-144.4652560402726
 10
92.42261011144296
 20
-144.4652560402726
 10
92.2617241522818
 20
-144.4652560402726
 10
92.12013072783803
 20
-144.4187472512217
 10
92.02504609244514
 20
-144.2368462096005
 10
91.92134871833912
 20
-144.0421983146839
 10
91.90240069317024
 20
-143.8055202548472
 10
91.90240069317024
 20
-143.6425672383949
 10
91.90240069317024
 20
-143.4985622471115
 10
91.91928166104796
 20
-143.2467257671397
 10
92.02504609244514
 20
-143.0479437576408
 10
92.13287758113346
 20
-142.8450276335596
 10
92.29376354029462
 20
-142.8216009842599
 10
92.42261011144296
 20
-142.8216009842599
 10
92.58142901331298
 20
-142.8216009842599
 10
92.7250894950479
 20
-142.8660427160196
 10
92.82051863998932
 20
-143.0479437576408
 10
92.91973738996451
 20
-143.2405245952663
 10
92.94316403926422
 20
-143.4689344259383
 10
92.94316403926422
 20
-143.6425672383949
 10
92.94316403926422
 20
-143.8137884840118
 10
92.92180444725567
 20
-144.0442653719751
 10
92.82051863998932
 20
-144.2368462096005
 97
        0
 97
        0
 92
        1
 93
        1
 72
     4
 94
        3
 73
     0
 74
     1
 95
       17
 96
       13
 40
0.0
 40
0.0
 40
0.0
 40
0.0
 40
1.0
 40
1.0
 40
1.0
 40
2.0
 40
2.0
 40
2.0
 40
3.0
 40
3.0
 40
3.0
 40
4.0
 40
4.0
 40
4.0
 40
4.0
 10
92.42261011144296
 20
-143.0141818218854
 10
92.17318519831088
 20
-143.0141818218854
 10
92.12633189971147
 20
-143.2977131803214
 10
92.12633189971147
 20
-143.6425672383949
 10
92.12633189971147
 20
-143.9619275898776
 10
92.1625054023066
 20
-144.270608145356
 10
92.42261011144296
 20
-144.270608145356
 10
92.67031247683242
 20
-144.270608145356
 10
92.71888832317445
 20
-143.9894883537596
 10
92.71888832317445
 20
-143.6425672383949
 10
92.71888832317445
 20
-143.3228623773637
 10
92.68064776328818
 20
-143.0141818218854
 10
92.42261011144296
 20
-143.0141818218854
 97
        0
 97
        0
 75
     2
 76
     1
 98
        0
  0
ENDBLK
  5
74
330
71
100
AcDbEntity
  8
0
100
AcDbBlockEnd
  0
BLOCK
  5
7C
330
7A
100
AcDbEntity
  8
0
100
AcDbBlockBegin
  2
block 4
 70
     0
 10
0.0
 20
0.0
 30
0.0
  3
block 4
  1

  0
SPLINE
  5
7E
330
7A
100
AcDbEntity
  8
_U+30EC_U+30A4_U+30E4_U+30FC 1
370
     0
100
AcDbSpline
210
0.0
220
0.0
230
1.0
 70
    11
 71
     3
 72
    62
 73
    58
 74
     0
 42
0.0000000001
 43
0.0000000001
 12
1.0
 22
0.0
 32
0.0
 13
1.0
 23
0.0
 33
0.0
 40
0.0
 40
0.0
 40
0.0
 40
0.0
 40
1.0
 40
1.0
 40
1.0
 40
2.0
 40
2.0
 40
2.0
 40
3.0
 40
3.0
 40
3.0
 40
4.0
 40
4.0
 40
4.0
 40
5.0
 40
5.0
 40
5.0
 40
6.0
 40
6.0
 40
6.0
 40
7.0
 40
7.0
 40
7.0
 40
8.0
 40
8.0
 40
8.0
 40
9.0
 40
9.0
 40
9.0
 40
10.0
 40
10.0
 40
10.0
 40
11.0
 40
11.0
 40
11.0
 40
12.0
 40
12.0
 40
12.0
 40
13.0
 40
13.0
 40
13.0
 40
14.0
 40
14.0
 40
14.0
 40
15.0
 40
15.0
 40
15.0
 40
16.0
 40
16.0
 40
16.0
 40
17.0
 40
17.0
 40
17.0
 40
18.0
 40
18.0
 40
18.0
 40
19.0
 40
19.0
 40
19.0
 40
19.0
 10
71.07834877780333
 20
-145.5235893733413
 30
0.0
 10
70.98291963286191
 20
-145.5235893733413
 30
0.0
 10
70.76518959819413
 20
-145.5025742908813
 30
0.0
 10
70.64013263207956
 20
-145.3165391346778
 30
0.0
 10
70.56640758869521
 20
-145.2042290218587
 30
0.0
 10
70.56192896456439
 20
-145.1050102718835
 30
0.0
 10
70.55779484998209
 20
-145.0202609229463
 30
0.0
 10
70.55779484998209
 20
-145.0202609229463
 30
0.0
 10
70.77793645148955
 20
-145.0202609229463
 30
0.0
 10
70.77793645148955
 20
-145.0202609229463
 30
0.0
 10
70.7800035087807
 20
-145.0943304758792
 30
0.0
 10
70.79033879523645
 20
-145.3289414784247
 30
0.0
 10
71.0738701536725
 20
-145.3289414784247
 30
0.0
 10
71.21132946353397
 20
-145.3289414784247
 30
0.0
 10
71.36394719353055
 20
-145.2593505496227
 30
0.0
 10
71.36394719353055
 20
-145.0309407189506
 30
0.0
 10
71.36394719353055
 20
-144.9144964915492
 30
0.0
 10
71.32570663364427
 20
-144.8659206452071
 30
0.0
 10
71.29401175517997
 20
-144.8342257667428
 30
0.0
 10
71.2199422022471
 20
-144.76015621381
 30
0.0
 10
71.10349797484565
 20
-144.7474093605146
 30
0.0
 10
71.04872095663018
 20
-144.7474093605146
 30
0.0
 10
71.02942842191278
 20
-144.7474093605146
 30
0.0
 10
70.99359942886619
 20
-144.7494764178057
 30
0.0
 10
70.96603866498418
 20
-144.753610532388
 30
0.0
 10
70.96603866498418
 20
-144.753610532388
 30
0.0
 10
70.96603866498418
 20
-144.5589626374714
 30
0.0
 10
70.96603866498418
 20
-144.5589626374714
 30
0.0
 10
71.00427922487046
 20
-144.5655083188934
 30
0.0
 10
71.04630938979051
 20
-144.5675753761845
 30
0.0
 10
71.05285507121248
 20
-144.5675753761845
 30
0.0
 10
71.11831188543223
 20
-144.5675753761845
 30
0.0
 10
71.31709389493115
 20
-144.546215784176
 30
0.0
 10
71.31709389493115
 20
-144.3095377243393
 30
0.0
 10
71.31709389493115
 20
-144.1317707973004
 30
0.0
 10
71.18618026649165
 20
-144.0766492695364
 30
0.0
 10
71.07593721096366
 20
-144.0766492695364
 30
0.0
 10
70.811698387245
 20
-144.0766492695364
 30
0.0
 10
70.80308564853188
 20
-144.3095377243393
 30
0.0
 10
70.79895153394958
 20
-144.3811957104325
 30
0.0
 10
70.79895153394958
 20
-144.3811957104325
 30
0.0
 10
70.59569090031982
 20
-144.3811957104325
 30
0.0
 10
70.59569090031982
 20
-144.3811957104325
 30
0.0
 10
70.60430363903295
 20
-144.2564832538664
 30
0.0
 10
70.63186440291496
 20
-143.8799343173286
 30
0.0
 10
71.08868406425908
 20
-143.8799343173286
 30
0.0
 10
71.31295978034885
 20
-143.8799343173286
 30
0.0
 10
71.55411646431634
 20
-144.0070583407343
 30
0.0
 10
71.55411646431634
 20
-144.3029920429173
 30
0.0
 10
71.55411646431634
 20
-144.4893717086693
 30
0.0
 10
71.45903182892344
 20
-144.5717094907668
 30
0.0
 10
71.35946856939972
 20
-144.6330321904042
 30
0.0
 10
71.42079126903717
 20
-144.6605929542862
 30
0.0
 10
71.60269231065836
 20
-144.7408636790926
 30
0.0
 10
71.60269231065836
 20
-145.0181938656552
 30
0.0
 10
71.60269231065836
 20
-145.3565022423067
 30
0.0
 10
71.35533445481742
 20
-145.5235893733413
 30
0.0
 10
71.07834877780333
 20
-145.5235893733413
 30
0.0
  0
HATCH
  5
7F
330
7A
100
AcDbEntity
  8
_U+30EC_U+30A4_U+30E4_U+30FC 1
 62
   179
420
  2234388
100
AcDbHatch
 10
0.0
 20
0.0
 30
0.0
210
0.0
220
0.0
230
1.0
  2
SOLID
 70
     1
 71
     0
 91
        1
 92
        1
 93
        1
 72
     4
 94
        3
 73
     0
 74
     1
 95
       62
 96
       58
 40
0.0
 40
0.0
 40
0.0
 40
0.0
 40
1.0
 40
1.0
 40
1.0
 40
2.0
 40
2.0
 40
2.0
 40
3.0
 40
3.0
 40
3.0
 40
4.0
 40
4.0
 40
4.0
 40
5.0
 40
5.0
 40
5.0
 40
6.0
 40
6.0
 40
6.0
 40
7.0
 40
7.0
 40
7.0
 40
8.0
 40
8.0
 40
8.0
 40
9.0
 40
9.0
 40
9.0
 40
10.0
 40
10.0
 40
10.0
 40
11.0
 40
11.0
 40
11.0
 40
12.0
 40
12.0
 40
12.0
 40
13.0
 40
13.0
 40
13.0
 40
14.0
 40
14.0
 40
14.0
 40
15.0
 40
15.0
 40
15.0
 40
16.0
 40
16.0
 40
16.0
 40
17.0
 40
17.0
 40
17.0
 40
18.0
 40
18.0
 40
18.0
 40
19.0
 40
19.0
 40
19.0
 40
19.0
 10
71.07834877780333
 20
-145.5235893733413
 10
70.98291963286191
 20
-145.5235893733413
 10
70.76518959819413
 20
-145.5025742908813
 10
70.64013263207956
 20
-145.3165391346778
 10
70.56640758869521
 20
-145.2042290218587
 10
70.56192896456439
 20
-145.1050102718835
 10
70.55779484998209
 20
-145.0202609229463
 10
70.55779484998209
 20
-145.0202609229463
 10
70.77793645148955
 20
-145.0202609229463
 10
70.77793645148955
 20
-145.0202609229463
 10
70.7800035087807
 20
-145.0943304758792
 10
70.79033879523645
 20
-145.3289414784247
 10
71.0738701536725
 20
-145.3289414784247
 10
71.21132946353397
 20
-145.3289414784247
 10
71.36394719353055
 20
-145.2593505496227
 10
71.36394719353055
 20
-145.0309407189506
 10
71.36394719353055
 20
-144.9144964915492
 10
71.32570663364427
 20
-144.8659206452071
 10
71.29401175517997
 20
-144.8342257667428
 10
71.2199422022471
 20
-144.76015621381
 10
71.10349797484565
 20
-144.7474093605146
 10
71.04872095663018
 20
-144.7474093605146
 10
71.02942842191278
 20
-144.7474093605146
 10
70.99359942886619
 20
-144.7494764178057
 10
70.96603866498418
 20
-144.753610532388
 10
70.96603866498418
 20
-144.753610532388
 10
70.96603866498418
 20
-144.5589626374714
 10
70.96603866498418
 20
-144.5589626374714
 10
71.00427922487046
 20
-144.5655083188934
 10
71.04630938979051
 20
-144.5675753761845
 10
71.05285507121248
 20
-144.5675753761845
 10
71.11831188543223
 20
-144.5675753761845
 10
71.31709389493115
 20
-144.546215784176
 10
71.31709389493115
 20
-144.3095377243393
 10
71.31709389493115
 20
-144.1317707973004
 10
71.18618026649165
 20
-144.0766492695364
 10
71.07593721096366
 20
-144.0766492695364
 10
70.811698387245
 20
-144.0766492695364
 10
70.80308564853188
 20
-144.3095377243393
 10
70.79895153394958
 20
-144.3811957104325
 10
70.79895153394958
 20
-144.3811957104325
 10
70.59569090031982
 20
-144.3811957104325
 10
70.59569090031982
 20
-144.3811957104325
 10
70.60430363903295
 20
-144.2564832538664
 10
70.63186440291496
 20
-143.8799343173286
 10
71.08868406425908
 20
-143.8799343173286
 10
71.31295978034885
 20
-143.8799343173286
 10
71.55411646431634
 20
-144.0070583407343
 10
71.55411646431634
 20
-144.3029920429173
 10
71.55411646431634
 20
-144.4893717086693
 10
71.45903182892344
 20
-144.5717094907668
 10
71.35946856939972
 20
-144.6330321904042
 10
71.42079126903717
 20
-144.6605929542862
 10
71.60269231065836
 20
-144.7408636790926
 10
71.60269231065836
 20
-145.0181938656552
 10
71.60269231065836
 20
-145.3565022423067
 10
71.35533445481742
 20
-145.5235893733413
 10
71.07834877780333
 20
-145.5235893733413
 97
        0
 97
        0
 75
     2
 76
     1
 98
        0
  0
SPLINE
  5
80
330
7A
100
AcDbEntity
  8
_U+30EC_U+30A4_U+30E4_U+30FC 1
370
     0
100
AcDbSpline
210
0.0
220
0.0
230
1.0
 70
    11
 71
     3
 72
    44
 73
    40
 74
     0
 42
0.0000000001
 43
0.0000000001
 12
1.0
 22
0.0
 32
0.0
 13
1.0
 23
0.0
 33
0.0
 40
0.0
 40
0.0
 40
0.0
 40
0.0
 40
1.0
 40
1.0
 40
1.0
 40
2.0
 40
2.0
 40
2.0
 40
3.0
 40
3.0
 40
3.0
 40
4.0
 40
4.0
 40
4.0
 40
5.0
 40
5.0
 40
5.0
 40
6.0
 40
6.0
 40
6.0
 40
7.0
 40
7.0
 40
7.0
 40
8.0
 40
8.0
 40
8.0
 40
9.0
 40
9.0
 40
9.0
 40
10.0
 40
10.0
 40
10.0
 40
11.0
 40
11.0
 40
11.0
 40
12.0
 40
12.0
 40
12.0
 40
13.0
 40
13.0
 40
13.0
 40
13.0
 10
72.77746987112856
 20
-145.4729464697081
 30
0.0
 10
72.75438773137738
 20
-145.4285047379484
 30
0.0
 10
72.73302813936883
 20
-145.3757947770241
 30
0.0
 10
72.73096108207768
 20
-145.1449733795124
 30
0.0
 10
72.72682696749538
 20
-144.9017496382537
 30
0.0
 10
72.66757132514908
 20
-144.8318141999032
 30
0.0
 10
72.4898043981102
 20
-144.8318141999032
 30
0.0
 10
72.4898043981102
 20
-144.8318141999032
 30
0.0
 10
72.08156058310809
 20
-144.8318141999032
 30
0.0
 10
72.08156058310809
 20
-144.8318141999032
 30
0.0
 10
72.08156058310809
 20
-144.8318141999032
 30
0.0
 10
72.08156058310809
 20
-145.4729464697081
 30
0.0
 10
72.08156058310809
 20
-145.4729464697081
 30
0.0
 10
72.08156058310809
 20
-145.4729464697081
 30
0.0
 10
71.84660507101404
 20
-145.4729464697081
 30
0.0
 10
71.84660507101404
 20
-145.4729464697081
 30
0.0
 10
71.84660507101404
 20
-145.4729464697081
 30
0.0
 10
71.84660507101404
 20
-143.9285101636707
 30
0.0
 10
71.84660507101404
 20
-143.9285101636707
 30
0.0
 10
71.84660507101404
 20
-143.9285101636707
 30
0.0
 10
72.52149927657449
 20
-143.9285101636707
 30
0.0
 10
72.52149927657449
 20
-143.9285101636707
 30
0.0
 10
72.82845728431025
 20
-143.9285101636707
 30
0.0
 10
72.99554441534487
 20
-144.1000759188361
 30
0.0
 10
72.99554441534487
 20
-144.3560465133902
 30
0.0
 10
72.99554441534487
 20
-144.4066894170233
 30
0.0
 10
72.98693167663174
 20
-144.4893717086693
 30
0.0
 10
72.94248994487202
 20
-144.5696424334757
 30
0.0
 10
72.88323430252572
 20
-144.6733398075817
 30
0.0
 10
72.81777748830598
 20
-144.6922878327505
 30
0.0
 10
72.75645478866853
 20
-144.7091688006283
 30
0.0
 10
72.89391409852999
 20
-144.7515434750968
 30
0.0
 10
72.96143797004089
 20
-144.8001193214389
 30
0.0
 10
72.96591659417172
 20
-145.1153455583392
 30
0.0
 10
72.97005070875402
 20
-145.3861300634799
 30
0.0
 10
73.00587970180062
 20
-145.4178249419442
 30
0.0
 10
73.07374808286004
 20
-145.4729464697081
 30
0.0
 10
73.07374808286004
 20
-145.4729464697081
 30
0.0
 10
72.77746987112856
 20
-145.4729464697081
 30
0.0
 10
72.77746987112856
 20
-145.4729464697081
 30
0.0
  0
SPLINE
  5
81
330
7A
100
AcDbEntity
  8
_U+30EC_U+30A4_U+30E4_U+30FC 1
370
     0
100
AcDbSpline
210
0.0
220
0.0
230
1.0
 70
    11
 71
     3
 72
    20
 73
    16
 74
     0
 42
0.0000000001
 43
0.0000000001
 12
1.0
 22
0.0
 32
0.0
 13
1.0
 23
0.0
 33
0.0
 40
0.0
 40
0.0
 40
0.0
 40
0.0
 40
1.0
 40
1.0
 40
1.0
 40
2.0
 40
2.0
 40
2.0
 40
3.0
 40
3.0
 40
3.0
 40
4.0
 40
4.0
 40
4.0
 40
5.0
 40
5.0
 40
5.0
 40
5.0
 10
72.52597790070531
 20
-144.140039026465
 30
0.0
 10
72.52597790070531
 20
-144.140039026465
 30
0.0
 10
72.08156058310809
 20
-144.140039026465
 30
0.0
 10
72.08156058310809
 20
-144.140039026465
 30
0.0
 10
72.08156058310809
 20
-144.140039026465
 30
0.0
 10
72.08156058310809
 20
-144.6202853371088
 30
0.0
 10
72.08156058310809
 20
-144.6202853371088
 30
0.0
 10
72.08156058310809
 20
-144.6202853371088
 30
0.0
 10
72.52356633386565
 20
-144.6202853371088
 30
0.0
 10
72.52356633386565
 20
-144.6202853371088
 30
0.0
 10
72.62312959338936
 20
-144.6202853371088
 30
0.0
 10
72.75852184595968
 20
-144.5441487268848
 30
0.0
 10
72.75852184595968
 20
-144.3729274812679
 30
0.0
 10
72.75852184595968
 20
-144.2947238137527
 30
0.0
 10
72.72475991020423
 20
-144.140039026465
 30
0.0
 10
72.52597790070531
 20
-144.140039026465
 30
0.0
  0
HATCH
  5
82
330
7A
100
AcDbEntity
  8
_U+30EC_U+30A4_U+30E4_U+30FC 1
 62
   179
420
  2234388
100
AcDbHatch
 10
0.0
 20
0.0
 30
0.0
210
0.0
220
0.0
230
1.0
  2
SOLID
 70
     1
 71
     0
 91
        2
 92
        1
 93
        1
 72
     4
 94
        3
 73
     0
 74
     1
 95
       44
 96
       40
 40
0.0
 40
0.0
 40
0.0
 40
0.0
 40
1.0
 40
1.0
 40
1.0
 40
2.0
 40
2.0
 40
2.0
 40
3.0
 40
3.0
 40
3.0
 40
4.0
 40
4.0
 40
4.0
 40
5.0
 40
5.0
 40
5.0
 40
6.0
 40
6.0
 40
6.0
 40
7.0
 40
7.0
 40
7.0
 40
8.0
 40
8.0
 40
8.0
 40
9.0
 40
9.0
 40
9.0
 40
10.0
 40
10.0
 40
10.0
 40
11.0
 40
11.0
 40
11.0
 40
12.0
 40
12.0
 40
12.0
 40
13.0
 40
13.0
 40
13.0
 40
13.0
 10
72.77746987112856
 20
-145.4729464697081
 10
72.75438773137738
 20
-145.4285047379484
 10
72.73302813936883
 20
-145.3757947770241
 10
72.73096108207768
 20
-145.1449733795124
 10
72.72682696749538
 20
-144.9017496382537
 10
72.66757132514908
 20
-144.8318141999032
 10
72.4898043981102
 20
-144.8318141999032
 10
72.4898043981102
 20
-144.8318141999032
 10
72.08156058310809
 20
-144.8318141999032
 10
72.08156058310809
 20
-144.8318141999032
 10
72.08156058310809
 20
-144.8318141999032
 10
72.08156058310809
 20
-145.4729464697081
 10
72.08156058310809
 20
-145.4729464697081
 10
72.08156058310809
 20
-145.4729464697081
 10
71.84660507101404
 20
-145.4729464697081
 10
71.84660507101404
 20
-145.4729464697081
 10
71.84660507101404
 20
-145.4729464697081
 10
71.84660507101404
 20
-143.9285101636707
 10
71.84660507101404
 20
-143.9285101636707
 10
71.84660507101404
 20
-143.9285101636707
 10
72.52149927657449
 20
-143.9285101636707
 10
72.52149927657449
 20
-143.9285101636707
 10
72.82845728431025
 20
-143.9285101636707
 10
72.99554441534487
 20
-144.1000759188361
 10
72.99554441534487
 20
-144.3560465133902
 10
72.99554441534487
 20
-144.4066894170233
 10
72.98693167663174
 20
-144.4893717086693
 10
72.94248994487202
 20
-144.5696424334757
 10
72.88323430252572
 20
-144.6733398075817
 10
72.81777748830598
 20
-144.6922878327505
 10
72.75645478866853
 20
-144.7091688006283
 10
72.89391409852999
 20
-144.7515434750968
 10
72.96143797004089
 20
-144.8001193214389
 10
72.96591659417172
 20
-145.1153455583392
 10
72.97005070875402
 20
-145.3861300634799
 10
73.00587970180062
 20
-145.4178249419442
 10
73.07374808286004
 20
-145.4729464697081
 10
73.07374808286004
 20
-145.4729464697081
 10
72.77746987112856
 20
-145.4729464697081
 10
72.77746987112856
 20
-145.4729464697081
 97
        0
 97
        0
 92
        1
 93
        1
 72
     4
 94
        3
 73
     0
 74
     1
 95
       20
 96
       16
 40
0.0
 40
0.0
 40
0.0
 40
0.0
 40
1.0
 40
1.0
 40
1.0
 40
2.0
 40
2.0
 40
2.0
 40
3.0
 40
3.0
 40
3.0
 40
4.0
 40
4.0
 40
4.0
 40
5.0
 40
5.0
 40
5.0
 40
5.0
 10
72.52597790070531
 20
-144.140039026465
 10
72.52597790070531
 20
-144.140039026465
 10
72.08156058310809
 20
-144.140039026465
 10
72.08156058310809
 20
-144.140039026465
 10
72.08156058310809
 20
-144.140039026465
 10
72.08156058310809
 20
-144.6202853371088
 10
72.08156058310809
 20
-144.6202853371088
 10
72.08156058310809
 20
-144.6202853371088
 10
72.52356633386565
 20
-144.6202853371088
 10
72.52356633386565
 20
-144.6202853371088
 10
72.62312959338936
 20
-144.6202853371088
 10
72.75852184595968
 20
-144.5441487268848
 10
72.75852184595968
 20
-144.3729274812679
 10
72.75852184595968
 20
-144.2947238137527
 10
72.72475991020423
 20
-144.140039026465
 10
72.52597790070531
 20
-144.140039026465
 97
        0
 97
        0
 75
     2
 76
     1
 98
        0
  0
ENDBLK
  5
7D
330
7A
100
AcDbEntity
  8
0
100
AcDbBlockEnd
  0
BLOCK
  5
85
330
83
100
AcDbEntity
  8
0
100
AcDbBlockBegin
  2
block 5
 70
     0
 10
0.0
 20
0.0
 30
0.0
  3
block 5
  1

  0
SPLINE
  5
87
330
83
100
AcDbEntity
  8
_U+30EC_U+30A4_U+30E4_U+30FC 1
370
     0
100
AcDbSpline
210
0.0
220
0.0
230
1.0
 70
    11
 71
     3
 72
    62
 73
    58
 74
     0
 42
0.0000000001
 43
0.0000000001
 12
1.0
 22
0.0
 32
0.0
 13
1.0
 23
0.0
 33
0.0
 40
0.0
 40
0.0
 40
0.0
 40
0.0
 40
1.0
 40
1.0
 40
1.0
 40
2.0
 40
2.0
 40
2.0
 40
3.0
 40
3.0
 40
3.0
 40
4.0
 40
4.0
 40
4.0
 40
5.0
 40
5.0
 40
5.0
 40
6.0
 40
6.0
 40
6.0
 40
7.0
 40
7.0
 40
7.0
 40
8.0
 40
8.0
 40
8.0
 40
9.0
 40
9.0
 40
9.0
 40
10.0
 40
10.0
 40
10.0
 40
11.0
 40
11.0
 40
11.0
 40
12.0
 40
12.0
 40
12.0
 40
13.0
 40
13.0
 40
13.0
 40
14.0
 40
14.0
 40
14.0
 40
15.0
 40
15.0
 40
15.0
 40
16.0
 40
16.0
 40
16.0
 40
17.0
 40
17.0
 40
17.0
 40
18.0
 40
18.0
 40
18.0
 40
19.0
 40
19.0
 40
19.0
 40
19.0
 10
72.21574705225856
 20
-126.6761609926365
 30
0.0
 10
72.21574705225856
 20
-126.7715901375779
 30
0.0
 10
72.19473196979854
 20
-126.9893201722457
 30
0.0
 10
72.00869681359505
 20
-127.1143771383603
 30
0.0
 10
71.8963867007759
 20
-127.1881021817447
 30
0.0
 10
71.79716795080071
 20
-127.1925808058755
 30
0.0
 10
71.71241860186356
 20
-127.1967149204578
 30
0.0
 10
71.71241860186356
 20
-127.1967149204578
 30
0.0
 10
71.71241860186356
 20
-126.9765733189503
 30
0.0
 10
71.71241860186356
 20
-126.9765733189503
 30
0.0
 10
71.78648815479643
 20
-126.9745062616592
 30
0.0
 10
72.02109915734195
 20
-126.9641709752034
 30
0.0
 10
72.02109915734195
 20
-126.6806396167674
 30
0.0
 10
72.02109915734195
 20
-126.5431803069059
 30
0.0
 10
71.95150822853991
 20
-126.3905625769093
 30
0.0
 10
71.72309839786784
 20
-126.3905625769093
 30
0.0
 10
71.6066541704664
 20
-126.3905625769093
 30
0.0
 10
71.55807832412437
 20
-126.4288031367956
 30
0.0
 10
71.52638344566007
 20
-126.4604980152599
 30
0.0
 10
71.4523138927272
 20
-126.5345675681928
 30
0.0
 10
71.43956703943178
 20
-126.6510117955942
 30
0.0
 10
71.43956703943178
 20
-126.7057888138097
 30
0.0
 10
71.43956703943178
 20
-126.7250813485271
 30
0.0
 10
71.44163409672292
 20
-126.7609103415737
 30
0.0
 10
71.44576821130522
 20
-126.7884711054557
 30
0.0
 10
71.44576821130522
 20
-126.7884711054557
 30
0.0
 10
71.25112031638861
 20
-126.7884711054557
 30
0.0
 10
71.25112031638861
 20
-126.7884711054557
 30
0.0
 10
71.25766599781059
 20
-126.7502305455694
 30
0.0
 10
71.25973305510173
 20
-126.7082003806493
 30
0.0
 10
71.25973305510173
 20
-126.7016546992274
 30
0.0
 10
71.25973305510173
 20
-126.6361978850076
 30
0.0
 10
71.23837346309318
 20
-126.4374158755087
 30
0.0
 10
71.00169540325652
 20
-126.4374158755087
 30
0.0
 10
70.82392847621763
 20
-126.4374158755087
 30
0.0
 10
70.76880694845363
 20
-126.5683295039482
 30
0.0
 10
70.76880694845363
 20
-126.6785725594762
 30
0.0
 10
70.76880694845363
 20
-126.9428113831949
 30
0.0
 10
71.00169540325652
 20
-126.951424121908
 30
0.0
 10
71.07335338934972
 20
-126.9555582364903
 30
0.0
 10
71.07335338934972
 20
-126.9555582364903
 30
0.0
 10
71.07335338934972
 20
-127.15881887012
 30
0.0
 10
71.07335338934972
 20
-127.15881887012
 30
0.0
 10
70.94864093278368
 20
-127.1502061314069
 30
0.0
 10
70.57209199624587
 20
-127.1226453675249
 30
0.0
 10
70.57209199624587
 20
-126.6658257061808
 30
0.0
 10
70.57209199624587
 20
-126.441549990091
 30
0.0
 10
70.69921601965159
 20
-126.2003933061235
 30
0.0
 10
70.99514972183455
 20
-126.2003933061235
 30
0.0
 10
71.18152938758656
 20
-126.2003933061235
 30
0.0
 10
71.26386716968403
 20
-126.2954779415164
 30
0.0
 10
71.32518986932148
 20
-126.3950412010401
 30
0.0
 10
71.35275063320348
 20
-126.3337185014027
 30
0.0
 10
71.43302135800981
 20
-126.1518174597815
 30
0.0
 10
71.71035154457242
 20
-126.1518174597815
 30
0.0
 10
72.04865992122394
 20
-126.1518174597815
 30
0.0
 10
72.21574705225856
 20
-126.3991753156224
 30
0.0
 10
72.21574705225856
 20
-126.6761609926365
 30
0.0
  0
HATCH
  5
88
330
83
100
AcDbEntity
  8
_U+30EC_U+30A4_U+30E4_U+30FC 1
 62
   179
420
  2234388
100
AcDbHatch
 10
0.0
 20
0.0
 30
0.0
210
0.0
220
0.0
230
1.0
  2
SOLID
 70
     1
 71
     0
 91
        1
 92
        1
 93
        1
 72
     4
 94
        3
 73
     0
 74
     1
 95
       62
 96
       58
 40
0.0
 40
0.0
 40
0.0
 40
0.0
 40
1.0
 40
1.0
 40
1.0
 40
2.0
 40
2.0
 40
2.0
 40
3.0
 40
3.0
 40
3.0
 40
4.0
 40
4.0
 40
4.0
 40
5.0
 40
5.0
 40
5.0
 40
6.0
 40
6.0
 40
6.0
 40
7.0
 40
7.0
 40
7.0
 40
8.0
 40
8.0
 40
8.0
 40
9.0
 40
9.0
 40
9.0
 40
10.0
 40
10.0
 40
10.0
 40
11.0
 40
11.0
 40
11.0
 40
12.0
 40
12.0
 40
12.0
 40
13.0
 40
13.0
 40
13.0
 40
14.0
 40
14.0
 40
14.0
 40
15.0
 40
15.0
 40
15.0
 40
16.0
 40
16.0
 40
16.0
 40
17.0
 40
17.0
 40
17.0
 40
18.0
 40
18.0
 40
18.0
 40
19.0
 40
19.0
 40
19.0
 40
19.0
 10
72.21574705225856
 20
-126.6761609926365
 10
72.21574705225856
 20
-126.7715901375779
 10
72.19473196979854
 20
-126.9893201722457
 10
72.00869681359505
 20
-127.1143771383603
 10
71.8963867007759
 20
-127.1881021817447
 10
71.79716795080071
 20
-127.1925808058755
 10
71.71241860186356
 20
-127.1967149204578
 10
71.71241860186356
 20
-127.1967149204578
 10
71.71241860186356
 20
-126.9765733189503
 10
71.71241860186356
 20
-126.9765733189503
 10
71.78648815479643
 20
-126.9745062616592
 10
72.02109915734195
 20
-126.9641709752034
 10
72.02109915734195
 20
-126.6806396167674
 10
72.02109915734195
 20
-126.5431803069059
 10
71.95150822853991
 20
-126.3905625769093
 10
71.72309839786784
 20
-126.3905625769093
 10
71.6066541704664
 20
-126.3905625769093
 10
71.55807832412437
 20
-126.4288031367956
 10
71.52638344566007
 20
-126.4604980152599
 10
71.4523138927272
 20
-126.5345675681928
 10
71.43956703943178
 20
-126.6510117955942
 10
71.43956703943178
 20
-126.7057888138097
 10
71.43956703943178
 20
-126.7250813485271
 10
71.44163409672292
 20
-126.7609103415737
 10
71.44576821130522
 20
-126.7884711054557
 10
71.44576821130522
 20
-126.7884711054557
 10
71.25112031638861
 20
-126.7884711054557
 10
71.25112031638861
 20
-126.7884711054557
 10
71.25766599781059
 20
-126.7502305455694
 10
71.25973305510173
 20
-126.7082003806493
 10
71.25973305510173
 20
-126.7016546992274
 10
71.25973305510173
 20
-126.6361978850076
 10
71.23837346309318
 20
-126.4374158755087
 10
71.00169540325652
 20
-126.4374158755087
 10
70.82392847621763
 20
-126.4374158755087
 10
70.76880694845363
 20
-126.5683295039482
 10
70.76880694845363
 20
-126.6785725594762
 10
70.76880694845363
 20
-126.9428113831949
 10
71.00169540325652
 20
-126.951424121908
 10
71.07335338934972
 20
-126.9555582364903
 10
71.07335338934972
 20
-126.9555582364903
 10
71.07335338934972
 20
-127.15881887012
 10
71.07335338934972
 20
-127.15881887012
 10
70.94864093278368
 20
-127.1502061314069
 10
70.57209199624587
 20
-127.1226453675249
 10
70.57209199624587
 20
-126.6658257061808
 10
70.57209199624587
 20
-126.441549990091
 10
70.69921601965159
 20
-126.2003933061235
 10
70.99514972183455
 20
-126.2003933061235
 10
71.18152938758656
 20
-126.2003933061235
 10
71.26386716968403
 20
-126.2954779415164
 10
71.32518986932148
 20
-126.3950412010401
 10
71.35275063320348
 20
-126.3337185014027
 10
71.43302135800981
 20
-126.1518174597815
 10
71.71035154457242
 20
-126.1518174597815
 10
72.04865992122394
 20
-126.1518174597815
 10
72.21574705225856
 20
-126.3991753156224
 10
72.21574705225856
 20
-126.6761609926365
 97
        0
 97
        0
 75
     2
 76
     1
 98
        0
  0
SPLINE
  5
89
330
83
100
AcDbEntity
  8
_U+30EC_U+30A4_U+30E4_U+30FC 1
370
     0
100
AcDbSpline
210
0.0
220
0.0
230
1.0
 70
    11
 71
     3
 72
    29
 73
    25
 74
     0
 42
0.0000000001
 43
0.0000000001
 12
1.0
 22
0.0
 32
0.0
 13
1.0
 23
0.0
 33
0.0
 40
0.0
 40
0.0
 40
0.0
 40
0.0
 40
1.0
 40
1.0
 40
1.0
 40
2.0
 40
2.0
 40
2.0
 40
3.0
 40
3.0
 40
3.0
 40
4.0
 40
4.0
 40
4.0
 40
5.0
 40
5.0
 40
5.0
 40
6.0
 40
6.0
 40
6.0
 40
7.0
 40
7.0
 40
7.0
 40
8.0
 40
8.0
 40
8.0
 40
8.0
 10
71.9873372215865
 20
-125.0931396171642
 30
0.0
 10
72.1967990270897
 20
-125.2013156154011
 30
0.0
 10
72.21574705225856
 20
-125.3746039183091
 30
0.0
 10
72.21574705225856
 20
-125.4910481457106
 30
0.0
 10
72.21574705225856
 20
-125.6519341048717
 30
0.0
 10
72.16923826320769
 20
-125.7935275293155
 30
0.0
 10
71.9873372215865
 20
-125.8886121647084
 30
0.0
 10
71.79268932666989
 20
-125.9923095388144
 30
0.0
 10
71.55601126683322
 20
-126.0112575639833
 30
0.0
 10
71.3930582503809
 20
-126.0112575639833
 30
0.0
 10
71.24905325909747
 20
-126.0112575639833
 30
0.0
 10
70.9972167791257
 20
-125.9943765961056
 30
0.0
 10
70.79843476962678
 20
-125.8886121647084
 30
0.0
 10
70.59551864554557
 20
-125.7807806760201
 30
0.0
 10
70.57209199624587
 20
-125.6198947168589
 30
0.0
 10
70.57209199624587
 20
-125.4910481457106
 30
0.0
 10
70.57209199624587
 20
-125.3322292438406
 30
0.0
 10
70.61653372800559
 20
-125.1885687621056
 30
0.0
 10
70.79843476962678
 20
-125.0931396171642
 30
0.0
 10
70.99101560725225
 20
-124.993920867189
 30
0.0
 10
71.21942543792431
 20
-124.9704942178893
 30
0.0
 10
71.3930582503809
 20
-124.9704942178893
 30
0.0
 10
71.56427949599782
 20
-124.9704942178893
 30
0.0
 10
71.79475638396103
 20
-124.9918538098979
 30
0.0
 10
71.9873372215865
 20
-125.0931396171642
 30
0.0
  0
SPLINE
  5
8A
330
83
100
AcDbEntity
  8
_U+30EC_U+30A4_U+30E4_U+30FC 1
370
     0
100
AcDbSpline
210
0.0
220
0.0
230
1.0
 70
    11
 71
     3
 72
    17
 73
    13
 74
     0
 42
0.0000000001
 43
0.0000000001
 12
1.0
 22
0.0
 32
0.0
 13
1.0
 23
0.0
 33
0.0
 40
0.0
 40
0.0
 40
0.0
 40
0.0
 40
1.0
 40
1.0
 40
1.0
 40
2.0
 40
2.0
 40
2.0
 40
3.0
 40
3.0
 40
3.0
 40
4.0
 40
4.0
 40
4.0
 40
4.0
 10
70.76467283387133
 20
-125.4910481457106
 30
0.0
 10
70.76467283387133
 20
-125.7404730588427
 30
0.0
 10
71.0482041923074
 20
-125.7873263574421
 30
0.0
 10
71.3930582503809
 20
-125.7873263574421
 30
0.0
 10
71.71241860186356
 20
-125.7873263574421
 30
0.0
 10
72.02109915734195
 20
-125.7511528548469
 30
0.0
 10
72.02109915734195
 20
-125.4910481457106
 30
0.0
 10
72.02109915734195
 20
-125.2433457803211
 30
0.0
 10
71.73997936574557
 20
-125.1947699339791
 30
0.0
 10
71.3930582503809
 20
-125.1947699339791
 30
0.0
 10
71.07335338934972
 20
-125.1947699339791
 30
0.0
 10
70.76467283387133
 20
-125.2330104938654
 30
0.0
 10
70.76467283387133
 20
-125.4910481457106
 30
0.0
  0
HATCH
  5
8B
330
83
100
AcDbEntity
  8
_U+30EC_U+30A4_U+30E4_U+30FC 1
 62
   179
420
  2234388
100
AcDbHatch
 10
0.0
 20
0.0
 30
0.0
210
0.0
220
0.0
230
1.0
  2
SOLID
 70
     1
 71
     0
 91
        2
 92
        1
 93
        1
 72
     4
 94
        3
 73
     0
 74
     1
 95
       29
 96
       25
 40
0.0
 40
0.0
 40
0.0
 40
0.0
 40
1.0
 40
1.0
 40
1.0
 40
2.0
 40
2.0
 40
2.0
 40
3.0
 40
3.0
 40
3.0
 40
4.0
 40
4.0
 40
4.0
 40
5.0
 40
5.0
 40
5.0
 40
6.0
 40
6.0
 40
6.0
 40
7.0
 40
7.0
 40
7.0
 40
8.0
 40
8.0
 40
8.0
 40
8.0
 10
71.9873372215865
 20
-125.0931396171642
 10
72.1967990270897
 20
-125.2013156154011
 10
72.21574705225856
 20
-125.3746039183091
 10
72.21574705225856
 20
-125.4910481457106
 10
72.21574705225856
 20
-125.6519341048717
 10
72.16923826320769
 20
-125.7935275293155
 10
71.9873372215865
 20
-125.8886121647084
 10
71.79268932666989
 20
-125.9923095388144
 10
71.55601126683322
 20
-126.0112575639833
 10
71.3930582503809
 20
-126.0112575639833
 10
71.24905325909747
 20
-126.0112575639833
 10
70.9972167791257
 20
-125.9943765961056
 10
70.79843476962678
 20
-125.8886121647084
 10
70.59551864554557
 20
-125.7807806760201
 10
70.57209199624587
 20
-125.6198947168589
 10
70.57209199624587
 20
-125.4910481457106
 10
70.57209199624587
 20
-125.3322292438406
 10
70.61653372800559
 20
-125.1885687621056
 10
70.79843476962678
 20
-125.0931396171642
 10
70.99101560725225
 20
-124.993920867189
 10
71.21942543792431
 20
-124.9704942178893
 10
71.3930582503809
 20
-124.9704942178893
 10
71.56427949599782
 20
-124.9704942178893
 10
71.79475638396103
 20
-124.9918538098979
 10
71.9873372215865
 20
-125.0931396171642
 97
        0
 97
        0
 92
        1
 93
        1
 72
     4
 94
        3
 73
     0
 74
     1
 95
       17
 96
       13
 40
0.0
 40
0.0
 40
0.0
 40
0.0
 40
1.0
 40
1.0
 40
1.0
 40
2.0
 40
2.0
 40
2.0
 40
3.0
 40
3.0
 40
3.0
 40
4.0
 40
4.0
 40
4.0
 40
4.0
 10
70.76467283387133
 20
-125.4910481457106
 10
70.76467283387133
 20
-125.7404730588427
 10
71.0482041923074
 20
-125.7873263574421
 10
71.3930582503809
 20
-125.7873263574421
 10
71.71241860186356
 20
-125.7873263574421
 10
72.02109915734195
 20
-125.7511528548469
 10
72.02109915734195
 20
-125.4910481457106
 10
72.02109915734195
 20
-125.2433457803211
 10
71.73997936574557
 20
-125.1947699339791
 10
71.3930582503809
 20
-125.1947699339791
 10
71.07335338934972
 20
-125.1947699339791
 10
70.76467283387133
 20
-125.2330104938654
 10
70.76467283387133
 20
-125.4910481457106
 97
        0
 97
        0
 75
     2
 76
     1
 98
        0
  0
ENDBLK
  5
86
330
83
100
AcDbEntity
  8
0
100
AcDbBlockEnd
  0
ENDSEC
  0
SECTION
  2
ENTITIES
  0
SPLINE
  5
41
330
1F
100
AcDbEntity
  8
_U+30EC_U+30A4_U+30E4_U+30FC 1
 62
   179
420
  2234388
370
     9
100
AcDbSpline
210
0.0
220
0.0
230
1.0
 70
    11
 71
     3
 72
    17
 73
    13
 74
     0
 42
0.0000000001
 43
0.0000000001
 12
1.0
 22
0.0
 32
0.0
 13
1.0
 23
0.0
 33
0.0
 40
0.0
 40
0.0
 40
0.0
 40
0.0
 40
1.0
 40
1.0
 40
1.0
 40
2.0
 40
2.0
 40
2.0
 40
3.0
 40
3.0
 40
3.0
 40
4.0
 40
4.0
 40
4.0
 40
4.0
 10
110.7212430085991
 20
-137.9257746877407
 30
0.0
 10
110.6661038433391
 20
-137.9257746877407
 30
0.0
 10
110.6213363444813
 20
-137.9705774655075
 30
0.0
 10
110.6213363444813
 20
-138.0256813543824
 30
0.0
 10
110.6213363444813
 20
-138.0808205210354
 30
0.0
 10
110.6661038433391
 20
-138.125588021024
 30
0.0
 10
110.7212430085991
 20
-138.125588021024
 30
0.0
 10
110.7763468960822
 20
-138.125588021024
 30
0.0
 10
110.8211496727169
 20
-138.0808205210354
 30
0.0
 10
110.8211496727169
 20
-138.0256813543824
 30
0.0
 10
110.8211496727169
 20
-137.9705774655075
 30
0.0
 10
110.7763468960822
 20
-137.9257746877407
 30
0.0
 10
110.7212430085991
 20
-137.9257746877407
 30
0.0
  0
SPLINE
  5
42
330
1F
100
AcDbEntity
  8
_U+30EC_U+30A4_U+30E4_U+30FC 1
 62
   179
420
  2234388
370
     9
100
AcDbSpline
210
0.0
220
0.0
230
1.0
 70
    11
 71
     3
 72
    17
 73
    13
 74
     0
 42
0.0000000001
 43
0.0000000001
 12
1.0
 22
0.0
 32
0.0
 13
1.0
 23
0.0
 33
0.0
 40
0.0
 40
0.0
 40
0.0
 40
0.0
 40
1.0
 40
1.0
 40
1.0
 40
2.0
 40
2.0
 40
2.0
 40
3.0
 40
3.0
 40
3.0
 40
4.0
 40
4.0
 40
4.0
 40
4.0
 10
110.7212430085991
 20
-140.9030427425521
 30
0.0
 10
110.6661038433391
 20
-140.9030427425521
 30
0.0
 10
110.6213363444813
 20
-140.9478102425407
 30
0.0
 10
110.6213363444813
 20
-141.0029494091937
 30
0.0
 10
110.6213363444813
 20
-141.0580532980687
 30
0.0
 10
110.6661038433391
 20
-141.1028560758354
 30
0.0
 10
110.7212430085991
 20
-141.1028560758354
 30
0.0
 10
110.7763468960822
 20
-141.1028560758354
 30
0.0
 10
110.8211496727169
 20
-141.0580532980687
 30
0.0
 10
110.8211496727169
 20
-141.0029494091937
 30
0.0
 10
110.8211496727169
 20
-140.9478102425407
 30
0.0
 10
110.7763468960822
 20
-140.9030427425521
 30
0.0
 10
110.7212430085991
 20
-140.9030427425521
 30
0.0
  0
POLYLINE
  5
43
330
1F
100
AcDbEntity
  8
_U+30EC_U+30A4_U+30E4_U+30FC 1
 62
   179
420
  2234388
370
     9
100
AcDb2dPolyline
 66
     1
 10
0.0
 20
0.0
 30
0.0
  0
VERTEX
  5
44
330
43
100
AcDbEntity
  8
_U+30EC_U+30A4_U+30E4_U+30FC 1
 62
   179
420
  2234388
370
     9
100
AcDbVertex
100
AcDb2dVertex
 10
110.7212430085991
 20
-141.0029494091937
 30
0.0
  0
VERTEX
  5
45
330
43
100
AcDbEntity
  8
_U+30EC_U+30A4_U+30E4_U+30FC 1
 62
   179
420
  2234388
370
     9
100
AcDbVertex
100
AcDb2dVertex
 10
110.7212430085991
 20
-137.9650388543978
 30
0.0
  0
SEQEND
  5
46
330
43
100
AcDbEntity
  8
_U+30EC_U+30A4_U+30E4_U+30FC 1
 62
   179
420
  2234388
370
     9
  0
POLYLINE
  5
47
330
1F
100
AcDbEntity
  8
_U+30EC_U+30A4_U+30E4_U+30FC 1
 62
   179
420
  2234388
370
     9
100
AcDb2dPolyline
 66
     1
 10
0.0
 20
0.0
 30
0.0
  0
VERTEX
  5
48
330
47
100
AcDbEntity
  8
_U+30EC_U+30A4_U+30E4_U+30FC 1
 62
   179
420
  2234388
370
     9
100
AcDbVertex
100
AcDb2dVertex
 10
108.2614294602431
 20
-141.0029494091937
 30
0.0
  0
VERTEX
  5
49
330
47
100
AcDbEntity
  8
_U+30EC_U+30A4_U+30E4_U+30FC 1
 62
   179
420
  2234388
370
     9
100
AcDbVertex
100
AcDb2dVertex
 10
111.7216854830757
 20
-141.0029494091937
 30
0.0
  0
SEQEND
  5
4A
330
47
100
AcDbEntity
  8
_U+30EC_U+30A4_U+30E4_U+30FC 1
 62
   179
420
  2234388
370
     9
  0
POLYLINE
  5
4B
330
1F
100
AcDbEntity
  8
_U+30EC_U+30A4_U+30E4_U+30FC 1
 62
   179
420
  2234388
370
     9
100
AcDb2dPolyline
 66
     1
 10
0.0
 20
0.0
 30
0.0
  0
VERTEX
  5
4C
330
4B
100
AcDbEntity
  8
_U+30EC_U+30A4_U+30E4_U+30FC 1
 62
   179
420
  2234388
370
     9
100
AcDbVertex
100
AcDb2dVertex
 10
108.2614294602431
 20
-138.0256813543824
 30
0.0
  0
VERTEX
  5
4D
330
4B
100
AcDbEntity
  8
_U+30EC_U+30A4_U+30E4_U+30FC 1
 62
   179
420
  2234388
370
     9
100
AcDbVertex
100
AcDb2dVertex
 10
111.7216854830757
 20
-138.0256813543824
 30
0.0
  0
SEQEND
  5
4E
330
4B
100
AcDbEntity
  8
_U+30EC_U+30A4_U+30E4_U+30FC 1
 62
   179
420
  2234388
370
     9
  0
INSERT
  5
50
330
1F
100
AcDbEntity
  8
_U+30EC_U+30A4_U+30E4_U+30FC 1
100
AcDbBlockReference
  2
block 2
 10
0.0
 20
0.0
 30
0.0
  0
SPLINE
  5
55
330
1F
100
AcDbEntity
  8
_U+30EC_U+30A4_U+30E4_U+30FC 1
 62
   179
420
  2234388
370
     9
100
AcDbSpline
210
0.0
220
0.0
230
1.0
 70
    11
 71
     3
 72
    17
 73
    13
 74
     0
 42
0.0000000001
 43
0.0000000001
 12
1.0
 22
0.0
 32
0.0
 13
1.0
 23
0.0
 33
0.0
 40
0.0
 40
0.0
 40
0.0
 40
0.0
 40
1.0
 40
1.0
 40
1.0
 40
2.0
 40
2.0
 40
2.0
 40
3.0
 40
3.0
 40
3.0
 40
4.0
 40
4.0
 40
4.0
 40
4.0
 10
106.8661581069505
 20
-145.0109635748586
 30
0.0
 10
106.8661581069505
 20
-144.9558244082055
 30
0.0
 10
106.8213906080926
 20
-144.9110569082169
 30
0.0
 10
106.7662514428327
 20
-144.9110569082169
 30
0.0
 10
106.7111475553496
 20
-144.9110569082169
 30
0.0
 10
106.6663447787148
 20
-144.9558244082055
 30
0.0
 10
106.6663447787148
 20
-145.0109635748586
 30
0.0
 10
106.6663447787148
 20
-145.0660674637335
 30
0.0
 10
106.7111475553496
 20
-145.1108702415002
 30
0.0
 10
106.7662514428327
 20
-145.1108702415002
 30
0.0
 10
106.8213906080926
 20
-145.1108702415002
 30
0.0
 10
106.8661581069505
 20
-145.0660674637335
 30
0.0
 10
106.8661581069505
 20
-145.0109635748586
 30
0.0
  0
SPLINE
  5
56
330
1F
100
AcDbEntity
  8
_U+30EC_U+30A4_U+30E4_U+30FC 1
 62
   179
420
  2234388
370
     9
100
AcDbSpline
210
0.0
220
0.0
230
1.0
 70
    11
 71
     3
 72
    17
 73
    13
 74
     0
 42
0.0000000001
 43
0.0000000001
 12
1.0
 22
0.0
 32
0.0
 13
1.0
 23
0.0
 33
0.0
 40
0.0
 40
0.0
 40
0.0
 40
0.0
 40
1.0
 40
1.0
 40
1.0
 40
2.0
 40
2.0
 40
2.0
 40
3.0
 40
3.0
 40
3.0
 40
4.0
 40
4.0
 40
4.0
 40
4.0
 10
76.86145831411797
 20
-145.0109635748586
 30
0.0
 10
76.86145831411797
 20
-144.9558244082055
 30
0.0
 10
76.81665553635125
 20
-144.9110569082169
 30
0.0
 10
76.76084415277883
 20
-144.9110569082169
 30
0.0
 10
76.70574026529576
 20
-144.9110569082169
 30
0.0
 10
76.66093748866099
 20
-144.9558244082055
 30
0.0
 10
76.66093748866099
 20
-145.0109635748586
 30
0.0
 10
76.66093748866099
 20
-145.0660674637335
 30
0.0
 10
76.70574026529576
 20
-145.1108702415002
 30
0.0
 10
76.76084415277883
 20
-145.1108702415002
 30
0.0
 10
76.81665553635125
 20
-145.1108702415002
 30
0.0
 10
76.86145831411797
 20
-145.0660674637335
 30
0.0
 10
76.86145831411797
 20
-145.0109635748586
 30
0.0
  0
SPLINE
  5
57
330
1F
100
AcDbEntity
  8
_U+30EC_U+30A4_U+30E4_U+30FC 1
 62
   179
420
  2234388
370
     9
100
AcDbSpline
210
0.0
220
0.0
230
1.0
 70
    11
 71
     3
 72
    17
 73
    13
 74
     0
 42
0.0000000001
 43
0.0000000001
 12
1.0
 22
0.0
 32
0.0
 13
1.0
 23
0.0
 33
0.0
 40
0.0
 40
0.0
 40
0.0
 40
0.0
 40
1.0
 40
1.0
 40
1.0
 40
2.0
 40
2.0
 40
2.0
 40
3.0
 40
3.0
 40
3.0
 40
4.0
 40
4.0
 40
4.0
 40
4.0
 10
72.86102703004923
 20
-140.9099219092172
 30
0.0
 10
72.86102703004923
 20
-140.8547827425641
 30
0.0
 10
72.81622425341446
 20
-140.8100152425755
 30
0.0
 10
72.76112220403209
 20
-140.8100152425755
 30
0.0
 10
72.70598120067145
 20
-140.8100152425755
 30
0.0
 10
72.66121370181355
 20
-140.8547827425641
 30
0.0
 10
72.66121370181355
 20
-140.9099219092172
 30
0.0
 10
72.66121370181355
 20
-140.9657313536476
 30
0.0
 10
72.70598120067145
 20
-141.0104988536362
 30
0.0
 10
72.76112220403209
 20
-141.0104988536362
 30
0.0
 10
72.81622425341446
 20
-141.0104988536362
 30
0.0
 10
72.86102703004923
 20
-140.9657313536476
 30
0.0
 10
72.86102703004923
 20
-140.9099219092172
 30
0.0
  0
POLYLINE
  5
58
330
1F
100
AcDbEntity
  8
_U+30EC_U+30A4_U+30E4_U+30FC 1
 62
   179
420
  2234388
370
     9
100
AcDb2dPolyline
 66
     1
 10
0.0
 20
0.0
 30
0.0
  0
VERTEX
  5
59
330
58
100
AcDbEntity
  8
_U+30EC_U+30A4_U+30E4_U+30FC 1
 62
   179
420
  2234388
370
     9
100
AcDbVertex
100
AcDb2dVertex
 10
72.76112220403209
 20
-141.0104988536362
 30
0.0
  0
VERTEX
  5
5A
330
58
100
AcDbEntity
  8
_U+30EC_U+30A4_U+30E4_U+30FC 1
 62
   179
420
  2234388
370
     9
100
AcDbVertex
100
AcDb2dVertex
 10
72.76112220403209
 20
-111.0040677500266
 30
0.0
  0
SEQEND
  5
5B
330
58
100
AcDbEntity
  8
_U+30EC_U+30A4_U+30E4_U+30FC 1
 62
   179
420
  2234388
370
     9
  0
POLYLINE
  5
5C
330
1F
100
AcDbEntity
  8
_U+30EC_U+30A4_U+30E4_U+30FC 1
 62
   179
420
  2234388
370
     9
100
AcDb2dPolyline
 66
     1
 10
0.0
 20
0.0
 30
0.0
  0
VERTEX
  5
5D
330
5C
100
AcDbEntity
  8
_U+30EC_U+30A4_U+30E4_U+30FC 1
 62
   179
420
  2234388
370
     9
100
AcDbVertex
100
AcDb2dVertex
 10
75.22089863651055
 20
-140.9099219092172
 30
0.0
  0
VERTEX
  5
5E
330
5C
100
AcDbEntity
  8
_U+30EC_U+30A4_U+30E4_U+30FC 1
 62
   179
420
  2234388
370
     9
100
AcDbVertex
100
AcDb2dVertex
 10
71.76134998205954
 20
-140.9099219092172
 30
0.0
  0
SEQEND
  5
5F
330
5C
100
AcDbEntity
  8
_U+30EC_U+30A4_U+30E4_U+30FC 1
 62
   179
420
  2234388
370
     9
  0
SPLINE
  5
60
330
1F
100
AcDbEntity
  8
_U+30EC_U+30A4_U+30E4_U+30FC 1
 62
   179
420
  2234388
370
     9
100
AcDbSpline
210
0.0
220
0.0
230
1.0
 70
    11
 71
     3
 72
    17
 73
    13
 74
     0
 42
0.0000000001
 43
0.0000000001
 12
1.0
 22
0.0
 32
0.0
 13
1.0
 23
0.0
 33
0.0
 40
0.0
 40
0.0
 40
0.0
 40
0.0
 40
1.0
 40
1.0
 40
1.0
 40
2.0
 40
2.0
 40
2.0
 40
3.0
 40
3.0
 40
3.0
 40
4.0
 40
4.0
 40
4.0
 40
4.0
 10
72.86102703004923
 20
-111.0040677500266
 30
0.0
 10
72.86102703004923
 20
-110.9489638611517
 30
0.0
 10
72.81622425341446
 20
-110.904161083385
 30
0.0
 10
72.76112220403209
 20
-110.904161083385
 30
0.0
 10
72.70598120067145
 20
-110.904161083385
 30
0.0
 10
72.66121370181355
 20
-110.9489638611517
 30
0.0
 10
72.66121370181355
 20
-111.0040677500266
 30
0.0
 10
72.66121370181355
 20
-111.0598771944574
 30
0.0
 10
72.70598120067145
 20
-111.1046799722238
 30
0.0
 10
72.76112220403209
 20
-111.1046799722238
 30
0.0
 10
72.81622425341446
 20
-111.1046799722238
 30
0.0
 10
72.86102703004923
 20
-111.0598771944574
 30
0.0
 10
72.86102703004923
 20
-111.0040677500266
 30
0.0
  0
POLYLINE
  5
61
330
1F
100
AcDbEntity
  8
_U+30EC_U+30A4_U+30E4_U+30FC 1
 62
   179
420
  2234388
370
     9
100
AcDb2dPolyline
 66
     1
 10
0.0
 20
0.0
 30
0.0
  0
VERTEX
  5
62
330
61
100
AcDbEntity
  8
_U+30EC_U+30A4_U+30E4_U+30FC 1
 62
   179
420
  2234388
370
     9
100
AcDbVertex
100
AcDb2dVertex
 10
75.22089863651055
 20
-111.0040677500266
 30
0.0
  0
VERTEX
  5
63
330
61
100
AcDbEntity
  8
_U+30EC_U+30A4_U+30E4_U+30FC 1
 62
   179
420
  2234388
370
     9
100
AcDbVertex
100
AcDb2dVertex
 10
71.76134998205954
 20
-111.0040677500266
 30
0.0
  0
SEQEND
  5
64
330
61
100
AcDbEntity
  8
_U+30EC_U+30A4_U+30E4_U+30FC 1
 62
   179
420
  2234388
370
     9
  0
POLYLINE
  5
65
330
1F
100
AcDbEntity
  8
_U+30EC_U+30A4_U+30E4_U+30FC 1
 62
   179
420
  2234388
370
     9
100
AcDb2dPolyline
 66
     1
 10
0.0
 20
0.0
 30
0.0
  0
VERTEX
  5
66
330
65
100
AcDbEntity
  8
_U+30EC_U+30A4_U+30E4_U+30FC 1
 62
   179
420
  2234388
370
     9
100
AcDbVertex
100
AcDb2dVertex
 10
76.76084415277883
 20
-145.0109635748586
 30
0.0
  0
VERTEX
  5
67
330
65
100
AcDbEntity
  8
_U+30EC_U+30A4_U+30E4_U+30FC 1
 62
   179
420
  2234388
370
     9
100
AcDbVertex
100
AcDb2dVertex
 10
106.7662514428327
 20
-145.0109635748586
 30
0.0
  0
SEQEND
  5
68
330
65
100
AcDbEntity
  8
_U+30EC_U+30A4_U+30E4_U+30FC 1
 62
   179
420
  2234388
370
     9
  0
POLYLINE
  5
69
330
1F
100
AcDbEntity
  8
_U+30EC_U+30A4_U+30E4_U+30FC 1
 62
   179
420
  2234388
370
     9
100
AcDb2dPolyline
 66
     1
 10
0.0
 20
0.0
 30
0.0
  0
VERTEX
  5
6A
330
69
100
AcDbEntity
  8
_U+30EC_U+30A4_U+30E4_U+30FC 1
 62
   179
420
  2234388
370
     9
100
AcDbVertex
100
AcDb2dVertex
 10
76.76084415277883
 20
-142.5504796865843
 30
0.0
  0
VERTEX
  5
6B
330
69
100
AcDbEntity
  8
_U+30EC_U+30A4_U+30E4_U+30FC 1
 62
   179
420
  2234388
370
     9
100
AcDbVertex
100
AcDb2dVertex
 10
76.76084415277883
 20
-146.0107357968305
 30
0.0
  0
SEQEND
  5
6C
330
69
100
AcDbEntity
  8
_U+30EC_U+30A4_U+30E4_U+30FC 1
 62
   179
420
  2234388
370
     9
  0
POLYLINE
  5
6D
330
1F
100
AcDbEntity
  8
_U+30EC_U+30A4_U+30E4_U+30FC 1
 62
   179
420
  2234388
370
     9
100
AcDb2dPolyline
 66
     1
 10
0.0
 20
0.0
 30
0.0
  0
VERTEX
  5
6E
330
6D
100
AcDbEntity
  8
_U+30EC_U+30A4_U+30E4_U+30FC 1
 62
   179
420
  2234388
370
     9
100
AcDbVertex
100
AcDb2dVertex
 10
106.7662514428327
 20
-143.5509221863342
 30
0.0
  0
VERTEX
  5
6F
330
6D
100
AcDbEntity
  8
_U+30EC_U+30A4_U+30E4_U+30FC 1
 62
   179
420
  2234388
370
     9
100
AcDbVertex
100
AcDb2dVertex
 10
106.7662514428327
 20
-146.0107357968305
 30
0.0
  0
SEQEND
  5
70
330
6D
100
AcDbEntity
  8
_U+30EC_U+30A4_U+30E4_U+30FC 1
 62
   179
420
  2234388
370
     9
  0
INSERT
  5
72
330
1F
100
AcDbEntity
  8
_U+30EC_U+30A4_U+30E4_U+30FC 1
100
AcDbBlockReference
  2
block 3
 10
0.0
 20
0.0
 30
0.0
  0
INSERT
  5
7B
330
1F
100
AcDbEntity
  8
_U+30EC_U+30A4_U+30E4_U+30FC 1
100
AcDbBlockReference
  2
block 4
 10
0.0
 20
0.0
 30
0.0
  0
INSERT
  5
84
330
1F
100
AcDbEntity
  8
_U+30EC_U+30A4_U+30E4_U+30FC 1
100
AcDbBlockReference
  2
block 5
 10
0.0
 20
0.0
 30
0.0
  0
SPLINE
  5
8C
330
1F
100
AcDbEntity
  8
_U+30EC_U+30A4_U+30E4_U+30FC 1
 62
   179
420
  2234388
370
    25
100
AcDbSpline
210
0.0
220
0.0
230
1.0
 70
    11
 71
     3
 72
    26
 73
    22
 74
     0
 42
0.0000000001
 43
0.0000000001
 12
1.0
 22
0.0
 32
0.0
 13
1.0
 23
0.0
 33
0.0
 40
0.0
 40
0.0
 40
0.0
 40
0.0
 40
1.0
 40
1.0
 40
1.0
 40
2.0
 40
2.0
 40
2.0
 40
3.0
 40
3.0
 40
3.0
 40
4.0
 40
4.0
 40
4.0
 40
5.0
 40
5.0
 40
5.0
 40
6.0
 40
6.0
 40
6.0
 40
7.0
 40
7.0
 40
7.0
 40
7.0
 10
79.76086629846411
 20
-141.0104988536362
 30
0.0
 10
78.10443356294545
 20
-141.0104988536362
 30
0.0
 10
76.76084415277883
 20
-139.6676149650831
 30
0.0
 10
76.76084415277883
 20
-138.0105119099418
 30
0.0
 10
76.76084415277883
 20
-138.0105119099418
 30
0.0
 10
76.76084415277883
 20
-111.0106294166918
 30
0.0
 10
76.76084415277883
 20
-111.0106294166918
 30
0.0
 10
76.76084415277883
 20
-111.0106294166918
 30
0.0
 10
79.76086629846411
 20
-111.0106294166918
 30
0.0
 10
79.76086629846411
 20
-111.0106294166918
 30
0.0
 10
79.76086629846411
 20
-111.0106294166918
 30
0.0
 10
79.76086629846411
 20
-138.0105119099418
 30
0.0
 10
79.76086629846411
 20
-138.0105119099418
 30
0.0
 10
79.76086629846411
 20
-138.0105119099418
 30
0.0
 10
106.7614536651773
 20
-138.0105119099418
 30
0.0
 10
106.7614536651773
 20
-138.0105119099418
 30
0.0
 10
106.7614536651773
 20
-138.0105119099418
 30
0.0
 10
106.7614536651773
 20
-141.0104988536362
 30
0.0
 10
106.7614536651773
 20
-141.0104988536362
 30
0.0
 10
106.7614536651773
 20
-141.0104988536362
 30
0.0
 10
79.76086629846411
 20
-141.0104988536362
 30
0.0
 10
79.76086629846411
 20
-141.0104988536362
 30
0.0
  0
SPLINE
  5
8D
330
1F
100
AcDbEntity
  8
_U+30EC_U+30A4_U+30E4_U+30FC 1
 62
   179
420
  2234388
370
    25
100
AcDbSpline
210
0.0
220
0.0
230
1.0
 70
     8
 71
     3
 72
     8
 73
     4
 74
     0
 42
0.0000000001
 43
0.0000000001
 12
1.0
 22
0.0
 32
0.0
 13
1.0
 23
0.0
 33
0.0
 40
0.0
 40
0.0
 40
0.0
 40
0.0
 40
1.0
 40
1.0
 40
1.0
 40
1.0
 10
79.76086629846411
 20
-141.0104988536362
 30
0.0
 10
78.10443356294545
 20
-141.0104988536362
 30
0.0
 10
76.76084415277883
 20
-139.6676149650831
 30
0.0
 10
76.76084415277883
 20
-138.0105119099418
 30
0.0
  0
POLYLINE
  5
8E
330
1F
100
AcDbEntity
  8
_U+30EC_U+30A4_U+30E4_U+30FC 1
 62
   179
420
  2234388
370
     9
100
AcDb2dPolyline
 66
     1
 10
0.0
 20
0.0
 30
0.0
  0
VERTEX
  5
8F
330
8E
100
AcDbEntity
  8
_U+30EC_U+30A4_U+30E4_U+30FC 1
 62
   179
420
  2234388
370
     9
100
AcDbVertex
100
AcDb2dVertex
 10
77.5297938553835
 20
-140.3748991315729
 30
0.0
  0
VERTEX
  5
90
330
8E
100
AcDbEntity
  8
_U+30EC_U+30A4_U+30E4_U+30FC 1
 62
   179
420
  2234388
370
     9
100
AcDbVertex
100
AcDb2dVertex
 10
76.62717665618896
 20
-140.8968338536644
 30
0.0
  0
SEQEND
  5
91
330
8E
100
AcDbEntity
  8
_U+30EC_U+30A4_U+30E4_U+30FC 1
 62
   179
420
  2234388
370
     9
  0
POLYLINE
  5
92
330
1F
100
AcDbEntity
  8
_U+30EC_U+30A4_U+30E4_U+30FC 1
 62
   179
420
  2234388
370
     9
100
AcDb2dPolyline
 66
     1
 10
0.0
 20
0.0
 30
0.0
  0
VERTEX
  5
93
330
92
100
AcDbEntity
  8
_U+30EC_U+30A4_U+30E4_U+30FC 1
 62
   179
420
  2234388
370
     9
100
AcDbVertex
100
AcDb2dVertex
 10
77.5297938553835
 20
-140.3748991315729
 30
0.0
  0
VERTEX
  5
94
330
92
100
AcDbEntity
  8
_U+30EC_U+30A4_U+30E4_U+30FC 1
 62
   179
420
  2234388
370
     9
100
AcDbVertex
100
AcDb2dVertex
 10
73.42116942608901
 20
-144.6357844082856
 30
0.0
  0
SEQEND
  5
95
330
92
100
AcDbEntity
  8
_U+30EC_U+30A4_U+30E4_U+30FC 1
 62
   179
420
  2234388
370
     9
  0
POLYLINE
  5
96
330
1F
100
AcDbEntity
  8
_U+30EC_U+30A4_U+30E4_U+30FC 1
 62
   179
420
  2234388
370
     9
100
AcDb2dPolyline
 66
     1
 10
0.0
 20
0.0
 30
0.0
  0
VERTEX
  5
97
330
96
100
AcDbEntity
  8
_U+30EC_U+30A4_U+30E4_U+30FC 1
 62
   179
420
  2234388
370
     9
100
AcDbVertex
100
AcDb2dVertex
 10
77.5297938553835
 20
-140.3748991315729
 30
0.0
  0
VERTEX
  5
98
330
96
100
AcDbEntity
  8
_U+30EC_U+30A4_U+30E4_U+30FC 1
 62
   179
420
  2234388
370
     9
100
AcDbVertex
100
AcDb2dVertex
 10
77.0082138696369
 20
-141.2778691313473
 30
0.0
  0
SEQEND
  5
99
330
96
100
AcDbEntity
  8
_U+30EC_U+30A4_U+30E4_U+30FC 1
 62
   179
420
  2234388
370
     9
  0
ENDSEC
  0
SECTION
  2
OBJECTS
  0
DICTIONARY
  5
C
330
0
100
AcDbDictionary
281
     1
  3
ACAD_GROUP
350
D
  3
ACAD_LAYOUT
350
1A
  3
ACAD_MATERIAL
350
3B
  3
ACAD_MLEADERSTYLE
350
9B
  3
ACAD_MLINESTYLE
350
17
  3
ACAD_PLOTSETTINGS
350
19
  3
ACAD_PLOTSTYLENAME
350
E
  3
ACAD_TABLESTYLE
350
9A
  3
ACAD_VISUALSTYLE
350
2A
  0
SUN
  5
3F
330
29
100
AcDbSun
 90
        1
290
     0
 63
     7
421
 16777215
 40
1.0
291
     1
 91
  2455826
 92
 54000000
292
     0
 70
     2
 71
   256
280
     1
  0
DICTIONARY
  5
D
102
{ACAD_REACTORS
330
C
102
}
330
C
100
AcDbDictionary
281
     1
  0
DICTIONARY
  5
1A
102
{ACAD_REACTORS
330
C
102
}
330
C
100
AcDbDictionary
281
     1
  3
Layout1
350
1E
  3
Layout2
350
26
  3
Model
350
22
  0
DICTIONARY
  5
3B
102
{ACAD_REACTORS
330
C
102
}
330
C
100
AcDbDictionary
281
     1
  3
ByBlock
350
3D
  3
ByLayer
350
3C
  3
Global
350
3E
  0
DICTIONARY
  5
9B
102
{ACAD_REACTORS
330
C
102
}
330
C
100
AcDbDictionary
281
     1
  0
DICTIONARY
  5
17
102
{ACAD_REACTORS
330
C
102
}
330
C
100
AcDbDictionary
281
     1
  3
Standard
350
18
  0
DICTIONARY
  5
19
102
{ACAD_REACTORS
330
C
102
}
330
C
100
AcDbDictionary
281
     1
  0
ACDBDICTIONARYWDFLT
  5
E
102
{ACAD_REACTORS
330
C
102
}
330
C
100
AcDbDictionary
281
     1
  3
Normal
350
F
100
AcDbDictionaryWithDefault
340
F
  0
DICTIONARY
  5
9A
102
{ACAD_REACTORS
330
C
102
}
330
C
100
AcDbDictionary
281
     1
  0
DICTIONARY
  5
2A
102
{ACAD_REACTORS
330
C
102
}
330
C
100
AcDbDictionary
281
     1
  3
2dWireframe
350
2F
  3
3D Hidden
350
31
  3
3dWireframe
350
30
  3
Basic
350
32
  3
Brighten
350
36
  3
ColorChange
350
3A
  3
Conceptual
350
34
  3
Dim
350
35
  3
Facepattern
350
39
  3
Flat
350
2B
  3
FlatWithEdges
350
2C
  3
Gouraud
350
2D
  3
GouraudWithEdges
350
2E
  3
Linepattern
350
38
  3
Realistic
350
33
  3
Thicken
350
37
  0
LAYOUT
  5
1E
102
{ACAD_REACTORS
330
1A
102
}
330
1A
100
AcDbPlotSettings
  1

  2
none_device
  4

  6

 40
0.0
 41
0.0
 42
0.0
 43
0.0
 44
0.0
 45
0.0
 46
0.0
 47
0.0
 48
0.0
 49
0.0
140
0.0
141
0.0
142
1.0
143
1.0
 70
   688
 72
     0
 73
     0
 74
     5
  7

 75
    16
 76
     0
 77
     2
 78
   300
147
1.0
148
0.0
149
0.0
100
AcDbLayout
  1
Layout1
 70
     1
 71
     1
 10
0.0
 20
0.0
 11
12.0
 21
9.0
 12
0.0
 22
0.0
 32
0.0
 14
1.000000000000000E+20
 24
1.000000000000000E+20
 34
1.000000000000000E+20
 15
-1.000000000000000E+20
 25
-1.000000000000000E+20
 35
-1.000000000000000E+20
146
0.0
 13
0.0
 23
0.0
 33
0.0
 16
1.0
 26
0.0
 36
0.0
 17
0.0
 27
1.0
 37
0.0
 76
     0
330
1B
  0
LAYOUT
  5
26
102
{ACAD_REACTORS
330
1A
102
}
330
1A
100
AcDbPlotSettings
  1

  2
none_device
  4

  6

 40
0.0
 41
0.0
 42
0.0
 43
0.0
 44
0.0
 45
0.0
 46
0.0
 47
0.0
 48
0.0
 49
0.0
140
0.0
141
0.0
142
1.0
143
1.0
 70
   688
 72
     0
 73
     0
 74
     5
  7

 75
    16
 76
     0
 77
     2
 78
   300
147
1.0
148
0.0
149
0.0
100
AcDbLayout
  1
Layout2
 70
     1
 71
     2
 10
0.0
 20
0.0
 11
0.0
 21
0.0
 12
0.0
 22
0.0
 32
0.0
 14
0.0
 24
0.0
 34
0.0
 15
0.0
 25
0.0
 35
0.0
146
0.0
 13
0.0
 23
0.0
 33
0.0
 16
1.0
 26
0.0
 36
0.0
 17
0.0
 27
1.0
 37
0.0
 76
     0
330
23
  0
LAYOUT
  5
22
102
{ACAD_REACTORS
330
1A
102
}
330
1A
100
AcDbPlotSettings
  1

  2
none_device
  4

  6

 40
0.0
 41
0.0
 42
0.0
 43
0.0
 44
0.0
 45
0.0
 46
0.0
 47
0.0
 48
0.0
 49
0.0
140
0.0
141
0.0
142
1.0
143
1.0
 70
  1712
 72
     0
 73
     0
 74
     0
  7

 75
     0
 76
     0
 77
     2
 78
   300
147
1.0
148
0.0
149
0.0
100
AcDbLayout
  1
Model
 70
     1
 71
     0
 10
0.0
 20
0.0
 11
12.0
 21
9.0
 12
0.0
 22
0.0
 32
0.0
 14
1.000000000000000E+20
 24
1.000000000000000E+20
 34
1.000000000000000E+20
 15
-1.000000000000000E+20
 25
-1.000000000000000E+20
 35
-1.000000000000000E+20
146
0.0
 13
0.0
 23
0.0
 33
0.0
 16
1.0
 26
0.0
 36
0.0
 17
0.0
 27
1.0
 37
0.0
 76
     0
330
1F
331
29
  0
MATERIAL
  5
3D
102
{ACAD_REACTORS
330
3B
102
}
330
3B
100
AcDbMaterial
  1
ByBlock
 72
     1
 94
      127
  0
MATERIAL
  5
3C
102
{ACAD_REACTORS
330
3B
102
}
330
3B
100
AcDbMaterial
  1
ByLayer
 72
     1
 94
      127
  0
MATERIAL
  5
3E
102
{ACAD_REACTORS
330
3B
102
}
330
3B
100
AcDbMaterial
  1
Global
 72
     1
 94
      127
  0
MLINESTYLE
  5
18
102
{ACAD_REACTORS
330
17
102
}
330
17
100
AcDbMlineStyle
  2
Standard
 70
     0
  3

 62
   256
 51
90.0
 52
90.0
 71
     2
 49
0.5
 62
   256
  6
BYLAYER
 49
-0.5
 62
   256
  6
BYLAYER
  0
ACDBPLACEHOLDER
  5
F
102
{ACAD_REACTORS
330
E
102
}
330
E
  0
VISUALSTYLE
  5
2F
102
{ACAD_REACTORS
330
2A
102
}
330
2A
100
AcDbVisualStyle
  2
2dWireframe
 70
     4
177
     2
291
     0
 71
     0
176
     1
 72
     2
176
     1
 73
     0
176
     1
 90
        0
176
     1
 40
-0.6
176
     1
 41
-30.0
176
     1
 62
     5
 63
     7
421
 16777215
176
     1
 74
     1
176
     1
 91
        4
176
     1
 64
     7
176
     1
 65
   257
176
     1
 75
     1
176
     1
175
     1
176
     1
 42
1.0
176
     1
 92
        0
176
     1
 66
   257
176
     1
 43
1.0
176
     1
 76
     1
176
     1
 77
     6
176
     1
 78
     2
176
     1
 67
     7
176
     1
 79
     5
176
     1
170
     0
176
     1
171
     0
176
     1
290
     0
176
     1
 93
        1
176
     1
 44
0.0
176
     1
173
     0
176
     1
  0
VISUALSTYLE
  5
31
102
{ACAD_REACTORS
330
2A
102
}
330
2A
100
AcDbVisualStyle
  2
3D Hidden
 70
     6
177
     2
291
     0
 71
     1
176
     1
 72
     2
176
     1
 73
     2
176
     1
 90
        0
176
     1
 40
-0.6
176
     1
 41
-30.0
176
     1
 62
     5
 63
     7
421
 16777215
176
     1
 74
     2
176
     1
 91
        2
176
     1
 64
     7
176
     1
 65
   257
176
     1
 75
     2
176
     1
175
     1
176
     1
 42
40.0
176
     1
 92
        0
176
     1
 66
   257
176
     1
 43
1.0
176
     1
 76
     1
176
     1
 77
     6
176
     1
 78
     2
176
     1
 67
     7
176
     1
 79
     3
176
     1
170
     0
176
     1
171
     0
176
     1
290
     0
176
     1
 93
        1
176
     1
 44
0.0
176
     1
173
     0
176
     1
  0
VISUALSTYLE
  5
30
102
{ACAD_REACTORS
330
2A
102
}
330
2A
100
AcDbVisualStyle
  2
3dWireframe
 70
     5
177
     2
291
     0
 71
     0
176
     1
 72
     2
176
     1
 73
     0
176
     1
 90
        0
176
     1
 40
-0.6
176
     1
 41
-30.0
176
     1
 62
     5
 63
     7
421
 16777215
176
     1
 74
     1
176
     1
 91
        4
176
     1
 64
     7
176
     1
 65
   257
176
     1
 75
     1
176
     1
175
     1
176
     1
 42
1.0
176
     1
 92
        0
176
     1
 66
   257
176
     1
 43
1.0
176
     1
 76
     1
176
     1
 77
     6
176
     1
 78
     2
176
     1
 67
     7
176
     1
 79
     5
176
     1
170
     0
176
     1
171
     0
176
     1
290
     0
176
     1
 93
        1
176
     1
 44
0.0
176
     1
173
     0
176
     1
  0
VISUALSTYLE
  5
32
102
{ACAD_REACTORS
330
2A
102
}
330
2A
100
AcDbVisualStyle
  2
Basic
 70
     7
177
     2
291
     1
 71
     1
176
     1
 72
     0
176
     1
 73
     1
176
     1
 90
        0
176
     1
 40
-0.6
176
     1
 41
-30.0
176
     1
 62
     5
 63
     7
421
 16777215
176
     1
 74
     0
176
     1
 91
        4
176
     1
 64
     7
176
     1
 65
   257
176
     1
 75
     1
176
     1
175
     1
176
     1
 42
1.0
176
     1
 92
        8
176
     1
 66
     7
176
     1
 43
1.0
176
     1
 76
     1
176
     1
 77
     6
176
     1
 78
     2
176
     1
 67
     7
176
     1
 79
     5
176
     1
170
     0
176
     1
171
     0
176
     1
290
     0
176
     1
 93
        1
176
     1
 44
0.0
176
     1
173
     0
176
     1
  0
VISUALSTYLE
  5
36
102
{ACAD_REACTORS
330
2A
102
}
330
2A
100
AcDbVisualStyle
  2
Brighten
 70
    12
177
     2
291
     1
 71
     2
176
     1
 72
     2
176
     1
 73
     0
176
     1
 90
        0
176
     1
 40
-0.6
176
     1
 41
-30.0
176
     1
 62
     5
 63
     7
421
 16777215
176
     1
 74
     1
176
     1
 91
        4
176
     1
 64
     7
176
     1
 65
   257
176
     1
 75
     1
176
     1
175
     1
176
     1
 42
1.0
176
     1
 92
        8
176
     1
 66
     7
176
     1
 43
1.0
176
     1
 76
     1
176
     1
 77
     6
176
     1
 78
     2
176
     1
 67
     7
176
     1
 79
     5
176
     1
170
     0
176
     1
171
     0
176
     1
290
     0
176
     1
 93
        1
176
     1
 44
50.0
176
     1
173
     0
176
     1
  0
VISUALSTYLE
  5
3A
102
{ACAD_REACTORS
330
2A
102
}
330
2A
100
AcDbVisualStyle
  2
ColorChange
 70
    16
177
     2
291
     1
 71
     2
176
     1
 72
     2
176
     1
 73
     3
176
     1
 90
        0
176
     1
 40
-0.6
176
     1
 41
-30.0
176
     1
 62
     5
 63
     8
421
  8421504
176
     1
 74
     1
176
     1
 91
        4
176
     1
 64
     7
176
     1
 65
   257
176
     1
 75
     1
176
     1
175
     1
176
     1
 42
1.0
176
     1
 92
        8
176
     1
 66
     8
424
  8421504
176
     1
 43
1.0
176
     1
 76
     1
176
     1
 77
     6
176
     1
 78
     2
176
     1
 67
     7
176
     1
 79
     5
176
     1
170
     0
176
     1
171
     0
176
     1
290
     0
176
     1
 93
        1
176
     1
 44
0.0
176
     1
173
     0
176
     1
  0
VISUALSTYLE
  5
34
102
{ACAD_REACTORS
330
2A
102
}
330
2A
100
AcDbVisualStyle
  2
Conceptual
 70
     9
177
     2
291
     0
 71
     3
176
     1
 72
     2
176
     1
 73
     0
176
     1
 90
        0
176
     1
 40
-0.6
176
     1
 41
-30.0
176
     1
 62
     5
 63
     7
421
 16777215
176
     1
 74
     2
176
     1
 91
        2
176
     1
 64
     7
176
     1
 65
   257
176
     1
 75
     1
176
     1
175
     1
176
     1
 42
40.0
176
     1
 92
        8
176
     1
 66
     7
176
     1
 43
1.0
176
     1
 76
     1
176
     1
 77
     6
176
     1
 78
     2
176
     1
 67
     7
176
     1
 79
     3
176
     1
170
     0
176
     1
171
     0
176
     1
290
     0
176
     1
 93
        1
176
     1
 44
0.0
176
     1
173
     0
176
     1
  0
VISUALSTYLE
  5
35
102
{ACAD_REACTORS
330
2A
102
}
330
2A
100
AcDbVisualStyle
  2
Dim
 70
    11
177
     2
291
     1
 71
     2
176
     1
 72
     2
176
     1
 73
     0
176
     1
 90
        0
176
     1
 40
-0.6
176
     1
 41
-30.0
176
     1
 62
     5
 63
     7
421
 16777215
176
     1
 74
     1
176
     1
 91
        4
176
     1
 64
     7
176
     1
 65
   257
176
     1
 75
     1
176
     1
175
     1
176
     1
 42
1.0
176
     1
 92
        8
176
     1
 66
     7
176
     1
 43
1.0
176
     1
 76
     1
176
     1
 77
     6
176
     1
 78
     2
176
     1
 67
     7
176
     1
 79
     5
176
     1
170
     0
176
     1
171
     0
176
     1
290
     0
176
     1
 93
        1
176
     1
 44
-50.0
176
     1
173
     0
176
     1
  0
VISUALSTYLE
  5
39
102
{ACAD_REACTORS
330
2A
102
}
330
2A
100
AcDbVisualStyle
  2
Facepattern
 70
    15
177
     2
291
     1
 71
     2
176
     1
 72
     2
176
     1
 73
     0
176
     1
 90
        0
176
     1
 40
-0.6
176
     1
 41
-30.0
176
     1
 62
     5
 63
     7
421
 16777215
176
     1
 74
     1
176
     1
 91
        4
176
     1
 64
     7
176
     1
 65
   257
176
     1
 75
     1
176
     1
175
     1
176
     1
 42
1.0
176
     1
 92
        8
176
     1
 66
     7
176
     1
 43
1.0
176
     1
 76
     1
176
     1
 77
     6
176
     1
 78
     2
176
     1
 67
     7
176
     1
 79
     5
176
     1
170
     0
176
     1
171
     0
176
     1
290
     0
176
     1
 93
        1
176
     1
 44
0.0
176
     1
173
     0
176
     1
  0
VISUALSTYLE
  5
2B
102
{ACAD_REACTORS
330
2A
102
}
330
2A
100
AcDbVisualStyle
  2
Flat
 70
     0
177
     2
291
     1
 71
     2
176
     1
 72
     1
176
     1
 73
     1
176
     1
 90
        2
176
     1
 40
-0.6
176
     1
 41
30.0
176
     1
 62
     5
 63
     7
421
 16777215
176
     1
 74
     0
176
     1
 91
        4
176
     1
 64
     7
176
     1
 65
   257
176
     1
 75
     1
176
     1
175
     1
176
     1
 42
1.0
176
     1
 92
        8
176
     1
 66
     7
176
     1
 43
1.0
176
     1
 76
     1
176
     1
 77
     6
176
     1
 78
     2
176
     1
 67
     7
176
     1
 79
     5
176
     1
170
     0
176
     1
171
     0
176
     1
290
     0
176
     1
 93
       13
176
     1
 44
0.0
176
     1
173
     0
176
     1
  0
VISUALSTYLE
  5
2C
102
{ACAD_REACTORS
330
2A
102
}
330
2A
100
AcDbVisualStyle
  2
FlatWithEdges
 70
     1
177
     2
291
     1
 71
     2
176
     1
 72
     1
176
     1
 73
     1
176
     1
 90
        2
176
     1
 40
-0.6
176
     1
 41
30.0
176
     1
 62
     5
 63
     7
421
 16777215
176
     1
 74
     1
176
     1
 91
        4
176
     1
 64
     7
176
     1
 65
   257
176
     1
 75
     1
176
     1
175
     1
176
     1
 42
1.0
176
     1
 92
        0
176
     1
 66
   257
176
     1
 43
1.0
176
     1
 76
     1
176
     1
 77
     6
176
     1
 78
     2
176
     1
 67
     7
176
     1
 79
     5
176
     1
170
     0
176
     1
171
     0
176
     1
290
     0
176
     1
 93
       13
176
     1
 44
0.0
176
     1
173
     0
176
     1
  0
VISUALSTYLE
  5
2D
102
{ACAD_REACTORS
330
2A
102
}
330
2A
100
AcDbVisualStyle
  2
Gouraud
 70
     2
177
     2
291
     1
 71
     2
176
     1
 72
     2
176
     1
 73
     1
176
     1
 90
        2
176
     1
 40
-0.6
176
     1
 41
30.0
176
     1
 62
     5
 63
     7
421
 16777215
176
     1
 74
     0
176
     1
 91
        4
176
     1
 64
     7
176
     1
 65
   257
176
     1
 75
     1
176
     1
175
     1
176
     1
 42
1.0
176
     1
 92
        0
176
     1
 66
     7
176
     1
 43
1.0
176
     1
 76
     1
176
     1
 77
     6
176
     1
 78
     2
176
     1
 67
     7
176
     1
 79
     5
176
     1
170
     0
176
     1
171
     0
176
     1
290
     0
176
     1
 93
       13
176
     1
 44
0.0
176
     1
173
     0
176
     1
  0
VISUALSTYLE
  5
2E
102
{ACAD_REACTORS
330
2A
102
}
330
2A
100
AcDbVisualStyle
  2
GouraudWithEdges
 70
     3
177
     2
291
     1
 71
     2
176
     1
 72
     2
176
     1
 73
     1
176
     1
 90
        2
176
     1
 40
-0.6
176
     1
 41
30.0
176
     1
 62
     5
 63
     7
421
 16777215
176
     1
 74
     1
176
     1
 91
        4
176
     1
 64
     7
176
     1
 65
   257
176
     1
 75
     1
176
     1
175
     1
176
     1
 42
1.0
176
     1
 92
        0
176
     1
 66
   257
176
     1
 43
1.0
176
     1
 76
     1
176
     1
 77
     6
176
     1
 78
     2
176
     1
 67
     7
176
     1
 79
     5
176
     1
170
     0
176
     1
171
     0
176
     1
290
     0
176
     1
 93
       13
176
     1
 44
0.0
176
     1
173
     0
176
     1
  0
VISUALSTYLE
  5
38
102
{ACAD_REACTORS
330
2A
102
}
330
2A
100
AcDbVisualStyle
  2
Linepattern
 70
    14
177
     2
291
     1
 71
     2
176
     1
 72
     2
176
     1
 73
     0
176
     1
 90
        0
176
     1
 40
-0.6
176
     1
 41
-30.0
176
     1
 62
     5
 63
     7
421
 16777215
176
     1
 74
     1
176
     1
 91
        4
176
     1
 64
     7
176
     1
 65
   257
176
     1
 75
     7
176
     1
175
     7
176
     1
 42
1.0
176
     1
 92
        8
176
     1
 66
     7
176
     1
 43
1.0
176
     1
 76
     1
176
     1
 77
     6
176
     1
 78
     2
176
     1
 67
     7
176
     1
 79
     5
176
     1
170
     0
176
     1
171
     0
176
     1
290
     0
176
     1
 93
        1
176
     1
 44
0.0
176
     1
173
     0
176
     1
  0
VISUALSTYLE
  5
33
102
{ACAD_REACTORS
330
2A
102
}
330
2A
100
AcDbVisualStyle
  2
Realistic
 70
     8
177
     2
291
     0
 71
     2
176
     1
 72
     2
176
     1
 73
     0
176
     1
 90
        0
176
     1
 40
-0.6
176
     1
 41
-30.0
176
     1
 62
     5
 63
     7
421
 16777215
176
     1
 74
     1
176
     1
 91
        0
176
     1
 64
     7
176
     1
 65
   257
176
     1
 75
     1
176
     1
175
     1
176
     1
 42
1.0
176
     1
 92
        8
176
     1
 66
     8
424
  7895160
176
     1
 43
1.0
176
     1
 76
     1
176
     1
 77
     6
176
     1
 78
     2
176
     1
 67
     7
176
     1
 79
     5
176
     1
170
     0
176
     1
171
     0
176
     1
290
     0
176
     1
 93
       13
176
     1
 44
0.0
176
     1
173
     0
176
     1
  0
VISUALSTYLE
  5
37
102
{ACAD_REACTORS
330
2A
102
}
330
2A
100
AcDbVisualStyle
  2
Thicken
 70
    13
177
     2
291
     1
 71
     2
176
     1
 72
     2
176
     1
 73
     0
176
     1
 90
        0
176
     1
 40
-0.6
176
     1
 41
-30.0
176
     1
 62
     5
 63
     7
421
 16777215
176
     1
 74
     1
176
     1
 91
        4
176
     1
 64
     7
176
     1
 65
   257
176
     1
 75
     1
176
     1
175
     1
176
     1
 42
1.0
176
     1
 92
       12
176
     1
 66
     7
176
     1
 43
1.0
176
     1
 76
     1
176
     1
 77
     6
176
     1
 78
     2
176
     1
 67
     7
176
     1
 79
     5
176
     1
170
     0
176
     1
171
     0
176
     1
290
     0
176
     1
 93
        1
176
     1
 44
0.0
176
     1
173
     0
176
     1
  0
ENDSEC
  0
EOF
