  0
SECTION
  2
HEADER
  9
$ACADVER
  1
AC1024
  9
$ACADMAINTVER
 70
     6
  9
$DWGCODEPAGE
  3
UNDEFINED
  9
$INSBASE
 10
0.0
 20
0.0
 30
0.0
  9
$EXTMIN
 10
1.000000000000000E+20
 20
1.000000000000000E+20
 30
1.000000000000000E+20
  9
$EXTMAX
 10
-1.000000000000000E+20
 20
-1.000000000000000E+20
 30
-1.000000000000000E+20
  9
$LIMMIN
 10
0.0
 20
0.0
  9
$LIMMAX
 10
12.0
 20
9.0
  9
$ORTHOMODE
 70
     0
  9
$REGENMODE
 70
     1
  9
$FILLMODE
 70
     1
  9
$QTEXTMODE
 70
     0
  9
$MIRRTEXT
 70
     1
  9
$LTSCALE
 40
1.0
  9
$ATTMODE
 70
     1
  9
$TEXTSIZE
 40
0.2
  9
$TRACEWID
 40
0.05
  9
$TEXTSTYLE
  7
Standard
  9
$CLAYER
  8
0
  9
$CELTYPE
  6
ByLayer
  9
$CECOLOR
 62
   256
  9
$CELTSCALE
 40
1.0
  9
$DISPSILH
 70
     0
  9
$DIMSCALE
 40
1.0
  9
$DIMASZ
 40
0.18
  9
$DIMEXO
 40
0.0625
  9
$DIMDLI
 40
0.38
  9
$DIMRND
 40
0.0
  9
$DIMDLE
 40
0.0
  9
$DIMEXE
 40
0.18
  9
$DIMTP
 40
0.0
  9
$DIMTM
 40
0.0
  9
$DIMTXT
 40
0.18
  9
$DIMCEN
 40
0.09
  9
$DIMTSZ
 40
0.0
  9
$DIMTOL
 70
     0
  9
$DIMLIM
 70
     0
  9
$DIMTIH
 70
     1
  9
$DIMTOH
 70
     1
  9
$DIMSE1
 70
     0
  9
$DIMSE2
 70
     0
  9
$DIMTAD
 70
     0
  9
$DIMZIN
 70
     0
  9
$DIMBLK
  1

  9
$DIMASO
 70
     1
  9
$DIMSHO
 70
     1
  9
$DIMPOST
  1

  9
$DIMAPOST
  1

  9
$DIMALT
 70
     0
  9
$DIMALTD
 70
     2
  9
$DIMALTF
 40
25.4
  9
$DIMLFAC
 40
1.0
  9
$DIMTOFL
 70
     0
  9
$DIMTVP
 40
0.0
  9
$DIMTIX
 70
     0
  9
$DIMSOXD
 70
     0
  9
$DIMSAH
 70
     0
  9
$DIMBLK1
  1

  9
$DIMBLK2
  1

  9
$DIMSTYLE
  2
Standard
  9
$DIMCLRD
 70
     0
  9
$DIMCLRE
 70
     0
  9
$DIMCLRT
 70
     0
  9
$DIMTFAC
 40
1.0
  9
$DIMGAP
 40
0.09
  9
$DIMJUST
 70
     0
  9
$DIMSD1
 70
     0
  9
$DIMSD2
 70
     0
  9
$DIMTOLJ
 70
     1
  9
$DIMTZIN
 70
     0
  9
$DIMALTZ
 70
     0
  9
$DIMALTTZ
 70
     0
  9
$DIMUPT
 70
     0
  9
$DIMDEC
 70
     4
  9
$DIMTDEC
 70
     4
  9
$DIMALTU
 70
     2
  9
$DIMALTTD
 70
     2
  9
$DIMTXSTY
  7
Standard
  9
$DIMAUNIT
 70
     0
  9
$DIMADEC
 70
     0
  9
$DIMALTRND
 40
0.0
  9
$DIMAZIN
 70
     0
  9
$DIMDSEP
 70
    46
  9
$DIMATFIT
 70
     3
  9
$DIMFRAC
 70
     0
  9
$DIMLDRBLK
  1

  9
$DIMLUNIT
 70
     2
  9
$DIMLWD
 70
    -2
  9
$DIMLWE
 70
    -2
  9
$DIMTMOVE
 70
     0
  9
$DIMFXL
 40
1.0
  9
$DIMFXLON
 70
     0
  9
$DIMJOGANG
 40
0.7853981633974483
  9
$DIMTFILL
 70
     0
  9
$DIMTFILLCLR
 70
     0
  9
$DIMARCSYM
 70
     0
  9
$DIMLTYPE
  6

  9
$DIMLTEX1
  6

  9
$DIMLTEX2
  6

  9
$DIMTXTDIRECTION
 70
     0
  9
$LUNITS
 70
     2
  9
$LUPREC
 70
     4
  9
$SKETCHINC
 40
0.1
  9
$FILLETRAD
 40
0.5
  9
$AUNITS
 70
     0
  9
$AUPREC
 70
     0
  9
$MENU
  1
.
  9
$ELEVATION
 40
0.0
  9
$PELEVATION
 40
0.0
  9
$THICKNESS
 40
0.0
  9
$LIMCHECK
 70
     0
  9
$CHAMFERA
 40
0.5
  9
$CHAMFERB
 40
0.5
  9
$CHAMFERC
 40
1.0
  9
$CHAMFERD
 40
0.0
  9
$SKPOLY
 70
     0
  9
$TDCREATE
 40
2457917.5990625
  9
$TDUCREATE
 40
2457917.2240625
  9
$TDUPDATE
 40
2457917.5990625
  9
$TDUUPDATE
 40
2457917.2240625
  9
$TDINDWG
 40
0.0000000116
  9
$TDUSRTIMER
 40
0.0000000116
  9
$USRTIMER
 70
     1
  9
$ANGBASE
 50
0.0
  9
$ANGDIR
 70
     0
  9
$PDMODE
 70
     0
  9
$PDSIZE
 40
0.0
  9
$PLINEWID
 40
0.0
  9
$SPLFRAME
 70
     0
  9
$SPLINETYPE
 70
     6
  9
$SPLINESEGS
 70
     8
  9
$HANDSEED
  5
8E
  9
$SURFTAB1
 70
     6
  9
$SURFTAB2
 70
     6
  9
$SURFTYPE
 70
     6
  9
$SURFU
 70
     6
  9
$SURFV
 70
     6
  9
$UCSBASE
  2

  9
$UCSNAME
  2

  9
$UCSORG
 10
0.0
 20
0.0
 30
0.0
  9
$UCSXDIR
 10
1.0
 20
0.0
 30
0.0
  9
$UCSYDIR
 10
0.0
 20
1.0
 30
0.0
  9
$UCSORTHOREF
  2

  9
$UCSORTHOVIEW
 70
     0
  9
$UCSORGTOP
 10
0.0
 20
0.0
 30
0.0
  9
$UCSORGBOTTOM
 10
0.0
 20
0.0
 30
0.0
  9
$UCSORGLEFT
 10
0.0
 20
0.0
 30
0.0
  9
$UCSORGRIGHT
 10
0.0
 20
0.0
 30
0.0
  9
$UCSORGFRONT
 10
0.0
 20
0.0
 30
0.0
  9
$UCSORGBACK
 10
0.0
 20
0.0
 30
0.0
  9
$PUCSBASE
  2

  9
$PUCSNAME
  2

  9
$PUCSORG
 10
0.0
 20
0.0
 30
0.0
  9
$PUCSXDIR
 10
1.0
 20
0.0
 30
0.0
  9
$PUCSYDIR
 10
0.0
 20
1.0
 30
0.0
  9
$PUCSORTHOREF
  2

  9
$PUCSORTHOVIEW
 70
     0
  9
$PUCSORGTOP
 10
0.0
 20
0.0
 30
0.0
  9
$PUCSORGBOTTOM
 10
0.0
 20
0.0
 30
0.0
  9
$PUCSORGLEFT
 10
0.0
 20
0.0
 30
0.0
  9
$PUCSORGRIGHT
 10
0.0
 20
0.0
 30
0.0
  9
$PUCSORGFRONT
 10
0.0
 20
0.0
 30
0.0
  9
$PUCSORGBACK
 10
0.0
 20
0.0
 30
0.0
  9
$USERI1
 70
     0
  9
$USERI2
 70
     0
  9
$USERI3
 70
     0
  9
$USERI4
 70
     0
  9
$USERI5
 70
     0
  9
$USERR1
 40
0.0
  9
$USERR2
 40
0.0
  9
$USERR3
 40
0.0
  9
$USERR4
 40
0.0
  9
$USERR5
 40
0.0
  9
$WORLDVIEW
 70
     1
  9
$SHADEDGE
 70
     3
  9
$SHADEDIF
 70
    70
  9
$TILEMODE
 70
     1
  9
$MAXACTVP
 70
    64
  9
$PINSBASE
 10
0.0
 20
0.0
 30
0.0
  9
$PLIMCHECK
 70
     0
  9
$PEXTMIN
 10
1.000000000000000E+20
 20
1.000000000000000E+20
 30
1.000000000000000E+20
  9
$PEXTMAX
 10
-1.000000000000000E+20
 20
-1.000000000000000E+20
 30
-1.000000000000000E+20
  9
$PLIMMIN
 10
0.0
 20
0.0
  9
$PLIMMAX
 10
12.0
 20
9.0
  9
$UNITMODE
 70
     0
  9
$VISRETAIN
 70
     1
  9
$PLINEGEN
 70
     0
  9
$PSLTSCALE
 70
     1
  9
$TREEDEPTH
 70
  3020
  9
$CMLSTYLE
  2
Standard
  9
$CMLJUST
 70
     0
  9
$CMLSCALE
 40
1.0
  9
$PROXYGRAPHICS
 70
     1
  9
$MEASUREMENT
 70
     0
  9
$CELWEIGHT
370
    -1
  9
$ENDCAPS
280
     0
  9
$JOINSTYLE
280
     0
  9
$LWDISPLAY
290
     1
  9
$INSUNITS
 70
     1
  9
$HYPERLINKBASE
  1

  9
$STYLESHEET
  1

  9
$XEDIT
290
     1
  9
$CEPSNTYPE
380
     0
  9
$PSTYLEMODE
290
     1
  9
$FINGERPRINTGUID
  2
{F3DCC793-69D7-C225-C87D-B5C8E0E31E14}
  9
$VERSIONGUID
  2
{FAEB1C32-E019-11D5-929B-00C0DF256EC4}
  9
$EXTNAMES
290
     1
  9
$PSVPSCALE
 40
0.0
  9
$OLESTARTUP
290
     0
  9
$SORTENTS
280
   127
  9
$INDEXCTL
280
     0
  9
$HIDETEXT
280
     1
  9
$XCLIPFRAME
280
     2
  9
$HALOGAP
280
     0
  9
$OBSCOLOR
 70
   257
  9
$OBSLTYPE
280
     0
  9
$INTERSECTIONDISPLAY
280
     0
  9
$INTERSECTIONCOLOR
 70
   257
  9
$DIMASSOC
280
     2
  9
$PROJECTNAME
  1

  9
$CAMERADISPLAY
290
     0
  9
$LENSLENGTH
 40
50.0
  9
$CAMERAHEIGHT
 40
0.0
  9
$STEPSPERSEC
 40
2.0
  9
$STEPSIZE
 40
6.0
  9
$3DDWFPREC
 40
2.0
  9
$PSOLWIDTH
 40
0.25
  9
$PSOLHEIGHT
 40
4.0
  9
$LOFTANG1
 40
1.570796326794897
  9
$LOFTANG2
 40
1.570796326794897
  9
$LOFTMAG1
 40
0.0
  9
$LOFTMAG2
 40
0.0
  9
$LOFTPARAM
 70
     7
  9
$LOFTNORMALS
280
     1
  9
$LATITUDE
 40
37.795
  9
$LONGITUDE
 40
-122.394
  9
$NORTHDIRECTION
 40
0.0
  9
$TIMEZONE
 70
 -8000
  9
$LIGHTGLYPHDISPLAY
280
     1
  9
$TILEMODELIGHTSYNCH
280
     1
  9
$CMATERIAL
347
3C
  9
$SOLIDHIST
280
     1
  9
$SHOWHIST
280
     1
  9
$DWFFRAME
280
     2
  9
$DGNFRAME
280
     2
  9
$REALWORLDSCALE
290
     1
  9
$INTERFERECOLOR
 62
   256
  9
$CSHADOW
280
     0
  9
$SHADOWPLANELOCATION
 40
0.0
  0
ENDSEC
  0
SECTION
  2
CLASSES
  0
CLASS
  1
ACDBDICTIONARYWDFLT
  2
AcDbDictionaryWithDefault
  3
ObjectDBX Classes
 90
        0
 91
        4
280
     0
281
     0
  0
CLASS
  1
VISUALSTYLE
  2
AcDbVisualStyle
  3
ObjectDBX Classes
 90
     4095
 91
        4
280
     0
281
     0
  0
CLASS
  1
MATERIAL
  2
AcDbMaterial
  3
ObjectDBX Classes
 90
     1153
 91
        4
280
     0
281
     0
  0
CLASS
  1
SUN
  2
AcDbSun
  3
SCENEOE
 90
     1024
 91
        4
280
     0
281
     0
  0
ENDSEC
  0
SECTION
  2
TABLES
  0
TABLE
  2
VPORT
  5
8
330
0
100
AcDbSymbolTable
 70
     1
  0
VPORT
  5
29
330
8
100
AcDbSymbolTableRecord
100
AcDbViewportTableRecord
  2
*Active
 70
     0
 10
0.0
 20
0.0
 11
1.0
 21
1.0
 12
0.0
 22
0.0
 13
0.0
 23
0.0
 14
0.5
 24
0.5
 15
0.5
 25
0.5
 16
0.0
 26
0.0
 36
1.0
 17
91.00082462281999
 27
-128.4993055234307
 37
0.0
 40
256.9986110468615
 41
0.7081814508812795
 42
50.0
 43
0.0
 44
0.0
 50
0.0
 51
0.0
 71
     0
 72
   100
 73
     1
 74
     3
 75
     0
 76
     0
 77
     0
 78
     0
281
     0
 65
     1
110
0.0
120
0.0
130
0.0
111
1.0
121
0.0
131
0.0
112
0.0
122
1.0
132
0.0
 79
     0
146
0.0
 60
     3
 61
     5
292
     1
282
     1
141
0.0
142
0.0
 63
   250
361
3F
  0
ENDTAB
  0
TABLE
  2
LTYPE
  5
5
330
0
100
AcDbSymbolTable
 70
     1
  0
LTYPE
  5
14
330
5
100
AcDbSymbolTableRecord
100
AcDbLinetypeTableRecord
  2
ByBlock
 70
     0
  3

 72
    65
 73
     0
 40
0.0
  0
LTYPE
  5
15
330
5
100
AcDbSymbolTableRecord
100
AcDbLinetypeTableRecord
  2
ByLayer
 70
     0
  3

 72
    65
 73
     0
 40
0.0
  0
LTYPE
  5
16
330
5
100
AcDbSymbolTableRecord
100
AcDbLinetypeTableRecord
  2
Continuous
 70
     0
  3
Solid line
 72
    65
 73
     0
 40
0.0
  0
ENDTAB
  0
TABLE
  2
LAYER
  5
2
330
0
100
AcDbSymbolTable
 70
     2
  0
LAYER
  5
10
330
2
100
AcDbSymbolTableRecord
100
AcDbLayerTableRecord
  2
0
 70
     0
 62
     7
  6
Continuous
370
    -3
390
F
347
3E
  0
LAYER
  5
40
330
2
100
AcDbSymbolTableRecord
100
AcDbLayerTableRecord
  2
_U+30EC_U+30A4_U+30E4_U+30FC 1
 70
     0
 62
     7
  6
Continuous
370
    -3
390
F
347
3E
  0
ENDTAB
  0
TABLE
  2
STYLE
  5
3
330
0
100
AcDbSymbolTable
 70
     1
  0
STYLE
  5
11
330
3
100
AcDbSymbolTableRecord
100
AcDbTextStyleTableRecord
  2
Standard
 70
     0
 40
0.0
 41
1.0
 50
0.0
 71
     0
 42
0.2
  3
txt
  4

  0
ENDTAB
  0
TABLE
  2
VIEW
  5
6
330
0
100
AcDbSymbolTable
 70
     0
  0
ENDTAB
  0
TABLE
  2
UCS
  5
7
330
0
100
AcDbSymbolTable
 70
     0
  0
ENDTAB
  0
TABLE
  2
APPID
  5
9
330
0
100
AcDbSymbolTable
 70
     1
  0
APPID
  5
12
330
9
100
AcDbSymbolTableRecord
100
AcDbRegAppTableRecord
  2
ACAD
 70
     0
  0
ENDTAB
  0
TABLE
  2
DIMSTYLE
  5
A
330
0
100
AcDbSymbolTable
 70
     1
100
AcDbDimStyleTable
  0
DIMSTYLE
105
27
330
A
100
AcDbSymbolTableRecord
100
AcDbDimStyleTableRecord
  2
Standard
 70
     0
178
     0
340
11
  0
ENDTAB
  0
TABLE
  2
BLOCK_RECORD
  5
1
330
0
100
AcDbSymbolTable
 70
     4
  0
BLOCK_RECORD
  5
1F
330
1
100
AcDbSymbolTableRecord
100
AcDbBlockTableRecord
  2
*Model_Space
340
22
 70
     0
280
     1
281
     0
  0
BLOCK_RECORD
  5
1B
330
1
100
AcDbSymbolTableRecord
100
AcDbBlockTableRecord
  2
*Paper_Space
340
1E
 70
     0
280
     1
281
     0
  0
BLOCK_RECORD
  5
23
330
1
100
AcDbSymbolTableRecord
100
AcDbBlockTableRecord
  2
*Paper_Space0
340
26
 70
     0
280
     1
281
     0
  0
BLOCK_RECORD
  5
4F
330
1
100
AcDbSymbolTableRecord
100
AcDbBlockTableRecord
  2
block 2
340
0
102
{BLKREFS
331
50
102
}
 70
     0
280
     1
281
     0
  0
BLOCK_RECORD
  5
7A
330
1
100
AcDbSymbolTableRecord
100
AcDbBlockTableRecord
  2
block 3
340
0
102
{BLKREFS
331
7B
102
}
 70
     0
280
     1
281
     0
  0
BLOCK_RECORD
  5
83
330
1
100
AcDbSymbolTableRecord
100
AcDbBlockTableRecord
  2
block 4
340
0
102
{BLKREFS
331
84
102
}
 70
     0
280
     1
281
     0
  0
ENDTAB
  0
ENDSEC
  0
SECTION
  2
BLOCKS
  0
BLOCK
  5
20
330
1F
100
AcDbEntity
  8
0
100
AcDbBlockBegin
  2
*Model_Space
 70
     0
 10
0.0
 20
0.0
 30
0.0
  3
*Model_Space
  1

  0
ENDBLK
  5
21
330
1F
100
AcDbEntity
  8
0
100
AcDbBlockEnd
  0
BLOCK
  5
1C
330
1B
100
AcDbEntity
 67
     1
  8
0
100
AcDbBlockBegin
  2
*Paper_Space
 70
     0
 10
0.0
 20
0.0
 30
0.0
  3
*Paper_Space
  1

  0
ENDBLK
  5
1D
330
1B
100
AcDbEntity
 67
     1
  8
0
100
AcDbBlockEnd
  0
BLOCK
  5
24
330
23
100
AcDbEntity
  8
0
100
AcDbBlockBegin
  2
*Paper_Space0
 70
     0
 10
0.0
 20
0.0
 30
0.0
  3
*Paper_Space0
  1

  0
ENDBLK
  5
25
330
23
100
AcDbEntity
  8
0
100
AcDbBlockEnd
  0
BLOCK
  5
51
330
4F
100
AcDbEntity
  8
0
100
AcDbBlockBegin
  2
block 2
 70
     0
 10
0.0
 20
0.0
 30
0.0
  3
block 2
  1

  0
SPLINE
  5
53
330
4F
100
AcDbEntity
  8
_U+30EC_U+30A4_U+30E4_U+30FC 1
370
     0
100
AcDbSpline
210
0.0
220
0.0
230
1.0
 70
    11
 71
     3
 72
    62
 73
    58
 74
     0
 42
0.0000000001
 43
0.0000000001
 12
1.0
 22
0.0
 32
0.0
 13
1.0
 23
0.0
 33
0.0
 40
0.0
 40
0.0
 40
0.0
 40
0.0
 40
1.0
 40
1.0
 40
1.0
 40
2.0
 40
2.0
 40
2.0
 40
3.0
 40
3.0
 40
3.0
 40
4.0
 40
4.0
 40
4.0
 40
5.0
 40
5.0
 40
5.0
 40
6.0
 40
6.0
 40
6.0
 40
7.0
 40
7.0
 40
7.0
 40
8.0
 40
8.0
 40
8.0
 40
9.0
 40
9.0
 40
9.0
 40
10.0
 40
10.0
 40
10.0
 40
11.0
 40
11.0
 40
11.0
 40
12.0
 40
12.0
 40
12.0
 40
13.0
 40
13.0
 40
13.0
 40
14.0
 40
14.0
 40
14.0
 40
15.0
 40
15.0
 40
15.0
 40
16.0
 40
16.0
 40
16.0
 40
17.0
 40
17.0
 40
17.0
 40
18.0
 40
18.0
 40
18.0
 40
19.0
 40
19.0
 40
19.0
 40
19.0
 10
110.2340982797331
 20
-139.327240633571
 30
0.0
 10
110.2340982797331
 20
-139.4226697785124
 30
0.0
 10
110.2130831972731
 20
-139.6403998131802
 30
0.0
 10
110.0270480410696
 20
-139.7654567792948
 30
0.0
 10
109.9147379282505
 20
-139.8391818226791
 30
0.0
 10
109.8155191782753
 20
-139.8436604468099
 30
0.0
 10
109.7307698293381
 20
-139.8477945613922
 30
0.0
 10
109.7307698293381
 20
-139.8477945613922
 30
0.0
 10
109.7307698293381
 20
-139.6276529598848
 30
0.0
 10
109.7307698293381
 20
-139.6276529598848
 30
0.0
 10
109.804839382271
 20
-139.6255859025936
 30
0.0
 10
110.0394503848165
 20
-139.6152506161379
 30
0.0
 10
110.0394503848165
 20
-139.3317192577018
 30
0.0
 10
110.0394503848165
 20
-139.1942599478403
 30
0.0
 10
109.9698594560145
 20
-139.0416422178438
 30
0.0
 10
109.7414496253424
 20
-139.0416422178438
 30
0.0
 10
109.625005397941
 20
-139.0416422178438
 30
0.0
 10
109.5764295515989
 20
-139.07988277773
 30
0.0
 10
109.5447346731347
 20
-139.1115776561943
 30
0.0
 10
109.4706651202018
 20
-139.1856472091272
 30
0.0
 10
109.4579182669064
 20
-139.3020914365287
 30
0.0
 10
109.4579182669064
 20
-139.3568684547441
 30
0.0
 10
109.4579182669064
 20
-139.3761609894615
 30
0.0
 10
109.4599853241975
 20
-139.4119899825081
 30
0.0
 10
109.4641194387798
 20
-139.4395507463901
 30
0.0
 10
109.4641194387798
 20
-139.4395507463901
 30
0.0
 10
109.2694715438632
 20
-139.4395507463901
 30
0.0
 10
109.2694715438632
 20
-139.4395507463901
 30
0.0
 10
109.2760172252852
 20
-139.4013101865038
 30
0.0
 10
109.2780842825763
 20
-139.3592800215838
 30
0.0
 10
109.2780842825763
 20
-139.3527343401618
 30
0.0
 10
109.2780842825763
 20
-139.2872775259421
 30
0.0
 10
109.2567246905678
 20
-139.0884955164432
 30
0.0
 10
109.0200466307311
 20
-139.0884955164432
 30
0.0
 10
108.8422797036922
 20
-139.0884955164432
 30
0.0
 10
108.7871581759282
 20
-139.2194091448827
 30
0.0
 10
108.7871581759282
 20
-139.3296522004106
 30
0.0
 10
108.7871581759282
 20
-139.5938910241293
 30
0.0
 10
109.0200466307311
 20
-139.6025037628424
 30
0.0
 10
109.0917046168243
 20
-139.6066378774247
 30
0.0
 10
109.0917046168243
 20
-139.6066378774247
 30
0.0
 10
109.0917046168243
 20
-139.8098985110545
 30
0.0
 10
109.0917046168243
 20
-139.8098985110545
 30
0.0
 10
108.9669921602583
 20
-139.8012857723413
 30
0.0
 10
108.5904432237205
 20
-139.7737250084594
 30
0.0
 10
108.5904432237205
 20
-139.3169053471152
 30
0.0
 10
108.5904432237205
 20
-139.0926296310255
 30
0.0
 10
108.7175672471262
 20
-138.851472947058
 30
0.0
 10
109.0135009493091
 20
-138.851472947058
 30
0.0
 10
109.1998806150611
 20
-138.851472947058
 30
0.0
 10
109.2822183971586
 20
-138.9465575824509
 30
0.0
 10
109.3435410967961
 20
-139.0461208419746
 30
0.0
 10
109.3711018606781
 20
-138.9847981423371
 30
0.0
 10
109.4513725854844
 20
-138.8028971007159
 30
0.0
 10
109.728702772047
 20
-138.8028971007159
 30
0.0
 10
110.0670111486985
 20
-138.8028971007159
 30
0.0
 10
110.2340982797331
 20
-139.0502549565569
 30
0.0
 10
110.2340982797331
 20
-139.327240633571
 30
0.0
  0
HATCH
  5
54
330
4F
100
AcDbEntity
  8
_U+30EC_U+30A4_U+30E4_U+30FC 1
 62
   179
420
  2234388
100
AcDbHatch
 10
0.0
 20
0.0
 30
0.0
210
0.0
220
0.0
230
1.0
  2
SOLID
 70
     1
 71
     0
 91
        1
 92
        1
 93
        1
 72
     4
 94
        3
 73
     0
 74
     1
 95
       62
 96
       58
 40
0.0
 40
0.0
 40
0.0
 40
0.0
 40
1.0
 40
1.0
 40
1.0
 40
2.0
 40
2.0
 40
2.0
 40
3.0
 40
3.0
 40
3.0
 40
4.0
 40
4.0
 40
4.0
 40
5.0
 40
5.0
 40
5.0
 40
6.0
 40
6.0
 40
6.0
 40
7.0
 40
7.0
 40
7.0
 40
8.0
 40
8.0
 40
8.0
 40
9.0
 40
9.0
 40
9.0
 40
10.0
 40
10.0
 40
10.0
 40
11.0
 40
11.0
 40
11.0
 40
12.0
 40
12.0
 40
12.0
 40
13.0
 40
13.0
 40
13.0
 40
14.0
 40
14.0
 40
14.0
 40
15.0
 40
15.0
 40
15.0
 40
16.0
 40
16.0
 40
16.0
 40
17.0
 40
17.0
 40
17.0
 40
18.0
 40
18.0
 40
18.0
 40
19.0
 40
19.0
 40
19.0
 40
19.0
 10
110.2340982797331
 20
-139.327240633571
 10
110.2340982797331
 20
-139.4226697785124
 10
110.2130831972731
 20
-139.6403998131802
 10
110.0270480410696
 20
-139.7654567792948
 10
109.9147379282505
 20
-139.8391818226791
 10
109.8155191782753
 20
-139.8436604468099
 10
109.7307698293381
 20
-139.8477945613922
 10
109.7307698293381
 20
-139.8477945613922
 10
109.7307698293381
 20
-139.6276529598848
 10
109.7307698293381
 20
-139.6276529598848
 10
109.804839382271
 20
-139.6255859025936
 10
110.0394503848165
 20
-139.6152506161379
 10
110.0394503848165
 20
-139.3317192577018
 10
110.0394503848165
 20
-139.1942599478403
 10
109.9698594560145
 20
-139.0416422178438
 10
109.7414496253424
 20
-139.0416422178438
 10
109.625005397941
 20
-139.0416422178438
 10
109.5764295515989
 20
-139.07988277773
 10
109.5447346731347
 20
-139.1115776561943
 10
109.4706651202018
 20
-139.1856472091272
 10
109.4579182669064
 20
-139.3020914365287
 10
109.4579182669064
 20
-139.3568684547441
 10
109.4579182669064
 20
-139.3761609894615
 10
109.4599853241975
 20
-139.4119899825081
 10
109.4641194387798
 20
-139.4395507463901
 10
109.4641194387798
 20
-139.4395507463901
 10
109.2694715438632
 20
-139.4395507463901
 10
109.2694715438632
 20
-139.4395507463901
 10
109.2760172252852
 20
-139.4013101865038
 10
109.2780842825763
 20
-139.3592800215838
 10
109.2780842825763
 20
-139.3527343401618
 10
109.2780842825763
 20
-139.2872775259421
 10
109.2567246905678
 20
-139.0884955164432
 10
109.0200466307311
 20
-139.0884955164432
 10
108.8422797036922
 20
-139.0884955164432
 10
108.7871581759282
 20
-139.2194091448827
 10
108.7871581759282
 20
-139.3296522004106
 10
108.7871581759282
 20
-139.5938910241293
 10
109.0200466307311
 20
-139.6025037628424
 10
109.0917046168243
 20
-139.6066378774247
 10
109.0917046168243
 20
-139.6066378774247
 10
109.0917046168243
 20
-139.8098985110545
 10
109.0917046168243
 20
-139.8098985110545
 10
108.9669921602583
 20
-139.8012857723413
 10
108.5904432237205
 20
-139.7737250084594
 10
108.5904432237205
 20
-139.3169053471152
 10
108.5904432237205
 20
-139.0926296310255
 10
108.7175672471262
 20
-138.851472947058
 10
109.0135009493091
 20
-138.851472947058
 10
109.1998806150611
 20
-138.851472947058
 10
109.2822183971586
 20
-138.9465575824509
 10
109.3435410967961
 20
-139.0461208419746
 10
109.3711018606781
 20
-138.9847981423371
 10
109.4513725854844
 20
-138.8028971007159
 10
109.728702772047
 20
-138.8028971007159
 10
110.0670111486985
 20
-138.8028971007159
 10
110.2340982797331
 20
-139.0502549565569
 10
110.2340982797331
 20
-139.327240633571
 97
        0
 97
        0
 75
     2
 76
     1
 98
        0
  0
ENDBLK
  5
52
330
4F
100
AcDbEntity
  8
0
100
AcDbBlockEnd
  0
BLOCK
  5
7C
330
7A
100
AcDbEntity
  8
0
100
AcDbBlockBegin
  2
block 3
 70
     0
 10
0.0
 20
0.0
 30
0.0
  3
block 3
  1

  0
SPLINE
  5
7E
330
7A
100
AcDbEntity
  8
_U+30EC_U+30A4_U+30E4_U+30FC 1
370
     0
100
AcDbSpline
210
0.0
220
0.0
230
1.0
 70
    11
 71
     3
 72
    62
 73
    58
 74
     0
 42
0.0000000001
 43
0.0000000001
 12
1.0
 22
0.0
 32
0.0
 13
1.0
 23
0.0
 33
0.0
 40
0.0
 40
0.0
 40
0.0
 40
0.0
 40
1.0
 40
1.0
 40
1.0
 40
2.0
 40
2.0
 40
2.0
 40
3.0
 40
3.0
 40
3.0
 40
4.0
 40
4.0
 40
4.0
 40
5.0
 40
5.0
 40
5.0
 40
6.0
 40
6.0
 40
6.0
 40
7.0
 40
7.0
 40
7.0
 40
8.0
 40
8.0
 40
8.0
 40
9.0
 40
9.0
 40
9.0
 40
10.0
 40
10.0
 40
10.0
 40
11.0
 40
11.0
 40
11.0
 40
12.0
 40
12.0
 40
12.0
 40
13.0
 40
13.0
 40
13.0
 40
14.0
 40
14.0
 40
14.0
 40
15.0
 40
15.0
 40
15.0
 40
16.0
 40
16.0
 40
16.0
 40
17.0
 40
17.0
 40
17.0
 40
18.0
 40
18.0
 40
18.0
 40
19.0
 40
19.0
 40
19.0
 40
19.0
 10
91.29434134002364
 20
-144.2726752026471
 30
0.0
 10
91.19891219508222
 20
-144.2726752026471
 30
0.0
 10
90.98118216041443
 20
-144.2516601201871
 30
0.0
 10
90.85612519429986
 20
-144.0656249639836
 30
0.0
 10
90.78240015091552
 20
-143.9533148511645
 30
0.0
 10
90.7779215267847
 20
-143.8540961011893
 30
0.0
 10
90.7737874122024
 20
-143.7693467522521
 30
0.0
 10
90.7737874122024
 20
-143.7693467522521
 30
0.0
 10
90.99392901370986
 20
-143.7693467522521
 30
0.0
 10
90.99392901370986
 20
-143.7693467522521
 30
0.0
 10
90.995996071001
 20
-143.843416305185
 30
0.0
 10
91.00633135745676
 20
-144.0780273077305
 30
0.0
 10
91.28986271589281
 20
-144.0780273077305
 30
0.0
 10
91.42732202575428
 20
-144.0780273077305
 30
0.0
 10
91.57993975575086
 20
-144.0084363789285
 30
0.0
 10
91.57993975575086
 20
-143.7800265482564
 30
0.0
 10
91.57993975575086
 20
-143.6635823208549
 30
0.0
 10
91.54169919586458
 20
-143.6150064745129
 30
0.0
 10
91.51000431740029
 20
-143.5833115960486
 30
0.0
 10
91.4359347644674
 20
-143.5092420431158
 30
0.0
 10
91.31949053706596
 20
-143.4964951898203
 30
0.0
 10
91.2647135188505
 20
-143.4964951898203
 30
0.0
 10
91.24542098413309
 20
-143.4964951898203
 30
0.0
 10
91.2095919910865
 20
-143.4985622471115
 30
0.0
 10
91.18203122720449
 20
-143.5026963616938
 30
0.0
 10
91.18203122720449
 20
-143.5026963616938
 30
0.0
 10
91.18203122720449
 20
-143.3080484667772
 30
0.0
 10
91.18203122720449
 20
-143.3080484667772
 30
0.0
 10
91.22027178709077
 20
-143.3145941481991
 30
0.0
 10
91.26230195201082
 20
-143.3166612054903
 30
0.0
 10
91.2688476334328
 20
-143.3166612054903
 30
0.0
 10
91.33430444765254
 20
-143.3166612054903
 30
0.0
 10
91.53308645715146
 20
-143.2953016134817
 30
0.0
 10
91.53308645715146
 20
-143.0586235536451
 30
0.0
 10
91.53308645715146
 20
-142.8808566266062
 30
0.0
 10
91.40217282871195
 20
-142.8257350988422
 30
0.0
 10
91.29192977318397
 20
-142.8257350988422
 30
0.0
 10
91.02769094946531
 20
-142.8257350988422
 30
0.0
 10
91.01907821075218
 20
-143.0586235536451
 30
0.0
 10
91.01494409616988
 20
-143.1302815397383
 30
0.0
 10
91.01494409616988
 20
-143.1302815397383
 30
0.0
 10
90.81168346254015
 20
-143.1302815397383
 30
0.0
 10
90.81168346254015
 20
-143.1302815397383
 30
0.0
 10
90.82029620125326
 20
-143.0055690831722
 30
0.0
 10
90.84785696513526
 20
-142.6290201466344
 30
0.0
 10
91.30467662647939
 20
-142.6290201466344
 30
0.0
 10
91.52895234256916
 20
-142.6290201466344
 30
0.0
 10
91.77010902653664
 20
-142.7561441700401
 30
0.0
 10
91.77010902653664
 20
-143.0520778722231
 30
0.0
 10
91.77010902653664
 20
-143.2384575379751
 30
0.0
 10
91.67502439114375
 20
-143.3207953200726
 30
0.0
 10
91.57546113162003
 20
-143.38211801971
 30
0.0
 10
91.63678383125747
 20
-143.409678783592
 30
0.0
 10
91.81868487287866
 20
-143.4899495083984
 30
0.0
 10
91.81868487287866
 20
-143.767279694961
 30
0.0
 10
91.81868487287866
 20
-144.1055880716125
 30
0.0
 10
91.57132701703773
 20
-144.2726752026471
 30
0.0
 10
91.29434134002364
 20
-144.2726752026471
 30
0.0
  0
HATCH
  5
7F
330
7A
100
AcDbEntity
  8
_U+30EC_U+30A4_U+30E4_U+30FC 1
 62
   179
420
  2234388
100
AcDbHatch
 10
0.0
 20
0.0
 30
0.0
210
0.0
220
0.0
230
1.0
  2
SOLID
 70
     1
 71
     0
 91
        1
 92
        1
 93
        1
 72
     4
 94
        3
 73
     0
 74
     1
 95
       62
 96
       58
 40
0.0
 40
0.0
 40
0.0
 40
0.0
 40
1.0
 40
1.0
 40
1.0
 40
2.0
 40
2.0
 40
2.0
 40
3.0
 40
3.0
 40
3.0
 40
4.0
 40
4.0
 40
4.0
 40
5.0
 40
5.0
 40
5.0
 40
6.0
 40
6.0
 40
6.0
 40
7.0
 40
7.0
 40
7.0
 40
8.0
 40
8.0
 40
8.0
 40
9.0
 40
9.0
 40
9.0
 40
10.0
 40
10.0
 40
10.0
 40
11.0
 40
11.0
 40
11.0
 40
12.0
 40
12.0
 40
12.0
 40
13.0
 40
13.0
 40
13.0
 40
14.0
 40
14.0
 40
14.0
 40
15.0
 40
15.0
 40
15.0
 40
16.0
 40
16.0
 40
16.0
 40
17.0
 40
17.0
 40
17.0
 40
18.0
 40
18.0
 40
18.0
 40
19.0
 40
19.0
 40
19.0
 40
19.0
 10
91.29434134002364
 20
-144.2726752026471
 10
91.19891219508222
 20
-144.2726752026471
 10
90.98118216041443
 20
-144.2516601201871
 10
90.85612519429986
 20
-144.0656249639836
 10
90.78240015091552
 20
-143.9533148511645
 10
90.7779215267847
 20
-143.8540961011893
 10
90.7737874122024
 20
-143.7693467522521
 10
90.7737874122024
 20
-143.7693467522521
 10
90.99392901370986
 20
-143.7693467522521
 10
90.99392901370986
 20
-143.7693467522521
 10
90.995996071001
 20
-143.843416305185
 10
91.00633135745676
 20
-144.0780273077305
 10
91.28986271589281
 20
-144.0780273077305
 10
91.42732202575428
 20
-144.0780273077305
 10
91.57993975575086
 20
-144.0084363789285
 10
91.57993975575086
 20
-143.7800265482564
 10
91.57993975575086
 20
-143.6635823208549
 10
91.54169919586458
 20
-143.6150064745129
 10
91.51000431740029
 20
-143.5833115960486
 10
91.4359347644674
 20
-143.5092420431158
 10
91.31949053706596
 20
-143.4964951898203
 10
91.2647135188505
 20
-143.4964951898203
 10
91.24542098413309
 20
-143.4964951898203
 10
91.2095919910865
 20
-143.4985622471115
 10
91.18203122720449
 20
-143.5026963616938
 10
91.18203122720449
 20
-143.5026963616938
 10
91.18203122720449
 20
-143.3080484667772
 10
91.18203122720449
 20
-143.3080484667772
 10
91.22027178709077
 20
-143.3145941481991
 10
91.26230195201082
 20
-143.3166612054903
 10
91.2688476334328
 20
-143.3166612054903
 10
91.33430444765254
 20
-143.3166612054903
 10
91.53308645715146
 20
-143.2953016134817
 10
91.53308645715146
 20
-143.0586235536451
 10
91.53308645715146
 20
-142.8808566266062
 10
91.40217282871195
 20
-142.8257350988422
 10
91.29192977318397
 20
-142.8257350988422
 10
91.02769094946531
 20
-142.8257350988422
 10
91.01907821075218
 20
-143.0586235536451
 10
91.01494409616988
 20
-143.1302815397383
 10
91.01494409616988
 20
-143.1302815397383
 10
90.81168346254015
 20
-143.1302815397383
 10
90.81168346254015
 20
-143.1302815397383
 10
90.82029620125326
 20
-143.0055690831722
 10
90.84785696513526
 20
-142.6290201466344
 10
91.30467662647939
 20
-142.6290201466344
 10
91.52895234256916
 20
-142.6290201466344
 10
91.77010902653664
 20
-142.7561441700401
 10
91.77010902653664
 20
-143.0520778722231
 10
91.77010902653664
 20
-143.2384575379751
 10
91.67502439114375
 20
-143.3207953200726
 10
91.57546113162003
 20
-143.38211801971
 10
91.63678383125747
 20
-143.409678783592
 10
91.81868487287866
 20
-143.4899495083984
 10
91.81868487287866
 20
-143.767279694961
 10
91.81868487287866
 20
-144.1055880716125
 10
91.57132701703773
 20
-144.2726752026471
 10
91.29434134002364
 20
-144.2726752026471
 97
        0
 97
        0
 75
     2
 76
     1
 98
        0
  0
SPLINE
  5
80
330
7A
100
AcDbEntity
  8
_U+30EC_U+30A4_U+30E4_U+30FC 1
370
     0
100
AcDbSpline
210
0.0
220
0.0
230
1.0
 70
    11
 71
     3
 72
    29
 73
    25
 74
     0
 42
0.0000000001
 43
0.0000000001
 12
1.0
 22
0.0
 32
0.0
 13
1.0
 23
0.0
 33
0.0
 40
0.0
 40
0.0
 40
0.0
 40
0.0
 40
1.0
 40
1.0
 40
1.0
 40
2.0
 40
2.0
 40
2.0
 40
3.0
 40
3.0
 40
3.0
 40
4.0
 40
4.0
 40
4.0
 40
5.0
 40
5.0
 40
5.0
 40
6.0
 40
6.0
 40
6.0
 40
7.0
 40
7.0
 40
7.0
 40
8.0
 40
8.0
 40
8.0
 40
8.0
 10
92.87736271549593
 20
-144.0442653719751
 30
0.0
 10
92.7691867172591
 20
-144.2537271774783
 30
0.0
 10
92.59589841435103
 20
-144.2726752026471
 30
0.0
 10
92.47945418694958
 20
-144.2726752026471
 30
0.0
 10
92.31856822778842
 20
-144.2726752026471
 30
0.0
 10
92.17697480334465
 20
-144.2261664135962
 30
0.0
 10
92.08189016795176
 20
-144.0442653719751
 30
0.0
 10
91.97819279384574
 20
-143.8496174770584
 30
0.0
 10
91.95924476867685
 20
-143.6129394172218
 30
0.0
 10
91.95924476867685
 20
-143.4499864007695
 30
0.0
 10
91.95924476867685
 20
-143.305981409486
 30
0.0
 10
91.97612573655458
 20
-143.0541449295143
 30
0.0
 10
92.08189016795176
 20
-142.8553629200153
 30
0.0
 10
92.18972165664007
 20
-142.6524467959341
 30
0.0
 10
92.35060761580124
 20
-142.6290201466344
 30
0.0
 10
92.47945418694958
 20
-142.6290201466344
 30
0.0
 10
92.6382730888196
 20
-142.6290201466344
 30
0.0
 10
92.78193357055451
 20
-142.6734618783941
 30
0.0
 10
92.87736271549593
 20
-142.8553629200153
 30
0.0
 10
92.97658146547114
 20
-143.0479437576408
 30
0.0
 10
93.00000811477084
 20
-143.2763535883129
 30
0.0
 10
93.00000811477084
 20
-143.4499864007695
 30
0.0
 10
93.00000811477084
 20
-143.6212076463864
 30
0.0
 10
92.97864852276228
 20
-143.8516845343496
 30
0.0
 10
92.87736271549593
 20
-144.0442653719751
 30
0.0
  0
SPLINE
  5
81
330
7A
100
AcDbEntity
  8
_U+30EC_U+30A4_U+30E4_U+30FC 1
370
     0
100
AcDbSpline
210
0.0
220
0.0
230
1.0
 70
    11
 71
     3
 72
    17
 73
    13
 74
     0
 42
0.0000000001
 43
0.0000000001
 12
1.0
 22
0.0
 32
0.0
 13
1.0
 23
0.0
 33
0.0
 40
0.0
 40
0.0
 40
0.0
 40
0.0
 40
1.0
 40
1.0
 40
1.0
 40
2.0
 40
2.0
 40
2.0
 40
3.0
 40
3.0
 40
3.0
 40
4.0
 40
4.0
 40
4.0
 40
4.0
 10
92.47945418694958
 20
-142.8216009842599
 30
0.0
 10
92.2300292738175
 20
-142.8216009842599
 30
0.0
 10
92.1831759752181
 20
-143.105132342696
 30
0.0
 10
92.1831759752181
 20
-143.4499864007695
 30
0.0
 10
92.1831759752181
 20
-143.7693467522521
 30
0.0
 10
92.21934947781322
 20
-144.0780273077305
 30
0.0
 10
92.47945418694958
 20
-144.0780273077305
 30
0.0
 10
92.72715655233905
 20
-144.0780273077305
 30
0.0
 10
92.77573239868107
 20
-143.7969075161341
 30
0.0
 10
92.77573239868107
 20
-143.4499864007695
 30
0.0
 10
92.77573239868107
 20
-143.1302815397383
 30
0.0
 10
92.7374918387948
 20
-142.8216009842599
 30
0.0
 10
92.47945418694958
 20
-142.8216009842599
 30
0.0
  0
HATCH
  5
82
330
7A
100
AcDbEntity
  8
_U+30EC_U+30A4_U+30E4_U+30FC 1
 62
   179
420
  2234388
100
AcDbHatch
 10
0.0
 20
0.0
 30
0.0
210
0.0
220
0.0
230
1.0
  2
SOLID
 70
     1
 71
     0
 91
        2
 92
        1
 93
        1
 72
     4
 94
        3
 73
     0
 74
     1
 95
       29
 96
       25
 40
0.0
 40
0.0
 40
0.0
 40
0.0
 40
1.0
 40
1.0
 40
1.0
 40
2.0
 40
2.0
 40
2.0
 40
3.0
 40
3.0
 40
3.0
 40
4.0
 40
4.0
 40
4.0
 40
5.0
 40
5.0
 40
5.0
 40
6.0
 40
6.0
 40
6.0
 40
7.0
 40
7.0
 40
7.0
 40
8.0
 40
8.0
 40
8.0
 40
8.0
 10
92.87736271549593
 20
-144.0442653719751
 10
92.7691867172591
 20
-144.2537271774783
 10
92.59589841435103
 20
-144.2726752026471
 10
92.47945418694958
 20
-144.2726752026471
 10
92.31856822778842
 20
-144.2726752026471
 10
92.17697480334465
 20
-144.2261664135962
 10
92.08189016795176
 20
-144.0442653719751
 10
91.97819279384574
 20
-143.8496174770584
 10
91.95924476867685
 20
-143.6129394172218
 10
91.95924476867685
 20
-143.4499864007695
 10
91.95924476867685
 20
-143.305981409486
 10
91.97612573655458
 20
-143.0541449295143
 10
92.08189016795176
 20
-142.8553629200153
 10
92.18972165664007
 20
-142.6524467959341
 10
92.35060761580124
 20
-142.6290201466344
 10
92.47945418694958
 20
-142.6290201466344
 10
92.6382730888196
 20
-142.6290201466344
 10
92.78193357055451
 20
-142.6734618783941
 10
92.87736271549593
 20
-142.8553629200153
 10
92.97658146547114
 20
-143.0479437576408
 10
93.00000811477084
 20
-143.2763535883129
 10
93.00000811477084
 20
-143.4499864007695
 10
93.00000811477084
 20
-143.6212076463864
 10
92.97864852276228
 20
-143.8516845343496
 10
92.87736271549593
 20
-144.0442653719751
 97
        0
 97
        0
 92
        1
 93
        1
 72
     4
 94
        3
 73
     0
 74
     1
 95
       17
 96
       13
 40
0.0
 40
0.0
 40
0.0
 40
0.0
 40
1.0
 40
1.0
 40
1.0
 40
2.0
 40
2.0
 40
2.0
 40
3.0
 40
3.0
 40
3.0
 40
4.0
 40
4.0
 40
4.0
 40
4.0
 10
92.47945418694958
 20
-142.8216009842599
 10
92.2300292738175
 20
-142.8216009842599
 10
92.1831759752181
 20
-143.105132342696
 10
92.1831759752181
 20
-143.4499864007695
 10
92.1831759752181
 20
-143.7693467522521
 10
92.21934947781322
 20
-144.0780273077305
 10
92.47945418694958
 20
-144.0780273077305
 10
92.72715655233905
 20
-144.0780273077305
 10
92.77573239868107
 20
-143.7969075161341
 10
92.77573239868107
 20
-143.4499864007695
 10
92.77573239868107
 20
-143.1302815397383
 10
92.7374918387948
 20
-142.8216009842599
 10
92.47945418694958
 20
-142.8216009842599
 97
        0
 97
        0
 75
     2
 76
     1
 98
        0
  0
ENDBLK
  5
7D
330
7A
100
AcDbEntity
  8
0
100
AcDbBlockEnd
  0
BLOCK
  5
85
330
83
100
AcDbEntity
  8
0
100
AcDbBlockBegin
  2
block 4
 70
     0
 10
0.0
 20
0.0
 30
0.0
  3
block 4
  1

  0
SPLINE
  5
87
330
83
100
AcDbEntity
  8
_U+30EC_U+30A4_U+30E4_U+30FC 1
370
     0
100
AcDbSpline
210
0.0
220
0.0
230
1.0
 70
    11
 71
     3
 72
    62
 73
    58
 74
     0
 42
0.0000000001
 43
0.0000000001
 12
1.0
 22
0.0
 32
0.0
 13
1.0
 23
0.0
 33
0.0
 40
0.0
 40
0.0
 40
0.0
 40
0.0
 40
1.0
 40
1.0
 40
1.0
 40
2.0
 40
2.0
 40
2.0
 40
3.0
 40
3.0
 40
3.0
 40
4.0
 40
4.0
 40
4.0
 40
5.0
 40
5.0
 40
5.0
 40
6.0
 40
6.0
 40
6.0
 40
7.0
 40
7.0
 40
7.0
 40
8.0
 40
8.0
 40
8.0
 40
9.0
 40
9.0
 40
9.0
 40
10.0
 40
10.0
 40
10.0
 40
11.0
 40
11.0
 40
11.0
 40
12.0
 40
12.0
 40
12.0
 40
13.0
 40
13.0
 40
13.0
 40
14.0
 40
14.0
 40
14.0
 40
15.0
 40
15.0
 40
15.0
 40
16.0
 40
16.0
 40
16.0
 40
17.0
 40
17.0
 40
17.0
 40
18.0
 40
18.0
 40
18.0
 40
19.0
 40
19.0
 40
19.0
 40
19.0
 10
72.27224661821667
 20
-126.4846136836566
 30
0.0
 10
72.27224661821667
 20
-126.5800428285981
 30
0.0
 10
72.25123153575665
 20
-126.7977728632658
 30
0.0
 10
72.06519637955314
 20
-126.9228298293804
 30
0.0
 10
71.952886266734
 20
-126.9965548727648
 30
0.0
 10
71.8536675167588
 20
-127.0010334968956
 30
0.0
 10
71.76891816782167
 20
-127.0051676114779
 30
0.0
 10
71.76891816782167
 20
-127.0051676114779
 30
0.0
 10
71.76891816782167
 20
-126.7850260099704
 30
0.0
 10
71.76891816782167
 20
-126.7850260099704
 30
0.0
 10
71.84298772075454
 20
-126.7829589526793
 30
0.0
 10
72.07759872330004
 20
-126.7726236662235
 30
0.0
 10
72.07759872330004
 20
-126.4890923077875
 30
0.0
 10
72.07759872330004
 20
-126.351632997926
 30
0.0
 10
72.008007794498
 20
-126.1990152679294
 30
0.0
 10
71.77959796382594
 20
-126.1990152679294
 30
0.0
 10
71.66315373642449
 20
-126.1990152679294
 30
0.0
 10
71.61457789008247
 20
-126.2372558278157
 30
0.0
 10
71.58288301161816
 20
-126.26895070628
 30
0.0
 10
71.5088134586853
 20
-126.3430202592129
 30
0.0
 10
71.49606660538987
 20
-126.4594644866143
 30
0.0
 10
71.49606660538987
 20
-126.5142415048298
 30
0.0
 10
71.49606660538987
 20
-126.5335340395472
 30
0.0
 10
71.49813366268103
 20
-126.5693630325938
 30
0.0
 10
71.50226777726333
 20
-126.5969237964758
 30
0.0
 10
71.50226777726333
 20
-126.5969237964758
 30
0.0
 10
71.30761988234671
 20
-126.5969237964758
 30
0.0
 10
71.30761988234671
 20
-126.5969237964758
 30
0.0
 10
71.31416556376868
 20
-126.5586832365895
 30
0.0
 10
71.31623262105984
 20
-126.5166530716695
 30
0.0
 10
71.31623262105984
 20
-126.5101073902475
 30
0.0
 10
71.31623262105984
 20
-126.4446505760277
 30
0.0
 10
71.29487302905129
 20
-126.2458685665288
 30
0.0
 10
71.05819496921463
 20
-126.2458685665288
 30
0.0
 10
70.88042804217572
 20
-126.2458685665288
 30
0.0
 10
70.82530651441174
 20
-126.3767821949683
 30
0.0
 10
70.82530651441174
 20
-126.4870252504963
 30
0.0
 10
70.82530651441174
 20
-126.751264074215
 30
0.0
 10
71.05819496921463
 20
-126.7598768129281
 30
0.0
 10
71.12985295530781
 20
-126.7640109275104
 30
0.0
 10
71.12985295530781
 20
-126.7640109275104
 30
0.0
 10
71.12985295530781
 20
-126.9672715611401
 30
0.0
 10
71.12985295530781
 20
-126.9672715611401
 30
0.0
 10
71.00514049874177
 20
-126.958658822427
 30
0.0
 10
70.62859156220397
 20
-126.931098058545
 30
0.0
 10
70.62859156220397
 20
-126.4742783972009
 30
0.0
 10
70.62859156220397
 20
-126.2500026811111
 30
0.0
 10
70.75571558560968
 20
-126.0088459971436
 30
0.0
 10
71.05164928779264
 20
-126.0088459971436
 30
0.0
 10
71.23802895354466
 20
-126.0088459971436
 30
0.0
 10
71.32036673564214
 20
-126.1039306325365
 30
0.0
 10
71.38168943527958
 20
-126.2034938920602
 30
0.0
 10
71.40925019916158
 20
-126.1421711924228
 30
0.0
 10
71.4895209239679
 20
-125.9602701508016
 30
0.0
 10
71.76685111053051
 20
-125.9602701508016
 30
0.0
 10
72.10515948718205
 20
-125.9602701508016
 30
0.0
 10
72.27224661821667
 20
-126.2076280066425
 30
0.0
 10
72.27224661821667
 20
-126.4846136836566
 30
0.0
  0
HATCH
  5
88
330
83
100
AcDbEntity
  8
_U+30EC_U+30A4_U+30E4_U+30FC 1
 62
   179
420
  2234388
100
AcDbHatch
 10
0.0
 20
0.0
 30
0.0
210
0.0
220
0.0
230
1.0
  2
SOLID
 70
     1
 71
     0
 91
        1
 92
        1
 93
        1
 72
     4
 94
        3
 73
     0
 74
     1
 95
       62
 96
       58
 40
0.0
 40
0.0
 40
0.0
 40
0.0
 40
1.0
 40
1.0
 40
1.0
 40
2.0
 40
2.0
 40
2.0
 40
3.0
 40
3.0
 40
3.0
 40
4.0
 40
4.0
 40
4.0
 40
5.0
 40
5.0
 40
5.0
 40
6.0
 40
6.0
 40
6.0
 40
7.0
 40
7.0
 40
7.0
 40
8.0
 40
8.0
 40
8.0
 40
9.0
 40
9.0
 40
9.0
 40
10.0
 40
10.0
 40
10.0
 40
11.0
 40
11.0
 40
11.0
 40
12.0
 40
12.0
 40
12.0
 40
13.0
 40
13.0
 40
13.0
 40
14.0
 40
14.0
 40
14.0
 40
15.0
 40
15.0
 40
15.0
 40
16.0
 40
16.0
 40
16.0
 40
17.0
 40
17.0
 40
17.0
 40
18.0
 40
18.0
 40
18.0
 40
19.0
 40
19.0
 40
19.0
 40
19.0
 10
72.27224661821667
 20
-126.4846136836566
 10
72.27224661821667
 20
-126.5800428285981
 10
72.25123153575665
 20
-126.7977728632658
 10
72.06519637955314
 20
-126.9228298293804
 10
71.952886266734
 20
-126.9965548727648
 10
71.8536675167588
 20
-127.0010334968956
 10
71.76891816782167
 20
-127.0051676114779
 10
71.76891816782167
 20
-127.0051676114779
 10
71.76891816782167
 20
-126.7850260099704
 10
71.76891816782167
 20
-126.7850260099704
 10
71.84298772075454
 20
-126.7829589526793
 10
72.07759872330004
 20
-126.7726236662235
 10
72.07759872330004
 20
-126.4890923077875
 10
72.07759872330004
 20
-126.351632997926
 10
72.008007794498
 20
-126.1990152679294
 10
71.77959796382594
 20
-126.1990152679294
 10
71.66315373642449
 20
-126.1990152679294
 10
71.61457789008247
 20
-126.2372558278157
 10
71.58288301161816
 20
-126.26895070628
 10
71.5088134586853
 20
-126.3430202592129
 10
71.49606660538987
 20
-126.4594644866143
 10
71.49606660538987
 20
-126.5142415048298
 10
71.49606660538987
 20
-126.5335340395472
 10
71.49813366268103
 20
-126.5693630325938
 10
71.50226777726333
 20
-126.5969237964758
 10
71.50226777726333
 20
-126.5969237964758
 10
71.30761988234671
 20
-126.5969237964758
 10
71.30761988234671
 20
-126.5969237964758
 10
71.31416556376868
 20
-126.5586832365895
 10
71.31623262105984
 20
-126.5166530716695
 10
71.31623262105984
 20
-126.5101073902475
 10
71.31623262105984
 20
-126.4446505760277
 10
71.29487302905129
 20
-126.2458685665288
 10
71.05819496921463
 20
-126.2458685665288
 10
70.88042804217572
 20
-126.2458685665288
 10
70.82530651441174
 20
-126.3767821949683
 10
70.82530651441174
 20
-126.4870252504963
 10
70.82530651441174
 20
-126.751264074215
 10
71.05819496921463
 20
-126.7598768129281
 10
71.12985295530781
 20
-126.7640109275104
 10
71.12985295530781
 20
-126.7640109275104
 10
71.12985295530781
 20
-126.9672715611401
 10
71.12985295530781
 20
-126.9672715611401
 10
71.00514049874177
 20
-126.958658822427
 10
70.62859156220397
 20
-126.931098058545
 10
70.62859156220397
 20
-126.4742783972009
 10
70.62859156220397
 20
-126.2500026811111
 10
70.75571558560968
 20
-126.0088459971436
 10
71.05164928779264
 20
-126.0088459971436
 10
71.23802895354466
 20
-126.0088459971436
 10
71.32036673564214
 20
-126.1039306325365
 10
71.38168943527958
 20
-126.2034938920602
 10
71.40925019916158
 20
-126.1421711924228
 10
71.4895209239679
 20
-125.9602701508016
 10
71.76685111053051
 20
-125.9602701508016
 10
72.10515948718205
 20
-125.9602701508016
 10
72.27224661821667
 20
-126.2076280066425
 10
72.27224661821667
 20
-126.4846136836566
 97
        0
 97
        0
 75
     2
 76
     1
 98
        0
  0
SPLINE
  5
89
330
83
100
AcDbEntity
  8
_U+30EC_U+30A4_U+30E4_U+30FC 1
370
     0
100
AcDbSpline
210
0.0
220
0.0
230
1.0
 70
    11
 71
     3
 72
    29
 73
    25
 74
     0
 42
0.0000000001
 43
0.0000000001
 12
1.0
 22
0.0
 32
0.0
 13
1.0
 23
0.0
 33
0.0
 40
0.0
 40
0.0
 40
0.0
 40
0.0
 40
1.0
 40
1.0
 40
1.0
 40
2.0
 40
2.0
 40
2.0
 40
3.0
 40
3.0
 40
3.0
 40
4.0
 40
4.0
 40
4.0
 40
5.0
 40
5.0
 40
5.0
 40
6.0
 40
6.0
 40
6.0
 40
7.0
 40
7.0
 40
7.0
 40
8.0
 40
8.0
 40
8.0
 40
8.0
 10
72.0438367875446
 20
-124.9015923081843
 30
0.0
 10
72.25329859304779
 20
-125.0097683064212
 30
0.0
 10
72.27224661821667
 20
-125.1830566093292
 30
0.0
 10
72.27224661821667
 20
-125.2995008367307
 30
0.0
 10
72.27224661821667
 20
-125.4603867958918
 30
0.0
 10
72.2257378291658
 20
-125.6019802203356
 30
0.0
 10
72.0438367875446
 20
-125.6970648557285
 30
0.0
 10
71.84918889262798
 20
-125.8007622298345
 30
0.0
 10
71.61251083279132
 20
-125.8197102550034
 30
0.0
 10
71.44955781633901
 20
-125.8197102550034
 30
0.0
 10
71.30555282505556
 20
-125.8197102550034
 30
0.0
 10
71.0537163450838
 20
-125.8028292871257
 30
0.0
 10
70.85493433558489
 20
-125.6970648557285
 30
0.0
 10
70.65201821150366
 20
-125.5892333670402
 30
0.0
 10
70.62859156220397
 20
-125.428347407879
 30
0.0
 10
70.62859156220397
 20
-125.2995008367307
 30
0.0
 10
70.62859156220397
 20
-125.1406819348607
 30
0.0
 10
70.67303329396368
 20
-124.9970214531258
 30
0.0
 10
70.85493433558489
 20
-124.9015923081843
 30
0.0
 10
71.04751517321034
 20
-124.8023735582091
 30
0.0
 10
71.2759250038824
 20
-124.7789469089094
 30
0.0
 10
71.44955781633901
 20
-124.7789469089094
 30
0.0
 10
71.62077906195591
 20
-124.7789469089094
 30
0.0
 10
71.85125594991914
 20
-124.800306500918
 30
0.0
 10
72.0438367875446
 20
-124.9015923081843
 30
0.0
  0
SPLINE
  5
8A
330
83
100
AcDbEntity
  8
_U+30EC_U+30A4_U+30E4_U+30FC 1
370
     0
100
AcDbSpline
210
0.0
220
0.0
230
1.0
 70
    11
 71
     3
 72
    17
 73
    13
 74
     0
 42
0.0000000001
 43
0.0000000001
 12
1.0
 22
0.0
 32
0.0
 13
1.0
 23
0.0
 33
0.0
 40
0.0
 40
0.0
 40
0.0
 40
0.0
 40
1.0
 40
1.0
 40
1.0
 40
2.0
 40
2.0
 40
2.0
 40
3.0
 40
3.0
 40
3.0
 40
4.0
 40
4.0
 40
4.0
 40
4.0
 10
70.82117239982944
 20
-125.2995008367307
 30
0.0
 10
70.82117239982944
 20
-125.5489257498628
 30
0.0
 10
71.1047037582655
 20
-125.5957790484622
 30
0.0
 10
71.44955781633901
 20
-125.5957790484622
 30
0.0
 10
71.76891816782167
 20
-125.5957790484622
 30
0.0
 10
72.07759872330004
 20
-125.559605545867
 30
0.0
 10
72.07759872330004
 20
-125.2995008367307
 30
0.0
 10
72.07759872330004
 20
-125.0517984713412
 30
0.0
 10
71.79647893170366
 20
-125.0032226249992
 30
0.0
 10
71.44955781633901
 20
-125.0032226249992
 30
0.0
 10
71.12985295530781
 20
-125.0032226249992
 30
0.0
 10
70.82117239982944
 20
-125.0414631848855
 30
0.0
 10
70.82117239982944
 20
-125.2995008367307
 30
0.0
  0
HATCH
  5
8B
330
83
100
AcDbEntity
  8
_U+30EC_U+30A4_U+30E4_U+30FC 1
 62
   179
420
  2234388
100
AcDbHatch
 10
0.0
 20
0.0
 30
0.0
210
0.0
220
0.0
230
1.0
  2
SOLID
 70
     1
 71
     0
 91
        2
 92
        1
 93
        1
 72
     4
 94
        3
 73
     0
 74
     1
 95
       29
 96
       25
 40
0.0
 40
0.0
 40
0.0
 40
0.0
 40
1.0
 40
1.0
 40
1.0
 40
2.0
 40
2.0
 40
2.0
 40
3.0
 40
3.0
 40
3.0
 40
4.0
 40
4.0
 40
4.0
 40
5.0
 40
5.0
 40
5.0
 40
6.0
 40
6.0
 40
6.0
 40
7.0
 40
7.0
 40
7.0
 40
8.0
 40
8.0
 40
8.0
 40
8.0
 10
72.0438367875446
 20
-124.9015923081843
 10
72.25329859304779
 20
-125.0097683064212
 10
72.27224661821667
 20
-125.1830566093292
 10
72.27224661821667
 20
-125.2995008367307
 10
72.27224661821667
 20
-125.4603867958918
 10
72.2257378291658
 20
-125.6019802203356
 10
72.0438367875446
 20
-125.6970648557285
 10
71.84918889262798
 20
-125.8007622298345
 10
71.61251083279132
 20
-125.8197102550034
 10
71.44955781633901
 20
-125.8197102550034
 10
71.30555282505556
 20
-125.8197102550034
 10
71.0537163450838
 20
-125.8028292871257
 10
70.85493433558489
 20
-125.6970648557285
 10
70.65201821150366
 20
-125.5892333670402
 10
70.62859156220397
 20
-125.428347407879
 10
70.62859156220397
 20
-125.2995008367307
 10
70.62859156220397
 20
-125.1406819348607
 10
70.67303329396368
 20
-124.9970214531258
 10
70.85493433558489
 20
-124.9015923081843
 10
71.04751517321034
 20
-124.8023735582091
 10
71.2759250038824
 20
-124.7789469089094
 10
71.44955781633901
 20
-124.7789469089094
 10
71.62077906195591
 20
-124.7789469089094
 10
71.85125594991914
 20
-124.800306500918
 10
72.0438367875446
 20
-124.9015923081843
 97
        0
 97
        0
 92
        1
 93
        1
 72
     4
 94
        3
 73
     0
 74
     1
 95
       17
 96
       13
 40
0.0
 40
0.0
 40
0.0
 40
0.0
 40
1.0
 40
1.0
 40
1.0
 40
2.0
 40
2.0
 40
2.0
 40
3.0
 40
3.0
 40
3.0
 40
4.0
 40
4.0
 40
4.0
 40
4.0
 10
70.82117239982944
 20
-125.2995008367307
 10
70.82117239982944
 20
-125.5489257498628
 10
71.1047037582655
 20
-125.5957790484622
 10
71.44955781633901
 20
-125.5957790484622
 10
71.76891816782167
 20
-125.5957790484622
 10
72.07759872330004
 20
-125.559605545867
 10
72.07759872330004
 20
-125.2995008367307
 10
72.07759872330004
 20
-125.0517984713412
 10
71.79647893170366
 20
-125.0032226249992
 10
71.44955781633901
 20
-125.0032226249992
 10
71.12985295530781
 20
-125.0032226249992
 10
70.82117239982944
 20
-125.0414631848855
 10
70.82117239982944
 20
-125.2995008367307
 97
        0
 97
        0
 75
     2
 76
     1
 98
        0
  0
ENDBLK
  5
86
330
83
100
AcDbEntity
  8
0
100
AcDbBlockEnd
  0
ENDSEC
  0
SECTION
  2
ENTITIES
  0
SPLINE
  5
41
330
1F
100
AcDbEntity
  8
_U+30EC_U+30A4_U+30E4_U+30FC 1
 62
   179
420
  2234388
370
     9
100
AcDbSpline
210
0.0
220
0.0
230
1.0
 70
    11
 71
     3
 72
    17
 73
    13
 74
     0
 42
0.0000000001
 43
0.0000000001
 12
1.0
 22
0.0
 32
0.0
 13
1.0
 23
0.0
 33
0.0
 40
0.0
 40
0.0
 40
0.0
 40
0.0
 40
1.0
 40
1.0
 40
1.0
 40
2.0
 40
2.0
 40
2.0
 40
3.0
 40
3.0
 40
3.0
 40
4.0
 40
4.0
 40
4.0
 40
4.0
 10
110.7777227293804
 20
-137.7328405211225
 30
0.0
 10
110.7226188418973
 20
-137.7328405211225
 30
0.0
 10
110.6778160652626
 20
-137.7776432988892
 30
0.0
 10
110.6778160652626
 20
-137.8327471877642
 30
0.0
 10
110.6778160652626
 20
-137.8878863544172
 30
0.0
 10
110.7226188418973
 20
-137.9326538544058
 30
0.0
 10
110.7777227293804
 20
-137.9326538544058
 30
0.0
 10
110.8328618946403
 20
-137.9326538544058
 30
0.0
 10
110.8776293934982
 20
-137.8878863544172
 30
0.0
 10
110.8776293934982
 20
-137.8327471877642
 30
0.0
 10
110.8776293934982
 20
-137.7776432988892
 30
0.0
 10
110.8328618946403
 20
-137.7328405211225
 30
0.0
 10
110.7777227293804
 20
-137.7328405211225
 30
0.0
  0
SPLINE
  5
42
330
1F
100
AcDbEntity
  8
_U+30EC_U+30A4_U+30E4_U+30FC 1
 62
   179
420
  2234388
370
     9
100
AcDbSpline
210
0.0
220
0.0
230
1.0
 70
    11
 71
     3
 72
    17
 73
    13
 74
     0
 42
0.0000000001
 43
0.0000000001
 12
1.0
 22
0.0
 32
0.0
 13
1.0
 23
0.0
 33
0.0
 40
0.0
 40
0.0
 40
0.0
 40
0.0
 40
1.0
 40
1.0
 40
1.0
 40
2.0
 40
2.0
 40
2.0
 40
3.0
 40
3.0
 40
3.0
 40
4.0
 40
4.0
 40
4.0
 40
4.0
 10
110.7777227293804
 20
-140.7101085759339
 30
0.0
 10
110.7226188418973
 20
-140.7101085759339
 30
0.0
 10
110.6778160652626
 20
-140.7548760759225
 30
0.0
 10
110.6778160652626
 20
-140.8100152425755
 30
0.0
 10
110.6778160652626
 20
-140.8651191314505
 30
0.0
 10
110.7226188418973
 20
-140.9099219092172
 30
0.0
 10
110.7777227293804
 20
-140.9099219092172
 30
0.0
 10
110.8328618946403
 20
-140.9099219092172
 30
0.0
 10
110.8776293934982
 20
-140.8651191314505
 30
0.0
 10
110.8776293934982
 20
-140.8100152425755
 30
0.0
 10
110.8776293934982
 20
-140.7548760759225
 30
0.0
 10
110.8328618946403
 20
-140.7101085759339
 30
0.0
 10
110.7777227293804
 20
-140.7101085759339
 30
0.0
  0
POLYLINE
  5
43
330
1F
100
AcDbEntity
  8
_U+30EC_U+30A4_U+30E4_U+30FC 1
 62
   179
420
  2234388
370
     9
100
AcDb2dPolyline
 66
     1
 10
0.0
 20
0.0
 30
0.0
  0
VERTEX
  5
44
330
43
100
AcDbEntity
  8
_U+30EC_U+30A4_U+30E4_U+30FC 1
 62
   179
420
  2234388
370
     9
100
AcDbVertex
100
AcDb2dVertex
 10
110.7777227293804
 20
-140.8100152425755
 30
0.0
  0
VERTEX
  5
45
330
43
100
AcDbEntity
  8
_U+30EC_U+30A4_U+30E4_U+30FC 1
 62
   179
420
  2234388
370
     9
100
AcDbVertex
100
AcDb2dVertex
 10
110.7777227293804
 20
-137.7721399655571
 30
0.0
  0
SEQEND
  5
46
330
43
100
AcDbEntity
  8
_U+30EC_U+30A4_U+30E4_U+30FC 1
 62
   179
420
  2234388
370
     9
  0
POLYLINE
  5
47
330
1F
100
AcDbEntity
  8
_U+30EC_U+30A4_U+30E4_U+30FC 1
 62
   179
420
  2234388
370
     9
100
AcDb2dPolyline
 66
     1
 10
0.0
 20
0.0
 30
0.0
  0
VERTEX
  5
48
330
47
100
AcDbEntity
  8
_U+30EC_U+30A4_U+30E4_U+30FC 1
 62
   179
420
  2234388
370
     9
100
AcDbVertex
100
AcDb2dVertex
 10
108.3179471951426
 20
-140.8100152425755
 30
0.0
  0
VERTEX
  5
49
330
47
100
AcDbEntity
  8
_U+30EC_U+30A4_U+30E4_U+30FC 1
 62
   179
420
  2234388
370
     9
100
AcDbVertex
100
AcDb2dVertex
 10
111.7782004816339
 20
-140.8100152425755
 30
0.0
  0
SEQEND
  5
4A
330
47
100
AcDbEntity
  8
_U+30EC_U+30A4_U+30E4_U+30FC 1
 62
   179
420
  2234388
370
     9
  0
POLYLINE
  5
4B
330
1F
100
AcDbEntity
  8
_U+30EC_U+30A4_U+30E4_U+30FC 1
 62
   179
420
  2234388
370
     9
100
AcDb2dPolyline
 66
     1
 10
0.0
 20
0.0
 30
0.0
  0
VERTEX
  5
4C
330
4B
100
AcDbEntity
  8
_U+30EC_U+30A4_U+30E4_U+30FC 1
 62
   179
420
  2234388
370
     9
100
AcDbVertex
100
AcDb2dVertex
 10
108.3179471951426
 20
-137.8327471877642
 30
0.0
  0
VERTEX
  5
4D
330
4B
100
AcDbEntity
  8
_U+30EC_U+30A4_U+30E4_U+30FC 1
 62
   179
420
  2234388
370
     9
100
AcDbVertex
100
AcDb2dVertex
 10
111.7782004816339
 20
-137.8327471877642
 30
0.0
  0
SEQEND
  5
4E
330
4B
100
AcDbEntity
  8
_U+30EC_U+30A4_U+30E4_U+30FC 1
 62
   179
420
  2234388
370
     9
  0
INSERT
  5
50
330
1F
100
AcDbEntity
  8
_U+30EC_U+30A4_U+30E4_U+30FC 1
100
AcDbBlockReference
  2
block 2
 10
0.0
 20
0.0
 30
0.0
  0
POLYLINE
  5
55
330
1F
100
AcDbEntity
  8
_U+30EC_U+30A4_U+30E4_U+30FC 1
 62
   179
420
  2234388
370
    25
100
AcDb2dPolyline
 66
     1
 10
0.0
 20
0.0
 30
0.0
  0
VERTEX
  5
56
330
55
100
AcDbEntity
  8
_U+30EC_U+30A4_U+30E4_U+30FC 1
 62
   179
420
  2234388
370
    25
100
AcDbVertex
100
AcDb2dVertex
 10
76.81788831799018
 20
-140.8175999647955
 30
0.0
  0
VERTEX
  5
57
330
55
100
AcDbEntity
  8
_U+30EC_U+30A4_U+30E4_U+30FC 1
 62
   179
420
  2234388
370
    25
100
AcDbVertex
100
AcDb2dVertex
 10
106.8179360844064
 20
-140.8175999647955
 30
0.0
  0
VERTEX
  5
58
330
55
100
AcDbEntity
  8
_U+30EC_U+30A4_U+30E4_U+30FC 1
 62
   179
420
  2234388
370
    25
100
AcDbVertex
100
AcDb2dVertex
 10
106.8179360844064
 20
-137.8176130211012
 30
0.0
  0
VERTEX
  5
59
330
55
100
AcDbEntity
  8
_U+30EC_U+30A4_U+30E4_U+30FC 1
 62
   179
420
  2234388
370
    25
100
AcDbVertex
100
AcDb2dVertex
 10
79.81787518589857
 20
-137.8176130211012
 30
0.0
  0
VERTEX
  5
5A
330
55
100
AcDbEntity
  8
_U+30EC_U+30A4_U+30E4_U+30FC 1
 62
   179
420
  2234388
370
    25
100
AcDbVertex
100
AcDb2dVertex
 10
79.81787518589857
 20
-110.818048027851
 30
0.0
  0
VERTEX
  5
5B
330
55
100
AcDbEntity
  8
_U+30EC_U+30A4_U+30E4_U+30FC 1
 62
   179
420
  2234388
370
    25
100
AcDbVertex
100
AcDb2dVertex
 10
76.81788831799018
 20
-110.818048027851
 30
0.0
  0
VERTEX
  5
5C
330
55
100
AcDbEntity
  8
_U+30EC_U+30A4_U+30E4_U+30FC 1
 62
   179
420
  2234388
370
    25
100
AcDbVertex
100
AcDb2dVertex
 10
76.81788831799018
 20
-140.8175999647955
 30
0.0
  0
SEQEND
  5
5D
330
55
100
AcDbEntity
  8
_U+30EC_U+30A4_U+30E4_U+30FC 1
 62
   179
420
  2234388
370
    25
  0
SPLINE
  5
5E
330
1F
100
AcDbEntity
  8
_U+30EC_U+30A4_U+30E4_U+30FC 1
 62
   179
420
  2234388
370
     9
100
AcDbSpline
210
0.0
220
0.0
230
1.0
 70
    11
 71
     3
 72
    17
 73
    13
 74
     0
 42
0.0000000001
 43
0.0000000001
 12
1.0
 22
0.0
 32
0.0
 13
1.0
 23
0.0
 33
0.0
 40
0.0
 40
0.0
 40
0.0
 40
0.0
 40
1.0
 40
1.0
 40
1.0
 40
2.0
 40
2.0
 40
2.0
 40
3.0
 40
3.0
 40
3.0
 40
4.0
 40
4.0
 40
4.0
 40
4.0
 10
106.9226731055087
 20
-144.8180294082397
 30
0.0
 10
106.9226731055087
 20
-144.7629255193648
 30
0.0
 10
106.8778703288739
 20
-144.7181227415981
 30
0.0
 10
106.8227664413909
 20
-144.7181227415981
 30
0.0
 10
106.7676272761309
 20
-144.7181227415981
 30
0.0
 10
106.722859777273
 20
-144.7629255193648
 30
0.0
 10
106.722859777273
 20
-144.8180294082397
 30
0.0
 10
106.722859777273
 20
-144.8731685748928
 30
0.0
 10
106.7676272761309
 20
-144.9179360748814
 30
0.0
 10
106.8227664413909
 20
-144.9179360748814
 30
0.0
 10
106.8778703288739
 20
-144.9179360748814
 30
0.0
 10
106.9226731055087
 20
-144.8731685748928
 30
0.0
 10
106.9226731055087
 20
-144.8180294082397
 30
0.0
  0
SPLINE
  5
5F
330
1F
100
AcDbEntity
  8
_U+30EC_U+30A4_U+30E4_U+30FC 1
 62
   179
420
  2234388
370
     9
100
AcDbSpline
210
0.0
220
0.0
230
1.0
 70
    11
 71
     3
 72
    17
 73
    13
 74
     0
 42
0.0000000001
 43
0.0000000001
 12
1.0
 22
0.0
 32
0.0
 13
1.0
 23
0.0
 33
0.0
 40
0.0
 40
0.0
 40
0.0
 40
0.0
 40
1.0
 40
1.0
 40
1.0
 40
2.0
 40
2.0
 40
2.0
 40
3.0
 40
3.0
 40
3.0
 40
4.0
 40
4.0
 40
4.0
 40
4.0
 10
76.91846525986868
 20
-144.8180294082397
 30
0.0
 10
76.91846525986868
 20
-144.7629255193648
 30
0.0
 10
76.8736977610108
 20
-144.7181227415981
 30
0.0
 10
76.81788831799018
 20
-144.7181227415981
 30
0.0
 10
76.76274915273022
 20
-144.7181227415981
 30
0.0
 10
76.71798165387234
 20
-144.7629255193648
 30
0.0
 10
76.71798165387234
 20
-144.8180294082397
 30
0.0
 10
76.71798165387234
 20
-144.8731685748928
 30
0.0
 10
76.76274915273022
 20
-144.9179360748814
 30
0.0
 10
76.81788831799018
 20
-144.9179360748814
 30
0.0
 10
76.8736977610108
 20
-144.9179360748814
 30
0.0
 10
76.91846525986868
 20
-144.8731685748928
 30
0.0
 10
76.91846525986868
 20
-144.8180294082397
 30
0.0
  0
SPLINE
  5
60
330
1F
100
AcDbEntity
  8
_U+30EC_U+30A4_U+30E4_U+30FC 1
 62
   179
420
  2234388
370
     9
100
AcDbSpline
210
0.0
220
0.0
230
1.0
 70
    11
 71
     3
 72
    17
 73
    13
 74
     0
 42
0.0000000001
 43
0.0000000001
 12
1.0
 22
0.0
 32
0.0
 13
1.0
 23
0.0
 33
0.0
 40
0.0
 40
0.0
 40
0.0
 40
0.0
 40
1.0
 40
1.0
 40
1.0
 40
2.0
 40
2.0
 40
2.0
 40
3.0
 40
3.0
 40
3.0
 40
4.0
 40
4.0
 40
4.0
 40
4.0
 10
72.91803591748369
 20
-140.7169877425983
 30
0.0
 10
72.91803591748369
 20
-140.6618838537234
 30
0.0
 10
72.87323314084894
 20
-140.6170810759567
 30
0.0
 10
72.81812925336587
 20
-140.6170810759567
 30
0.0
 10
72.76299008810591
 20
-140.6170810759567
 30
0.0
 10
72.71822258924803
 20
-140.6618838537234
 30
0.0
 10
72.71822258924803
 20
-140.7169877425983
 30
0.0
 10
72.71822258924803
 20
-140.7727971870288
 30
0.0
 10
72.76299008810591
 20
-140.8175999647955
 30
0.0
 10
72.81812925336587
 20
-140.8175999647955
 30
0.0
 10
72.87323314084894
 20
-140.8175999647955
 30
0.0
 10
72.91803591748369
 20
-140.7727971870288
 30
0.0
 10
72.91803591748369
 20
-140.7169877425983
 30
0.0
  0
POLYLINE
  5
61
330
1F
100
AcDbEntity
  8
_U+30EC_U+30A4_U+30E4_U+30FC 1
 62
   179
420
  2234388
370
     9
100
AcDb2dPolyline
 66
     1
 10
0.0
 20
0.0
 30
0.0
  0
VERTEX
  5
62
330
61
100
AcDbEntity
  8
_U+30EC_U+30A4_U+30E4_U+30FC 1
 62
   179
420
  2234388
370
     9
100
AcDbVertex
100
AcDb2dVertex
 10
72.81812925336587
 20
-140.8175999647955
 30
0.0
  0
VERTEX
  5
63
330
61
100
AcDbEntity
  8
_U+30EC_U+30A4_U+30E4_U+30FC 1
 62
   179
420
  2234388
370
     9
100
AcDbVertex
100
AcDb2dVertex
 10
72.81812925336587
 20
-110.8111688611859
 30
0.0
  0
SEQEND
  5
64
330
61
100
AcDbEntity
  8
_U+30EC_U+30A4_U+30E4_U+30FC 1
 62
   179
420
  2234388
370
     9
  0
POLYLINE
  5
65
330
1F
100
AcDbEntity
  8
_U+30EC_U+30A4_U+30E4_U+30FC 1
 62
   179
420
  2234388
370
     9
100
AcDb2dPolyline
 66
     1
 10
0.0
 20
0.0
 30
0.0
  0
VERTEX
  5
66
330
65
100
AcDbEntity
  8
_U+30EC_U+30A4_U+30E4_U+30FC 1
 62
   179
420
  2234388
370
     9
100
AcDbVertex
100
AcDb2dVertex
 10
75.27790752394503
 20
-140.7169877425983
 30
0.0
  0
VERTEX
  5
67
330
65
100
AcDbEntity
  8
_U+30EC_U+30A4_U+30E4_U+30FC 1
 62
   179
420
  2234388
370
     9
100
AcDbVertex
100
AcDb2dVertex
 10
71.81835705664996
 20
-140.7169877425983
 30
0.0
  0
SEQEND
  5
68
330
65
100
AcDbEntity
  8
_U+30EC_U+30A4_U+30E4_U+30FC 1
 62
   179
420
  2234388
370
     9
  0
SPLINE
  5
69
330
1F
100
AcDbEntity
  8
_U+30EC_U+30A4_U+30E4_U+30FC 1
 62
   179
420
  2234388
370
     9
100
AcDbSpline
210
0.0
220
0.0
230
1.0
 70
    11
 71
     3
 72
    17
 73
    13
 74
     0
 42
0.0000000001
 43
0.0000000001
 12
1.0
 22
0.0
 32
0.0
 13
1.0
 23
0.0
 33
0.0
 40
0.0
 40
0.0
 40
0.0
 40
0.0
 40
1.0
 40
1.0
 40
1.0
 40
2.0
 40
2.0
 40
2.0
 40
3.0
 40
3.0
 40
3.0
 40
4.0
 40
4.0
 40
4.0
 40
4.0
 10
72.91803591748369
 20
-110.8111688611859
 30
0.0
 10
72.91803591748369
 20
-110.7560296945332
 30
0.0
 10
72.87323314084894
 20
-110.7112269167668
 30
0.0
 10
72.81812925336587
 20
-110.7112269167668
 30
0.0
 10
72.76299008810591
 20
-110.7112269167668
 30
0.0
 10
72.71822258924803
 20
-110.7560296945332
 30
0.0
 10
72.71822258924803
 20
-110.8111688611859
 30
0.0
 10
72.71822258924803
 20
-110.8669783056167
 30
0.0
 10
72.76299008810591
 20
-110.9117458056053
 30
0.0
 10
72.81812925336587
 20
-110.9117458056053
 30
0.0
 10
72.87323314084894
 20
-110.9117458056053
 30
0.0
 10
72.91803591748369
 20
-110.8669783056167
 30
0.0
 10
72.91803591748369
 20
-110.8111688611859
 30
0.0
  0
POLYLINE
  5
6A
330
1F
100
AcDbEntity
  8
_U+30EC_U+30A4_U+30E4_U+30FC 1
 62
   179
420
  2234388
370
     9
100
AcDb2dPolyline
 66
     1
 10
0.0
 20
0.0
 30
0.0
  0
VERTEX
  5
6B
330
6A
100
AcDbEntity
  8
_U+30EC_U+30A4_U+30E4_U+30FC 1
 62
   179
420
  2234388
370
     9
100
AcDbVertex
100
AcDb2dVertex
 10
75.27790752394503
 20
-110.8111688611859
 30
0.0
  0
VERTEX
  5
6C
330
6A
100
AcDbEntity
  8
_U+30EC_U+30A4_U+30E4_U+30FC 1
 62
   179
420
  2234388
370
     9
100
AcDbVertex
100
AcDb2dVertex
 10
71.81835705664996
 20
-110.8111688611859
 30
0.0
  0
SEQEND
  5
6D
330
6A
100
AcDbEntity
  8
_U+30EC_U+30A4_U+30E4_U+30FC 1
 62
   179
420
  2234388
370
     9
  0
POLYLINE
  5
6E
330
1F
100
AcDbEntity
  8
_U+30EC_U+30A4_U+30E4_U+30FC 1
 62
   179
420
  2234388
370
     9
100
AcDb2dPolyline
 66
     1
 10
0.0
 20
0.0
 30
0.0
  0
VERTEX
  5
6F
330
6E
100
AcDbEntity
  8
_U+30EC_U+30A4_U+30E4_U+30FC 1
 62
   179
420
  2234388
370
     9
100
AcDbVertex
100
AcDb2dVertex
 10
76.81788831799018
 20
-144.8180294082397
 30
0.0
  0
VERTEX
  5
70
330
6E
100
AcDbEntity
  8
_U+30EC_U+30A4_U+30E4_U+30FC 1
 62
   179
420
  2234388
370
     9
100
AcDbVertex
100
AcDb2dVertex
 10
106.8227664413909
 20
-144.8180294082397
 30
0.0
  0
SEQEND
  5
71
330
6E
100
AcDbEntity
  8
_U+30EC_U+30A4_U+30E4_U+30FC 1
 62
   179
420
  2234388
370
     9
  0
POLYLINE
  5
72
330
1F
100
AcDbEntity
  8
_U+30EC_U+30A4_U+30E4_U+30FC 1
 62
   179
420
  2234388
370
     9
100
AcDb2dPolyline
 66
     1
 10
0.0
 20
0.0
 30
0.0
  0
VERTEX
  5
73
330
72
100
AcDbEntity
  8
_U+30EC_U+30A4_U+30E4_U+30FC 1
 62
   179
420
  2234388
370
     9
100
AcDbVertex
100
AcDb2dVertex
 10
76.81788831799018
 20
-142.3575455199661
 30
0.0
  0
VERTEX
  5
74
330
72
100
AcDbEntity
  8
_U+30EC_U+30A4_U+30E4_U+30FC 1
 62
   179
420
  2234388
370
     9
100
AcDbVertex
100
AcDb2dVertex
 10
76.81788831799018
 20
-145.8178016302123
 30
0.0
  0
SEQEND
  5
75
330
72
100
AcDbEntity
  8
_U+30EC_U+30A4_U+30E4_U+30FC 1
 62
   179
420
  2234388
370
     9
  0
POLYLINE
  5
76
330
1F
100
AcDbEntity
  8
_U+30EC_U+30A4_U+30E4_U+30FC 1
 62
   179
420
  2234388
370
     9
100
AcDb2dPolyline
 66
     1
 10
0.0
 20
0.0
 30
0.0
  0
VERTEX
  5
77
330
76
100
AcDbEntity
  8
_U+30EC_U+30A4_U+30E4_U+30FC 1
 62
   179
420
  2234388
370
     9
100
AcDbVertex
100
AcDb2dVertex
 10
106.8227664413909
 20
-143.357988019716
 30
0.0
  0
VERTEX
  5
78
330
76
100
AcDbEntity
  8
_U+30EC_U+30A4_U+30E4_U+30FC 1
 62
   179
420
  2234388
370
     9
100
AcDbVertex
100
AcDb2dVertex
 10
106.8227664413909
 20
-145.8178016302123
 30
0.0
  0
SEQEND
  5
79
330
76
100
AcDbEntity
  8
_U+30EC_U+30A4_U+30E4_U+30FC 1
 62
   179
420
  2234388
370
     9
  0
INSERT
  5
7B
330
1F
100
AcDbEntity
  8
_U+30EC_U+30A4_U+30E4_U+30FC 1
100
AcDbBlockReference
  2
block 3
 10
0.0
 20
0.0
 30
0.0
  0
INSERT
  5
84
330
1F
100
AcDbEntity
  8
_U+30EC_U+30A4_U+30E4_U+30FC 1
100
AcDbBlockReference
  2
block 4
 10
0.0
 20
0.0
 30
0.0
  0
ENDSEC
  0
SECTION
  2
OBJECTS
  0
DICTIONARY
  5
C
330
0
100
AcDbDictionary
281
     1
  3
ACAD_GROUP
350
D
  3
ACAD_LAYOUT
350
1A
  3
ACAD_MATERIAL
350
3B
  3
ACAD_MLEADERSTYLE
350
8D
  3
ACAD_MLINESTYLE
350
17
  3
ACAD_PLOTSETTINGS
350
19
  3
ACAD_PLOTSTYLENAME
350
E
  3
ACAD_TABLESTYLE
350
8C
  3
ACAD_VISUALSTYLE
350
2A
  0
SUN
  5
3F
330
29
100
AcDbSun
 90
        1
290
     0
 63
     7
421
 16777215
 40
1.0
291
     1
 91
  2455826
 92
 54000000
292
     0
 70
     2
 71
   256
280
     1
  0
DICTIONARY
  5
D
102
{ACAD_REACTORS
330
C
102
}
330
C
100
AcDbDictionary
281
     1
  0
DICTIONARY
  5
1A
102
{ACAD_REACTORS
330
C
102
}
330
C
100
AcDbDictionary
281
     1
  3
Layout1
350
1E
  3
Layout2
350
26
  3
Model
350
22
  0
DICTIONARY
  5
3B
102
{ACAD_REACTORS
330
C
102
}
330
C
100
AcDbDictionary
281
     1
  3
ByBlock
350
3D
  3
ByLayer
350
3C
  3
Global
350
3E
  0
DICTIONARY
  5
8D
102
{ACAD_REACTORS
330
C
102
}
330
C
100
AcDbDictionary
281
     1
  0
DICTIONARY
  5
17
102
{ACAD_REACTORS
330
C
102
}
330
C
100
AcDbDictionary
281
     1
  3
Standard
350
18
  0
DICTIONARY
  5
19
102
{ACAD_REACTORS
330
C
102
}
330
C
100
AcDbDictionary
281
     1
  0
ACDBDICTIONARYWDFLT
  5
E
102
{ACAD_REACTORS
330
C
102
}
330
C
100
AcDbDictionary
281
     1
  3
Normal
350
F
100
AcDbDictionaryWithDefault
340
F
  0
DICTIONARY
  5
8C
102
{ACAD_REACTORS
330
C
102
}
330
C
100
AcDbDictionary
281
     1
  0
DICTIONARY
  5
2A
102
{ACAD_REACTORS
330
C
102
}
330
C
100
AcDbDictionary
281
     1
  3
2dWireframe
350
2F
  3
3D Hidden
350
31
  3
3dWireframe
350
30
  3
Basic
350
32
  3
Brighten
350
36
  3
ColorChange
350
3A
  3
Conceptual
350
34
  3
Dim
350
35
  3
Facepattern
350
39
  3
Flat
350
2B
  3
FlatWithEdges
350
2C
  3
Gouraud
350
2D
  3
GouraudWithEdges
350
2E
  3
Linepattern
350
38
  3
Realistic
350
33
  3
Thicken
350
37
  0
LAYOUT
  5
1E
102
{ACAD_REACTORS
330
1A
102
}
330
1A
100
AcDbPlotSettings
  1

  2
none_device
  4

  6

 40
0.0
 41
0.0
 42
0.0
 43
0.0
 44
0.0
 45
0.0
 46
0.0
 47
0.0
 48
0.0
 49
0.0
140
0.0
141
0.0
142
1.0
143
1.0
 70
   688
 72
     0
 73
     0
 74
     5
  7

 75
    16
 76
     0
 77
     2
 78
   300
147
1.0
148
0.0
149
0.0
100
AcDbLayout
  1
Layout1
 70
     1
 71
     1
 10
0.0
 20
0.0
 11
12.0
 21
9.0
 12
0.0
 22
0.0
 32
0.0
 14
1.000000000000000E+20
 24
1.000000000000000E+20
 34
1.000000000000000E+20
 15
-1.000000000000000E+20
 25
-1.000000000000000E+20
 35
-1.000000000000000E+20
146
0.0
 13
0.0
 23
0.0
 33
0.0
 16
1.0
 26
0.0
 36
0.0
 17
0.0
 27
1.0
 37
0.0
 76
     0
330
1B
  0
LAYOUT
  5
26
102
{ACAD_REACTORS
330
1A
102
}
330
1A
100
AcDbPlotSettings
  1

  2
none_device
  4

  6

 40
0.0
 41
0.0
 42
0.0
 43
0.0
 44
0.0
 45
0.0
 46
0.0
 47
0.0
 48
0.0
 49
0.0
140
0.0
141
0.0
142
1.0
143
1.0
 70
   688
 72
     0
 73
     0
 74
     5
  7

 75
    16
 76
     0
 77
     2
 78
   300
147
1.0
148
0.0
149
0.0
100
AcDbLayout
  1
Layout2
 70
     1
 71
     2
 10
0.0
 20
0.0
 11
0.0
 21
0.0
 12
0.0
 22
0.0
 32
0.0
 14
0.0
 24
0.0
 34
0.0
 15
0.0
 25
0.0
 35
0.0
146
0.0
 13
0.0
 23
0.0
 33
0.0
 16
1.0
 26
0.0
 36
0.0
 17
0.0
 27
1.0
 37
0.0
 76
     0
330
23
  0
LAYOUT
  5
22
102
{ACAD_REACTORS
330
1A
102
}
330
1A
100
AcDbPlotSettings
  1

  2
none_device
  4

  6

 40
0.0
 41
0.0
 42
0.0
 43
0.0
 44
0.0
 45
0.0
 46
0.0
 47
0.0
 48
0.0
 49
0.0
140
0.0
141
0.0
142
1.0
143
1.0
 70
  1712
 72
     0
 73
     0
 74
     0
  7

 75
     0
 76
     0
 77
     2
 78
   300
147
1.0
148
0.0
149
0.0
100
AcDbLayout
  1
Model
 70
     1
 71
     0
 10
0.0
 20
0.0
 11
12.0
 21
9.0
 12
0.0
 22
0.0
 32
0.0
 14
1.000000000000000E+20
 24
1.000000000000000E+20
 34
1.000000000000000E+20
 15
-1.000000000000000E+20
 25
-1.000000000000000E+20
 35
-1.000000000000000E+20
146
0.0
 13
0.0
 23
0.0
 33
0.0
 16
1.0
 26
0.0
 36
0.0
 17
0.0
 27
1.0
 37
0.0
 76
     0
330
1F
331
29
  0
MATERIAL
  5
3D
102
{ACAD_REACTORS
330
3B
102
}
330
3B
100
AcDbMaterial
  1
ByBlock
 72
     1
 94
      127
  0
MATERIAL
  5
3C
102
{ACAD_REACTORS
330
3B
102
}
330
3B
100
AcDbMaterial
  1
ByLayer
 72
     1
 94
      127
  0
MATERIAL
  5
3E
102
{ACAD_REACTORS
330
3B
102
}
330
3B
100
AcDbMaterial
  1
Global
 72
     1
 94
      127
  0
MLINESTYLE
  5
18
102
{ACAD_REACTORS
330
17
102
}
330
17
100
AcDbMlineStyle
  2
Standard
 70
     0
  3

 62
   256
 51
90.0
 52
90.0
 71
     2
 49
0.5
 62
   256
  6
BYLAYER
 49
-0.5
 62
   256
  6
BYLAYER
  0
ACDBPLACEHOLDER
  5
F
102
{ACAD_REACTORS
330
E
102
}
330
E
  0
VISUALSTYLE
  5
2F
102
{ACAD_REACTORS
330
2A
102
}
330
2A
100
AcDbVisualStyle
  2
2dWireframe
 70
     4
177
     2
291
     0
 71
     0
176
     1
 72
     2
176
     1
 73
     0
176
     1
 90
        0
176
     1
 40
-0.6
176
     1
 41
-30.0
176
     1
 62
     5
 63
     7
421
 16777215
176
     1
 74
     1
176
     1
 91
        4
176
     1
 64
     7
176
     1
 65
   257
176
     1
 75
     1
176
     1
175
     1
176
     1
 42
1.0
176
     1
 92
        0
176
     1
 66
   257
176
     1
 43
1.0
176
     1
 76
     1
176
     1
 77
     6
176
     1
 78
     2
176
     1
 67
     7
176
     1
 79
     5
176
     1
170
     0
176
     1
171
     0
176
     1
290
     0
176
     1
 93
        1
176
     1
 44
0.0
176
     1
173
     0
176
     1
  0
VISUALSTYLE
  5
31
102
{ACAD_REACTORS
330
2A
102
}
330
2A
100
AcDbVisualStyle
  2
3D Hidden
 70
     6
177
     2
291
     0
 71
     1
176
     1
 72
     2
176
     1
 73
     2
176
     1
 90
        0
176
     1
 40
-0.6
176
     1
 41
-30.0
176
     1
 62
     5
 63
     7
421
 16777215
176
     1
 74
     2
176
     1
 91
        2
176
     1
 64
     7
176
     1
 65
   257
176
     1
 75
     2
176
     1
175
     1
176
     1
 42
40.0
176
     1
 92
        0
176
     1
 66
   257
176
     1
 43
1.0
176
     1
 76
     1
176
     1
 77
     6
176
     1
 78
     2
176
     1
 67
     7
176
     1
 79
     3
176
     1
170
     0
176
     1
171
     0
176
     1
290
     0
176
     1
 93
        1
176
     1
 44
0.0
176
     1
173
     0
176
     1
  0
VISUALSTYLE
  5
30
102
{ACAD_REACTORS
330
2A
102
}
330
2A
100
AcDbVisualStyle
  2
3dWireframe
 70
     5
177
     2
291
     0
 71
     0
176
     1
 72
     2
176
     1
 73
     0
176
     1
 90
        0
176
     1
 40
-0.6
176
     1
 41
-30.0
176
     1
 62
     5
 63
     7
421
 16777215
176
     1
 74
     1
176
     1
 91
        4
176
     1
 64
     7
176
     1
 65
   257
176
     1
 75
     1
176
     1
175
     1
176
     1
 42
1.0
176
     1
 92
        0
176
     1
 66
   257
176
     1
 43
1.0
176
     1
 76
     1
176
     1
 77
     6
176
     1
 78
     2
176
     1
 67
     7
176
     1
 79
     5
176
     1
170
     0
176
     1
171
     0
176
     1
290
     0
176
     1
 93
        1
176
     1
 44
0.0
176
     1
173
     0
176
     1
  0
VISUALSTYLE
  5
32
102
{ACAD_REACTORS
330
2A
102
}
330
2A
100
AcDbVisualStyle
  2
Basic
 70
     7
177
     2
291
     1
 71
     1
176
     1
 72
     0
176
     1
 73
     1
176
     1
 90
        0
176
     1
 40
-0.6
176
     1
 41
-30.0
176
     1
 62
     5
 63
     7
421
 16777215
176
     1
 74
     0
176
     1
 91
        4
176
     1
 64
     7
176
     1
 65
   257
176
     1
 75
     1
176
     1
175
     1
176
     1
 42
1.0
176
     1
 92
        8
176
     1
 66
     7
176
     1
 43
1.0
176
     1
 76
     1
176
     1
 77
     6
176
     1
 78
     2
176
     1
 67
     7
176
     1
 79
     5
176
     1
170
     0
176
     1
171
     0
176
     1
290
     0
176
     1
 93
        1
176
     1
 44
0.0
176
     1
173
     0
176
     1
  0
VISUALSTYLE
  5
36
102
{ACAD_REACTORS
330
2A
102
}
330
2A
100
AcDbVisualStyle
  2
Brighten
 70
    12
177
     2
291
     1
 71
     2
176
     1
 72
     2
176
     1
 73
     0
176
     1
 90
        0
176
     1
 40
-0.6
176
     1
 41
-30.0
176
     1
 62
     5
 63
     7
421
 16777215
176
     1
 74
     1
176
     1
 91
        4
176
     1
 64
     7
176
     1
 65
   257
176
     1
 75
     1
176
     1
175
     1
176
     1
 42
1.0
176
     1
 92
        8
176
     1
 66
     7
176
     1
 43
1.0
176
     1
 76
     1
176
     1
 77
     6
176
     1
 78
     2
176
     1
 67
     7
176
     1
 79
     5
176
     1
170
     0
176
     1
171
     0
176
     1
290
     0
176
     1
 93
        1
176
     1
 44
50.0
176
     1
173
     0
176
     1
  0
VISUALSTYLE
  5
3A
102
{ACAD_REACTORS
330
2A
102
}
330
2A
100
AcDbVisualStyle
  2
ColorChange
 70
    16
177
     2
291
     1
 71
     2
176
     1
 72
     2
176
     1
 73
     3
176
     1
 90
        0
176
     1
 40
-0.6
176
     1
 41
-30.0
176
     1
 62
     5
 63
     8
421
  8421504
176
     1
 74
     1
176
     1
 91
        4
176
     1
 64
     7
176
     1
 65
   257
176
     1
 75
     1
176
     1
175
     1
176
     1
 42
1.0
176
     1
 92
        8
176
     1
 66
     8
424
  8421504
176
     1
 43
1.0
176
     1
 76
     1
176
     1
 77
     6
176
     1
 78
     2
176
     1
 67
     7
176
     1
 79
     5
176
     1
170
     0
176
     1
171
     0
176
     1
290
     0
176
     1
 93
        1
176
     1
 44
0.0
176
     1
173
     0
176
     1
  0
VISUALSTYLE
  5
34
102
{ACAD_REACTORS
330
2A
102
}
330
2A
100
AcDbVisualStyle
  2
Conceptual
 70
     9
177
     2
291
     0
 71
     3
176
     1
 72
     2
176
     1
 73
     0
176
     1
 90
        0
176
     1
 40
-0.6
176
     1
 41
-30.0
176
     1
 62
     5
 63
     7
421
 16777215
176
     1
 74
     2
176
     1
 91
        2
176
     1
 64
     7
176
     1
 65
   257
176
     1
 75
     1
176
     1
175
     1
176
     1
 42
40.0
176
     1
 92
        8
176
     1
 66
     7
176
     1
 43
1.0
176
     1
 76
     1
176
     1
 77
     6
176
     1
 78
     2
176
     1
 67
     7
176
     1
 79
     3
176
     1
170
     0
176
     1
171
     0
176
     1
290
     0
176
     1
 93
        1
176
     1
 44
0.0
176
     1
173
     0
176
     1
  0
VISUALSTYLE
  5
35
102
{ACAD_REACTORS
330
2A
102
}
330
2A
100
AcDbVisualStyle
  2
Dim
 70
    11
177
     2
291
     1
 71
     2
176
     1
 72
     2
176
     1
 73
     0
176
     1
 90
        0
176
     1
 40
-0.6
176
     1
 41
-30.0
176
     1
 62
     5
 63
     7
421
 16777215
176
     1
 74
     1
176
     1
 91
        4
176
     1
 64
     7
176
     1
 65
   257
176
     1
 75
     1
176
     1
175
     1
176
     1
 42
1.0
176
     1
 92
        8
176
     1
 66
     7
176
     1
 43
1.0
176
     1
 76
     1
176
     1
 77
     6
176
     1
 78
     2
176
     1
 67
     7
176
     1
 79
     5
176
     1
170
     0
176
     1
171
     0
176
     1
290
     0
176
     1
 93
        1
176
     1
 44
-50.0
176
     1
173
     0
176
     1
  0
VISUALSTYLE
  5
39
102
{ACAD_REACTORS
330
2A
102
}
330
2A
100
AcDbVisualStyle
  2
Facepattern
 70
    15
177
     2
291
     1
 71
     2
176
     1
 72
     2
176
     1
 73
     0
176
     1
 90
        0
176
     1
 40
-0.6
176
     1
 41
-30.0
176
     1
 62
     5
 63
     7
421
 16777215
176
     1
 74
     1
176
     1
 91
        4
176
     1
 64
     7
176
     1
 65
   257
176
     1
 75
     1
176
     1
175
     1
176
     1
 42
1.0
176
     1
 92
        8
176
     1
 66
     7
176
     1
 43
1.0
176
     1
 76
     1
176
     1
 77
     6
176
     1
 78
     2
176
     1
 67
     7
176
     1
 79
     5
176
     1
170
     0
176
     1
171
     0
176
     1
290
     0
176
     1
 93
        1
176
     1
 44
0.0
176
     1
173
     0
176
     1
  0
VISUALSTYLE
  5
2B
102
{ACAD_REACTORS
330
2A
102
}
330
2A
100
AcDbVisualStyle
  2
Flat
 70
     0
177
     2
291
     1
 71
     2
176
     1
 72
     1
176
     1
 73
     1
176
     1
 90
        2
176
     1
 40
-0.6
176
     1
 41
30.0
176
     1
 62
     5
 63
     7
421
 16777215
176
     1
 74
     0
176
     1
 91
        4
176
     1
 64
     7
176
     1
 65
   257
176
     1
 75
     1
176
     1
175
     1
176
     1
 42
1.0
176
     1
 92
        8
176
     1
 66
     7
176
     1
 43
1.0
176
     1
 76
     1
176
     1
 77
     6
176
     1
 78
     2
176
     1
 67
     7
176
     1
 79
     5
176
     1
170
     0
176
     1
171
     0
176
     1
290
     0
176
     1
 93
       13
176
     1
 44
0.0
176
     1
173
     0
176
     1
  0
VISUALSTYLE
  5
2C
102
{ACAD_REACTORS
330
2A
102
}
330
2A
100
AcDbVisualStyle
  2
FlatWithEdges
 70
     1
177
     2
291
     1
 71
     2
176
     1
 72
     1
176
     1
 73
     1
176
     1
 90
        2
176
     1
 40
-0.6
176
     1
 41
30.0
176
     1
 62
     5
 63
     7
421
 16777215
176
     1
 74
     1
176
     1
 91
        4
176
     1
 64
     7
176
     1
 65
   257
176
     1
 75
     1
176
     1
175
     1
176
     1
 42
1.0
176
     1
 92
        0
176
     1
 66
   257
176
     1
 43
1.0
176
     1
 76
     1
176
     1
 77
     6
176
     1
 78
     2
176
     1
 67
     7
176
     1
 79
     5
176
     1
170
     0
176
     1
171
     0
176
     1
290
     0
176
     1
 93
       13
176
     1
 44
0.0
176
     1
173
     0
176
     1
  0
VISUALSTYLE
  5
2D
102
{ACAD_REACTORS
330
2A
102
}
330
2A
100
AcDbVisualStyle
  2
Gouraud
 70
     2
177
     2
291
     1
 71
     2
176
     1
 72
     2
176
     1
 73
     1
176
     1
 90
        2
176
     1
 40
-0.6
176
     1
 41
30.0
176
     1
 62
     5
 63
     7
421
 16777215
176
     1
 74
     0
176
     1
 91
        4
176
     1
 64
     7
176
     1
 65
   257
176
     1
 75
     1
176
     1
175
     1
176
     1
 42
1.0
176
     1
 92
        0
176
     1
 66
     7
176
     1
 43
1.0
176
     1
 76
     1
176
     1
 77
     6
176
     1
 78
     2
176
     1
 67
     7
176
     1
 79
     5
176
     1
170
     0
176
     1
171
     0
176
     1
290
     0
176
     1
 93
       13
176
     1
 44
0.0
176
     1
173
     0
176
     1
  0
VISUALSTYLE
  5
2E
102
{ACAD_REACTORS
330
2A
102
}
330
2A
100
AcDbVisualStyle
  2
GouraudWithEdges
 70
     3
177
     2
291
     1
 71
     2
176
     1
 72
     2
176
     1
 73
     1
176
     1
 90
        2
176
     1
 40
-0.6
176
     1
 41
30.0
176
     1
 62
     5
 63
     7
421
 16777215
176
     1
 74
     1
176
     1
 91
        4
176
     1
 64
     7
176
     1
 65
   257
176
     1
 75
     1
176
     1
175
     1
176
     1
 42
1.0
176
     1
 92
        0
176
     1
 66
   257
176
     1
 43
1.0
176
     1
 76
     1
176
     1
 77
     6
176
     1
 78
     2
176
     1
 67
     7
176
     1
 79
     5
176
     1
170
     0
176
     1
171
     0
176
     1
290
     0
176
     1
 93
       13
176
     1
 44
0.0
176
     1
173
     0
176
     1
  0
VISUALSTYLE
  5
38
102
{ACAD_REACTORS
330
2A
102
}
330
2A
100
AcDbVisualStyle
  2
Linepattern
 70
    14
177
     2
291
     1
 71
     2
176
     1
 72
     2
176
     1
 73
     0
176
     1
 90
        0
176
     1
 40
-0.6
176
     1
 41
-30.0
176
     1
 62
     5
 63
     7
421
 16777215
176
     1
 74
     1
176
     1
 91
        4
176
     1
 64
     7
176
     1
 65
   257
176
     1
 75
     7
176
     1
175
     7
176
     1
 42
1.0
176
     1
 92
        8
176
     1
 66
     7
176
     1
 43
1.0
176
     1
 76
     1
176
     1
 77
     6
176
     1
 78
     2
176
     1
 67
     7
176
     1
 79
     5
176
     1
170
     0
176
     1
171
     0
176
     1
290
     0
176
     1
 93
        1
176
     1
 44
0.0
176
     1
173
     0
176
     1
  0
VISUALSTYLE
  5
33
102
{ACAD_REACTORS
330
2A
102
}
330
2A
100
AcDbVisualStyle
  2
Realistic
 70
     8
177
     2
291
     0
 71
     2
176
     1
 72
     2
176
     1
 73
     0
176
     1
 90
        0
176
     1
 40
-0.6
176
     1
 41
-30.0
176
     1
 62
     5
 63
     7
421
 16777215
176
     1
 74
     1
176
     1
 91
        0
176
     1
 64
     7
176
     1
 65
   257
176
     1
 75
     1
176
     1
175
     1
176
     1
 42
1.0
176
     1
 92
        8
176
     1
 66
     8
424
  7895160
176
     1
 43
1.0
176
     1
 76
     1
176
     1
 77
     6
176
     1
 78
     2
176
     1
 67
     7
176
     1
 79
     5
176
     1
170
     0
176
     1
171
     0
176
     1
290
     0
176
     1
 93
       13
176
     1
 44
0.0
176
     1
173
     0
176
     1
  0
VISUALSTYLE
  5
37
102
{ACAD_REACTORS
330
2A
102
}
330
2A
100
AcDbVisualStyle
  2
Thicken
 70
    13
177
     2
291
     1
 71
     2
176
     1
 72
     2
176
     1
 73
     0
176
     1
 90
        0
176
     1
 40
-0.6
176
     1
 41
-30.0
176
     1
 62
     5
 63
     7
421
 16777215
176
     1
 74
     1
176
     1
 91
        4
176
     1
 64
     7
176
     1
 65
   257
176
     1
 75
     1
176
     1
175
     1
176
     1
 42
1.0
176
     1
 92
       12
176
     1
 66
     7
176
     1
 43
1.0
176
     1
 76
     1
176
     1
 77
     6
176
     1
 78
     2
176
     1
 67
     7
176
     1
 79
     5
176
     1
170
     0
176
     1
171
     0
176
     1
290
     0
176
     1
 93
        1
176
     1
 44
0.0
176
     1
173
     0
176
     1
  0
ENDSEC
  0
EOF
