  0
SECTION
  2
HEADER
  9
$ACADVER
  1
AC1024
  9
$ACADMAINTVER
 70
     6
  9
$DWGCODEPAGE
  3
UNDEFINED
  9
$INSBASE
 10
0.0
 20
0.0
 30
0.0
  9
$EXTMIN
 10
1.000000000000000E+20
 20
1.000000000000000E+20
 30
1.000000000000000E+20
  9
$EXTMAX
 10
-1.000000000000000E+20
 20
-1.000000000000000E+20
 30
-1.000000000000000E+20
  9
$LIMMIN
 10
0.0
 20
0.0
  9
$LIMMAX
 10
12.0
 20
9.0
  9
$ORTHOMODE
 70
     0
  9
$REGENMODE
 70
     1
  9
$FILLMODE
 70
     1
  9
$QTEXTMODE
 70
     0
  9
$MIRRTEXT
 70
     1
  9
$LTSCALE
 40
1.0
  9
$ATTMODE
 70
     1
  9
$TEXTSIZE
 40
0.2
  9
$TRACEWID
 40
0.05
  9
$TEXTSTYLE
  7
Standard
  9
$CLAYER
  8
0
  9
$CELTYPE
  6
ByLayer
  9
$CECOLOR
 62
   256
  9
$CELTSCALE
 40
1.0
  9
$DISPSILH
 70
     0
  9
$DIMSCALE
 40
1.0
  9
$DIMASZ
 40
0.18
  9
$DIMEXO
 40
0.0625
  9
$DIMDLI
 40
0.38
  9
$DIMRND
 40
0.0
  9
$DIMDLE
 40
0.0
  9
$DIMEXE
 40
0.18
  9
$DIMTP
 40
0.0
  9
$DIMTM
 40
0.0
  9
$DIMTXT
 40
0.18
  9
$DIMCEN
 40
0.09
  9
$DIMTSZ
 40
0.0
  9
$DIMTOL
 70
     0
  9
$DIMLIM
 70
     0
  9
$DIMTIH
 70
     1
  9
$DIMTOH
 70
     1
  9
$DIMSE1
 70
     0
  9
$DIMSE2
 70
     0
  9
$DIMTAD
 70
     0
  9
$DIMZIN
 70
     0
  9
$DIMBLK
  1

  9
$DIMASO
 70
     1
  9
$DIMSHO
 70
     1
  9
$DIMPOST
  1

  9
$DIMAPOST
  1

  9
$DIMALT
 70
     0
  9
$DIMALTD
 70
     2
  9
$DIMALTF
 40
25.4
  9
$DIMLFAC
 40
1.0
  9
$DIMTOFL
 70
     0
  9
$DIMTVP
 40
0.0
  9
$DIMTIX
 70
     0
  9
$DIMSOXD
 70
     0
  9
$DIMSAH
 70
     0
  9
$DIMBLK1
  1

  9
$DIMBLK2
  1

  9
$DIMSTYLE
  2
Standard
  9
$DIMCLRD
 70
     0
  9
$DIMCLRE
 70
     0
  9
$DIMCLRT
 70
     0
  9
$DIMTFAC
 40
1.0
  9
$DIMGAP
 40
0.09
  9
$DIMJUST
 70
     0
  9
$DIMSD1
 70
     0
  9
$DIMSD2
 70
     0
  9
$DIMTOLJ
 70
     1
  9
$DIMTZIN
 70
     0
  9
$DIMALTZ
 70
     0
  9
$DIMALTTZ
 70
     0
  9
$DIMUPT
 70
     0
  9
$DIMDEC
 70
     4
  9
$DIMTDEC
 70
     4
  9
$DIMALTU
 70
     2
  9
$DIMALTTD
 70
     2
  9
$DIMTXSTY
  7
Standard
  9
$DIMAUNIT
 70
     0
  9
$DIMADEC
 70
     0
  9
$DIMALTRND
 40
0.0
  9
$DIMAZIN
 70
     0
  9
$DIMDSEP
 70
    46
  9
$DIMATFIT
 70
     3
  9
$DIMFRAC
 70
     0
  9
$DIMLDRBLK
  1

  9
$DIMLUNIT
 70
     2
  9
$DIMLWD
 70
    -2
  9
$DIMLWE
 70
    -2
  9
$DIMTMOVE
 70
     0
  9
$DIMFXL
 40
1.0
  9
$DIMFXLON
 70
     0
  9
$DIMJOGANG
 40
0.7853981633974483
  9
$DIMTFILL
 70
     0
  9
$DIMTFILLCLR
 70
     0
  9
$DIMARCSYM
 70
     0
  9
$DIMLTYPE
  6

  9
$DIMLTEX1
  6

  9
$DIMLTEX2
  6

  9
$DIMTXTDIRECTION
 70
     0
  9
$LUNITS
 70
     2
  9
$LUPREC
 70
     4
  9
$SKETCHINC
 40
0.1
  9
$FILLETRAD
 40
0.5
  9
$AUNITS
 70
     0
  9
$AUPREC
 70
     0
  9
$MENU
  1
.
  9
$ELEVATION
 40
0.0
  9
$PELEVATION
 40
0.0
  9
$THICKNESS
 40
0.0
  9
$LIMCHECK
 70
     0
  9
$CHAMFERA
 40
0.5
  9
$CHAMFERB
 40
0.5
  9
$CHAMFERC
 40
1.0
  9
$CHAMFERD
 40
0.0
  9
$SKPOLY
 70
     0
  9
$TDCREATE
 40
2457917.599039352
  9
$TDUCREATE
 40
2457917.224039352
  9
$TDUPDATE
 40
2457917.599039352
  9
$TDUUPDATE
 40
2457917.224039352
  9
$TDINDWG
 40
0.0000000116
  9
$TDUSRTIMER
 40
0.0000000116
  9
$USRTIMER
 70
     1
  9
$ANGBASE
 50
0.0
  9
$ANGDIR
 70
     0
  9
$PDMODE
 70
     0
  9
$PDSIZE
 40
0.0
  9
$PLINEWID
 40
0.0
  9
$SPLFRAME
 70
     0
  9
$SPLINETYPE
 70
     6
  9
$SPLINESEGS
 70
     8
  9
$HANDSEED
  5
9A
  9
$SURFTAB1
 70
     6
  9
$SURFTAB2
 70
     6
  9
$SURFTYPE
 70
     6
  9
$SURFU
 70
     6
  9
$SURFV
 70
     6
  9
$UCSBASE
  2

  9
$UCSNAME
  2

  9
$UCSORG
 10
0.0
 20
0.0
 30
0.0
  9
$UCSXDIR
 10
1.0
 20
0.0
 30
0.0
  9
$UCSYDIR
 10
0.0
 20
1.0
 30
0.0
  9
$UCSORTHOREF
  2

  9
$UCSORTHOVIEW
 70
     0
  9
$UCSORGTOP
 10
0.0
 20
0.0
 30
0.0
  9
$UCSORGBOTTOM
 10
0.0
 20
0.0
 30
0.0
  9
$UCSORGLEFT
 10
0.0
 20
0.0
 30
0.0
  9
$UCSORGRIGHT
 10
0.0
 20
0.0
 30
0.0
  9
$UCSORGFRONT
 10
0.0
 20
0.0
 30
0.0
  9
$UCSORGBACK
 10
0.0
 20
0.0
 30
0.0
  9
$PUCSBASE
  2

  9
$PUCSNAME
  2

  9
$PUCSORG
 10
0.0
 20
0.0
 30
0.0
  9
$PUCSXDIR
 10
1.0
 20
0.0
 30
0.0
  9
$PUCSYDIR
 10
0.0
 20
1.0
 30
0.0
  9
$PUCSORTHOREF
  2

  9
$PUCSORTHOVIEW
 70
     0
  9
$PUCSORGTOP
 10
0.0
 20
0.0
 30
0.0
  9
$PUCSORGBOTTOM
 10
0.0
 20
0.0
 30
0.0
  9
$PUCSORGLEFT
 10
0.0
 20
0.0
 30
0.0
  9
$PUCSORGRIGHT
 10
0.0
 20
0.0
 30
0.0
  9
$PUCSORGFRONT
 10
0.0
 20
0.0
 30
0.0
  9
$PUCSORGBACK
 10
0.0
 20
0.0
 30
0.0
  9
$USERI1
 70
     0
  9
$USERI2
 70
     0
  9
$USERI3
 70
     0
  9
$USERI4
 70
     0
  9
$USERI5
 70
     0
  9
$USERR1
 40
0.0
  9
$USERR2
 40
0.0
  9
$USERR3
 40
0.0
  9
$USERR4
 40
0.0
  9
$USERR5
 40
0.0
  9
$WORLDVIEW
 70
     1
  9
$SHADEDGE
 70
     3
  9
$SHADEDIF
 70
    70
  9
$TILEMODE
 70
     1
  9
$MAXACTVP
 70
    64
  9
$PINSBASE
 10
0.0
 20
0.0
 30
0.0
  9
$PLIMCHECK
 70
     0
  9
$PEXTMIN
 10
1.000000000000000E+20
 20
1.000000000000000E+20
 30
1.000000000000000E+20
  9
$PEXTMAX
 10
-1.000000000000000E+20
 20
-1.000000000000000E+20
 30
-1.000000000000000E+20
  9
$PLIMMIN
 10
0.0
 20
0.0
  9
$PLIMMAX
 10
12.0
 20
9.0
  9
$UNITMODE
 70
     0
  9
$VISRETAIN
 70
     1
  9
$PLINEGEN
 70
     0
  9
$PSLTSCALE
 70
     1
  9
$TREEDEPTH
 70
  3020
  9
$CMLSTYLE
  2
Standard
  9
$CMLJUST
 70
     0
  9
$CMLSCALE
 40
1.0
  9
$PROXYGRAPHICS
 70
     1
  9
$MEASUREMENT
 70
     0
  9
$CELWEIGHT
370
    -1
  9
$ENDCAPS
280
     0
  9
$JOINSTYLE
280
     0
  9
$LWDISPLAY
290
     1
  9
$INSUNITS
 70
     1
  9
$HYPERLINKBASE
  1

  9
$STYLESHEET
  1

  9
$XEDIT
290
     1
  9
$CEPSNTYPE
380
     0
  9
$PSTYLEMODE
290
     1
  9
$FINGERPRINTGUID
  2
{BBBE17F8-315D-61D9-2B0C-2E1B496B3E7B}
  9
$VERSIONGUID
  2
{FAEB1C32-E019-11D5-929B-00C0DF256EC4}
  9
$EXTNAMES
290
     1
  9
$PSVPSCALE
 40
0.0
  9
$OLESTARTUP
290
     0
  9
$SORTENTS
280
   127
  9
$INDEXCTL
280
     0
  9
$HIDETEXT
280
     1
  9
$XCLIPFRAME
280
     2
  9
$HALOGAP
280
     0
  9
$OBSCOLOR
 70
   257
  9
$OBSLTYPE
280
     0
  9
$INTERSECTIONDISPLAY
280
     0
  9
$INTERSECTIONCOLOR
 70
   257
  9
$DIMASSOC
280
     2
  9
$PROJECTNAME
  1

  9
$CAMERADISPLAY
290
     0
  9
$LENSLENGTH
 40
50.0
  9
$CAMERAHEIGHT
 40
0.0
  9
$STEPSPERSEC
 40
2.0
  9
$STEPSIZE
 40
6.0
  9
$3DDWFPREC
 40
2.0
  9
$PSOLWIDTH
 40
0.25
  9
$PSOLHEIGHT
 40
4.0
  9
$LOFTANG1
 40
1.570796326794897
  9
$LOFTANG2
 40
1.570796326794897
  9
$LOFTMAG1
 40
0.0
  9
$LOFTMAG2
 40
0.0
  9
$LOFTPARAM
 70
     7
  9
$LOFTNORMALS
280
     1
  9
$LATITUDE
 40
37.795
  9
$LONGITUDE
 40
-122.394
  9
$NORTHDIRECTION
 40
0.0
  9
$TIMEZONE
 70
 -8000
  9
$LIGHTGLYPHDISPLAY
280
     1
  9
$TILEMODELIGHTSYNCH
280
     1
  9
$CMATERIAL
347
3C
  9
$SOLIDHIST
280
     1
  9
$SHOWHIST
280
     1
  9
$DWFFRAME
280
     2
  9
$DGNFRAME
280
     2
  9
$REALWORLDSCALE
290
     1
  9
$INTERFERECOLOR
 62
   256
  9
$CSHADOW
280
     0
  9
$SHADOWPLANELOCATION
 40
0.0
  0
ENDSEC
  0
SECTION
  2
CLASSES
  0
CLASS
  1
ACDBDICTIONARYWDFLT
  2
AcDbDictionaryWithDefault
  3
ObjectDBX Classes
 90
        0
 91
        4
280
     0
281
     0
  0
CLASS
  1
VISUALSTYLE
  2
AcDbVisualStyle
  3
ObjectDBX Classes
 90
     4095
 91
        4
280
     0
281
     0
  0
CLASS
  1
MATERIAL
  2
AcDbMaterial
  3
ObjectDBX Classes
 90
     1153
 91
        4
280
     0
281
     0
  0
CLASS
  1
SUN
  2
AcDbSun
  3
SCENEOE
 90
     1024
 91
        4
280
     0
281
     0
  0
ENDSEC
  0
SECTION
  2
TABLES
  0
TABLE
  2
VPORT
  5
8
330
0
100
AcDbSymbolTable
 70
     1
  0
VPORT
  5
29
330
8
100
AcDbSymbolTableRecord
100
AcDbViewportTableRecord
  2
*Active
 70
     0
 10
0.0
 20
0.0
 11
1.0
 21
1.0
 12
0.0
 22
0.0
 13
0.0
 23
0.0
 14
0.5
 24
0.5
 15
0.5
 25
0.5
 16
0.0
 26
0.0
 36
1.0
 17
91.00082462281999
 27
-128.4993055234307
 37
0.0
 40
256.9986110468615
 41
0.7081814508812795
 42
50.0
 43
0.0
 44
0.0
 50
0.0
 51
0.0
 71
     0
 72
   100
 73
     1
 74
     3
 75
     0
 76
     0
 77
     0
 78
     0
281
     0
 65
     1
110
0.0
120
0.0
130
0.0
111
1.0
121
0.0
131
0.0
112
0.0
122
1.0
132
0.0
 79
     0
146
0.0
 60
     3
 61
     5
292
     1
282
     1
141
0.0
142
0.0
 63
   250
361
3F
  0
ENDTAB
  0
TABLE
  2
LTYPE
  5
5
330
0
100
AcDbSymbolTable
 70
     1
  0
LTYPE
  5
14
330
5
100
AcDbSymbolTableRecord
100
AcDbLinetypeTableRecord
  2
ByBlock
 70
     0
  3

 72
    65
 73
     0
 40
0.0
  0
LTYPE
  5
15
330
5
100
AcDbSymbolTableRecord
100
AcDbLinetypeTableRecord
  2
ByLayer
 70
     0
  3

 72
    65
 73
     0
 40
0.0
  0
LTYPE
  5
16
330
5
100
AcDbSymbolTableRecord
100
AcDbLinetypeTableRecord
  2
Continuous
 70
     0
  3
Solid line
 72
    65
 73
     0
 40
0.0
  0
ENDTAB
  0
TABLE
  2
LAYER
  5
2
330
0
100
AcDbSymbolTable
 70
     2
  0
LAYER
  5
10
330
2
100
AcDbSymbolTableRecord
100
AcDbLayerTableRecord
  2
0
 70
     0
 62
     7
  6
Continuous
370
    -3
390
F
347
3E
  0
LAYER
  5
40
330
2
100
AcDbSymbolTableRecord
100
AcDbLayerTableRecord
  2
_U+30EC_U+30A4_U+30E4_U+30FC 1
 70
     0
 62
     7
  6
Continuous
370
    -3
390
F
347
3E
  0
ENDTAB
  0
TABLE
  2
STYLE
  5
3
330
0
100
AcDbSymbolTable
 70
     1
  0
STYLE
  5
11
330
3
100
AcDbSymbolTableRecord
100
AcDbTextStyleTableRecord
  2
Standard
 70
     0
 40
0.0
 41
1.0
 50
0.0
 71
     0
 42
0.2
  3
txt
  4

  0
ENDTAB
  0
TABLE
  2
VIEW
  5
6
330
0
100
AcDbSymbolTable
 70
     0
  0
ENDTAB
  0
TABLE
  2
UCS
  5
7
330
0
100
AcDbSymbolTable
 70
     0
  0
ENDTAB
  0
TABLE
  2
APPID
  5
9
330
0
100
AcDbSymbolTable
 70
     1
  0
APPID
  5
12
330
9
100
AcDbSymbolTableRecord
100
AcDbRegAppTableRecord
  2
ACAD
 70
     0
  0
ENDTAB
  0
TABLE
  2
DIMSTYLE
  5
A
330
0
100
AcDbSymbolTable
 70
     1
100
AcDbDimStyleTable
  0
DIMSTYLE
105
27
330
A
100
AcDbSymbolTableRecord
100
AcDbDimStyleTableRecord
  2
Standard
 70
     0
178
     0
340
11
  0
ENDTAB
  0
TABLE
  2
BLOCK_RECORD
  5
1
330
0
100
AcDbSymbolTable
 70
     5
  0
BLOCK_RECORD
  5
1F
330
1
100
AcDbSymbolTableRecord
100
AcDbBlockTableRecord
  2
*Model_Space
340
22
 70
     0
280
     1
281
     0
  0
BLOCK_RECORD
  5
1B
330
1
100
AcDbSymbolTableRecord
100
AcDbBlockTableRecord
  2
*Paper_Space
340
1E
 70
     0
280
     1
281
     0
  0
BLOCK_RECORD
  5
23
330
1
100
AcDbSymbolTableRecord
100
AcDbBlockTableRecord
  2
*Paper_Space0
340
26
 70
     0
280
     1
281
     0
  0
BLOCK_RECORD
  5
4F
330
1
100
AcDbSymbolTableRecord
100
AcDbBlockTableRecord
  2
block 2
340
0
102
{BLKREFS
331
50
102
}
 70
     0
280
     1
281
     0
  0
BLOCK_RECORD
  5
71
330
1
100
AcDbSymbolTableRecord
100
AcDbBlockTableRecord
  2
block 3
340
0
102
{BLKREFS
331
72
102
}
 70
     0
280
     1
281
     0
  0
BLOCK_RECORD
  5
79
330
1
100
AcDbSymbolTableRecord
100
AcDbBlockTableRecord
  2
block 4
340
0
102
{BLKREFS
331
7A
102
}
 70
     0
280
     1
281
     0
  0
BLOCK_RECORD
  5
82
330
1
100
AcDbSymbolTableRecord
100
AcDbBlockTableRecord
  2
block 5
340
0
102
{BLKREFS
331
83
102
}
 70
     0
280
     1
281
     0
  0
ENDTAB
  0
ENDSEC
  0
SECTION
  2
BLOCKS
  0
BLOCK
  5
20
330
1F
100
AcDbEntity
  8
0
100
AcDbBlockBegin
  2
*Model_Space
 70
     0
 10
0.0
 20
0.0
 30
0.0
  3
*Model_Space
  1

  0
ENDBLK
  5
21
330
1F
100
AcDbEntity
  8
0
100
AcDbBlockEnd
  0
BLOCK
  5
1C
330
1B
100
AcDbEntity
 67
     1
  8
0
100
AcDbBlockBegin
  2
*Paper_Space
 70
     0
 10
0.0
 20
0.0
 30
0.0
  3
*Paper_Space
  1

  0
ENDBLK
  5
1D
330
1B
100
AcDbEntity
 67
     1
  8
0
100
AcDbBlockEnd
  0
BLOCK
  5
24
330
23
100
AcDbEntity
  8
0
100
AcDbBlockBegin
  2
*Paper_Space0
 70
     0
 10
0.0
 20
0.0
 30
0.0
  3
*Paper_Space0
  1

  0
ENDBLK
  5
25
330
23
100
AcDbEntity
  8
0
100
AcDbBlockEnd
  0
BLOCK
  5
51
330
4F
100
AcDbEntity
  8
0
100
AcDbBlockBegin
  2
block 2
 70
     0
 10
0.0
 20
0.0
 30
0.0
  3
block 2
  1

  0
SPLINE
  5
53
330
4F
100
AcDbEntity
  8
_U+30EC_U+30A4_U+30E4_U+30FC 1
370
     0
100
AcDbSpline
210
0.0
220
0.0
230
1.0
 70
    11
 71
     3
 72
    62
 73
    58
 74
     0
 42
0.0000000001
 43
0.0000000001
 12
1.0
 22
0.0
 32
0.0
 13
1.0
 23
0.0
 33
0.0
 40
0.0
 40
0.0
 40
0.0
 40
0.0
 40
1.0
 40
1.0
 40
1.0
 40
2.0
 40
2.0
 40
2.0
 40
3.0
 40
3.0
 40
3.0
 40
4.0
 40
4.0
 40
4.0
 40
5.0
 40
5.0
 40
5.0
 40
6.0
 40
6.0
 40
6.0
 40
7.0
 40
7.0
 40
7.0
 40
8.0
 40
8.0
 40
8.0
 40
9.0
 40
9.0
 40
9.0
 40
10.0
 40
10.0
 40
10.0
 40
11.0
 40
11.0
 40
11.0
 40
12.0
 40
12.0
 40
12.0
 40
13.0
 40
13.0
 40
13.0
 40
14.0
 40
14.0
 40
14.0
 40
15.0
 40
15.0
 40
15.0
 40
16.0
 40
16.0
 40
16.0
 40
17.0
 40
17.0
 40
17.0
 40
18.0
 40
18.0
 40
18.0
 40
19.0
 40
19.0
 40
19.0
 40
19.0
 10
107.646487060762
 20
-136.9652831688837
 30
0.0
 10
107.646487060762
 20
-137.0607123138251
 30
0.0
 10
107.625471978302
 20
-137.2784423484929
 30
0.0
 10
107.4394368220985
 20
-137.4034993146075
 30
0.0
 10
107.3271267092793
 20
-137.4772243579918
 30
0.0
 10
107.2279079593041
 20
-137.4817029821226
 30
0.0
 10
107.143158610367
 20
-137.4858370967049
 30
0.0
 10
107.143158610367
 20
-137.4858370967049
 30
0.0
 10
107.143158610367
 20
-137.2656954951975
 30
0.0
 10
107.143158610367
 20
-137.2656954951975
 30
0.0
 10
107.2172281632999
 20
-137.2636284379063
 30
0.0
 10
107.4518391658454
 20
-137.2532931514506
 30
0.0
 10
107.4518391658454
 20
-136.9697617930145
 30
0.0
 10
107.4518391658454
 20
-136.832302483153
 30
0.0
 10
107.3822482370433
 20
-136.6796847531565
 30
0.0
 10
107.1538384063713
 20
-136.6796847531565
 30
0.0
 10
107.0373941789698
 20
-136.6796847531565
 30
0.0
 10
106.9888183326278
 20
-136.7179253130427
 30
0.0
 10
106.9571234541635
 20
-136.749620191507
 30
0.0
 10
106.8830539012306
 20
-136.8236897444399
 30
0.0
 10
106.8703070479352
 20
-136.9401339718414
 30
0.0
 10
106.8703070479352
 20
-136.9949109900568
 30
0.0
 10
106.8703070479352
 20
-137.0142035247742
 30
0.0
 10
106.8723741052264
 20
-137.0500325178208
 30
0.0
 10
106.8765082198087
 20
-137.0775932817028
 30
0.0
 10
106.8765082198087
 20
-137.0775932817028
 30
0.0
 10
106.681860324892
 20
-137.0775932817028
 30
0.0
 10
106.681860324892
 20
-137.0775932817028
 30
0.0
 10
106.688406006314
 20
-137.0393527218166
 30
0.0
 10
106.6904730636052
 20
-136.9973225568965
 30
0.0
 10
106.6904730636052
 20
-136.9907768754745
 30
0.0
 10
106.6904730636052
 20
-136.9253200612548
 30
0.0
 10
106.6691134715966
 20
-136.7265380517559
 30
0.0
 10
106.43243541176
 20
-136.7265380517559
 30
0.0
 10
106.2546684847211
 20
-136.7265380517559
 30
0.0
 10
106.1995469569571
 20
-136.8574516801954
 30
0.0
 10
106.1995469569571
 20
-136.9676947357234
 30
0.0
 10
106.1995469569571
 20
-137.231933559442
 30
0.0
 10
106.43243541176
 20
-137.2405462981552
 30
0.0
 10
106.5040933978532
 20
-137.2446804127374
 30
0.0
 10
106.5040933978532
 20
-137.2446804127374
 30
0.0
 10
106.5040933978532
 20
-137.4479410463672
 30
0.0
 10
106.5040933978532
 20
-137.4479410463672
 30
0.0
 10
106.3793809412871
 20
-137.4393283076541
 30
0.0
 10
106.0028320047493
 20
-137.4117675437721
 30
0.0
 10
106.0028320047493
 20
-136.9549478824279
 30
0.0
 10
106.0028320047493
 20
-136.7306721663382
 30
0.0
 10
106.129956028155
 20
-136.4895154823707
 30
0.0
 10
106.425889730338
 20
-136.4895154823707
 30
0.0
 10
106.61226939609
 20
-136.4895154823707
 30
0.0
 10
106.6946071781875
 20
-136.5846001177636
 30
0.0
 10
106.7559298778249
 20
-136.6841633772873
 30
0.0
 10
106.7834906417069
 20
-136.6228406776499
 30
0.0
 10
106.8637613665132
 20
-136.4409396360287
 30
0.0
 10
107.1410915530758
 20
-136.4409396360287
 30
0.0
 10
107.4793999297274
 20
-136.4409396360287
 30
0.0
 10
107.646487060762
 20
-136.6882974918696
 30
0.0
 10
107.646487060762
 20
-136.9652831688837
 30
0.0
  0
HATCH
  5
54
330
4F
100
AcDbEntity
  8
_U+30EC_U+30A4_U+30E4_U+30FC 1
 62
   179
420
  2234388
100
AcDbHatch
 10
0.0
 20
0.0
 30
0.0
210
0.0
220
0.0
230
1.0
  2
SOLID
 70
     1
 71
     0
 91
        1
 92
        1
 93
        1
 72
     4
 94
        3
 73
     0
 74
     1
 95
       62
 96
       58
 40
0.0
 40
0.0
 40
0.0
 40
0.0
 40
1.0
 40
1.0
 40
1.0
 40
2.0
 40
2.0
 40
2.0
 40
3.0
 40
3.0
 40
3.0
 40
4.0
 40
4.0
 40
4.0
 40
5.0
 40
5.0
 40
5.0
 40
6.0
 40
6.0
 40
6.0
 40
7.0
 40
7.0
 40
7.0
 40
8.0
 40
8.0
 40
8.0
 40
9.0
 40
9.0
 40
9.0
 40
10.0
 40
10.0
 40
10.0
 40
11.0
 40
11.0
 40
11.0
 40
12.0
 40
12.0
 40
12.0
 40
13.0
 40
13.0
 40
13.0
 40
14.0
 40
14.0
 40
14.0
 40
15.0
 40
15.0
 40
15.0
 40
16.0
 40
16.0
 40
16.0
 40
17.0
 40
17.0
 40
17.0
 40
18.0
 40
18.0
 40
18.0
 40
19.0
 40
19.0
 40
19.0
 40
19.0
 10
107.646487060762
 20
-136.9652831688837
 10
107.646487060762
 20
-137.0607123138251
 10
107.625471978302
 20
-137.2784423484929
 10
107.4394368220985
 20
-137.4034993146075
 10
107.3271267092793
 20
-137.4772243579918
 10
107.2279079593041
 20
-137.4817029821226
 10
107.143158610367
 20
-137.4858370967049
 10
107.143158610367
 20
-137.4858370967049
 10
107.143158610367
 20
-137.2656954951975
 10
107.143158610367
 20
-137.2656954951975
 10
107.2172281632999
 20
-137.2636284379063
 10
107.4518391658454
 20
-137.2532931514506
 10
107.4518391658454
 20
-136.9697617930145
 10
107.4518391658454
 20
-136.832302483153
 10
107.3822482370433
 20
-136.6796847531565
 10
107.1538384063713
 20
-136.6796847531565
 10
107.0373941789698
 20
-136.6796847531565
 10
106.9888183326278
 20
-136.7179253130427
 10
106.9571234541635
 20
-136.749620191507
 10
106.8830539012306
 20
-136.8236897444399
 10
106.8703070479352
 20
-136.9401339718414
 10
106.8703070479352
 20
-136.9949109900568
 10
106.8703070479352
 20
-137.0142035247742
 10
106.8723741052264
 20
-137.0500325178208
 10
106.8765082198087
 20
-137.0775932817028
 10
106.8765082198087
 20
-137.0775932817028
 10
106.681860324892
 20
-137.0775932817028
 10
106.681860324892
 20
-137.0775932817028
 10
106.688406006314
 20
-137.0393527218166
 10
106.6904730636052
 20
-136.9973225568965
 10
106.6904730636052
 20
-136.9907768754745
 10
106.6904730636052
 20
-136.9253200612548
 10
106.6691134715966
 20
-136.7265380517559
 10
106.43243541176
 20
-136.7265380517559
 10
106.2546684847211
 20
-136.7265380517559
 10
106.1995469569571
 20
-136.8574516801954
 10
106.1995469569571
 20
-136.9676947357234
 10
106.1995469569571
 20
-137.231933559442
 10
106.43243541176
 20
-137.2405462981552
 10
106.5040933978532
 20
-137.2446804127374
 10
106.5040933978532
 20
-137.2446804127374
 10
106.5040933978532
 20
-137.4479410463672
 10
106.5040933978532
 20
-137.4479410463672
 10
106.3793809412871
 20
-137.4393283076541
 10
106.0028320047493
 20
-137.4117675437721
 10
106.0028320047493
 20
-136.9549478824279
 10
106.0028320047493
 20
-136.7306721663382
 10
106.129956028155
 20
-136.4895154823707
 10
106.425889730338
 20
-136.4895154823707
 10
106.61226939609
 20
-136.4895154823707
 10
106.6946071781875
 20
-136.5846001177636
 10
106.7559298778249
 20
-136.6841633772873
 10
106.7834906417069
 20
-136.6228406776499
 10
106.8637613665132
 20
-136.4409396360287
 10
107.1410915530758
 20
-136.4409396360287
 10
107.4793999297274
 20
-136.4409396360287
 10
107.646487060762
 20
-136.6882974918696
 10
107.646487060762
 20
-136.9652831688837
 97
        0
 97
        0
 75
     2
 76
     1
 98
        0
  0
ENDBLK
  5
52
330
4F
100
AcDbEntity
  8
0
100
AcDbBlockEnd
  0
BLOCK
  5
73
330
71
100
AcDbEntity
  8
0
100
AcDbBlockBegin
  2
block 3
 70
     0
 10
0.0
 20
0.0
 30
0.0
  3
block 3
  1

  0
SPLINE
  5
75
330
71
100
AcDbEntity
  8
_U+30EC_U+30A4_U+30E4_U+30FC 1
370
     0
100
AcDbSpline
210
0.0
220
0.0
230
1.0
 70
    11
 71
     3
 72
    44
 73
    40
 74
     0
 42
0.0000000001
 43
0.0000000001
 12
1.0
 22
0.0
 32
0.0
 13
1.0
 23
0.0
 33
0.0
 40
0.0
 40
0.0
 40
0.0
 40
0.0
 40
1.0
 40
1.0
 40
1.0
 40
2.0
 40
2.0
 40
2.0
 40
3.0
 40
3.0
 40
3.0
 40
4.0
 40
4.0
 40
4.0
 40
5.0
 40
5.0
 40
5.0
 40
6.0
 40
6.0
 40
6.0
 40
7.0
 40
7.0
 40
7.0
 40
8.0
 40
8.0
 40
8.0
 40
9.0
 40
9.0
 40
9.0
 40
10.0
 40
10.0
 40
10.0
 40
11.0
 40
11.0
 40
11.0
 40
12.0
 40
12.0
 40
12.0
 40
13.0
 40
13.0
 40
13.0
 40
13.0
 10
91.30794946719038
 20
-141.278198206868
 30
0.0
 10
91.09021943252259
 20
-141.437017108738
 30
0.0
 10
90.99720185442084
 20
-141.5110866616708
 30
0.0
 10
90.94828149853029
 20
-141.6547471434058
 30
0.0
 10
90.94828149853029
 20
-141.6547471434058
 30
0.0
 10
91.72704533297102
 20
-141.6547471434058
 30
0.0
 10
91.72704533297102
 20
-141.6547471434058
 30
0.0
 10
91.72704533297102
 20
-141.6547471434058
 30
0.0
 10
91.72704533297102
 20
-141.8600748343267
 30
0.0
 10
91.72704533297102
 20
-141.8600748343267
 30
0.0
 10
91.72704533297102
 20
-141.8600748343267
 30
0.0
 10
90.6988565853982
 20
-141.8600748343267
 30
0.0
 10
90.6988565853982
 20
-141.8600748343267
 30
0.0
 10
90.73055146386251
 20
-141.5024739229577
 30
0.0
 10
90.79600827808225
 20
-141.4242702554425
 30
0.0
 10
91.18116995333318
 20
-141.1259249864199
 30
0.0
 10
91.43696829311298
 20
-140.927142976921
 30
0.0
 10
91.50242510733273
 20
-140.8592745958616
 30
0.0
 10
91.50242510733273
 20
-140.7218152860001
 30
0.0
 10
91.50242510733273
 20
-140.6033040013075
 30
0.0
 10
91.43076712123954
 20
-140.472390372868
 30
0.0
 10
91.2338799142575
 20
-140.472390372868
 30
0.0
 10
90.97377520512114
 20
-140.472390372868
 30
0.0
 10
90.96550697595654
 20
-140.7028672608312
 30
0.0
 10
90.96102835182572
 20
-140.8193114882327
 30
0.0
 10
90.96102835182572
 20
-140.8193114882327
 30
0.0
 10
90.73675263573595
 20
-140.8193114882327
 30
0.0
 10
90.73675263573595
 20
-140.8193114882327
 30
0.0
 10
90.74536537444908
 20
-140.692187464827
 30
0.0
 10
90.75604517045335
 20
-140.5802218615563
 30
0.0
 10
90.83631589525967
 20
-140.4617105768637
 30
0.0
 10
90.94621444123915
 20
-140.3008246177026
 30
0.0
 10
91.13259410699116
 20
-140.2670626819471
 30
0.0
 10
91.24869382484408
 20
-140.2670626819471
 30
0.0
 10
91.52585175663243
 20
-140.2670626819471
 30
0.0
 10
91.73324650484447
 20
-140.4510307808595
 30
0.0
 10
91.73324650484447
 20
-140.7238823432913
 30
0.0
 10
91.73324650484447
 20
-140.9526366835119
 30
0.0
 10
91.61680227744303
 20
-141.051855433487
 30
0.0
 10
91.30794946719038
 20
-141.278198206868
 30
0.0
  0
HATCH
  5
76
330
71
100
AcDbEntity
  8
_U+30EC_U+30A4_U+30E4_U+30FC 1
 62
   179
420
  2234388
100
AcDbHatch
 10
0.0
 20
0.0
 30
0.0
210
0.0
220
0.0
230
1.0
  2
SOLID
 70
     1
 71
     0
 91
        1
 92
        1
 93
        1
 72
     4
 94
        3
 73
     0
 74
     1
 95
       44
 96
       40
 40
0.0
 40
0.0
 40
0.0
 40
0.0
 40
1.0
 40
1.0
 40
1.0
 40
2.0
 40
2.0
 40
2.0
 40
3.0
 40
3.0
 40
3.0
 40
4.0
 40
4.0
 40
4.0
 40
5.0
 40
5.0
 40
5.0
 40
6.0
 40
6.0
 40
6.0
 40
7.0
 40
7.0
 40
7.0
 40
8.0
 40
8.0
 40
8.0
 40
9.0
 40
9.0
 40
9.0
 40
10.0
 40
10.0
 40
10.0
 40
11.0
 40
11.0
 40
11.0
 40
12.0
 40
12.0
 40
12.0
 40
13.0
 40
13.0
 40
13.0
 40
13.0
 10
91.30794946719038
 20
-141.278198206868
 10
91.09021943252259
 20
-141.437017108738
 10
90.99720185442084
 20
-141.5110866616708
 10
90.94828149853029
 20
-141.6547471434058
 10
90.94828149853029
 20
-141.6547471434058
 10
91.72704533297102
 20
-141.6547471434058
 10
91.72704533297102
 20
-141.6547471434058
 10
91.72704533297102
 20
-141.6547471434058
 10
91.72704533297102
 20
-141.8600748343267
 10
91.72704533297102
 20
-141.8600748343267
 10
91.72704533297102
 20
-141.8600748343267
 10
90.6988565853982
 20
-141.8600748343267
 10
90.6988565853982
 20
-141.8600748343267
 10
90.73055146386251
 20
-141.5024739229577
 10
90.79600827808225
 20
-141.4242702554425
 10
91.18116995333318
 20
-141.1259249864199
 10
91.43696829311298
 20
-140.927142976921
 10
91.50242510733273
 20
-140.8592745958616
 10
91.50242510733273
 20
-140.7218152860001
 10
91.50242510733273
 20
-140.6033040013075
 10
91.43076712123954
 20
-140.472390372868
 10
91.2338799142575
 20
-140.472390372868
 10
90.97377520512114
 20
-140.472390372868
 10
90.96550697595654
 20
-140.7028672608312
 10
90.96102835182572
 20
-140.8193114882327
 10
90.96102835182572
 20
-140.8193114882327
 10
90.73675263573595
 20
-140.8193114882327
 10
90.73675263573595
 20
-140.8193114882327
 10
90.74536537444908
 20
-140.692187464827
 10
90.75604517045335
 20
-140.5802218615563
 10
90.83631589525967
 20
-140.4617105768637
 10
90.94621444123915
 20
-140.3008246177026
 10
91.13259410699116
 20
-140.2670626819471
 10
91.24869382484408
 20
-140.2670626819471
 10
91.52585175663243
 20
-140.2670626819471
 10
91.73324650484447
 20
-140.4510307808595
 10
91.73324650484447
 20
-140.7238823432913
 10
91.73324650484447
 20
-140.9526366835119
 10
91.61680227744303
 20
-141.051855433487
 10
91.30794946719038
 20
-141.278198206868
 97
        0
 97
        0
 75
     2
 76
     1
 98
        0
  0
SPLINE
  5
77
330
71
100
AcDbEntity
  8
_U+30EC_U+30A4_U+30E4_U+30FC 1
370
     0
100
AcDbSpline
210
0.0
220
0.0
230
1.0
 70
    11
 71
     3
 72
    53
 73
    49
 74
     0
 42
0.0000000001
 43
0.0000000001
 12
1.0
 22
0.0
 32
0.0
 13
1.0
 23
0.0
 33
0.0
 40
0.0
 40
0.0
 40
0.0
 40
0.0
 40
1.0
 40
1.0
 40
1.0
 40
2.0
 40
2.0
 40
2.0
 40
3.0
 40
3.0
 40
3.0
 40
4.0
 40
4.0
 40
4.0
 40
5.0
 40
5.0
 40
5.0
 40
6.0
 40
6.0
 40
6.0
 40
7.0
 40
7.0
 40
7.0
 40
8.0
 40
8.0
 40
8.0
 40
9.0
 40
9.0
 40
9.0
 40
10.0
 40
10.0
 40
10.0
 40
11.0
 40
11.0
 40
11.0
 40
12.0
 40
12.0
 40
12.0
 40
13.0
 40
13.0
 40
13.0
 40
14.0
 40
14.0
 40
14.0
 40
15.0
 40
15.0
 40
15.0
 40
16.0
 40
16.0
 40
16.0
 40
16.0
 10
92.37265622690684
 20
-141.9107177379598
 30
0.0
 10
92.2947970689402
 20
-141.9107177379598
 30
0.0
 10
92.1928222425768
 20
-141.8938367700821
 30
0.0
 10
92.09153643531046
 20
-141.8304470131535
 30
0.0
 10
91.91790362285386
 20
-141.720548467174
 30
0.0
 10
91.89654403084532
 20
-141.589290329186
 30
0.0
 10
91.87794051522496
 20
-141.4814588404977
 30
0.0
 10
91.87794051522496
 20
-141.4814588404977
 30
0.0
 10
92.09980466447506
 20
-141.4814588404977
 30
0.0
 10
92.09980466447506
 20
-141.4814588404977
 30
0.0
 10
92.15492619223905
 20
-141.6802408499966
 30
0.0
 10
92.28170570609625
 20
-141.7098686711698
 30
0.0
 10
92.37472328419798
 20
-141.7098686711698
 30
0.0
 10
92.51459416089914
 20
-141.7098686711698
 30
0.0
 10
92.66686738134717
 20
-141.610305411646
 30
0.0
 10
92.66686738134717
 20
-141.3777614663917
 30
0.0
 10
92.66686738134717
 20
-141.1217908718376
 30
0.0
 10
92.48703339701713
 20
-141.051855433487
 30
0.0
 10
92.36645505503338
 20
-141.051855433487
 30
0.0
 10
92.33476017656909
 20
-141.051855433487
 30
0.0
 10
92.1928222425768
 20
-141.051855433487
 30
0.0
 10
92.10393877905736
 20
-141.1810465141839
 30
0.0
 10
92.10393877905736
 20
-141.1810465141839
 30
0.0
 10
91.92823890930961
 20
-141.1620984890151
 30
0.0
 10
91.92823890930961
 20
-141.1620984890151
 30
0.0
 10
91.92823890930961
 20
-141.1620984890151
 30
0.0
 10
92.04881725129336
 20
-140.3156385282892
 30
0.0
 10
92.04881725129336
 20
-140.3156385282892
 30
0.0
 10
92.04881725129336
 20
-140.3156385282892
 30
0.0
 10
92.82740883095983
 20
-140.3156385282892
 30
0.0
 10
92.82740883095983
 20
-140.3156385282892
 30
0.0
 10
92.82740883095983
 20
-140.3156385282892
 30
0.0
 10
92.82740883095983
 20
-140.5102864232058
 30
0.0
 10
92.82740883095983
 20
-140.5102864232058
 30
0.0
 10
92.82740883095983
 20
-140.5102864232058
 30
0.0
 10
92.2121147772942
 20
-140.5102864232058
 30
0.0
 10
92.2121147772942
 20
-140.5102864232058
 30
0.0
 10
92.2121147772942
 20
-140.5102864232058
 30
0.0
 10
92.14665796307445
 20
-140.9333441487944
 30
0.0
 10
92.14665796307445
 20
-140.9333441487944
 30
0.0
 10
92.2079806627119
 20
-140.899582213039
 30
0.0
 10
92.28997393526085
 20
-140.8592745958616
 30
0.0
 10
92.40848521995343
 20
-140.8592745958616
 30
0.0
 10
92.66273326676487
 20
-140.8592745958616
 30
0.0
 10
92.89975583615006
 20
-141.0456542616136
 30
0.0
 10
92.89975583615006
 20
-141.3588134412228
 30
0.0
 10
92.89975583615006
 20
-141.6761067354143
 30
0.0
 10
92.67513561051177
 20
-141.9107177379598
 30
0.0
 10
92.37265622690684
 20
-141.9107177379598
 30
0.0
  0
HATCH
  5
78
330
71
100
AcDbEntity
  8
_U+30EC_U+30A4_U+30E4_U+30FC 1
 62
   179
420
  2234388
100
AcDbHatch
 10
0.0
 20
0.0
 30
0.0
210
0.0
220
0.0
230
1.0
  2
SOLID
 70
     1
 71
     0
 91
        1
 92
        1
 93
        1
 72
     4
 94
        3
 73
     0
 74
     1
 95
       53
 96
       49
 40
0.0
 40
0.0
 40
0.0
 40
0.0
 40
1.0
 40
1.0
 40
1.0
 40
2.0
 40
2.0
 40
2.0
 40
3.0
 40
3.0
 40
3.0
 40
4.0
 40
4.0
 40
4.0
 40
5.0
 40
5.0
 40
5.0
 40
6.0
 40
6.0
 40
6.0
 40
7.0
 40
7.0
 40
7.0
 40
8.0
 40
8.0
 40
8.0
 40
9.0
 40
9.0
 40
9.0
 40
10.0
 40
10.0
 40
10.0
 40
11.0
 40
11.0
 40
11.0
 40
12.0
 40
12.0
 40
12.0
 40
13.0
 40
13.0
 40
13.0
 40
14.0
 40
14.0
 40
14.0
 40
15.0
 40
15.0
 40
15.0
 40
16.0
 40
16.0
 40
16.0
 40
16.0
 10
92.37265622690684
 20
-141.9107177379598
 10
92.2947970689402
 20
-141.9107177379598
 10
92.1928222425768
 20
-141.8938367700821
 10
92.09153643531046
 20
-141.8304470131535
 10
91.91790362285386
 20
-141.720548467174
 10
91.89654403084532
 20
-141.589290329186
 10
91.87794051522496
 20
-141.4814588404977
 10
91.87794051522496
 20
-141.4814588404977
 10
92.09980466447506
 20
-141.4814588404977
 10
92.09980466447506
 20
-141.4814588404977
 10
92.15492619223905
 20
-141.6802408499966
 10
92.28170570609625
 20
-141.7098686711698
 10
92.37472328419798
 20
-141.7098686711698
 10
92.51459416089914
 20
-141.7098686711698
 10
92.66686738134717
 20
-141.610305411646
 10
92.66686738134717
 20
-141.3777614663917
 10
92.66686738134717
 20
-141.1217908718376
 10
92.48703339701713
 20
-141.051855433487
 10
92.36645505503338
 20
-141.051855433487
 10
92.33476017656909
 20
-141.051855433487
 10
92.1928222425768
 20
-141.051855433487
 10
92.10393877905736
 20
-141.1810465141839
 10
92.10393877905736
 20
-141.1810465141839
 10
91.92823890930961
 20
-141.1620984890151
 10
91.92823890930961
 20
-141.1620984890151
 10
91.92823890930961
 20
-141.1620984890151
 10
92.04881725129336
 20
-140.3156385282892
 10
92.04881725129336
 20
-140.3156385282892
 10
92.04881725129336
 20
-140.3156385282892
 10
92.82740883095983
 20
-140.3156385282892
 10
92.82740883095983
 20
-140.3156385282892
 10
92.82740883095983
 20
-140.3156385282892
 10
92.82740883095983
 20
-140.5102864232058
 10
92.82740883095983
 20
-140.5102864232058
 10
92.82740883095983
 20
-140.5102864232058
 10
92.2121147772942
 20
-140.5102864232058
 10
92.2121147772942
 20
-140.5102864232058
 10
92.2121147772942
 20
-140.5102864232058
 10
92.14665796307445
 20
-140.9333441487944
 10
92.14665796307445
 20
-140.9333441487944
 10
92.2079806627119
 20
-140.899582213039
 10
92.28997393526085
 20
-140.8592745958616
 10
92.40848521995343
 20
-140.8592745958616
 10
92.66273326676487
 20
-140.8592745958616
 10
92.89975583615006
 20
-141.0456542616136
 10
92.89975583615006
 20
-141.3588134412228
 10
92.89975583615006
 20
-141.6761067354143
 10
92.67513561051177
 20
-141.9107177379598
 10
92.37265622690684
 20
-141.9107177379598
 97
        0
 97
        0
 75
     2
 76
     1
 98
        0
  0
ENDBLK
  5
74
330
71
100
AcDbEntity
  8
0
100
AcDbBlockEnd
  0
BLOCK
  5
7B
330
79
100
AcDbEntity
  8
0
100
AcDbBlockBegin
  2
block 4
 70
     0
 10
0.0
 20
0.0
 30
0.0
  3
block 4
  1

  0
SPLINE
  5
7D
330
79
100
AcDbEntity
  8
_U+30EC_U+30A4_U+30E4_U+30FC 1
370
     0
100
AcDbSpline
210
0.0
220
0.0
230
1.0
 70
    11
 71
     3
 72
    62
 73
    58
 74
     0
 42
0.0000000001
 43
0.0000000001
 12
1.0
 22
0.0
 32
0.0
 13
1.0
 23
0.0
 33
0.0
 40
0.0
 40
0.0
 40
0.0
 40
0.0
 40
1.0
 40
1.0
 40
1.0
 40
2.0
 40
2.0
 40
2.0
 40
3.0
 40
3.0
 40
3.0
 40
4.0
 40
4.0
 40
4.0
 40
5.0
 40
5.0
 40
5.0
 40
6.0
 40
6.0
 40
6.0
 40
7.0
 40
7.0
 40
7.0
 40
8.0
 40
8.0
 40
8.0
 40
9.0
 40
9.0
 40
9.0
 40
10.0
 40
10.0
 40
10.0
 40
11.0
 40
11.0
 40
11.0
 40
12.0
 40
12.0
 40
12.0
 40
13.0
 40
13.0
 40
13.0
 40
14.0
 40
14.0
 40
14.0
 40
15.0
 40
15.0
 40
15.0
 40
16.0
 40
16.0
 40
16.0
 40
17.0
 40
17.0
 40
17.0
 40
18.0
 40
18.0
 40
18.0
 40
19.0
 40
19.0
 40
19.0
 40
19.0
 10
73.54762096685616
 20
-142.9690510710286
 30
0.0
 10
73.45219182191474
 20
-142.9690510710286
 30
0.0
 10
73.23446178724694
 20
-142.9480359885686
 30
0.0
 10
73.10940482113237
 20
-142.7620008323651
 30
0.0
 10
73.03567977774803
 20
-142.6496907195459
 30
0.0
 10
73.0312011536172
 20
-142.5504719695707
 30
0.0
 10
73.0270670390349
 20
-142.4657226206336
 30
0.0
 10
73.0270670390349
 20
-142.4657226206336
 30
0.0
 10
73.24720864054237
 20
-142.4657226206336
 30
0.0
 10
73.24720864054237
 20
-142.4657226206336
 30
0.0
 10
73.24927569783351
 20
-142.5397921735664
 30
0.0
 10
73.25961098428927
 20
-142.774403176112
 30
0.0
 10
73.54314234272533
 20
-142.774403176112
 30
0.0
 10
73.6806016525868
 20
-142.774403176112
 30
0.0
 10
73.83321938258337
 20
-142.7048122473099
 30
0.0
 10
73.83321938258337
 20
-142.4764024166379
 30
0.0
 10
73.83321938258337
 20
-142.3599581892364
 30
0.0
 10
73.79497882269709
 20
-142.3113823428944
 30
0.0
 10
73.7632839442328
 20
-142.2796874644301
 30
0.0
 10
73.68921439129993
 20
-142.2056179114972
 30
0.0
 10
73.57277016389848
 20
-142.1928710582018
 30
0.0
 10
73.51799314568301
 20
-142.1928710582018
 30
0.0
 10
73.4987006109656
 20
-142.1928710582018
 30
0.0
 10
73.462871617919
 20
-142.1949381154929
 30
0.0
 10
73.43531085403701
 20
-142.1990722300752
 30
0.0
 10
73.43531085403701
 20
-142.1990722300752
 30
0.0
 10
73.43531085403701
 20
-142.0044243351586
 30
0.0
 10
73.43531085403701
 20
-142.0044243351586
 30
0.0
 10
73.47355141392329
 20
-142.0109700165806
 30
0.0
 10
73.51558157884332
 20
-142.0130370738717
 30
0.0
 10
73.52212726026531
 20
-142.0130370738717
 30
0.0
 10
73.58758407448505
 20
-142.0130370738717
 30
0.0
 10
73.78636608398396
 20
-141.9916774818632
 30
0.0
 10
73.78636608398396
 20
-141.7549994220265
 30
0.0
 10
73.78636608398396
 20
-141.5772324949876
 30
0.0
 10
73.65545245554448
 20
-141.5221109672237
 30
0.0
 10
73.54520940001647
 20
-141.5221109672237
 30
0.0
 10
73.28097057629782
 20
-141.5221109672237
 30
0.0
 10
73.27235783758469
 20
-141.7549994220265
 30
0.0
 10
73.2682237230024
 20
-141.8266574081197
 30
0.0
 10
73.2682237230024
 20
-141.8266574081197
 30
0.0
 10
73.06496308937265
 20
-141.8266574081197
 30
0.0
 10
73.06496308937265
 20
-141.8266574081197
 30
0.0
 10
73.07357582808578
 20
-141.7019449515537
 30
0.0
 10
73.10113659196777
 20
-141.3253960150159
 30
0.0
 10
73.5579562533119
 20
-141.3253960150159
 30
0.0
 10
73.78223196940166
 20
-141.3253960150159
 30
0.0
 10
74.02338865336915
 20
-141.4525200384216
 30
0.0
 10
74.02338865336915
 20
-141.7484537406046
 30
0.0
 10
74.02338865336915
 20
-141.9348334063566
 30
0.0
 10
73.92830401797626
 20
-142.0171711884541
 30
0.0
 10
73.82874075845254
 20
-142.0784938880915
 30
0.0
 10
73.89006345808998
 20
-142.1060546519735
 30
0.0
 10
74.07196449971119
 20
-142.1863253767798
 30
0.0
 10
74.07196449971119
 20
-142.4636555633424
 30
0.0
 10
74.07196449971119
 20
-142.801963939994
 30
0.0
 10
73.82460664387024
 20
-142.9690510710286
 30
0.0
 10
73.54762096685616
 20
-142.9690510710286
 30
0.0
  0
HATCH
  5
7E
330
79
100
AcDbEntity
  8
_U+30EC_U+30A4_U+30E4_U+30FC 1
 62
   179
420
  2234388
100
AcDbHatch
 10
0.0
 20
0.0
 30
0.0
210
0.0
220
0.0
230
1.0
  2
SOLID
 70
     1
 71
     0
 91
        1
 92
        1
 93
        1
 72
     4
 94
        3
 73
     0
 74
     1
 95
       62
 96
       58
 40
0.0
 40
0.0
 40
0.0
 40
0.0
 40
1.0
 40
1.0
 40
1.0
 40
2.0
 40
2.0
 40
2.0
 40
3.0
 40
3.0
 40
3.0
 40
4.0
 40
4.0
 40
4.0
 40
5.0
 40
5.0
 40
5.0
 40
6.0
 40
6.0
 40
6.0
 40
7.0
 40
7.0
 40
7.0
 40
8.0
 40
8.0
 40
8.0
 40
9.0
 40
9.0
 40
9.0
 40
10.0
 40
10.0
 40
10.0
 40
11.0
 40
11.0
 40
11.0
 40
12.0
 40
12.0
 40
12.0
 40
13.0
 40
13.0
 40
13.0
 40
14.0
 40
14.0
 40
14.0
 40
15.0
 40
15.0
 40
15.0
 40
16.0
 40
16.0
 40
16.0
 40
17.0
 40
17.0
 40
17.0
 40
18.0
 40
18.0
 40
18.0
 40
19.0
 40
19.0
 40
19.0
 40
19.0
 10
73.54762096685616
 20
-142.9690510710286
 10
73.45219182191474
 20
-142.9690510710286
 10
73.23446178724694
 20
-142.9480359885686
 10
73.10940482113237
 20
-142.7620008323651
 10
73.03567977774803
 20
-142.6496907195459
 10
73.0312011536172
 20
-142.5504719695707
 10
73.0270670390349
 20
-142.4657226206336
 10
73.0270670390349
 20
-142.4657226206336
 10
73.24720864054237
 20
-142.4657226206336
 10
73.24720864054237
 20
-142.4657226206336
 10
73.24927569783351
 20
-142.5397921735664
 10
73.25961098428927
 20
-142.774403176112
 10
73.54314234272533
 20
-142.774403176112
 10
73.6806016525868
 20
-142.774403176112
 10
73.83321938258337
 20
-142.7048122473099
 10
73.83321938258337
 20
-142.4764024166379
 10
73.83321938258337
 20
-142.3599581892364
 10
73.79497882269709
 20
-142.3113823428944
 10
73.7632839442328
 20
-142.2796874644301
 10
73.68921439129993
 20
-142.2056179114972
 10
73.57277016389848
 20
-142.1928710582018
 10
73.51799314568301
 20
-142.1928710582018
 10
73.4987006109656
 20
-142.1928710582018
 10
73.462871617919
 20
-142.1949381154929
 10
73.43531085403701
 20
-142.1990722300752
 10
73.43531085403701
 20
-142.1990722300752
 10
73.43531085403701
 20
-142.0044243351586
 10
73.43531085403701
 20
-142.0044243351586
 10
73.47355141392329
 20
-142.0109700165806
 10
73.51558157884332
 20
-142.0130370738717
 10
73.52212726026531
 20
-142.0130370738717
 10
73.58758407448505
 20
-142.0130370738717
 10
73.78636608398396
 20
-141.9916774818632
 10
73.78636608398396
 20
-141.7549994220265
 10
73.78636608398396
 20
-141.5772324949876
 10
73.65545245554448
 20
-141.5221109672237
 10
73.54520940001647
 20
-141.5221109672237
 10
73.28097057629782
 20
-141.5221109672237
 10
73.27235783758469
 20
-141.7549994220265
 10
73.2682237230024
 20
-141.8266574081197
 10
73.2682237230024
 20
-141.8266574081197
 10
73.06496308937265
 20
-141.8266574081197
 10
73.06496308937265
 20
-141.8266574081197
 10
73.07357582808578
 20
-141.7019449515537
 10
73.10113659196777
 20
-141.3253960150159
 10
73.5579562533119
 20
-141.3253960150159
 10
73.78223196940166
 20
-141.3253960150159
 10
74.02338865336915
 20
-141.4525200384216
 10
74.02338865336915
 20
-141.7484537406046
 10
74.02338865336915
 20
-141.9348334063566
 10
73.92830401797626
 20
-142.0171711884541
 10
73.82874075845254
 20
-142.0784938880915
 10
73.89006345808998
 20
-142.1060546519735
 10
74.07196449971119
 20
-142.1863253767798
 10
74.07196449971119
 20
-142.4636555633424
 10
74.07196449971119
 20
-142.801963939994
 10
73.82460664387024
 20
-142.9690510710286
 10
73.54762096685616
 20
-142.9690510710286
 97
        0
 97
        0
 75
     2
 76
     1
 98
        0
  0
SPLINE
  5
7F
330
79
100
AcDbEntity
  8
_U+30EC_U+30A4_U+30E4_U+30FC 1
370
     0
100
AcDbSpline
210
0.0
220
0.0
230
1.0
 70
    11
 71
     3
 72
    44
 73
    40
 74
     0
 42
0.0000000001
 43
0.0000000001
 12
1.0
 22
0.0
 32
0.0
 13
1.0
 23
0.0
 33
0.0
 40
0.0
 40
0.0
 40
0.0
 40
0.0
 40
1.0
 40
1.0
 40
1.0
 40
2.0
 40
2.0
 40
2.0
 40
3.0
 40
3.0
 40
3.0
 40
4.0
 40
4.0
 40
4.0
 40
5.0
 40
5.0
 40
5.0
 40
6.0
 40
6.0
 40
6.0
 40
7.0
 40
7.0
 40
7.0
 40
8.0
 40
8.0
 40
8.0
 40
9.0
 40
9.0
 40
9.0
 40
10.0
 40
10.0
 40
10.0
 40
11.0
 40
11.0
 40
11.0
 40
12.0
 40
12.0
 40
12.0
 40
13.0
 40
13.0
 40
13.0
 40
13.0
 10
75.24674206018138
 20
-142.9184081673954
 30
0.0
 10
75.2236599204302
 20
-142.8739664356357
 30
0.0
 10
75.20230032842166
 20
-142.8212564747114
 30
0.0
 10
75.2002332711305
 20
-142.5904350771996
 30
0.0
 10
75.1960991565482
 20
-142.347211335941
 30
0.0
 10
75.1368435142019
 20
-142.2772758975904
 30
0.0
 10
74.95907658716301
 20
-142.2772758975904
 30
0.0
 10
74.95907658716301
 20
-142.2772758975904
 30
0.0
 10
74.5508327721609
 20
-142.2772758975904
 30
0.0
 10
74.5508327721609
 20
-142.2772758975904
 30
0.0
 10
74.5508327721609
 20
-142.2772758975904
 30
0.0
 10
74.5508327721609
 20
-142.9184081673954
 30
0.0
 10
74.5508327721609
 20
-142.9184081673954
 30
0.0
 10
74.5508327721609
 20
-142.9184081673954
 30
0.0
 10
74.31587726006687
 20
-142.9184081673954
 30
0.0
 10
74.31587726006687
 20
-142.9184081673954
 30
0.0
 10
74.31587726006687
 20
-142.9184081673954
 30
0.0
 10
74.31587726006687
 20
-141.3739718613579
 30
0.0
 10
74.31587726006687
 20
-141.3739718613579
 30
0.0
 10
74.31587726006687
 20
-141.3739718613579
 30
0.0
 10
74.9907714656273
 20
-141.3739718613579
 30
0.0
 10
74.9907714656273
 20
-141.3739718613579
 30
0.0
 10
75.29772947336308
 20
-141.3739718613579
 30
0.0
 10
75.46481660439768
 20
-141.5455376165233
 30
0.0
 10
75.46481660439768
 20
-141.8015082110774
 30
0.0
 10
75.46481660439768
 20
-141.8521511147106
 30
0.0
 10
75.45620386568456
 20
-141.9348334063566
 30
0.0
 10
75.41176213392484
 20
-142.0151041311629
 30
0.0
 10
75.35250649157854
 20
-142.1188015052689
 30
0.0
 10
75.2870496773588
 20
-142.1377495304378
 30
0.0
 10
75.22572697772135
 20
-142.1546304983155
 30
0.0
 10
75.36318628758282
 20
-142.1970051727841
 30
0.0
 10
75.43071015909372
 20
-142.2455810191261
 30
0.0
 10
75.43518878322455
 20
-142.5608072560265
 30
0.0
 10
75.43932289780685
 20
-142.8315917611671
 30
0.0
 10
75.47515189085344
 20
-142.8632866396314
 30
0.0
 10
75.54302027191287
 20
-142.9184081673954
 30
0.0
 10
75.54302027191287
 20
-142.9184081673954
 30
0.0
 10
75.24674206018138
 20
-142.9184081673954
 30
0.0
 10
75.24674206018138
 20
-142.9184081673954
 30
0.0
  0
SPLINE
  5
80
330
79
100
AcDbEntity
  8
_U+30EC_U+30A4_U+30E4_U+30FC 1
370
     0
100
AcDbSpline
210
0.0
220
0.0
230
1.0
 70
    11
 71
     3
 72
    20
 73
    16
 74
     0
 42
0.0000000001
 43
0.0000000001
 12
1.0
 22
0.0
 32
0.0
 13
1.0
 23
0.0
 33
0.0
 40
0.0
 40
0.0
 40
0.0
 40
0.0
 40
1.0
 40
1.0
 40
1.0
 40
2.0
 40
2.0
 40
2.0
 40
3.0
 40
3.0
 40
3.0
 40
4.0
 40
4.0
 40
4.0
 40
5.0
 40
5.0
 40
5.0
 40
5.0
 10
74.99525008975813
 20
-141.5855007241522
 30
0.0
 10
74.99525008975813
 20
-141.5855007241522
 30
0.0
 10
74.5508327721609
 20
-141.5855007241522
 30
0.0
 10
74.5508327721609
 20
-141.5855007241522
 30
0.0
 10
74.5508327721609
 20
-141.5855007241522
 30
0.0
 10
74.5508327721609
 20
-142.0657470347961
 30
0.0
 10
74.5508327721609
 20
-142.0657470347961
 30
0.0
 10
74.5508327721609
 20
-142.0657470347961
 30
0.0
 10
74.99283852291846
 20
-142.0657470347961
 30
0.0
 10
74.99283852291846
 20
-142.0657470347961
 30
0.0
 10
75.09240178244218
 20
-142.0657470347961
 30
0.0
 10
75.2277940350125
 20
-141.989610424572
 30
0.0
 10
75.2277940350125
 20
-141.8183891789551
 30
0.0
 10
75.2277940350125
 20
-141.74018551144
 30
0.0
 10
75.19403209925706
 20
-141.5855007241522
 30
0.0
 10
74.99525008975813
 20
-141.5855007241522
 30
0.0
  0
HATCH
  5
81
330
79
100
AcDbEntity
  8
_U+30EC_U+30A4_U+30E4_U+30FC 1
 62
   179
420
  2234388
100
AcDbHatch
 10
0.0
 20
0.0
 30
0.0
210
0.0
220
0.0
230
1.0
  2
SOLID
 70
     1
 71
     0
 91
        2
 92
        1
 93
        1
 72
     4
 94
        3
 73
     0
 74
     1
 95
       44
 96
       40
 40
0.0
 40
0.0
 40
0.0
 40
0.0
 40
1.0
 40
1.0
 40
1.0
 40
2.0
 40
2.0
 40
2.0
 40
3.0
 40
3.0
 40
3.0
 40
4.0
 40
4.0
 40
4.0
 40
5.0
 40
5.0
 40
5.0
 40
6.0
 40
6.0
 40
6.0
 40
7.0
 40
7.0
 40
7.0
 40
8.0
 40
8.0
 40
8.0
 40
9.0
 40
9.0
 40
9.0
 40
10.0
 40
10.0
 40
10.0
 40
11.0
 40
11.0
 40
11.0
 40
12.0
 40
12.0
 40
12.0
 40
13.0
 40
13.0
 40
13.0
 40
13.0
 10
75.24674206018138
 20
-142.9184081673954
 10
75.2236599204302
 20
-142.8739664356357
 10
75.20230032842166
 20
-142.8212564747114
 10
75.2002332711305
 20
-142.5904350771996
 10
75.1960991565482
 20
-142.347211335941
 10
75.1368435142019
 20
-142.2772758975904
 10
74.95907658716301
 20
-142.2772758975904
 10
74.95907658716301
 20
-142.2772758975904
 10
74.5508327721609
 20
-142.2772758975904
 10
74.5508327721609
 20
-142.2772758975904
 10
74.5508327721609
 20
-142.2772758975904
 10
74.5508327721609
 20
-142.9184081673954
 10
74.5508327721609
 20
-142.9184081673954
 10
74.5508327721609
 20
-142.9184081673954
 10
74.31587726006687
 20
-142.9184081673954
 10
74.31587726006687
 20
-142.9184081673954
 10
74.31587726006687
 20
-142.9184081673954
 10
74.31587726006687
 20
-141.3739718613579
 10
74.31587726006687
 20
-141.3739718613579
 10
74.31587726006687
 20
-141.3739718613579
 10
74.9907714656273
 20
-141.3739718613579
 10
74.9907714656273
 20
-141.3739718613579
 10
75.29772947336308
 20
-141.3739718613579
 10
75.46481660439768
 20
-141.5455376165233
 10
75.46481660439768
 20
-141.8015082110774
 10
75.46481660439768
 20
-141.8521511147106
 10
75.45620386568456
 20
-141.9348334063566
 10
75.41176213392484
 20
-142.0151041311629
 10
75.35250649157854
 20
-142.1188015052689
 10
75.2870496773588
 20
-142.1377495304378
 10
75.22572697772135
 20
-142.1546304983155
 10
75.36318628758282
 20
-142.1970051727841
 10
75.43071015909372
 20
-142.2455810191261
 10
75.43518878322455
 20
-142.5608072560265
 10
75.43932289780685
 20
-142.8315917611671
 10
75.47515189085344
 20
-142.8632866396314
 10
75.54302027191287
 20
-142.9184081673954
 10
75.54302027191287
 20
-142.9184081673954
 10
75.24674206018138
 20
-142.9184081673954
 10
75.24674206018138
 20
-142.9184081673954
 97
        0
 97
        0
 92
        1
 93
        1
 72
     4
 94
        3
 73
     0
 74
     1
 95
       20
 96
       16
 40
0.0
 40
0.0
 40
0.0
 40
0.0
 40
1.0
 40
1.0
 40
1.0
 40
2.0
 40
2.0
 40
2.0
 40
3.0
 40
3.0
 40
3.0
 40
4.0
 40
4.0
 40
4.0
 40
5.0
 40
5.0
 40
5.0
 40
5.0
 10
74.99525008975813
 20
-141.5855007241522
 10
74.99525008975813
 20
-141.5855007241522
 10
74.5508327721609
 20
-141.5855007241522
 10
74.5508327721609
 20
-141.5855007241522
 10
74.5508327721609
 20
-141.5855007241522
 10
74.5508327721609
 20
-142.0657470347961
 10
74.5508327721609
 20
-142.0657470347961
 10
74.5508327721609
 20
-142.0657470347961
 10
74.99283852291846
 20
-142.0657470347961
 10
74.99283852291846
 20
-142.0657470347961
 10
75.09240178244218
 20
-142.0657470347961
 10
75.2277940350125
 20
-141.989610424572
 10
75.2277940350125
 20
-141.8183891789551
 10
75.2277940350125
 20
-141.74018551144
 10
75.19403209925706
 20
-141.5855007241522
 10
74.99525008975813
 20
-141.5855007241522
 97
        0
 97
        0
 75
     2
 76
     1
 98
        0
  0
ENDBLK
  5
7C
330
79
100
AcDbEntity
  8
0
100
AcDbBlockEnd
  0
BLOCK
  5
84
330
82
100
AcDbEntity
  8
0
100
AcDbBlockBegin
  2
block 5
 70
     0
 10
0.0
 20
0.0
 30
0.0
  3
block 5
  1

  0
SPLINE
  5
86
330
82
100
AcDbEntity
  8
_U+30EC_U+30A4_U+30E4_U+30FC 1
370
     0
100
AcDbSpline
210
0.0
220
0.0
230
1.0
 70
    11
 71
     3
 72
    44
 73
    40
 74
     0
 42
0.0000000001
 43
0.0000000001
 12
1.0
 22
0.0
 32
0.0
 13
1.0
 23
0.0
 33
0.0
 40
0.0
 40
0.0
 40
0.0
 40
0.0
 40
1.0
 40
1.0
 40
1.0
 40
2.0
 40
2.0
 40
2.0
 40
3.0
 40
3.0
 40
3.0
 40
4.0
 40
4.0
 40
4.0
 40
5.0
 40
5.0
 40
5.0
 40
6.0
 40
6.0
 40
6.0
 40
7.0
 40
7.0
 40
7.0
 40
8.0
 40
8.0
 40
8.0
 40
9.0
 40
9.0
 40
9.0
 40
10.0
 40
10.0
 40
10.0
 40
11.0
 40
11.0
 40
11.0
 40
12.0
 40
12.0
 40
12.0
 40
13.0
 40
13.0
 40
13.0
 40
13.0
 10
74.05267196499378
 20
-126.5211316958003
 30
0.0
 10
74.2114908668638
 20
-126.7388617304681
 30
0.0
 10
74.28556041979667
 20
-126.8318793085698
 30
0.0
 10
74.4292209015316
 20
-126.8807996644604
 30
0.0
 10
74.4292209015316
 20
-126.8807996644604
 30
0.0
 10
74.4292209015316
 20
-126.1022080847939
 30
0.0
 10
74.4292209015316
 20
-126.1022080847939
 30
0.0
 10
74.4292209015316
 20
-126.1022080847939
 30
0.0
 10
74.63454859245248
 20
-126.1022080847939
 30
0.0
 10
74.63454859245248
 20
-126.1022080847939
 30
0.0
 10
74.63454859245248
 20
-126.1022080847939
 30
0.0
 10
74.63454859245248
 20
-127.1302245775924
 30
0.0
 10
74.63454859245248
 20
-127.1302245775924
 30
0.0
 10
74.27694768108354
 20
-127.0985296991282
 30
0.0
 10
74.19874401356837
 20
-127.0330728849084
 30
0.0
 10
73.90039874454574
 20
-126.6479112096575
 30
0.0
 10
73.70161673504683
 20
-126.3919406151034
 30
0.0
 10
73.6337483539874
 20
-126.3264838008837
 30
0.0
 10
73.49628904412593
 20
-126.3264838008837
 30
0.0
 10
73.37777775943334
 20
-126.3264838008837
 30
0.0
 10
73.24686413099384
 20
-126.3984862965254
 30
0.0
 10
73.24686413099384
 20
-126.5952012487331
 30
0.0
 10
73.24686413099384
 20
-126.8553059578695
 30
0.0
 10
73.47734101895706
 20
-126.8635741870341
 30
0.0
 10
73.59378524635851
 20
-126.8680528111649
 30
0.0
 10
73.59378524635851
 20
-126.8680528111649
 30
0.0
 10
73.59378524635851
 20
-127.0923285272547
 30
0.0
 10
73.59378524635851
 20
-127.0923285272547
 30
0.0
 10
73.46666122295278
 20
-127.0837157885416
 30
0.0
 10
73.35469561968216
 20
-127.0730359925373
 30
0.0
 10
73.23618433498957
 20
-126.992765267731
 30
0.0
 10
73.0752983758284
 20
-126.8828667217515
 30
0.0
 10
73.04153644007295
 20
-126.6964870559995
 30
0.0
 10
73.04153644007295
 20
-126.5803873381466
 30
0.0
 10
73.04153644007295
 20
-126.303057151584
 30
0.0
 10
73.22550453898529
 20
-126.0956624033719
 30
0.0
 10
73.49835610141709
 20
-126.0956624033719
 30
0.0
 10
73.72711044163768
 20
-126.0956624033719
 30
0.0
 10
73.82632919161287
 20
-126.2121066307734
 30
0.0
 10
74.05267196499378
 20
-126.5211316958003
 30
0.0
  0
HATCH
  5
87
330
82
100
AcDbEntity
  8
_U+30EC_U+30A4_U+30E4_U+30FC 1
 62
   179
420
  2234388
100
AcDbHatch
 10
0.0
 20
0.0
 30
0.0
210
0.0
220
0.0
230
1.0
  2
SOLID
 70
     1
 71
     0
 91
        1
 92
        1
 93
        1
 72
     4
 94
        3
 73
     0
 74
     1
 95
       44
 96
       40
 40
0.0
 40
0.0
 40
0.0
 40
0.0
 40
1.0
 40
1.0
 40
1.0
 40
2.0
 40
2.0
 40
2.0
 40
3.0
 40
3.0
 40
3.0
 40
4.0
 40
4.0
 40
4.0
 40
5.0
 40
5.0
 40
5.0
 40
6.0
 40
6.0
 40
6.0
 40
7.0
 40
7.0
 40
7.0
 40
8.0
 40
8.0
 40
8.0
 40
9.0
 40
9.0
 40
9.0
 40
10.0
 40
10.0
 40
10.0
 40
11.0
 40
11.0
 40
11.0
 40
12.0
 40
12.0
 40
12.0
 40
13.0
 40
13.0
 40
13.0
 40
13.0
 10
74.05267196499378
 20
-126.5211316958003
 10
74.2114908668638
 20
-126.7388617304681
 10
74.28556041979667
 20
-126.8318793085698
 10
74.4292209015316
 20
-126.8807996644604
 10
74.4292209015316
 20
-126.8807996644604
 10
74.4292209015316
 20
-126.1022080847939
 10
74.4292209015316
 20
-126.1022080847939
 10
74.4292209015316
 20
-126.1022080847939
 10
74.63454859245248
 20
-126.1022080847939
 10
74.63454859245248
 20
-126.1022080847939
 10
74.63454859245248
 20
-126.1022080847939
 10
74.63454859245248
 20
-127.1302245775924
 10
74.63454859245248
 20
-127.1302245775924
 10
74.27694768108354
 20
-127.0985296991282
 10
74.19874401356837
 20
-127.0330728849084
 10
73.90039874454574
 20
-126.6479112096575
 10
73.70161673504683
 20
-126.3919406151034
 10
73.6337483539874
 20
-126.3264838008837
 10
73.49628904412593
 20
-126.3264838008837
 10
73.37777775943334
 20
-126.3264838008837
 10
73.24686413099384
 20
-126.3984862965254
 10
73.24686413099384
 20
-126.5952012487331
 10
73.24686413099384
 20
-126.8553059578695
 10
73.47734101895706
 20
-126.8635741870341
 10
73.59378524635851
 20
-126.8680528111649
 10
73.59378524635851
 20
-126.8680528111649
 10
73.59378524635851
 20
-127.0923285272547
 10
73.59378524635851
 20
-127.0923285272547
 10
73.46666122295278
 20
-127.0837157885416
 10
73.35469561968216
 20
-127.0730359925373
 10
73.23618433498957
 20
-126.992765267731
 10
73.0752983758284
 20
-126.8828667217515
 10
73.04153644007295
 20
-126.6964870559995
 10
73.04153644007295
 20
-126.5803873381466
 10
73.04153644007295
 20
-126.303057151584
 10
73.22550453898529
 20
-126.0956624033719
 10
73.49835610141709
 20
-126.0956624033719
 10
73.72711044163768
 20
-126.0956624033719
 10
73.82632919161287
 20
-126.2121066307734
 10
74.05267196499378
 20
-126.5211316958003
 97
        0
 97
        0
 75
     2
 76
     1
 98
        0
  0
SPLINE
  5
88
330
82
100
AcDbEntity
  8
_U+30EC_U+30A4_U+30E4_U+30FC 1
370
     0
100
AcDbSpline
210
0.0
220
0.0
230
1.0
 70
    11
 71
     3
 72
    53
 73
    49
 74
     0
 42
0.0000000001
 43
0.0000000001
 12
1.0
 22
0.0
 32
0.0
 13
1.0
 23
0.0
 33
0.0
 40
0.0
 40
0.0
 40
0.0
 40
0.0
 40
1.0
 40
1.0
 40
1.0
 40
2.0
 40
2.0
 40
2.0
 40
3.0
 40
3.0
 40
3.0
 40
4.0
 40
4.0
 40
4.0
 40
5.0
 40
5.0
 40
5.0
 40
6.0
 40
6.0
 40
6.0
 40
7.0
 40
7.0
 40
7.0
 40
8.0
 40
8.0
 40
8.0
 40
9.0
 40
9.0
 40
9.0
 40
10.0
 40
10.0
 40
10.0
 40
11.0
 40
11.0
 40
11.0
 40
12.0
 40
12.0
 40
12.0
 40
13.0
 40
13.0
 40
13.0
 40
14.0
 40
14.0
 40
14.0
 40
15.0
 40
15.0
 40
15.0
 40
16.0
 40
16.0
 40
16.0
 40
16.0
 10
74.68519149608565
 20
-125.4562526813096
 30
0.0
 10
74.68519149608565
 20
-125.5344563488247
 30
0.0
 10
74.66831052820793
 20
-125.6360866656396
 30
0.0
 10
74.60492077127932
 20
-125.7377169824545
 30
0.0
 10
74.49502222529986
 20
-125.9110052853625
 30
0.0
 10
74.36376408731184
 20
-125.9323648773711
 30
0.0
 10
74.25593259862352
 20
-125.95131290254
 30
0.0
 10
74.25593259862352
 20
-125.95131290254
 30
0.0
 10
74.25593259862352
 20
-125.7291042437413
 30
0.0
 10
74.25593259862352
 20
-125.7291042437413
 30
0.0
 10
74.45471460812243
 20
-125.6743272255259
 30
0.0
 10
74.48434242929558
 20
-125.5472032021201
 30
0.0
 10
74.48434242929558
 20
-125.4541856240184
 30
0.0
 10
74.48434242929558
 20
-125.3146592568658
 30
0.0
 10
74.38477916977186
 20
-125.1623860364177
 30
0.0
 10
74.1522352245175
 20
-125.1623860364177
 30
0.0
 10
73.89626462996344
 20
-125.1623860364177
 30
0.0
 10
73.82632919161287
 20
-125.3422200207478
 30
0.0
 10
73.82632919161287
 20
-125.4627983627315
 30
0.0
 10
73.82632919161287
 20
-125.4944932411958
 30
0.0
 10
73.82632919161287
 20
-125.6360866656396
 30
0.0
 10
73.95552027230974
 20
-125.724970129159
 30
0.0
 10
73.95552027230974
 20
-125.724970129159
 30
0.0
 10
73.93657224714086
 20
-125.9006699989068
 30
0.0
 10
73.93657224714086
 20
-125.9006699989068
 30
0.0
 10
73.93657224714086
 20
-125.9006699989068
 30
0.0
 10
73.09011228641498
 20
-125.780091656923
 30
0.0
 10
73.09011228641498
 20
-125.780091656923
 30
0.0
 10
73.09011228641498
 20
-125.780091656923
 30
0.0
 10
73.09011228641498
 20
-125.0015000772566
 30
0.0
 10
73.09011228641498
 20
-125.0015000772566
 30
0.0
 10
73.09011228641498
 20
-125.0015000772566
 30
0.0
 10
73.28476018133159
 20
-125.0015000772566
 30
0.0
 10
73.28476018133159
 20
-125.0015000772566
 30
0.0
 10
73.28476018133159
 20
-125.0015000772566
 30
0.0
 10
73.28476018133159
 20
-125.6171386404707
 30
0.0
 10
73.28476018133159
 20
-125.6171386404707
 30
0.0
 10
73.28476018133159
 20
-125.6171386404707
 30
0.0
 10
73.70781790692027
 20
-125.6825954546905
 30
0.0
 10
73.70781790692027
 20
-125.6825954546905
 30
0.0
 10
73.67405597116482
 20
-125.621272755053
 30
0.0
 10
73.6337483539874
 20
-125.5389349729555
 30
0.0
 10
73.6337483539874
 20
-125.420423688263
 30
0.0
 10
73.6337483539874
 20
-125.166520151
 30
0.0
 10
73.82012801973941
 20
-124.9294975816149
 30
0.0
 10
74.13328719934863
 20
-124.9294975816149
 30
0.0
 10
74.45058049354013
 20
-124.9294975816149
 30
0.0
 10
74.68519149608565
 20
-125.1537732977046
 30
0.0
 10
74.68519149608565
 20
-125.4562526813096
 30
0.0
  0
HATCH
  5
89
330
82
100
AcDbEntity
  8
_U+30EC_U+30A4_U+30E4_U+30FC 1
 62
   179
420
  2234388
100
AcDbHatch
 10
0.0
 20
0.0
 30
0.0
210
0.0
220
0.0
230
1.0
  2
SOLID
 70
     1
 71
     0
 91
        1
 92
        1
 93
        1
 72
     4
 94
        3
 73
     0
 74
     1
 95
       53
 96
       49
 40
0.0
 40
0.0
 40
0.0
 40
0.0
 40
1.0
 40
1.0
 40
1.0
 40
2.0
 40
2.0
 40
2.0
 40
3.0
 40
3.0
 40
3.0
 40
4.0
 40
4.0
 40
4.0
 40
5.0
 40
5.0
 40
5.0
 40
6.0
 40
6.0
 40
6.0
 40
7.0
 40
7.0
 40
7.0
 40
8.0
 40
8.0
 40
8.0
 40
9.0
 40
9.0
 40
9.0
 40
10.0
 40
10.0
 40
10.0
 40
11.0
 40
11.0
 40
11.0
 40
12.0
 40
12.0
 40
12.0
 40
13.0
 40
13.0
 40
13.0
 40
14.0
 40
14.0
 40
14.0
 40
15.0
 40
15.0
 40
15.0
 40
16.0
 40
16.0
 40
16.0
 40
16.0
 10
74.68519149608565
 20
-125.4562526813096
 10
74.68519149608565
 20
-125.5344563488247
 10
74.66831052820793
 20
-125.6360866656396
 10
74.60492077127932
 20
-125.7377169824545
 10
74.49502222529986
 20
-125.9110052853625
 10
74.36376408731184
 20
-125.9323648773711
 10
74.25593259862352
 20
-125.95131290254
 10
74.25593259862352
 20
-125.95131290254
 10
74.25593259862352
 20
-125.7291042437413
 10
74.25593259862352
 20
-125.7291042437413
 10
74.45471460812243
 20
-125.6743272255259
 10
74.48434242929558
 20
-125.5472032021201
 10
74.48434242929558
 20
-125.4541856240184
 10
74.48434242929558
 20
-125.3146592568658
 10
74.38477916977186
 20
-125.1623860364177
 10
74.1522352245175
 20
-125.1623860364177
 10
73.89626462996344
 20
-125.1623860364177
 10
73.82632919161287
 20
-125.3422200207478
 10
73.82632919161287
 20
-125.4627983627315
 10
73.82632919161287
 20
-125.4944932411958
 10
73.82632919161287
 20
-125.6360866656396
 10
73.95552027230974
 20
-125.724970129159
 10
73.95552027230974
 20
-125.724970129159
 10
73.93657224714086
 20
-125.9006699989068
 10
73.93657224714086
 20
-125.9006699989068
 10
73.93657224714086
 20
-125.9006699989068
 10
73.09011228641498
 20
-125.780091656923
 10
73.09011228641498
 20
-125.780091656923
 10
73.09011228641498
 20
-125.780091656923
 10
73.09011228641498
 20
-125.0015000772566
 10
73.09011228641498
 20
-125.0015000772566
 10
73.09011228641498
 20
-125.0015000772566
 10
73.28476018133159
 20
-125.0015000772566
 10
73.28476018133159
 20
-125.0015000772566
 10
73.28476018133159
 20
-125.0015000772566
 10
73.28476018133159
 20
-125.6171386404707
 10
73.28476018133159
 20
-125.6171386404707
 10
73.28476018133159
 20
-125.6171386404707
 10
73.70781790692027
 20
-125.6825954546905
 10
73.70781790692027
 20
-125.6825954546905
 10
73.67405597116482
 20
-125.621272755053
 10
73.6337483539874
 20
-125.5389349729555
 10
73.6337483539874
 20
-125.420423688263
 10
73.6337483539874
 20
-125.166520151
 10
73.82012801973941
 20
-124.9294975816149
 10
74.13328719934863
 20
-124.9294975816149
 10
74.45058049354013
 20
-124.9294975816149
 10
74.68519149608565
 20
-125.1537732977046
 10
74.68519149608565
 20
-125.4562526813096
 97
        0
 97
        0
 75
     2
 76
     1
 98
        0
  0
ENDBLK
  5
85
330
82
100
AcDbEntity
  8
0
100
AcDbBlockEnd
  0
ENDSEC
  0
SECTION
  2
ENTITIES
  0
SPLINE
  5
41
330
1F
100
AcDbEntity
  8
_U+30EC_U+30A4_U+30E4_U+30FC 1
 62
   179
420
  2234388
370
     9
100
AcDbSpline
210
0.0
220
0.0
230
1.0
 70
    11
 71
     3
 72
    17
 73
    13
 74
     0
 42
0.0000000001
 43
0.0000000001
 12
1.0
 22
0.0
 32
0.0
 13
1.0
 23
0.0
 33
0.0
 40
0.0
 40
0.0
 40
0.0
 40
0.0
 40
1.0
 40
1.0
 40
1.0
 40
2.0
 40
2.0
 40
2.0
 40
3.0
 40
3.0
 40
3.0
 40
4.0
 40
4.0
 40
4.0
 40
4.0
 10
108.190450573165
 20
-135.3712402439348
 30
0.0
 10
108.1353466856819
 20
-135.3712402439348
 30
0.0
 10
108.0905439090472
 20
-135.416007743924
 30
0.0
 10
108.0905439090472
 20
-135.4711469105764
 30
0.0
 10
108.0905439090472
 20
-135.526250799452
 30
0.0
 10
108.1353466856819
 20
-135.5710535772181
 30
0.0
 10
108.190450573165
 20
-135.5710535772181
 30
0.0
 10
108.2455897384249
 20
-135.5710535772181
 30
0.0
 10
108.2903572372828
 20
-135.526250799452
 30
0.0
 10
108.2903572372828
 20
-135.4711469105764
 30
0.0
 10
108.2903572372828
 20
-135.416007743924
 30
0.0
 10
108.2455897384249
 20
-135.3712402439348
 30
0.0
 10
108.190450573165
 20
-135.3712402439348
 30
0.0
  0
SPLINE
  5
42
330
1F
100
AcDbEntity
  8
_U+30EC_U+30A4_U+30E4_U+30FC 1
 62
   179
420
  2234388
370
     9
100
AcDbSpline
210
0.0
220
0.0
230
1.0
 70
    11
 71
     3
 72
    17
 73
    13
 74
     0
 42
0.0000000001
 43
0.0000000001
 12
1.0
 22
0.0
 32
0.0
 13
1.0
 23
0.0
 33
0.0
 40
0.0
 40
0.0
 40
0.0
 40
0.0
 40
1.0
 40
1.0
 40
1.0
 40
2.0
 40
2.0
 40
2.0
 40
3.0
 40
3.0
 40
3.0
 40
4.0
 40
4.0
 40
4.0
 40
4.0
 10
108.190450573165
 20
-138.3481555209684
 30
0.0
 10
108.1353466856819
 20
-138.3481555209684
 30
0.0
 10
108.0905439090472
 20
-138.3929230209576
 30
0.0
 10
108.0905439090472
 20
-138.44806218761
 30
0.0
 10
108.0905439090472
 20
-138.5031660764856
 30
0.0
 10
108.1353466856819
 20
-138.5479688542517
 30
0.0
 10
108.190450573165
 20
-138.5479688542517
 30
0.0
 10
108.2455897384249
 20
-138.5479688542517
 30
0.0
 10
108.2903572372828
 20
-138.5031660764856
 30
0.0
 10
108.2903572372828
 20
-138.44806218761
 30
0.0
 10
108.2903572372828
 20
-138.3929230209576
 30
0.0
 10
108.2455897384249
 20
-138.3481555209684
 30
0.0
 10
108.190450573165
 20
-138.3481555209684
 30
0.0
  0
POLYLINE
  5
43
330
1F
100
AcDbEntity
  8
_U+30EC_U+30A4_U+30E4_U+30FC 1
 62
   179
420
  2234388
370
     9
100
AcDb2dPolyline
 66
     1
 10
0.0
 20
0.0
 30
0.0
  0
VERTEX
  5
44
330
43
100
AcDbEntity
  8
_U+30EC_U+30A4_U+30E4_U+30FC 1
 62
   179
420
  2234388
370
     9
100
AcDbVertex
100
AcDb2dVertex
 10
108.190450573165
 20
-138.44806218761
 30
0.0
  0
VERTEX
  5
45
330
43
100
AcDbEntity
  8
_U+30EC_U+30A4_U+30E4_U+30FC 1
 62
   179
420
  2234388
370
     9
100
AcDbVertex
100
AcDb2dVertex
 10
108.190450573165
 20
-135.4105044105918
 30
0.0
  0
SEQEND
  5
46
330
43
100
AcDbEntity
  8
_U+30EC_U+30A4_U+30E4_U+30FC 1
 62
   179
420
  2234388
370
     9
  0
POLYLINE
  5
47
330
1F
100
AcDbEntity
  8
_U+30EC_U+30A4_U+30E4_U+30FC 1
 62
   179
420
  2234388
370
     9
100
AcDb2dPolyline
 66
     1
 10
0.0
 20
0.0
 30
0.0
  0
VERTEX
  5
48
330
47
100
AcDbEntity
  8
_U+30EC_U+30A4_U+30E4_U+30FC 1
 62
   179
420
  2234388
370
     9
100
AcDbVertex
100
AcDb2dVertex
 10
105.7306749735676
 20
-138.44806218761
 30
0.0
  0
VERTEX
  5
49
330
47
100
AcDbEntity
  8
_U+30EC_U+30A4_U+30E4_U+30FC 1
 62
   179
420
  2234388
370
     9
100
AcDbVertex
100
AcDb2dVertex
 10
109.1909283254185
 20
-138.44806218761
 30
0.0
  0
SEQEND
  5
4A
330
47
100
AcDbEntity
  8
_U+30EC_U+30A4_U+30E4_U+30FC 1
 62
   179
420
  2234388
370
     9
  0
POLYLINE
  5
4B
330
1F
100
AcDbEntity
  8
_U+30EC_U+30A4_U+30E4_U+30FC 1
 62
   179
420
  2234388
370
     9
100
AcDb2dPolyline
 66
     1
 10
0.0
 20
0.0
 30
0.0
  0
VERTEX
  5
4C
330
4B
100
AcDbEntity
  8
_U+30EC_U+30A4_U+30E4_U+30FC 1
 62
   179
420
  2234388
370
     9
100
AcDbVertex
100
AcDb2dVertex
 10
105.7306749735676
 20
-135.4711469105764
 30
0.0
  0
VERTEX
  5
4D
330
4B
100
AcDbEntity
  8
_U+30EC_U+30A4_U+30E4_U+30FC 1
 62
   179
420
  2234388
370
     9
100
AcDbVertex
100
AcDb2dVertex
 10
109.1909283254185
 20
-135.4711469105764
 30
0.0
  0
SEQEND
  5
4E
330
4B
100
AcDbEntity
  8
_U+30EC_U+30A4_U+30E4_U+30FC 1
 62
   179
420
  2234388
370
     9
  0
INSERT
  5
50
330
1F
100
AcDbEntity
  8
_U+30EC_U+30A4_U+30E4_U+30FC 1
100
AcDbBlockReference
  2
block 2
 10
0.0
 20
0.0
 30
0.0
  0
SPLINE
  5
55
330
1F
100
AcDbEntity
  8
_U+30EC_U+30A4_U+30E4_U+30FC 1
 62
   179
420
  2234388
370
     9
100
AcDbSpline
210
0.0
220
0.0
230
1.0
 70
    11
 71
     3
 72
    17
 73
    13
 74
     0
 42
0.0000000001
 43
0.0000000001
 12
1.0
 22
0.0
 32
0.0
 13
1.0
 23
0.0
 33
0.0
 40
0.0
 40
0.0
 40
0.0
 40
0.0
 40
1.0
 40
1.0
 40
1.0
 40
2.0
 40
2.0
 40
2.0
 40
3.0
 40
3.0
 40
3.0
 40
4.0
 40
4.0
 40
4.0
 40
4.0
 10
104.3354009492933
 20
-142.4564291310526
 30
0.0
 10
104.3354009492933
 20
-142.4012899643996
 30
0.0
 10
104.2906360850386
 20
-142.356522464411
 30
0.0
 10
104.2354942851754
 20
-142.356522464411
 30
0.0
 10
104.1803903976924
 20
-142.356522464411
 30
0.0
 10
104.1355876210576
 20
-142.4012899643996
 30
0.0
 10
104.1355876210576
 20
-142.4564291310526
 30
0.0
 10
104.1355876210576
 20
-142.5115330199276
 30
0.0
 10
104.1803903976924
 20
-142.5563357976943
 30
0.0
 10
104.2354942851754
 20
-142.5563357976943
 30
0.0
 10
104.2906360850386
 20
-142.5563357976943
 30
0.0
 10
104.3354009492933
 20
-142.5115330199276
 30
0.0
 10
104.3354009492933
 20
-142.4564291310526
 30
0.0
  0
SPLINE
  5
56
330
1F
100
AcDbEntity
  8
_U+30EC_U+30A4_U+30E4_U+30FC 1
 62
   179
420
  2234388
370
     9
100
AcDbSpline
210
0.0
220
0.0
230
1.0
 70
    11
 71
     3
 72
    17
 73
    13
 74
     0
 42
0.0000000001
 43
0.0000000001
 12
1.0
 22
0.0
 32
0.0
 13
1.0
 23
0.0
 33
0.0
 40
0.0
 40
0.0
 40
0.0
 40
0.0
 40
1.0
 40
1.0
 40
1.0
 40
2.0
 40
2.0
 40
2.0
 40
3.0
 40
3.0
 40
3.0
 40
4.0
 40
4.0
 40
4.0
 40
4.0
 10
79.33090275794505
 20
-142.4564291310526
 30
0.0
 10
79.33090275794505
 20
-142.4012899643996
 30
0.0
 10
79.28609998017834
 20
-142.356522464411
 30
0.0
 10
79.2302885342225
 20
-142.356522464411
 30
0.0
 10
79.17518464673942
 20
-142.356522464411
 30
0.0
 10
79.13038187010466
 20
-142.4012899643996
 30
0.0
 10
79.13038187010466
 20
-142.4564291310526
 30
0.0
 10
79.13038187010466
 20
-142.5115330199276
 30
0.0
 10
79.17518464673942
 20
-142.5563357976943
 30
0.0
 10
79.2302885342225
 20
-142.5563357976943
 30
0.0
 10
79.28609998017834
 20
-142.5563357976943
 30
0.0
 10
79.33090275794505
 20
-142.5115330199276
 30
0.0
 10
79.33090275794505
 20
-142.4564291310526
 30
0.0
  0
SPLINE
  5
57
330
1F
100
AcDbEntity
  8
_U+30EC_U+30A4_U+30E4_U+30FC 1
 62
   179
420
  2234388
370
     9
100
AcDbSpline
210
0.0
220
0.0
230
1.0
 70
    11
 71
     3
 72
    17
 73
    13
 74
     0
 42
0.0000000001
 43
0.0000000001
 12
1.0
 22
0.0
 32
0.0
 13
1.0
 23
0.0
 33
0.0
 40
0.0
 40
0.0
 40
0.0
 40
0.0
 40
1.0
 40
1.0
 40
1.0
 40
2.0
 40
2.0
 40
2.0
 40
3.0
 40
3.0
 40
3.0
 40
4.0
 40
4.0
 40
4.0
 40
4.0
 10
75.3304714114929
 20
-138.3553874654112
 30
0.0
 10
75.3304714114929
 20
-138.3002482987582
 30
0.0
 10
75.28566863485814
 20
-138.2554807987696
 30
0.0
 10
75.23056664785918
 20
-138.2554807987696
 30
0.0
 10
75.17542558211511
 20
-138.2554807987696
 30
0.0
 10
75.13065808325723
 20
-138.3002482987582
 30
0.0
 10
75.13065808325723
 20
-138.3553874654112
 30
0.0
 10
75.13065808325723
 20
-138.4111969098417
 30
0.0
 10
75.17542558211511
 20
-138.4559644098302
 30
0.0
 10
75.23056664785918
 20
-138.4559644098302
 30
0.0
 10
75.28566863485814
 20
-138.4559644098302
 30
0.0
 10
75.3304714114929
 20
-138.4111969098417
 30
0.0
 10
75.3304714114929
 20
-138.3553874654112
 30
0.0
  0
POLYLINE
  5
58
330
1F
100
AcDbEntity
  8
_U+30EC_U+30A4_U+30E4_U+30FC 1
 62
   179
420
  2234388
370
     9
100
AcDb2dPolyline
 66
     1
 10
0.0
 20
0.0
 30
0.0
  0
VERTEX
  5
59
330
58
100
AcDbEntity
  8
_U+30EC_U+30A4_U+30E4_U+30FC 1
 62
   179
420
  2234388
370
     9
100
AcDbVertex
100
AcDb2dVertex
 10
75.23056664785918
 20
-138.4559644098302
 30
0.0
  0
VERTEX
  5
5A
330
58
100
AcDbEntity
  8
_U+30EC_U+30A4_U+30E4_U+30FC 1
 62
   179
420
  2234388
370
     9
100
AcDbVertex
100
AcDb2dVertex
 10
75.23056664785918
 20
-113.4492410827487
 30
0.0
  0
SEQEND
  5
5B
330
58
100
AcDbEntity
  8
_U+30EC_U+30A4_U+30E4_U+30FC 1
 62
   179
420
  2234388
370
     9
  0
POLYLINE
  5
5C
330
1F
100
AcDbEntity
  8
_U+30EC_U+30A4_U+30E4_U+30FC 1
 62
   179
420
  2234388
370
     9
100
AcDb2dPolyline
 66
     1
 10
0.0
 20
0.0
 30
0.0
  0
VERTEX
  5
5D
330
5C
100
AcDbEntity
  8
_U+30EC_U+30A4_U+30E4_U+30FC 1
 62
   179
420
  2234388
370
     9
100
AcDbVertex
100
AcDb2dVertex
 10
77.69034301795422
 20
-138.3553874654112
 30
0.0
  0
VERTEX
  5
5E
330
5C
100
AcDbEntity
  8
_U+30EC_U+30A4_U+30E4_U+30FC 1
 62
   179
420
  2234388
370
     9
100
AcDbVertex
100
AcDb2dVertex
 10
74.23079442588663
 20
-138.3553874654112
 30
0.0
  0
SEQEND
  5
5F
330
5C
100
AcDbEntity
  8
_U+30EC_U+30A4_U+30E4_U+30FC 1
 62
   179
420
  2234388
370
     9
  0
SPLINE
  5
60
330
1F
100
AcDbEntity
  8
_U+30EC_U+30A4_U+30E4_U+30FC 1
 62
   179
420
  2234388
370
     9
100
AcDbSpline
210
0.0
220
0.0
230
1.0
 70
    11
 71
     3
 72
    17
 73
    13
 74
     0
 42
0.0000000001
 43
0.0000000001
 12
1.0
 22
0.0
 32
0.0
 13
1.0
 23
0.0
 33
0.0
 40
0.0
 40
0.0
 40
0.0
 40
0.0
 40
1.0
 40
1.0
 40
1.0
 40
2.0
 40
2.0
 40
2.0
 40
3.0
 40
3.0
 40
3.0
 40
4.0
 40
4.0
 40
4.0
 40
4.0
 10
75.3304714114929
 20
-113.4492410827487
 30
0.0
 10
75.3304714114929
 20
-113.3941019160959
 30
0.0
 10
75.28566863485814
 20
-113.349334416107
 30
0.0
 10
75.23056664785918
 20
-113.349334416107
 30
0.0
 10
75.17542558211511
 20
-113.349334416107
 30
0.0
 10
75.13065808325723
 20
-113.3941019160959
 30
0.0
 10
75.13065808325723
 20
-113.4492410827487
 30
0.0
 10
75.13065808325723
 20
-113.5050505271794
 30
0.0
 10
75.17542558211511
 20
-113.549818027168
 30
0.0
 10
75.23056664785918
 20
-113.549818027168
 30
0.0
 10
75.28566863485814
 20
-113.549818027168
 30
0.0
 10
75.3304714114929
 20
-113.5050505271794
 30
0.0
 10
75.3304714114929
 20
-113.4492410827487
 30
0.0
  0
POLYLINE
  5
61
330
1F
100
AcDbEntity
  8
_U+30EC_U+30A4_U+30E4_U+30FC 1
 62
   179
420
  2234388
370
     9
100
AcDb2dPolyline
 66
     1
 10
0.0
 20
0.0
 30
0.0
  0
VERTEX
  5
62
330
61
100
AcDbEntity
  8
_U+30EC_U+30A4_U+30E4_U+30FC 1
 62
   179
420
  2234388
370
     9
100
AcDbVertex
100
AcDb2dVertex
 10
77.69034301795422
 20
-113.4492410827487
 30
0.0
  0
VERTEX
  5
63
330
61
100
AcDbEntity
  8
_U+30EC_U+30A4_U+30E4_U+30FC 1
 62
   179
420
  2234388
370
     9
100
AcDbVertex
100
AcDb2dVertex
 10
74.23079442588663
 20
-113.4492410827487
 30
0.0
  0
SEQEND
  5
64
330
61
100
AcDbEntity
  8
_U+30EC_U+30A4_U+30E4_U+30FC 1
 62
   179
420
  2234388
370
     9
  0
POLYLINE
  5
65
330
1F
100
AcDbEntity
  8
_U+30EC_U+30A4_U+30E4_U+30FC 1
 62
   179
420
  2234388
370
     9
100
AcDb2dPolyline
 66
     1
 10
0.0
 20
0.0
 30
0.0
  0
VERTEX
  5
66
330
65
100
AcDbEntity
  8
_U+30EC_U+30A4_U+30E4_U+30FC 1
 62
   179
420
  2234388
370
     9
100
AcDbVertex
100
AcDb2dVertex
 10
79.2302885342225
 20
-142.4564291310526
 30
0.0
  0
VERTEX
  5
67
330
65
100
AcDbEntity
  8
_U+30EC_U+30A4_U+30E4_U+30FC 1
 62
   179
420
  2234388
370
     9
100
AcDbVertex
100
AcDb2dVertex
 10
104.2354942851754
 20
-142.4564291310526
 30
0.0
  0
SEQEND
  5
68
330
65
100
AcDbEntity
  8
_U+30EC_U+30A4_U+30E4_U+30FC 1
 62
   179
420
  2234388
370
     9
  0
POLYLINE
  5
69
330
1F
100
AcDbEntity
  8
_U+30EC_U+30A4_U+30E4_U+30FC 1
 62
   179
420
  2234388
370
     9
100
AcDb2dPolyline
 66
     1
 10
0.0
 20
0.0
 30
0.0
  0
VERTEX
  5
6A
330
69
100
AcDbEntity
  8
_U+30EC_U+30A4_U+30E4_U+30FC 1
 62
   179
420
  2234388
370
     9
100
AcDbVertex
100
AcDb2dVertex
 10
79.2302885342225
 20
-139.995945242779
 30
0.0
  0
VERTEX
  5
6B
330
69
100
AcDbEntity
  8
_U+30EC_U+30A4_U+30E4_U+30FC 1
 62
   179
420
  2234388
370
     9
100
AcDbVertex
100
AcDb2dVertex
 10
79.2302885342225
 20
-143.4562013530245
 30
0.0
  0
SEQEND
  5
6C
330
69
100
AcDbEntity
  8
_U+30EC_U+30A4_U+30E4_U+30FC 1
 62
   179
420
  2234388
370
     9
  0
POLYLINE
  5
6D
330
1F
100
AcDbEntity
  8
_U+30EC_U+30A4_U+30E4_U+30FC 1
 62
   179
420
  2234388
370
     9
100
AcDb2dPolyline
 66
     1
 10
0.0
 20
0.0
 30
0.0
  0
VERTEX
  5
6E
330
6D
100
AcDbEntity
  8
_U+30EC_U+30A4_U+30E4_U+30FC 1
 62
   179
420
  2234388
370
     9
100
AcDbVertex
100
AcDb2dVertex
 10
104.2354942851754
 20
-140.9963877425289
 30
0.0
  0
VERTEX
  5
6F
330
6D
100
AcDbEntity
  8
_U+30EC_U+30A4_U+30E4_U+30FC 1
 62
   179
420
  2234388
370
     9
100
AcDbVertex
100
AcDb2dVertex
 10
104.2354942851754
 20
-143.4562013530245
 30
0.0
  0
SEQEND
  5
70
330
6D
100
AcDbEntity
  8
_U+30EC_U+30A4_U+30E4_U+30FC 1
 62
   179
420
  2234388
370
     9
  0
INSERT
  5
72
330
1F
100
AcDbEntity
  8
_U+30EC_U+30A4_U+30E4_U+30FC 1
100
AcDbBlockReference
  2
block 3
 10
0.0
 20
0.0
 30
0.0
  0
INSERT
  5
7A
330
1F
100
AcDbEntity
  8
_U+30EC_U+30A4_U+30E4_U+30FC 1
100
AcDbBlockReference
  2
block 4
 10
0.0
 20
0.0
 30
0.0
  0
INSERT
  5
83
330
1F
100
AcDbEntity
  8
_U+30EC_U+30A4_U+30E4_U+30FC 1
100
AcDbBlockReference
  2
block 5
 10
0.0
 20
0.0
 30
0.0
  0
SPLINE
  5
8A
330
1F
100
AcDbEntity
  8
_U+30EC_U+30A4_U+30E4_U+30FC 1
 62
   179
420
  2234388
370
    25
100
AcDbSpline
210
0.0
220
0.0
230
1.0
 70
    11
 71
     3
 72
    26
 73
    22
 74
     0
 42
0.0000000001
 43
0.0000000001
 12
1.0
 22
0.0
 32
0.0
 13
1.0
 23
0.0
 33
0.0
 40
0.0
 40
0.0
 40
0.0
 40
0.0
 40
1.0
 40
1.0
 40
1.0
 40
2.0
 40
2.0
 40
2.0
 40
3.0
 40
3.0
 40
3.0
 40
4.0
 40
4.0
 40
4.0
 40
5.0
 40
5.0
 40
5.0
 40
6.0
 40
6.0
 40
6.0
 40
7.0
 40
7.0
 40
7.0
 40
7.0
 10
82.23031067990777
 20
-138.4559644098302
 30
0.0
 10
80.57356044439722
 20
-138.4559644098302
 30
0.0
 10
79.2302885342225
 20
-137.1127277434993
 30
0.0
 10
79.2302885342225
 20
-135.4559774661359
 30
0.0
 10
79.2302885342225
 20
-135.4559774661359
 30
0.0
 10
79.2302885342225
 20
-113.4559438605249
 30
0.0
 10
79.2302885342225
 20
-113.4559438605249
 30
0.0
 10
79.2302885342225
 20
-113.4559438605249
 30
0.0
 10
82.23031067990777
 20
-113.4559438605249
 30
0.0
 10
82.23031067990777
 20
-113.4559438605249
 30
0.0
 10
82.23031067990777
 20
-113.4559438605249
 30
0.0
 10
82.23031067990777
 20
-135.4559774661359
 30
0.0
 10
82.23031067990777
 20
-135.4559774661359
 30
0.0
 10
82.23031067990777
 20
-135.4559774661359
 30
0.0
 10
104.2306638628313
 20
-135.4559774661359
 30
0.0
 10
104.2306638628313
 20
-135.4559774661359
 30
0.0
 10
104.2306638628313
 20
-135.4559774661359
 30
0.0
 10
104.2306638628313
 20
-138.4559644098302
 30
0.0
 10
104.2306638628313
 20
-138.4559644098302
 30
0.0
 10
104.2306638628313
 20
-138.4559644098302
 30
0.0
 10
82.23031067990777
 20
-138.4559644098302
 30
0.0
 10
82.23031067990777
 20
-138.4559644098302
 30
0.0
  0
SPLINE
  5
8B
330
1F
100
AcDbEntity
  8
_U+30EC_U+30A4_U+30E4_U+30FC 1
 62
   179
420
  2234388
370
    25
100
AcDbSpline
210
0.0
220
0.0
230
1.0
 70
     8
 71
     3
 72
     8
 73
     4
 74
     0
 42
0.0000000001
 43
0.0000000001
 12
1.0
 22
0.0
 32
0.0
 13
1.0
 23
0.0
 33
0.0
 40
0.0
 40
0.0
 40
0.0
 40
0.0
 40
1.0
 40
1.0
 40
1.0
 40
1.0
 10
82.23031067990777
 20
-138.4559644098302
 30
0.0
 10
80.57356044439722
 20
-138.4559644098302
 30
0.0
 10
79.2302885342225
 20
-137.1127277434993
 30
0.0
 10
79.2302885342225
 20
-135.4559774661359
 30
0.0
  0
POLYLINE
  5
8C
330
1F
100
AcDbEntity
  8
_U+30EC_U+30A4_U+30E4_U+30FC 1
 62
   179
420
  2234388
370
     9
100
AcDb2dPolyline
 66
     1
 10
0.0
 20
0.0
 30
0.0
  0
VERTEX
  5
8D
330
8C
100
AcDbEntity
  8
_U+30EC_U+30A4_U+30E4_U+30FC 1
 62
   179
420
  2234388
370
     9
100
AcDbVertex
100
AcDb2dVertex
 10
79.99923823682718
 20
-137.8203646877669
 30
0.0
  0
VERTEX
  5
8E
330
8C
100
AcDbEntity
  8
_U+30EC_U+30A4_U+30E4_U+30FC 1
 62
   179
420
  2234388
370
     9
100
AcDbVertex
100
AcDb2dVertex
 10
79.0963055357815
 20
-138.3419466320813
 30
0.0
  0
SEQEND
  5
8F
330
8C
100
AcDbEntity
  8
_U+30EC_U+30A4_U+30E4_U+30FC 1
 62
   179
420
  2234388
370
     9
  0
POLYLINE
  5
90
330
1F
100
AcDbEntity
  8
_U+30EC_U+30A4_U+30E4_U+30FC 1
 62
   179
420
  2234388
370
     9
100
AcDb2dPolyline
 66
     1
 10
0.0
 20
0.0
 30
0.0
  0
VERTEX
  5
91
330
90
100
AcDbEntity
  8
_U+30EC_U+30A4_U+30E4_U+30FC 1
 62
   179
420
  2234388
370
     9
100
AcDbVertex
100
AcDb2dVertex
 10
79.99923823682718
 20
-137.8203646877669
 30
0.0
  0
VERTEX
  5
92
330
90
100
AcDbEntity
  8
_U+30EC_U+30A4_U+30E4_U+30FC 1
 62
   179
420
  2234388
370
     9
100
AcDbVertex
100
AcDb2dVertex
 10
75.89047084165057
 20
-142.0812499644797
 30
0.0
  0
SEQEND
  5
93
330
90
100
AcDbEntity
  8
_U+30EC_U+30A4_U+30E4_U+30FC 1
 62
   179
420
  2234388
370
     9
  0
POLYLINE
  5
94
330
1F
100
AcDbEntity
  8
_U+30EC_U+30A4_U+30E4_U+30FC 1
 62
   179
420
  2234388
370
     9
100
AcDb2dPolyline
 66
     1
 10
0.0
 20
0.0
 30
0.0
  0
VERTEX
  5
95
330
94
100
AcDbEntity
  8
_U+30EC_U+30A4_U+30E4_U+30FC 1
 62
   179
420
  2234388
370
     9
100
AcDbVertex
100
AcDb2dVertex
 10
79.99923823682718
 20
-137.8203646877669
 30
0.0
  0
VERTEX
  5
96
330
94
100
AcDbEntity
  8
_U+30EC_U+30A4_U+30E4_U+30FC 1
 62
   179
420
  2234388
370
     9
100
AcDbVertex
100
AcDb2dVertex
 10
79.47730553568621
 20
-138.7229819097636
 30
0.0
  0
SEQEND
  5
97
330
94
100
AcDbEntity
  8
_U+30EC_U+30A4_U+30E4_U+30FC 1
 62
   179
420
  2234388
370
     9
  0
ENDSEC
  0
SECTION
  2
OBJECTS
  0
DICTIONARY
  5
C
330
0
100
AcDbDictionary
281
     1
  3
ACAD_GROUP
350
D
  3
ACAD_LAYOUT
350
1A
  3
ACAD_MATERIAL
350
3B
  3
ACAD_MLEADERSTYLE
350
99
  3
ACAD_MLINESTYLE
350
17
  3
ACAD_PLOTSETTINGS
350
19
  3
ACAD_PLOTSTYLENAME
350
E
  3
ACAD_TABLESTYLE
350
98
  3
ACAD_VISUALSTYLE
350
2A
  0
SUN
  5
3F
330
29
100
AcDbSun
 90
        1
290
     0
 63
     7
421
 16777215
 40
1.0
291
     1
 91
  2455826
 92
 54000000
292
     0
 70
     2
 71
   256
280
     1
  0
DICTIONARY
  5
D
102
{ACAD_REACTORS
330
C
102
}
330
C
100
AcDbDictionary
281
     1
  0
DICTIONARY
  5
1A
102
{ACAD_REACTORS
330
C
102
}
330
C
100
AcDbDictionary
281
     1
  3
Layout1
350
1E
  3
Layout2
350
26
  3
Model
350
22
  0
DICTIONARY
  5
3B
102
{ACAD_REACTORS
330
C
102
}
330
C
100
AcDbDictionary
281
     1
  3
ByBlock
350
3D
  3
ByLayer
350
3C
  3
Global
350
3E
  0
DICTIONARY
  5
99
102
{ACAD_REACTORS
330
C
102
}
330
C
100
AcDbDictionary
281
     1
  0
DICTIONARY
  5
17
102
{ACAD_REACTORS
330
C
102
}
330
C
100
AcDbDictionary
281
     1
  3
Standard
350
18
  0
DICTIONARY
  5
19
102
{ACAD_REACTORS
330
C
102
}
330
C
100
AcDbDictionary
281
     1
  0
ACDBDICTIONARYWDFLT
  5
E
102
{ACAD_REACTORS
330
C
102
}
330
C
100
AcDbDictionary
281
     1
  3
Normal
350
F
100
AcDbDictionaryWithDefault
340
F
  0
DICTIONARY
  5
98
102
{ACAD_REACTORS
330
C
102
}
330
C
100
AcDbDictionary
281
     1
  0
DICTIONARY
  5
2A
102
{ACAD_REACTORS
330
C
102
}
330
C
100
AcDbDictionary
281
     1
  3
2dWireframe
350
2F
  3
3D Hidden
350
31
  3
3dWireframe
350
30
  3
Basic
350
32
  3
Brighten
350
36
  3
ColorChange
350
3A
  3
Conceptual
350
34
  3
Dim
350
35
  3
Facepattern
350
39
  3
Flat
350
2B
  3
FlatWithEdges
350
2C
  3
Gouraud
350
2D
  3
GouraudWithEdges
350
2E
  3
Linepattern
350
38
  3
Realistic
350
33
  3
Thicken
350
37
  0
LAYOUT
  5
1E
102
{ACAD_REACTORS
330
1A
102
}
330
1A
100
AcDbPlotSettings
  1

  2
none_device
  4

  6

 40
0.0
 41
0.0
 42
0.0
 43
0.0
 44
0.0
 45
0.0
 46
0.0
 47
0.0
 48
0.0
 49
0.0
140
0.0
141
0.0
142
1.0
143
1.0
 70
   688
 72
     0
 73
     0
 74
     5
  7

 75
    16
 76
     0
 77
     2
 78
   300
147
1.0
148
0.0
149
0.0
100
AcDbLayout
  1
Layout1
 70
     1
 71
     1
 10
0.0
 20
0.0
 11
12.0
 21
9.0
 12
0.0
 22
0.0
 32
0.0
 14
1.000000000000000E+20
 24
1.000000000000000E+20
 34
1.000000000000000E+20
 15
-1.000000000000000E+20
 25
-1.000000000000000E+20
 35
-1.000000000000000E+20
146
0.0
 13
0.0
 23
0.0
 33
0.0
 16
1.0
 26
0.0
 36
0.0
 17
0.0
 27
1.0
 37
0.0
 76
     0
330
1B
  0
LAYOUT
  5
26
102
{ACAD_REACTORS
330
1A
102
}
330
1A
100
AcDbPlotSettings
  1

  2
none_device
  4

  6

 40
0.0
 41
0.0
 42
0.0
 43
0.0
 44
0.0
 45
0.0
 46
0.0
 47
0.0
 48
0.0
 49
0.0
140
0.0
141
0.0
142
1.0
143
1.0
 70
   688
 72
     0
 73
     0
 74
     5
  7

 75
    16
 76
     0
 77
     2
 78
   300
147
1.0
148
0.0
149
0.0
100
AcDbLayout
  1
Layout2
 70
     1
 71
     2
 10
0.0
 20
0.0
 11
0.0
 21
0.0
 12
0.0
 22
0.0
 32
0.0
 14
0.0
 24
0.0
 34
0.0
 15
0.0
 25
0.0
 35
0.0
146
0.0
 13
0.0
 23
0.0
 33
0.0
 16
1.0
 26
0.0
 36
0.0
 17
0.0
 27
1.0
 37
0.0
 76
     0
330
23
  0
LAYOUT
  5
22
102
{ACAD_REACTORS
330
1A
102
}
330
1A
100
AcDbPlotSettings
  1

  2
none_device
  4

  6

 40
0.0
 41
0.0
 42
0.0
 43
0.0
 44
0.0
 45
0.0
 46
0.0
 47
0.0
 48
0.0
 49
0.0
140
0.0
141
0.0
142
1.0
143
1.0
 70
  1712
 72
     0
 73
     0
 74
     0
  7

 75
     0
 76
     0
 77
     2
 78
   300
147
1.0
148
0.0
149
0.0
100
AcDbLayout
  1
Model
 70
     1
 71
     0
 10
0.0
 20
0.0
 11
12.0
 21
9.0
 12
0.0
 22
0.0
 32
0.0
 14
1.000000000000000E+20
 24
1.000000000000000E+20
 34
1.000000000000000E+20
 15
-1.000000000000000E+20
 25
-1.000000000000000E+20
 35
-1.000000000000000E+20
146
0.0
 13
0.0
 23
0.0
 33
0.0
 16
1.0
 26
0.0
 36
0.0
 17
0.0
 27
1.0
 37
0.0
 76
     0
330
1F
331
29
  0
MATERIAL
  5
3D
102
{ACAD_REACTORS
330
3B
102
}
330
3B
100
AcDbMaterial
  1
ByBlock
 72
     1
 94
      127
  0
MATERIAL
  5
3C
102
{ACAD_REACTORS
330
3B
102
}
330
3B
100
AcDbMaterial
  1
ByLayer
 72
     1
 94
      127
  0
MATERIAL
  5
3E
102
{ACAD_REACTORS
330
3B
102
}
330
3B
100
AcDbMaterial
  1
Global
 72
     1
 94
      127
  0
MLINESTYLE
  5
18
102
{ACAD_REACTORS
330
17
102
}
330
17
100
AcDbMlineStyle
  2
Standard
 70
     0
  3

 62
   256
 51
90.0
 52
90.0
 71
     2
 49
0.5
 62
   256
  6
BYLAYER
 49
-0.5
 62
   256
  6
BYLAYER
  0
ACDBPLACEHOLDER
  5
F
102
{ACAD_REACTORS
330
E
102
}
330
E
  0
VISUALSTYLE
  5
2F
102
{ACAD_REACTORS
330
2A
102
}
330
2A
100
AcDbVisualStyle
  2
2dWireframe
 70
     4
177
     2
291
     0
 71
     0
176
     1
 72
     2
176
     1
 73
     0
176
     1
 90
        0
176
     1
 40
-0.6
176
     1
 41
-30.0
176
     1
 62
     5
 63
     7
421
 16777215
176
     1
 74
     1
176
     1
 91
        4
176
     1
 64
     7
176
     1
 65
   257
176
     1
 75
     1
176
     1
175
     1
176
     1
 42
1.0
176
     1
 92
        0
176
     1
 66
   257
176
     1
 43
1.0
176
     1
 76
     1
176
     1
 77
     6
176
     1
 78
     2
176
     1
 67
     7
176
     1
 79
     5
176
     1
170
     0
176
     1
171
     0
176
     1
290
     0
176
     1
 93
        1
176
     1
 44
0.0
176
     1
173
     0
176
     1
  0
VISUALSTYLE
  5
31
102
{ACAD_REACTORS
330
2A
102
}
330
2A
100
AcDbVisualStyle
  2
3D Hidden
 70
     6
177
     2
291
     0
 71
     1
176
     1
 72
     2
176
     1
 73
     2
176
     1
 90
        0
176
     1
 40
-0.6
176
     1
 41
-30.0
176
     1
 62
     5
 63
     7
421
 16777215
176
     1
 74
     2
176
     1
 91
        2
176
     1
 64
     7
176
     1
 65
   257
176
     1
 75
     2
176
     1
175
     1
176
     1
 42
40.0
176
     1
 92
        0
176
     1
 66
   257
176
     1
 43
1.0
176
     1
 76
     1
176
     1
 77
     6
176
     1
 78
     2
176
     1
 67
     7
176
     1
 79
     3
176
     1
170
     0
176
     1
171
     0
176
     1
290
     0
176
     1
 93
        1
176
     1
 44
0.0
176
     1
173
     0
176
     1
  0
VISUALSTYLE
  5
30
102
{ACAD_REACTORS
330
2A
102
}
330
2A
100
AcDbVisualStyle
  2
3dWireframe
 70
     5
177
     2
291
     0
 71
     0
176
     1
 72
     2
176
     1
 73
     0
176
     1
 90
        0
176
     1
 40
-0.6
176
     1
 41
-30.0
176
     1
 62
     5
 63
     7
421
 16777215
176
     1
 74
     1
176
     1
 91
        4
176
     1
 64
     7
176
     1
 65
   257
176
     1
 75
     1
176
     1
175
     1
176
     1
 42
1.0
176
     1
 92
        0
176
     1
 66
   257
176
     1
 43
1.0
176
     1
 76
     1
176
     1
 77
     6
176
     1
 78
     2
176
     1
 67
     7
176
     1
 79
     5
176
     1
170
     0
176
     1
171
     0
176
     1
290
     0
176
     1
 93
        1
176
     1
 44
0.0
176
     1
173
     0
176
     1
  0
VISUALSTYLE
  5
32
102
{ACAD_REACTORS
330
2A
102
}
330
2A
100
AcDbVisualStyle
  2
Basic
 70
     7
177
     2
291
     1
 71
     1
176
     1
 72
     0
176
     1
 73
     1
176
     1
 90
        0
176
     1
 40
-0.6
176
     1
 41
-30.0
176
     1
 62
     5
 63
     7
421
 16777215
176
     1
 74
     0
176
     1
 91
        4
176
     1
 64
     7
176
     1
 65
   257
176
     1
 75
     1
176
     1
175
     1
176
     1
 42
1.0
176
     1
 92
        8
176
     1
 66
     7
176
     1
 43
1.0
176
     1
 76
     1
176
     1
 77
     6
176
     1
 78
     2
176
     1
 67
     7
176
     1
 79
     5
176
     1
170
     0
176
     1
171
     0
176
     1
290
     0
176
     1
 93
        1
176
     1
 44
0.0
176
     1
173
     0
176
     1
  0
VISUALSTYLE
  5
36
102
{ACAD_REACTORS
330
2A
102
}
330
2A
100
AcDbVisualStyle
  2
Brighten
 70
    12
177
     2
291
     1
 71
     2
176
     1
 72
     2
176
     1
 73
     0
176
     1
 90
        0
176
     1
 40
-0.6
176
     1
 41
-30.0
176
     1
 62
     5
 63
     7
421
 16777215
176
     1
 74
     1
176
     1
 91
        4
176
     1
 64
     7
176
     1
 65
   257
176
     1
 75
     1
176
     1
175
     1
176
     1
 42
1.0
176
     1
 92
        8
176
     1
 66
     7
176
     1
 43
1.0
176
     1
 76
     1
176
     1
 77
     6
176
     1
 78
     2
176
     1
 67
     7
176
     1
 79
     5
176
     1
170
     0
176
     1
171
     0
176
     1
290
     0
176
     1
 93
        1
176
     1
 44
50.0
176
     1
173
     0
176
     1
  0
VISUALSTYLE
  5
3A
102
{ACAD_REACTORS
330
2A
102
}
330
2A
100
AcDbVisualStyle
  2
ColorChange
 70
    16
177
     2
291
     1
 71
     2
176
     1
 72
     2
176
     1
 73
     3
176
     1
 90
        0
176
     1
 40
-0.6
176
     1
 41
-30.0
176
     1
 62
     5
 63
     8
421
  8421504
176
     1
 74
     1
176
     1
 91
        4
176
     1
 64
     7
176
     1
 65
   257
176
     1
 75
     1
176
     1
175
     1
176
     1
 42
1.0
176
     1
 92
        8
176
     1
 66
     8
424
  8421504
176
     1
 43
1.0
176
     1
 76
     1
176
     1
 77
     6
176
     1
 78
     2
176
     1
 67
     7
176
     1
 79
     5
176
     1
170
     0
176
     1
171
     0
176
     1
290
     0
176
     1
 93
        1
176
     1
 44
0.0
176
     1
173
     0
176
     1
  0
VISUALSTYLE
  5
34
102
{ACAD_REACTORS
330
2A
102
}
330
2A
100
AcDbVisualStyle
  2
Conceptual
 70
     9
177
     2
291
     0
 71
     3
176
     1
 72
     2
176
     1
 73
     0
176
     1
 90
        0
176
     1
 40
-0.6
176
     1
 41
-30.0
176
     1
 62
     5
 63
     7
421
 16777215
176
     1
 74
     2
176
     1
 91
        2
176
     1
 64
     7
176
     1
 65
   257
176
     1
 75
     1
176
     1
175
     1
176
     1
 42
40.0
176
     1
 92
        8
176
     1
 66
     7
176
     1
 43
1.0
176
     1
 76
     1
176
     1
 77
     6
176
     1
 78
     2
176
     1
 67
     7
176
     1
 79
     3
176
     1
170
     0
176
     1
171
     0
176
     1
290
     0
176
     1
 93
        1
176
     1
 44
0.0
176
     1
173
     0
176
     1
  0
VISUALSTYLE
  5
35
102
{ACAD_REACTORS
330
2A
102
}
330
2A
100
AcDbVisualStyle
  2
Dim
 70
    11
177
     2
291
     1
 71
     2
176
     1
 72
     2
176
     1
 73
     0
176
     1
 90
        0
176
     1
 40
-0.6
176
     1
 41
-30.0
176
     1
 62
     5
 63
     7
421
 16777215
176
     1
 74
     1
176
     1
 91
        4
176
     1
 64
     7
176
     1
 65
   257
176
     1
 75
     1
176
     1
175
     1
176
     1
 42
1.0
176
     1
 92
        8
176
     1
 66
     7
176
     1
 43
1.0
176
     1
 76
     1
176
     1
 77
     6
176
     1
 78
     2
176
     1
 67
     7
176
     1
 79
     5
176
     1
170
     0
176
     1
171
     0
176
     1
290
     0
176
     1
 93
        1
176
     1
 44
-50.0
176
     1
173
     0
176
     1
  0
VISUALSTYLE
  5
39
102
{ACAD_REACTORS
330
2A
102
}
330
2A
100
AcDbVisualStyle
  2
Facepattern
 70
    15
177
     2
291
     1
 71
     2
176
     1
 72
     2
176
     1
 73
     0
176
     1
 90
        0
176
     1
 40
-0.6
176
     1
 41
-30.0
176
     1
 62
     5
 63
     7
421
 16777215
176
     1
 74
     1
176
     1
 91
        4
176
     1
 64
     7
176
     1
 65
   257
176
     1
 75
     1
176
     1
175
     1
176
     1
 42
1.0
176
     1
 92
        8
176
     1
 66
     7
176
     1
 43
1.0
176
     1
 76
     1
176
     1
 77
     6
176
     1
 78
     2
176
     1
 67
     7
176
     1
 79
     5
176
     1
170
     0
176
     1
171
     0
176
     1
290
     0
176
     1
 93
        1
176
     1
 44
0.0
176
     1
173
     0
176
     1
  0
VISUALSTYLE
  5
2B
102
{ACAD_REACTORS
330
2A
102
}
330
2A
100
AcDbVisualStyle
  2
Flat
 70
     0
177
     2
291
     1
 71
     2
176
     1
 72
     1
176
     1
 73
     1
176
     1
 90
        2
176
     1
 40
-0.6
176
     1
 41
30.0
176
     1
 62
     5
 63
     7
421
 16777215
176
     1
 74
     0
176
     1
 91
        4
176
     1
 64
     7
176
     1
 65
   257
176
     1
 75
     1
176
     1
175
     1
176
     1
 42
1.0
176
     1
 92
        8
176
     1
 66
     7
176
     1
 43
1.0
176
     1
 76
     1
176
     1
 77
     6
176
     1
 78
     2
176
     1
 67
     7
176
     1
 79
     5
176
     1
170
     0
176
     1
171
     0
176
     1
290
     0
176
     1
 93
       13
176
     1
 44
0.0
176
     1
173
     0
176
     1
  0
VISUALSTYLE
  5
2C
102
{ACAD_REACTORS
330
2A
102
}
330
2A
100
AcDbVisualStyle
  2
FlatWithEdges
 70
     1
177
     2
291
     1
 71
     2
176
     1
 72
     1
176
     1
 73
     1
176
     1
 90
        2
176
     1
 40
-0.6
176
     1
 41
30.0
176
     1
 62
     5
 63
     7
421
 16777215
176
     1
 74
     1
176
     1
 91
        4
176
     1
 64
     7
176
     1
 65
   257
176
     1
 75
     1
176
     1
175
     1
176
     1
 42
1.0
176
     1
 92
        0
176
     1
 66
   257
176
     1
 43
1.0
176
     1
 76
     1
176
     1
 77
     6
176
     1
 78
     2
176
     1
 67
     7
176
     1
 79
     5
176
     1
170
     0
176
     1
171
     0
176
     1
290
     0
176
     1
 93
       13
176
     1
 44
0.0
176
     1
173
     0
176
     1
  0
VISUALSTYLE
  5
2D
102
{ACAD_REACTORS
330
2A
102
}
330
2A
100
AcDbVisualStyle
  2
Gouraud
 70
     2
177
     2
291
     1
 71
     2
176
     1
 72
     2
176
     1
 73
     1
176
     1
 90
        2
176
     1
 40
-0.6
176
     1
 41
30.0
176
     1
 62
     5
 63
     7
421
 16777215
176
     1
 74
     0
176
     1
 91
        4
176
     1
 64
     7
176
     1
 65
   257
176
     1
 75
     1
176
     1
175
     1
176
     1
 42
1.0
176
     1
 92
        0
176
     1
 66
     7
176
     1
 43
1.0
176
     1
 76
     1
176
     1
 77
     6
176
     1
 78
     2
176
     1
 67
     7
176
     1
 79
     5
176
     1
170
     0
176
     1
171
     0
176
     1
290
     0
176
     1
 93
       13
176
     1
 44
0.0
176
     1
173
     0
176
     1
  0
VISUALSTYLE
  5
2E
102
{ACAD_REACTORS
330
2A
102
}
330
2A
100
AcDbVisualStyle
  2
GouraudWithEdges
 70
     3
177
     2
291
     1
 71
     2
176
     1
 72
     2
176
     1
 73
     1
176
     1
 90
        2
176
     1
 40
-0.6
176
     1
 41
30.0
176
     1
 62
     5
 63
     7
421
 16777215
176
     1
 74
     1
176
     1
 91
        4
176
     1
 64
     7
176
     1
 65
   257
176
     1
 75
     1
176
     1
175
     1
176
     1
 42
1.0
176
     1
 92
        0
176
     1
 66
   257
176
     1
 43
1.0
176
     1
 76
     1
176
     1
 77
     6
176
     1
 78
     2
176
     1
 67
     7
176
     1
 79
     5
176
     1
170
     0
176
     1
171
     0
176
     1
290
     0
176
     1
 93
       13
176
     1
 44
0.0
176
     1
173
     0
176
     1
  0
VISUALSTYLE
  5
38
102
{ACAD_REACTORS
330
2A
102
}
330
2A
100
AcDbVisualStyle
  2
Linepattern
 70
    14
177
     2
291
     1
 71
     2
176
     1
 72
     2
176
     1
 73
     0
176
     1
 90
        0
176
     1
 40
-0.6
176
     1
 41
-30.0
176
     1
 62
     5
 63
     7
421
 16777215
176
     1
 74
     1
176
     1
 91
        4
176
     1
 64
     7
176
     1
 65
   257
176
     1
 75
     7
176
     1
175
     7
176
     1
 42
1.0
176
     1
 92
        8
176
     1
 66
     7
176
     1
 43
1.0
176
     1
 76
     1
176
     1
 77
     6
176
     1
 78
     2
176
     1
 67
     7
176
     1
 79
     5
176
     1
170
     0
176
     1
171
     0
176
     1
290
     0
176
     1
 93
        1
176
     1
 44
0.0
176
     1
173
     0
176
     1
  0
VISUALSTYLE
  5
33
102
{ACAD_REACTORS
330
2A
102
}
330
2A
100
AcDbVisualStyle
  2
Realistic
 70
     8
177
     2
291
     0
 71
     2
176
     1
 72
     2
176
     1
 73
     0
176
     1
 90
        0
176
     1
 40
-0.6
176
     1
 41
-30.0
176
     1
 62
     5
 63
     7
421
 16777215
176
     1
 74
     1
176
     1
 91
        0
176
     1
 64
     7
176
     1
 65
   257
176
     1
 75
     1
176
     1
175
     1
176
     1
 42
1.0
176
     1
 92
        8
176
     1
 66
     8
424
  7895160
176
     1
 43
1.0
176
     1
 76
     1
176
     1
 77
     6
176
     1
 78
     2
176
     1
 67
     7
176
     1
 79
     5
176
     1
170
     0
176
     1
171
     0
176
     1
290
     0
176
     1
 93
       13
176
     1
 44
0.0
176
     1
173
     0
176
     1
  0
VISUALSTYLE
  5
37
102
{ACAD_REACTORS
330
2A
102
}
330
2A
100
AcDbVisualStyle
  2
Thicken
 70
    13
177
     2
291
     1
 71
     2
176
     1
 72
     2
176
     1
 73
     0
176
     1
 90
        0
176
     1
 40
-0.6
176
     1
 41
-30.0
176
     1
 62
     5
 63
     7
421
 16777215
176
     1
 74
     1
176
     1
 91
        4
176
     1
 64
     7
176
     1
 65
   257
176
     1
 75
     1
176
     1
175
     1
176
     1
 42
1.0
176
     1
 92
       12
176
     1
 66
     7
176
     1
 43
1.0
176
     1
 76
     1
176
     1
 77
     6
176
     1
 78
     2
176
     1
 67
     7
176
     1
 79
     5
176
     1
170
     0
176
     1
171
     0
176
     1
290
     0
176
     1
 93
        1
176
     1
 44
0.0
176
     1
173
     0
176
     1
  0
ENDSEC
  0
EOF
