  0
SECTION
  2
HEADER
  9
$ACADVER
  1
AC1024
  9
$ACADMAINTVER
 70
     6
  9
$DWGCODEPAGE
  3
UNDEFINED
  9
$INSBASE
 10
0.0
 20
0.0
 30
0.0
  9
$EXTMIN
 10
1.000000000000000E+20
 20
1.000000000000000E+20
 30
1.000000000000000E+20
  9
$EXTMAX
 10
-1.000000000000000E+20
 20
-1.000000000000000E+20
 30
-1.000000000000000E+20
  9
$LIMMIN
 10
0.0
 20
0.0
  9
$LIMMAX
 10
12.0
 20
9.0
  9
$ORTHOMODE
 70
     0
  9
$REGENMODE
 70
     1
  9
$FILLMODE
 70
     1
  9
$QTEXTMODE
 70
     0
  9
$MIRRTEXT
 70
     1
  9
$LTSCALE
 40
1.0
  9
$ATTMODE
 70
     1
  9
$TEXTSIZE
 40
0.2
  9
$TRACEWID
 40
0.05
  9
$TEXTSTYLE
  7
Standard
  9
$CLAYER
  8
0
  9
$CELTYPE
  6
ByLayer
  9
$CECOLOR
 62
   256
  9
$CELTSCALE
 40
1.0
  9
$DISPSILH
 70
     0
  9
$DIMSCALE
 40
1.0
  9
$DIMASZ
 40
0.18
  9
$DIMEXO
 40
0.0625
  9
$DIMDLI
 40
0.38
  9
$DIMRND
 40
0.0
  9
$DIMDLE
 40
0.0
  9
$DIMEXE
 40
0.18
  9
$DIMTP
 40
0.0
  9
$DIMTM
 40
0.0
  9
$DIMTXT
 40
0.18
  9
$DIMCEN
 40
0.09
  9
$DIMTSZ
 40
0.0
  9
$DIMTOL
 70
     0
  9
$DIMLIM
 70
     0
  9
$DIMTIH
 70
     1
  9
$DIMTOH
 70
     1
  9
$DIMSE1
 70
     0
  9
$DIMSE2
 70
     0
  9
$DIMTAD
 70
     0
  9
$DIMZIN
 70
     0
  9
$DIMBLK
  1

  9
$DIMASO
 70
     1
  9
$DIMSHO
 70
     1
  9
$DIMPOST
  1

  9
$DIMAPOST
  1

  9
$DIMALT
 70
     0
  9
$DIMALTD
 70
     2
  9
$DIMALTF
 40
25.4
  9
$DIMLFAC
 40
1.0
  9
$DIMTOFL
 70
     0
  9
$DIMTVP
 40
0.0
  9
$DIMTIX
 70
     0
  9
$DIMSOXD
 70
     0
  9
$DIMSAH
 70
     0
  9
$DIMBLK1
  1

  9
$DIMBLK2
  1

  9
$DIMSTYLE
  2
Standard
  9
$DIMCLRD
 70
     0
  9
$DIMCLRE
 70
     0
  9
$DIMCLRT
 70
     0
  9
$DIMTFAC
 40
1.0
  9
$DIMGAP
 40
0.09
  9
$DIMJUST
 70
     0
  9
$DIMSD1
 70
     0
  9
$DIMSD2
 70
     0
  9
$DIMTOLJ
 70
     1
  9
$DIMTZIN
 70
     0
  9
$DIMALTZ
 70
     0
  9
$DIMALTTZ
 70
     0
  9
$DIMUPT
 70
     0
  9
$DIMDEC
 70
     4
  9
$DIMTDEC
 70
     4
  9
$DIMALTU
 70
     2
  9
$DIMALTTD
 70
     2
  9
$DIMTXSTY
  7
Standard
  9
$DIMAUNIT
 70
     0
  9
$DIMADEC
 70
     0
  9
$DIMALTRND
 40
0.0
  9
$DIMAZIN
 70
     0
  9
$DIMDSEP
 70
    46
  9
$DIMATFIT
 70
     3
  9
$DIMFRAC
 70
     0
  9
$DIMLDRBLK
  1

  9
$DIMLUNIT
 70
     2
  9
$DIMLWD
 70
    -2
  9
$DIMLWE
 70
    -2
  9
$DIMTMOVE
 70
     0
  9
$DIMFXL
 40
1.0
  9
$DIMFXLON
 70
     0
  9
$DIMJOGANG
 40
0.7853981633974483
  9
$DIMTFILL
 70
     0
  9
$DIMTFILLCLR
 70
     0
  9
$DIMARCSYM
 70
     0
  9
$DIMLTYPE
  6

  9
$DIMLTEX1
  6

  9
$DIMLTEX2
  6

  9
$DIMTXTDIRECTION
 70
     0
  9
$LUNITS
 70
     2
  9
$LUPREC
 70
     4
  9
$SKETCHINC
 40
0.1
  9
$FILLETRAD
 40
0.5
  9
$AUNITS
 70
     0
  9
$AUPREC
 70
     0
  9
$MENU
  1
.
  9
$ELEVATION
 40
0.0
  9
$PELEVATION
 40
0.0
  9
$THICKNESS
 40
0.0
  9
$LIMCHECK
 70
     0
  9
$CHAMFERA
 40
0.5
  9
$CHAMFERB
 40
0.5
  9
$CHAMFERC
 40
1.0
  9
$CHAMFERD
 40
0.0
  9
$SKPOLY
 70
     0
  9
$TDCREATE
 40
2457917.598993044
  9
$TDUCREATE
 40
2457917.223993056
  9
$TDUPDATE
 40
2457917.598993044
  9
$TDUUPDATE
 40
2457917.223993056
  9
$TDINDWG
 40
0.0000000116
  9
$TDUSRTIMER
 40
0.0000000116
  9
$USRTIMER
 70
     1
  9
$ANGBASE
 50
0.0
  9
$ANGDIR
 70
     0
  9
$PDMODE
 70
     0
  9
$PDSIZE
 40
0.0
  9
$PLINEWID
 40
0.0
  9
$SPLFRAME
 70
     0
  9
$SPLINETYPE
 70
     6
  9
$SPLINESEGS
 70
     8
  9
$HANDSEED
  5
9C
  9
$SURFTAB1
 70
     6
  9
$SURFTAB2
 70
     6
  9
$SURFTYPE
 70
     6
  9
$SURFU
 70
     6
  9
$SURFV
 70
     6
  9
$UCSBASE
  2

  9
$UCSNAME
  2

  9
$UCSORG
 10
0.0
 20
0.0
 30
0.0
  9
$UCSXDIR
 10
1.0
 20
0.0
 30
0.0
  9
$UCSYDIR
 10
0.0
 20
1.0
 30
0.0
  9
$UCSORTHOREF
  2

  9
$UCSORTHOVIEW
 70
     0
  9
$UCSORGTOP
 10
0.0
 20
0.0
 30
0.0
  9
$UCSORGBOTTOM
 10
0.0
 20
0.0
 30
0.0
  9
$UCSORGLEFT
 10
0.0
 20
0.0
 30
0.0
  9
$UCSORGRIGHT
 10
0.0
 20
0.0
 30
0.0
  9
$UCSORGFRONT
 10
0.0
 20
0.0
 30
0.0
  9
$UCSORGBACK
 10
0.0
 20
0.0
 30
0.0
  9
$PUCSBASE
  2

  9
$PUCSNAME
  2

  9
$PUCSORG
 10
0.0
 20
0.0
 30
0.0
  9
$PUCSXDIR
 10
1.0
 20
0.0
 30
0.0
  9
$PUCSYDIR
 10
0.0
 20
1.0
 30
0.0
  9
$PUCSORTHOREF
  2

  9
$PUCSORTHOVIEW
 70
     0
  9
$PUCSORGTOP
 10
0.0
 20
0.0
 30
0.0
  9
$PUCSORGBOTTOM
 10
0.0
 20
0.0
 30
0.0
  9
$PUCSORGLEFT
 10
0.0
 20
0.0
 30
0.0
  9
$PUCSORGRIGHT
 10
0.0
 20
0.0
 30
0.0
  9
$PUCSORGFRONT
 10
0.0
 20
0.0
 30
0.0
  9
$PUCSORGBACK
 10
0.0
 20
0.0
 30
0.0
  9
$USERI1
 70
     0
  9
$USERI2
 70
     0
  9
$USERI3
 70
     0
  9
$USERI4
 70
     0
  9
$USERI5
 70
     0
  9
$USERR1
 40
0.0
  9
$USERR2
 40
0.0
  9
$USERR3
 40
0.0
  9
$USERR4
 40
0.0
  9
$USERR5
 40
0.0
  9
$WORLDVIEW
 70
     1
  9
$SHADEDGE
 70
     3
  9
$SHADEDIF
 70
    70
  9
$TILEMODE
 70
     1
  9
$MAXACTVP
 70
    64
  9
$PINSBASE
 10
0.0
 20
0.0
 30
0.0
  9
$PLIMCHECK
 70
     0
  9
$PEXTMIN
 10
1.000000000000000E+20
 20
1.000000000000000E+20
 30
1.000000000000000E+20
  9
$PEXTMAX
 10
-1.000000000000000E+20
 20
-1.000000000000000E+20
 30
-1.000000000000000E+20
  9
$PLIMMIN
 10
0.0
 20
0.0
  9
$PLIMMAX
 10
12.0
 20
9.0
  9
$UNITMODE
 70
     0
  9
$VISRETAIN
 70
     1
  9
$PLINEGEN
 70
     0
  9
$PSLTSCALE
 70
     1
  9
$TREEDEPTH
 70
  3020
  9
$CMLSTYLE
  2
Standard
  9
$CMLJUST
 70
     0
  9
$CMLSCALE
 40
1.0
  9
$PROXYGRAPHICS
 70
     1
  9
$MEASUREMENT
 70
     0
  9
$CELWEIGHT
370
    -1
  9
$ENDCAPS
280
     0
  9
$JOINSTYLE
280
     0
  9
$LWDISPLAY
290
     1
  9
$INSUNITS
 70
     1
  9
$HYPERLINKBASE
  1

  9
$STYLESHEET
  1

  9
$XEDIT
290
     1
  9
$CEPSNTYPE
380
     0
  9
$PSTYLEMODE
290
     1
  9
$FINGERPRINTGUID
  2
{1ABF83D4-A15E-384A-9C33-E986C7701E5A}
  9
$VERSIONGUID
  2
{FAEB1C32-E019-11D5-929B-00C0DF256EC4}
  9
$EXTNAMES
290
     1
  9
$PSVPSCALE
 40
0.0
  9
$OLESTARTUP
290
     0
  9
$SORTENTS
280
   127
  9
$INDEXCTL
280
     0
  9
$HIDETEXT
280
     1
  9
$XCLIPFRAME
280
     2
  9
$HALOGAP
280
     0
  9
$OBSCOLOR
 70
   257
  9
$OBSLTYPE
280
     0
  9
$INTERSECTIONDISPLAY
280
     0
  9
$INTERSECTIONCOLOR
 70
   257
  9
$DIMASSOC
280
     2
  9
$PROJECTNAME
  1

  9
$CAMERADISPLAY
290
     0
  9
$LENSLENGTH
 40
50.0
  9
$CAMERAHEIGHT
 40
0.0
  9
$STEPSPERSEC
 40
2.0
  9
$STEPSIZE
 40
6.0
  9
$3DDWFPREC
 40
2.0
  9
$PSOLWIDTH
 40
0.25
  9
$PSOLHEIGHT
 40
4.0
  9
$LOFTANG1
 40
1.570796326794897
  9
$LOFTANG2
 40
1.570796326794897
  9
$LOFTMAG1
 40
0.0
  9
$LOFTMAG2
 40
0.0
  9
$LOFTPARAM
 70
     7
  9
$LOFTNORMALS
280
     1
  9
$LATITUDE
 40
37.795
  9
$LONGITUDE
 40
-122.394
  9
$NORTHDIRECTION
 40
0.0
  9
$TIMEZONE
 70
 -8000
  9
$LIGHTGLYPHDISPLAY
280
     1
  9
$TILEMODELIGHTSYNCH
280
     1
  9
$CMATERIAL
347
3C
  9
$SOLIDHIST
280
     1
  9
$SHOWHIST
280
     1
  9
$DWFFRAME
280
     2
  9
$DGNFRAME
280
     2
  9
$REALWORLDSCALE
290
     1
  9
$INTERFERECOLOR
 62
   256
  9
$CSHADOW
280
     0
  9
$SHADOWPLANELOCATION
 40
0.0
  0
ENDSEC
  0
SECTION
  2
CLASSES
  0
CLASS
  1
ACDBDICTIONARYWDFLT
  2
AcDbDictionaryWithDefault
  3
ObjectDBX Classes
 90
        0
 91
        4
280
     0
281
     0
  0
CLASS
  1
VISUALSTYLE
  2
AcDbVisualStyle
  3
ObjectDBX Classes
 90
     4095
 91
        4
280
     0
281
     0
  0
CLASS
  1
MATERIAL
  2
AcDbMaterial
  3
ObjectDBX Classes
 90
     1153
 91
        4
280
     0
281
     0
  0
CLASS
  1
SUN
  2
AcDbSun
  3
SCENEOE
 90
     1024
 91
        4
280
     0
281
     0
  0
ENDSEC
  0
SECTION
  2
TABLES
  0
TABLE
  2
VPORT
  5
8
330
0
100
AcDbSymbolTable
 70
     1
  0
VPORT
  5
29
330
8
100
AcDbSymbolTableRecord
100
AcDbViewportTableRecord
  2
*Active
 70
     0
 10
0.0
 20
0.0
 11
1.0
 21
1.0
 12
0.0
 22
0.0
 13
0.0
 23
0.0
 14
0.5
 24
0.5
 15
0.5
 25
0.5
 16
0.0
 26
0.0
 36
1.0
 17
91.00082462281999
 27
-128.4993055234307
 37
0.0
 40
256.9986110468615
 41
0.7081814508812795
 42
50.0
 43
0.0
 44
0.0
 50
0.0
 51
0.0
 71
     0
 72
   100
 73
     1
 74
     3
 75
     0
 76
     0
 77
     0
 78
     0
281
     0
 65
     1
110
0.0
120
0.0
130
0.0
111
1.0
121
0.0
131
0.0
112
0.0
122
1.0
132
0.0
 79
     0
146
0.0
 60
     3
 61
     5
292
     1
282
     1
141
0.0
142
0.0
 63
   250
361
3F
  0
ENDTAB
  0
TABLE
  2
LTYPE
  5
5
330
0
100
AcDbSymbolTable
 70
     1
  0
LTYPE
  5
14
330
5
100
AcDbSymbolTableRecord
100
AcDbLinetypeTableRecord
  2
ByBlock
 70
     0
  3

 72
    65
 73
     0
 40
0.0
  0
LTYPE
  5
15
330
5
100
AcDbSymbolTableRecord
100
AcDbLinetypeTableRecord
  2
ByLayer
 70
     0
  3

 72
    65
 73
     0
 40
0.0
  0
LTYPE
  5
16
330
5
100
AcDbSymbolTableRecord
100
AcDbLinetypeTableRecord
  2
Continuous
 70
     0
  3
Solid line
 72
    65
 73
     0
 40
0.0
  0
ENDTAB
  0
TABLE
  2
LAYER
  5
2
330
0
100
AcDbSymbolTable
 70
     2
  0
LAYER
  5
10
330
2
100
AcDbSymbolTableRecord
100
AcDbLayerTableRecord
  2
0
 70
     0
 62
     7
  6
Continuous
370
    -3
390
F
347
3E
  0
LAYER
  5
40
330
2
100
AcDbSymbolTableRecord
100
AcDbLayerTableRecord
  2
_U+30EC_U+30A4_U+30E4_U+30FC 1
 70
     0
 62
     7
  6
Continuous
370
    -3
390
F
347
3E
  0
ENDTAB
  0
TABLE
  2
STYLE
  5
3
330
0
100
AcDbSymbolTable
 70
     1
  0
STYLE
  5
11
330
3
100
AcDbSymbolTableRecord
100
AcDbTextStyleTableRecord
  2
Standard
 70
     0
 40
0.0
 41
1.0
 50
0.0
 71
     0
 42
0.2
  3
txt
  4

  0
ENDTAB
  0
TABLE
  2
VIEW
  5
6
330
0
100
AcDbSymbolTable
 70
     0
  0
ENDTAB
  0
TABLE
  2
UCS
  5
7
330
0
100
AcDbSymbolTable
 70
     0
  0
ENDTAB
  0
TABLE
  2
APPID
  5
9
330
0
100
AcDbSymbolTable
 70
     1
  0
APPID
  5
12
330
9
100
AcDbSymbolTableRecord
100
AcDbRegAppTableRecord
  2
ACAD
 70
     0
  0
ENDTAB
  0
TABLE
  2
DIMSTYLE
  5
A
330
0
100
AcDbSymbolTable
 70
     1
100
AcDbDimStyleTable
  0
DIMSTYLE
105
27
330
A
100
AcDbSymbolTableRecord
100
AcDbDimStyleTableRecord
  2
Standard
 70
     0
178
     0
340
11
  0
ENDTAB
  0
TABLE
  2
BLOCK_RECORD
  5
1
330
0
100
AcDbSymbolTable
 70
     5
  0
BLOCK_RECORD
  5
1F
330
1
100
AcDbSymbolTableRecord
100
AcDbBlockTableRecord
  2
*Model_Space
340
22
 70
     0
280
     1
281
     0
  0
BLOCK_RECORD
  5
1B
330
1
100
AcDbSymbolTableRecord
100
AcDbBlockTableRecord
  2
*Paper_Space
340
1E
 70
     0
280
     1
281
     0
  0
BLOCK_RECORD
  5
23
330
1
100
AcDbSymbolTableRecord
100
AcDbBlockTableRecord
  2
*Paper_Space0
340
26
 70
     0
280
     1
281
     0
  0
BLOCK_RECORD
  5
4F
330
1
100
AcDbSymbolTableRecord
100
AcDbBlockTableRecord
  2
block 2
340
0
102
{BLKREFS
331
50
102
}
 70
     0
280
     1
281
     0
  0
BLOCK_RECORD
  5
71
330
1
100
AcDbSymbolTableRecord
100
AcDbBlockTableRecord
  2
block 3
340
0
102
{BLKREFS
331
72
102
}
 70
     0
280
     1
281
     0
  0
BLOCK_RECORD
  5
7A
330
1
100
AcDbSymbolTableRecord
100
AcDbBlockTableRecord
  2
block 4
340
0
102
{BLKREFS
331
7B
102
}
 70
     0
280
     1
281
     0
  0
BLOCK_RECORD
  5
83
330
1
100
AcDbSymbolTableRecord
100
AcDbBlockTableRecord
  2
block 5
340
0
102
{BLKREFS
331
84
102
}
 70
     0
280
     1
281
     0
  0
ENDTAB
  0
ENDSEC
  0
SECTION
  2
BLOCKS
  0
BLOCK
  5
20
330
1F
100
AcDbEntity
  8
0
100
AcDbBlockBegin
  2
*Model_Space
 70
     0
 10
0.0
 20
0.0
 30
0.0
  3
*Model_Space
  1

  0
ENDBLK
  5
21
330
1F
100
AcDbEntity
  8
0
100
AcDbBlockEnd
  0
BLOCK
  5
1C
330
1B
100
AcDbEntity
 67
     1
  8
0
100
AcDbBlockBegin
  2
*Paper_Space
 70
     0
 10
0.0
 20
0.0
 30
0.0
  3
*Paper_Space
  1

  0
ENDBLK
  5
1D
330
1B
100
AcDbEntity
 67
     1
  8
0
100
AcDbBlockEnd
  0
BLOCK
  5
24
330
23
100
AcDbEntity
  8
0
100
AcDbBlockBegin
  2
*Paper_Space0
 70
     0
 10
0.0
 20
0.0
 30
0.0
  3
*Paper_Space0
  1

  0
ENDBLK
  5
25
330
23
100
AcDbEntity
  8
0
100
AcDbBlockEnd
  0
BLOCK
  5
51
330
4F
100
AcDbEntity
  8
0
100
AcDbBlockBegin
  2
block 2
 70
     0
 10
0.0
 20
0.0
 30
0.0
  3
block 2
  1

  0
SPLINE
  5
53
330
4F
100
AcDbEntity
  8
_U+30EC_U+30A4_U+30E4_U+30FC 1
370
     0
100
AcDbSpline
210
0.0
220
0.0
230
1.0
 70
    11
 71
     3
 72
    62
 73
    58
 74
     0
 42
0.0000000001
 43
0.0000000001
 12
1.0
 22
0.0
 32
0.0
 13
1.0
 23
0.0
 33
0.0
 40
0.0
 40
0.0
 40
0.0
 40
0.0
 40
1.0
 40
1.0
 40
1.0
 40
2.0
 40
2.0
 40
2.0
 40
3.0
 40
3.0
 40
3.0
 40
4.0
 40
4.0
 40
4.0
 40
5.0
 40
5.0
 40
5.0
 40
6.0
 40
6.0
 40
6.0
 40
7.0
 40
7.0
 40
7.0
 40
8.0
 40
8.0
 40
8.0
 40
9.0
 40
9.0
 40
9.0
 40
10.0
 40
10.0
 40
10.0
 40
11.0
 40
11.0
 40
11.0
 40
12.0
 40
12.0
 40
12.0
 40
13.0
 40
13.0
 40
13.0
 40
14.0
 40
14.0
 40
14.0
 40
15.0
 40
15.0
 40
15.0
 40
16.0
 40
16.0
 40
16.0
 40
17.0
 40
17.0
 40
17.0
 40
18.0
 40
18.0
 40
18.0
 40
19.0
 40
19.0
 40
19.0
 40
19.0
 10
105.1822102601628
 20
-134.2484808692157
 30
0.0
 10
105.1822102601628
 20
-134.3439100141571
 30
0.0
 10
105.1611951777028
 20
-134.5616400488249
 30
0.0
 10
104.9751600214993
 20
-134.6866970149395
 30
0.0
 10
104.8628499086801
 20
-134.7604220583238
 30
0.0
 10
104.7636311587049
 20
-134.7649006824546
 30
0.0
 10
104.6788818097678
 20
-134.7690347970369
 30
0.0
 10
104.6788818097678
 20
-134.7690347970369
 30
0.0
 10
104.6788818097678
 20
-134.5488931955294
 30
0.0
 10
104.6788818097678
 20
-134.5488931955294
 30
0.0
 10
104.7529513627007
 20
-134.5468261382383
 30
0.0
 10
104.9875623652462
 20
-134.5364908517826
 30
0.0
 10
104.9875623652462
 20
-134.2529594933465
 30
0.0
 10
104.9875623652462
 20
-134.115500183485
 30
0.0
 10
104.9179714364441
 20
-133.9628824534884
 30
0.0
 10
104.6895616057721
 20
-133.9628824534884
 30
0.0
 10
104.5731173783706
 20
-133.9628824534884
 30
0.0
 10
104.5245415320286
 20
-134.0011230133747
 30
0.0
 10
104.4928466535643
 20
-134.032817891839
 30
0.0
 10
104.4187771006314
 20
-134.1068874447719
 30
0.0
 10
104.406030247336
 20
-134.2233316721733
 30
0.0
 10
104.406030247336
 20
-134.2781086903888
 30
0.0
 10
104.406030247336
 20
-134.2974012251062
 30
0.0
 10
104.4080973046271
 20
-134.3332302181528
 30
0.0
 10
104.4122314192094
 20
-134.3607909820348
 30
0.0
 10
104.4122314192094
 20
-134.3607909820348
 30
0.0
 10
104.2175835242928
 20
-134.3607909820348
 30
0.0
 10
104.2175835242928
 20
-134.3607909820348
 30
0.0
 10
104.2241292057148
 20
-134.3225504221485
 30
0.0
 10
104.226196263006
 20
-134.2805202572285
 30
0.0
 10
104.226196263006
 20
-134.2739745758065
 30
0.0
 10
104.226196263006
 20
-134.2085177615868
 30
0.0
 10
104.2048366709974
 20
-134.0097357520879
 30
0.0
 10
103.9681586111607
 20
-134.0097357520879
 30
0.0
 10
103.7903916841219
 20
-134.0097357520879
 30
0.0
 10
103.7352701563579
 20
-134.1406493805273
 30
0.0
 10
103.7352701563579
 20
-134.2508924360554
 30
0.0
 10
103.7352701563579
 20
-134.515131259774
 30
0.0
 10
103.9681586111607
 20
-134.5237439984871
 30
0.0
 10
104.0398165972539
 20
-134.5278781130694
 30
0.0
 10
104.0398165972539
 20
-134.5278781130694
 30
0.0
 10
104.0398165972539
 20
-134.7311387466992
 30
0.0
 10
104.0398165972539
 20
-134.7311387466992
 30
0.0
 10
103.9151041406879
 20
-134.722526007986
 30
0.0
 10
103.5385552041501
 20
-134.6949652441041
 30
0.0
 10
103.5385552041501
 20
-134.2381455827599
 30
0.0
 10
103.5385552041501
 20
-134.0138698666701
 30
0.0
 10
103.6656792275558
 20
-133.7727131827027
 30
0.0
 10
103.9616129297388
 20
-133.7727131827027
 30
0.0
 10
104.1479925954908
 20
-133.7727131827027
 30
0.0
 10
104.2303303775883
 20
-133.8677978180956
 30
0.0
 10
104.2916530772257
 20
-133.9673610776193
 30
0.0
 10
104.3192138411077
 20
-133.9060383779818
 30
0.0
 10
104.399484565914
 20
-133.7241373363606
 30
0.0
 10
104.6768147524766
 20
-133.7241373363606
 30
0.0
 10
105.0151231291282
 20
-133.7241373363606
 30
0.0
 10
105.1822102601628
 20
-133.9714951922016
 30
0.0
 10
105.1822102601628
 20
-134.2484808692157
 30
0.0
  0
HATCH
  5
54
330
4F
100
AcDbEntity
  8
_U+30EC_U+30A4_U+30E4_U+30FC 1
 62
   179
420
  2234388
100
AcDbHatch
 10
0.0
 20
0.0
 30
0.0
210
0.0
220
0.0
230
1.0
  2
SOLID
 70
     1
 71
     0
 91
        1
 92
        1
 93
        1
 72
     4
 94
        3
 73
     0
 74
     1
 95
       62
 96
       58
 40
0.0
 40
0.0
 40
0.0
 40
0.0
 40
1.0
 40
1.0
 40
1.0
 40
2.0
 40
2.0
 40
2.0
 40
3.0
 40
3.0
 40
3.0
 40
4.0
 40
4.0
 40
4.0
 40
5.0
 40
5.0
 40
5.0
 40
6.0
 40
6.0
 40
6.0
 40
7.0
 40
7.0
 40
7.0
 40
8.0
 40
8.0
 40
8.0
 40
9.0
 40
9.0
 40
9.0
 40
10.0
 40
10.0
 40
10.0
 40
11.0
 40
11.0
 40
11.0
 40
12.0
 40
12.0
 40
12.0
 40
13.0
 40
13.0
 40
13.0
 40
14.0
 40
14.0
 40
14.0
 40
15.0
 40
15.0
 40
15.0
 40
16.0
 40
16.0
 40
16.0
 40
17.0
 40
17.0
 40
17.0
 40
18.0
 40
18.0
 40
18.0
 40
19.0
 40
19.0
 40
19.0
 40
19.0
 10
105.1822102601628
 20
-134.2484808692157
 10
105.1822102601628
 20
-134.3439100141571
 10
105.1611951777028
 20
-134.5616400488249
 10
104.9751600214993
 20
-134.6866970149395
 10
104.8628499086801
 20
-134.7604220583238
 10
104.7636311587049
 20
-134.7649006824546
 10
104.6788818097678
 20
-134.7690347970369
 10
104.6788818097678
 20
-134.7690347970369
 10
104.6788818097678
 20
-134.5488931955294
 10
104.6788818097678
 20
-134.5488931955294
 10
104.7529513627007
 20
-134.5468261382383
 10
104.9875623652462
 20
-134.5364908517826
 10
104.9875623652462
 20
-134.2529594933465
 10
104.9875623652462
 20
-134.115500183485
 10
104.9179714364441
 20
-133.9628824534884
 10
104.6895616057721
 20
-133.9628824534884
 10
104.5731173783706
 20
-133.9628824534884
 10
104.5245415320286
 20
-134.0011230133747
 10
104.4928466535643
 20
-134.032817891839
 10
104.4187771006314
 20
-134.1068874447719
 10
104.406030247336
 20
-134.2233316721733
 10
104.406030247336
 20
-134.2781086903888
 10
104.406030247336
 20
-134.2974012251062
 10
104.4080973046271
 20
-134.3332302181528
 10
104.4122314192094
 20
-134.3607909820348
 10
104.4122314192094
 20
-134.3607909820348
 10
104.2175835242928
 20
-134.3607909820348
 10
104.2175835242928
 20
-134.3607909820348
 10
104.2241292057148
 20
-134.3225504221485
 10
104.226196263006
 20
-134.2805202572285
 10
104.226196263006
 20
-134.2739745758065
 10
104.226196263006
 20
-134.2085177615868
 10
104.2048366709974
 20
-134.0097357520879
 10
103.9681586111607
 20
-134.0097357520879
 10
103.7903916841219
 20
-134.0097357520879
 10
103.7352701563579
 20
-134.1406493805273
 10
103.7352701563579
 20
-134.2508924360554
 10
103.7352701563579
 20
-134.515131259774
 10
103.9681586111607
 20
-134.5237439984871
 10
104.0398165972539
 20
-134.5278781130694
 10
104.0398165972539
 20
-134.5278781130694
 10
104.0398165972539
 20
-134.7311387466992
 10
104.0398165972539
 20
-134.7311387466992
 10
103.9151041406879
 20
-134.722526007986
 10
103.5385552041501
 20
-134.6949652441041
 10
103.5385552041501
 20
-134.2381455827599
 10
103.5385552041501
 20
-134.0138698666701
 10
103.6656792275558
 20
-133.7727131827027
 10
103.9616129297388
 20
-133.7727131827027
 10
104.1479925954908
 20
-133.7727131827027
 10
104.2303303775883
 20
-133.8677978180956
 10
104.2916530772257
 20
-133.9673610776193
 10
104.3192138411077
 20
-133.9060383779818
 10
104.399484565914
 20
-133.7241373363606
 10
104.6768147524766
 20
-133.7241373363606
 10
105.0151231291282
 20
-133.7241373363606
 10
105.1822102601628
 20
-133.9714951922016
 10
105.1822102601628
 20
-134.2484808692157
 97
        0
 97
        0
 75
     2
 76
     1
 98
        0
  0
ENDBLK
  5
52
330
4F
100
AcDbEntity
  8
0
100
AcDbBlockEnd
  0
BLOCK
  5
73
330
71
100
AcDbEntity
  8
0
100
AcDbBlockBegin
  2
block 3
 70
     0
 10
0.0
 20
0.0
 30
0.0
  3
block 3
  1

  0
SPLINE
  5
75
330
71
100
AcDbEntity
  8
_U+30EC_U+30A4_U+30E4_U+30FC 1
370
     0
100
AcDbSpline
210
0.0
220
0.0
230
1.0
 70
    11
 71
     3
 72
    44
 73
    40
 74
     0
 42
0.0000000001
 43
0.0000000001
 12
1.0
 22
0.0
 32
0.0
 13
1.0
 23
0.0
 33
0.0
 40
0.0
 40
0.0
 40
0.0
 40
0.0
 40
1.0
 40
1.0
 40
1.0
 40
2.0
 40
2.0
 40
2.0
 40
3.0
 40
3.0
 40
3.0
 40
4.0
 40
4.0
 40
4.0
 40
5.0
 40
5.0
 40
5.0
 40
6.0
 40
6.0
 40
6.0
 40
7.0
 40
7.0
 40
7.0
 40
8.0
 40
8.0
 40
8.0
 40
9.0
 40
9.0
 40
9.0
 40
10.0
 40
10.0
 40
10.0
 40
11.0
 40
11.0
 40
11.0
 40
12.0
 40
12.0
 40
12.0
 40
13.0
 40
13.0
 40
13.0
 40
13.0
 10
91.34377846023698
 20
-138.562084926297
 30
0.0
 10
91.12604842556918
 20
-138.720903828167
 30
0.0
 10
91.03303084746744
 20
-138.7949733810999
 30
0.0
 10
90.9841104915769
 20
-138.9386338628348
 30
0.0
 10
90.9841104915769
 20
-138.9386338628348
 30
0.0
 10
91.76287432601762
 20
-138.9386338628348
 30
0.0
 10
91.76287432601762
 20
-138.9386338628348
 30
0.0
 10
91.76287432601762
 20
-138.9386338628348
 30
0.0
 10
91.76287432601762
 20
-139.1439615537557
 30
0.0
 10
91.76287432601762
 20
-139.1439615537557
 30
0.0
 10
91.76287432601762
 20
-139.1439615537557
 30
0.0
 10
90.73468557844481
 20
-139.1439615537557
 30
0.0
 10
90.73468557844481
 20
-139.1439615537557
 30
0.0
 10
90.7663804569091
 20
-138.7863606423867
 30
0.0
 10
90.83183727112885
 20
-138.7081569748716
 30
0.0
 10
91.21699894637979
 20
-138.4098117058489
 30
0.0
 10
91.47279728615958
 20
-138.21102969635
 30
0.0
 10
91.53825410037933
 20
-138.1431613152906
 30
0.0
 10
91.53825410037933
 20
-138.0057020054291
 30
0.0
 10
91.53825410037933
 20
-137.8871907207366
 30
0.0
 10
91.46659611428613
 20
-137.756277092297
 30
0.0
 10
91.2697089073041
 20
-137.756277092297
 30
0.0
 10
91.00960419816774
 20
-137.756277092297
 30
0.0
 10
91.00133596900314
 20
-137.9867539802603
 30
0.0
 10
90.99685734487231
 20
-138.1031982076617
 30
0.0
 10
90.99685734487231
 20
-138.1031982076617
 30
0.0
 10
90.77258162878255
 20
-138.1031982076617
 30
0.0
 10
90.77258162878255
 20
-138.1031982076617
 30
0.0
 10
90.78119436749567
 20
-137.976074184256
 30
0.0
 10
90.79187416349995
 20
-137.8641085809854
 30
0.0
 10
90.87214488830628
 20
-137.7455972962928
 30
0.0
 10
90.98204343428574
 20
-137.5847113371316
 30
0.0
 10
91.16842310003776
 20
-137.5509494013762
 30
0.0
 10
91.28452281789068
 20
-137.5509494013762
 30
0.0
 10
91.56168074967903
 20
-137.5509494013762
 30
0.0
 10
91.76907549789107
 20
-137.7349175002885
 30
0.0
 10
91.76907549789107
 20
-138.0077690627203
 30
0.0
 10
91.76907549789107
 20
-138.2365234029409
 30
0.0
 10
91.65263127048962
 20
-138.3357421529161
 30
0.0
 10
91.34377846023698
 20
-138.562084926297
 30
0.0
  0
HATCH
  5
76
330
71
100
AcDbEntity
  8
_U+30EC_U+30A4_U+30E4_U+30FC 1
 62
   179
420
  2234388
100
AcDbHatch
 10
0.0
 20
0.0
 30
0.0
210
0.0
220
0.0
230
1.0
  2
SOLID
 70
     1
 71
     0
 91
        1
 92
        1
 93
        1
 72
     4
 94
        3
 73
     0
 74
     1
 95
       44
 96
       40
 40
0.0
 40
0.0
 40
0.0
 40
0.0
 40
1.0
 40
1.0
 40
1.0
 40
2.0
 40
2.0
 40
2.0
 40
3.0
 40
3.0
 40
3.0
 40
4.0
 40
4.0
 40
4.0
 40
5.0
 40
5.0
 40
5.0
 40
6.0
 40
6.0
 40
6.0
 40
7.0
 40
7.0
 40
7.0
 40
8.0
 40
8.0
 40
8.0
 40
9.0
 40
9.0
 40
9.0
 40
10.0
 40
10.0
 40
10.0
 40
11.0
 40
11.0
 40
11.0
 40
12.0
 40
12.0
 40
12.0
 40
13.0
 40
13.0
 40
13.0
 40
13.0
 10
91.34377846023698
 20
-138.562084926297
 10
91.12604842556918
 20
-138.720903828167
 10
91.03303084746744
 20
-138.7949733810999
 10
90.9841104915769
 20
-138.9386338628348
 10
90.9841104915769
 20
-138.9386338628348
 10
91.76287432601762
 20
-138.9386338628348
 10
91.76287432601762
 20
-138.9386338628348
 10
91.76287432601762
 20
-138.9386338628348
 10
91.76287432601762
 20
-139.1439615537557
 10
91.76287432601762
 20
-139.1439615537557
 10
91.76287432601762
 20
-139.1439615537557
 10
90.73468557844481
 20
-139.1439615537557
 10
90.73468557844481
 20
-139.1439615537557
 10
90.7663804569091
 20
-138.7863606423867
 10
90.83183727112885
 20
-138.7081569748716
 10
91.21699894637979
 20
-138.4098117058489
 10
91.47279728615958
 20
-138.21102969635
 10
91.53825410037933
 20
-138.1431613152906
 10
91.53825410037933
 20
-138.0057020054291
 10
91.53825410037933
 20
-137.8871907207366
 10
91.46659611428613
 20
-137.756277092297
 10
91.2697089073041
 20
-137.756277092297
 10
91.00960419816774
 20
-137.756277092297
 10
91.00133596900314
 20
-137.9867539802603
 10
90.99685734487231
 20
-138.1031982076617
 10
90.99685734487231
 20
-138.1031982076617
 10
90.77258162878255
 20
-138.1031982076617
 10
90.77258162878255
 20
-138.1031982076617
 10
90.78119436749567
 20
-137.976074184256
 10
90.79187416349995
 20
-137.8641085809854
 10
90.87214488830628
 20
-137.7455972962928
 10
90.98204343428574
 20
-137.5847113371316
 10
91.16842310003776
 20
-137.5509494013762
 10
91.28452281789068
 20
-137.5509494013762
 10
91.56168074967903
 20
-137.5509494013762
 10
91.76907549789107
 20
-137.7349175002885
 10
91.76907549789107
 20
-138.0077690627203
 10
91.76907549789107
 20
-138.2365234029409
 10
91.65263127048962
 20
-138.3357421529161
 10
91.34377846023698
 20
-138.562084926297
 97
        0
 97
        0
 75
     2
 76
     1
 98
        0
  0
SPLINE
  5
77
330
71
100
AcDbEntity
  8
_U+30EC_U+30A4_U+30E4_U+30FC 1
370
     0
100
AcDbSpline
210
0.0
220
0.0
230
1.0
 70
    11
 71
     3
 72
    29
 73
    25
 74
     0
 42
0.0000000001
 43
0.0000000001
 12
1.0
 22
0.0
 32
0.0
 13
1.0
 23
0.0
 33
0.0
 40
0.0
 40
0.0
 40
0.0
 40
0.0
 40
1.0
 40
1.0
 40
1.0
 40
2.0
 40
2.0
 40
2.0
 40
3.0
 40
3.0
 40
3.0
 40
4.0
 40
4.0
 40
4.0
 40
5.0
 40
5.0
 40
5.0
 40
6.0
 40
6.0
 40
6.0
 40
7.0
 40
7.0
 40
7.0
 40
8.0
 40
8.0
 40
8.0
 40
8.0
 10
92.82534177366867
 20
-138.9661946267168
 30
0.0
 10
92.71716577543182
 20
-139.17565643222
 30
0.0
 10
92.54422198207229
 20
-139.1946044573889
 30
0.0
 10
92.42777775467084
 20
-139.1946044573889
 30
0.0
 10
92.26654728596114
 20
-139.1946044573889
 30
0.0
 10
92.1252983710659
 20
-139.148095668338
 30
0.0
 10
92.030213735673
 20
-138.9661946267168
 30
0.0
 10
91.92617185201846
 20
-138.7715467318002
 30
0.0
 10
91.90756833639811
 20
-138.5348686719635
 30
0.0
 10
91.90756833639811
 20
-138.3719156555112
 30
0.0
 10
91.90756833639811
 20
-138.2279106642277
 30
0.0
 10
91.92410479472731
 20
-137.976074184256
 30
0.0
 10
92.030213735673
 20
-137.7772921747571
 30
0.0
 10
92.1377007148128
 20
-137.5743760506759
 30
0.0
 10
92.2989311835225
 20
-137.5509494013762
 30
0.0
 10
92.42777775467084
 20
-137.5509494013762
 30
0.0
 10
92.58625214699234
 20
-137.5509494013762
 30
0.0
 10
92.73025713827577
 20
-137.5953911331359
 30
0.0
 10
92.82534177366867
 20
-137.7772921747571
 30
0.0
 10
92.92456052364386
 20
-137.9698730123825
 30
0.0
 10
92.94798717294357
 20
-138.1982828430546
 30
0.0
 10
92.94798717294357
 20
-138.3719156555112
 30
0.0
 10
92.94798717294357
 20
-138.5431369011281
 30
0.0
 10
92.92662758093502
 20
-138.7736137890913
 30
0.0
 10
92.82534177366867
 20
-138.9661946267168
 30
0.0
  0
SPLINE
  5
78
330
71
100
AcDbEntity
  8
_U+30EC_U+30A4_U+30E4_U+30FC 1
370
     0
100
AcDbSpline
210
0.0
220
0.0
230
1.0
 70
    11
 71
     3
 72
    17
 73
    13
 74
     0
 42
0.0000000001
 43
0.0000000001
 12
1.0
 22
0.0
 32
0.0
 13
1.0
 23
0.0
 33
0.0
 40
0.0
 40
0.0
 40
0.0
 40
0.0
 40
1.0
 40
1.0
 40
1.0
 40
2.0
 40
2.0
 40
2.0
 40
3.0
 40
3.0
 40
3.0
 40
4.0
 40
4.0
 40
4.0
 40
4.0
 10
92.42777775467084
 20
-137.7435302390016
 30
0.0
 10
92.17835284153875
 20
-137.7435302390016
 30
0.0
 10
92.13149954293935
 20
-138.0270615974377
 30
0.0
 10
92.13149954293935
 20
-138.3719156555112
 30
0.0
 10
92.13149954293935
 20
-138.6912760069939
 30
0.0
 10
92.16732853598594
 20
-138.9999565624722
 30
0.0
 10
92.42777775467084
 20
-138.9999565624722
 30
0.0
 10
92.67513561051177
 20
-138.9999565624722
 30
0.0
 10
92.72405596640232
 20
-138.7188367708758
 30
0.0
 10
92.72405596640232
 20
-138.3719156555112
 30
0.0
 10
92.72405596640232
 20
-138.05221079448
 30
0.0
 10
92.68547089696753
 20
-137.7435302390016
 30
0.0
 10
92.42777775467084
 20
-137.7435302390016
 30
0.0
  0
HATCH
  5
79
330
71
100
AcDbEntity
  8
_U+30EC_U+30A4_U+30E4_U+30FC 1
 62
   179
420
  2234388
100
AcDbHatch
 10
0.0
 20
0.0
 30
0.0
210
0.0
220
0.0
230
1.0
  2
SOLID
 70
     1
 71
     0
 91
        2
 92
        1
 93
        1
 72
     4
 94
        3
 73
     0
 74
     1
 95
       29
 96
       25
 40
0.0
 40
0.0
 40
0.0
 40
0.0
 40
1.0
 40
1.0
 40
1.0
 40
2.0
 40
2.0
 40
2.0
 40
3.0
 40
3.0
 40
3.0
 40
4.0
 40
4.0
 40
4.0
 40
5.0
 40
5.0
 40
5.0
 40
6.0
 40
6.0
 40
6.0
 40
7.0
 40
7.0
 40
7.0
 40
8.0
 40
8.0
 40
8.0
 40
8.0
 10
92.82534177366867
 20
-138.9661946267168
 10
92.71716577543182
 20
-139.17565643222
 10
92.54422198207229
 20
-139.1946044573889
 10
92.42777775467084
 20
-139.1946044573889
 10
92.26654728596114
 20
-139.1946044573889
 10
92.1252983710659
 20
-139.148095668338
 10
92.030213735673
 20
-138.9661946267168
 10
91.92617185201846
 20
-138.7715467318002
 10
91.90756833639811
 20
-138.5348686719635
 10
91.90756833639811
 20
-138.3719156555112
 10
91.90756833639811
 20
-138.2279106642277
 10
91.92410479472731
 20
-137.976074184256
 10
92.030213735673
 20
-137.7772921747571
 10
92.1377007148128
 20
-137.5743760506759
 10
92.2989311835225
 20
-137.5509494013762
 10
92.42777775467084
 20
-137.5509494013762
 10
92.58625214699234
 20
-137.5509494013762
 10
92.73025713827577
 20
-137.5953911331359
 10
92.82534177366867
 20
-137.7772921747571
 10
92.92456052364386
 20
-137.9698730123825
 10
92.94798717294357
 20
-138.1982828430546
 10
92.94798717294357
 20
-138.3719156555112
 10
92.94798717294357
 20
-138.5431369011281
 10
92.92662758093502
 20
-138.7736137890913
 10
92.82534177366867
 20
-138.9661946267168
 97
        0
 97
        0
 92
        1
 93
        1
 72
     4
 94
        3
 73
     0
 74
     1
 95
       17
 96
       13
 40
0.0
 40
0.0
 40
0.0
 40
0.0
 40
1.0
 40
1.0
 40
1.0
 40
2.0
 40
2.0
 40
2.0
 40
3.0
 40
3.0
 40
3.0
 40
4.0
 40
4.0
 40
4.0
 40
4.0
 10
92.42777775467084
 20
-137.7435302390016
 10
92.17835284153875
 20
-137.7435302390016
 10
92.13149954293935
 20
-138.0270615974377
 10
92.13149954293935
 20
-138.3719156555112
 10
92.13149954293935
 20
-138.6912760069939
 10
92.16732853598594
 20
-138.9999565624722
 10
92.42777775467084
 20
-138.9999565624722
 10
92.67513561051177
 20
-138.9999565624722
 10
92.72405596640232
 20
-138.7188367708758
 10
92.72405596640232
 20
-138.3719156555112
 10
92.72405596640232
 20
-138.05221079448
 10
92.68547089696753
 20
-137.7435302390016
 10
92.42777775467084
 20
-137.7435302390016
 97
        0
 97
        0
 75
     2
 76
     1
 98
        0
  0
ENDBLK
  5
74
330
71
100
AcDbEntity
  8
0
100
AcDbBlockEnd
  0
BLOCK
  5
7C
330
7A
100
AcDbEntity
  8
0
100
AcDbBlockBegin
  2
block 4
 70
     0
 10
0.0
 20
0.0
 30
0.0
  3
block 4
  1

  0
SPLINE
  5
7E
330
7A
100
AcDbEntity
  8
_U+30EC_U+30A4_U+30E4_U+30FC 1
370
     0
100
AcDbSpline
210
0.0
220
0.0
230
1.0
 70
    11
 71
     3
 72
    62
 73
    58
 74
     0
 42
0.0000000001
 43
0.0000000001
 12
1.0
 22
0.0
 32
0.0
 13
1.0
 23
0.0
 33
0.0
 40
0.0
 40
0.0
 40
0.0
 40
0.0
 40
1.0
 40
1.0
 40
1.0
 40
2.0
 40
2.0
 40
2.0
 40
3.0
 40
3.0
 40
3.0
 40
4.0
 40
4.0
 40
4.0
 40
5.0
 40
5.0
 40
5.0
 40
6.0
 40
6.0
 40
6.0
 40
7.0
 40
7.0
 40
7.0
 40
8.0
 40
8.0
 40
8.0
 40
9.0
 40
9.0
 40
9.0
 40
10.0
 40
10.0
 40
10.0
 40
11.0
 40
11.0
 40
11.0
 40
12.0
 40
12.0
 40
12.0
 40
13.0
 40
13.0
 40
13.0
 40
14.0
 40
14.0
 40
14.0
 40
15.0
 40
15.0
 40
15.0
 40
16.0
 40
16.0
 40
16.0
 40
17.0
 40
17.0
 40
17.0
 40
18.0
 40
18.0
 40
18.0
 40
19.0
 40
19.0
 40
19.0
 40
19.0
 10
76.0833834987743
 20
-140.2529377904576
 30
0.0
 10
75.98795435383288
 20
-140.2529377904576
 30
0.0
 10
75.77022431916508
 20
-140.2319227079976
 30
0.0
 10
75.64516735305051
 20
-140.0458875517941
 30
0.0
 10
75.57144230966617
 20
-139.9335774389749
 30
0.0
 10
75.56696368553534
 20
-139.8343586889997
 30
0.0
 10
75.56282957095304
 20
-139.7496093400626
 30
0.0
 10
75.56282957095304
 20
-139.7496093400626
 30
0.0
 10
75.7829711724605
 20
-139.7496093400626
 30
0.0
 10
75.7829711724605
 20
-139.7496093400626
 30
0.0
 10
75.78503822975166
 20
-139.8236788929955
 30
0.0
 10
75.7953735162074
 20
-140.058289895541
 30
0.0
 10
76.07890487464347
 20
-140.058289895541
 30
0.0
 10
76.21636418450494
 20
-140.058289895541
 30
0.0
 10
76.3689819145015
 20
-139.988698966739
 30
0.0
 10
76.3689819145015
 20
-139.7602891360669
 30
0.0
 10
76.3689819145015
 20
-139.6438449086654
 30
0.0
 10
76.33074135461524
 20
-139.5952690623234
 30
0.0
 10
76.29904647615093
 20
-139.5635741838591
 30
0.0
 10
76.22497692321807
 20
-139.4895046309262
 30
0.0
 10
76.10853269581662
 20
-139.4767577776308
 30
0.0
 10
76.05375567760115
 20
-139.4767577776308
 30
0.0
 10
76.03446314288375
 20
-139.4767577776308
 30
0.0
 10
75.99863414983714
 20
-139.478824834922
 30
0.0
 10
75.97107338595515
 20
-139.4829589495043
 30
0.0
 10
75.97107338595515
 20
-139.4829589495043
 30
0.0
 10
75.97107338595515
 20
-139.2883110545876
 30
0.0
 10
75.97107338595515
 20
-139.2883110545876
 30
0.0
 10
76.00931394584143
 20
-139.2948567360096
 30
0.0
 10
76.05134411076148
 20
-139.2969237933008
 30
0.0
 10
76.05788979218345
 20
-139.2969237933008
 30
0.0
 10
76.12334660640319
 20
-139.2969237933008
 30
0.0
 10
76.32212861590212
 20
-139.2755642012922
 30
0.0
 10
76.32212861590212
 20
-139.0388861414555
 30
0.0
 10
76.32212861590212
 20
-138.8611192144167
 30
0.0
 10
76.19121498746262
 20
-138.8059976866527
 30
0.0
 10
76.08097193193463
 20
-138.8059976866527
 30
0.0
 10
75.81673310821596
 20
-138.8059976866527
 30
0.0
 10
75.80812036950283
 20
-139.0388861414555
 30
0.0
 10
75.80398625492053
 20
-139.1105441275488
 30
0.0
 10
75.80398625492053
 20
-139.1105441275488
 30
0.0
 10
75.60072562129079
 20
-139.1105441275488
 30
0.0
 10
75.60072562129079
 20
-139.1105441275488
 30
0.0
 10
75.60933836000392
 20
-138.9858316709827
 30
0.0
 10
75.63689912388591
 20
-138.6092827344449
 30
0.0
 10
76.09371878523005
 20
-138.6092827344449
 30
0.0
 10
76.31799450131982
 20
-138.6092827344449
 30
0.0
 10
76.5591511852873
 20
-138.7364067578506
 30
0.0
 10
76.5591511852873
 20
-139.0323404600336
 30
0.0
 10
76.5591511852873
 20
-139.2187201257856
 30
0.0
 10
76.4640665498944
 20
-139.3010579078831
 30
0.0
 10
76.36450329037068
 20
-139.3623806075205
 30
0.0
 10
76.42582599000814
 20
-139.3899413714025
 30
0.0
 10
76.60772703162932
 20
-139.4702120962089
 30
0.0
 10
76.60772703162932
 20
-139.7475422827715
 30
0.0
 10
76.60772703162932
 20
-140.085850659423
 30
0.0
 10
76.36036917578838
 20
-140.2529377904576
 30
0.0
 10
76.0833834987743
 20
-140.2529377904576
 30
0.0
  0
HATCH
  5
7F
330
7A
100
AcDbEntity
  8
_U+30EC_U+30A4_U+30E4_U+30FC 1
 62
   179
420
  2234388
100
AcDbHatch
 10
0.0
 20
0.0
 30
0.0
210
0.0
220
0.0
230
1.0
  2
SOLID
 70
     1
 71
     0
 91
        1
 92
        1
 93
        1
 72
     4
 94
        3
 73
     0
 74
     1
 95
       62
 96
       58
 40
0.0
 40
0.0
 40
0.0
 40
0.0
 40
1.0
 40
1.0
 40
1.0
 40
2.0
 40
2.0
 40
2.0
 40
3.0
 40
3.0
 40
3.0
 40
4.0
 40
4.0
 40
4.0
 40
5.0
 40
5.0
 40
5.0
 40
6.0
 40
6.0
 40
6.0
 40
7.0
 40
7.0
 40
7.0
 40
8.0
 40
8.0
 40
8.0
 40
9.0
 40
9.0
 40
9.0
 40
10.0
 40
10.0
 40
10.0
 40
11.0
 40
11.0
 40
11.0
 40
12.0
 40
12.0
 40
12.0
 40
13.0
 40
13.0
 40
13.0
 40
14.0
 40
14.0
 40
14.0
 40
15.0
 40
15.0
 40
15.0
 40
16.0
 40
16.0
 40
16.0
 40
17.0
 40
17.0
 40
17.0
 40
18.0
 40
18.0
 40
18.0
 40
19.0
 40
19.0
 40
19.0
 40
19.0
 10
76.0833834987743
 20
-140.2529377904576
 10
75.98795435383288
 20
-140.2529377904576
 10
75.77022431916508
 20
-140.2319227079976
 10
75.64516735305051
 20
-140.0458875517941
 10
75.57144230966617
 20
-139.9335774389749
 10
75.56696368553534
 20
-139.8343586889997
 10
75.56282957095304
 20
-139.7496093400626
 10
75.56282957095304
 20
-139.7496093400626
 10
75.7829711724605
 20
-139.7496093400626
 10
75.7829711724605
 20
-139.7496093400626
 10
75.78503822975166
 20
-139.8236788929955
 10
75.7953735162074
 20
-140.058289895541
 10
76.07890487464347
 20
-140.058289895541
 10
76.21636418450494
 20
-140.058289895541
 10
76.3689819145015
 20
-139.988698966739
 10
76.3689819145015
 20
-139.7602891360669
 10
76.3689819145015
 20
-139.6438449086654
 10
76.33074135461524
 20
-139.5952690623234
 10
76.29904647615093
 20
-139.5635741838591
 10
76.22497692321807
 20
-139.4895046309262
 10
76.10853269581662
 20
-139.4767577776308
 10
76.05375567760115
 20
-139.4767577776308
 10
76.03446314288375
 20
-139.4767577776308
 10
75.99863414983714
 20
-139.478824834922
 10
75.97107338595515
 20
-139.4829589495043
 10
75.97107338595515
 20
-139.4829589495043
 10
75.97107338595515
 20
-139.2883110545876
 10
75.97107338595515
 20
-139.2883110545876
 10
76.00931394584143
 20
-139.2948567360096
 10
76.05134411076148
 20
-139.2969237933008
 10
76.05788979218345
 20
-139.2969237933008
 10
76.12334660640319
 20
-139.2969237933008
 10
76.32212861590212
 20
-139.2755642012922
 10
76.32212861590212
 20
-139.0388861414555
 10
76.32212861590212
 20
-138.8611192144167
 10
76.19121498746262
 20
-138.8059976866527
 10
76.08097193193463
 20
-138.8059976866527
 10
75.81673310821596
 20
-138.8059976866527
 10
75.80812036950283
 20
-139.0388861414555
 10
75.80398625492053
 20
-139.1105441275488
 10
75.80398625492053
 20
-139.1105441275488
 10
75.60072562129079
 20
-139.1105441275488
 10
75.60072562129079
 20
-139.1105441275488
 10
75.60933836000392
 20
-138.9858316709827
 10
75.63689912388591
 20
-138.6092827344449
 10
76.09371878523005
 20
-138.6092827344449
 10
76.31799450131982
 20
-138.6092827344449
 10
76.5591511852873
 20
-138.7364067578506
 10
76.5591511852873
 20
-139.0323404600336
 10
76.5591511852873
 20
-139.2187201257856
 10
76.4640665498944
 20
-139.3010579078831
 10
76.36450329037068
 20
-139.3623806075205
 10
76.42582599000814
 20
-139.3899413714025
 10
76.60772703162932
 20
-139.4702120962089
 10
76.60772703162932
 20
-139.7475422827715
 10
76.60772703162932
 20
-140.085850659423
 10
76.36036917578838
 20
-140.2529377904576
 10
76.0833834987743
 20
-140.2529377904576
 97
        0
 97
        0
 75
     2
 76
     1
 98
        0
  0
SPLINE
  5
80
330
7A
100
AcDbEntity
  8
_U+30EC_U+30A4_U+30E4_U+30FC 1
370
     0
100
AcDbSpline
210
0.0
220
0.0
230
1.0
 70
    11
 71
     3
 72
    44
 73
    40
 74
     0
 42
0.0000000001
 43
0.0000000001
 12
1.0
 22
0.0
 32
0.0
 13
1.0
 23
0.0
 33
0.0
 40
0.0
 40
0.0
 40
0.0
 40
0.0
 40
1.0
 40
1.0
 40
1.0
 40
2.0
 40
2.0
 40
2.0
 40
3.0
 40
3.0
 40
3.0
 40
4.0
 40
4.0
 40
4.0
 40
5.0
 40
5.0
 40
5.0
 40
6.0
 40
6.0
 40
6.0
 40
7.0
 40
7.0
 40
7.0
 40
8.0
 40
8.0
 40
8.0
 40
9.0
 40
9.0
 40
9.0
 40
10.0
 40
10.0
 40
10.0
 40
11.0
 40
11.0
 40
11.0
 40
12.0
 40
12.0
 40
12.0
 40
13.0
 40
13.0
 40
13.0
 40
13.0
 10
77.78250459209951
 20
-140.2022948868244
 30
0.0
 10
77.75942245234835
 20
-140.1578531550647
 30
0.0
 10
77.7380628603398
 20
-140.1051431941404
 30
0.0
 10
77.73599580304864
 20
-139.8743217966286
 30
0.0
 10
77.73186168846634
 20
-139.63109805537
 30
0.0
 10
77.67260604612005
 20
-139.5611626170194
 30
0.0
 10
77.49483911908115
 20
-139.5611626170194
 30
0.0
 10
77.49483911908115
 20
-139.5611626170194
 30
0.0
 10
77.08659530407905
 20
-139.5611626170194
 30
0.0
 10
77.08659530407905
 20
-139.5611626170194
 30
0.0
 10
77.08659530407905
 20
-139.5611626170194
 30
0.0
 10
77.08659530407905
 20
-140.2022948868244
 30
0.0
 10
77.08659530407905
 20
-140.2022948868244
 30
0.0
 10
77.08659530407905
 20
-140.2022948868244
 30
0.0
 10
76.85163979198501
 20
-140.2022948868244
 30
0.0
 10
76.85163979198501
 20
-140.2022948868244
 30
0.0
 10
76.85163979198501
 20
-140.2022948868244
 30
0.0
 10
76.85163979198501
 20
-138.6578585807869
 30
0.0
 10
76.85163979198501
 20
-138.6578585807869
 30
0.0
 10
76.85163979198501
 20
-138.6578585807869
 30
0.0
 10
77.52653399754546
 20
-138.6578585807869
 30
0.0
 10
77.52653399754546
 20
-138.6578585807869
 30
0.0
 10
77.83349200528122
 20
-138.6578585807869
 30
0.0
 10
78.00057913631584
 20
-138.8294243359524
 30
0.0
 10
78.00057913631584
 20
-139.0853949305064
 30
0.0
 10
78.00057913631584
 20
-139.1360378341396
 30
0.0
 10
77.99196639760271
 20
-139.2187201257856
 30
0.0
 10
77.94752466584298
 20
-139.2989908505919
 30
0.0
 10
77.88826902349669
 20
-139.402688224698
 30
0.0
 10
77.82281220927693
 20
-139.4216362498668
 30
0.0
 10
77.76148950963949
 20
-139.4385172177445
 30
0.0
 10
77.89894881950096
 20
-139.4808918922131
 30
0.0
 10
77.96647269101186
 20
-139.5294677385551
 30
0.0
 10
77.97095131514268
 20
-139.8446939754555
 30
0.0
 10
77.97508542972498
 20
-140.1154784805961
 30
0.0
 10
78.01091442277158
 20
-140.1471733590604
 30
0.0
 10
78.078782803831
 20
-140.2022948868244
 30
0.0
 10
78.078782803831
 20
-140.2022948868244
 30
0.0
 10
77.78250459209951
 20
-140.2022948868244
 30
0.0
 10
77.78250459209951
 20
-140.2022948868244
 30
0.0
  0
SPLINE
  5
81
330
7A
100
AcDbEntity
  8
_U+30EC_U+30A4_U+30E4_U+30FC 1
370
     0
100
AcDbSpline
210
0.0
220
0.0
230
1.0
 70
    11
 71
     3
 72
    20
 73
    16
 74
     0
 42
0.0000000001
 43
0.0000000001
 12
1.0
 22
0.0
 32
0.0
 13
1.0
 23
0.0
 33
0.0
 40
0.0
 40
0.0
 40
0.0
 40
0.0
 40
1.0
 40
1.0
 40
1.0
 40
2.0
 40
2.0
 40
2.0
 40
3.0
 40
3.0
 40
3.0
 40
4.0
 40
4.0
 40
4.0
 40
5.0
 40
5.0
 40
5.0
 40
5.0
 10
77.53101262167628
 20
-138.8693874435813
 30
0.0
 10
77.53101262167628
 20
-138.8693874435813
 30
0.0
 10
77.08659530407905
 20
-138.8693874435813
 30
0.0
 10
77.08659530407905
 20
-138.8693874435813
 30
0.0
 10
77.08659530407905
 20
-138.8693874435813
 30
0.0
 10
77.08659530407905
 20
-139.3496337542251
 30
0.0
 10
77.08659530407905
 20
-139.3496337542251
 30
0.0
 10
77.08659530407905
 20
-139.3496337542251
 30
0.0
 10
77.5286010548366
 20
-139.3496337542251
 30
0.0
 10
77.5286010548366
 20
-139.3496337542251
 30
0.0
 10
77.62816431436032
 20
-139.3496337542251
 30
0.0
 10
77.76355656693065
 20
-139.2734971440011
 30
0.0
 10
77.76355656693065
 20
-139.1022758983842
 30
0.0
 10
77.76355656693065
 20
-139.024072230869
 30
0.0
 10
77.7297946311752
 20
-138.8693874435813
 30
0.0
 10
77.53101262167628
 20
-138.8693874435813
 30
0.0
  0
HATCH
  5
82
330
7A
100
AcDbEntity
  8
_U+30EC_U+30A4_U+30E4_U+30FC 1
 62
   179
420
  2234388
100
AcDbHatch
 10
0.0
 20
0.0
 30
0.0
210
0.0
220
0.0
230
1.0
  2
SOLID
 70
     1
 71
     0
 91
        2
 92
        1
 93
        1
 72
     4
 94
        3
 73
     0
 74
     1
 95
       44
 96
       40
 40
0.0
 40
0.0
 40
0.0
 40
0.0
 40
1.0
 40
1.0
 40
1.0
 40
2.0
 40
2.0
 40
2.0
 40
3.0
 40
3.0
 40
3.0
 40
4.0
 40
4.0
 40
4.0
 40
5.0
 40
5.0
 40
5.0
 40
6.0
 40
6.0
 40
6.0
 40
7.0
 40
7.0
 40
7.0
 40
8.0
 40
8.0
 40
8.0
 40
9.0
 40
9.0
 40
9.0
 40
10.0
 40
10.0
 40
10.0
 40
11.0
 40
11.0
 40
11.0
 40
12.0
 40
12.0
 40
12.0
 40
13.0
 40
13.0
 40
13.0
 40
13.0
 10
77.78250459209951
 20
-140.2022948868244
 10
77.75942245234835
 20
-140.1578531550647
 10
77.7380628603398
 20
-140.1051431941404
 10
77.73599580304864
 20
-139.8743217966286
 10
77.73186168846634
 20
-139.63109805537
 10
77.67260604612005
 20
-139.5611626170194
 10
77.49483911908115
 20
-139.5611626170194
 10
77.49483911908115
 20
-139.5611626170194
 10
77.08659530407905
 20
-139.5611626170194
 10
77.08659530407905
 20
-139.5611626170194
 10
77.08659530407905
 20
-139.5611626170194
 10
77.08659530407905
 20
-140.2022948868244
 10
77.08659530407905
 20
-140.2022948868244
 10
77.08659530407905
 20
-140.2022948868244
 10
76.85163979198501
 20
-140.2022948868244
 10
76.85163979198501
 20
-140.2022948868244
 10
76.85163979198501
 20
-140.2022948868244
 10
76.85163979198501
 20
-138.6578585807869
 10
76.85163979198501
 20
-138.6578585807869
 10
76.85163979198501
 20
-138.6578585807869
 10
77.52653399754546
 20
-138.6578585807869
 10
77.52653399754546
 20
-138.6578585807869
 10
77.83349200528122
 20
-138.6578585807869
 10
78.00057913631584
 20
-138.8294243359524
 10
78.00057913631584
 20
-139.0853949305064
 10
78.00057913631584
 20
-139.1360378341396
 10
77.99196639760271
 20
-139.2187201257856
 10
77.94752466584298
 20
-139.2989908505919
 10
77.88826902349669
 20
-139.402688224698
 10
77.82281220927693
 20
-139.4216362498668
 10
77.76148950963949
 20
-139.4385172177445
 10
77.89894881950096
 20
-139.4808918922131
 10
77.96647269101186
 20
-139.5294677385551
 10
77.97095131514268
 20
-139.8446939754555
 10
77.97508542972498
 20
-140.1154784805961
 10
78.01091442277158
 20
-140.1471733590604
 10
78.078782803831
 20
-140.2022948868244
 10
78.078782803831
 20
-140.2022948868244
 10
77.78250459209951
 20
-140.2022948868244
 10
77.78250459209951
 20
-140.2022948868244
 97
        0
 97
        0
 92
        1
 93
        1
 72
     4
 94
        3
 73
     0
 74
     1
 95
       20
 96
       16
 40
0.0
 40
0.0
 40
0.0
 40
0.0
 40
1.0
 40
1.0
 40
1.0
 40
2.0
 40
2.0
 40
2.0
 40
3.0
 40
3.0
 40
3.0
 40
4.0
 40
4.0
 40
4.0
 40
5.0
 40
5.0
 40
5.0
 40
5.0
 10
77.53101262167628
 20
-138.8693874435813
 10
77.53101262167628
 20
-138.8693874435813
 10
77.08659530407905
 20
-138.8693874435813
 10
77.08659530407905
 20
-138.8693874435813
 10
77.08659530407905
 20
-138.8693874435813
 10
77.08659530407905
 20
-139.3496337542251
 10
77.08659530407905
 20
-139.3496337542251
 10
77.08659530407905
 20
-139.3496337542251
 10
77.5286010548366
 20
-139.3496337542251
 10
77.5286010548366
 20
-139.3496337542251
 10
77.62816431436032
 20
-139.3496337542251
 10
77.76355656693065
 20
-139.2734971440011
 10
77.76355656693065
 20
-139.1022758983842
 10
77.76355656693065
 20
-139.024072230869
 10
77.7297946311752
 20
-138.8693874435813
 10
77.53101262167628
 20
-138.8693874435813
 97
        0
 97
        0
 75
     2
 76
     1
 98
        0
  0
ENDBLK
  5
7D
330
7A
100
AcDbEntity
  8
0
100
AcDbBlockEnd
  0
BLOCK
  5
85
330
83
100
AcDbEntity
  8
0
100
AcDbBlockBegin
  2
block 5
 70
     0
 10
0.0
 20
0.0
 30
0.0
  3
block 5
  1

  0
SPLINE
  5
87
330
83
100
AcDbEntity
  8
_U+30EC_U+30A4_U+30E4_U+30FC 1
370
     0
100
AcDbSpline
210
0.0
220
0.0
230
1.0
 70
    11
 71
     3
 72
    44
 73
    40
 74
     0
 42
0.0000000001
 43
0.0000000001
 12
1.0
 22
0.0
 32
0.0
 13
1.0
 23
0.0
 33
0.0
 40
0.0
 40
0.0
 40
0.0
 40
0.0
 40
1.0
 40
1.0
 40
1.0
 40
2.0
 40
2.0
 40
2.0
 40
3.0
 40
3.0
 40
3.0
 40
4.0
 40
4.0
 40
4.0
 40
5.0
 40
5.0
 40
5.0
 40
6.0
 40
6.0
 40
6.0
 40
7.0
 40
7.0
 40
7.0
 40
8.0
 40
8.0
 40
8.0
 40
9.0
 40
9.0
 40
9.0
 40
10.0
 40
10.0
 40
10.0
 40
11.0
 40
11.0
 40
11.0
 40
12.0
 40
12.0
 40
12.0
 40
13.0
 40
13.0
 40
13.0
 40
13.0
 10
76.58826224213766
 20
-126.3047796993266
 30
0.0
 10
76.74708114400768
 20
-126.5225097339944
 30
0.0
 10
76.82115069694055
 20
-126.6155273120961
 30
0.0
 10
76.96481117867546
 20
-126.6644476679867
 30
0.0
 10
76.96481117867546
 20
-126.6644476679867
 30
0.0
 10
76.96481117867546
 20
-125.8858560883202
 30
0.0
 10
76.96481117867546
 20
-125.8858560883202
 30
0.0
 10
76.96481117867546
 20
-125.8858560883202
 30
0.0
 10
77.17013886959636
 20
-125.8858560883202
 30
0.0
 10
77.17013886959636
 20
-125.8858560883202
 30
0.0
 10
77.17013886959636
 20
-125.8858560883202
 30
0.0
 10
77.17013886959636
 20
-126.9138725811188
 30
0.0
 10
77.17013886959636
 20
-126.9138725811188
 30
0.0
 10
76.81253795822742
 20
-126.8821777026545
 30
0.0
 10
76.73433429071225
 20
-126.8167208884347
 30
0.0
 10
76.43598902168962
 20
-126.4315592131838
 30
0.0
 10
76.23720701219071
 20
-126.1755886186297
 30
0.0
 10
76.16933863113128
 20
-126.11013180441
 30
0.0
 10
76.03187932126981
 20
-126.11013180441
 30
0.0
 10
75.91336803657721
 20
-126.11013180441
 30
0.0
 10
75.78245440813772
 20
-126.1821343000517
 30
0.0
 10
75.78245440813772
 20
-126.3788492522595
 30
0.0
 10
75.78245440813772
 20
-126.6389539613958
 30
0.0
 10
76.01293129610093
 20
-126.6472221905604
 30
0.0
 10
76.12937552350238
 20
-126.6517008146913
 30
0.0
 10
76.12937552350238
 20
-126.6517008146913
 30
0.0
 10
76.12937552350238
 20
-126.875976530781
 30
0.0
 10
76.12937552350238
 20
-126.875976530781
 30
0.0
 10
76.00225150009666
 20
-126.8673637920679
 30
0.0
 10
75.89028589682604
 20
-126.8566839960636
 30
0.0
 10
75.77177461213346
 20
-126.7764132712573
 30
0.0
 10
75.61088865297228
 20
-126.6665147252778
 30
0.0
 10
75.57712671721683
 20
-126.4801350595258
 30
0.0
 10
75.57712671721683
 20
-126.3640353416729
 30
0.0
 10
75.57712671721683
 20
-126.0867051551103
 30
0.0
 10
75.76109481612917
 20
-125.8793104068982
 30
0.0
 10
76.03394637856096
 20
-125.8793104068982
 30
0.0
 10
76.26270071878155
 20
-125.8793104068982
 30
0.0
 10
76.36191946875675
 20
-125.9957546342997
 30
0.0
 10
76.58826224213766
 20
-126.3047796993266
 30
0.0
  0
HATCH
  5
88
330
83
100
AcDbEntity
  8
_U+30EC_U+30A4_U+30E4_U+30FC 1
 62
   179
420
  2234388
100
AcDbHatch
 10
0.0
 20
0.0
 30
0.0
210
0.0
220
0.0
230
1.0
  2
SOLID
 70
     1
 71
     0
 91
        1
 92
        1
 93
        1
 72
     4
 94
        3
 73
     0
 74
     1
 95
       44
 96
       40
 40
0.0
 40
0.0
 40
0.0
 40
0.0
 40
1.0
 40
1.0
 40
1.0
 40
2.0
 40
2.0
 40
2.0
 40
3.0
 40
3.0
 40
3.0
 40
4.0
 40
4.0
 40
4.0
 40
5.0
 40
5.0
 40
5.0
 40
6.0
 40
6.0
 40
6.0
 40
7.0
 40
7.0
 40
7.0
 40
8.0
 40
8.0
 40
8.0
 40
9.0
 40
9.0
 40
9.0
 40
10.0
 40
10.0
 40
10.0
 40
11.0
 40
11.0
 40
11.0
 40
12.0
 40
12.0
 40
12.0
 40
13.0
 40
13.0
 40
13.0
 40
13.0
 10
76.58826224213766
 20
-126.3047796993266
 10
76.74708114400768
 20
-126.5225097339944
 10
76.82115069694055
 20
-126.6155273120961
 10
76.96481117867546
 20
-126.6644476679867
 10
76.96481117867546
 20
-126.6644476679867
 10
76.96481117867546
 20
-125.8858560883202
 10
76.96481117867546
 20
-125.8858560883202
 10
76.96481117867546
 20
-125.8858560883202
 10
77.17013886959636
 20
-125.8858560883202
 10
77.17013886959636
 20
-125.8858560883202
 10
77.17013886959636
 20
-125.8858560883202
 10
77.17013886959636
 20
-126.9138725811188
 10
77.17013886959636
 20
-126.9138725811188
 10
76.81253795822742
 20
-126.8821777026545
 10
76.73433429071225
 20
-126.8167208884347
 10
76.43598902168962
 20
-126.4315592131838
 10
76.23720701219071
 20
-126.1755886186297
 10
76.16933863113128
 20
-126.11013180441
 10
76.03187932126981
 20
-126.11013180441
 10
75.91336803657721
 20
-126.11013180441
 10
75.78245440813772
 20
-126.1821343000517
 10
75.78245440813772
 20
-126.3788492522595
 10
75.78245440813772
 20
-126.6389539613958
 10
76.01293129610093
 20
-126.6472221905604
 10
76.12937552350238
 20
-126.6517008146913
 10
76.12937552350238
 20
-126.6517008146913
 10
76.12937552350238
 20
-126.875976530781
 10
76.12937552350238
 20
-126.875976530781
 10
76.00225150009666
 20
-126.8673637920679
 10
75.89028589682604
 20
-126.8566839960636
 10
75.77177461213346
 20
-126.7764132712573
 10
75.61088865297228
 20
-126.6665147252778
 10
75.57712671721683
 20
-126.4801350595258
 10
75.57712671721683
 20
-126.3640353416729
 10
75.57712671721683
 20
-126.0867051551103
 10
75.76109481612917
 20
-125.8793104068982
 10
76.03394637856096
 20
-125.8793104068982
 10
76.26270071878155
 20
-125.8793104068982
 10
76.36191946875675
 20
-125.9957546342997
 10
76.58826224213766
 20
-126.3047796993266
 97
        0
 97
        0
 75
     2
 76
     1
 98
        0
  0
SPLINE
  5
89
330
83
100
AcDbEntity
  8
_U+30EC_U+30A4_U+30E4_U+30FC 1
370
     0
100
AcDbSpline
210
0.0
220
0.0
230
1.0
 70
    11
 71
     3
 72
    29
 73
    25
 74
     0
 42
0.0000000001
 43
0.0000000001
 12
1.0
 22
0.0
 32
0.0
 13
1.0
 23
0.0
 33
0.0
 40
0.0
 40
0.0
 40
0.0
 40
0.0
 40
1.0
 40
1.0
 40
1.0
 40
2.0
 40
2.0
 40
2.0
 40
3.0
 40
3.0
 40
3.0
 40
4.0
 40
4.0
 40
4.0
 40
5.0
 40
5.0
 40
5.0
 40
6.0
 40
6.0
 40
6.0
 40
7.0
 40
7.0
 40
7.0
 40
8.0
 40
8.0
 40
8.0
 40
8.0
 10
76.99237194255747
 20
-124.8230441311206
 30
0.0
 10
77.20183374806065
 20
-124.9312201293575
 30
0.0
 10
77.22078177322953
 20
-125.1045084322655
 30
0.0
 10
77.22078177322953
 20
-125.220952659667
 30
0.0
 10
77.22078177322953
 20
-125.3818386188282
 30
0.0
 10
77.17427298417866
 20
-125.5234320432719
 30
0.0
 10
76.99237194255747
 20
-125.6185166786648
 30
0.0
 10
76.79772404764086
 20
-125.7222140527708
 30
0.0
 10
76.56104598780419
 20
-125.7411620779397
 30
0.0
 10
76.39809297135187
 20
-125.7411620779397
 30
0.0
 10
76.25408798006842
 20
-125.7411620779397
 30
0.0
 10
76.00225150009666
 20
-125.724281110062
 30
0.0
 10
75.80346949059775
 20
-125.6185166786648
 30
0.0
 10
75.60055336651654
 20
-125.5106851899765
 30
0.0
 10
75.57712671721683
 20
-125.3497992308153
 30
0.0
 10
75.57712671721683
 20
-125.220952659667
 30
0.0
 10
75.57712671721683
 20
-125.062133757797
 30
0.0
 10
75.62156844897656
 20
-124.9184732760621
 30
0.0
 10
75.80346949059775
 20
-124.8230441311206
 30
0.0
 10
75.99605032822322
 20
-124.7238253811454
 30
0.0
 10
76.22446015889528
 20
-124.7003987318457
 30
0.0
 10
76.39809297135187
 20
-124.7003987318457
 30
0.0
 10
76.56931421696879
 20
-124.7003987318457
 30
0.0
 10
76.799791104932
 20
-124.7217583238543
 30
0.0
 10
76.99237194255747
 20
-124.8230441311206
 30
0.0
  0
SPLINE
  5
8A
330
83
100
AcDbEntity
  8
_U+30EC_U+30A4_U+30E4_U+30FC 1
370
     0
100
AcDbSpline
210
0.0
220
0.0
230
1.0
 70
    11
 71
     3
 72
    17
 73
    13
 74
     0
 42
0.0000000001
 43
0.0000000001
 12
1.0
 22
0.0
 32
0.0
 13
1.0
 23
0.0
 33
0.0
 40
0.0
 40
0.0
 40
0.0
 40
0.0
 40
1.0
 40
1.0
 40
1.0
 40
2.0
 40
2.0
 40
2.0
 40
3.0
 40
3.0
 40
3.0
 40
4.0
 40
4.0
 40
4.0
 40
4.0
 10
75.7697075548423
 20
-125.220952659667
 30
0.0
 10
75.7697075548423
 20
-125.4703775727991
 30
0.0
 10
76.05323891327836
 20
-125.5172308713985
 30
0.0
 10
76.39809297135187
 20
-125.5172308713985
 30
0.0
 10
76.71745332283453
 20
-125.5172308713985
 30
0.0
 10
77.02613387831292
 20
-125.4810573688033
 30
0.0
 10
77.02613387831292
 20
-125.220952659667
 30
0.0
 10
77.02613387831292
 20
-124.9732502942775
 30
0.0
 10
76.74501408671652
 20
-124.9246744479355
 30
0.0
 10
76.39809297135187
 20
-124.9246744479355
 30
0.0
 10
76.07838811032069
 20
-124.9246744479355
 30
0.0
 10
75.7697075548423
 20
-124.9629150078218
 30
0.0
 10
75.7697075548423
 20
-125.220952659667
 30
0.0
  0
HATCH
  5
8B
330
83
100
AcDbEntity
  8
_U+30EC_U+30A4_U+30E4_U+30FC 1
 62
   179
420
  2234388
100
AcDbHatch
 10
0.0
 20
0.0
 30
0.0
210
0.0
220
0.0
230
1.0
  2
SOLID
 70
     1
 71
     0
 91
        2
 92
        1
 93
        1
 72
     4
 94
        3
 73
     0
 74
     1
 95
       29
 96
       25
 40
0.0
 40
0.0
 40
0.0
 40
0.0
 40
1.0
 40
1.0
 40
1.0
 40
2.0
 40
2.0
 40
2.0
 40
3.0
 40
3.0
 40
3.0
 40
4.0
 40
4.0
 40
4.0
 40
5.0
 40
5.0
 40
5.0
 40
6.0
 40
6.0
 40
6.0
 40
7.0
 40
7.0
 40
7.0
 40
8.0
 40
8.0
 40
8.0
 40
8.0
 10
76.99237194255747
 20
-124.8230441311206
 10
77.20183374806065
 20
-124.9312201293575
 10
77.22078177322953
 20
-125.1045084322655
 10
77.22078177322953
 20
-125.220952659667
 10
77.22078177322953
 20
-125.3818386188282
 10
77.17427298417866
 20
-125.5234320432719
 10
76.99237194255747
 20
-125.6185166786648
 10
76.79772404764086
 20
-125.7222140527708
 10
76.56104598780419
 20
-125.7411620779397
 10
76.39809297135187
 20
-125.7411620779397
 10
76.25408798006842
 20
-125.7411620779397
 10
76.00225150009666
 20
-125.724281110062
 10
75.80346949059775
 20
-125.6185166786648
 10
75.60055336651654
 20
-125.5106851899765
 10
75.57712671721683
 20
-125.3497992308153
 10
75.57712671721683
 20
-125.220952659667
 10
75.57712671721683
 20
-125.062133757797
 10
75.62156844897656
 20
-124.9184732760621
 10
75.80346949059775
 20
-124.8230441311206
 10
75.99605032822322
 20
-124.7238253811454
 10
76.22446015889528
 20
-124.7003987318457
 10
76.39809297135187
 20
-124.7003987318457
 10
76.56931421696879
 20
-124.7003987318457
 10
76.799791104932
 20
-124.7217583238543
 10
76.99237194255747
 20
-124.8230441311206
 97
        0
 97
        0
 92
        1
 93
        1
 72
     4
 94
        3
 73
     0
 74
     1
 95
       17
 96
       13
 40
0.0
 40
0.0
 40
0.0
 40
0.0
 40
1.0
 40
1.0
 40
1.0
 40
2.0
 40
2.0
 40
2.0
 40
3.0
 40
3.0
 40
3.0
 40
4.0
 40
4.0
 40
4.0
 40
4.0
 10
75.7697075548423
 20
-125.220952659667
 10
75.7697075548423
 20
-125.4703775727991
 10
76.05323891327836
 20
-125.5172308713985
 10
76.39809297135187
 20
-125.5172308713985
 10
76.71745332283453
 20
-125.5172308713985
 10
77.02613387831292
 20
-125.4810573688033
 10
77.02613387831292
 20
-125.220952659667
 10
77.02613387831292
 20
-124.9732502942775
 10
76.74501408671652
 20
-124.9246744479355
 10
76.39809297135187
 20
-124.9246744479355
 10
76.07838811032069
 20
-124.9246744479355
 10
75.7697075548423
 20
-124.9629150078218
 10
75.7697075548423
 20
-125.220952659667
 97
        0
 97
        0
 75
     2
 76
     1
 98
        0
  0
ENDBLK
  5
86
330
83
100
AcDbEntity
  8
0
100
AcDbBlockEnd
  0
ENDSEC
  0
SECTION
  2
ENTITIES
  0
SPLINE
  5
41
330
1F
100
AcDbEntity
  8
_U+30EC_U+30A4_U+30E4_U+30FC 1
 62
   179
420
  2234388
370
     9
100
AcDbSpline
210
0.0
220
0.0
230
1.0
 70
    11
 71
     3
 72
    17
 73
    13
 74
     0
 42
0.0000000001
 43
0.0000000001
 12
1.0
 22
0.0
 32
0.0
 13
1.0
 23
0.0
 33
0.0
 40
0.0
 40
0.0
 40
0.0
 40
0.0
 40
1.0
 40
1.0
 40
1.0
 40
2.0
 40
2.0
 40
2.0
 40
3.0
 40
3.0
 40
3.0
 40
4.0
 40
4.0
 40
4.0
 40
4.0
 10
105.7261920249224
 20
-132.6551335779475
 30
0.0
 10
105.6710555291381
 20
-132.6551335779475
 30
0.0
 10
105.6262853608045
 20
-132.699901077936
 30
0.0
 10
105.6262853608045
 20
-132.7550402445891
 30
0.0
 10
105.6262853608045
 20
-132.810144133464
 30
0.0
 10
105.6710555291381
 20
-132.8549469112307
 30
0.0
 10
105.7261920249224
 20
-132.8549469112307
 30
0.0
 10
105.7812959124054
 20
-132.8549469112307
 30
0.0
 10
105.8260986890402
 20
-132.810144133464
 30
0.0
 10
105.8260986890402
 20
-132.7550402445891
 30
0.0
 10
105.8260986890402
 20
-132.699901077936
 30
0.0
 10
105.7812959124054
 20
-132.6551335779475
 30
0.0
 10
105.7261920249224
 20
-132.6551335779475
 30
0.0
  0
SPLINE
  5
42
330
1F
100
AcDbEntity
  8
_U+30EC_U+30A4_U+30E4_U+30FC 1
 62
   179
420
  2234388
370
     9
100
AcDbSpline
210
0.0
220
0.0
230
1.0
 70
    11
 71
     3
 72
    17
 73
    13
 74
     0
 42
0.0000000001
 43
0.0000000001
 12
1.0
 22
0.0
 32
0.0
 13
1.0
 23
0.0
 33
0.0
 40
0.0
 40
0.0
 40
0.0
 40
0.0
 40
1.0
 40
1.0
 40
1.0
 40
2.0
 40
2.0
 40
2.0
 40
3.0
 40
3.0
 40
3.0
 40
4.0
 40
4.0
 40
4.0
 40
4.0
 10
105.7261920249224
 20
-135.6320488549811
 30
0.0
 10
105.6710555291381
 20
-135.6320488549811
 30
0.0
 10
105.6262853608045
 20
-135.6768163549696
 30
0.0
 10
105.6262853608045
 20
-135.7319555216227
 30
0.0
 10
105.6262853608045
 20
-135.7870594104976
 30
0.0
 10
105.6710555291381
 20
-135.8318621882644
 30
0.0
 10
105.7261920249224
 20
-135.8318621882644
 30
0.0
 10
105.7812959124054
 20
-135.8318621882644
 30
0.0
 10
105.8260986890402
 20
-135.7870594104976
 30
0.0
 10
105.8260986890402
 20
-135.7319555216227
 30
0.0
 10
105.8260986890402
 20
-135.6768163549696
 30
0.0
 10
105.7812959124054
 20
-135.6320488549811
 30
0.0
 10
105.7261920249224
 20
-135.6320488549811
 30
0.0
  0
POLYLINE
  5
43
330
1F
100
AcDbEntity
  8
_U+30EC_U+30A4_U+30E4_U+30FC 1
 62
   179
420
  2234388
370
     9
100
AcDb2dPolyline
 66
     1
 10
0.0
 20
0.0
 30
0.0
  0
VERTEX
  5
44
330
43
100
AcDbEntity
  8
_U+30EC_U+30A4_U+30E4_U+30FC 1
 62
   179
420
  2234388
370
     9
100
AcDbVertex
100
AcDb2dVertex
 10
105.7261920249224
 20
-135.7319555216227
 30
0.0
  0
VERTEX
  5
45
330
43
100
AcDbEntity
  8
_U+30EC_U+30A4_U+30E4_U+30FC 1
 62
   179
420
  2234388
370
     9
100
AcDbVertex
100
AcDb2dVertex
 10
105.7261920249224
 20
-132.6943977446045
 30
0.0
  0
SEQEND
  5
46
330
43
100
AcDbEntity
  8
_U+30EC_U+30A4_U+30E4_U+30FC 1
 62
   179
420
  2234388
370
     9
  0
POLYLINE
  5
47
330
1F
100
AcDbEntity
  8
_U+30EC_U+30A4_U+30E4_U+30FC 1
 62
   179
420
  2234388
370
     9
100
AcDb2dPolyline
 66
     1
 10
0.0
 20
0.0
 30
0.0
  0
VERTEX
  5
48
330
47
100
AcDbEntity
  8
_U+30EC_U+30A4_U+30E4_U+30FC 1
 62
   179
420
  2234388
370
     9
100
AcDbVertex
100
AcDb2dVertex
 10
103.2663784765663
 20
-135.7319555216227
 30
0.0
  0
VERTEX
  5
49
330
47
100
AcDbEntity
  8
_U+30EC_U+30A4_U+30E4_U+30FC 1
 62
   179
420
  2234388
370
     9
100
AcDbVertex
100
AcDb2dVertex
 10
106.7266344993989
 20
-135.7319555216227
 30
0.0
  0
SEQEND
  5
4A
330
47
100
AcDbEntity
  8
_U+30EC_U+30A4_U+30E4_U+30FC 1
 62
   179
420
  2234388
370
     9
  0
POLYLINE
  5
4B
330
1F
100
AcDbEntity
  8
_U+30EC_U+30A4_U+30E4_U+30FC 1
 62
   179
420
  2234388
370
     9
100
AcDb2dPolyline
 66
     1
 10
0.0
 20
0.0
 30
0.0
  0
VERTEX
  5
4C
330
4B
100
AcDbEntity
  8
_U+30EC_U+30A4_U+30E4_U+30FC 1
 62
   179
420
  2234388
370
     9
100
AcDbVertex
100
AcDb2dVertex
 10
103.2663784765663
 20
-132.7550402445891
 30
0.0
  0
VERTEX
  5
4D
330
4B
100
AcDbEntity
  8
_U+30EC_U+30A4_U+30E4_U+30FC 1
 62
   179
420
  2234388
370
     9
100
AcDbVertex
100
AcDb2dVertex
 10
106.7266344993989
 20
-132.7550402445891
 30
0.0
  0
SEQEND
  5
4E
330
4B
100
AcDbEntity
  8
_U+30EC_U+30A4_U+30E4_U+30FC 1
 62
   179
420
  2234388
370
     9
  0
INSERT
  5
50
330
1F
100
AcDbEntity
  8
_U+30EC_U+30A4_U+30E4_U+30FC 1
100
AcDbBlockReference
  2
block 2
 10
0.0
 20
0.0
 30
0.0
  0
SPLINE
  5
55
330
1F
100
AcDbEntity
  8
_U+30EC_U+30A4_U+30E4_U+30FC 1
 62
   179
420
  2234388
370
     9
100
AcDbSpline
210
0.0
220
0.0
230
1.0
 70
    11
 71
     3
 72
    17
 73
    13
 74
     0
 42
0.0000000001
 43
0.0000000001
 12
1.0
 22
0.0
 32
0.0
 13
1.0
 23
0.0
 33
0.0
 40
0.0
 40
0.0
 40
0.0
 40
0.0
 40
1.0
 40
1.0
 40
1.0
 40
2.0
 40
2.0
 40
2.0
 40
3.0
 40
3.0
 40
3.0
 40
4.0
 40
4.0
 40
4.0
 40
4.0
 10
101.8711424010506
 20
-139.7403224650647
 30
0.0
 10
101.8711424010506
 20
-139.6851832984122
 30
0.0
 10
101.8263396244159
 20
-139.640415798423
 30
0.0
 10
101.7712357369328
 20
-139.640415798423
 30
0.0
 10
101.7160965716728
 20
-139.640415798423
 30
0.0
 10
101.6712937950381
 20
-139.6851832984122
 30
0.0
 10
101.6712937950381
 20
-139.7403224650647
 30
0.0
 10
101.6712937950381
 20
-139.7954263539402
 30
0.0
 10
101.7160965716728
 20
-139.8402291317063
 30
0.0
 10
101.7712357369328
 20
-139.8402291317063
 30
0.0
 10
101.8263396244159
 20
-139.8402291317063
 30
0.0
 10
101.8711424010506
 20
-139.7954263539402
 30
0.0
 10
101.8711424010506
 20
-139.7403224650647
 30
0.0
  0
SPLINE
  5
56
330
1F
100
AcDbEntity
  8
_U+30EC_U+30A4_U+30E4_U+30FC 1
 62
   179
420
  2234388
370
     9
100
AcDbSpline
210
0.0
220
0.0
230
1.0
 70
    11
 71
     3
 72
    17
 73
    13
 74
     0
 42
0.0000000001
 43
0.0000000001
 12
1.0
 22
0.0
 32
0.0
 13
1.0
 23
0.0
 33
0.0
 40
0.0
 40
0.0
 40
0.0
 40
0.0
 40
1.0
 40
1.0
 40
1.0
 40
2.0
 40
2.0
 40
2.0
 40
3.0
 40
3.0
 40
3.0
 40
4.0
 40
4.0
 40
4.0
 40
4.0
 10
81.86666942397781
 20
-139.7403224650647
 30
0.0
 10
81.86666942397781
 20
-139.6851832984122
 30
0.0
 10
81.82186664621109
 20
-139.640415798423
 30
0.0
 10
81.76605513619637
 20
-139.640415798423
 30
0.0
 10
81.7109512487133
 20
-139.640415798423
 30
0.0
 10
81.66614847207853
 20
-139.6851832984122
 30
0.0
 10
81.66614847207853
 20
-139.7403224650647
 30
0.0
 10
81.66614847207853
 20
-139.7954263539402
 30
0.0
 10
81.7109512487133
 20
-139.8402291317063
 30
0.0
 10
81.76605513619637
 20
-139.8402291317063
 30
0.0
 10
81.82186664621109
 20
-139.8402291317063
 30
0.0
 10
81.86666942397781
 20
-139.7954263539402
 30
0.0
 10
81.86666942397781
 20
-139.7403224650647
 30
0.0
  0
SPLINE
  5
57
330
1F
100
AcDbEntity
  8
_U+30EC_U+30A4_U+30E4_U+30FC 1
 62
   179
420
  2234388
370
     9
100
AcDbSpline
210
0.0
220
0.0
230
1.0
 70
    11
 71
     3
 72
    17
 73
    13
 74
     0
 42
0.0000000001
 43
0.0000000001
 12
1.0
 22
0.0
 32
0.0
 13
1.0
 23
0.0
 33
0.0
 40
0.0
 40
0.0
 40
0.0
 40
0.0
 40
1.0
 40
1.0
 40
1.0
 40
2.0
 40
2.0
 40
2.0
 40
3.0
 40
3.0
 40
3.0
 40
4.0
 40
4.0
 40
4.0
 40
4.0
 10
77.8662027356899
 20
-135.6392807994233
 30
0.0
 10
77.8662027356899
 20
-135.5841416327708
 30
0.0
 10
77.821435236832
 20
-135.5393741327816
 30
0.0
 10
77.76629607157206
 20
-135.5393741327816
 30
0.0
 10
77.71119218408899
 20
-135.5393741327816
 30
0.0
 10
77.66638940745422
 20
-135.5841416327708
 30
0.0
 10
77.66638940745422
 20
-135.6392807994233
 30
0.0
 10
77.66638940745422
 20
-135.6950902438537
 30
0.0
 10
77.71119218408899
 20
-135.7398577438429
 30
0.0
 10
77.76629607157206
 20
-135.7398577438429
 30
0.0
 10
77.821435236832
 20
-135.7398577438429
 30
0.0
 10
77.8662027356899
 20
-135.6950902438537
 30
0.0
 10
77.8662027356899
 20
-135.6392807994233
 30
0.0
  0
POLYLINE
  5
58
330
1F
100
AcDbEntity
  8
_U+30EC_U+30A4_U+30E4_U+30FC 1
 62
   179
420
  2234388
370
     9
100
AcDb2dPolyline
 66
     1
 10
0.0
 20
0.0
 30
0.0
  0
VERTEX
  5
59
330
58
100
AcDbEntity
  8
_U+30EC_U+30A4_U+30E4_U+30FC 1
 62
   179
420
  2234388
370
     9
100
AcDbVertex
100
AcDb2dVertex
 10
77.76629607157206
 20
-135.7398577438429
 30
0.0
  0
VERTEX
  5
5A
330
58
100
AcDbEntity
  8
_U+30EC_U+30A4_U+30E4_U+30FC 1
 62
   179
420
  2234388
370
     9
100
AcDbVertex
100
AcDb2dVertex
 10
77.76629607157206
 20
-115.7331596932889
 30
0.0
  0
SEQEND
  5
5B
330
58
100
AcDbEntity
  8
_U+30EC_U+30A4_U+30E4_U+30FC 1
 62
   179
420
  2234388
370
     9
  0
POLYLINE
  5
5C
330
1F
100
AcDbEntity
  8
_U+30EC_U+30A4_U+30E4_U+30FC 1
 62
   179
420
  2234388
370
     9
100
AcDb2dPolyline
 66
     1
 10
0.0
 20
0.0
 30
0.0
  0
VERTEX
  5
5D
330
5C
100
AcDbEntity
  8
_U+30EC_U+30A4_U+30E4_U+30FC 1
 62
   179
420
  2234388
370
     9
100
AcDbVertex
100
AcDb2dVertex
 10
80.2261096199281
 20
-135.6392807994233
 30
0.0
  0
VERTEX
  5
5E
330
5C
100
AcDbEntity
  8
_U+30EC_U+30A4_U+30E4_U+30FC 1
 62
   179
420
  2234388
370
     9
100
AcDbVertex
100
AcDb2dVertex
 10
76.76656109191939
 20
-135.6392807994233
 30
0.0
  0
SEQEND
  5
5F
330
5C
100
AcDbEntity
  8
_U+30EC_U+30A4_U+30E4_U+30FC 1
 62
   179
420
  2234388
370
     9
  0
SPLINE
  5
60
330
1F
100
AcDbEntity
  8
_U+30EC_U+30A4_U+30E4_U+30FC 1
 62
   179
420
  2234388
370
     9
100
AcDbSpline
210
0.0
220
0.0
230
1.0
 70
    11
 71
     3
 72
    17
 73
    13
 74
     0
 42
0.0000000001
 43
0.0000000001
 12
1.0
 22
0.0
 32
0.0
 13
1.0
 23
0.0
 33
0.0
 40
0.0
 40
0.0
 40
0.0
 40
0.0
 40
1.0
 40
1.0
 40
1.0
 40
2.0
 40
2.0
 40
2.0
 40
3.0
 40
3.0
 40
3.0
 40
4.0
 40
4.0
 40
4.0
 40
4.0
 10
77.8662027356899
 20
-115.7331596932889
 30
0.0
 10
77.8662027356899
 20
-115.6780558044137
 30
0.0
 10
77.821435236832
 20
-115.6332530266473
 30
0.0
 10
77.76629607157206
 20
-115.6332530266473
 30
0.0
 10
77.71119218408899
 20
-115.6332530266473
 30
0.0
 10
77.66638940745422
 20
-115.6780558044137
 30
0.0
 10
77.66638940745422
 20
-115.7331596932889
 30
0.0
 10
77.66638940745422
 20
-115.7889691377194
 30
0.0
 10
77.71119218408899
 20
-115.8337719154861
 30
0.0
 10
77.76629607157206
 20
-115.8337719154861
 30
0.0
 10
77.821435236832
 20
-115.8337719154861
 30
0.0
 10
77.8662027356899
 20
-115.7889691377194
 30
0.0
 10
77.8662027356899
 20
-115.7331596932889
 30
0.0
  0
POLYLINE
  5
61
330
1F
100
AcDbEntity
  8
_U+30EC_U+30A4_U+30E4_U+30FC 1
 62
   179
420
  2234388
370
     9
100
AcDb2dPolyline
 66
     1
 10
0.0
 20
0.0
 30
0.0
  0
VERTEX
  5
62
330
61
100
AcDbEntity
  8
_U+30EC_U+30A4_U+30E4_U+30FC 1
 62
   179
420
  2234388
370
     9
100
AcDbVertex
100
AcDb2dVertex
 10
80.2261096199281
 20
-115.7331596932889
 30
0.0
  0
VERTEX
  5
63
330
61
100
AcDbEntity
  8
_U+30EC_U+30A4_U+30E4_U+30FC 1
 62
   179
420
  2234388
370
     9
100
AcDbVertex
100
AcDb2dVertex
 10
76.76656109191939
 20
-115.7331596932889
 30
0.0
  0
SEQEND
  5
64
330
61
100
AcDbEntity
  8
_U+30EC_U+30A4_U+30E4_U+30FC 1
 62
   179
420
  2234388
370
     9
  0
POLYLINE
  5
65
330
1F
100
AcDbEntity
  8
_U+30EC_U+30A4_U+30E4_U+30FC 1
 62
   179
420
  2234388
370
     9
100
AcDb2dPolyline
 66
     1
 10
0.0
 20
0.0
 30
0.0
  0
VERTEX
  5
66
330
65
100
AcDbEntity
  8
_U+30EC_U+30A4_U+30E4_U+30FC 1
 62
   179
420
  2234388
370
     9
100
AcDbVertex
100
AcDb2dVertex
 10
81.76605513619637
 20
-139.7403224650647
 30
0.0
  0
VERTEX
  5
67
330
65
100
AcDbEntity
  8
_U+30EC_U+30A4_U+30E4_U+30FC 1
 62
   179
420
  2234388
370
     9
100
AcDbVertex
100
AcDb2dVertex
 10
101.7712357369328
 20
-139.7403224650647
 30
0.0
  0
SEQEND
  5
68
330
65
100
AcDbEntity
  8
_U+30EC_U+30A4_U+30E4_U+30FC 1
 62
   179
420
  2234388
370
     9
  0
POLYLINE
  5
69
330
1F
100
AcDbEntity
  8
_U+30EC_U+30A4_U+30E4_U+30FC 1
 62
   179
420
  2234388
370
     9
100
AcDb2dPolyline
 66
     1
 10
0.0
 20
0.0
 30
0.0
  0
VERTEX
  5
6A
330
69
100
AcDbEntity
  8
_U+30EC_U+30A4_U+30E4_U+30FC 1
 62
   179
420
  2234388
370
     9
100
AcDbVertex
100
AcDb2dVertex
 10
81.76605513619637
 20
-137.2798032990135
 30
0.0
  0
VERTEX
  5
6B
330
69
100
AcDbEntity
  8
_U+30EC_U+30A4_U+30E4_U+30FC 1
 62
   179
420
  2234388
370
     9
100
AcDbVertex
100
AcDb2dVertex
 10
81.76605513619637
 20
-140.7400594092597
 30
0.0
  0
SEQEND
  5
6C
330
69
100
AcDbEntity
  8
_U+30EC_U+30A4_U+30E4_U+30FC 1
 62
   179
420
  2234388
370
     9
  0
POLYLINE
  5
6D
330
1F
100
AcDbEntity
  8
_U+30EC_U+30A4_U+30E4_U+30FC 1
 62
   179
420
  2234388
370
     9
100
AcDb2dPolyline
 66
     1
 10
0.0
 20
0.0
 30
0.0
  0
VERTEX
  5
6E
330
6D
100
AcDbEntity
  8
_U+30EC_U+30A4_U+30E4_U+30FC 1
 62
   179
420
  2234388
370
     9
100
AcDbVertex
100
AcDb2dVertex
 10
101.7712357369328
 20
-138.280281076541
 30
0.0
  0
VERTEX
  5
6F
330
6D
100
AcDbEntity
  8
_U+30EC_U+30A4_U+30E4_U+30FC 1
 62
   179
420
  2234388
370
     9
100
AcDbVertex
100
AcDb2dVertex
 10
101.7712357369328
 20
-140.7400594092597
 30
0.0
  0
SEQEND
  5
70
330
6D
100
AcDbEntity
  8
_U+30EC_U+30A4_U+30E4_U+30FC 1
 62
   179
420
  2234388
370
     9
  0
INSERT
  5
72
330
1F
100
AcDbEntity
  8
_U+30EC_U+30A4_U+30E4_U+30FC 1
100
AcDbBlockReference
  2
block 3
 10
0.0
 20
0.0
 30
0.0
  0
INSERT
  5
7B
330
1F
100
AcDbEntity
  8
_U+30EC_U+30A4_U+30E4_U+30FC 1
100
AcDbBlockReference
  2
block 4
 10
0.0
 20
0.0
 30
0.0
  0
INSERT
  5
84
330
1F
100
AcDbEntity
  8
_U+30EC_U+30A4_U+30E4_U+30FC 1
100
AcDbBlockReference
  2
block 5
 10
0.0
 20
0.0
 30
0.0
  0
SPLINE
  5
8C
330
1F
100
AcDbEntity
  8
_U+30EC_U+30A4_U+30E4_U+30FC 1
 62
   179
420
  2234388
370
    25
100
AcDbSpline
210
0.0
220
0.0
230
1.0
 70
    11
 71
     3
 72
    26
 73
    22
 74
     0
 42
0.0000000001
 43
0.0000000001
 12
1.0
 22
0.0
 32
0.0
 13
1.0
 23
0.0
 33
0.0
 40
0.0
 40
0.0
 40
0.0
 40
0.0
 40
1.0
 40
1.0
 40
1.0
 40
2.0
 40
2.0
 40
2.0
 40
3.0
 40
3.0
 40
3.0
 40
4.0
 40
4.0
 40
4.0
 40
5.0
 40
5.0
 40
5.0
 40
6.0
 40
6.0
 40
6.0
 40
7.0
 40
7.0
 40
7.0
 40
7.0
 10
84.76621839298916
 20
-135.7398577438429
 30
0.0
 10
83.10929176859422
 20
-135.7398577438429
 30
0.0
 10
81.76605513619637
 20
-134.396621077512
 30
0.0
 10
81.76605513619637
 20
-132.7398708001486
 30
0.0
 10
81.76605513619637
 20
-132.7398708001486
 30
0.0
 10
81.76605513619637
 20
-115.7398624710651
 30
0.0
 10
81.76605513619637
 20
-115.7398624710651
 30
0.0
 10
81.76605513619637
 20
-115.7398624710651
 30
0.0
 10
84.76621839298916
 20
-115.7398624710651
 30
0.0
 10
84.76621839298916
 20
-115.7398624710651
 30
0.0
 10
84.76621839298916
 20
-115.7398624710651
 30
0.0
 10
84.76621839298916
 20
-132.7398708001486
 30
0.0
 10
84.76621839298916
 20
-132.7398708001486
 30
0.0
 10
84.76621839298916
 20
-132.7398708001486
 30
0.0
 10
101.7664026815006
 20
-132.7398708001486
 30
0.0
 10
101.7664026815006
 20
-132.7398708001486
 30
0.0
 10
101.7664026815006
 20
-132.7398708001486
 30
0.0
 10
101.7664026815006
 20
-135.7398577438429
 30
0.0
 10
101.7664026815006
 20
-135.7398577438429
 30
0.0
 10
101.7664026815006
 20
-135.7398577438429
 30
0.0
 10
84.76621839298916
 20
-135.7398577438429
 30
0.0
 10
84.76621839298916
 20
-135.7398577438429
 30
0.0
  0
SPLINE
  5
8D
330
1F
100
AcDbEntity
  8
_U+30EC_U+30A4_U+30E4_U+30FC 1
 62
   179
420
  2234388
370
    25
100
AcDbSpline
210
0.0
220
0.0
230
1.0
 70
     8
 71
     3
 72
     8
 73
     4
 74
     0
 42
0.0000000001
 43
0.0000000001
 12
1.0
 22
0.0
 32
0.0
 13
1.0
 23
0.0
 33
0.0
 40
0.0
 40
0.0
 40
0.0
 40
0.0
 40
1.0
 40
1.0
 40
1.0
 40
1.0
 10
84.76621839298916
 20
-135.7398577438429
 30
0.0
 10
83.10929176859422
 20
-135.7398577438429
 30
0.0
 10
81.76605513619637
 20
-134.396621077512
 30
0.0
 10
81.76605513619637
 20
-132.7398708001486
 30
0.0
  0
POLYLINE
  5
8E
330
1F
100
AcDbEntity
  8
_U+30EC_U+30A4_U+30E4_U+30FC 1
 62
   179
420
  2234388
370
     9
100
AcDb2dPolyline
 66
     1
 10
0.0
 20
0.0
 30
0.0
  0
VERTEX
  5
8F
330
8E
100
AcDbEntity
  8
_U+30EC_U+30A4_U+30E4_U+30FC 1
 62
   179
420
  2234388
370
     9
100
AcDbVertex
100
AcDb2dVertex
 10
82.53500483880104
 20
-135.1042580217796
 30
0.0
  0
VERTEX
  5
90
330
8E
100
AcDbEntity
  8
_U+30EC_U+30A4_U+30E4_U+30FC 1
 62
   179
420
  2234388
370
     9
100
AcDbVertex
100
AcDb2dVertex
 10
81.63203486183774
 20
-135.6258399660934
 30
0.0
  0
SEQEND
  5
91
330
8E
100
AcDbEntity
  8
_U+30EC_U+30A4_U+30E4_U+30FC 1
 62
   179
420
  2234388
370
     9
  0
POLYLINE
  5
92
330
1F
100
AcDbEntity
  8
_U+30EC_U+30A4_U+30E4_U+30FC 1
 62
   179
420
  2234388
370
     9
100
AcDb2dPolyline
 66
     1
 10
0.0
 20
0.0
 30
0.0
  0
VERTEX
  5
93
330
92
100
AcDbEntity
  8
_U+30EC_U+30A4_U+30E4_U+30FC 1
 62
   179
420
  2234388
370
     9
100
AcDbVertex
100
AcDb2dVertex
 10
82.53500483880104
 20
-135.1042580217796
 30
0.0
  0
VERTEX
  5
94
330
92
100
AcDbEntity
  8
_U+30EC_U+30A4_U+30E4_U+30FC 1
 62
   179
420
  2234388
370
     9
100
AcDbVertex
100
AcDb2dVertex
 10
78.42638053594885
 20
-139.3651432984924
 30
0.0
  0
SEQEND
  5
95
330
92
100
AcDbEntity
  8
_U+30EC_U+30A4_U+30E4_U+30FC 1
 62
   179
420
  2234388
370
     9
  0
POLYLINE
  5
96
330
1F
100
AcDbEntity
  8
_U+30EC_U+30A4_U+30E4_U+30FC 1
 62
   179
420
  2234388
370
     9
100
AcDb2dPolyline
 66
     1
 10
0.0
 20
0.0
 30
0.0
  0
VERTEX
  5
97
330
96
100
AcDbEntity
  8
_U+30EC_U+30A4_U+30E4_U+30FC 1
 62
   179
420
  2234388
370
     9
100
AcDbVertex
100
AcDb2dVertex
 10
82.53500483880104
 20
-135.1042580217796
 30
0.0
  0
VERTEX
  5
98
330
96
100
AcDbEntity
  8
_U+30EC_U+30A4_U+30E4_U+30FC 1
 62
   179
420
  2234388
370
     9
100
AcDbVertex
100
AcDb2dVertex
 10
82.01307220171898
 20
-136.0068752437762
 30
0.0
  0
SEQEND
  5
99
330
96
100
AcDbEntity
  8
_U+30EC_U+30A4_U+30E4_U+30FC 1
 62
   179
420
  2234388
370
     9
  0
ENDSEC
  0
SECTION
  2
OBJECTS
  0
DICTIONARY
  5
C
330
0
100
AcDbDictionary
281
     1
  3
ACAD_GROUP
350
D
  3
ACAD_LAYOUT
350
1A
  3
ACAD_MATERIAL
350
3B
  3
ACAD_MLEADERSTYLE
350
9B
  3
ACAD_MLINESTYLE
350
17
  3
ACAD_PLOTSETTINGS
350
19
  3
ACAD_PLOTSTYLENAME
350
E
  3
ACAD_TABLESTYLE
350
9A
  3
ACAD_VISUALSTYLE
350
2A
  0
SUN
  5
3F
330
29
100
AcDbSun
 90
        1
290
     0
 63
     7
421
 16777215
 40
1.0
291
     1
 91
  2455826
 92
 54000000
292
     0
 70
     2
 71
   256
280
     1
  0
DICTIONARY
  5
D
102
{ACAD_REACTORS
330
C
102
}
330
C
100
AcDbDictionary
281
     1
  0
DICTIONARY
  5
1A
102
{ACAD_REACTORS
330
C
102
}
330
C
100
AcDbDictionary
281
     1
  3
Layout1
350
1E
  3
Layout2
350
26
  3
Model
350
22
  0
DICTIONARY
  5
3B
102
{ACAD_REACTORS
330
C
102
}
330
C
100
AcDbDictionary
281
     1
  3
ByBlock
350
3D
  3
ByLayer
350
3C
  3
Global
350
3E
  0
DICTIONARY
  5
9B
102
{ACAD_REACTORS
330
C
102
}
330
C
100
AcDbDictionary
281
     1
  0
DICTIONARY
  5
17
102
{ACAD_REACTORS
330
C
102
}
330
C
100
AcDbDictionary
281
     1
  3
Standard
350
18
  0
DICTIONARY
  5
19
102
{ACAD_REACTORS
330
C
102
}
330
C
100
AcDbDictionary
281
     1
  0
ACDBDICTIONARYWDFLT
  5
E
102
{ACAD_REACTORS
330
C
102
}
330
C
100
AcDbDictionary
281
     1
  3
Normal
350
F
100
AcDbDictionaryWithDefault
340
F
  0
DICTIONARY
  5
9A
102
{ACAD_REACTORS
330
C
102
}
330
C
100
AcDbDictionary
281
     1
  0
DICTIONARY
  5
2A
102
{ACAD_REACTORS
330
C
102
}
330
C
100
AcDbDictionary
281
     1
  3
2dWireframe
350
2F
  3
3D Hidden
350
31
  3
3dWireframe
350
30
  3
Basic
350
32
  3
Brighten
350
36
  3
ColorChange
350
3A
  3
Conceptual
350
34
  3
Dim
350
35
  3
Facepattern
350
39
  3
Flat
350
2B
  3
FlatWithEdges
350
2C
  3
Gouraud
350
2D
  3
GouraudWithEdges
350
2E
  3
Linepattern
350
38
  3
Realistic
350
33
  3
Thicken
350
37
  0
LAYOUT
  5
1E
102
{ACAD_REACTORS
330
1A
102
}
330
1A
100
AcDbPlotSettings
  1

  2
none_device
  4

  6

 40
0.0
 41
0.0
 42
0.0
 43
0.0
 44
0.0
 45
0.0
 46
0.0
 47
0.0
 48
0.0
 49
0.0
140
0.0
141
0.0
142
1.0
143
1.0
 70
   688
 72
     0
 73
     0
 74
     5
  7

 75
    16
 76
     0
 77
     2
 78
   300
147
1.0
148
0.0
149
0.0
100
AcDbLayout
  1
Layout1
 70
     1
 71
     1
 10
0.0
 20
0.0
 11
12.0
 21
9.0
 12
0.0
 22
0.0
 32
0.0
 14
1.000000000000000E+20
 24
1.000000000000000E+20
 34
1.000000000000000E+20
 15
-1.000000000000000E+20
 25
-1.000000000000000E+20
 35
-1.000000000000000E+20
146
0.0
 13
0.0
 23
0.0
 33
0.0
 16
1.0
 26
0.0
 36
0.0
 17
0.0
 27
1.0
 37
0.0
 76
     0
330
1B
  0
LAYOUT
  5
26
102
{ACAD_REACTORS
330
1A
102
}
330
1A
100
AcDbPlotSettings
  1

  2
none_device
  4

  6

 40
0.0
 41
0.0
 42
0.0
 43
0.0
 44
0.0
 45
0.0
 46
0.0
 47
0.0
 48
0.0
 49
0.0
140
0.0
141
0.0
142
1.0
143
1.0
 70
   688
 72
     0
 73
     0
 74
     5
  7

 75
    16
 76
     0
 77
     2
 78
   300
147
1.0
148
0.0
149
0.0
100
AcDbLayout
  1
Layout2
 70
     1
 71
     2
 10
0.0
 20
0.0
 11
0.0
 21
0.0
 12
0.0
 22
0.0
 32
0.0
 14
0.0
 24
0.0
 34
0.0
 15
0.0
 25
0.0
 35
0.0
146
0.0
 13
0.0
 23
0.0
 33
0.0
 16
1.0
 26
0.0
 36
0.0
 17
0.0
 27
1.0
 37
0.0
 76
     0
330
23
  0
LAYOUT
  5
22
102
{ACAD_REACTORS
330
1A
102
}
330
1A
100
AcDbPlotSettings
  1

  2
none_device
  4

  6

 40
0.0
 41
0.0
 42
0.0
 43
0.0
 44
0.0
 45
0.0
 46
0.0
 47
0.0
 48
0.0
 49
0.0
140
0.0
141
0.0
142
1.0
143
1.0
 70
  1712
 72
     0
 73
     0
 74
     0
  7

 75
     0
 76
     0
 77
     2
 78
   300
147
1.0
148
0.0
149
0.0
100
AcDbLayout
  1
Model
 70
     1
 71
     0
 10
0.0
 20
0.0
 11
12.0
 21
9.0
 12
0.0
 22
0.0
 32
0.0
 14
1.000000000000000E+20
 24
1.000000000000000E+20
 34
1.000000000000000E+20
 15
-1.000000000000000E+20
 25
-1.000000000000000E+20
 35
-1.000000000000000E+20
146
0.0
 13
0.0
 23
0.0
 33
0.0
 16
1.0
 26
0.0
 36
0.0
 17
0.0
 27
1.0
 37
0.0
 76
     0
330
1F
331
29
  0
MATERIAL
  5
3D
102
{ACAD_REACTORS
330
3B
102
}
330
3B
100
AcDbMaterial
  1
ByBlock
 72
     1
 94
      127
  0
MATERIAL
  5
3C
102
{ACAD_REACTORS
330
3B
102
}
330
3B
100
AcDbMaterial
  1
ByLayer
 72
     1
 94
      127
  0
MATERIAL
  5
3E
102
{ACAD_REACTORS
330
3B
102
}
330
3B
100
AcDbMaterial
  1
Global
 72
     1
 94
      127
  0
MLINESTYLE
  5
18
102
{ACAD_REACTORS
330
17
102
}
330
17
100
AcDbMlineStyle
  2
Standard
 70
     0
  3

 62
   256
 51
90.0
 52
90.0
 71
     2
 49
0.5
 62
   256
  6
BYLAYER
 49
-0.5
 62
   256
  6
BYLAYER
  0
ACDBPLACEHOLDER
  5
F
102
{ACAD_REACTORS
330
E
102
}
330
E
  0
VISUALSTYLE
  5
2F
102
{ACAD_REACTORS
330
2A
102
}
330
2A
100
AcDbVisualStyle
  2
2dWireframe
 70
     4
177
     2
291
     0
 71
     0
176
     1
 72
     2
176
     1
 73
     0
176
     1
 90
        0
176
     1
 40
-0.6
176
     1
 41
-30.0
176
     1
 62
     5
 63
     7
421
 16777215
176
     1
 74
     1
176
     1
 91
        4
176
     1
 64
     7
176
     1
 65
   257
176
     1
 75
     1
176
     1
175
     1
176
     1
 42
1.0
176
     1
 92
        0
176
     1
 66
   257
176
     1
 43
1.0
176
     1
 76
     1
176
     1
 77
     6
176
     1
 78
     2
176
     1
 67
     7
176
     1
 79
     5
176
     1
170
     0
176
     1
171
     0
176
     1
290
     0
176
     1
 93
        1
176
     1
 44
0.0
176
     1
173
     0
176
     1
  0
VISUALSTYLE
  5
31
102
{ACAD_REACTORS
330
2A
102
}
330
2A
100
AcDbVisualStyle
  2
3D Hidden
 70
     6
177
     2
291
     0
 71
     1
176
     1
 72
     2
176
     1
 73
     2
176
     1
 90
        0
176
     1
 40
-0.6
176
     1
 41
-30.0
176
     1
 62
     5
 63
     7
421
 16777215
176
     1
 74
     2
176
     1
 91
        2
176
     1
 64
     7
176
     1
 65
   257
176
     1
 75
     2
176
     1
175
     1
176
     1
 42
40.0
176
     1
 92
        0
176
     1
 66
   257
176
     1
 43
1.0
176
     1
 76
     1
176
     1
 77
     6
176
     1
 78
     2
176
     1
 67
     7
176
     1
 79
     3
176
     1
170
     0
176
     1
171
     0
176
     1
290
     0
176
     1
 93
        1
176
     1
 44
0.0
176
     1
173
     0
176
     1
  0
VISUALSTYLE
  5
30
102
{ACAD_REACTORS
330
2A
102
}
330
2A
100
AcDbVisualStyle
  2
3dWireframe
 70
     5
177
     2
291
     0
 71
     0
176
     1
 72
     2
176
     1
 73
     0
176
     1
 90
        0
176
     1
 40
-0.6
176
     1
 41
-30.0
176
     1
 62
     5
 63
     7
421
 16777215
176
     1
 74
     1
176
     1
 91
        4
176
     1
 64
     7
176
     1
 65
   257
176
     1
 75
     1
176
     1
175
     1
176
     1
 42
1.0
176
     1
 92
        0
176
     1
 66
   257
176
     1
 43
1.0
176
     1
 76
     1
176
     1
 77
     6
176
     1
 78
     2
176
     1
 67
     7
176
     1
 79
     5
176
     1
170
     0
176
     1
171
     0
176
     1
290
     0
176
     1
 93
        1
176
     1
 44
0.0
176
     1
173
     0
176
     1
  0
VISUALSTYLE
  5
32
102
{ACAD_REACTORS
330
2A
102
}
330
2A
100
AcDbVisualStyle
  2
Basic
 70
     7
177
     2
291
     1
 71
     1
176
     1
 72
     0
176
     1
 73
     1
176
     1
 90
        0
176
     1
 40
-0.6
176
     1
 41
-30.0
176
     1
 62
     5
 63
     7
421
 16777215
176
     1
 74
     0
176
     1
 91
        4
176
     1
 64
     7
176
     1
 65
   257
176
     1
 75
     1
176
     1
175
     1
176
     1
 42
1.0
176
     1
 92
        8
176
     1
 66
     7
176
     1
 43
1.0
176
     1
 76
     1
176
     1
 77
     6
176
     1
 78
     2
176
     1
 67
     7
176
     1
 79
     5
176
     1
170
     0
176
     1
171
     0
176
     1
290
     0
176
     1
 93
        1
176
     1
 44
0.0
176
     1
173
     0
176
     1
  0
VISUALSTYLE
  5
36
102
{ACAD_REACTORS
330
2A
102
}
330
2A
100
AcDbVisualStyle
  2
Brighten
 70
    12
177
     2
291
     1
 71
     2
176
     1
 72
     2
176
     1
 73
     0
176
     1
 90
        0
176
     1
 40
-0.6
176
     1
 41
-30.0
176
     1
 62
     5
 63
     7
421
 16777215
176
     1
 74
     1
176
     1
 91
        4
176
     1
 64
     7
176
     1
 65
   257
176
     1
 75
     1
176
     1
175
     1
176
     1
 42
1.0
176
     1
 92
        8
176
     1
 66
     7
176
     1
 43
1.0
176
     1
 76
     1
176
     1
 77
     6
176
     1
 78
     2
176
     1
 67
     7
176
     1
 79
     5
176
     1
170
     0
176
     1
171
     0
176
     1
290
     0
176
     1
 93
        1
176
     1
 44
50.0
176
     1
173
     0
176
     1
  0
VISUALSTYLE
  5
3A
102
{ACAD_REACTORS
330
2A
102
}
330
2A
100
AcDbVisualStyle
  2
ColorChange
 70
    16
177
     2
291
     1
 71
     2
176
     1
 72
     2
176
     1
 73
     3
176
     1
 90
        0
176
     1
 40
-0.6
176
     1
 41
-30.0
176
     1
 62
     5
 63
     8
421
  8421504
176
     1
 74
     1
176
     1
 91
        4
176
     1
 64
     7
176
     1
 65
   257
176
     1
 75
     1
176
     1
175
     1
176
     1
 42
1.0
176
     1
 92
        8
176
     1
 66
     8
424
  8421504
176
     1
 43
1.0
176
     1
 76
     1
176
     1
 77
     6
176
     1
 78
     2
176
     1
 67
     7
176
     1
 79
     5
176
     1
170
     0
176
     1
171
     0
176
     1
290
     0
176
     1
 93
        1
176
     1
 44
0.0
176
     1
173
     0
176
     1
  0
VISUALSTYLE
  5
34
102
{ACAD_REACTORS
330
2A
102
}
330
2A
100
AcDbVisualStyle
  2
Conceptual
 70
     9
177
     2
291
     0
 71
     3
176
     1
 72
     2
176
     1
 73
     0
176
     1
 90
        0
176
     1
 40
-0.6
176
     1
 41
-30.0
176
     1
 62
     5
 63
     7
421
 16777215
176
     1
 74
     2
176
     1
 91
        2
176
     1
 64
     7
176
     1
 65
   257
176
     1
 75
     1
176
     1
175
     1
176
     1
 42
40.0
176
     1
 92
        8
176
     1
 66
     7
176
     1
 43
1.0
176
     1
 76
     1
176
     1
 77
     6
176
     1
 78
     2
176
     1
 67
     7
176
     1
 79
     3
176
     1
170
     0
176
     1
171
     0
176
     1
290
     0
176
     1
 93
        1
176
     1
 44
0.0
176
     1
173
     0
176
     1
  0
VISUALSTYLE
  5
35
102
{ACAD_REACTORS
330
2A
102
}
330
2A
100
AcDbVisualStyle
  2
Dim
 70
    11
177
     2
291
     1
 71
     2
176
     1
 72
     2
176
     1
 73
     0
176
     1
 90
        0
176
     1
 40
-0.6
176
     1
 41
-30.0
176
     1
 62
     5
 63
     7
421
 16777215
176
     1
 74
     1
176
     1
 91
        4
176
     1
 64
     7
176
     1
 65
   257
176
     1
 75
     1
176
     1
175
     1
176
     1
 42
1.0
176
     1
 92
        8
176
     1
 66
     7
176
     1
 43
1.0
176
     1
 76
     1
176
     1
 77
     6
176
     1
 78
     2
176
     1
 67
     7
176
     1
 79
     5
176
     1
170
     0
176
     1
171
     0
176
     1
290
     0
176
     1
 93
        1
176
     1
 44
-50.0
176
     1
173
     0
176
     1
  0
VISUALSTYLE
  5
39
102
{ACAD_REACTORS
330
2A
102
}
330
2A
100
AcDbVisualStyle
  2
Facepattern
 70
    15
177
     2
291
     1
 71
     2
176
     1
 72
     2
176
     1
 73
     0
176
     1
 90
        0
176
     1
 40
-0.6
176
     1
 41
-30.0
176
     1
 62
     5
 63
     7
421
 16777215
176
     1
 74
     1
176
     1
 91
        4
176
     1
 64
     7
176
     1
 65
   257
176
     1
 75
     1
176
     1
175
     1
176
     1
 42
1.0
176
     1
 92
        8
176
     1
 66
     7
176
     1
 43
1.0
176
     1
 76
     1
176
     1
 77
     6
176
     1
 78
     2
176
     1
 67
     7
176
     1
 79
     5
176
     1
170
     0
176
     1
171
     0
176
     1
290
     0
176
     1
 93
        1
176
     1
 44
0.0
176
     1
173
     0
176
     1
  0
VISUALSTYLE
  5
2B
102
{ACAD_REACTORS
330
2A
102
}
330
2A
100
AcDbVisualStyle
  2
Flat
 70
     0
177
     2
291
     1
 71
     2
176
     1
 72
     1
176
     1
 73
     1
176
     1
 90
        2
176
     1
 40
-0.6
176
     1
 41
30.0
176
     1
 62
     5
 63
     7
421
 16777215
176
     1
 74
     0
176
     1
 91
        4
176
     1
 64
     7
176
     1
 65
   257
176
     1
 75
     1
176
     1
175
     1
176
     1
 42
1.0
176
     1
 92
        8
176
     1
 66
     7
176
     1
 43
1.0
176
     1
 76
     1
176
     1
 77
     6
176
     1
 78
     2
176
     1
 67
     7
176
     1
 79
     5
176
     1
170
     0
176
     1
171
     0
176
     1
290
     0
176
     1
 93
       13
176
     1
 44
0.0
176
     1
173
     0
176
     1
  0
VISUALSTYLE
  5
2C
102
{ACAD_REACTORS
330
2A
102
}
330
2A
100
AcDbVisualStyle
  2
FlatWithEdges
 70
     1
177
     2
291
     1
 71
     2
176
     1
 72
     1
176
     1
 73
     1
176
     1
 90
        2
176
     1
 40
-0.6
176
     1
 41
30.0
176
     1
 62
     5
 63
     7
421
 16777215
176
     1
 74
     1
176
     1
 91
        4
176
     1
 64
     7
176
     1
 65
   257
176
     1
 75
     1
176
     1
175
     1
176
     1
 42
1.0
176
     1
 92
        0
176
     1
 66
   257
176
     1
 43
1.0
176
     1
 76
     1
176
     1
 77
     6
176
     1
 78
     2
176
     1
 67
     7
176
     1
 79
     5
176
     1
170
     0
176
     1
171
     0
176
     1
290
     0
176
     1
 93
       13
176
     1
 44
0.0
176
     1
173
     0
176
     1
  0
VISUALSTYLE
  5
2D
102
{ACAD_REACTORS
330
2A
102
}
330
2A
100
AcDbVisualStyle
  2
Gouraud
 70
     2
177
     2
291
     1
 71
     2
176
     1
 72
     2
176
     1
 73
     1
176
     1
 90
        2
176
     1
 40
-0.6
176
     1
 41
30.0
176
     1
 62
     5
 63
     7
421
 16777215
176
     1
 74
     0
176
     1
 91
        4
176
     1
 64
     7
176
     1
 65
   257
176
     1
 75
     1
176
     1
175
     1
176
     1
 42
1.0
176
     1
 92
        0
176
     1
 66
     7
176
     1
 43
1.0
176
     1
 76
     1
176
     1
 77
     6
176
     1
 78
     2
176
     1
 67
     7
176
     1
 79
     5
176
     1
170
     0
176
     1
171
     0
176
     1
290
     0
176
     1
 93
       13
176
     1
 44
0.0
176
     1
173
     0
176
     1
  0
VISUALSTYLE
  5
2E
102
{ACAD_REACTORS
330
2A
102
}
330
2A
100
AcDbVisualStyle
  2
GouraudWithEdges
 70
     3
177
     2
291
     1
 71
     2
176
     1
 72
     2
176
     1
 73
     1
176
     1
 90
        2
176
     1
 40
-0.6
176
     1
 41
30.0
176
     1
 62
     5
 63
     7
421
 16777215
176
     1
 74
     1
176
     1
 91
        4
176
     1
 64
     7
176
     1
 65
   257
176
     1
 75
     1
176
     1
175
     1
176
     1
 42
1.0
176
     1
 92
        0
176
     1
 66
   257
176
     1
 43
1.0
176
     1
 76
     1
176
     1
 77
     6
176
     1
 78
     2
176
     1
 67
     7
176
     1
 79
     5
176
     1
170
     0
176
     1
171
     0
176
     1
290
     0
176
     1
 93
       13
176
     1
 44
0.0
176
     1
173
     0
176
     1
  0
VISUALSTYLE
  5
38
102
{ACAD_REACTORS
330
2A
102
}
330
2A
100
AcDbVisualStyle
  2
Linepattern
 70
    14
177
     2
291
     1
 71
     2
176
     1
 72
     2
176
     1
 73
     0
176
     1
 90
        0
176
     1
 40
-0.6
176
     1
 41
-30.0
176
     1
 62
     5
 63
     7
421
 16777215
176
     1
 74
     1
176
     1
 91
        4
176
     1
 64
     7
176
     1
 65
   257
176
     1
 75
     7
176
     1
175
     7
176
     1
 42
1.0
176
     1
 92
        8
176
     1
 66
     7
176
     1
 43
1.0
176
     1
 76
     1
176
     1
 77
     6
176
     1
 78
     2
176
     1
 67
     7
176
     1
 79
     5
176
     1
170
     0
176
     1
171
     0
176
     1
290
     0
176
     1
 93
        1
176
     1
 44
0.0
176
     1
173
     0
176
     1
  0
VISUALSTYLE
  5
33
102
{ACAD_REACTORS
330
2A
102
}
330
2A
100
AcDbVisualStyle
  2
Realistic
 70
     8
177
     2
291
     0
 71
     2
176
     1
 72
     2
176
     1
 73
     0
176
     1
 90
        0
176
     1
 40
-0.6
176
     1
 41
-30.0
176
     1
 62
     5
 63
     7
421
 16777215
176
     1
 74
     1
176
     1
 91
        0
176
     1
 64
     7
176
     1
 65
   257
176
     1
 75
     1
176
     1
175
     1
176
     1
 42
1.0
176
     1
 92
        8
176
     1
 66
     8
424
  7895160
176
     1
 43
1.0
176
     1
 76
     1
176
     1
 77
     6
176
     1
 78
     2
176
     1
 67
     7
176
     1
 79
     5
176
     1
170
     0
176
     1
171
     0
176
     1
290
     0
176
     1
 93
       13
176
     1
 44
0.0
176
     1
173
     0
176
     1
  0
VISUALSTYLE
  5
37
102
{ACAD_REACTORS
330
2A
102
}
330
2A
100
AcDbVisualStyle
  2
Thicken
 70
    13
177
     2
291
     1
 71
     2
176
     1
 72
     2
176
     1
 73
     0
176
     1
 90
        0
176
     1
 40
-0.6
176
     1
 41
-30.0
176
     1
 62
     5
 63
     7
421
 16777215
176
     1
 74
     1
176
     1
 91
        4
176
     1
 64
     7
176
     1
 65
   257
176
     1
 75
     1
176
     1
175
     1
176
     1
 42
1.0
176
     1
 92
       12
176
     1
 66
     7
176
     1
 43
1.0
176
     1
 76
     1
176
     1
 77
     6
176
     1
 78
     2
176
     1
 67
     7
176
     1
 79
     5
176
     1
170
     0
176
     1
171
     0
176
     1
290
     0
176
     1
 93
        1
176
     1
 44
0.0
176
     1
173
     0
176
     1
  0
ENDSEC
  0
EOF
