  0
SECTION
  2
HEADER
  9
$ACADVER
  1
AC1024
  9
$ACADMAINTVER
 70
     6
  9
$DWGCODEPAGE
  3
UNDEFINED
  9
$INSBASE
 10
0.0
 20
0.0
 30
0.0
  9
$EXTMIN
 10
1.000000000000000E+20
 20
1.000000000000000E+20
 30
1.000000000000000E+20
  9
$EXTMAX
 10
-1.000000000000000E+20
 20
-1.000000000000000E+20
 30
-1.000000000000000E+20
  9
$LIMMIN
 10
0.0
 20
0.0
  9
$LIMMAX
 10
12.0
 20
9.0
  9
$ORTHOMODE
 70
     0
  9
$REGENMODE
 70
     1
  9
$FILLMODE
 70
     1
  9
$QTEXTMODE
 70
     0
  9
$MIRRTEXT
 70
     1
  9
$LTSCALE
 40
1.0
  9
$ATTMODE
 70
     1
  9
$TEXTSIZE
 40
0.2
  9
$TRACEWID
 40
0.05
  9
$TEXTSTYLE
  7
Standard
  9
$CLAYER
  8
0
  9
$CELTYPE
  6
ByLayer
  9
$CECOLOR
 62
   256
  9
$CELTSCALE
 40
1.0
  9
$DISPSILH
 70
     0
  9
$DIMSCALE
 40
1.0
  9
$DIMASZ
 40
0.18
  9
$DIMEXO
 40
0.0625
  9
$DIMDLI
 40
0.38
  9
$DIMRND
 40
0.0
  9
$DIMDLE
 40
0.0
  9
$DIMEXE
 40
0.18
  9
$DIMTP
 40
0.0
  9
$DIMTM
 40
0.0
  9
$DIMTXT
 40
0.18
  9
$DIMCEN
 40
0.09
  9
$DIMTSZ
 40
0.0
  9
$DIMTOL
 70
     0
  9
$DIMLIM
 70
     0
  9
$DIMTIH
 70
     1
  9
$DIMTOH
 70
     1
  9
$DIMSE1
 70
     0
  9
$DIMSE2
 70
     0
  9
$DIMTAD
 70
     0
  9
$DIMZIN
 70
     0
  9
$DIMBLK
  1

  9
$DIMASO
 70
     1
  9
$DIMSHO
 70
     1
  9
$DIMPOST
  1

  9
$DIMAPOST
  1

  9
$DIMALT
 70
     0
  9
$DIMALTD
 70
     2
  9
$DIMALTF
 40
25.4
  9
$DIMLFAC
 40
1.0
  9
$DIMTOFL
 70
     0
  9
$DIMTVP
 40
0.0
  9
$DIMTIX
 70
     0
  9
$DIMSOXD
 70
     0
  9
$DIMSAH
 70
     0
  9
$DIMBLK1
  1

  9
$DIMBLK2
  1

  9
$DIMSTYLE
  2
Standard
  9
$DIMCLRD
 70
     0
  9
$DIMCLRE
 70
     0
  9
$DIMCLRT
 70
     0
  9
$DIMTFAC
 40
1.0
  9
$DIMGAP
 40
0.09
  9
$DIMJUST
 70
     0
  9
$DIMSD1
 70
     0
  9
$DIMSD2
 70
     0
  9
$DIMTOLJ
 70
     1
  9
$DIMTZIN
 70
     0
  9
$DIMALTZ
 70
     0
  9
$DIMALTTZ
 70
     0
  9
$DIMUPT
 70
     0
  9
$DIMDEC
 70
     4
  9
$DIMTDEC
 70
     4
  9
$DIMALTU
 70
     2
  9
$DIMALTTD
 70
     2
  9
$DIMTXSTY
  7
Standard
  9
$DIMAUNIT
 70
     0
  9
$DIMADEC
 70
     0
  9
$DIMALTRND
 40
0.0
  9
$DIMAZIN
 70
     0
  9
$DIMDSEP
 70
    46
  9
$DIMATFIT
 70
     3
  9
$DIMFRAC
 70
     0
  9
$DIMLDRBLK
  1

  9
$DIMLUNIT
 70
     2
  9
$DIMLWD
 70
    -2
  9
$DIMLWE
 70
    -2
  9
$DIMTMOVE
 70
     0
  9
$DIMFXL
 40
1.0
  9
$DIMFXLON
 70
     0
  9
$DIMJOGANG
 40
0.7853981633974483
  9
$DIMTFILL
 70
     0
  9
$DIMTFILLCLR
 70
     0
  9
$DIMARCSYM
 70
     0
  9
$DIMLTYPE
  6

  9
$DIMLTEX1
  6

  9
$DIMLTEX2
  6

  9
$DIMTXTDIRECTION
 70
     0
  9
$LUNITS
 70
     2
  9
$LUPREC
 70
     4
  9
$SKETCHINC
 40
0.1
  9
$FILLETRAD
 40
0.5
  9
$AUNITS
 70
     0
  9
$AUPREC
 70
     0
  9
$MENU
  1
.
  9
$ELEVATION
 40
0.0
  9
$PELEVATION
 40
0.0
  9
$THICKNESS
 40
0.0
  9
$LIMCHECK
 70
     0
  9
$CHAMFERA
 40
0.5
  9
$CHAMFERB
 40
0.5
  9
$CHAMFERC
 40
1.0
  9
$CHAMFERD
 40
0.0
  9
$SKPOLY
 70
     0
  9
$TDCREATE
 40
2457917.598969907
  9
$TDUCREATE
 40
2457917.223969907
  9
$TDUPDATE
 40
2457917.598969907
  9
$TDUUPDATE
 40
2457917.223969907
  9
$TDINDWG
 40
0.0000000116
  9
$TDUSRTIMER
 40
0.0000000116
  9
$USRTIMER
 70
     1
  9
$ANGBASE
 50
0.0
  9
$ANGDIR
 70
     0
  9
$PDMODE
 70
     0
  9
$PDSIZE
 40
0.0
  9
$PLINEWID
 40
0.0
  9
$SPLFRAME
 70
     0
  9
$SPLINETYPE
 70
     6
  9
$SPLINESEGS
 70
     8
  9
$HANDSEED
  5
8E
  9
$SURFTAB1
 70
     6
  9
$SURFTAB2
 70
     6
  9
$SURFTYPE
 70
     6
  9
$SURFU
 70
     6
  9
$SURFV
 70
     6
  9
$UCSBASE
  2

  9
$UCSNAME
  2

  9
$UCSORG
 10
0.0
 20
0.0
 30
0.0
  9
$UCSXDIR
 10
1.0
 20
0.0
 30
0.0
  9
$UCSYDIR
 10
0.0
 20
1.0
 30
0.0
  9
$UCSORTHOREF
  2

  9
$UCSORTHOVIEW
 70
     0
  9
$UCSORGTOP
 10
0.0
 20
0.0
 30
0.0
  9
$UCSORGBOTTOM
 10
0.0
 20
0.0
 30
0.0
  9
$UCSORGLEFT
 10
0.0
 20
0.0
 30
0.0
  9
$UCSORGRIGHT
 10
0.0
 20
0.0
 30
0.0
  9
$UCSORGFRONT
 10
0.0
 20
0.0
 30
0.0
  9
$UCSORGBACK
 10
0.0
 20
0.0
 30
0.0
  9
$PUCSBASE
  2

  9
$PUCSNAME
  2

  9
$PUCSORG
 10
0.0
 20
0.0
 30
0.0
  9
$PUCSXDIR
 10
1.0
 20
0.0
 30
0.0
  9
$PUCSYDIR
 10
0.0
 20
1.0
 30
0.0
  9
$PUCSORTHOREF
  2

  9
$PUCSORTHOVIEW
 70
     0
  9
$PUCSORGTOP
 10
0.0
 20
0.0
 30
0.0
  9
$PUCSORGBOTTOM
 10
0.0
 20
0.0
 30
0.0
  9
$PUCSORGLEFT
 10
0.0
 20
0.0
 30
0.0
  9
$PUCSORGRIGHT
 10
0.0
 20
0.0
 30
0.0
  9
$PUCSORGFRONT
 10
0.0
 20
0.0
 30
0.0
  9
$PUCSORGBACK
 10
0.0
 20
0.0
 30
0.0
  9
$USERI1
 70
     0
  9
$USERI2
 70
     0
  9
$USERI3
 70
     0
  9
$USERI4
 70
     0
  9
$USERI5
 70
     0
  9
$USERR1
 40
0.0
  9
$USERR2
 40
0.0
  9
$USERR3
 40
0.0
  9
$USERR4
 40
0.0
  9
$USERR5
 40
0.0
  9
$WORLDVIEW
 70
     1
  9
$SHADEDGE
 70
     3
  9
$SHADEDIF
 70
    70
  9
$TILEMODE
 70
     1
  9
$MAXACTVP
 70
    64
  9
$PINSBASE
 10
0.0
 20
0.0
 30
0.0
  9
$PLIMCHECK
 70
     0
  9
$PEXTMIN
 10
1.000000000000000E+20
 20
1.000000000000000E+20
 30
1.000000000000000E+20
  9
$PEXTMAX
 10
-1.000000000000000E+20
 20
-1.000000000000000E+20
 30
-1.000000000000000E+20
  9
$PLIMMIN
 10
0.0
 20
0.0
  9
$PLIMMAX
 10
12.0
 20
9.0
  9
$UNITMODE
 70
     0
  9
$VISRETAIN
 70
     1
  9
$PLINEGEN
 70
     0
  9
$PSLTSCALE
 70
     1
  9
$TREEDEPTH
 70
  3020
  9
$CMLSTYLE
  2
Standard
  9
$CMLJUST
 70
     0
  9
$CMLSCALE
 40
1.0
  9
$PROXYGRAPHICS
 70
     1
  9
$MEASUREMENT
 70
     0
  9
$CELWEIGHT
370
    -1
  9
$ENDCAPS
280
     0
  9
$JOINSTYLE
280
     0
  9
$LWDISPLAY
290
     1
  9
$INSUNITS
 70
     1
  9
$HYPERLINKBASE
  1

  9
$STYLESHEET
  1

  9
$XEDIT
290
     1
  9
$CEPSNTYPE
380
     0
  9
$PSTYLEMODE
290
     1
  9
$FINGERPRINTGUID
  2
{18A8E175-6379-3440-2A0E-FE66224D5202}
  9
$VERSIONGUID
  2
{FAEB1C32-E019-11D5-929B-00C0DF256EC4}
  9
$EXTNAMES
290
     1
  9
$PSVPSCALE
 40
0.0
  9
$OLESTARTUP
290
     0
  9
$SORTENTS
280
   127
  9
$INDEXCTL
280
     0
  9
$HIDETEXT
280
     1
  9
$XCLIPFRAME
280
     2
  9
$HALOGAP
280
     0
  9
$OBSCOLOR
 70
   257
  9
$OBSLTYPE
280
     0
  9
$INTERSECTIONDISPLAY
280
     0
  9
$INTERSECTIONCOLOR
 70
   257
  9
$DIMASSOC
280
     2
  9
$PROJECTNAME
  1

  9
$CAMERADISPLAY
290
     0
  9
$LENSLENGTH
 40
50.0
  9
$CAMERAHEIGHT
 40
0.0
  9
$STEPSPERSEC
 40
2.0
  9
$STEPSIZE
 40
6.0
  9
$3DDWFPREC
 40
2.0
  9
$PSOLWIDTH
 40
0.25
  9
$PSOLHEIGHT
 40
4.0
  9
$LOFTANG1
 40
1.570796326794897
  9
$LOFTANG2
 40
1.570796326794897
  9
$LOFTMAG1
 40
0.0
  9
$LOFTMAG2
 40
0.0
  9
$LOFTPARAM
 70
     7
  9
$LOFTNORMALS
280
     1
  9
$LATITUDE
 40
37.795
  9
$LONGITUDE
 40
-122.394
  9
$NORTHDIRECTION
 40
0.0
  9
$TIMEZONE
 70
 -8000
  9
$LIGHTGLYPHDISPLAY
280
     1
  9
$TILEMODELIGHTSYNCH
280
     1
  9
$CMATERIAL
347
3C
  9
$SOLIDHIST
280
     1
  9
$SHOWHIST
280
     1
  9
$DWFFRAME
280
     2
  9
$DGNFRAME
280
     2
  9
$REALWORLDSCALE
290
     1
  9
$INTERFERECOLOR
 62
   256
  9
$CSHADOW
280
     0
  9
$SHADOWPLANELOCATION
 40
0.0
  0
ENDSEC
  0
SECTION
  2
CLASSES
  0
CLASS
  1
ACDBDICTIONARYWDFLT
  2
AcDbDictionaryWithDefault
  3
ObjectDBX Classes
 90
        0
 91
        4
280
     0
281
     0
  0
CLASS
  1
VISUALSTYLE
  2
AcDbVisualStyle
  3
ObjectDBX Classes
 90
     4095
 91
        4
280
     0
281
     0
  0
CLASS
  1
MATERIAL
  2
AcDbMaterial
  3
ObjectDBX Classes
 90
     1153
 91
        4
280
     0
281
     0
  0
CLASS
  1
SUN
  2
AcDbSun
  3
SCENEOE
 90
     1024
 91
        4
280
     0
281
     0
  0
ENDSEC
  0
SECTION
  2
TABLES
  0
TABLE
  2
VPORT
  5
8
330
0
100
AcDbSymbolTable
 70
     1
  0
VPORT
  5
29
330
8
100
AcDbSymbolTableRecord
100
AcDbViewportTableRecord
  2
*Active
 70
     0
 10
0.0
 20
0.0
 11
1.0
 21
1.0
 12
0.0
 22
0.0
 13
0.0
 23
0.0
 14
0.5
 24
0.5
 15
0.5
 25
0.5
 16
0.0
 26
0.0
 36
1.0
 17
91.00082462281999
 27
-128.4993055234307
 37
0.0
 40
256.9986110468615
 41
0.7081814508812795
 42
50.0
 43
0.0
 44
0.0
 50
0.0
 51
0.0
 71
     0
 72
   100
 73
     1
 74
     3
 75
     0
 76
     0
 77
     0
 78
     0
281
     0
 65
     1
110
0.0
120
0.0
130
0.0
111
1.0
121
0.0
131
0.0
112
0.0
122
1.0
132
0.0
 79
     0
146
0.0
 60
     3
 61
     5
292
     1
282
     1
141
0.0
142
0.0
 63
   250
361
3F
  0
ENDTAB
  0
TABLE
  2
LTYPE
  5
5
330
0
100
AcDbSymbolTable
 70
     1
  0
LTYPE
  5
14
330
5
100
AcDbSymbolTableRecord
100
AcDbLinetypeTableRecord
  2
ByBlock
 70
     0
  3

 72
    65
 73
     0
 40
0.0
  0
LTYPE
  5
15
330
5
100
AcDbSymbolTableRecord
100
AcDbLinetypeTableRecord
  2
ByLayer
 70
     0
  3

 72
    65
 73
     0
 40
0.0
  0
LTYPE
  5
16
330
5
100
AcDbSymbolTableRecord
100
AcDbLinetypeTableRecord
  2
Continuous
 70
     0
  3
Solid line
 72
    65
 73
     0
 40
0.0
  0
ENDTAB
  0
TABLE
  2
LAYER
  5
2
330
0
100
AcDbSymbolTable
 70
     2
  0
LAYER
  5
10
330
2
100
AcDbSymbolTableRecord
100
AcDbLayerTableRecord
  2
0
 70
     0
 62
     7
  6
Continuous
370
    -3
390
F
347
3E
  0
LAYER
  5
40
330
2
100
AcDbSymbolTableRecord
100
AcDbLayerTableRecord
  2
_U+30EC_U+30A4_U+30E4_U+30FC 1
 70
     0
 62
     7
  6
Continuous
370
    -3
390
F
347
3E
  0
ENDTAB
  0
TABLE
  2
STYLE
  5
3
330
0
100
AcDbSymbolTable
 70
     1
  0
STYLE
  5
11
330
3
100
AcDbSymbolTableRecord
100
AcDbTextStyleTableRecord
  2
Standard
 70
     0
 40
0.0
 41
1.0
 50
0.0
 71
     0
 42
0.2
  3
txt
  4

  0
ENDTAB
  0
TABLE
  2
VIEW
  5
6
330
0
100
AcDbSymbolTable
 70
     0
  0
ENDTAB
  0
TABLE
  2
UCS
  5
7
330
0
100
AcDbSymbolTable
 70
     0
  0
ENDTAB
  0
TABLE
  2
APPID
  5
9
330
0
100
AcDbSymbolTable
 70
     1
  0
APPID
  5
12
330
9
100
AcDbSymbolTableRecord
100
AcDbRegAppTableRecord
  2
ACAD
 70
     0
  0
ENDTAB
  0
TABLE
  2
DIMSTYLE
  5
A
330
0
100
AcDbSymbolTable
 70
     1
100
AcDbDimStyleTable
  0
DIMSTYLE
105
27
330
A
100
AcDbSymbolTableRecord
100
AcDbDimStyleTableRecord
  2
Standard
 70
     0
178
     0
340
11
  0
ENDTAB
  0
TABLE
  2
BLOCK_RECORD
  5
1
330
0
100
AcDbSymbolTable
 70
     4
  0
BLOCK_RECORD
  5
1F
330
1
100
AcDbSymbolTableRecord
100
AcDbBlockTableRecord
  2
*Model_Space
340
22
 70
     0
280
     1
281
     0
  0
BLOCK_RECORD
  5
1B
330
1
100
AcDbSymbolTableRecord
100
AcDbBlockTableRecord
  2
*Paper_Space
340
1E
 70
     0
280
     1
281
     0
  0
BLOCK_RECORD
  5
23
330
1
100
AcDbSymbolTableRecord
100
AcDbBlockTableRecord
  2
*Paper_Space0
340
26
 70
     0
280
     1
281
     0
  0
BLOCK_RECORD
  5
4F
330
1
100
AcDbSymbolTableRecord
100
AcDbBlockTableRecord
  2
block 2
340
0
102
{BLKREFS
331
50
102
}
 70
     0
280
     1
281
     0
  0
BLOCK_RECORD
  5
7A
330
1
100
AcDbSymbolTableRecord
100
AcDbBlockTableRecord
  2
block 3
340
0
102
{BLKREFS
331
7B
102
}
 70
     0
280
     1
281
     0
  0
BLOCK_RECORD
  5
83
330
1
100
AcDbSymbolTableRecord
100
AcDbBlockTableRecord
  2
block 4
340
0
102
{BLKREFS
331
84
102
}
 70
     0
280
     1
281
     0
  0
ENDTAB
  0
ENDSEC
  0
SECTION
  2
BLOCKS
  0
BLOCK
  5
20
330
1F
100
AcDbEntity
  8
0
100
AcDbBlockBegin
  2
*Model_Space
 70
     0
 10
0.0
 20
0.0
 30
0.0
  3
*Model_Space
  1

  0
ENDBLK
  5
21
330
1F
100
AcDbEntity
  8
0
100
AcDbBlockEnd
  0
BLOCK
  5
1C
330
1B
100
AcDbEntity
 67
     1
  8
0
100
AcDbBlockBegin
  2
*Paper_Space
 70
     0
 10
0.0
 20
0.0
 30
0.0
  3
*Paper_Space
  1

  0
ENDBLK
  5
1D
330
1B
100
AcDbEntity
 67
     1
  8
0
100
AcDbBlockEnd
  0
BLOCK
  5
24
330
23
100
AcDbEntity
  8
0
100
AcDbBlockBegin
  2
*Paper_Space0
 70
     0
 10
0.0
 20
0.0
 30
0.0
  3
*Paper_Space0
  1

  0
ENDBLK
  5
25
330
23
100
AcDbEntity
  8
0
100
AcDbBlockEnd
  0
BLOCK
  5
51
330
4F
100
AcDbEntity
  8
0
100
AcDbBlockBegin
  2
block 2
 70
     0
 10
0.0
 20
0.0
 30
0.0
  3
block 2
  1

  0
SPLINE
  5
53
330
4F
100
AcDbEntity
  8
_U+30EC_U+30A4_U+30E4_U+30FC 1
370
     0
100
AcDbSpline
210
0.0
220
0.0
230
1.0
 70
    11
 71
     3
 72
    62
 73
    58
 74
     0
 42
0.0000000001
 43
0.0000000001
 12
1.0
 22
0.0
 32
0.0
 13
1.0
 23
0.0
 33
0.0
 40
0.0
 40
0.0
 40
0.0
 40
0.0
 40
1.0
 40
1.0
 40
1.0
 40
2.0
 40
2.0
 40
2.0
 40
3.0
 40
3.0
 40
3.0
 40
4.0
 40
4.0
 40
4.0
 40
5.0
 40
5.0
 40
5.0
 40
6.0
 40
6.0
 40
6.0
 40
7.0
 40
7.0
 40
7.0
 40
8.0
 40
8.0
 40
8.0
 40
9.0
 40
9.0
 40
9.0
 40
10.0
 40
10.0
 40
10.0
 40
11.0
 40
11.0
 40
11.0
 40
12.0
 40
12.0
 40
12.0
 40
13.0
 40
13.0
 40
13.0
 40
14.0
 40
14.0
 40
14.0
 40
15.0
 40
15.0
 40
15.0
 40
16.0
 40
16.0
 40
16.0
 40
17.0
 40
17.0
 40
17.0
 40
18.0
 40
18.0
 40
18.0
 40
19.0
 40
19.0
 40
19.0
 40
19.0
 10
105.1629177254454
 20
-134.4255587771575
 30
0.0
 10
105.1629177254454
 20
-134.5209879220989
 30
0.0
 10
105.1419026429854
 20
-134.7387179567667
 30
0.0
 10
104.9558674867819
 20
-134.8637749228813
 30
0.0
 10
104.8435573739627
 20
-134.9374999662656
 30
0.0
 10
104.7443386239875
 20
-134.9419785903964
 30
0.0
 10
104.6595892750504
 20
-134.9461127049788
 30
0.0
 10
104.6595892750504
 20
-134.9461127049788
 30
0.0
 10
104.6595892750504
 20
-134.7259711034713
 30
0.0
 10
104.6595892750504
 20
-134.7259711034713
 30
0.0
 10
104.7336588279833
 20
-134.7239040461801
 30
0.0
 10
104.9682698305288
 20
-134.7135687597244
 30
0.0
 10
104.9682698305288
 20
-134.4300374012883
 30
0.0
 10
104.9682698305288
 20
-134.2925780914269
 30
0.0
 10
104.8986789017267
 20
-134.1399603614303
 30
0.0
 10
104.6702690710547
 20
-134.1399603614303
 30
0.0
 10
104.5538248436532
 20
-134.1399603614303
 30
0.0
 10
104.5052489973112
 20
-134.1782009213166
 30
0.0
 10
104.4735541188469
 20
-134.2098957997809
 30
0.0
 10
104.399484565914
 20
-134.2839653527138
 30
0.0
 10
104.3867377126186
 20
-134.4004095801152
 30
0.0
 10
104.3867377126186
 20
-134.4551865983306
 30
0.0
 10
104.3867377126186
 20
-134.474479133048
 30
0.0
 10
104.3888047699098
 20
-134.5103081260947
 30
0.0
 10
104.3929388844921
 20
-134.5378688899766
 30
0.0
 10
104.3929388844921
 20
-134.5378688899766
 30
0.0
 10
104.1982909895754
 20
-134.5378688899766
 30
0.0
 10
104.1982909895754
 20
-134.5378688899766
 30
0.0
 10
104.2048366709974
 20
-134.4996283300904
 30
0.0
 10
104.2069037282886
 20
-134.4575981651703
 30
0.0
 10
104.2069037282886
 20
-134.4510524837484
 30
0.0
 10
104.2069037282886
 20
-134.3855956695286
 30
0.0
 10
104.18554413628
 20
-134.1868136600297
 30
0.0
 10
103.9488660764433
 20
-134.1868136600297
 30
0.0
 10
103.7710991494044
 20
-134.1868136600297
 30
0.0
 10
103.7159776216404
 20
-134.3177272884692
 30
0.0
 10
103.7159776216404
 20
-134.4279703439972
 30
0.0
 10
103.7159776216404
 20
-134.6922091677158
 30
0.0
 10
103.9488660764433
 20
-134.700821906429
 30
0.0
 10
104.0205240625365
 20
-134.7049560210113
 30
0.0
 10
104.0205240625365
 20
-134.7049560210113
 30
0.0
 10
104.0205240625365
 20
-134.908216654641
 30
0.0
 10
104.0205240625365
 20
-134.908216654641
 30
0.0
 10
103.8958116059705
 20
-134.8996039159279
 30
0.0
 10
103.5192626694327
 20
-134.8720431520459
 30
0.0
 10
103.5192626694327
 20
-134.4152234907017
 30
0.0
 10
103.5192626694327
 20
-134.190947774612
 30
0.0
 10
103.6463866928384
 20
-133.9497910906445
 30
0.0
 10
103.9423203950214
 20
-133.9497910906445
 30
0.0
 10
104.1287000607734
 20
-133.9497910906445
 30
0.0
 10
104.2110378428709
 20
-134.0448757260374
 30
0.0
 10
104.2723605425083
 20
-134.1444389855611
 30
0.0
 10
104.2999213063903
 20
-134.0831162859237
 30
0.0
 10
104.3801920311966
 20
-133.9012152443025
 30
0.0
 10
104.6575222177592
 20
-133.9012152443025
 30
0.0
 10
104.9958305944108
 20
-133.9012152443025
 30
0.0
 10
105.1629177254454
 20
-134.1485731001434
 30
0.0
 10
105.1629177254454
 20
-134.4255587771575
 30
0.0
  0
HATCH
  5
54
330
4F
100
AcDbEntity
  8
_U+30EC_U+30A4_U+30E4_U+30FC 1
 62
   179
420
  2234388
100
AcDbHatch
 10
0.0
 20
0.0
 30
0.0
210
0.0
220
0.0
230
1.0
  2
SOLID
 70
     1
 71
     0
 91
        1
 92
        1
 93
        1
 72
     4
 94
        3
 73
     0
 74
     1
 95
       62
 96
       58
 40
0.0
 40
0.0
 40
0.0
 40
0.0
 40
1.0
 40
1.0
 40
1.0
 40
2.0
 40
2.0
 40
2.0
 40
3.0
 40
3.0
 40
3.0
 40
4.0
 40
4.0
 40
4.0
 40
5.0
 40
5.0
 40
5.0
 40
6.0
 40
6.0
 40
6.0
 40
7.0
 40
7.0
 40
7.0
 40
8.0
 40
8.0
 40
8.0
 40
9.0
 40
9.0
 40
9.0
 40
10.0
 40
10.0
 40
10.0
 40
11.0
 40
11.0
 40
11.0
 40
12.0
 40
12.0
 40
12.0
 40
13.0
 40
13.0
 40
13.0
 40
14.0
 40
14.0
 40
14.0
 40
15.0
 40
15.0
 40
15.0
 40
16.0
 40
16.0
 40
16.0
 40
17.0
 40
17.0
 40
17.0
 40
18.0
 40
18.0
 40
18.0
 40
19.0
 40
19.0
 40
19.0
 40
19.0
 10
105.1629177254454
 20
-134.4255587771575
 10
105.1629177254454
 20
-134.5209879220989
 10
105.1419026429854
 20
-134.7387179567667
 10
104.9558674867819
 20
-134.8637749228813
 10
104.8435573739627
 20
-134.9374999662656
 10
104.7443386239875
 20
-134.9419785903964
 10
104.6595892750504
 20
-134.9461127049788
 10
104.6595892750504
 20
-134.9461127049788
 10
104.6595892750504
 20
-134.7259711034713
 10
104.6595892750504
 20
-134.7259711034713
 10
104.7336588279833
 20
-134.7239040461801
 10
104.9682698305288
 20
-134.7135687597244
 10
104.9682698305288
 20
-134.4300374012883
 10
104.9682698305288
 20
-134.2925780914269
 10
104.8986789017267
 20
-134.1399603614303
 10
104.6702690710547
 20
-134.1399603614303
 10
104.5538248436532
 20
-134.1399603614303
 10
104.5052489973112
 20
-134.1782009213166
 10
104.4735541188469
 20
-134.2098957997809
 10
104.399484565914
 20
-134.2839653527138
 10
104.3867377126186
 20
-134.4004095801152
 10
104.3867377126186
 20
-134.4551865983306
 10
104.3867377126186
 20
-134.474479133048
 10
104.3888047699098
 20
-134.5103081260947
 10
104.3929388844921
 20
-134.5378688899766
 10
104.3929388844921
 20
-134.5378688899766
 10
104.1982909895754
 20
-134.5378688899766
 10
104.1982909895754
 20
-134.5378688899766
 10
104.2048366709974
 20
-134.4996283300904
 10
104.2069037282886
 20
-134.4575981651703
 10
104.2069037282886
 20
-134.4510524837484
 10
104.2069037282886
 20
-134.3855956695286
 10
104.18554413628
 20
-134.1868136600297
 10
103.9488660764433
 20
-134.1868136600297
 10
103.7710991494044
 20
-134.1868136600297
 10
103.7159776216404
 20
-134.3177272884692
 10
103.7159776216404
 20
-134.4279703439972
 10
103.7159776216404
 20
-134.6922091677158
 10
103.9488660764433
 20
-134.700821906429
 10
104.0205240625365
 20
-134.7049560210113
 10
104.0205240625365
 20
-134.7049560210113
 10
104.0205240625365
 20
-134.908216654641
 10
104.0205240625365
 20
-134.908216654641
 10
103.8958116059705
 20
-134.8996039159279
 10
103.5192626694327
 20
-134.8720431520459
 10
103.5192626694327
 20
-134.4152234907017
 10
103.5192626694327
 20
-134.190947774612
 10
103.6463866928384
 20
-133.9497910906445
 10
103.9423203950214
 20
-133.9497910906445
 10
104.1287000607734
 20
-133.9497910906445
 10
104.2110378428709
 20
-134.0448757260374
 10
104.2723605425083
 20
-134.1444389855611
 10
104.2999213063903
 20
-134.0831162859237
 10
104.3801920311966
 20
-133.9012152443025
 10
104.6575222177592
 20
-133.9012152443025
 10
104.9958305944108
 20
-133.9012152443025
 10
105.1629177254454
 20
-134.1485731001434
 10
105.1629177254454
 20
-134.4255587771575
 97
        0
 97
        0
 75
     2
 76
     1
 98
        0
  0
ENDBLK
  5
52
330
4F
100
AcDbEntity
  8
0
100
AcDbBlockEnd
  0
BLOCK
  5
7C
330
7A
100
AcDbEntity
  8
0
100
AcDbBlockBegin
  2
block 3
 70
     0
 10
0.0
 20
0.0
 30
0.0
  3
block 3
  1

  0
SPLINE
  5
7E
330
7A
100
AcDbEntity
  8
_U+30EC_U+30A4_U+30E4_U+30FC 1
370
     0
100
AcDbSpline
210
0.0
220
0.0
230
1.0
 70
    11
 71
     3
 72
    44
 73
    40
 74
     0
 42
0.0000000001
 43
0.0000000001
 12
1.0
 22
0.0
 32
0.0
 13
1.0
 23
0.0
 33
0.0
 40
0.0
 40
0.0
 40
0.0
 40
0.0
 40
1.0
 40
1.0
 40
1.0
 40
2.0
 40
2.0
 40
2.0
 40
3.0
 40
3.0
 40
3.0
 40
4.0
 40
4.0
 40
4.0
 40
5.0
 40
5.0
 40
5.0
 40
6.0
 40
6.0
 40
6.0
 40
7.0
 40
7.0
 40
7.0
 40
8.0
 40
8.0
 40
8.0
 40
9.0
 40
9.0
 40
9.0
 40
10.0
 40
10.0
 40
10.0
 40
11.0
 40
11.0
 40
11.0
 40
12.0
 40
12.0
 40
12.0
 40
13.0
 40
13.0
 40
13.0
 40
13.0
 10
91.32431367074531
 20
-138.7384738151418
 30
0.0
 10
91.10658363607753
 20
-138.8972927170118
 30
0.0
 10
91.01356605797578
 20
-138.9713622699447
 30
0.0
 10
90.96464570208524
 20
-139.1150227516796
 30
0.0
 10
90.96464570208524
 20
-139.1150227516796
 30
0.0
 10
91.74323728175169
 20
-139.1150227516796
 30
0.0
 10
91.74323728175169
 20
-139.1150227516796
 30
0.0
 10
91.74323728175169
 20
-139.1150227516796
 30
0.0
 10
91.74323728175169
 20
-139.3203504426005
 30
0.0
 10
91.74323728175169
 20
-139.3203504426005
 30
0.0
 10
91.74323728175169
 20
-139.3203504426005
 30
0.0
 10
90.71522078895315
 20
-139.3203504426005
 30
0.0
 10
90.71522078895315
 20
-139.3203504426005
 30
0.0
 10
90.74691566741744
 20
-138.9627495312315
 30
0.0
 10
90.81237248163718
 20
-138.8845458637164
 30
0.0
 10
91.19753415688812
 20
-138.5862005946937
 30
0.0
 10
91.45350475144218
 20
-138.3874185851948
 30
0.0
 10
91.51896156566193
 20
-138.3195502041354
 30
0.0
 10
91.51896156566193
 20
-138.1820908942739
 30
0.0
 10
91.51896156566193
 20
-138.0635796095813
 30
0.0
 10
91.44695907002021
 20
-137.9326659811418
 30
0.0
 10
91.25024411781244
 20
-137.9326659811418
 30
0.0
 10
90.99013940867609
 20
-137.9326659811418
 30
0.0
 10
90.98187117951149
 20
-138.1631428691051
 30
0.0
 10
90.97739255538066
 20
-138.2795870965065
 30
0.0
 10
90.97739255538066
 20
-138.2795870965065
 30
0.0
 10
90.7531168392909
 20
-138.2795870965065
 30
0.0
 10
90.7531168392909
 20
-138.2795870965065
 30
0.0
 10
90.76172957800402
 20
-138.1524630731008
 30
0.0
 10
90.77240937400829
 20
-138.0404974698302
 30
0.0
 10
90.85268009881462
 20
-137.9219861851376
 30
0.0
 10
90.96257864479408
 20
-137.7611002259764
 30
0.0
 10
91.14895831054609
 20
-137.727338290221
 30
0.0
 10
91.26505802839901
 20
-137.727338290221
 30
0.0
 10
91.54238821496163
 20
-137.727338290221
 30
0.0
 10
91.74978296317367
 20
-137.9113063891333
 30
0.0
 10
91.74978296317367
 20
-138.1841579515651
 30
0.0
 10
91.74978296317367
 20
-138.4129122917857
 30
0.0
 10
91.63333873577223
 20
-138.5121310417609
 30
0.0
 10
91.32431367074531
 20
-138.7384738151418
 30
0.0
  0
HATCH
  5
7F
330
7A
100
AcDbEntity
  8
_U+30EC_U+30A4_U+30E4_U+30FC 1
 62
   179
420
  2234388
100
AcDbHatch
 10
0.0
 20
0.0
 30
0.0
210
0.0
220
0.0
230
1.0
  2
SOLID
 70
     1
 71
     0
 91
        1
 92
        1
 93
        1
 72
     4
 94
        3
 73
     0
 74
     1
 95
       44
 96
       40
 40
0.0
 40
0.0
 40
0.0
 40
0.0
 40
1.0
 40
1.0
 40
1.0
 40
2.0
 40
2.0
 40
2.0
 40
3.0
 40
3.0
 40
3.0
 40
4.0
 40
4.0
 40
4.0
 40
5.0
 40
5.0
 40
5.0
 40
6.0
 40
6.0
 40
6.0
 40
7.0
 40
7.0
 40
7.0
 40
8.0
 40
8.0
 40
8.0
 40
9.0
 40
9.0
 40
9.0
 40
10.0
 40
10.0
 40
10.0
 40
11.0
 40
11.0
 40
11.0
 40
12.0
 40
12.0
 40
12.0
 40
13.0
 40
13.0
 40
13.0
 40
13.0
 10
91.32431367074531
 20
-138.7384738151418
 10
91.10658363607753
 20
-138.8972927170118
 10
91.01356605797578
 20
-138.9713622699447
 10
90.96464570208524
 20
-139.1150227516796
 10
90.96464570208524
 20
-139.1150227516796
 10
91.74323728175169
 20
-139.1150227516796
 10
91.74323728175169
 20
-139.1150227516796
 10
91.74323728175169
 20
-139.1150227516796
 10
91.74323728175169
 20
-139.3203504426005
 10
91.74323728175169
 20
-139.3203504426005
 10
91.74323728175169
 20
-139.3203504426005
 10
90.71522078895315
 20
-139.3203504426005
 10
90.71522078895315
 20
-139.3203504426005
 10
90.74691566741744
 20
-138.9627495312315
 10
90.81237248163718
 20
-138.8845458637164
 10
91.19753415688812
 20
-138.5862005946937
 10
91.45350475144218
 20
-138.3874185851948
 10
91.51896156566193
 20
-138.3195502041354
 10
91.51896156566193
 20
-138.1820908942739
 10
91.51896156566193
 20
-138.0635796095813
 10
91.44695907002021
 20
-137.9326659811418
 10
91.25024411781244
 20
-137.9326659811418
 10
90.99013940867609
 20
-137.9326659811418
 10
90.98187117951149
 20
-138.1631428691051
 10
90.97739255538066
 20
-138.2795870965065
 10
90.97739255538066
 20
-138.2795870965065
 10
90.7531168392909
 20
-138.2795870965065
 10
90.7531168392909
 20
-138.2795870965065
 10
90.76172957800402
 20
-138.1524630731008
 10
90.77240937400829
 20
-138.0404974698302
 10
90.85268009881462
 20
-137.9219861851376
 10
90.96257864479408
 20
-137.7611002259764
 10
91.14895831054609
 20
-137.727338290221
 10
91.26505802839901
 20
-137.727338290221
 10
91.54238821496163
 20
-137.727338290221
 10
91.74978296317367
 20
-137.9113063891333
 10
91.74978296317367
 20
-138.1841579515651
 10
91.74978296317367
 20
-138.4129122917857
 10
91.63333873577223
 20
-138.5121310417609
 10
91.32431367074531
 20
-138.7384738151418
 97
        0
 97
        0
 75
     2
 76
     1
 98
        0
  0
SPLINE
  5
80
330
7A
100
AcDbEntity
  8
_U+30EC_U+30A4_U+30E4_U+30FC 1
370
     0
100
AcDbSpline
210
0.0
220
0.0
230
1.0
 70
    11
 71
     3
 72
    29
 73
    25
 74
     0
 42
0.0000000001
 43
0.0000000001
 12
1.0
 22
0.0
 32
0.0
 13
1.0
 23
0.0
 33
0.0
 40
0.0
 40
0.0
 40
0.0
 40
0.0
 40
1.0
 40
1.0
 40
1.0
 40
2.0
 40
2.0
 40
2.0
 40
3.0
 40
3.0
 40
3.0
 40
4.0
 40
4.0
 40
4.0
 40
5.0
 40
5.0
 40
5.0
 40
6.0
 40
6.0
 40
6.0
 40
7.0
 40
7.0
 40
7.0
 40
8.0
 40
8.0
 40
8.0
 40
8.0
 10
92.80604923895127
 20
-139.1425835155616
 30
0.0
 10
92.69787324071443
 20
-139.3520453210648
 30
0.0
 10
92.52458493780635
 20
-139.3709933462337
 30
0.0
 10
92.40814071040491
 20
-139.3709933462337
 30
0.0
 10
92.24725475124374
 20
-139.3709933462337
 30
0.0
 10
92.10566132679998
 20
-139.3244845571828
 30
0.0
 10
92.01057669140708
 20
-139.1425835155616
 30
0.0
 10
91.90687931730106
 20
-138.947935620645
 30
0.0
 10
91.8879312921322
 20
-138.7112575608083
 30
0.0
 10
91.8879312921322
 20
-138.548304544356
 30
0.0
 10
91.8879312921322
 20
-138.4042995530725
 30
0.0
 10
91.90481226000992
 20
-138.1524630731008
 30
0.0
 10
92.01057669140708
 20
-137.9536810636019
 30
0.0
 10
92.1184081800954
 20
-137.7507649395206
 30
0.0
 10
92.27929413925656
 20
-137.727338290221
 30
0.0
 10
92.40814071040491
 20
-137.727338290221
 30
0.0
 10
92.56695961227493
 20
-137.727338290221
 30
0.0
 10
92.71062009400985
 20
-137.7717800219807
 30
0.0
 10
92.80604923895127
 20
-137.9536810636019
 30
0.0
 10
92.90526798892647
 20
-138.1462619012273
 30
0.0
 10
92.92869463822616
 20
-138.3746717318994
 30
0.0
 10
92.92869463822616
 20
-138.548304544356
 30
0.0
 10
92.92869463822616
 20
-138.7195257899729
 30
0.0
 10
92.90733504621761
 20
-138.9500026779361
 30
0.0
 10
92.80604923895127
 20
-139.1425835155616
 30
0.0
  0
SPLINE
  5
81
330
7A
100
AcDbEntity
  8
_U+30EC_U+30A4_U+30E4_U+30FC 1
370
     0
100
AcDbSpline
210
0.0
220
0.0
230
1.0
 70
    11
 71
     3
 72
    17
 73
    13
 74
     0
 42
0.0000000001
 43
0.0000000001
 12
1.0
 22
0.0
 32
0.0
 13
1.0
 23
0.0
 33
0.0
 40
0.0
 40
0.0
 40
0.0
 40
0.0
 40
1.0
 40
1.0
 40
1.0
 40
2.0
 40
2.0
 40
2.0
 40
3.0
 40
3.0
 40
3.0
 40
4.0
 40
4.0
 40
4.0
 40
4.0
 10
92.40814071040491
 20
-137.9199191278464
 30
0.0
 10
92.15871579727282
 20
-137.9199191278464
 30
0.0
 10
92.11186249867343
 20
-138.2034504862825
 30
0.0
 10
92.11186249867343
 20
-138.548304544356
 30
0.0
 10
92.11186249867343
 20
-138.8676648958387
 30
0.0
 10
92.14803600126855
 20
-139.176345451317
 30
0.0
 10
92.40814071040491
 20
-139.176345451317
 30
0.0
 10
92.65584307579438
 20
-139.176345451317
 30
0.0
 10
92.7044189221364
 20
-138.8952256597206
 30
0.0
 10
92.7044189221364
 20
-138.548304544356
 30
0.0
 10
92.7044189221364
 20
-138.2285996833248
 30
0.0
 10
92.66617836225012
 20
-137.9199191278464
 30
0.0
 10
92.40814071040491
 20
-137.9199191278464
 30
0.0
  0
HATCH
  5
82
330
7A
100
AcDbEntity
  8
_U+30EC_U+30A4_U+30E4_U+30FC 1
 62
   179
420
  2234388
100
AcDbHatch
 10
0.0
 20
0.0
 30
0.0
210
0.0
220
0.0
230
1.0
  2
SOLID
 70
     1
 71
     0
 91
        2
 92
        1
 93
        1
 72
     4
 94
        3
 73
     0
 74
     1
 95
       29
 96
       25
 40
0.0
 40
0.0
 40
0.0
 40
0.0
 40
1.0
 40
1.0
 40
1.0
 40
2.0
 40
2.0
 40
2.0
 40
3.0
 40
3.0
 40
3.0
 40
4.0
 40
4.0
 40
4.0
 40
5.0
 40
5.0
 40
5.0
 40
6.0
 40
6.0
 40
6.0
 40
7.0
 40
7.0
 40
7.0
 40
8.0
 40
8.0
 40
8.0
 40
8.0
 10
92.80604923895127
 20
-139.1425835155616
 10
92.69787324071443
 20
-139.3520453210648
 10
92.52458493780635
 20
-139.3709933462337
 10
92.40814071040491
 20
-139.3709933462337
 10
92.24725475124374
 20
-139.3709933462337
 10
92.10566132679998
 20
-139.3244845571828
 10
92.01057669140708
 20
-139.1425835155616
 10
91.90687931730106
 20
-138.947935620645
 10
91.8879312921322
 20
-138.7112575608083
 10
91.8879312921322
 20
-138.548304544356
 10
91.8879312921322
 20
-138.4042995530725
 10
91.90481226000992
 20
-138.1524630731008
 10
92.01057669140708
 20
-137.9536810636019
 10
92.1184081800954
 20
-137.7507649395206
 10
92.27929413925656
 20
-137.727338290221
 10
92.40814071040491
 20
-137.727338290221
 10
92.56695961227493
 20
-137.727338290221
 10
92.71062009400985
 20
-137.7717800219807
 10
92.80604923895127
 20
-137.9536810636019
 10
92.90526798892647
 20
-138.1462619012273
 10
92.92869463822616
 20
-138.3746717318994
 10
92.92869463822616
 20
-138.548304544356
 10
92.92869463822616
 20
-138.7195257899729
 10
92.90733504621761
 20
-138.9500026779361
 10
92.80604923895127
 20
-139.1425835155616
 97
        0
 97
        0
 92
        1
 93
        1
 72
     4
 94
        3
 73
     0
 74
     1
 95
       17
 96
       13
 40
0.0
 40
0.0
 40
0.0
 40
0.0
 40
1.0
 40
1.0
 40
1.0
 40
2.0
 40
2.0
 40
2.0
 40
3.0
 40
3.0
 40
3.0
 40
4.0
 40
4.0
 40
4.0
 40
4.0
 10
92.40814071040491
 20
-137.9199191278464
 10
92.15871579727282
 20
-137.9199191278464
 10
92.11186249867343
 20
-138.2034504862825
 10
92.11186249867343
 20
-138.548304544356
 10
92.11186249867343
 20
-138.8676648958387
 10
92.14803600126855
 20
-139.176345451317
 10
92.40814071040491
 20
-139.176345451317
 10
92.65584307579438
 20
-139.176345451317
 10
92.7044189221364
 20
-138.8952256597206
 10
92.7044189221364
 20
-138.548304544356
 10
92.7044189221364
 20
-138.2285996833248
 10
92.66617836225012
 20
-137.9199191278464
 10
92.40814071040491
 20
-137.9199191278464
 97
        0
 97
        0
 75
     2
 76
     1
 98
        0
  0
ENDBLK
  5
7D
330
7A
100
AcDbEntity
  8
0
100
AcDbBlockEnd
  0
BLOCK
  5
85
330
83
100
AcDbEntity
  8
0
100
AcDbBlockBegin
  2
block 4
 70
     0
 10
0.0
 20
0.0
 30
0.0
  3
block 4
  1

  0
SPLINE
  5
87
330
83
100
AcDbEntity
  8
_U+30EC_U+30A4_U+30E4_U+30FC 1
370
     0
100
AcDbSpline
210
0.0
220
0.0
230
1.0
 70
    11
 71
     3
 72
    44
 73
    40
 74
     0
 42
0.0000000001
 43
0.0000000001
 12
1.0
 22
0.0
 32
0.0
 13
1.0
 23
0.0
 33
0.0
 40
0.0
 40
0.0
 40
0.0
 40
0.0
 40
1.0
 40
1.0
 40
1.0
 40
2.0
 40
2.0
 40
2.0
 40
3.0
 40
3.0
 40
3.0
 40
4.0
 40
4.0
 40
4.0
 40
5.0
 40
5.0
 40
5.0
 40
6.0
 40
6.0
 40
6.0
 40
7.0
 40
7.0
 40
7.0
 40
8.0
 40
8.0
 40
8.0
 40
9.0
 40
9.0
 40
9.0
 40
10.0
 40
10.0
 40
10.0
 40
11.0
 40
11.0
 40
11.0
 40
12.0
 40
12.0
 40
12.0
 40
13.0
 40
13.0
 40
13.0
 40
13.0
 10
76.56862519787174
 20
-126.4825466263655
 30
0.0
 10
76.72744409974176
 20
-126.7002766610333
 30
0.0
 10
76.80151365267463
 20
-126.793294239135
 30
0.0
 10
76.94517413440954
 20
-126.8422145950256
 30
0.0
 10
76.94517413440954
 20
-126.8422145950256
 30
0.0
 10
76.94517413440954
 20
-126.0636230153591
 30
0.0
 10
76.94517413440954
 20
-126.0636230153591
 30
0.0
 10
76.94517413440954
 20
-126.0636230153591
 30
0.0
 10
77.15050182533044
 20
-126.0636230153591
 30
0.0
 10
77.15050182533044
 20
-126.0636230153591
 30
0.0
 10
77.15050182533044
 20
-126.0636230153591
 30
0.0
 10
77.15050182533044
 20
-127.0916395081577
 30
0.0
 10
77.15050182533044
 20
-127.0916395081577
 30
0.0
 10
76.7929009139615
 20
-127.0599446296933
 30
0.0
 10
76.71469724644633
 20
-126.9944878154736
 30
0.0
 10
76.41635197742369
 20
-126.6093261402227
 30
0.0
 10
76.21756996792477
 20
-126.3533555456686
 30
0.0
 10
76.14970158686536
 20
-126.2878987314489
 30
0.0
 10
76.01224227700389
 20
-126.2878987314489
 30
0.0
 10
75.89373099231129
 20
-126.2878987314489
 30
0.0
 10
75.7628173638718
 20
-126.3599012270906
 30
0.0
 10
75.7628173638718
 20
-126.5566161792983
 30
0.0
 10
75.7628173638718
 20
-126.8167208884347
 30
0.0
 10
75.99329425183501
 20
-126.8249891175993
 30
0.0
 10
76.10973847923646
 20
-126.8294677417301
 30
0.0
 10
76.10973847923646
 20
-126.8294677417301
 30
0.0
 10
76.10973847923646
 20
-127.0537434578199
 30
0.0
 10
76.10973847923646
 20
-127.0537434578199
 30
0.0
 10
75.98261445583074
 20
-127.0451307191068
 30
0.0
 10
75.87064885256012
 20
-127.0344509231025
 30
0.0
 10
75.75213756786752
 20
-126.9541801982962
 30
0.0
 10
75.59125160870636
 20
-126.8442816523167
 30
0.0
 10
75.55748967295091
 20
-126.6579019865647
 30
0.0
 10
75.55748967295091
 20
-126.5418022687118
 30
0.0
 10
75.55748967295091
 20
-126.2644720821492
 30
0.0
 10
75.74145777186325
 20
-126.0570773339371
 30
0.0
 10
76.01430933429504
 20
-126.0570773339371
 30
0.0
 10
76.24306367451562
 20
-126.0570773339371
 30
0.0
 10
76.34228242449082
 20
-126.1735215613386
 30
0.0
 10
76.56862519787174
 20
-126.4825466263655
 30
0.0
  0
HATCH
  5
88
330
83
100
AcDbEntity
  8
_U+30EC_U+30A4_U+30E4_U+30FC 1
 62
   179
420
  2234388
100
AcDbHatch
 10
0.0
 20
0.0
 30
0.0
210
0.0
220
0.0
230
1.0
  2
SOLID
 70
     1
 71
     0
 91
        1
 92
        1
 93
        1
 72
     4
 94
        3
 73
     0
 74
     1
 95
       44
 96
       40
 40
0.0
 40
0.0
 40
0.0
 40
0.0
 40
1.0
 40
1.0
 40
1.0
 40
2.0
 40
2.0
 40
2.0
 40
3.0
 40
3.0
 40
3.0
 40
4.0
 40
4.0
 40
4.0
 40
5.0
 40
5.0
 40
5.0
 40
6.0
 40
6.0
 40
6.0
 40
7.0
 40
7.0
 40
7.0
 40
8.0
 40
8.0
 40
8.0
 40
9.0
 40
9.0
 40
9.0
 40
10.0
 40
10.0
 40
10.0
 40
11.0
 40
11.0
 40
11.0
 40
12.0
 40
12.0
 40
12.0
 40
13.0
 40
13.0
 40
13.0
 40
13.0
 10
76.56862519787174
 20
-126.4825466263655
 10
76.72744409974176
 20
-126.7002766610333
 10
76.80151365267463
 20
-126.793294239135
 10
76.94517413440954
 20
-126.8422145950256
 10
76.94517413440954
 20
-126.8422145950256
 10
76.94517413440954
 20
-126.0636230153591
 10
76.94517413440954
 20
-126.0636230153591
 10
76.94517413440954
 20
-126.0636230153591
 10
77.15050182533044
 20
-126.0636230153591
 10
77.15050182533044
 20
-126.0636230153591
 10
77.15050182533044
 20
-126.0636230153591
 10
77.15050182533044
 20
-127.0916395081577
 10
77.15050182533044
 20
-127.0916395081577
 10
76.7929009139615
 20
-127.0599446296933
 10
76.71469724644633
 20
-126.9944878154736
 10
76.41635197742369
 20
-126.6093261402227
 10
76.21756996792477
 20
-126.3533555456686
 10
76.14970158686536
 20
-126.2878987314489
 10
76.01224227700389
 20
-126.2878987314489
 10
75.89373099231129
 20
-126.2878987314489
 10
75.7628173638718
 20
-126.3599012270906
 10
75.7628173638718
 20
-126.5566161792983
 10
75.7628173638718
 20
-126.8167208884347
 10
75.99329425183501
 20
-126.8249891175993
 10
76.10973847923646
 20
-126.8294677417301
 10
76.10973847923646
 20
-126.8294677417301
 10
76.10973847923646
 20
-127.0537434578199
 10
76.10973847923646
 20
-127.0537434578199
 10
75.98261445583074
 20
-127.0451307191068
 10
75.87064885256012
 20
-127.0344509231025
 10
75.75213756786752
 20
-126.9541801982962
 10
75.59125160870636
 20
-126.8442816523167
 10
75.55748967295091
 20
-126.6579019865647
 10
75.55748967295091
 20
-126.5418022687118
 10
75.55748967295091
 20
-126.2644720821492
 10
75.74145777186325
 20
-126.0570773339371
 10
76.01430933429504
 20
-126.0570773339371
 10
76.24306367451562
 20
-126.0570773339371
 10
76.34228242449082
 20
-126.1735215613386
 10
76.56862519787174
 20
-126.4825466263655
 97
        0
 97
        0
 75
     2
 76
     1
 98
        0
  0
SPLINE
  5
89
330
83
100
AcDbEntity
  8
_U+30EC_U+30A4_U+30E4_U+30FC 1
370
     0
100
AcDbSpline
210
0.0
220
0.0
230
1.0
 70
    11
 71
     3
 72
    29
 73
    25
 74
     0
 42
0.0000000001
 43
0.0000000001
 12
1.0
 22
0.0
 32
0.0
 13
1.0
 23
0.0
 33
0.0
 40
0.0
 40
0.0
 40
0.0
 40
0.0
 40
1.0
 40
1.0
 40
1.0
 40
2.0
 40
2.0
 40
2.0
 40
3.0
 40
3.0
 40
3.0
 40
4.0
 40
4.0
 40
4.0
 40
5.0
 40
5.0
 40
5.0
 40
6.0
 40
6.0
 40
6.0
 40
7.0
 40
7.0
 40
7.0
 40
8.0
 40
8.0
 40
8.0
 40
8.0
 10
76.97273489829155
 20
-125.0008110581595
 30
0.0
 10
77.18219670379473
 20
-125.1089870563964
 30
0.0
 10
77.20114472896361
 20
-125.2822753593044
 30
0.0
 10
77.20114472896361
 20
-125.3987195867059
 30
0.0
 10
77.20114472896361
 20
-125.559605545867
 30
0.0
 10
77.15463593991274
 20
-125.7011989703108
 30
0.0
 10
76.97273489829155
 20
-125.7962836057037
 30
0.0
 10
76.77808700337492
 20
-125.8999809798097
 30
0.0
 10
76.54140894353826
 20
-125.9189290049786
 30
0.0
 10
76.37845592708595
 20
-125.9189290049786
 30
0.0
 10
76.2344509358025
 20
-125.9189290049786
 30
0.0
 10
75.98261445583074
 20
-125.9020480371009
 30
0.0
 10
75.78383244633183
 20
-125.7962836057037
 30
0.0
 10
75.5809163222506
 20
-125.6884521170154
 30
0.0
 10
75.55748967295091
 20
-125.5275661578542
 30
0.0
 10
75.55748967295091
 20
-125.3987195867059
 30
0.0
 10
75.55748967295091
 20
-125.2399006848359
 30
0.0
 10
75.60193140471063
 20
-125.0962402031009
 30
0.0
 10
75.78383244633183
 20
-125.0008110581595
 30
0.0
 10
75.97641328395729
 20
-124.9015923081843
 30
0.0
 10
76.20482311462935
 20
-124.8781656588846
 30
0.0
 10
76.37845592708595
 20
-124.8781656588846
 30
0.0
 10
76.54967717270286
 20
-124.8781656588846
 30
0.0
 10
76.78015406066608
 20
-124.8995252508932
 30
0.0
 10
76.97273489829155
 20
-125.0008110581595
 30
0.0
  0
SPLINE
  5
8A
330
83
100
AcDbEntity
  8
_U+30EC_U+30A4_U+30E4_U+30FC 1
370
     0
100
AcDbSpline
210
0.0
220
0.0
230
1.0
 70
    11
 71
     3
 72
    17
 73
    13
 74
     0
 42
0.0000000001
 43
0.0000000001
 12
1.0
 22
0.0
 32
0.0
 13
1.0
 23
0.0
 33
0.0
 40
0.0
 40
0.0
 40
0.0
 40
0.0
 40
1.0
 40
1.0
 40
1.0
 40
2.0
 40
2.0
 40
2.0
 40
3.0
 40
3.0
 40
3.0
 40
4.0
 40
4.0
 40
4.0
 40
4.0
 10
75.75007051057638
 20
-125.3987195867059
 30
0.0
 10
75.75007051057638
 20
-125.648144499838
 30
0.0
 10
76.03360186901244
 20
-125.6949977984374
 30
0.0
 10
76.37845592708595
 20
-125.6949977984374
 30
0.0
 10
76.69781627856861
 20
-125.6949977984374
 30
0.0
 10
77.00649683404698
 20
-125.6588242958422
 30
0.0
 10
77.00649683404698
 20
-125.3987195867059
 30
0.0
 10
77.00649683404698
 20
-125.1510172213164
 30
0.0
 10
76.7253770424506
 20
-125.1024413749744
 30
0.0
 10
76.37845592708595
 20
-125.1024413749744
 30
0.0
 10
76.05875106605475
 20
-125.1024413749744
 30
0.0
 10
75.75007051057638
 20
-125.1406819348607
 30
0.0
 10
75.75007051057638
 20
-125.3987195867059
 30
0.0
  0
HATCH
  5
8B
330
83
100
AcDbEntity
  8
_U+30EC_U+30A4_U+30E4_U+30FC 1
 62
   179
420
  2234388
100
AcDbHatch
 10
0.0
 20
0.0
 30
0.0
210
0.0
220
0.0
230
1.0
  2
SOLID
 70
     1
 71
     0
 91
        2
 92
        1
 93
        1
 72
     4
 94
        3
 73
     0
 74
     1
 95
       29
 96
       25
 40
0.0
 40
0.0
 40
0.0
 40
0.0
 40
1.0
 40
1.0
 40
1.0
 40
2.0
 40
2.0
 40
2.0
 40
3.0
 40
3.0
 40
3.0
 40
4.0
 40
4.0
 40
4.0
 40
5.0
 40
5.0
 40
5.0
 40
6.0
 40
6.0
 40
6.0
 40
7.0
 40
7.0
 40
7.0
 40
8.0
 40
8.0
 40
8.0
 40
8.0
 10
76.97273489829155
 20
-125.0008110581595
 10
77.18219670379473
 20
-125.1089870563964
 10
77.20114472896361
 20
-125.2822753593044
 10
77.20114472896361
 20
-125.3987195867059
 10
77.20114472896361
 20
-125.559605545867
 10
77.15463593991274
 20
-125.7011989703108
 10
76.97273489829155
 20
-125.7962836057037
 10
76.77808700337492
 20
-125.8999809798097
 10
76.54140894353826
 20
-125.9189290049786
 10
76.37845592708595
 20
-125.9189290049786
 10
76.2344509358025
 20
-125.9189290049786
 10
75.98261445583074
 20
-125.9020480371009
 10
75.78383244633183
 20
-125.7962836057037
 10
75.5809163222506
 20
-125.6884521170154
 10
75.55748967295091
 20
-125.5275661578542
 10
75.55748967295091
 20
-125.3987195867059
 10
75.55748967295091
 20
-125.2399006848359
 10
75.60193140471063
 20
-125.0962402031009
 10
75.78383244633183
 20
-125.0008110581595
 10
75.97641328395729
 20
-124.9015923081843
 10
76.20482311462935
 20
-124.8781656588846
 10
76.37845592708595
 20
-124.8781656588846
 10
76.54967717270286
 20
-124.8781656588846
 10
76.78015406066608
 20
-124.8995252508932
 10
76.97273489829155
 20
-125.0008110581595
 97
        0
 97
        0
 92
        1
 93
        1
 72
     4
 94
        3
 73
     0
 74
     1
 95
       17
 96
       13
 40
0.0
 40
0.0
 40
0.0
 40
0.0
 40
1.0
 40
1.0
 40
1.0
 40
2.0
 40
2.0
 40
2.0
 40
3.0
 40
3.0
 40
3.0
 40
4.0
 40
4.0
 40
4.0
 40
4.0
 10
75.75007051057638
 20
-125.3987195867059
 10
75.75007051057638
 20
-125.648144499838
 10
76.03360186901244
 20
-125.6949977984374
 10
76.37845592708595
 20
-125.6949977984374
 10
76.69781627856861
 20
-125.6949977984374
 10
77.00649683404698
 20
-125.6588242958422
 10
77.00649683404698
 20
-125.3987195867059
 10
77.00649683404698
 20
-125.1510172213164
 10
76.7253770424506
 20
-125.1024413749744
 10
76.37845592708595
 20
-125.1024413749744
 10
76.05875106605475
 20
-125.1024413749744
 10
75.75007051057638
 20
-125.1406819348607
 10
75.75007051057638
 20
-125.3987195867059
 97
        0
 97
        0
 75
     2
 76
     1
 98
        0
  0
ENDBLK
  5
86
330
83
100
AcDbEntity
  8
0
100
AcDbBlockEnd
  0
ENDSEC
  0
SECTION
  2
ENTITIES
  0
SPLINE
  5
41
330
1F
100
AcDbEntity
  8
_U+30EC_U+30A4_U+30E4_U+30FC 1
 62
   179
420
  2234388
370
     9
100
AcDbSpline
210
0.0
220
0.0
230
1.0
 70
    11
 71
     3
 72
    17
 73
    13
 74
     0
 42
0.0000000001
 43
0.0000000001
 12
1.0
 22
0.0
 32
0.0
 13
1.0
 23
0.0
 33
0.0
 40
0.0
 40
0.0
 40
0.0
 40
0.0
 40
1.0
 40
1.0
 40
1.0
 40
2.0
 40
2.0
 40
2.0
 40
3.0
 40
3.0
 40
3.0
 40
4.0
 40
4.0
 40
4.0
 40
4.0
 10
105.7061895254326
 20
-132.8315224667923
 30
0.0
 10
105.6510856379496
 20
-132.8315224667923
 30
0.0
 10
105.6062828613148
 20
-132.8762899667808
 30
0.0
 10
105.6062828613148
 20
-132.9314291334339
 30
0.0
 10
105.6062828613148
 20
-132.9865330223088
 30
0.0
 10
105.6510856379496
 20
-133.0313358000755
 30
0.0
 10
105.7061895254326
 20
-133.0313358000755
 30
0.0
 10
105.7613286906926
 20
-133.0313358000755
 30
0.0
 10
105.8061314673274
 20
-132.9865330223088
 30
0.0
 10
105.8061314673274
 20
-132.9314291334339
 30
0.0
 10
105.8061314673274
 20
-132.8762899667808
 30
0.0
 10
105.7613286906926
 20
-132.8315224667923
 30
0.0
 10
105.7061895254326
 20
-132.8315224667923
 30
0.0
  0
SPLINE
  5
42
330
1F
100
AcDbEntity
  8
_U+30EC_U+30A4_U+30E4_U+30FC 1
 62
   179
420
  2234388
370
     9
100
AcDbSpline
210
0.0
220
0.0
230
1.0
 70
    11
 71
     3
 72
    17
 73
    13
 74
     0
 42
0.0000000001
 43
0.0000000001
 12
1.0
 22
0.0
 32
0.0
 13
1.0
 23
0.0
 33
0.0
 40
0.0
 40
0.0
 40
0.0
 40
0.0
 40
1.0
 40
1.0
 40
1.0
 40
2.0
 40
2.0
 40
2.0
 40
3.0
 40
3.0
 40
3.0
 40
4.0
 40
4.0
 40
4.0
 40
4.0
 10
105.7061895254326
 20
-135.8084377438259
 30
0.0
 10
105.6510856379496
 20
-135.8084377438259
 30
0.0
 10
105.6062828613148
 20
-135.8532052438144
 30
0.0
 10
105.6062828613148
 20
-135.9083444104675
 30
0.0
 10
105.6062828613148
 20
-135.9634482993424
 30
0.0
 10
105.6510856379496
 20
-136.0082510771092
 30
0.0
 10
105.7061895254326
 20
-136.0082510771092
 30
0.0
 10
105.7613286906926
 20
-136.0082510771092
 30
0.0
 10
105.8061314673274
 20
-135.9634482993424
 30
0.0
 10
105.8061314673274
 20
-135.9083444104675
 30
0.0
 10
105.8061314673274
 20
-135.8532052438144
 30
0.0
 10
105.7613286906926
 20
-135.8084377438259
 30
0.0
 10
105.7061895254326
 20
-135.8084377438259
 30
0.0
  0
POLYLINE
  5
43
330
1F
100
AcDbEntity
  8
_U+30EC_U+30A4_U+30E4_U+30FC 1
 62
   179
420
  2234388
370
     9
100
AcDb2dPolyline
 66
     1
 10
0.0
 20
0.0
 30
0.0
  0
VERTEX
  5
44
330
43
100
AcDbEntity
  8
_U+30EC_U+30A4_U+30E4_U+30FC 1
 62
   179
420
  2234388
370
     9
100
AcDbVertex
100
AcDb2dVertex
 10
105.7061895254326
 20
-135.9083444104675
 30
0.0
  0
VERTEX
  5
45
330
43
100
AcDbEntity
  8
_U+30EC_U+30A4_U+30E4_U+30FC 1
 62
   179
420
  2234388
370
     9
100
AcDbVertex
100
AcDb2dVertex
 10
105.7061895254326
 20
-132.8707866334493
 30
0.0
  0
SEQEND
  5
46
330
43
100
AcDbEntity
  8
_U+30EC_U+30A4_U+30E4_U+30FC 1
 62
   179
420
  2234388
370
     9
  0
POLYLINE
  5
47
330
1F
100
AcDbEntity
  8
_U+30EC_U+30A4_U+30E4_U+30FC 1
 62
   179
420
  2234388
370
     9
100
AcDb2dPolyline
 66
     1
 10
0.0
 20
0.0
 30
0.0
  0
VERTEX
  5
48
330
47
100
AcDbEntity
  8
_U+30EC_U+30A4_U+30E4_U+30FC 1
 62
   179
420
  2234388
370
     9
100
AcDbVertex
100
AcDb2dVertex
 10
103.2464138630771
 20
-135.9083444104675
 30
0.0
  0
VERTEX
  5
49
330
47
100
AcDbEntity
  8
_U+30EC_U+30A4_U+30E4_U+30FC 1
 62
   179
420
  2234388
370
     9
100
AcDbVertex
100
AcDb2dVertex
 10
106.7066672776861
 20
-135.9083444104675
 30
0.0
  0
SEQEND
  5
4A
330
47
100
AcDbEntity
  8
_U+30EC_U+30A4_U+30E4_U+30FC 1
 62
   179
420
  2234388
370
     9
  0
POLYLINE
  5
4B
330
1F
100
AcDbEntity
  8
_U+30EC_U+30A4_U+30E4_U+30FC 1
 62
   179
420
  2234388
370
     9
100
AcDb2dPolyline
 66
     1
 10
0.0
 20
0.0
 30
0.0
  0
VERTEX
  5
4C
330
4B
100
AcDbEntity
  8
_U+30EC_U+30A4_U+30E4_U+30FC 1
 62
   179
420
  2234388
370
     9
100
AcDbVertex
100
AcDb2dVertex
 10
103.2464138630771
 20
-132.9314291334339
 30
0.0
  0
VERTEX
  5
4D
330
4B
100
AcDbEntity
  8
_U+30EC_U+30A4_U+30E4_U+30FC 1
 62
   179
420
  2234388
370
     9
100
AcDbVertex
100
AcDb2dVertex
 10
106.7066672776861
 20
-132.9314291334339
 30
0.0
  0
SEQEND
  5
4E
330
4B
100
AcDbEntity
  8
_U+30EC_U+30A4_U+30E4_U+30FC 1
 62
   179
420
  2234388
370
     9
  0
INSERT
  5
50
330
1F
100
AcDbEntity
  8
_U+30EC_U+30A4_U+30E4_U+30FC 1
100
AcDbBlockReference
  2
block 2
 10
0.0
 20
0.0
 30
0.0
  0
POLYLINE
  5
55
330
1F
100
AcDbEntity
  8
_U+30EC_U+30A4_U+30E4_U+30FC 1
 62
   179
420
  2234388
370
    25
100
AcDb2dPolyline
 66
     1
 10
0.0
 20
0.0
 30
0.0
  0
VERTEX
  5
56
330
55
100
AcDbEntity
  8
_U+30EC_U+30A4_U+30E4_U+30FC 1
 62
   179
420
  2234388
370
    25
100
AcDbVertex
100
AcDb2dVertex
 10
81.74661708113672
 20
-135.9162466326877
 30
0.0
  0
VERTEX
  5
57
330
55
100
AcDbEntity
  8
_U+30EC_U+30A4_U+30E4_U+30FC 1
 62
   179
420
  2234388
370
    25
100
AcDbVertex
100
AcDb2dVertex
 10
101.7467555301186
 20
-135.9162466326877
 30
0.0
  0
VERTEX
  5
58
330
55
100
AcDbEntity
  8
_U+30EC_U+30A4_U+30E4_U+30FC 1
 62
   179
420
  2234388
370
    25
100
AcDbVertex
100
AcDb2dVertex
 10
101.7467555301186
 20
-132.9162596889934
 30
0.0
  0
VERTEX
  5
59
330
55
100
AcDbEntity
  8
_U+30EC_U+30A4_U+30E4_U+30FC 1
 62
   179
420
  2234388
370
    25
100
AcDbVertex
100
AcDb2dVertex
 10
84.74660394904512
 20
-132.9162596889934
 30
0.0
  0
VERTEX
  5
5A
330
55
100
AcDbEntity
  8
_U+30EC_U+30A4_U+30E4_U+30FC 1
 62
   179
420
  2234388
370
    25
100
AcDbVertex
100
AcDb2dVertex
 10
84.74660394904512
 20
-115.9162513599099
 30
0.0
  0
VERTEX
  5
5B
330
55
100
AcDbEntity
  8
_U+30EC_U+30A4_U+30E4_U+30FC 1
 62
   179
420
  2234388
370
    25
100
AcDbVertex
100
AcDb2dVertex
 10
81.74661708113672
 20
-115.9162513599099
 30
0.0
  0
VERTEX
  5
5C
330
55
100
AcDbEntity
  8
_U+30EC_U+30A4_U+30E4_U+30FC 1
 62
   179
420
  2234388
370
    25
100
AcDbVertex
100
AcDb2dVertex
 10
81.74661708113672
 20
-135.9162466326877
 30
0.0
  0
SEQEND
  5
5D
330
55
100
AcDbEntity
  8
_U+30EC_U+30A4_U+30E4_U+30FC 1
 62
   179
420
  2234388
370
    25
  0
SPLINE
  5
5E
330
1F
100
AcDbEntity
  8
_U+30EC_U+30A4_U+30E4_U+30FC 1
 62
   179
420
  2234388
370
     9
100
AcDbSpline
210
0.0
220
0.0
230
1.0
 70
    11
 71
     3
 72
    17
 73
    13
 74
     0
 42
0.0000000001
 43
0.0000000001
 12
1.0
 22
0.0
 32
0.0
 13
1.0
 23
0.0
 33
0.0
 40
0.0
 40
0.0
 40
0.0
 40
0.0
 40
1.0
 40
1.0
 40
1.0
 40
2.0
 40
2.0
 40
2.0
 40
3.0
 40
3.0
 40
3.0
 40
4.0
 40
4.0
 40
4.0
 40
4.0
 10
101.8511399015609
 20
-139.9167113539094
 30
0.0
 10
101.8511399015609
 20
-139.861572187257
 30
0.0
 10
101.8063749745481
 20
-139.8168046872678
 30
0.0
 10
101.7512332374431
 20
-139.8168046872678
 30
0.0
 10
101.6964468499519
 20
-139.8168046872678
 30
0.0
 10
101.6513265733253
 20
-139.861572187257
 30
0.0
 10
101.6513265733253
 20
-139.9167113539094
 30
0.0
 10
101.6513265733253
 20
-139.971815242785
 30
0.0
 10
101.6964468499519
 20
-140.0166180205511
 30
0.0
 10
101.7512332374431
 20
-140.0166180205511
 30
0.0
 10
101.8063749745481
 20
-140.0166180205511
 30
0.0
 10
101.8511399015609
 20
-139.971815242785
 30
0.0
 10
101.8511399015609
 20
-139.9167113539094
 30
0.0
  0
SPLINE
  5
5F
330
1F
100
AcDbEntity
  8
_U+30EC_U+30A4_U+30E4_U+30FC 1
 62
   179
420
  2234388
370
     9
100
AcDbSpline
210
0.0
220
0.0
230
1.0
 70
    11
 71
     3
 72
    17
 73
    13
 74
     0
 42
0.0000000001
 43
0.0000000001
 12
1.0
 22
0.0
 32
0.0
 13
1.0
 23
0.0
 33
0.0
 40
0.0
 40
0.0
 40
0.0
 40
0.0
 40
1.0
 40
1.0
 40
1.0
 40
2.0
 40
2.0
 40
2.0
 40
3.0
 40
3.0
 40
3.0
 40
4.0
 40
4.0
 40
4.0
 40
4.0
 10
81.84719402301523
 20
-139.9167113539094
 30
0.0
 10
81.84719402301523
 20
-139.861572187257
 30
0.0
 10
81.80242652415734
 20
-139.8168046872678
 30
0.0
 10
81.74661708113672
 20
-139.8168046872678
 30
0.0
 10
81.69147791587677
 20
-139.8168046872678
 30
0.0
 10
81.64671041701888
 20
-139.861572187257
 30
0.0
 10
81.64671041701888
 20
-139.9167113539094
 30
0.0
 10
81.64671041701888
 20
-139.971815242785
 30
0.0
 10
81.69147791587677
 20
-140.0166180205511
 30
0.0
 10
81.74661708113672
 20
-140.0166180205511
 30
0.0
 10
81.80242652415734
 20
-140.0166180205511
 30
0.0
 10
81.84719402301523
 20
-139.971815242785
 30
0.0
 10
81.84719402301523
 20
-139.9167113539094
 30
0.0
  0
SPLINE
  5
60
330
1F
100
AcDbEntity
  8
_U+30EC_U+30A4_U+30E4_U+30FC 1
 62
   179
420
  2234388
370
     9
100
AcDbSpline
210
0.0
220
0.0
230
1.0
 70
    11
 71
     3
 72
    17
 73
    13
 74
     0
 42
0.0000000001
 43
0.0000000001
 12
1.0
 22
0.0
 32
0.0
 13
1.0
 23
0.0
 33
0.0
 40
0.0
 40
0.0
 40
0.0
 40
0.0
 40
1.0
 40
1.0
 40
1.0
 40
2.0
 40
2.0
 40
2.0
 40
3.0
 40
3.0
 40
3.0
 40
4.0
 40
4.0
 40
4.0
 40
4.0
 10
77.84676664720486
 20
-135.8156696882681
 30
0.0
 10
77.84676664720486
 20
-135.7605305216156
 30
0.0
 10
77.80196386943847
 20
-135.7157630216264
 30
0.0
 10
77.7468580165124
 20
-135.7157630216264
 30
0.0
 10
77.69171885125246
 20
-135.7157630216264
 30
0.0
 10
77.64695135239457
 20
-135.7605305216156
 30
0.0
 10
77.64695135239457
 20
-135.8156696882681
 30
0.0
 10
77.64695135239457
 20
-135.8714791326985
 30
0.0
 10
77.69171885125246
 20
-135.9162466326877
 30
0.0
 10
77.7468580165124
 20
-135.9162466326877
 30
0.0
 10
77.80196386943847
 20
-135.9162466326877
 30
0.0
 10
77.84676664720486
 20
-135.8714791326985
 30
0.0
 10
77.84676664720486
 20
-135.8156696882681
 30
0.0
  0
POLYLINE
  5
61
330
1F
100
AcDbEntity
  8
_U+30EC_U+30A4_U+30E4_U+30FC 1
 62
   179
420
  2234388
370
     9
100
AcDb2dPolyline
 66
     1
 10
0.0
 20
0.0
 30
0.0
  0
VERTEX
  5
62
330
61
100
AcDbEntity
  8
_U+30EC_U+30A4_U+30E4_U+30FC 1
 62
   179
420
  2234388
370
     9
100
AcDbVertex
100
AcDb2dVertex
 10
77.7468580165124
 20
-135.9162466326877
 30
0.0
  0
VERTEX
  5
63
330
61
100
AcDbEntity
  8
_U+30EC_U+30A4_U+30E4_U+30FC 1
 62
   179
420
  2234388
370
     9
100
AcDbVertex
100
AcDb2dVertex
 10
77.7468580165124
 20
-115.9095485821337
 30
0.0
  0
SEQEND
  5
64
330
61
100
AcDbEntity
  8
_U+30EC_U+30A4_U+30E4_U+30FC 1
 62
   179
420
  2234388
370
     9
  0
POLYLINE
  5
65
330
1F
100
AcDbEntity
  8
_U+30EC_U+30A4_U+30E4_U+30FC 1
 62
   179
420
  2234388
370
     9
100
AcDb2dPolyline
 66
     1
 10
0.0
 20
0.0
 30
0.0
  0
VERTEX
  5
66
330
65
100
AcDbEntity
  8
_U+30EC_U+30A4_U+30E4_U+30FC 1
 62
   179
420
  2234388
370
     9
100
AcDbVertex
100
AcDb2dVertex
 10
80.20663628709157
 20
-135.8156696882681
 30
0.0
  0
VERTEX
  5
67
330
65
100
AcDbEntity
  8
_U+30EC_U+30A4_U+30E4_U+30FC 1
 62
   179
420
  2234388
370
     9
100
AcDbVertex
100
AcDb2dVertex
 10
76.7470858197965
 20
-135.8156696882681
 30
0.0
  0
SEQEND
  5
68
330
65
100
AcDbEntity
  8
_U+30EC_U+30A4_U+30E4_U+30FC 1
 62
   179
420
  2234388
370
     9
  0
SPLINE
  5
69
330
1F
100
AcDbEntity
  8
_U+30EC_U+30A4_U+30E4_U+30FC 1
 62
   179
420
  2234388
370
     9
100
AcDbSpline
210
0.0
220
0.0
230
1.0
 70
    11
 71
     3
 72
    17
 73
    13
 74
     0
 42
0.0000000001
 43
0.0000000001
 12
1.0
 22
0.0
 32
0.0
 13
1.0
 23
0.0
 33
0.0
 40
0.0
 40
0.0
 40
0.0
 40
0.0
 40
1.0
 40
1.0
 40
1.0
 40
2.0
 40
2.0
 40
2.0
 40
3.0
 40
3.0
 40
3.0
 40
4.0
 40
4.0
 40
4.0
 40
4.0
 10
77.84676664720486
 20
-115.9095485821337
 30
0.0
 10
77.84676664720486
 20
-115.8544446932585
 30
0.0
 10
77.80196386943847
 20
-115.8096419154921
 30
0.0
 10
77.7468580165124
 20
-115.8096419154921
 30
0.0
 10
77.69171885125246
 20
-115.8096419154921
 30
0.0
 10
77.64695135239457
 20
-115.8544446932585
 30
0.0
 10
77.64695135239457
 20
-115.9095485821337
 30
0.0
 10
77.64695135239457
 20
-115.9653580265642
 30
0.0
 10
77.69171885125246
 20
-116.0101608043309
 30
0.0
 10
77.7468580165124
 20
-116.0101608043309
 30
0.0
 10
77.80196386943847
 20
-116.0101608043309
 30
0.0
 10
77.84676664720486
 20
-115.9653580265642
 30
0.0
 10
77.84676664720486
 20
-115.9095485821337
 30
0.0
  0
POLYLINE
  5
6A
330
1F
100
AcDbEntity
  8
_U+30EC_U+30A4_U+30E4_U+30FC 1
 62
   179
420
  2234388
370
     9
100
AcDb2dPolyline
 66
     1
 10
0.0
 20
0.0
 30
0.0
  0
VERTEX
  5
6B
330
6A
100
AcDbEntity
  8
_U+30EC_U+30A4_U+30E4_U+30FC 1
 62
   179
420
  2234388
370
     9
100
AcDbVertex
100
AcDb2dVertex
 10
80.20663628709157
 20
-115.9095485821337
 30
0.0
  0
VERTEX
  5
6C
330
6A
100
AcDbEntity
  8
_U+30EC_U+30A4_U+30E4_U+30FC 1
 62
   179
420
  2234388
370
     9
100
AcDbVertex
100
AcDb2dVertex
 10
76.7470858197965
 20
-115.9095485821337
 30
0.0
  0
SEQEND
  5
6D
330
6A
100
AcDbEntity
  8
_U+30EC_U+30A4_U+30E4_U+30FC 1
 62
   179
420
  2234388
370
     9
  0
POLYLINE
  5
6E
330
1F
100
AcDbEntity
  8
_U+30EC_U+30A4_U+30E4_U+30FC 1
 62
   179
420
  2234388
370
     9
100
AcDb2dPolyline
 66
     1
 10
0.0
 20
0.0
 30
0.0
  0
VERTEX
  5
6F
330
6E
100
AcDbEntity
  8
_U+30EC_U+30A4_U+30E4_U+30FC 1
 62
   179
420
  2234388
370
     9
100
AcDbVertex
100
AcDb2dVertex
 10
81.74661708113672
 20
-139.9167113539094
 30
0.0
  0
VERTEX
  5
70
330
6E
100
AcDbEntity
  8
_U+30EC_U+30A4_U+30E4_U+30FC 1
 62
   179
420
  2234388
370
     9
100
AcDbVertex
100
AcDb2dVertex
 10
101.7512332374431
 20
-139.9167113539094
 30
0.0
  0
SEQEND
  5
71
330
6E
100
AcDbEntity
  8
_U+30EC_U+30A4_U+30E4_U+30FC 1
 62
   179
420
  2234388
370
     9
  0
POLYLINE
  5
72
330
1F
100
AcDbEntity
  8
_U+30EC_U+30A4_U+30E4_U+30FC 1
 62
   179
420
  2234388
370
     9
100
AcDb2dPolyline
 66
     1
 10
0.0
 20
0.0
 30
0.0
  0
VERTEX
  5
73
330
72
100
AcDbEntity
  8
_U+30EC_U+30A4_U+30E4_U+30FC 1
 62
   179
420
  2234388
370
     9
100
AcDbVertex
100
AcDb2dVertex
 10
81.74661708113672
 20
-137.4561921878583
 30
0.0
  0
VERTEX
  5
74
330
72
100
AcDbEntity
  8
_U+30EC_U+30A4_U+30E4_U+30FC 1
 62
   179
420
  2234388
370
     9
100
AcDbVertex
100
AcDb2dVertex
 10
81.74661708113672
 20
-140.9164482981045
 30
0.0
  0
SEQEND
  5
75
330
72
100
AcDbEntity
  8
_U+30EC_U+30A4_U+30E4_U+30FC 1
 62
   179
420
  2234388
370
     9
  0
POLYLINE
  5
76
330
1F
100
AcDbEntity
  8
_U+30EC_U+30A4_U+30E4_U+30FC 1
 62
   179
420
  2234388
370
     9
100
AcDb2dPolyline
 66
     1
 10
0.0
 20
0.0
 30
0.0
  0
VERTEX
  5
77
330
76
100
AcDbEntity
  8
_U+30EC_U+30A4_U+30E4_U+30FC 1
 62
   179
420
  2234388
370
     9
100
AcDbVertex
100
AcDb2dVertex
 10
101.7512332374431
 20
-138.4566699653857
 30
0.0
  0
VERTEX
  5
78
330
76
100
AcDbEntity
  8
_U+30EC_U+30A4_U+30E4_U+30FC 1
 62
   179
420
  2234388
370
     9
100
AcDbVertex
100
AcDb2dVertex
 10
101.7512332374431
 20
-140.9164482981045
 30
0.0
  0
SEQEND
  5
79
330
76
100
AcDbEntity
  8
_U+30EC_U+30A4_U+30E4_U+30FC 1
 62
   179
420
  2234388
370
     9
  0
INSERT
  5
7B
330
1F
100
AcDbEntity
  8
_U+30EC_U+30A4_U+30E4_U+30FC 1
100
AcDbBlockReference
  2
block 3
 10
0.0
 20
0.0
 30
0.0
  0
INSERT
  5
84
330
1F
100
AcDbEntity
  8
_U+30EC_U+30A4_U+30E4_U+30FC 1
100
AcDbBlockReference
  2
block 4
 10
0.0
 20
0.0
 30
0.0
  0
ENDSEC
  0
SECTION
  2
OBJECTS
  0
DICTIONARY
  5
C
330
0
100
AcDbDictionary
281
     1
  3
ACAD_GROUP
350
D
  3
ACAD_LAYOUT
350
1A
  3
ACAD_MATERIAL
350
3B
  3
ACAD_MLEADERSTYLE
350
8D
  3
ACAD_MLINESTYLE
350
17
  3
ACAD_PLOTSETTINGS
350
19
  3
ACAD_PLOTSTYLENAME
350
E
  3
ACAD_TABLESTYLE
350
8C
  3
ACAD_VISUALSTYLE
350
2A
  0
SUN
  5
3F
330
29
100
AcDbSun
 90
        1
290
     0
 63
     7
421
 16777215
 40
1.0
291
     1
 91
  2455826
 92
 54000000
292
     0
 70
     2
 71
   256
280
     1
  0
DICTIONARY
  5
D
102
{ACAD_REACTORS
330
C
102
}
330
C
100
AcDbDictionary
281
     1
  0
DICTIONARY
  5
1A
102
{ACAD_REACTORS
330
C
102
}
330
C
100
AcDbDictionary
281
     1
  3
Layout1
350
1E
  3
Layout2
350
26
  3
Model
350
22
  0
DICTIONARY
  5
3B
102
{ACAD_REACTORS
330
C
102
}
330
C
100
AcDbDictionary
281
     1
  3
ByBlock
350
3D
  3
ByLayer
350
3C
  3
Global
350
3E
  0
DICTIONARY
  5
8D
102
{ACAD_REACTORS
330
C
102
}
330
C
100
AcDbDictionary
281
     1
  0
DICTIONARY
  5
17
102
{ACAD_REACTORS
330
C
102
}
330
C
100
AcDbDictionary
281
     1
  3
Standard
350
18
  0
DICTIONARY
  5
19
102
{ACAD_REACTORS
330
C
102
}
330
C
100
AcDbDictionary
281
     1
  0
ACDBDICTIONARYWDFLT
  5
E
102
{ACAD_REACTORS
330
C
102
}
330
C
100
AcDbDictionary
281
     1
  3
Normal
350
F
100
AcDbDictionaryWithDefault
340
F
  0
DICTIONARY
  5
8C
102
{ACAD_REACTORS
330
C
102
}
330
C
100
AcDbDictionary
281
     1
  0
DICTIONARY
  5
2A
102
{ACAD_REACTORS
330
C
102
}
330
C
100
AcDbDictionary
281
     1
  3
2dWireframe
350
2F
  3
3D Hidden
350
31
  3
3dWireframe
350
30
  3
Basic
350
32
  3
Brighten
350
36
  3
ColorChange
350
3A
  3
Conceptual
350
34
  3
Dim
350
35
  3
Facepattern
350
39
  3
Flat
350
2B
  3
FlatWithEdges
350
2C
  3
Gouraud
350
2D
  3
GouraudWithEdges
350
2E
  3
Linepattern
350
38
  3
Realistic
350
33
  3
Thicken
350
37
  0
LAYOUT
  5
1E
102
{ACAD_REACTORS
330
1A
102
}
330
1A
100
AcDbPlotSettings
  1

  2
none_device
  4

  6

 40
0.0
 41
0.0
 42
0.0
 43
0.0
 44
0.0
 45
0.0
 46
0.0
 47
0.0
 48
0.0
 49
0.0
140
0.0
141
0.0
142
1.0
143
1.0
 70
   688
 72
     0
 73
     0
 74
     5
  7

 75
    16
 76
     0
 77
     2
 78
   300
147
1.0
148
0.0
149
0.0
100
AcDbLayout
  1
Layout1
 70
     1
 71
     1
 10
0.0
 20
0.0
 11
12.0
 21
9.0
 12
0.0
 22
0.0
 32
0.0
 14
1.000000000000000E+20
 24
1.000000000000000E+20
 34
1.000000000000000E+20
 15
-1.000000000000000E+20
 25
-1.000000000000000E+20
 35
-1.000000000000000E+20
146
0.0
 13
0.0
 23
0.0
 33
0.0
 16
1.0
 26
0.0
 36
0.0
 17
0.0
 27
1.0
 37
0.0
 76
     0
330
1B
  0
LAYOUT
  5
26
102
{ACAD_REACTORS
330
1A
102
}
330
1A
100
AcDbPlotSettings
  1

  2
none_device
  4

  6

 40
0.0
 41
0.0
 42
0.0
 43
0.0
 44
0.0
 45
0.0
 46
0.0
 47
0.0
 48
0.0
 49
0.0
140
0.0
141
0.0
142
1.0
143
1.0
 70
   688
 72
     0
 73
     0
 74
     5
  7

 75
    16
 76
     0
 77
     2
 78
   300
147
1.0
148
0.0
149
0.0
100
AcDbLayout
  1
Layout2
 70
     1
 71
     2
 10
0.0
 20
0.0
 11
0.0
 21
0.0
 12
0.0
 22
0.0
 32
0.0
 14
0.0
 24
0.0
 34
0.0
 15
0.0
 25
0.0
 35
0.0
146
0.0
 13
0.0
 23
0.0
 33
0.0
 16
1.0
 26
0.0
 36
0.0
 17
0.0
 27
1.0
 37
0.0
 76
     0
330
23
  0
LAYOUT
  5
22
102
{ACAD_REACTORS
330
1A
102
}
330
1A
100
AcDbPlotSettings
  1

  2
none_device
  4

  6

 40
0.0
 41
0.0
 42
0.0
 43
0.0
 44
0.0
 45
0.0
 46
0.0
 47
0.0
 48
0.0
 49
0.0
140
0.0
141
0.0
142
1.0
143
1.0
 70
  1712
 72
     0
 73
     0
 74
     0
  7

 75
     0
 76
     0
 77
     2
 78
   300
147
1.0
148
0.0
149
0.0
100
AcDbLayout
  1
Model
 70
     1
 71
     0
 10
0.0
 20
0.0
 11
12.0
 21
9.0
 12
0.0
 22
0.0
 32
0.0
 14
1.000000000000000E+20
 24
1.000000000000000E+20
 34
1.000000000000000E+20
 15
-1.000000000000000E+20
 25
-1.000000000000000E+20
 35
-1.000000000000000E+20
146
0.0
 13
0.0
 23
0.0
 33
0.0
 16
1.0
 26
0.0
 36
0.0
 17
0.0
 27
1.0
 37
0.0
 76
     0
330
1F
331
29
  0
MATERIAL
  5
3D
102
{ACAD_REACTORS
330
3B
102
}
330
3B
100
AcDbMaterial
  1
ByBlock
 72
     1
 94
      127
  0
MATERIAL
  5
3C
102
{ACAD_REACTORS
330
3B
102
}
330
3B
100
AcDbMaterial
  1
ByLayer
 72
     1
 94
      127
  0
MATERIAL
  5
3E
102
{ACAD_REACTORS
330
3B
102
}
330
3B
100
AcDbMaterial
  1
Global
 72
     1
 94
      127
  0
MLINESTYLE
  5
18
102
{ACAD_REACTORS
330
17
102
}
330
17
100
AcDbMlineStyle
  2
Standard
 70
     0
  3

 62
   256
 51
90.0
 52
90.0
 71
     2
 49
0.5
 62
   256
  6
BYLAYER
 49
-0.5
 62
   256
  6
BYLAYER
  0
ACDBPLACEHOLDER
  5
F
102
{ACAD_REACTORS
330
E
102
}
330
E
  0
VISUALSTYLE
  5
2F
102
{ACAD_REACTORS
330
2A
102
}
330
2A
100
AcDbVisualStyle
  2
2dWireframe
 70
     4
177
     2
291
     0
 71
     0
176
     1
 72
     2
176
     1
 73
     0
176
     1
 90
        0
176
     1
 40
-0.6
176
     1
 41
-30.0
176
     1
 62
     5
 63
     7
421
 16777215
176
     1
 74
     1
176
     1
 91
        4
176
     1
 64
     7
176
     1
 65
   257
176
     1
 75
     1
176
     1
175
     1
176
     1
 42
1.0
176
     1
 92
        0
176
     1
 66
   257
176
     1
 43
1.0
176
     1
 76
     1
176
     1
 77
     6
176
     1
 78
     2
176
     1
 67
     7
176
     1
 79
     5
176
     1
170
     0
176
     1
171
     0
176
     1
290
     0
176
     1
 93
        1
176
     1
 44
0.0
176
     1
173
     0
176
     1
  0
VISUALSTYLE
  5
31
102
{ACAD_REACTORS
330
2A
102
}
330
2A
100
AcDbVisualStyle
  2
3D Hidden
 70
     6
177
     2
291
     0
 71
     1
176
     1
 72
     2
176
     1
 73
     2
176
     1
 90
        0
176
     1
 40
-0.6
176
     1
 41
-30.0
176
     1
 62
     5
 63
     7
421
 16777215
176
     1
 74
     2
176
     1
 91
        2
176
     1
 64
     7
176
     1
 65
   257
176
     1
 75
     2
176
     1
175
     1
176
     1
 42
40.0
176
     1
 92
        0
176
     1
 66
   257
176
     1
 43
1.0
176
     1
 76
     1
176
     1
 77
     6
176
     1
 78
     2
176
     1
 67
     7
176
     1
 79
     3
176
     1
170
     0
176
     1
171
     0
176
     1
290
     0
176
     1
 93
        1
176
     1
 44
0.0
176
     1
173
     0
176
     1
  0
VISUALSTYLE
  5
30
102
{ACAD_REACTORS
330
2A
102
}
330
2A
100
AcDbVisualStyle
  2
3dWireframe
 70
     5
177
     2
291
     0
 71
     0
176
     1
 72
     2
176
     1
 73
     0
176
     1
 90
        0
176
     1
 40
-0.6
176
     1
 41
-30.0
176
     1
 62
     5
 63
     7
421
 16777215
176
     1
 74
     1
176
     1
 91
        4
176
     1
 64
     7
176
     1
 65
   257
176
     1
 75
     1
176
     1
175
     1
176
     1
 42
1.0
176
     1
 92
        0
176
     1
 66
   257
176
     1
 43
1.0
176
     1
 76
     1
176
     1
 77
     6
176
     1
 78
     2
176
     1
 67
     7
176
     1
 79
     5
176
     1
170
     0
176
     1
171
     0
176
     1
290
     0
176
     1
 93
        1
176
     1
 44
0.0
176
     1
173
     0
176
     1
  0
VISUALSTYLE
  5
32
102
{ACAD_REACTORS
330
2A
102
}
330
2A
100
AcDbVisualStyle
  2
Basic
 70
     7
177
     2
291
     1
 71
     1
176
     1
 72
     0
176
     1
 73
     1
176
     1
 90
        0
176
     1
 40
-0.6
176
     1
 41
-30.0
176
     1
 62
     5
 63
     7
421
 16777215
176
     1
 74
     0
176
     1
 91
        4
176
     1
 64
     7
176
     1
 65
   257
176
     1
 75
     1
176
     1
175
     1
176
     1
 42
1.0
176
     1
 92
        8
176
     1
 66
     7
176
     1
 43
1.0
176
     1
 76
     1
176
     1
 77
     6
176
     1
 78
     2
176
     1
 67
     7
176
     1
 79
     5
176
     1
170
     0
176
     1
171
     0
176
     1
290
     0
176
     1
 93
        1
176
     1
 44
0.0
176
     1
173
     0
176
     1
  0
VISUALSTYLE
  5
36
102
{ACAD_REACTORS
330
2A
102
}
330
2A
100
AcDbVisualStyle
  2
Brighten
 70
    12
177
     2
291
     1
 71
     2
176
     1
 72
     2
176
     1
 73
     0
176
     1
 90
        0
176
     1
 40
-0.6
176
     1
 41
-30.0
176
     1
 62
     5
 63
     7
421
 16777215
176
     1
 74
     1
176
     1
 91
        4
176
     1
 64
     7
176
     1
 65
   257
176
     1
 75
     1
176
     1
175
     1
176
     1
 42
1.0
176
     1
 92
        8
176
     1
 66
     7
176
     1
 43
1.0
176
     1
 76
     1
176
     1
 77
     6
176
     1
 78
     2
176
     1
 67
     7
176
     1
 79
     5
176
     1
170
     0
176
     1
171
     0
176
     1
290
     0
176
     1
 93
        1
176
     1
 44
50.0
176
     1
173
     0
176
     1
  0
VISUALSTYLE
  5
3A
102
{ACAD_REACTORS
330
2A
102
}
330
2A
100
AcDbVisualStyle
  2
ColorChange
 70
    16
177
     2
291
     1
 71
     2
176
     1
 72
     2
176
     1
 73
     3
176
     1
 90
        0
176
     1
 40
-0.6
176
     1
 41
-30.0
176
     1
 62
     5
 63
     8
421
  8421504
176
     1
 74
     1
176
     1
 91
        4
176
     1
 64
     7
176
     1
 65
   257
176
     1
 75
     1
176
     1
175
     1
176
     1
 42
1.0
176
     1
 92
        8
176
     1
 66
     8
424
  8421504
176
     1
 43
1.0
176
     1
 76
     1
176
     1
 77
     6
176
     1
 78
     2
176
     1
 67
     7
176
     1
 79
     5
176
     1
170
     0
176
     1
171
     0
176
     1
290
     0
176
     1
 93
        1
176
     1
 44
0.0
176
     1
173
     0
176
     1
  0
VISUALSTYLE
  5
34
102
{ACAD_REACTORS
330
2A
102
}
330
2A
100
AcDbVisualStyle
  2
Conceptual
 70
     9
177
     2
291
     0
 71
     3
176
     1
 72
     2
176
     1
 73
     0
176
     1
 90
        0
176
     1
 40
-0.6
176
     1
 41
-30.0
176
     1
 62
     5
 63
     7
421
 16777215
176
     1
 74
     2
176
     1
 91
        2
176
     1
 64
     7
176
     1
 65
   257
176
     1
 75
     1
176
     1
175
     1
176
     1
 42
40.0
176
     1
 92
        8
176
     1
 66
     7
176
     1
 43
1.0
176
     1
 76
     1
176
     1
 77
     6
176
     1
 78
     2
176
     1
 67
     7
176
     1
 79
     3
176
     1
170
     0
176
     1
171
     0
176
     1
290
     0
176
     1
 93
        1
176
     1
 44
0.0
176
     1
173
     0
176
     1
  0
VISUALSTYLE
  5
35
102
{ACAD_REACTORS
330
2A
102
}
330
2A
100
AcDbVisualStyle
  2
Dim
 70
    11
177
     2
291
     1
 71
     2
176
     1
 72
     2
176
     1
 73
     0
176
     1
 90
        0
176
     1
 40
-0.6
176
     1
 41
-30.0
176
     1
 62
     5
 63
     7
421
 16777215
176
     1
 74
     1
176
     1
 91
        4
176
     1
 64
     7
176
     1
 65
   257
176
     1
 75
     1
176
     1
175
     1
176
     1
 42
1.0
176
     1
 92
        8
176
     1
 66
     7
176
     1
 43
1.0
176
     1
 76
     1
176
     1
 77
     6
176
     1
 78
     2
176
     1
 67
     7
176
     1
 79
     5
176
     1
170
     0
176
     1
171
     0
176
     1
290
     0
176
     1
 93
        1
176
     1
 44
-50.0
176
     1
173
     0
176
     1
  0
VISUALSTYLE
  5
39
102
{ACAD_REACTORS
330
2A
102
}
330
2A
100
AcDbVisualStyle
  2
Facepattern
 70
    15
177
     2
291
     1
 71
     2
176
     1
 72
     2
176
     1
 73
     0
176
     1
 90
        0
176
     1
 40
-0.6
176
     1
 41
-30.0
176
     1
 62
     5
 63
     7
421
 16777215
176
     1
 74
     1
176
     1
 91
        4
176
     1
 64
     7
176
     1
 65
   257
176
     1
 75
     1
176
     1
175
     1
176
     1
 42
1.0
176
     1
 92
        8
176
     1
 66
     7
176
     1
 43
1.0
176
     1
 76
     1
176
     1
 77
     6
176
     1
 78
     2
176
     1
 67
     7
176
     1
 79
     5
176
     1
170
     0
176
     1
171
     0
176
     1
290
     0
176
     1
 93
        1
176
     1
 44
0.0
176
     1
173
     0
176
     1
  0
VISUALSTYLE
  5
2B
102
{ACAD_REACTORS
330
2A
102
}
330
2A
100
AcDbVisualStyle
  2
Flat
 70
     0
177
     2
291
     1
 71
     2
176
     1
 72
     1
176
     1
 73
     1
176
     1
 90
        2
176
     1
 40
-0.6
176
     1
 41
30.0
176
     1
 62
     5
 63
     7
421
 16777215
176
     1
 74
     0
176
     1
 91
        4
176
     1
 64
     7
176
     1
 65
   257
176
     1
 75
     1
176
     1
175
     1
176
     1
 42
1.0
176
     1
 92
        8
176
     1
 66
     7
176
     1
 43
1.0
176
     1
 76
     1
176
     1
 77
     6
176
     1
 78
     2
176
     1
 67
     7
176
     1
 79
     5
176
     1
170
     0
176
     1
171
     0
176
     1
290
     0
176
     1
 93
       13
176
     1
 44
0.0
176
     1
173
     0
176
     1
  0
VISUALSTYLE
  5
2C
102
{ACAD_REACTORS
330
2A
102
}
330
2A
100
AcDbVisualStyle
  2
FlatWithEdges
 70
     1
177
     2
291
     1
 71
     2
176
     1
 72
     1
176
     1
 73
     1
176
     1
 90
        2
176
     1
 40
-0.6
176
     1
 41
30.0
176
     1
 62
     5
 63
     7
421
 16777215
176
     1
 74
     1
176
     1
 91
        4
176
     1
 64
     7
176
     1
 65
   257
176
     1
 75
     1
176
     1
175
     1
176
     1
 42
1.0
176
     1
 92
        0
176
     1
 66
   257
176
     1
 43
1.0
176
     1
 76
     1
176
     1
 77
     6
176
     1
 78
     2
176
     1
 67
     7
176
     1
 79
     5
176
     1
170
     0
176
     1
171
     0
176
     1
290
     0
176
     1
 93
       13
176
     1
 44
0.0
176
     1
173
     0
176
     1
  0
VISUALSTYLE
  5
2D
102
{ACAD_REACTORS
330
2A
102
}
330
2A
100
AcDbVisualStyle
  2
Gouraud
 70
     2
177
     2
291
     1
 71
     2
176
     1
 72
     2
176
     1
 73
     1
176
     1
 90
        2
176
     1
 40
-0.6
176
     1
 41
30.0
176
     1
 62
     5
 63
     7
421
 16777215
176
     1
 74
     0
176
     1
 91
        4
176
     1
 64
     7
176
     1
 65
   257
176
     1
 75
     1
176
     1
175
     1
176
     1
 42
1.0
176
     1
 92
        0
176
     1
 66
     7
176
     1
 43
1.0
176
     1
 76
     1
176
     1
 77
     6
176
     1
 78
     2
176
     1
 67
     7
176
     1
 79
     5
176
     1
170
     0
176
     1
171
     0
176
     1
290
     0
176
     1
 93
       13
176
     1
 44
0.0
176
     1
173
     0
176
     1
  0
VISUALSTYLE
  5
2E
102
{ACAD_REACTORS
330
2A
102
}
330
2A
100
AcDbVisualStyle
  2
GouraudWithEdges
 70
     3
177
     2
291
     1
 71
     2
176
     1
 72
     2
176
     1
 73
     1
176
     1
 90
        2
176
     1
 40
-0.6
176
     1
 41
30.0
176
     1
 62
     5
 63
     7
421
 16777215
176
     1
 74
     1
176
     1
 91
        4
176
     1
 64
     7
176
     1
 65
   257
176
     1
 75
     1
176
     1
175
     1
176
     1
 42
1.0
176
     1
 92
        0
176
     1
 66
   257
176
     1
 43
1.0
176
     1
 76
     1
176
     1
 77
     6
176
     1
 78
     2
176
     1
 67
     7
176
     1
 79
     5
176
     1
170
     0
176
     1
171
     0
176
     1
290
     0
176
     1
 93
       13
176
     1
 44
0.0
176
     1
173
     0
176
     1
  0
VISUALSTYLE
  5
38
102
{ACAD_REACTORS
330
2A
102
}
330
2A
100
AcDbVisualStyle
  2
Linepattern
 70
    14
177
     2
291
     1
 71
     2
176
     1
 72
     2
176
     1
 73
     0
176
     1
 90
        0
176
     1
 40
-0.6
176
     1
 41
-30.0
176
     1
 62
     5
 63
     7
421
 16777215
176
     1
 74
     1
176
     1
 91
        4
176
     1
 64
     7
176
     1
 65
   257
176
     1
 75
     7
176
     1
175
     7
176
     1
 42
1.0
176
     1
 92
        8
176
     1
 66
     7
176
     1
 43
1.0
176
     1
 76
     1
176
     1
 77
     6
176
     1
 78
     2
176
     1
 67
     7
176
     1
 79
     5
176
     1
170
     0
176
     1
171
     0
176
     1
290
     0
176
     1
 93
        1
176
     1
 44
0.0
176
     1
173
     0
176
     1
  0
VISUALSTYLE
  5
33
102
{ACAD_REACTORS
330
2A
102
}
330
2A
100
AcDbVisualStyle
  2
Realistic
 70
     8
177
     2
291
     0
 71
     2
176
     1
 72
     2
176
     1
 73
     0
176
     1
 90
        0
176
     1
 40
-0.6
176
     1
 41
-30.0
176
     1
 62
     5
 63
     7
421
 16777215
176
     1
 74
     1
176
     1
 91
        0
176
     1
 64
     7
176
     1
 65
   257
176
     1
 75
     1
176
     1
175
     1
176
     1
 42
1.0
176
     1
 92
        8
176
     1
 66
     8
424
  7895160
176
     1
 43
1.0
176
     1
 76
     1
176
     1
 77
     6
176
     1
 78
     2
176
     1
 67
     7
176
     1
 79
     5
176
     1
170
     0
176
     1
171
     0
176
     1
290
     0
176
     1
 93
       13
176
     1
 44
0.0
176
     1
173
     0
176
     1
  0
VISUALSTYLE
  5
37
102
{ACAD_REACTORS
330
2A
102
}
330
2A
100
AcDbVisualStyle
  2
Thicken
 70
    13
177
     2
291
     1
 71
     2
176
     1
 72
     2
176
     1
 73
     0
176
     1
 90
        0
176
     1
 40
-0.6
176
     1
 41
-30.0
176
     1
 62
     5
 63
     7
421
 16777215
176
     1
 74
     1
176
     1
 91
        4
176
     1
 64
     7
176
     1
 65
   257
176
     1
 75
     1
176
     1
175
     1
176
     1
 42
1.0
176
     1
 92
       12
176
     1
 66
     7
176
     1
 43
1.0
176
     1
 76
     1
176
     1
 77
     6
176
     1
 78
     2
176
     1
 67
     7
176
     1
 79
     5
176
     1
170
     0
176
     1
171
     0
176
     1
290
     0
176
     1
 93
        1
176
     1
 44
0.0
176
     1
173
     0
176
     1
  0
ENDSEC
  0
EOF
