  0
SECTION
  2
HEADER
  9
$ACADVER
  1
AC1024
  9
$ACADMAINTVER
 70
   226
  9
$DWGCODEPAGE
  3
ANSI_932
  9
$INSBASE
 10
0.0
 20
0.0
 30
0.0
  9
$EXTMIN
 10
1.000000000000000E+20
 20
1.000000000000000E+20
 30
1.000000000000000E+20
  9
$EXTMAX
 10
-1.000000000000000E+20
 20
-1.000000000000000E+20
 30
-1.000000000000000E+20
  9
$LIMMIN
 10
0.0
 20
0.0
  9
$LIMMAX
 10
12.0
 20
9.0
  9
$ORTHOMODE
 70
     0
  9
$REGENMODE
 70
     1
  9
$FILLMODE
 70
     1
  9
$QTEXTMODE
 70
     0
  9
$MIRRTEXT
 70
     0
  9
$LTSCALE
 40
1.0
  9
$ATTMODE
 70
     1
  9
$TEXTSIZE
 40
0.2
  9
$TRACEWID
 40
0.05
  9
$TEXTSTYLE
  7
Standard
  9
$CLAYER
  8
0
  9
$CELTYPE
  6
ByLayer
  9
$CECOLOR
 62
   256
  9
$CELTSCALE
 40
1.0
  9
$DISPSILH
 70
     0
  9
$DIMSCALE
 40
1.0
  9
$DIMASZ
 40
0.18
  9
$DIMEXO
 40
0.0625
  9
$DIMDLI
 40
0.38
  9
$DIMRND
 40
0.0
  9
$DIMDLE
 40
0.0
  9
$DIMEXE
 40
0.18
  9
$DIMTP
 40
0.0
  9
$DIMTM
 40
0.0
  9
$DIMTXT
 40
0.18
  9
$DIMCEN
 40
0.09
  9
$DIMTSZ
 40
0.0
  9
$DIMTOL
 70
     0
  9
$DIMLIM
 70
     0
  9
$DIMTIH
 70
     1
  9
$DIMTOH
 70
     1
  9
$DIMSE1
 70
     0
  9
$DIMSE2
 70
     0
  9
$DIMTAD
 70
     0
  9
$DIMZIN
 70
     0
  9
$DIMBLK
  1

  9
$DIMASO
 70
     1
  9
$DIMSHO
 70
     1
  9
$DIMPOST
  1

  9
$DIMAPOST
  1

  9
$DIMALT
 70
     0
  9
$DIMALTD
 70
     2
  9
$DIMALTF
 40
25.4
  9
$DIMLFAC
 40
1.0
  9
$DIMTOFL
 70
     0
  9
$DIMTVP
 40
0.0
  9
$DIMTIX
 70
     0
  9
$DIMSOXD
 70
     0
  9
$DIMSAH
 70
     0
  9
$DIMBLK1
  1

  9
$DIMBLK2
  1

  9
$DIMSTYLE
  2
Standard
  9
$DIMCLRD
 70
     0
  9
$DIMCLRE
 70
     0
  9
$DIMCLRT
 70
     0
  9
$DIMTFAC
 40
1.0
  9
$DIMGAP
 40
0.09
  9
$DIMJUST
 70
     0
  9
$DIMSD1
 70
     0
  9
$DIMSD2
 70
     0
  9
$DIMTOLJ
 70
     1
  9
$DIMTZIN
 70
     0
  9
$DIMALTZ
 70
     0
  9
$DIMALTTZ
 70
     0
  9
$DIMUPT
 70
     0
  9
$DIMDEC
 70
     4
  9
$DIMTDEC
 70
     4
  9
$DIMALTU
 70
     2
  9
$DIMALTTD
 70
     2
  9
$DIMTXSTY
  7
Standard
  9
$DIMAUNIT
 70
     0
  9
$DIMADEC
 70
     0
  9
$DIMALTRND
 40
0.0
  9
$DIMAZIN
 70
     0
  9
$DIMDSEP
 70
    46
  9
$DIMATFIT
 70
     3
  9
$DIMFRAC
 70
     0
  9
$DIMLDRBLK
  1

  9
$DIMLUNIT
 70
     2
  9
$DIMLWD
 70
    -2
  9
$DIMLWE
 70
    -2
  9
$DIMTMOVE
 70
     0
  9
$DIMFXL
 40
1.0
  9
$DIMFXLON
 70
     0
  9
$DIMJOGANG
 40
0.7853981633974483
  9
$DIMTFILL
 70
     0
  9
$DIMTFILLCLR
 70
     0
  9
$DIMARCSYM
 70
     0
  9
$DIMLTYPE
  6

  9
$DIMLTEX1
  6

  9
$DIMLTEX2
  6

  9
$DIMTXTDIRECTION
 70
     0
  9
$LUNITS
 70
     2
  9
$LUPREC
 70
     4
  9
$SKETCHINC
 40
0.1
  9
$FILLETRAD
 40
0.0
  9
$AUNITS
 70
     0
  9
$AUPREC
 70
     0
  9
$MENU
  1
.
  9
$ELEVATION
 40
0.0
  9
$PELEVATION
 40
0.0
  9
$THICKNESS
 40
0.0
  9
$LIMCHECK
 70
     0
  9
$CHAMFERA
 40
0.0
  9
$CHAMFERB
 40
0.0
  9
$CHAMFERC
 40
0.0
  9
$CHAMFERD
 40
0.0
  9
$SKPOLY
 70
     0
  9
$TDCREATE
 40
2459569.489201389
  9
$TDUCREATE
 40
2459569.114201389
  9
$TDUPDATE
 40
2459569.489201389
  9
$TDUUPDATE
 40
2459569.114201389
  9
$TDINDWG
 40
0.0000000000
  9
$TDUSRTIMER
 40
0.0000000000
  9
$USRTIMER
 70
     1
  9
$ANGBASE
 50
0.0
  9
$ANGDIR
 70
     0
  9
$PDMODE
 70
     0
  9
$PDSIZE
 40
0.0
  9
$PLINEWID
 40
0.0
  9
$SPLFRAME
 70
     0
  9
$SPLINETYPE
 70
     6
  9
$SPLINESEGS
 70
     8
  9
$HANDSEED
  5
15B
  9
$SURFTAB1
 70
     6
  9
$SURFTAB2
 70
     6
  9
$SURFTYPE
 70
     6
  9
$SURFU
 70
     6
  9
$SURFV
 70
     6
  9
$UCSBASE
  2

  9
$UCSNAME
  2

  9
$UCSORG
 10
0.0
 20
0.0
 30
0.0
  9
$UCSXDIR
 10
1.0
 20
0.0
 30
0.0
  9
$UCSYDIR
 10
0.0
 20
1.0
 30
0.0
  9
$UCSORTHOREF
  2

  9
$UCSORTHOVIEW
 70
     0
  9
$UCSORGTOP
 10
0.0
 20
0.0
 30
0.0
  9
$UCSORGBOTTOM
 10
0.0
 20
0.0
 30
0.0
  9
$UCSORGLEFT
 10
0.0
 20
0.0
 30
0.0
  9
$UCSORGRIGHT
 10
0.0
 20
0.0
 30
0.0
  9
$UCSORGFRONT
 10
0.0
 20
0.0
 30
0.0
  9
$UCSORGBACK
 10
0.0
 20
0.0
 30
0.0
  9
$PUCSBASE
  2

  9
$PUCSNAME
  2

  9
$PUCSORG
 10
0.0
 20
0.0
 30
0.0
  9
$PUCSXDIR
 10
1.0
 20
0.0
 30
0.0
  9
$PUCSYDIR
 10
0.0
 20
1.0
 30
0.0
  9
$PUCSORTHOREF
  2

  9
$PUCSORTHOVIEW
 70
     0
  9
$PUCSORGTOP
 10
0.0
 20
0.0
 30
0.0
  9
$PUCSORGBOTTOM
 10
0.0
 20
0.0
 30
0.0
  9
$PUCSORGLEFT
 10
0.0
 20
0.0
 30
0.0
  9
$PUCSORGRIGHT
 10
0.0
 20
0.0
 30
0.0
  9
$PUCSORGFRONT
 10
0.0
 20
0.0
 30
0.0
  9
$PUCSORGBACK
 10
0.0
 20
0.0
 30
0.0
  9
$USERI1
 70
     0
  9
$USERI2
 70
     0
  9
$USERI3
 70
     0
  9
$USERI4
 70
     0
  9
$USERI5
 70
     0
  9
$USERR1
 40
0.0
  9
$USERR2
 40
0.0
  9
$USERR3
 40
0.0
  9
$USERR4
 40
0.0
  9
$USERR5
 40
0.0
  9
$WORLDVIEW
 70
     1
  9
$SHADEDGE
 70
     3
  9
$SHADEDIF
 70
    70
  9
$TILEMODE
 70
     1
  9
$MAXACTVP
 70
    64
  9
$PINSBASE
 10
0.0
 20
0.0
 30
0.0
  9
$PLIMCHECK
 70
     0
  9
$PEXTMIN
 10
1.000000000000000E+20
 20
1.000000000000000E+20
 30
1.000000000000000E+20
  9
$PEXTMAX
 10
-1.000000000000000E+20
 20
-1.000000000000000E+20
 30
-1.000000000000000E+20
  9
$PLIMMIN
 10
0.0
 20
0.0
  9
$PLIMMAX
 10
12.0
 20
9.0
  9
$UNITMODE
 70
     0
  9
$VISRETAIN
 70
     1
  9
$PLINEGEN
 70
     0
  9
$PSLTSCALE
 70
     1
  9
$TREEDEPTH
 70
  3020
  9
$CMLSTYLE
  2
Standard
  9
$CMLJUST
 70
     0
  9
$CMLSCALE
 40
1.0
  9
$PROXYGRAPHICS
 70
     1
  9
$MEASUREMENT
 70
     0
  9
$CELWEIGHT
370
    -1
  9
$ENDCAPS
280
     0
  9
$JOINSTYLE
280
     0
  9
$LWDISPLAY
290
     1
  9
$INSUNITS
 70
     4
  9
$HYPERLINKBASE
  1

  9
$STYLESHEET
  1

  9
$XEDIT
290
     1
  9
$CEPSNTYPE
380
     0
  9
$PSTYLEMODE
290
     1
  9
$FINGERPRINTGUID
  2
{9405E943-C602-8C42-AB08-0AE2C9F8883D}
  9
$VERSIONGUID
  2
{3626903B-9515-D843-B975-0B9530220A6E}
  9
$EXTNAMES
290
     1
  9
$PSVPSCALE
 40
0.0
  9
$OLESTARTUP
290
     0
  9
$SORTENTS
280
   127
  9
$INDEXCTL
280
     0
  9
$HIDETEXT
280
     1
  9
$XCLIPFRAME
280
     2
  9
$HALOGAP
280
     0
  9
$OBSCOLOR
 70
   257
  9
$OBSLTYPE
280
     0
  9
$INTERSECTIONDISPLAY
280
     0
  9
$INTERSECTIONCOLOR
 70
   257
  9
$DIMASSOC
280
     2
  9
$PROJECTNAME
  1

  9
$CAMERADISPLAY
290
     0
  9
$LENSLENGTH
 40
50.0
  9
$CAMERAHEIGHT
 40
0.0
  9
$STEPSPERSEC
 40
2.0
  9
$STEPSIZE
 40
6.0
  9
$3DDWFPREC
 40
2.0
  9
$PSOLWIDTH
 40
0.25
  9
$PSOLHEIGHT
 40
4.0
  9
$LOFTANG1
 40
1.570796326794896
  9
$LOFTANG2
 40
1.570796326794896
  9
$LOFTMAG1
 40
0.0
  9
$LOFTMAG2
 40
0.0
  9
$LOFTPARAM
 70
     7
  9
$LOFTNORMALS
280
     1
  9
$LATITUDE
 40
37.795
  9
$LONGITUDE
 40
-122.394
  9
$NORTHDIRECTION
 40
0.0
  9
$TIMEZONE
 70
 -8000
  9
$LIGHTGLYPHDISPLAY
280
     1
  9
$TILEMODELIGHTSYNCH
280
     1
  9
$CMATERIAL
347
11
  9
$SOLIDHIST
280
     0
  9
$SHOWHIST
280
     1
  9
$DWFFRAME
280
     2
  9
$DGNFRAME
280
     0
  9
$REALWORLDSCALE
290
     1
  9
$INTERFERECOLOR
 62
     1
  9
$INTERFEREOBJVS
345
33
  9
$INTERFEREVPVS
346
30
  9
$CSHADOW
280
     0
  9
$SHADOWPLANELOCATION
 40
0.0
  0
ENDSEC
  0
SECTION
  2
CLASSES
  0
CLASS
  1
ACDBDICTIONARYWDFLT
  2
AcDbDictionaryWithDefault
  3
ObjectDBX Classes
 90
        0
 91
        1
280
     0
281
     0
  0
CLASS
  1
MATERIAL
  2
AcDbMaterial
  3
ObjectDBX Classes
 90
     1153
 91
        3
280
     0
281
     0
  0
CLASS
  1
VISUALSTYLE
  2
AcDbVisualStyle
  3
ObjectDBX Classes
 90
     4095
 91
       24
280
     0
281
     0
  0
CLASS
  1
SCALE
  2
AcDbScale
  3
ObjectDBX Classes
 90
     1153
 91
       17
280
     0
281
     0
  0
CLASS
  1
TABLESTYLE
  2
AcDbTableStyle
  3
ObjectDBX Classes
 90
     4095
 91
        1
280
     0
281
     0
  0
CLASS
  1
MLEADERSTYLE
  2
AcDbMLeaderStyle
  3
ACDB_MLEADERSTYLE_CLASS
 90
     4095
 91
        1
280
     0
281
     0
  0
CLASS
  1
ACDBSECTIONVIEWSTYLE
  2
AcDbSectionViewStyle
  3
ObjectDBX Classes
 90
     1025
 91
        1
280
     0
281
     0
  0
CLASS
  1
ACDBDETAILVIEWSTYLE
  2
AcDbDetailViewStyle
  3
ObjectDBX Classes
 90
     1025
 91
        1
280
     0
281
     0
  0
CLASS
  1
DICTIONARYVAR
  2
AcDbDictionaryVar
  3
ObjectDBX Classes
 90
        0
 91
        5
280
     0
281
     0
  0
CLASS
  1
CELLSTYLEMAP
  2
AcDbCellStyleMap
  3
ObjectDBX Classes
 90
     1152
 91
        1
280
     0
281
     0
  0
ENDSEC
  0
SECTION
  2
TABLES
  0
TABLE
  2
VPORT
  5
8
330
0
100
AcDbSymbolTable
 70
     1
  0
VPORT
  5
57
330
8
100
AcDbSymbolTableRecord
100
AcDbViewportTableRecord
  2
*Active
 70
     0
 10
0.0
 20
0.0
 11
1.0
 21
1.0
 12
0.0
 22
0.0
 13
0.0
 23
0.0
 14
1.0
 24
1.0
 15
0.0
 25
0.0
 16
0.0
 26
0.0
 36
1.0
 17
104.9999999737534
 27
-148.4999999628701
 37
0.0
 40
302.939999924255
 41
0.7070707070707534
 42
50.0
 43
0.0
 44
0.0
 50
0.0
 51
0.0
 71
     0
 72
   100
 73
     1
 74
     0
 75
     1
 76
     0
 77
     0
 78
     0
281
     0
 65
     1
110
0.0
120
0.0
130
0.0
111
1.0
121
0.0
131
0.0
112
0.0
122
1.0
132
0.0
 79
     0
146
0.0
 60
     3
 61
     5
292
     1
282
     1
141
0.0
142
0.0
 63
   250
421
  3355443
  0
ENDTAB
  0
TABLE
  2
LTYPE
  5
5
330
0
100
AcDbSymbolTable
 70
     2
  0
LTYPE
  5
5B
330
5
100
AcDbSymbolTableRecord
100
AcDbLinetypeTableRecord
  2
ByBlock
 70
     0
  3

 72
    65
 73
     0
 40
0.0
  0
LTYPE
  5
5C
330
5
100
AcDbSymbolTableRecord
100
AcDbLinetypeTableRecord
  2
ByLayer
 70
     0
  3

 72
    65
 73
     0
 40
0.0
  0
LTYPE
  5
5D
330
5
100
AcDbSymbolTableRecord
100
AcDbLinetypeTableRecord
  2
Continuous
 70
     0
  3
Solid line
 72
    65
 73
     0
 40
0.0
  0
LTYPE
  5
7A
330
5
100
AcDbSymbolTableRecord
100
AcDbLinetypeTableRecord
  2
AI-Linetype-0
 70
     0
  3
Adobe Illustrator Linetype No. 0
 72
    65
 73
     2
 40
1.411111110758333
 49
0.7055555553791667
 74
     0
 49
-0.7055555553791667
 74
     0
  0
ENDTAB
  0
TABLE
  2
LAYER
  5
2
330
0
100
AcDbSymbolTable
 70
     2
  0
LAYER
  5
54
330
2
100
AcDbSymbolTableRecord
100
AcDbLayerTableRecord
  2
0
 70
     0
 62
     7
  6
Continuous
370
    -3
390
F
347
21
  0
LAYER
  5
78
330
2
100
AcDbSymbolTableRecord
100
AcDbLayerTableRecord
  2
レイヤー 1
 70
     0
 62
     7
  6
Continuous
370
     0
390
F
347
21
  0
ENDTAB
  0
TABLE
  2
STYLE
  5
3
330
0
100
AcDbSymbolTable
 70
     2
  0
STYLE
  5
55
330
3
100
AcDbSymbolTableRecord
100
AcDbTextStyleTableRecord
  2
Standard
 70
     0
 40
0.0
 41
1.0
 50
0.0
 71
     0
 42
0.2
  3
txt
  4

  0
STYLE
  5
5A
330
3
100
AcDbSymbolTableRecord
100
AcDbTextStyleTableRecord
  2
Annotative
 70
     0
 40
0.0
 41
1.0
 50
0.0
 71
     0
 42
0.2
  3
txt
  4

1001
AcadAnnotative
1000
AnnotativeData
1002
{
1070
     1
1070
     1
1002
}
  0
ENDTAB
  0
TABLE
  2
VIEW
  5
6
330
0
100
AcDbSymbolTable
 70
     0
  0
ENDTAB
  0
TABLE
  2
UCS
  5
7
330
0
100
AcDbSymbolTable
 70
     0
  0
ENDTAB
  0
TABLE
  2
APPID
  5
9
330
0
100
AcDbSymbolTable
 70
     2
  0
APPID
  5
56
330
9
100
AcDbSymbolTableRecord
100
AcDbRegAppTableRecord
  2
ACAD
 70
     0
  0
APPID
  5
5E
330
9
100
AcDbSymbolTableRecord
100
AcDbRegAppTableRecord
  2
AcadAnnotative
 70
     0
  0
ENDTAB
  0
TABLE
  2
DIMSTYLE
  5
A
330
0
100
AcDbSymbolTable
 70
     2
100
AcDbDimStyleTable
 71
     0
  0
DIMSTYLE
105
58
330
A
100
AcDbSymbolTableRecord
100
AcDbDimStyleTableRecord
  2
Standard
 70
     0
340
55
  0
DIMSTYLE
105
59
330
A
100
AcDbSymbolTableRecord
100
AcDbDimStyleTableRecord
  2
Annotative
 70
     0
340
55
1001
AcadAnnotative
1000
AnnotativeData
1002
{
1070
     1
1070
     1
1002
}
  0
ENDTAB
  0
TABLE
  2
BLOCK_RECORD
  5
1
330
0
100
AcDbSymbolTable
 70
    13
  0
BLOCK_RECORD
  5
70
330
1
100
AcDbSymbolTableRecord
100
AcDbBlockTableRecord
  2
*Model_Space
340
73
 70
     0
280
     1
281
     0
  0
BLOCK_RECORD
  5
6C
330
1
100
AcDbSymbolTableRecord
100
AcDbBlockTableRecord
  2
*Paper_Space
340
6F
 70
     0
280
     1
281
     0
  0
BLOCK_RECORD
  5
74
330
1
100
AcDbSymbolTableRecord
100
AcDbBlockTableRecord
  2
*Paper_Space0
340
77
 70
     0
280
     1
281
     0
  0
BLOCK_RECORD
  5
B4
330
1
100
AcDbSymbolTableRecord
100
AcDbBlockTableRecord
  2
Block_0
340
0
102
{BLKREFS
331
B5
102
}
 70
     0
280
     1
281
     0
  0
BLOCK_RECORD
  5
B8
330
1
100
AcDbSymbolTableRecord
100
AcDbBlockTableRecord
  2
Block_1
340
0
102
{BLKREFS
331
B9
102
}
 70
     0
280
     1
281
     0
  0
BLOCK_RECORD
  5
C5
330
1
100
AcDbSymbolTableRecord
100
AcDbBlockTableRecord
  2
Block_2
340
0
102
{BLKREFS
331
C6
102
}
 70
     0
280
     1
281
     0
  0
BLOCK_RECORD
  5
C9
330
1
100
AcDbSymbolTableRecord
100
AcDbBlockTableRecord
  2
Block_3
340
0
102
{BLKREFS
331
CA
102
}
 70
     0
280
     1
281
     0
  0
BLOCK_RECORD
  5
D3
330
1
100
AcDbSymbolTableRecord
100
AcDbBlockTableRecord
  2
Block_4
340
0
102
{BLKREFS
331
D4
102
}
 70
     0
280
     1
281
     0
  0
BLOCK_RECORD
  5
DC
330
1
100
AcDbSymbolTableRecord
100
AcDbBlockTableRecord
  2
Block_5
340
0
102
{BLKREFS
331
DD
102
}
 70
     0
280
     1
281
     0
  0
BLOCK_RECORD
  5
E7
330
1
100
AcDbSymbolTableRecord
100
AcDbBlockTableRecord
  2
Block_6
340
0
102
{BLKREFS
331
E8
102
}
 70
     0
280
     1
281
     0
  0
BLOCK_RECORD
  5
F0
330
1
100
AcDbSymbolTableRecord
100
AcDbBlockTableRecord
  2
Block_7
340
0
102
{BLKREFS
331
F1
102
}
 70
     0
280
     1
281
     0
  0
BLOCK_RECORD
  5
F6
330
1
100
AcDbSymbolTableRecord
100
AcDbBlockTableRecord
  2
Block_8
340
0
102
{BLKREFS
331
F7
102
}
 70
     0
280
     1
281
     0
  0
BLOCK_RECORD
  5
FA
330
1
100
AcDbSymbolTableRecord
100
AcDbBlockTableRecord
  2
Block_9
340
0
102
{BLKREFS
331
FB
102
}
 70
     0
280
     1
281
     0
  0
BLOCK_RECORD
  5
101
330
1
100
AcDbSymbolTableRecord
100
AcDbBlockTableRecord
  2
Block_10
340
0
102
{BLKREFS
331
102
102
}
 70
     0
280
     1
281
     0
  0
BLOCK_RECORD
  5
105
330
1
100
AcDbSymbolTableRecord
100
AcDbBlockTableRecord
  2
Block_11
340
0
102
{BLKREFS
331
106
102
}
 70
     0
280
     1
281
     0
  0
ENDTAB
  0
ENDSEC
  0
SECTION
  2
BLOCKS
  0
BLOCK
  5
71
330
70
100
AcDbEntity
  8
0
100
AcDbBlockBegin
  2
*Model_Space
 70
     0
 10
0.0
 20
0.0
 30
0.0
  3
*Model_Space
  1

  0
ENDBLK
  5
72
330
70
100
AcDbEntity
  8
0
100
AcDbBlockEnd
  0
BLOCK
  5
6D
330
6C
100
AcDbEntity
 67
     1
  8
0
100
AcDbBlockBegin
  2
*Paper_Space
 70
     0
 10
0.0
 20
0.0
 30
0.0
  3
*Paper_Space
  1

  0
ENDBLK
  5
6E
330
6C
100
AcDbEntity
 67
     1
  8
0
100
AcDbBlockEnd
  0
BLOCK
  5
75
330
74
100
AcDbEntity
 67
     1
  8
0
100
AcDbBlockBegin
  2
*Paper_Space0
 70
     0
 10
0.0
 20
0.0
 30
0.0
  3
*Paper_Space0
  1

  0
ENDBLK
  5
76
330
74
100
AcDbEntity
 67
     1
  8
0
100
AcDbBlockEnd
  0
BLOCK
  5
B6
330
B4
100
AcDbEntity
  8
0
100
AcDbBlockBegin
  2
Block_0
 70
     0
 10
0.0
 20
0.0
 30
0.0
  3
Block_0
  1

  0
INSERT
  5
B9
330
B4
100
AcDbEntity
  8
レイヤー 1
100
AcDbBlockReference
  2
Block_1
 10
0.0
 20
0.0
 30
0.0
  0
ENDBLK
  5
B7
330
B4
100
AcDbEntity
  8
0
100
AcDbBlockEnd
  0
BLOCK
  5
BA
330
B8
100
AcDbEntity
  8
0
100
AcDbBlockBegin
  2
Block_1
 70
     0
 10
0.0
 20
0.0
 30
0.0
  3
Block_1
  1

  0
SPLINE
  5
BC
330
B8
100
AcDbEntity
  8
レイヤー 1
100
AcDbSpline
210
0.0
220
0.0
230
1.0
 70
     9
 71
     3
 72
    17
 73
    13
 74
     0
 42
0.0000000001
 43
0.0000000001
 40
0.0
 40
0.0
 40
0.0
 40
0.0
 40
1.0
 40
1.0
 40
1.0
 40
2.0
 40
2.0
 40
2.0
 40
3.0
 40
3.0
 40
3.0
 40
4.0
 40
4.0
 40
4.0
 40
4.0
 10
90.45029294613744
 20
-147.2998806055361
 30
0.0
 10
90.45029294613744
 20
-147.5496500282168
 30
0.0
 10
90.73365204979923
 20
-147.5961588172676
 30
0.0
 10
91.07850610787274
 20
-147.5961588172676
 30
0.0
 10
91.39803871412965
 20
-147.5961588172676
 30
0.0
 10
91.70689152438232
 20
-147.5599853146725
 30
0.0
 10
91.70689152438232
 20
-147.2998806055361
 30
0.0
 10
91.70689152438232
 20
-147.0521782401466
 30
0.0
 10
91.42542722323739
 20
-147.0036023938046
 30
0.0
 10
91.07850610787274
 20
-147.0036023938046
 30
0.0
 10
90.75914575639009
 20
-147.0036023938046
 30
0.0
 10
90.45029294613744
 20
-147.0418429536909
 30
0.0
 10
90.45029294613744
 20
-147.2998806055361
 30
0.0
  0
SPLINE
  5
BD
330
B8
100
AcDbEntity
  8
レイヤー 1
100
AcDbSpline
210
0.0
220
0.0
230
1.0
 70
     9
 71
     3
 72
    29
 73
    25
 74
     0
 42
0.0000000001
 43
0.0000000001
 40
0.0
 40
0.0
 40
0.0
 40
0.0
 40
1.0
 40
1.0
 40
1.0
 40
2.0
 40
2.0
 40
2.0
 40
3.0
 40
3.0
 40
3.0
 40
4.0
 40
4.0
 40
4.0
 40
5.0
 40
5.0
 40
5.0
 40
6.0
 40
6.0
 40
6.0
 40
7.0
 40
7.0
 40
7.0
 40
8.0
 40
8.0
 40
8.0
 40
8.0
 10
91.67295733385259
 20
-146.9019720769898
 30
0.0
 10
91.88241913935579
 20
-147.0101480752266
 30
0.0
 10
91.90153941929892
 20
-147.1834363781347
 30
0.0
 10
91.90153941929892
 20
-147.2998806055361
 30
0.0
 10
91.90153941929892
 20
-147.4607665646973
 30
0.0
 10
91.85503063024805
 20
-147.6023599891411
 30
0.0
 10
91.67295733385259
 20
-147.697444624534
 30
0.0
 10
91.47848169371025
 20
-147.80114199864
 30
0.0
 10
91.24145912432506
 20
-147.8204345333574
 30
0.0
 10
91.07850610787274
 20
-147.8204345333574
 30
0.0
 10
90.93467337136356
 20
-147.8204345333574
 30
0.0
 10
90.68300914616605
 20
-147.8032090559311
 30
0.0
 10
90.48405488189287
 20
-147.697444624534
 30
0.0
 10
90.28096650303741
 20
-147.5896131358456
 30
0.0
 10
90.25771210851196
 20
-147.4287271766845
 30
0.0
 10
90.25771210851196
 20
-147.2998806055361
 30
0.0
 10
90.25771210851196
 20
-147.1410617036661
 30
0.0
 10
90.30215384027169
 20
-146.9974012219312
 30
0.0
 10
90.48405488189287
 20
-146.9019720769898
 30
0.0
 10
90.67663571951834
 20
-146.8027533270146
 30
0.0
 10
90.90504555019041
 20
-146.7793266777149
 30
0.0
 10
91.07850610787274
 20
-146.7793266777149
 30
0.0
 10
91.24989960826392
 20
-146.7793266777149
 30
0.0
 10
91.4805487510014
 20
-146.8006862697234
 30
0.0
 10
91.67295733385259
 20
-146.9019720769898
 30
0.0
  0
HATCH
  5
BE
330
B8
100
AcDbEntity
  8
レイヤー 1
 62
   250
420
  2299925
440
 33554687
100
AcDbHatch
 10
0.0
 20
0.0
 30
0.0
210
0.0
220
0.0
230
1.0
  2
SOLID
 70
     1
 71
     1
 91
        2
 92
        1
 93
        1
 72
     4
 94
        3
 73
     0
 74
     0
 95
       17
 96
       13
 40
0.0
 40
0.0
 40
0.0
 40
0.0
 40
1.0
 40
1.0
 40
1.0
 40
2.0
 40
2.0
 40
2.0
 40
3.0
 40
3.0
 40
3.0
 40
4.0
 40
4.0
 40
4.0
 40
4.0
 10
90.45029294613744
 20
-147.2998806055361
 10
90.45029294613744
 20
-147.5496500282168
 10
90.73365204979923
 20
-147.5961588172676
 10
91.07850610787274
 20
-147.5961588172676
 10
91.39803871412965
 20
-147.5961588172676
 10
91.70689152438232
 20
-147.5599853146725
 10
91.70689152438232
 20
-147.2998806055361
 10
91.70689152438232
 20
-147.0521782401466
 10
91.42542722323739
 20
-147.0036023938046
 10
91.07850610787274
 20
-147.0036023938046
 10
90.75914575639009
 20
-147.0036023938046
 10
90.45029294613744
 20
-147.0418429536909
 10
90.45029294613744
 20
-147.2998806055361
 97
        0
 97
        1
330
BC
 92
        1
 93
        1
 72
     4
 94
        3
 73
     0
 74
     0
 95
       29
 96
       25
 40
0.0
 40
0.0
 40
0.0
 40
0.0
 40
1.0
 40
1.0
 40
1.0
 40
2.0
 40
2.0
 40
2.0
 40
3.0
 40
3.0
 40
3.0
 40
4.0
 40
4.0
 40
4.0
 40
5.0
 40
5.0
 40
5.0
 40
6.0
 40
6.0
 40
6.0
 40
7.0
 40
7.0
 40
7.0
 40
8.0
 40
8.0
 40
8.0
 40
8.0
 10
91.67295733385259
 20
-146.9019720769898
 10
91.88241913935579
 20
-147.0101480752266
 10
91.90153941929892
 20
-147.1834363781347
 10
91.90153941929892
 20
-147.2998806055361
 10
91.90153941929892
 20
-147.4607665646973
 10
91.85503063024805
 20
-147.6023599891411
 10
91.67295733385259
 20
-147.697444624534
 10
91.47848169371025
 20
-147.80114199864
 10
91.24145912432506
 20
-147.8204345333574
 10
91.07850610787274
 20
-147.8204345333574
 10
90.93467337136356
 20
-147.8204345333574
 10
90.68300914616605
 20
-147.8032090559311
 10
90.48405488189287
 20
-147.697444624534
 10
90.28096650303741
 20
-147.5896131358456
 10
90.25771210851196
 20
-147.4287271766845
 10
90.25771210851196
 20
-147.2998806055361
 10
90.25771210851196
 20
-147.1410617036661
 10
90.30215384027169
 20
-146.9974012219312
 10
90.48405488189287
 20
-146.9019720769898
 10
90.67663571951834
 20
-146.8027533270146
 10
90.90504555019041
 20
-146.7793266777149
 10
91.07850610787274
 20
-146.7793266777149
 10
91.24989960826392
 20
-146.7793266777149
 10
91.4805487510014
 20
-146.8006862697234
 10
91.67295733385259
 20
-146.9019720769898
 97
        0
 97
        1
330
BD
 75
     2
 76
     1
 98
        1
 10
0.0
 20
0.0
450
        0
451
        0
460
0.0
461
0.0
452
        0
462
0.0
453
        0
470

  0
SPLINE
  5
BF
330
B8
100
AcDbEntity
  8
レイヤー 1
100
AcDbSpline
210
0.0
220
0.0
230
1.0
 70
    11
 71
     3
 72
    17
 73
    13
 74
     0
 42
0.0000000001
 43
0.0000000001
 40
0.0
 40
0.0
 40
0.0
 40
0.0
 40
1.0
 40
1.0
 40
1.0
 40
2.0
 40
2.0
 40
2.0
 40
3.0
 40
3.0
 40
3.0
 40
4.0
 40
4.0
 40
4.0
 40
4.0
 10
91.85072426089149
 20
-146.5629746812412
 30
0.0
 10
91.85072426089149
 20
-146.5629746812412
 30
0.0
 10
91.599060035694
 20
-146.5629746812412
 30
0.0
 10
91.599060035694
 20
-146.5629746812412
 30
0.0
 10
91.599060035694
 20
-146.5629746812412
 30
0.0
 10
91.599060035694
 20
-146.3111382012694
 30
0.0
 10
91.599060035694
 20
-146.3111382012694
 30
0.0
 10
91.599060035694
 20
-146.3111382012694
 30
0.0
 10
91.85072426089149
 20
-146.3111382012694
 30
0.0
 10
91.85072426089149
 20
-146.3111382012694
 30
0.0
 10
91.85072426089149
 20
-146.3111382012694
 30
0.0
 10
91.85072426089149
 20
-146.5629746812412
 30
0.0
 10
91.85072426089149
 20
-146.5629746812412
 30
0.0
  0
HATCH
  5
C0
330
B8
100
AcDbEntity
  8
レイヤー 1
 62
   250
420
  2299925
440
 33554687
100
AcDbHatch
 10
0.0
 20
0.0
 30
0.0
210
0.0
220
0.0
230
1.0
  2
SOLID
 70
     1
 71
     1
 91
        1
 92
        1
 93
        1
 72
     4
 94
        3
 73
     0
 74
     0
 95
       17
 96
       13
 40
0.0
 40
0.0
 40
0.0
 40
0.0
 40
1.0
 40
1.0
 40
1.0
 40
2.0
 40
2.0
 40
2.0
 40
3.0
 40
3.0
 40
3.0
 40
4.0
 40
4.0
 40
4.0
 40
4.0
 10
91.85072426089149
 20
-146.5629746812412
 10
91.85072426089149
 20
-146.5629746812412
 10
91.599060035694
 20
-146.5629746812412
 10
91.599060035694
 20
-146.5629746812412
 10
91.599060035694
 20
-146.5629746812412
 10
91.599060035694
 20
-146.3111382012694
 10
91.599060035694
 20
-146.3111382012694
 10
91.599060035694
 20
-146.3111382012694
 10
91.85072426089149
 20
-146.3111382012694
 10
91.85072426089149
 20
-146.3111382012694
 10
91.85072426089149
 20
-146.3111382012694
 10
91.85072426089149
 20
-146.5629746812412
 10
91.85072426089149
 20
-146.5629746812412
 97
        0
 97
        1
330
BF
 75
     2
 76
     1
 98
        1
 10
0.0
 20
0.0
450
        0
451
        0
460
0.0
461
0.0
452
        0
462
0.0
453
        0
470

  0
SPLINE
  5
C1
330
B8
100
AcDbEntity
  8
レイヤー 1
100
AcDbSpline
210
0.0
220
0.0
230
1.0
 70
     9
 71
     3
 72
    53
 73
    49
 74
     0
 42
0.0000000001
 43
0.0000000001
 40
0.0
 40
0.0
 40
0.0
 40
0.0
 40
1.0
 40
1.0
 40
1.0
 40
2.0
 40
2.0
 40
2.0
 40
3.0
 40
3.0
 40
3.0
 40
4.0
 40
4.0
 40
4.0
 40
5.0
 40
5.0
 40
5.0
 40
6.0
 40
6.0
 40
6.0
 40
7.0
 40
7.0
 40
7.0
 40
8.0
 40
8.0
 40
8.0
 40
9.0
 40
9.0
 40
9.0
 40
10.0
 40
10.0
 40
10.0
 40
11.0
 40
11.0
 40
11.0
 40
12.0
 40
12.0
 40
12.0
 40
13.0
 40
13.0
 40
13.0
 40
14.0
 40
14.0
 40
14.0
 40
15.0
 40
15.0
 40
15.0
 40
16.0
 40
16.0
 40
16.0
 40
16.0
 10
91.90153941929892
 20
-145.5938693212404
 30
0.0
 10
91.90153941929892
 20
-145.6720729887556
 30
0.0
 10
91.8846584514212
 20
-145.7737033055705
 30
0.0
 10
91.82109643971834
 20
-145.8753336223853
 30
0.0
 10
91.71102563896461
 20
-146.0486219252934
 30
0.0
 10
91.57993975575086
 20
-146.0699815173019
 30
0.0
 10
91.47210826706254
 20
-146.0889295424708
 30
0.0
 10
91.47210826706254
 20
-146.0889295424708
 30
0.0
 10
91.47210826706254
 20
-145.8667208836722
 30
0.0
 10
91.47210826706254
 20
-145.8667208836722
 30
0.0
 10
91.67089027656144
 20
-145.8119438654567
 30
0.0
 10
91.70051809773459
 20
-145.684819842051
 30
0.0
 10
91.70051809773459
 20
-145.5918022639493
 30
0.0
 10
91.70051809773459
 20
-145.4522758967966
 30
0.0
 10
91.60112709298514
 20
-145.3000026763486
 30
0.0
 10
91.36841089295652
 20
-145.3000026763486
 30
0.0
 10
91.11244029840245
 20
-145.3000026763486
 30
0.0
 10
91.04267711482613
 20
-145.4798366606786
 30
0.0
 10
91.04267711482613
 20
-145.6004150026624
 30
0.0
 10
91.04267711482613
 20
-145.6321098811267
 30
0.0
 10
91.04267711482613
 20
-145.7737033055705
 30
0.0
 10
91.17169594074875
 20
-145.8625867690899
 30
0.0
 10
91.17169594074875
 20
-145.8625867690899
 30
0.0
 10
91.15257566080561
 20
-146.0382866388376
 30
0.0
 10
91.15257566080561
 20
-146.0382866388376
 30
0.0
 10
91.15257566080561
 20
-146.0382866388376
 30
0.0
 10
90.30646020962825
 20
-145.9177082968539
 30
0.0
 10
90.30646020962825
 20
-145.9177082968539
 30
0.0
 10
90.30646020962825
 20
-145.9177082968539
 30
0.0
 10
90.30646020962825
 20
-145.1391167171874
 30
0.0
 10
90.30646020962825
 20
-145.1391167171874
 30
0.0
 10
90.30646020962825
 20
-145.1391167171874
 30
0.0
 10
90.50110810454487
 20
-145.1391167171874
 30
0.0
 10
90.50110810454487
 20
-145.1391167171874
 30
0.0
 10
90.50110810454487
 20
-145.1391167171874
 30
0.0
 10
90.50110810454487
 20
-145.7547552804016
 30
0.0
 10
90.50110810454487
 20
-145.7547552804016
 30
0.0
 10
90.50110810454487
 20
-145.7547552804016
 30
0.0
 10
90.92416583013354
 20
-145.8202120946213
 30
0.0
 10
90.92416583013354
 20
-145.8202120946213
 30
0.0
 10
90.89023163960384
 20
-145.7588893949839
 30
0.0
 10
90.85009627720067
 20
-145.6765516128864
 30
0.0
 10
90.85009627720067
 20
-145.5580403281938
 30
0.0
 10
90.85009627720067
 20
-145.3041367909309
 30
0.0
 10
91.03630368817844
 20
-145.0671142215457
 30
0.0
 10
91.34929061301338
 20
-145.0671142215457
 30
0.0
 10
91.66675616197915
 20
-145.0671142215457
 30
0.0
 10
91.90153941929892
 20
-145.2913899376355
 30
0.0
 10
91.90153941929892
 20
-145.5938693212404
 30
0.0
  0
HATCH
  5
C2
330
B8
100
AcDbEntity
  8
レイヤー 1
 62
   250
420
  2299925
440
 33554687
100
AcDbHatch
 10
0.0
 20
0.0
 30
0.0
210
0.0
220
0.0
230
1.0
  2
SOLID
 70
     1
 71
     1
 91
        1
 92
        1
 93
        1
 72
     4
 94
        3
 73
     0
 74
     0
 95
       53
 96
       49
 40
0.0
 40
0.0
 40
0.0
 40
0.0
 40
1.0
 40
1.0
 40
1.0
 40
2.0
 40
2.0
 40
2.0
 40
3.0
 40
3.0
 40
3.0
 40
4.0
 40
4.0
 40
4.0
 40
5.0
 40
5.0
 40
5.0
 40
6.0
 40
6.0
 40
6.0
 40
7.0
 40
7.0
 40
7.0
 40
8.0
 40
8.0
 40
8.0
 40
9.0
 40
9.0
 40
9.0
 40
10.0
 40
10.0
 40
10.0
 40
11.0
 40
11.0
 40
11.0
 40
12.0
 40
12.0
 40
12.0
 40
13.0
 40
13.0
 40
13.0
 40
14.0
 40
14.0
 40
14.0
 40
15.0
 40
15.0
 40
15.0
 40
16.0
 40
16.0
 40
16.0
 40
16.0
 10
91.90153941929892
 20
-145.5938693212404
 10
91.90153941929892
 20
-145.6720729887556
 10
91.8846584514212
 20
-145.7737033055705
 10
91.82109643971834
 20
-145.8753336223853
 10
91.71102563896461
 20
-146.0486219252934
 10
91.57993975575086
 20
-146.0699815173019
 10
91.47210826706254
 20
-146.0889295424708
 10
91.47210826706254
 20
-146.0889295424708
 10
91.47210826706254
 20
-145.8667208836722
 10
91.47210826706254
 20
-145.8667208836722
 10
91.67089027656144
 20
-145.8119438654567
 10
91.70051809773459
 20
-145.684819842051
 10
91.70051809773459
 20
-145.5918022639493
 10
91.70051809773459
 20
-145.4522758967966
 10
91.60112709298514
 20
-145.3000026763486
 10
91.36841089295652
 20
-145.3000026763486
 10
91.11244029840245
 20
-145.3000026763486
 10
91.04267711482613
 20
-145.4798366606786
 10
91.04267711482613
 20
-145.6004150026624
 10
91.04267711482613
 20
-145.6321098811267
 10
91.04267711482613
 20
-145.7737033055705
 10
91.17169594074875
 20
-145.8625867690899
 10
91.17169594074875
 20
-145.8625867690899
 10
91.15257566080561
 20
-146.0382866388376
 10
91.15257566080561
 20
-146.0382866388376
 10
91.15257566080561
 20
-146.0382866388376
 10
90.30646020962825
 20
-145.9177082968539
 10
90.30646020962825
 20
-145.9177082968539
 10
90.30646020962825
 20
-145.9177082968539
 10
90.30646020962825
 20
-145.1391167171874
 10
90.30646020962825
 20
-145.1391167171874
 10
90.30646020962825
 20
-145.1391167171874
 10
90.50110810454487
 20
-145.1391167171874
 10
90.50110810454487
 20
-145.1391167171874
 10
90.50110810454487
 20
-145.1391167171874
 10
90.50110810454487
 20
-145.7547552804016
 10
90.50110810454487
 20
-145.7547552804016
 10
90.50110810454487
 20
-145.7547552804016
 10
90.92416583013354
 20
-145.8202120946213
 10
90.92416583013354
 20
-145.8202120946213
 10
90.89023163960384
 20
-145.7588893949839
 10
90.85009627720067
 20
-145.6765516128864
 10
90.85009627720067
 20
-145.5580403281938
 10
90.85009627720067
 20
-145.3041367909309
 10
91.03630368817844
 20
-145.0671142215457
 10
91.34929061301338
 20
-145.0671142215457
 10
91.66675616197915
 20
-145.0671142215457
 10
91.90153941929892
 20
-145.2913899376355
 10
91.90153941929892
 20
-145.5938693212404
 97
        0
 97
        1
330
C1
 75
     2
 76
     1
 98
        1
 10
0.0
 20
0.0
450
        0
451
        0
460
0.0
461
0.0
452
        0
462
0.0
453
        0
470

  0
ENDBLK
  5
BB
330
B8
100
AcDbEntity
  8
0
100
AcDbBlockEnd
  0
BLOCK
  5
C7
330
C5
100
AcDbEntity
  8
0
100
AcDbBlockBegin
  2
Block_2
 70
     0
 10
0.0
 20
0.0
 30
0.0
  3
Block_2
  1

  0
INSERT
  5
CA
330
C5
100
AcDbEntity
  8
レイヤー 1
100
AcDbBlockReference
  2
Block_3
 10
0.0
 20
0.0
 30
0.0
  0
ENDBLK
  5
C8
330
C5
100
AcDbEntity
  8
0
100
AcDbBlockEnd
  0
BLOCK
  5
CB
330
C9
100
AcDbEntity
  8
0
100
AcDbBlockBegin
  2
Block_3
 70
     0
 10
0.0
 20
0.0
 30
0.0
  3
Block_3
  1

  0
SPLINE
  5
CD
330
C9
100
AcDbEntity
  8
レイヤー 1
100
AcDbSpline
210
0.0
220
0.0
230
1.0
 70
     9
 71
     3
 72
    44
 73
    40
 74
     0
 42
0.0000000001
 43
0.0000000001
 40
0.0
 40
0.0
 40
0.0
 40
0.0
 40
1.0
 40
1.0
 40
1.0
 40
2.0
 40
2.0
 40
2.0
 40
3.0
 40
3.0
 40
3.0
 40
4.0
 40
4.0
 40
4.0
 40
5.0
 40
5.0
 40
5.0
 40
6.0
 40
6.0
 40
6.0
 40
7.0
 40
7.0
 40
7.0
 40
8.0
 40
8.0
 40
8.0
 40
9.0
 40
9.0
 40
9.0
 40
10.0
 40
10.0
 40
10.0
 40
11.0
 40
11.0
 40
11.0
 40
12.0
 40
12.0
 40
12.0
 40
13.0
 40
13.0
 40
13.0
 40
13.0
 10
105.4535115296262
 20
-140.5876288168496
 30
0.0
 10
105.2356092401841
 20
-140.7462754639453
 30
0.0
 10
105.1424194073081
 20
-140.8203450168782
 30
0.0
 10
105.0938435609661
 20
-140.9641777533874
 30
0.0
 10
105.0938435609661
 20
-140.9641777533874
 30
0.0
 10
105.8722628858583
 20
-140.9641777533874
 30
0.0
 10
105.8722628858583
 20
-140.9641777533874
 30
0.0
 10
105.8722628858583
 20
-140.9641777533874
 30
0.0
 10
105.8722628858583
 20
-141.169333189534
 30
0.0
 10
105.8722628858583
 20
-141.169333189534
 30
0.0
 10
105.8722628858583
 20
-141.169333189534
 30
0.0
 10
104.8442463930598
 20
-141.169333189534
 30
0.0
 10
104.8442463930598
 20
-141.169333189534
 30
0.0
 10
104.875941271524
 20
-140.8117322781651
 30
0.0
 10
104.941570340518
 20
-140.7335286106499
 30
0.0
 10
105.3265597609947
 20
-140.4351833416273
 30
0.0
 10
105.5825303555488
 20
-140.2364013321284
 30
0.0
 10
105.6479871697685
 20
-140.1687052058432
 30
0.0
 10
105.6479871697685
 20
-140.0312458959818
 30
0.0
 10
105.6479871697685
 20
-139.9127346112892
 30
0.0
 10
105.5759846741268
 20
-139.7814764733011
 30
0.0
 10
105.3794419766933
 20
-139.7814764733011
 30
0.0
 10
105.1191650127827
 20
-139.7814764733011
 30
0.0
 10
105.1107245288438
 20
-140.0121256160386
 30
0.0
 10
105.1064181594873
 20
-140.1285698434401
 30
0.0
 10
105.1064181594873
 20
-140.1285698434401
 30
0.0
 10
104.8823146981717
 20
-140.1285698434401
 30
0.0
 10
104.8823146981717
 20
-140.1285698434401
 30
0.0
 10
104.8907551821106
 20
-140.0016180748086
 30
0.0
 10
104.9012627233406
 20
-139.8894802167637
 30
0.0
 10
104.9817057029212
 20
-139.7709689320711
 30
0.0
 10
105.0916042489007
 20
-139.6102552276842
 30
0.0
 10
105.2778116598784
 20
-139.5763210371545
 30
0.0
 10
105.3942558872799
 20
-139.5763210371545
 30
0.0
 10
105.6714138190682
 20
-139.5763210371545
 30
0.0
 10
105.8784640577318
 20
-139.7604613908411
 30
0.0
 10
105.8784640577318
 20
-140.0333129532729
 30
0.0
 10
105.8784640577318
 20
-140.261722783945
 30
0.0
 10
105.7623643398788
 20
-140.3612860434687
 30
0.0
 10
105.4535115296262
 20
-140.5876288168496
 30
0.0
  0
HATCH
  5
CE
330
C9
100
AcDbEntity
  8
レイヤー 1
 62
   250
420
  2299925
440
 33554687
100
AcDbHatch
 10
0.0
 20
0.0
 30
0.0
210
0.0
220
0.0
230
1.0
  2
SOLID
 70
     1
 71
     1
 91
        1
 92
        1
 93
        1
 72
     4
 94
        3
 73
     0
 74
     0
 95
       44
 96
       40
 40
0.0
 40
0.0
 40
0.0
 40
0.0
 40
1.0
 40
1.0
 40
1.0
 40
2.0
 40
2.0
 40
2.0
 40
3.0
 40
3.0
 40
3.0
 40
4.0
 40
4.0
 40
4.0
 40
5.0
 40
5.0
 40
5.0
 40
6.0
 40
6.0
 40
6.0
 40
7.0
 40
7.0
 40
7.0
 40
8.0
 40
8.0
 40
8.0
 40
9.0
 40
9.0
 40
9.0
 40
10.0
 40
10.0
 40
10.0
 40
11.0
 40
11.0
 40
11.0
 40
12.0
 40
12.0
 40
12.0
 40
13.0
 40
13.0
 40
13.0
 40
13.0
 10
105.4535115296262
 20
-140.5876288168496
 10
105.2356092401841
 20
-140.7462754639453
 10
105.1424194073081
 20
-140.8203450168782
 10
105.0938435609661
 20
-140.9641777533874
 10
105.0938435609661
 20
-140.9641777533874
 10
105.8722628858583
 20
-140.9641777533874
 10
105.8722628858583
 20
-140.9641777533874
 10
105.8722628858583
 20
-140.9641777533874
 10
105.8722628858583
 20
-141.169333189534
 10
105.8722628858583
 20
-141.169333189534
 10
105.8722628858583
 20
-141.169333189534
 10
104.8442463930598
 20
-141.169333189534
 10
104.8442463930598
 20
-141.169333189534
 10
104.875941271524
 20
-140.8117322781651
 10
104.941570340518
 20
-140.7335286106499
 10
105.3265597609947
 20
-140.4351833416273
 10
105.5825303555488
 20
-140.2364013321284
 10
105.6479871697685
 20
-140.1687052058432
 10
105.6479871697685
 20
-140.0312458959818
 10
105.6479871697685
 20
-139.9127346112892
 10
105.5759846741268
 20
-139.7814764733011
 10
105.3794419766933
 20
-139.7814764733011
 10
105.1191650127827
 20
-139.7814764733011
 10
105.1107245288438
 20
-140.0121256160386
 10
105.1064181594873
 20
-140.1285698434401
 10
105.1064181594873
 20
-140.1285698434401
 10
104.8823146981717
 20
-140.1285698434401
 10
104.8823146981717
 20
-140.1285698434401
 10
104.8907551821106
 20
-140.0016180748086
 10
104.9012627233406
 20
-139.8894802167637
 10
104.9817057029212
 20
-139.7709689320711
 10
105.0916042489007
 20
-139.6102552276842
 10
105.2778116598784
 20
-139.5763210371545
 10
105.3942558872799
 20
-139.5763210371545
 10
105.6714138190682
 20
-139.5763210371545
 10
105.8784640577318
 20
-139.7604613908411
 10
105.8784640577318
 20
-140.0333129532729
 10
105.8784640577318
 20
-140.261722783945
 10
105.7623643398788
 20
-140.3612860434687
 10
105.4535115296262
 20
-140.5876288168496
 97
        0
 97
        1
330
CD
 75
     2
 76
     1
 98
        1
 10
0.0
 20
0.0
450
        0
451
        0
460
0.0
461
0.0
452
        0
462
0.0
453
        0
470

  0
SPLINE
  5
CF
330
C9
100
AcDbEntity
  8
レイヤー 1
100
AcDbSpline
210
0.0
220
0.0
230
1.0
 70
    11
 71
     3
 72
    26
 73
    22
 74
     0
 42
0.0000000001
 43
0.0000000001
 40
0.0
 40
0.0
 40
0.0
 40
0.0
 40
1.0
 40
1.0
 40
1.0
 40
2.0
 40
2.0
 40
2.0
 40
3.0
 40
3.0
 40
3.0
 40
4.0
 40
4.0
 40
4.0
 40
5.0
 40
5.0
 40
5.0
 40
6.0
 40
6.0
 40
6.0
 40
7.0
 40
7.0
 40
7.0
 40
7.0
 10
106.4885904681695
 20
-141.169333189534
 30
0.0
 10
106.4885904681695
 20
-141.169333189534
 30
0.0
 10
106.4885904681695
 20
-140.0650078317372
 30
0.0
 10
106.4885904681695
 20
-140.0650078317372
 30
0.0
 10
106.4885904681695
 20
-140.0650078317372
 30
0.0
 10
106.1585503206826
 20
-140.0650078317372
 30
0.0
 10
106.1585503206826
 20
-140.0650078317372
 30
0.0
 10
106.1585503206826
 20
-140.0650078317372
 30
0.0
 10
106.1585503206826
 20
-139.9168687258715
 30
0.0
 10
106.1585503206826
 20
-139.9168687258715
 30
0.0
 10
106.4906575254606
 20
-139.9022270700592
 30
0.0
 10
106.5371663145115
 20
-139.7392740536068
 30
0.0
 10
106.5667941356847
 20
-139.6250691382708
 30
0.0
 10
106.5667941356847
 20
-139.6250691382708
 30
0.0
 10
106.7128661842593
 20
-139.6250691382708
 30
0.0
 10
106.7128661842593
 20
-139.6250691382708
 30
0.0
 10
106.7128661842593
 20
-139.6250691382708
 30
0.0
 10
106.7128661842593
 20
-141.169333189534
 30
0.0
 10
106.7128661842593
 20
-141.169333189534
 30
0.0
 10
106.7128661842593
 20
-141.169333189534
 30
0.0
 10
106.4885904681695
 20
-141.169333189534
 30
0.0
 10
106.4885904681695
 20
-141.169333189534
 30
0.0
  0
HATCH
  5
D0
330
C9
100
AcDbEntity
  8
レイヤー 1
 62
   250
420
  2299925
440
 33554687
100
AcDbHatch
 10
0.0
 20
0.0
 30
0.0
210
0.0
220
0.0
230
1.0
  2
SOLID
 70
     1
 71
     1
 91
        1
 92
        1
 93
        1
 72
     4
 94
        3
 73
     0
 74
     0
 95
       26
 96
       22
 40
0.0
 40
0.0
 40
0.0
 40
0.0
 40
1.0
 40
1.0
 40
1.0
 40
2.0
 40
2.0
 40
2.0
 40
3.0
 40
3.0
 40
3.0
 40
4.0
 40
4.0
 40
4.0
 40
5.0
 40
5.0
 40
5.0
 40
6.0
 40
6.0
 40
6.0
 40
7.0
 40
7.0
 40
7.0
 40
7.0
 10
106.4885904681695
 20
-141.169333189534
 10
106.4885904681695
 20
-141.169333189534
 10
106.4885904681695
 20
-140.0650078317372
 10
106.4885904681695
 20
-140.0650078317372
 10
106.4885904681695
 20
-140.0650078317372
 10
106.1585503206826
 20
-140.0650078317372
 10
106.1585503206826
 20
-140.0650078317372
 10
106.1585503206826
 20
-140.0650078317372
 10
106.1585503206826
 20
-139.9168687258715
 10
106.1585503206826
 20
-139.9168687258715
 10
106.4906575254606
 20
-139.9022270700592
 10
106.5371663145115
 20
-139.7392740536068
 10
106.5667941356847
 20
-139.6250691382708
 10
106.5667941356847
 20
-139.6250691382708
 10
106.7128661842593
 20
-139.6250691382708
 10
106.7128661842593
 20
-139.6250691382708
 10
106.7128661842593
 20
-139.6250691382708
 10
106.7128661842593
 20
-141.169333189534
 10
106.7128661842593
 20
-141.169333189534
 10
106.7128661842593
 20
-141.169333189534
 10
106.4885904681695
 20
-141.169333189534
 10
106.4885904681695
 20
-141.169333189534
 97
        0
 97
        1
330
CF
 75
     2
 76
     1
 98
        1
 10
0.0
 20
0.0
450
        0
451
        0
460
0.0
461
0.0
452
        0
462
0.0
453
        0
470

  0
ENDBLK
  5
CC
330
C9
100
AcDbEntity
  8
0
100
AcDbBlockEnd
  0
BLOCK
  5
D5
330
D3
100
AcDbEntity
  8
0
100
AcDbBlockBegin
  2
Block_4
 70
     0
 10
0.0
 20
0.0
 30
0.0
  3
Block_4
  1

  0
SPLINE
  5
D7
330
D3
100
AcDbEntity
  8
レイヤー 1
100
AcDbSpline
210
0.0
220
0.0
230
1.0
 70
     9
 71
     3
 72
    53
 73
    49
 74
     0
 42
0.0000000001
 43
0.0000000001
 40
0.0
 40
0.0
 40
0.0
 40
0.0
 40
1.0
 40
1.0
 40
1.0
 40
2.0
 40
2.0
 40
2.0
 40
3.0
 40
3.0
 40
3.0
 40
4.0
 40
4.0
 40
4.0
 40
5.0
 40
5.0
 40
5.0
 40
6.0
 40
6.0
 40
6.0
 40
7.0
 40
7.0
 40
7.0
 40
8.0
 40
8.0
 40
8.0
 40
9.0
 40
9.0
 40
9.0
 40
10.0
 40
10.0
 40
10.0
 40
11.0
 40
11.0
 40
11.0
 40
12.0
 40
12.0
 40
12.0
 40
13.0
 40
13.0
 40
13.0
 40
14.0
 40
14.0
 40
14.0
 40
15.0
 40
15.0
 40
15.0
 40
16.0
 40
16.0
 40
16.0
 40
16.0
 10
92.63224417172041
 20
-150.1617214251331
 30
0.0
 10
92.63224417172041
 20
-150.2399250926483
 30
0.0
 10
92.61519094906843
 20
-150.3415554094632
 30
0.0
 10
92.55180119213983
 20
-150.4431857262781
 30
0.0
 10
92.4417303913861
 20
-150.6164740291862
 30
0.0
 10
92.31064450817234
 20
-150.6378336211947
 30
0.0
 10
92.20281301948402
 20
-150.6567816463635
 30
0.0
 10
92.20281301948402
 20
-150.6567816463635
 30
0.0
 10
92.20281301948402
 20
-150.4345729875649
 30
0.0
 10
92.20281301948402
 20
-150.4345729875649
 30
0.0
 10
92.40159502898293
 20
-150.3797959693495
 30
0.0
 10
92.43122285015608
 20
-150.2526719459438
 30
0.0
 10
92.43122285015608
 20
-150.159654367842
 30
0.0
 10
92.43122285015608
 20
-150.0201280006894
 30
0.0
 10
92.33183184540662
 20
-149.8678547802414
 30
0.0
 10
92.09911564537801
 20
-149.8678547802414
 30
0.0
 10
91.84314505082394
 20
-149.8678547802414
 30
0.0
 10
91.77338186724764
 20
-150.0476887645714
 30
0.0
 10
91.77338186724764
 20
-150.1682671065552
 30
0.0
 10
91.77338186724764
 20
-150.1999619850194
 30
0.0
 10
91.77338186724764
 20
-150.3415554094632
 30
0.0
 10
91.90240069317024
 20
-150.4304388729827
 30
0.0
 10
91.90240069317024
 20
-150.4304388729827
 30
0.0
 10
91.8832804132271
 20
-150.6061387427304
 30
0.0
 10
91.8832804132271
 20
-150.6061387427304
 30
0.0
 10
91.8832804132271
 20
-150.6061387427304
 30
0.0
 10
91.03716496204974
 20
-150.4855604007467
 30
0.0
 10
91.03716496204974
 20
-150.4855604007467
 30
0.0
 10
91.03716496204974
 20
-150.4855604007467
 30
0.0
 10
91.03716496204974
 20
-149.7069688210802
 30
0.0
 10
91.03716496204974
 20
-149.7069688210802
 30
0.0
 10
91.03716496204974
 20
-149.7069688210802
 30
0.0
 10
91.23181285696636
 20
-149.7069688210802
 30
0.0
 10
91.23181285696636
 20
-149.7069688210802
 30
0.0
 10
91.23181285696636
 20
-149.7069688210802
 30
0.0
 10
91.23181285696636
 20
-150.3226073842943
 30
0.0
 10
91.23181285696636
 20
-150.3226073842943
 30
0.0
 10
91.23181285696636
 20
-150.3226073842943
 30
0.0
 10
91.65487058255504
 20
-150.3880641985141
 30
0.0
 10
91.65487058255504
 20
-150.3880641985141
 30
0.0
 10
91.62093639202533
 20
-150.3267414988766
 30
0.0
 10
91.58080102962216
 20
-150.2444037167792
 30
0.0
 10
91.58080102962216
 20
-150.1258924320866
 30
0.0
 10
91.58080102962216
 20
-149.8719888948237
 30
0.0
 10
91.76700844059991
 20
-149.6349663254385
 30
0.0
 10
92.07999536543487
 20
-149.6349663254385
 30
0.0
 10
92.39746091440064
 20
-149.6349663254385
 30
0.0
 10
92.63224417172041
 20
-149.8592420415282
 30
0.0
 10
92.63224417172041
 20
-150.1617214251331
 30
0.0
  0
HATCH
  5
D8
330
D3
100
AcDbEntity
  8
レイヤー 1
 62
   250
420
  2299925
440
 33554687
100
AcDbHatch
 10
0.0
 20
0.0
 30
0.0
210
0.0
220
0.0
230
1.0
  2
SOLID
 70
     1
 71
     1
 91
        1
 92
        1
 93
        1
 72
     4
 94
        3
 73
     0
 74
     0
 95
       53
 96
       49
 40
0.0
 40
0.0
 40
0.0
 40
0.0
 40
1.0
 40
1.0
 40
1.0
 40
2.0
 40
2.0
 40
2.0
 40
3.0
 40
3.0
 40
3.0
 40
4.0
 40
4.0
 40
4.0
 40
5.0
 40
5.0
 40
5.0
 40
6.0
 40
6.0
 40
6.0
 40
7.0
 40
7.0
 40
7.0
 40
8.0
 40
8.0
 40
8.0
 40
9.0
 40
9.0
 40
9.0
 40
10.0
 40
10.0
 40
10.0
 40
11.0
 40
11.0
 40
11.0
 40
12.0
 40
12.0
 40
12.0
 40
13.0
 40
13.0
 40
13.0
 40
14.0
 40
14.0
 40
14.0
 40
15.0
 40
15.0
 40
15.0
 40
16.0
 40
16.0
 40
16.0
 40
16.0
 10
92.63224417172041
 20
-150.1617214251331
 10
92.63224417172041
 20
-150.2399250926483
 10
92.61519094906843
 20
-150.3415554094632
 10
92.55180119213983
 20
-150.4431857262781
 10
92.4417303913861
 20
-150.6164740291862
 10
92.31064450817234
 20
-150.6378336211947
 10
92.20281301948402
 20
-150.6567816463635
 10
92.20281301948402
 20
-150.6567816463635
 10
92.20281301948402
 20
-150.4345729875649
 10
92.20281301948402
 20
-150.4345729875649
 10
92.40159502898293
 20
-150.3797959693495
 10
92.43122285015608
 20
-150.2526719459438
 10
92.43122285015608
 20
-150.159654367842
 10
92.43122285015608
 20
-150.0201280006894
 10
92.33183184540662
 20
-149.8678547802414
 10
92.09911564537801
 20
-149.8678547802414
 10
91.84314505082394
 20
-149.8678547802414
 10
91.77338186724764
 20
-150.0476887645714
 10
91.77338186724764
 20
-150.1682671065552
 10
91.77338186724764
 20
-150.1999619850194
 10
91.77338186724764
 20
-150.3415554094632
 10
91.90240069317024
 20
-150.4304388729827
 10
91.90240069317024
 20
-150.4304388729827
 10
91.8832804132271
 20
-150.6061387427304
 10
91.8832804132271
 20
-150.6061387427304
 10
91.8832804132271
 20
-150.6061387427304
 10
91.03716496204974
 20
-150.4855604007467
 10
91.03716496204974
 20
-150.4855604007467
 10
91.03716496204974
 20
-150.4855604007467
 10
91.03716496204974
 20
-149.7069688210802
 10
91.03716496204974
 20
-149.7069688210802
 10
91.03716496204974
 20
-149.7069688210802
 10
91.23181285696636
 20
-149.7069688210802
 10
91.23181285696636
 20
-149.7069688210802
 10
91.23181285696636
 20
-149.7069688210802
 10
91.23181285696636
 20
-150.3226073842943
 10
91.23181285696636
 20
-150.3226073842943
 10
91.23181285696636
 20
-150.3226073842943
 10
91.65487058255504
 20
-150.3880641985141
 10
91.65487058255504
 20
-150.3880641985141
 10
91.62093639202533
 20
-150.3267414988766
 10
91.58080102962216
 20
-150.2444037167792
 10
91.58080102962216
 20
-150.1258924320866
 10
91.58080102962216
 20
-149.8719888948237
 10
91.76700844059991
 20
-149.6349663254385
 10
92.07999536543487
 20
-149.6349663254385
 10
92.39746091440064
 20
-149.6349663254385
 10
92.63224417172041
 20
-149.8592420415282
 10
92.63224417172041
 20
-150.1617214251331
 97
        0
 97
        1
330
D7
 75
     2
 76
     1
 98
        1
 10
0.0
 20
0.0
450
        0
451
        0
460
0.0
461
0.0
452
        0
462
0.0
453
        0
470

  0
ENDBLK
  5
D6
330
D3
100
AcDbEntity
  8
0
100
AcDbBlockEnd
  0
BLOCK
  5
DE
330
DC
100
AcDbEntity
  8
0
100
AcDbBlockBegin
  2
Block_5
 70
     0
 10
0.0
 20
0.0
 30
0.0
  3
Block_5
  1

  0
SPLINE
  5
E0
330
DC
100
AcDbEntity
  8
レイヤー 1
100
AcDbSpline
210
0.0
220
0.0
230
1.0
 70
     9
 71
     3
 72
    62
 73
    58
 74
     0
 42
0.0000000001
 43
0.0000000001
 40
0.0
 40
0.0
 40
0.0
 40
0.0
 40
1.0
 40
1.0
 40
1.0
 40
2.0
 40
2.0
 40
2.0
 40
3.0
 40
3.0
 40
3.0
 40
4.0
 40
4.0
 40
4.0
 40
5.0
 40
5.0
 40
5.0
 40
6.0
 40
6.0
 40
6.0
 40
7.0
 40
7.0
 40
7.0
 40
8.0
 40
8.0
 40
8.0
 40
9.0
 40
9.0
 40
9.0
 40
10.0
 40
10.0
 40
10.0
 40
11.0
 40
11.0
 40
11.0
 40
12.0
 40
12.0
 40
12.0
 40
13.0
 40
13.0
 40
13.0
 40
14.0
 40
14.0
 40
14.0
 40
15.0
 40
15.0
 40
15.0
 40
16.0
 40
16.0
 40
16.0
 40
17.0
 40
17.0
 40
17.0
 40
18.0
 40
18.0
 40
18.0
 40
19.0
 40
19.0
 40
19.0
 40
19.0
 10
117.9717827396043
 20
-141.2201483479415
 30
0.0
 10
117.8763535946628
 20
-141.2201483479415
 30
0.0
 10
117.6586235599951
 20
-141.1989610107072
 30
0.0
 10
117.5335665938805
 20
-141.0127535997294
 30
0.0
 10
117.4594970409476
 20
-140.9006157416845
 30
0.0
 10
117.4553629263653
 20
-140.8012247369351
 30
0.0
 10
117.451228811783
 20
-140.7166476427722
 30
0.0
 10
117.451228811783
 20
-140.7166476427722
 30
0.0
 10
117.6713704132905
 20
-140.7166476427722
 30
0.0
 10
117.6713704132905
 20
-140.7166476427722
 30
0.0
 10
117.6734374705816
 20
-140.7907171957051
 30
0.0
 10
117.6837727570374
 20
-141.0255004530249
 30
0.0
 10
117.9673041154734
 20
-141.0255004530249
 30
0.0
 10
118.1047634253349
 20
-141.0255004530249
 30
0.0
 10
118.2573811553315
 20
-140.9557372694486
 30
0.0
 10
118.2573811553315
 20
-140.7271551840022
 30
0.0
 10
118.2573811553315
 20
-140.610883211375
 30
0.0
 10
118.2191405954452
 20
-140.5621351102587
 30
0.0
 10
118.1874457169809
 20
-140.5304402317945
 30
0.0
 10
118.113376164048
 20
-140.4563706788616
 30
0.0
 10
117.9969319366466
 20
-140.4437960803404
 30
0.0
 10
117.9421549184311
 20
-140.4437960803404
 30
0.0
 10
117.9228623837137
 20
-140.4437960803404
 30
0.0
 10
117.8870333906671
 20
-140.4458631376316
 30
0.0
 10
117.8594726267851
 20
-140.4499972522139
 30
0.0
 10
117.8594726267851
 20
-140.4499972522139
 30
0.0
 10
117.8594726267851
 20
-140.2555216120715
 30
0.0
 10
117.8594726267851
 20
-140.2555216120715
 30
0.0
 10
117.8977131866714
 20
-140.261722783945
 30
0.0
 10
117.9397433515914
 20
-140.2639620960104
 30
0.0
 10
117.9462890330134
 20
-140.2639620960104
 30
0.0
 10
118.0117458472332
 20
-140.2639620960104
 30
0.0
 10
118.2105278567321
 20
-140.2427747587761
 30
0.0
 10
118.2105278567321
 20
-140.0057521893909
 30
0.0
 10
118.2105278567321
 20
-139.8281575171263
 30
0.0
 10
118.0796142282926
 20
-139.7730359893623
 30
0.0
 10
117.9693711727646
 20
-139.7730359893623
 30
0.0
 10
117.7051323490459
 20
-139.7730359893623
 30
0.0
 10
117.6965196103328
 20
-140.0057521893909
 30
0.0
 10
117.6923854957505
 20
-140.0777546850326
 30
0.0
 10
117.6923854957505
 20
-140.0777546850326
 30
0.0
 10
117.4891248621207
 20
-140.0777546850326
 30
0.0
 10
117.4891248621207
 20
-140.0777546850326
 30
0.0
 10
117.4977376008339
 20
-139.9528699736923
 30
0.0
 10
117.5252983647159
 20
-139.5763210371545
 30
0.0
 10
117.98211802606
 20
-139.5763210371545
 30
0.0
 10
118.2063937421498
 20
-139.5763210371545
 30
0.0
 10
118.4475504261173
 20
-139.703272805786
 30
0.0
 10
118.4475504261173
 20
-139.9993787627432
 30
0.0
 10
118.4475504261173
 20
-140.1855861737209
 30
0.0
 10
118.3524657907244
 20
-140.2680962105927
 30
0.0
 10
118.2529025312007
 20
-140.3294189102301
 30
0.0
 10
118.3142252308381
 20
-140.3569796741121
 30
0.0
 10
118.4961262724593
 20
-140.4374226536927
 30
0.0
 10
118.4961262724593
 20
-140.7145805854811
 30
0.0
 10
118.4961262724593
 20
-141.0530612169069
 30
0.0
 10
118.2487684166184
 20
-141.2201483479415
 30
0.0
 10
117.9717827396043
 20
-141.2201483479415
 30
0.0
  0
HATCH
  5
E1
330
DC
100
AcDbEntity
  8
レイヤー 1
 62
   250
420
  2299925
440
 33554687
100
AcDbHatch
 10
0.0
 20
0.0
 30
0.0
210
0.0
220
0.0
230
1.0
  2
SOLID
 70
     1
 71
     1
 91
        1
 92
        1
 93
        1
 72
     4
 94
        3
 73
     0
 74
     0
 95
       62
 96
       58
 40
0.0
 40
0.0
 40
0.0
 40
0.0
 40
1.0
 40
1.0
 40
1.0
 40
2.0
 40
2.0
 40
2.0
 40
3.0
 40
3.0
 40
3.0
 40
4.0
 40
4.0
 40
4.0
 40
5.0
 40
5.0
 40
5.0
 40
6.0
 40
6.0
 40
6.0
 40
7.0
 40
7.0
 40
7.0
 40
8.0
 40
8.0
 40
8.0
 40
9.0
 40
9.0
 40
9.0
 40
10.0
 40
10.0
 40
10.0
 40
11.0
 40
11.0
 40
11.0
 40
12.0
 40
12.0
 40
12.0
 40
13.0
 40
13.0
 40
13.0
 40
14.0
 40
14.0
 40
14.0
 40
15.0
 40
15.0
 40
15.0
 40
16.0
 40
16.0
 40
16.0
 40
17.0
 40
17.0
 40
17.0
 40
18.0
 40
18.0
 40
18.0
 40
19.0
 40
19.0
 40
19.0
 40
19.0
 10
117.9717827396043
 20
-141.2201483479415
 10
117.8763535946628
 20
-141.2201483479415
 10
117.6586235599951
 20
-141.1989610107072
 10
117.5335665938805
 20
-141.0127535997294
 10
117.4594970409476
 20
-140.9006157416845
 10
117.4553629263653
 20
-140.8012247369351
 10
117.451228811783
 20
-140.7166476427722
 10
117.451228811783
 20
-140.7166476427722
 10
117.6713704132905
 20
-140.7166476427722
 10
117.6713704132905
 20
-140.7166476427722
 10
117.6734374705816
 20
-140.7907171957051
 10
117.6837727570374
 20
-141.0255004530249
 10
117.9673041154734
 20
-141.0255004530249
 10
118.1047634253349
 20
-141.0255004530249
 10
118.2573811553315
 20
-140.9557372694486
 10
118.2573811553315
 20
-140.7271551840022
 10
118.2573811553315
 20
-140.610883211375
 10
118.2191405954452
 20
-140.5621351102587
 10
118.1874457169809
 20
-140.5304402317945
 10
118.113376164048
 20
-140.4563706788616
 10
117.9969319366466
 20
-140.4437960803404
 10
117.9421549184311
 20
-140.4437960803404
 10
117.9228623837137
 20
-140.4437960803404
 10
117.8870333906671
 20
-140.4458631376316
 10
117.8594726267851
 20
-140.4499972522139
 10
117.8594726267851
 20
-140.4499972522139
 10
117.8594726267851
 20
-140.2555216120715
 10
117.8594726267851
 20
-140.2555216120715
 10
117.8977131866714
 20
-140.261722783945
 10
117.9397433515914
 20
-140.2639620960104
 10
117.9462890330134
 20
-140.2639620960104
 10
118.0117458472332
 20
-140.2639620960104
 10
118.2105278567321
 20
-140.2427747587761
 10
118.2105278567321
 20
-140.0057521893909
 10
118.2105278567321
 20
-139.8281575171263
 10
118.0796142282926
 20
-139.7730359893623
 10
117.9693711727646
 20
-139.7730359893623
 10
117.7051323490459
 20
-139.7730359893623
 10
117.6965196103328
 20
-140.0057521893909
 10
117.6923854957505
 20
-140.0777546850326
 10
117.6923854957505
 20
-140.0777546850326
 10
117.4891248621207
 20
-140.0777546850326
 10
117.4891248621207
 20
-140.0777546850326
 10
117.4977376008339
 20
-139.9528699736923
 10
117.5252983647159
 20
-139.5763210371545
 10
117.98211802606
 20
-139.5763210371545
 10
118.2063937421498
 20
-139.5763210371545
 10
118.4475504261173
 20
-139.703272805786
 10
118.4475504261173
 20
-139.9993787627432
 10
118.4475504261173
 20
-140.1855861737209
 10
118.3524657907244
 20
-140.2680962105927
 10
118.2529025312007
 20
-140.3294189102301
 10
118.3142252308381
 20
-140.3569796741121
 10
118.4961262724593
 20
-140.4374226536927
 10
118.4961262724593
 20
-140.7145805854811
 10
118.4961262724593
 20
-141.0530612169069
 10
118.2487684166184
 20
-141.2201483479415
 10
117.9717827396043
 20
-141.2201483479415
 97
        0
 97
        1
330
E0
 75
     2
 76
     1
 98
        1
 10
0.0
 20
0.0
450
        0
451
        0
460
0.0
461
0.0
452
        0
462
0.0
453
        0
470

  0
ENDBLK
  5
DF
330
DC
100
AcDbEntity
  8
0
100
AcDbBlockEnd
  0
BLOCK
  5
E9
330
E7
100
AcDbEntity
  8
0
100
AcDbBlockBegin
  2
Block_6
 70
     0
 10
0.0
 20
0.0
 30
0.0
  3
Block_6
  1

  0
SPLINE
  5
EB
330
E7
100
AcDbEntity
  8
レイヤー 1
100
AcDbSpline
210
0.0
220
0.0
230
1.0
 70
    11
 71
     3
 72
    14
 73
    10
 74
     0
 42
0.0000000001
 43
0.0000000001
 40
0.0
 40
0.0
 40
0.0
 40
0.0
 40
1.0
 40
1.0
 40
1.0
 40
2.0
 40
2.0
 40
2.0
 40
3.0
 40
3.0
 40
3.0
 40
3.0
 10
117.940776880237
 20
-154.3430338155809
 30
0.0
 10
117.940776880237
 20
-154.3430338155809
 30
0.0
 10
117.4836127093444
 20
-154.9989799959725
 30
0.0
 10
117.4836127093444
 20
-154.9989799959725
 30
0.0
 10
117.4836127093444
 20
-154.9989799959725
 30
0.0
 10
117.940776880237
 20
-154.9989799959725
 30
0.0
 10
117.940776880237
 20
-154.9989799959725
 30
0.0
 10
117.940776880237
 20
-154.9989799959725
 30
0.0
 10
117.940776880237
 20
-154.3430338155809
 30
0.0
 10
117.940776880237
 20
-154.3430338155809
 30
0.0
  0
SPLINE
  5
EC
330
E7
100
AcDbEntity
  8
レイヤー 1
100
AcDbSpline
210
0.0
220
0.0
230
1.0
 70
    11
 71
     3
 72
    38
 73
    34
 74
     0
 42
0.0000000001
 43
0.0000000001
 40
0.0
 40
0.0
 40
0.0
 40
0.0
 40
1.0
 40
1.0
 40
1.0
 40
2.0
 40
2.0
 40
2.0
 40
3.0
 40
3.0
 40
3.0
 40
4.0
 40
4.0
 40
4.0
 40
5.0
 40
5.0
 40
5.0
 40
6.0
 40
6.0
 40
6.0
 40
7.0
 40
7.0
 40
7.0
 40
8.0
 40
8.0
 40
8.0
 40
9.0
 40
9.0
 40
9.0
 40
10.0
 40
10.0
 40
10.0
 40
11.0
 40
11.0
 40
11.0
 40
11.0
 10
118.1585069149048
 20
-155.1977620054714
 30
0.0
 10
118.1585069149048
 20
-155.1977620054714
 30
0.0
 10
118.1585069149048
 20
-155.544683120836
 30
0.0
 10
118.1585069149048
 20
-155.544683120836
 30
0.0
 10
118.1585069149048
 20
-155.544683120836
 30
0.0
 10
117.940776880237
 20
-155.544683120836
 30
0.0
 10
117.940776880237
 20
-155.544683120836
 30
0.0
 10
117.940776880237
 20
-155.544683120836
 30
0.0
 10
117.940776880237
 20
-155.1977620054714
 30
0.0
 10
117.940776880237
 20
-155.1977620054714
 30
0.0
 10
117.940776880237
 20
-155.1977620054714
 30
0.0
 10
117.2848306998454
 20
-155.1977620054714
 30
0.0
 10
117.2848306998454
 20
-155.1977620054714
 30
0.0
 10
117.2848306998454
 20
-155.1977620054714
 30
0.0
 10
117.2848306998454
 20
-154.9734862893816
 30
0.0
 10
117.2848306998454
 20
-154.9734862893816
 30
0.0
 10
117.2848306998454
 20
-154.9734862893816
 30
0.0
 10
117.9638590199882
 20
-154.0002468147985
 30
0.0
 10
117.9638590199882
 20
-154.0002468147985
 30
0.0
 10
117.9638590199882
 20
-154.0002468147985
 30
0.0
 10
118.1585069149048
 20
-154.0002468147985
 30
0.0
 10
118.1585069149048
 20
-154.0002468147985
 30
0.0
 10
118.1585069149048
 20
-154.0002468147985
 30
0.0
 10
118.1585069149048
 20
-154.9989799959725
 30
0.0
 10
118.1585069149048
 20
-154.9989799959725
 30
0.0
 10
118.1585069149048
 20
-154.9989799959725
 30
0.0
 10
118.3659016631168
 20
-154.9989799959725
 30
0.0
 10
118.3659016631168
 20
-154.9989799959725
 30
0.0
 10
118.3659016631168
 20
-154.9989799959725
 30
0.0
 10
118.3659016631168
 20
-155.1977620054714
 30
0.0
 10
118.3659016631168
 20
-155.1977620054714
 30
0.0
 10
118.3659016631168
 20
-155.1977620054714
 30
0.0
 10
118.1585069149048
 20
-155.1977620054714
 30
0.0
 10
118.1585069149048
 20
-155.1977620054714
 30
0.0
  0
HATCH
  5
ED
330
E7
100
AcDbEntity
  8
レイヤー 1
 62
   250
420
  2299925
440
 33554687
100
AcDbHatch
 10
0.0
 20
0.0
 30
0.0
210
0.0
220
0.0
230
1.0
  2
SOLID
 70
     1
 71
     1
 91
        2
 92
        1
 93
        1
 72
     4
 94
        3
 73
     0
 74
     0
 95
       14
 96
       10
 40
0.0
 40
0.0
 40
0.0
 40
0.0
 40
1.0
 40
1.0
 40
1.0
 40
2.0
 40
2.0
 40
2.0
 40
3.0
 40
3.0
 40
3.0
 40
3.0
 10
117.940776880237
 20
-154.3430338155809
 10
117.940776880237
 20
-154.3430338155809
 10
117.4836127093444
 20
-154.9989799959725
 10
117.4836127093444
 20
-154.9989799959725
 10
117.4836127093444
 20
-154.9989799959725
 10
117.940776880237
 20
-154.9989799959725
 10
117.940776880237
 20
-154.9989799959725
 10
117.940776880237
 20
-154.9989799959725
 10
117.940776880237
 20
-154.3430338155809
 10
117.940776880237
 20
-154.3430338155809
 97
        0
 97
        1
330
EB
 92
        1
 93
        1
 72
     4
 94
        3
 73
     0
 74
     0
 95
       38
 96
       34
 40
0.0
 40
0.0
 40
0.0
 40
0.0
 40
1.0
 40
1.0
 40
1.0
 40
2.0
 40
2.0
 40
2.0
 40
3.0
 40
3.0
 40
3.0
 40
4.0
 40
4.0
 40
4.0
 40
5.0
 40
5.0
 40
5.0
 40
6.0
 40
6.0
 40
6.0
 40
7.0
 40
7.0
 40
7.0
 40
8.0
 40
8.0
 40
8.0
 40
9.0
 40
9.0
 40
9.0
 40
10.0
 40
10.0
 40
10.0
 40
11.0
 40
11.0
 40
11.0
 40
11.0
 10
118.1585069149048
 20
-155.1977620054714
 10
118.1585069149048
 20
-155.1977620054714
 10
118.1585069149048
 20
-155.544683120836
 10
118.1585069149048
 20
-155.544683120836
 10
118.1585069149048
 20
-155.544683120836
 10
117.940776880237
 20
-155.544683120836
 10
117.940776880237
 20
-155.544683120836
 10
117.940776880237
 20
-155.544683120836
 10
117.940776880237
 20
-155.1977620054714
 10
117.940776880237
 20
-155.1977620054714
 10
117.940776880237
 20
-155.1977620054714
 10
117.2848306998454
 20
-155.1977620054714
 10
117.2848306998454
 20
-155.1977620054714
 10
117.2848306998454
 20
-155.1977620054714
 10
117.2848306998454
 20
-154.9734862893816
 10
117.2848306998454
 20
-154.9734862893816
 10
117.2848306998454
 20
-154.9734862893816
 10
117.9638590199882
 20
-154.0002468147985
 10
117.9638590199882
 20
-154.0002468147985
 10
117.9638590199882
 20
-154.0002468147985
 10
118.1585069149048
 20
-154.0002468147985
 10
118.1585069149048
 20
-154.0002468147985
 10
118.1585069149048
 20
-154.0002468147985
 10
118.1585069149048
 20
-154.9989799959725
 10
118.1585069149048
 20
-154.9989799959725
 10
118.1585069149048
 20
-154.9989799959725
 10
118.3659016631168
 20
-154.9989799959725
 10
118.3659016631168
 20
-154.9989799959725
 10
118.3659016631168
 20
-154.9989799959725
 10
118.3659016631168
 20
-155.1977620054714
 10
118.3659016631168
 20
-155.1977620054714
 10
118.3659016631168
 20
-155.1977620054714
 10
118.1585069149048
 20
-155.1977620054714
 10
118.1585069149048
 20
-155.1977620054714
 97
        0
 97
        1
330
EC
 75
     2
 76
     1
 98
        1
 10
0.0
 20
0.0
450
        0
451
        0
460
0.0
461
0.0
452
        0
462
0.0
453
        0
470

  0
ENDBLK
  5
EA
330
E7
100
AcDbEntity
  8
0
100
AcDbBlockEnd
  0
BLOCK
  5
F2
330
F0
100
AcDbEntity
  8
0
100
AcDbBlockBegin
  2
Block_7
 70
     0
 10
0.0
 20
0.0
 30
0.0
  3
Block_7
  1

  0
SPLINE
  5
F4
330
F0
100
AcDbEntity
  8
レイヤー 1
100
AcDbSpline
210
0.0
220
0.0
230
1.0
 70
    11
 71
     3
 72
    26
 73
    22
 74
     0
 42
0.0000000001
 43
0.0000000001
 40
0.0
 40
0.0
 40
0.0
 40
0.0
 40
1.0
 40
1.0
 40
1.0
 40
2.0
 40
2.0
 40
2.0
 40
3.0
 40
3.0
 40
3.0
 40
4.0
 40
4.0
 40
4.0
 40
5.0
 40
5.0
 40
5.0
 40
6.0
 40
6.0
 40
6.0
 40
7.0
 40
7.0
 40
7.0
 40
7.0
 10
112.4692762305632
 20
-149.5805338167715
 30
0.0
 10
112.4692762305632
 20
-149.5805338167715
 30
0.0
 10
112.4692762305632
 20
-148.476380713749
 30
0.0
 10
112.4692762305632
 20
-148.476380713749
 30
0.0
 10
112.4692762305632
 20
-148.476380713749
 30
0.0
 10
112.1392360830763
 20
-148.476380713749
 30
0.0
 10
112.1392360830763
 20
-148.476380713749
 30
0.0
 10
112.1392360830763
 20
-148.476380713749
 30
0.0
 10
112.1392360830763
 20
-148.3282416078832
 30
0.0
 10
112.1392360830763
 20
-148.3282416078832
 30
0.0
 10
112.4713432878544
 20
-148.3135999520709
 30
0.0
 10
112.5178520769053
 20
-148.1506469356186
 30
0.0
 10
112.5474798980784
 20
-148.0364420202825
 30
0.0
 10
112.5474798980784
 20
-148.0364420202825
 30
0.0
 10
112.693551946653
 20
-148.0364420202825
 30
0.0
 10
112.693551946653
 20
-148.0364420202825
 30
0.0
 10
112.693551946653
 20
-148.0364420202825
 30
0.0
 10
112.693551946653
 20
-149.5805338167715
 30
0.0
 10
112.693551946653
 20
-149.5805338167715
 30
0.0
 10
112.693551946653
 20
-149.5805338167715
 30
0.0
 10
112.4692762305632
 20
-149.5805338167715
 30
0.0
 10
112.4692762305632
 20
-149.5805338167715
 30
0.0
  0
HATCH
  5
F5
330
F0
100
AcDbEntity
  8
レイヤー 1
 62
   250
420
  2299925
440
 33554687
100
AcDbHatch
 10
0.0
 20
0.0
 30
0.0
210
0.0
220
0.0
230
1.0
  2
SOLID
 70
     1
 71
     1
 91
        1
 92
        1
 93
        1
 72
     4
 94
        3
 73
     0
 74
     0
 95
       26
 96
       22
 40
0.0
 40
0.0
 40
0.0
 40
0.0
 40
1.0
 40
1.0
 40
1.0
 40
2.0
 40
2.0
 40
2.0
 40
3.0
 40
3.0
 40
3.0
 40
4.0
 40
4.0
 40
4.0
 40
5.0
 40
5.0
 40
5.0
 40
6.0
 40
6.0
 40
6.0
 40
7.0
 40
7.0
 40
7.0
 40
7.0
 10
112.4692762305632
 20
-149.5805338167715
 10
112.4692762305632
 20
-149.5805338167715
 10
112.4692762305632
 20
-148.476380713749
 10
112.4692762305632
 20
-148.476380713749
 10
112.4692762305632
 20
-148.476380713749
 10
112.1392360830763
 20
-148.476380713749
 10
112.1392360830763
 20
-148.476380713749
 10
112.1392360830763
 20
-148.476380713749
 10
112.1392360830763
 20
-148.3282416078832
 10
112.1392360830763
 20
-148.3282416078832
 10
112.4713432878544
 20
-148.3135999520709
 10
112.5178520769053
 20
-148.1506469356186
 10
112.5474798980784
 20
-148.0364420202825
 10
112.5474798980784
 20
-148.0364420202825
 10
112.693551946653
 20
-148.0364420202825
 10
112.693551946653
 20
-148.0364420202825
 10
112.693551946653
 20
-148.0364420202825
 10
112.693551946653
 20
-149.5805338167715
 10
112.693551946653
 20
-149.5805338167715
 10
112.693551946653
 20
-149.5805338167715
 10
112.4692762305632
 20
-149.5805338167715
 10
112.4692762305632
 20
-149.5805338167715
 97
        0
 97
        1
330
F4
 75
     2
 76
     1
 98
        1
 10
0.0
 20
0.0
450
        0
451
        0
460
0.0
461
0.0
452
        0
462
0.0
453
        0
470

  0
ENDBLK
  5
F3
330
F0
100
AcDbEntity
  8
0
100
AcDbBlockEnd
  0
BLOCK
  5
F8
330
F6
100
AcDbEntity
  8
0
100
AcDbBlockBegin
  2
Block_8
 70
     0
 10
0.0
 20
0.0
 30
0.0
  3
Block_8
  1

  0
INSERT
  5
FB
330
F6
100
AcDbEntity
  8
レイヤー 1
100
AcDbBlockReference
  2
Block_9
 10
0.0
 20
0.0
 30
0.0
  0
INSERT
  5
102
330
F6
100
AcDbEntity
  8
レイヤー 1
100
AcDbBlockReference
  2
Block_10
 10
0.0
 20
0.0
 30
0.0
  0
ENDBLK
  5
F9
330
F6
100
AcDbEntity
  8
0
100
AcDbBlockEnd
  0
BLOCK
  5
FC
330
FA
100
AcDbEntity
  8
0
100
AcDbBlockBegin
  2
Block_9
 70
     0
 10
0.0
 20
0.0
 30
0.0
  3
Block_9
  1

  0
LINE
  5
FE
330
FA
100
AcDbEntity
  8
レイヤー 1
 62
    18
420
        0
370
     9
100
AcDbLine
 10
100.5772738391705
 20
-148.0479076099226
 30
0.0
 11
101.126054936281
 21
-148.8840614986026
 31
0.0
  0
LINE
  5
FF
330
FA
100
AcDbEntity
  8
レイヤー 1
 62
    18
420
        0
370
     9
100
AcDbLine
 10
100.5772738391705
 20
-148.0479076099226
 30
0.0
 11
102.2739585181067
 21
-153.3957424414061
 31
0.0
  0
LINE
  5
100
330
FA
100
AcDbEntity
  8
レイヤー 1
 62
    18
420
        0
370
     9
100
AcDbLine
 10
100.5772738391705
 20
-148.0479076099226
 30
0.0
 11
100.6346355043737
 21
-149.0463039985626
 31
0.0
  0
ENDBLK
  5
FD
330
FA
100
AcDbEntity
  8
0
100
AcDbBlockEnd
  0
BLOCK
  5
103
330
101
100
AcDbEntity
  8
0
100
AcDbBlockBegin
  2
Block_10
 70
     0
 10
0.0
 20
0.0
 30
0.0
  3
Block_10
  1

  0
INSERT
  5
106
330
101
100
AcDbEntity
  8
レイヤー 1
100
AcDbBlockReference
  2
Block_11
 10
0.0
 20
0.0
 30
0.0
  0
ENDBLK
  5
104
330
101
100
AcDbEntity
  8
0
100
AcDbBlockEnd
  0
BLOCK
  5
107
330
105
100
AcDbEntity
  8
0
100
AcDbBlockBegin
  2
Block_11
 70
     0
 10
0.0
 20
0.0
 30
0.0
  3
Block_11
  1

  0
SPLINE
  5
109
330
105
100
AcDbEntity
  8
レイヤー 1
100
AcDbSpline
210
0.0
220
0.0
230
1.0
 70
     9
 71
     3
 72
    17
 73
    13
 74
     0
 42
0.0000000001
 43
0.0000000001
 40
0.0
 40
0.0
 40
0.0
 40
0.0
 40
1.0
 40
1.0
 40
1.0
 40
2.0
 40
2.0
 40
2.0
 40
3.0
 40
3.0
 40
3.0
 40
4.0
 40
4.0
 40
4.0
 40
4.0
 10
98.58312985816674
 20
-154.8766791062461
 30
0.0
 10
98.566248890289
 20
-154.9063069274192
 30
0.0
 10
98.51543373188157
 20
-154.999324505521
 30
0.0
 10
98.50492619065155
 20
-155.0182725306898
 30
0.0
 10
98.6952677162116
 20
-155.0775281730361
 30
0.0
 10
98.71645505344588
 20
-155.0840738544581
 30
0.0
 10
98.78845754908761
 20
-155.1112901087916
 30
0.0
 10
98.84340682207735
 20
-155.0248182121118
 30
0.0
 10
98.86666121660278
 20
-154.950748659179
 30
0.0
 10
98.88147512718937
 20
-154.8766791062461
 30
0.0
 10
98.88147512718937
 20
-154.8766791062461
 30
0.0
 10
98.58312985816674
 20
-154.8766791062461
 30
0.0
 10
98.58312985816674
 20
-154.8766791062461
 30
0.0
  0
SPLINE
  5
10A
330
105
100
AcDbEntity
  8
レイヤー 1
100
AcDbSpline
210
0.0
220
0.0
230
1.0
 70
    11
 71
     3
 72
    20
 73
    16
 74
     0
 42
0.0000000001
 43
0.0000000001
 40
0.0
 40
0.0
 40
0.0
 40
0.0
 40
1.0
 40
1.0
 40
1.0
 40
2.0
 40
2.0
 40
2.0
 40
3.0
 40
3.0
 40
3.0
 40
4.0
 40
4.0
 40
4.0
 40
5.0
 40
5.0
 40
5.0
 40
5.0
 10
98.51974010123813
 20
-154.0260850309379
 30
0.0
 10
98.51974010123813
 20
-154.0260850309379
 30
0.0
 10
98.48804522277383
 20
-154.0260850309379
 30
0.0
 10
98.48804522277383
 20
-154.0260850309379
 30
0.0
 10
98.5345540118247
 20
-154.1256482904616
 30
0.0
 10
98.566248890289
 20
-154.2059190152679
 30
0.0
 10
98.60018308081871
 20
-154.3330430386737
 30
0.0
 10
98.60018308081871
 20
-154.3330430386737
 30
0.0
 10
98.80740557425649
 20
-154.3330430386737
 30
0.0
 10
98.80740557425649
 20
-154.3330430386737
 30
0.0
 10
98.83910045272079
 20
-154.2400254605719
 30
0.0
 10
98.86235484724622
 20
-154.1552761116348
 30
0.0
 10
98.88560924177166
 20
-154.0260850309379
 30
0.0
 10
98.88560924177166
 20
-154.0260850309379
 30
0.0
 10
98.51974010123813
 20
-154.0260850309379
 30
0.0
 10
98.51974010123813
 20
-154.0260850309379
 30
0.0
  0
SPLINE
  5
10B
330
105
100
AcDbEntity
  8
レイヤー 1
100
AcDbSpline
210
0.0
220
0.0
230
1.0
 70
     9
 71
     3
 72
   242
 73
   238
 74
     0
 42
0.0000000001
 43
0.0000000001
 40
0.0
 40
0.0
 40
0.0
 40
0.0
 40
1.0
 40
1.0
 40
1.0
 40
2.0
 40
2.0
 40
2.0
 40
3.0
 40
3.0
 40
3.0
 40
4.0
 40
4.0
 40
4.0
 40
5.0
 40
5.0
 40
5.0
 40
6.0
 40
6.0
 40
6.0
 40
7.0
 40
7.0
 40
7.0
 40
8.0
 40
8.0
 40
8.0
 40
9.0
 40
9.0
 40
9.0
 40
10.0
 40
10.0
 40
10.0
 40
11.0
 40
11.0
 40
11.0
 40
12.0
 40
12.0
 40
12.0
 40
13.0
 40
13.0
 40
13.0
 40
14.0
 40
14.0
 40
14.0
 40
15.0
 40
15.0
 40
15.0
 40
16.0
 40
16.0
 40
16.0
 40
17.0
 40
17.0
 40
17.0
 40
18.0
 40
18.0
 40
18.0
 40
19.0
 40
19.0
 40
19.0
 40
20.0
 40
20.0
 40
20.0
 40
21.0
 40
21.0
 40
21.0
 40
22.0
 40
22.0
 40
22.0
 40
23.0
 40
23.0
 40
23.0
 40
24.0
 40
24.0
 40
24.0
 40
25.0
 40
25.0
 40
25.0
 40
26.0
 40
26.0
 40
26.0
 40
27.0
 40
27.0
 40
27.0
 40
28.0
 40
28.0
 40
28.0
 40
29.0
 40
29.0
 40
29.0
 40
30.0
 40
30.0
 40
30.0
 40
31.0
 40
31.0
 40
31.0
 40
32.0
 40
32.0
 40
32.0
 40
33.0
 40
33.0
 40
33.0
 40
34.0
 40
34.0
 40
34.0
 40
35.0
 40
35.0
 40
35.0
 40
36.0
 40
36.0
 40
36.0
 40
37.0
 40
37.0
 40
37.0
 40
38.0
 40
38.0
 40
38.0
 40
39.0
 40
39.0
 40
39.0
 40
40.0
 40
40.0
 40
40.0
 40
41.0
 40
41.0
 40
41.0
 40
42.0
 40
42.0
 40
42.0
 40
43.0
 40
43.0
 40
43.0
 40
44.0
 40
44.0
 40
44.0
 40
45.0
 40
45.0
 40
45.0
 40
46.0
 40
46.0
 40
46.0
 40
47.0
 40
47.0
 40
47.0
 40
48.0
 40
48.0
 40
48.0
 40
49.0
 40
49.0
 40
49.0
 40
50.0
 40
50.0
 40
50.0
 40
51.0
 40
51.0
 40
51.0
 40
52.0
 40
52.0
 40
52.0
 40
53.0
 40
53.0
 40
53.0
 40
54.0
 40
54.0
 40
54.0
 40
55.0
 40
55.0
 40
55.0
 40
56.0
 40
56.0
 40
56.0
 40
57.0
 40
57.0
 40
57.0
 40
58.0
 40
58.0
 40
58.0
 40
59.0
 40
59.0
 40
59.0
 40
60.0
 40
60.0
 40
60.0
 40
61.0
 40
61.0
 40
61.0
 40
62.0
 40
62.0
 40
62.0
 40
63.0
 40
63.0
 40
63.0
 40
64.0
 40
64.0
 40
64.0
 40
65.0
 40
65.0
 40
65.0
 40
66.0
 40
66.0
 40
66.0
 40
67.0
 40
67.0
 40
67.0
 40
68.0
 40
68.0
 40
68.0
 40
69.0
 40
69.0
 40
69.0
 40
70.0
 40
70.0
 40
70.0
 40
71.0
 40
71.0
 40
71.0
 40
72.0
 40
72.0
 40
72.0
 40
73.0
 40
73.0
 40
73.0
 40
74.0
 40
74.0
 40
74.0
 40
75.0
 40
75.0
 40
75.0
 40
76.0
 40
76.0
 40
76.0
 40
77.0
 40
77.0
 40
77.0
 40
78.0
 40
78.0
 40
78.0
 40
79.0
 40
79.0
 40
79.0
 40
79.0
 10
99.14795326297344
 20
-154.4915174309952
 30
0.0
 10
99.14795326297344
 20
-154.4915174309952
 30
0.0
 10
98.89422198048478
 20
-154.4915174309952
 30
0.0
 10
98.89422198048478
 20
-154.4915174309952
 30
0.0
 10
98.89422198048478
 20
-154.4915174309952
 30
0.0
 10
98.61706404869643
 20
-154.4915174309952
 30
0.0
 10
98.61706404869643
 20
-154.4915174309952
 30
0.0
 10
98.61706404869643
 20
-154.4915174309952
 30
0.0
 10
98.7440158173279
 20
-154.5338921054637
 30
0.0
 10
98.7440158173279
 20
-154.5338921054637
 30
0.0
 10
98.7545233585579
 20
-154.538026220046
 30
0.0
 10
98.76727021185333
 20
-154.544571901468
 30
0.0
 10
98.76727021185333
 20
-154.5573187547634
 30
0.0
 10
98.76727021185333
 20
-154.5783338372235
 30
0.0
 10
98.73557533338903
 20
-154.5845350090969
 30
0.0
 10
98.71438799615475
 20
-154.5890136332277
 30
0.0
 10
98.70370820015047
 20
-154.6120957729789
 30
0.0
 10
98.67408037897732
 20
-154.6778970967472
 30
0.0
 10
98.65513235380845
 20
-154.7223388285069
 30
0.0
 10
98.65513235380845
 20
-154.7223388285069
 30
0.0
 10
98.92591685894908
 20
-154.7223388285069
 30
0.0
 10
98.92591685894908
 20
-154.7223388285069
 30
0.0
 10
99.01686737975968
 20
-154.7223388285069
 30
0.0
 10
99.21358233196745
 20
-154.7178602043761
 30
0.0
 10
99.35534801118548
 20
-154.7095919752115
 30
0.0
 10
99.35534801118548
 20
-154.7095919752115
 30
0.0
 10
99.35534801118548
 20
-154.8873589022504
 30
0.0
 10
99.35534801118548
 20
-154.8873589022504
 30
0.0
 10
99.27283797431375
 20
-154.8828802781195
 30
0.0
 10
99.25165063707945
 20
-154.8828802781195
 30
0.0
 10
99.0718166527494
 20
-154.8787461635372
 30
0.0
 10
99.04012177428512
 20
-155.0330864412764
 30
0.0
 10
98.9956800425254
 20
-155.1137016756313
 30
0.0
 10
98.95123831076567
 20
-155.1832926044333
 30
0.0
 10
99.0718166527494
 20
-155.2425482467796
 30
0.0
 10
99.17758108414659
 20
-155.310416627839
 30
0.0
 10
99.2812784582526
 20
-155.3927544099365
 30
0.0
 10
99.2812784582526
 20
-155.3927544099365
 30
0.0
 10
99.16276717356002
 20
-155.5598415409711
 30
0.0
 10
99.16276717356002
 20
-155.5598415409711
 30
0.0
 10
99.13951277903457
 20
-155.5408935158023
 30
0.0
 10
99.12693818051341
 20
-155.5322807770892
 30
0.0
 10
99.01480032246853
 20
-155.4478759377005
 30
0.0
 10
98.96605222135224
 20
-155.4096353778142
 30
0.0
 10
98.90679657900594
 20
-155.3738063847676
 30
0.0
 10
98.82652585419961
 20
-155.3293646530079
 30
0.0
 10
98.61482473663102
 20
-155.5153998092114
 30
0.0
 10
98.40966930048439
 20
-155.5388264585111
 30
0.0
 10
98.1199367701749
 20
-155.5684542796843
 30
0.0
 10
98.1199367701749
 20
-155.5684542796843
 30
0.0
 10
98.01623939606885
 20
-155.3886202953542
 30
0.0
 10
98.01623939606885
 20
-155.3886202953542
 30
0.0
 10
98.33353269026037
 20
-155.3844861807719
 30
0.0
 10
98.50906030523384
 20
-155.3589924741811
 30
0.0
 10
98.66150578045616
 20
-155.2490939282016
 30
0.0
 10
98.54299449576357
 20
-155.1981065150199
 30
0.0
 10
98.45411103224412
 20
-155.1705457511379
 30
0.0
 10
98.41810978442325
 20
-155.158143407391
 30
0.0
 10
98.39916175925438
 20
-155.1853596617245
 30
0.0
 10
98.3843478486678
 20
-155.2046521964419
 30
0.0
 10
98.35678708478582
 20
-155.2384141321973
 30
0.0
 10
98.35678708478582
 20
-155.2384141321973
 30
0.0
 10
98.16007213257805
 20
-155.1557318405513
 30
0.0
 10
98.16007213257805
 20
-155.1557318405513
 30
0.0
 10
98.24258216944977
 20
-155.075461115745
 30
0.0
 10
98.30390486908722
 20
-154.9803764803521
 30
0.0
 10
98.36109345414236
 20
-154.8787461635372
 30
0.0
 10
98.17057967380804
 20
-154.8828802781195
 30
0.0
 10
98.14956459134803
 20
-154.8828802781195
 30
0.0
 10
98.0670545544763
 20
-154.8873589022504
 30
0.0
 10
98.0670545544763
 20
-154.8873589022504
 30
0.0
 10
98.0670545544763
 20
-154.7095919752115
 30
0.0
 10
98.0670545544763
 20
-154.7095919752115
 30
0.0
 10
98.20658092162892
 20
-154.7157931470849
 30
0.0
 10
98.41604272713212
 20
-154.7199272616672
 30
0.0
 10
98.44136417894869
 20
-154.7199272616672
 30
0.0
 10
98.45841740160068
 20
-154.6861653259118
 30
0.0
 10
98.51336667459042
 20
-154.565586983928
 30
0.0
 10
98.53248695453356
 20
-154.4915174309952
 30
0.0
 10
98.51336667459042
 20
-154.4915174309952
 30
0.0
 10
98.33559974755154
 20
-154.4980631124171
 30
0.0
 10
98.14112410740918
 20
-154.5108099657126
 30
0.0
 10
98.14112410740918
 20
-154.5108099657126
 30
0.0
 10
98.14112410740918
 20
-154.6437906514432
 30
0.0
 10
98.14112410740918
 20
-154.6437906514432
 30
0.0
 10
98.09237600629288
 20
-154.6692843580341
 30
0.0
 10
98.03312036394657
 20
-154.7009792364983
 30
0.0
 10
97.89979516866742
 20
-154.7667805602666
 30
0.0
 10
97.89979516866742
 20
-154.7667805602666
 30
0.0
 10
97.89979516866742
 20
-154.9125080992927
 30
0.0
 10
97.89979516866742
 20
-154.9125080992927
 30
0.0
 10
97.89979516866742
 20
-154.9125080992927
 30
0.0
 10
97.89979516866742
 20
-155.3800075566411
 30
0.0
 10
97.89979516866742
 20
-155.3800075566411
 30
0.0
 10
97.89979516866742
 20
-155.5071315800468
 30
0.0
 10
97.86396617562083
 20
-155.5663872223931
 30
0.0
 10
97.58043481718475
 20
-155.55777448368
 30
0.0
 10
97.58043481718475
 20
-155.55777448368
 30
0.0
 10
97.47673744307874
 20
-155.350379735468
 30
0.0
 10
97.47673744307874
 20
-155.350379735468
 30
0.0
 10
97.54029945478158
 20
-155.3631265887634
 30
0.0
 10
97.58887530112362
 20
-155.3676052128942
 30
0.0
 10
97.62901066352679
 20
-155.3676052128942
 30
0.0
 10
97.70531952852508
 20
-155.3676052128942
 30
0.0
 10
97.71582706975507
 20
-155.3441785635945
 30
0.0
 10
97.71582706975507
 20
-155.2787217493747
 30
0.0
 10
97.71582706975507
 20
-155.2787217493747
 30
0.0
 10
97.71582706975507
 20
-154.8491183423641
 30
0.0
 10
97.71582706975507
 20
-154.8491183423641
 30
0.0
 10
97.61850312229677
 20
-154.8894259595415
 30
0.0
 10
97.60162215441905
 20
-154.895627131415
 30
0.0
 10
97.55511336536818
 20
-154.9145751565838
 30
0.0
 10
97.5508069960116
 20
-154.9359347485924
 30
0.0
 10
97.54650062665504
 20
-154.9655625697655
 30
0.0
 10
97.52755260148617
 20
-154.9655625697655
 30
0.0
 10
97.5191121175473
 20
-154.9655625697655
 30
0.0
 10
97.50843232154304
 20
-154.9610839456347
 30
0.0
 10
97.50223114966958
 20
-154.9380018058835
 30
0.0
 10
97.50223114966958
 20
-154.9380018058835
 30
0.0
 10
97.449348933971
 20
-154.7454209682581
 30
0.0
 10
97.449348933971
 20
-154.7454209682581
 30
0.0
 10
97.59524872777134
 20
-154.6989121792072
 30
0.0
 10
97.66087779676533
 20
-154.675830039456
 30
0.0
 10
97.71582706975507
 20
-154.6544704474475
 30
0.0
 10
97.71582706975507
 20
-154.6544704474475
 30
0.0
 10
97.71582706975507
 20
-154.2420925178631
 30
0.0
 10
97.71582706975507
 20
-154.2420925178631
 30
0.0
 10
97.71582706975507
 20
-154.2420925178631
 30
0.0
 10
97.6629448540565
 20
-154.2420925178631
 30
0.0
 10
97.6629448540565
 20
-154.2420925178631
 30
0.0
 10
97.6629448540565
 20
-154.2420925178631
 30
0.0
 10
97.58474118654133
 20
-154.2420925178631
 30
0.0
 10
97.58474118654133
 20
-154.2420925178631
 30
0.0
 10
97.51704506025618
 20
-154.2420925178631
 30
0.0
 10
97.50843232154304
 20
-154.2420925178631
 30
0.0
 10
97.47260332849643
 20
-154.2482936897365
 30
0.0
 10
97.47260332849643
 20
-154.2482936897365
 30
0.0
 10
97.47260332849643
 20
-154.0536457948199
 30
0.0
 10
97.47260332849643
 20
-154.0536457948199
 30
0.0
 10
97.49999183760417
 20
-154.0601914762419
 30
0.0
 10
97.50843232154304
 20
-154.0601914762419
 30
0.0
 10
97.5783677598936
 20
-154.0601914762419
 30
0.0
 10
97.5783677598936
 20
-154.0601914762419
 30
0.0
 10
97.71152070039851
 20
-154.0601914762419
 30
0.0
 10
97.71152070039851
 20
-154.0601914762419
 30
0.0
 10
97.71152070039851
 20
-153.9902560378913
 30
0.0
 10
97.71152070039851
 20
-153.9075737462453
 30
0.0
 10
97.70945364310737
 20
-153.903439631663
 30
0.0
 10
97.7010131591685
 20
-153.723605647333
 30
0.0
 10
97.7010131591685
 20
-153.7046576221641
 30
0.0
 10
97.69894610187735
 20
-153.6581488331132
 30
0.0
 10
97.69894610187735
 20
-153.6581488331132
 30
0.0
 10
97.91460907925399
 20
-153.6664170622778
 30
0.0
 10
97.91460907925399
 20
-153.6664170622778
 30
0.0
 10
97.92528887525826
 20
-153.6664170622778
 30
0.0
 10
97.94647621249255
 20
-153.6688286291175
 30
0.0
 10
97.94647621249255
 20
-153.6857095969952
 30
0.0
 10
97.94647621249255
 20
-153.7046576221641
 30
0.0
 10
97.93166230190598
 20
-153.7153374181684
 30
0.0
 10
97.90616859531512
 20
-153.7342854433372
 30
0.0
 10
97.90616859531512
 20
-153.7849283469704
 30
0.0
 10
97.89979516866742
 20
-154.013682687191
 30
0.0
 10
97.90203448073283
 20
-154.0601914762419
 30
0.0
 10
98.03105330665545
 20
-154.0601914762419
 30
0.0
 10
98.04380015995086
 20
-154.0601914762419
 30
0.0
 10
98.14112410740918
 20
-154.0515787375288
 30
0.0
 10
98.14112410740918
 20
-154.0515787375288
 30
0.0
 10
98.14112410740918
 20
-154.2462266324454
 30
0.0
 10
98.14112410740918
 20
-154.2462266324454
 30
0.0
 10
98.10288354752289
 20
-154.2441595751542
 30
0.0
 10
98.03518742123774
 20
-154.2400254605719
 30
0.0
 10
97.89979516866742
 20
-154.2420925178631
 30
0.0
 10
97.89979516866742
 20
-154.2420925178631
 30
0.0
 10
97.89979516866742
 20
-154.5804008945146
 30
0.0
 10
97.89979516866742
 20
-154.5804008945146
 30
0.0
 10
97.95491669643141
 20
-154.5573187547634
 30
0.0
 10
98.02037351065116
 20
-154.5297579908814
 30
0.0
 10
98.06912161176745
 20
-154.5063313415817
 30
0.0
 10
98.06912161176745
 20
-154.5063313415817
 30
0.0
 10
98.06912161176745
 20
-154.3285644145428
 30
0.0
 10
98.06912161176745
 20
-154.3285644145428
 30
0.0
 10
98.18332652710347
 20
-154.3413112678383
 30
0.0
 10
98.30183781179608
 20
-154.3413112678383
 30
0.0
 10
98.41810978442325
 20
-154.3413112678383
 30
0.0
 10
98.39485538989782
 20
-154.2462266324454
 30
0.0
 10
98.36746688079008
 20
-154.1635443407994
 30
0.0
 10
98.30390486908722
 20
-154.0305636550687
 30
0.0
 10
98.2594631373275
 20
-154.0326307123599
 30
0.0
 10
98.17695310045577
 20
-154.0367648269422
 30
0.0
 10
98.13888479534377
 20
-154.0388318842333
 30
0.0
 10
98.13888479534377
 20
-154.0388318842333
 30
0.0
 10
98.13888479534377
 20
-153.8589978999033
 30
0.0
 10
98.13888479534377
 20
-153.8589978999033
 30
0.0
 10
98.26376950668405
 20
-153.8676106386164
 30
0.0
 10
98.4372300643664
 20
-153.8717447531987
 30
0.0
 10
98.51974010123813
 20
-153.8717447531987
 30
0.0
 10
98.51974010123813
 20
-153.8717447531987
 30
0.0
 10
98.60225013810985
 20
-153.8717447531987
 30
0.0
 10
98.60225013810985
 20
-153.8717447531987
 30
0.0
 10
98.60225013810985
 20
-153.7087917367464
 30
0.0
 10
98.60225013810985
 20
-153.6984564502906
 30
0.0
 10
98.60018308081871
 20
-153.6433349225266
 30
0.0
 10
98.60018308081871
 20
-153.6433349225266
 30
0.0
 10
98.82428654213422
 20
-153.6688286291175
 30
0.0
 10
98.82428654213422
 20
-153.6688286291175
 30
0.0
 10
98.82859291149078
 20
-153.6688286291175
 30
0.0
 10
98.84978024872506
 20
-153.6708956864087
 30
0.0
 10
98.84978024872506
 20
-153.6877766542864
 30
0.0
 10
98.84978024872506
 20
-153.7025905648729
 30
0.0
 10
98.83910045272079
 20
-153.7108587940375
 30
0.0
 10
98.81171194361305
 20
-153.7256727046241
 30
0.0
 10
98.80533851696533
 20
-153.7914740283924
 30
0.0
 10
98.8032714596742
 20
-153.8124891108524
 30
0.0
 10
98.8032714596742
 20
-153.8717447531987
 30
0.0
 10
98.8032714596742
 20
-153.8717447531987
 30
0.0
 10
98.89835609506709
 20
-153.8717447531987
 30
0.0
 10
98.89835609506709
 20
-153.8717447531987
 30
0.0
 10
98.98086613193882
 20
-153.8717447531987
 30
0.0
 10
99.15432668962115
 20
-153.8676106386164
 30
0.0
 10
99.27921140096145
 20
-153.8589978999033
 30
0.0
 10
99.27921140096145
 20
-153.8589978999033
 30
0.0
 10
99.27921140096145
 20
-154.0388318842333
 30
0.0
 10
99.27921140096145
 20
-154.0388318842333
 30
0.0
 10
99.2495835797883
 20
-154.0367648269422
 30
0.0
 10
99.1310722950957
 20
-154.0326307123599
 30
0.0
 10
99.09093693269255
 20
-154.0305636550687
 30
0.0
 10
99.07612302210598
 20
-154.0812065587019
 30
0.0
 10
99.04218883157627
 20
-154.1931721619725
 30
0.0
 10
98.97673201735651
 20
-154.3330430386737
 30
0.0
 10
99.01893443705084
 20
-154.3330430386737
 30
0.0
 10
99.29609236883917
 20
-154.3137505039563
 30
0.0
 10
99.35741506847662
 20
-154.3116834466651
 30
0.0
 10
99.35741506847662
 20
-154.3116834466651
 30
0.0
 10
99.35741506847662
 20
-154.495996055126
 30
0.0
 10
99.35741506847662
 20
-154.495996055126
 30
0.0
 10
99.32778724730347
 20
-154.495996055126
 30
0.0
 10
99.31090627942575
 20
-154.4915174309952
 30
0.0
 10
99.14795326297344
 20
-154.4915174309952
 30
0.0
  0
HATCH
  5
10C
330
105
100
AcDbEntity
  8
レイヤー 1
 62
    18
420
        0
440
 33554687
100
AcDbHatch
 10
0.0
 20
0.0
 30
0.0
210
0.0
220
0.0
230
1.0
  2
SOLID
 70
     1
 71
     1
 91
        3
 92
        1
 93
        1
 72
     4
 94
        3
 73
     0
 74
     0
 95
       17
 96
       13
 40
0.0
 40
0.0
 40
0.0
 40
0.0
 40
1.0
 40
1.0
 40
1.0
 40
2.0
 40
2.0
 40
2.0
 40
3.0
 40
3.0
 40
3.0
 40
4.0
 40
4.0
 40
4.0
 40
4.0
 10
98.58312985816674
 20
-154.8766791062461
 10
98.566248890289
 20
-154.9063069274192
 10
98.51543373188157
 20
-154.999324505521
 10
98.50492619065155
 20
-155.0182725306898
 10
98.6952677162116
 20
-155.0775281730361
 10
98.71645505344588
 20
-155.0840738544581
 10
98.78845754908761
 20
-155.1112901087916
 10
98.84340682207735
 20
-155.0248182121118
 10
98.86666121660278
 20
-154.950748659179
 10
98.88147512718937
 20
-154.8766791062461
 10
98.88147512718937
 20
-154.8766791062461
 10
98.58312985816674
 20
-154.8766791062461
 10
98.58312985816674
 20
-154.8766791062461
 97
        0
 97
        1
330
109
 92
        1
 93
        1
 72
     4
 94
        3
 73
     0
 74
     0
 95
       20
 96
       16
 40
0.0
 40
0.0
 40
0.0
 40
0.0
 40
1.0
 40
1.0
 40
1.0
 40
2.0
 40
2.0
 40
2.0
 40
3.0
 40
3.0
 40
3.0
 40
4.0
 40
4.0
 40
4.0
 40
5.0
 40
5.0
 40
5.0
 40
5.0
 10
98.51974010123813
 20
-154.0260850309379
 10
98.51974010123813
 20
-154.0260850309379
 10
98.48804522277383
 20
-154.0260850309379
 10
98.48804522277383
 20
-154.0260850309379
 10
98.5345540118247
 20
-154.1256482904616
 10
98.566248890289
 20
-154.2059190152679
 10
98.60018308081871
 20
-154.3330430386737
 10
98.60018308081871
 20
-154.3330430386737
 10
98.80740557425649
 20
-154.3330430386737
 10
98.80740557425649
 20
-154.3330430386737
 10
98.83910045272079
 20
-154.2400254605719
 10
98.86235484724622
 20
-154.1552761116348
 10
98.88560924177166
 20
-154.0260850309379
 10
98.88560924177166
 20
-154.0260850309379
 10
98.51974010123813
 20
-154.0260850309379
 10
98.51974010123813
 20
-154.0260850309379
 97
        0
 97
        1
330
10A
 92
        1
 93
        1
 72
     4
 94
        3
 73
     0
 74
     0
 95
      242
 96
      238
 40
0.0
 40
0.0
 40
0.0
 40
0.0
 40
1.0
 40
1.0
 40
1.0
 40
2.0
 40
2.0
 40
2.0
 40
3.0
 40
3.0
 40
3.0
 40
4.0
 40
4.0
 40
4.0
 40
5.0
 40
5.0
 40
5.0
 40
6.0
 40
6.0
 40
6.0
 40
7.0
 40
7.0
 40
7.0
 40
8.0
 40
8.0
 40
8.0
 40
9.0
 40
9.0
 40
9.0
 40
10.0
 40
10.0
 40
10.0
 40
11.0
 40
11.0
 40
11.0
 40
12.0
 40
12.0
 40
12.0
 40
13.0
 40
13.0
 40
13.0
 40
14.0
 40
14.0
 40
14.0
 40
15.0
 40
15.0
 40
15.0
 40
16.0
 40
16.0
 40
16.0
 40
17.0
 40
17.0
 40
17.0
 40
18.0
 40
18.0
 40
18.0
 40
19.0
 40
19.0
 40
19.0
 40
20.0
 40
20.0
 40
20.0
 40
21.0
 40
21.0
 40
21.0
 40
22.0
 40
22.0
 40
22.0
 40
23.0
 40
23.0
 40
23.0
 40
24.0
 40
24.0
 40
24.0
 40
25.0
 40
25.0
 40
25.0
 40
26.0
 40
26.0
 40
26.0
 40
27.0
 40
27.0
 40
27.0
 40
28.0
 40
28.0
 40
28.0
 40
29.0
 40
29.0
 40
29.0
 40
30.0
 40
30.0
 40
30.0
 40
31.0
 40
31.0
 40
31.0
 40
32.0
 40
32.0
 40
32.0
 40
33.0
 40
33.0
 40
33.0
 40
34.0
 40
34.0
 40
34.0
 40
35.0
 40
35.0
 40
35.0
 40
36.0
 40
36.0
 40
36.0
 40
37.0
 40
37.0
 40
37.0
 40
38.0
 40
38.0
 40
38.0
 40
39.0
 40
39.0
 40
39.0
 40
40.0
 40
40.0
 40
40.0
 40
41.0
 40
41.0
 40
41.0
 40
42.0
 40
42.0
 40
42.0
 40
43.0
 40
43.0
 40
43.0
 40
44.0
 40
44.0
 40
44.0
 40
45.0
 40
45.0
 40
45.0
 40
46.0
 40
46.0
 40
46.0
 40
47.0
 40
47.0
 40
47.0
 40
48.0
 40
48.0
 40
48.0
 40
49.0
 40
49.0
 40
49.0
 40
50.0
 40
50.0
 40
50.0
 40
51.0
 40
51.0
 40
51.0
 40
52.0
 40
52.0
 40
52.0
 40
53.0
 40
53.0
 40
53.0
 40
54.0
 40
54.0
 40
54.0
 40
55.0
 40
55.0
 40
55.0
 40
56.0
 40
56.0
 40
56.0
 40
57.0
 40
57.0
 40
57.0
 40
58.0
 40
58.0
 40
58.0
 40
59.0
 40
59.0
 40
59.0
 40
60.0
 40
60.0
 40
60.0
 40
61.0
 40
61.0
 40
61.0
 40
62.0
 40
62.0
 40
62.0
 40
63.0
 40
63.0
 40
63.0
 40
64.0
 40
64.0
 40
64.0
 40
65.0
 40
65.0
 40
65.0
 40
66.0
 40
66.0
 40
66.0
 40
67.0
 40
67.0
 40
67.0
 40
68.0
 40
68.0
 40
68.0
 40
69.0
 40
69.0
 40
69.0
 40
70.0
 40
70.0
 40
70.0
 40
71.0
 40
71.0
 40
71.0
 40
72.0
 40
72.0
 40
72.0
 40
73.0
 40
73.0
 40
73.0
 40
74.0
 40
74.0
 40
74.0
 40
75.0
 40
75.0
 40
75.0
 40
76.0
 40
76.0
 40
76.0
 40
77.0
 40
77.0
 40
77.0
 40
78.0
 40
78.0
 40
78.0
 40
79.0
 40
79.0
 40
79.0
 40
79.0
 10
99.14795326297344
 20
-154.4915174309952
 10
99.14795326297344
 20
-154.4915174309952
 10
98.89422198048478
 20
-154.4915174309952
 10
98.89422198048478
 20
-154.4915174309952
 10
98.89422198048478
 20
-154.4915174309952
 10
98.61706404869643
 20
-154.4915174309952
 10
98.61706404869643
 20
-154.4915174309952
 10
98.61706404869643
 20
-154.4915174309952
 10
98.7440158173279
 20
-154.5338921054637
 10
98.7440158173279
 20
-154.5338921054637
 10
98.7545233585579
 20
-154.538026220046
 10
98.76727021185333
 20
-154.544571901468
 10
98.76727021185333
 20
-154.5573187547634
 10
98.76727021185333
 20
-154.5783338372235
 10
98.73557533338903
 20
-154.5845350090969
 10
98.71438799615475
 20
-154.5890136332277
 10
98.70370820015047
 20
-154.6120957729789
 10
98.67408037897732
 20
-154.6778970967472
 10
98.65513235380845
 20
-154.7223388285069
 10
98.65513235380845
 20
-154.7223388285069
 10
98.92591685894908
 20
-154.7223388285069
 10
98.92591685894908
 20
-154.7223388285069
 10
99.01686737975968
 20
-154.7223388285069
 10
99.21358233196745
 20
-154.7178602043761
 10
99.35534801118548
 20
-154.7095919752115
 10
99.35534801118548
 20
-154.7095919752115
 10
99.35534801118548
 20
-154.8873589022504
 10
99.35534801118548
 20
-154.8873589022504
 10
99.27283797431375
 20
-154.8828802781195
 10
99.25165063707945
 20
-154.8828802781195
 10
99.0718166527494
 20
-154.8787461635372
 10
99.04012177428512
 20
-155.0330864412764
 10
98.9956800425254
 20
-155.1137016756313
 10
98.95123831076567
 20
-155.1832926044333
 10
99.0718166527494
 20
-155.2425482467796
 10
99.17758108414659
 20
-155.310416627839
 10
99.2812784582526
 20
-155.3927544099365
 10
99.2812784582526
 20
-155.3927544099365
 10
99.16276717356002
 20
-155.5598415409711
 10
99.16276717356002
 20
-155.5598415409711
 10
99.13951277903457
 20
-155.5408935158023
 10
99.12693818051341
 20
-155.5322807770892
 10
99.01480032246853
 20
-155.4478759377005
 10
98.96605222135224
 20
-155.4096353778142
 10
98.90679657900594
 20
-155.3738063847676
 10
98.82652585419961
 20
-155.3293646530079
 10
98.61482473663102
 20
-155.5153998092114
 10
98.40966930048439
 20
-155.5388264585111
 10
98.1199367701749
 20
-155.5684542796843
 10
98.1199367701749
 20
-155.5684542796843
 10
98.01623939606885
 20
-155.3886202953542
 10
98.01623939606885
 20
-155.3886202953542
 10
98.33353269026037
 20
-155.3844861807719
 10
98.50906030523384
 20
-155.3589924741811
 10
98.66150578045616
 20
-155.2490939282016
 10
98.54299449576357
 20
-155.1981065150199
 10
98.45411103224412
 20
-155.1705457511379
 10
98.41810978442325
 20
-155.158143407391
 10
98.39916175925438
 20
-155.1853596617245
 10
98.3843478486678
 20
-155.2046521964419
 10
98.35678708478582
 20
-155.2384141321973
 10
98.35678708478582
 20
-155.2384141321973
 10
98.16007213257805
 20
-155.1557318405513
 10
98.16007213257805
 20
-155.1557318405513
 10
98.24258216944977
 20
-155.075461115745
 10
98.30390486908722
 20
-154.9803764803521
 10
98.36109345414236
 20
-154.8787461635372
 10
98.17057967380804
 20
-154.8828802781195
 10
98.14956459134803
 20
-154.8828802781195
 10
98.0670545544763
 20
-154.8873589022504
 10
98.0670545544763
 20
-154.8873589022504
 10
98.0670545544763
 20
-154.7095919752115
 10
98.0670545544763
 20
-154.7095919752115
 10
98.20658092162892
 20
-154.7157931470849
 10
98.41604272713212
 20
-154.7199272616672
 10
98.44136417894869
 20
-154.7199272616672
 10
98.45841740160068
 20
-154.6861653259118
 10
98.51336667459042
 20
-154.565586983928
 10
98.53248695453356
 20
-154.4915174309952
 10
98.51336667459042
 20
-154.4915174309952
 10
98.33559974755154
 20
-154.4980631124171
 10
98.14112410740918
 20
-154.5108099657126
 10
98.14112410740918
 20
-154.5108099657126
 10
98.14112410740918
 20
-154.6437906514432
 10
98.14112410740918
 20
-154.6437906514432
 10
98.09237600629288
 20
-154.6692843580341
 10
98.03312036394657
 20
-154.7009792364983
 10
97.89979516866742
 20
-154.7667805602666
 10
97.89979516866742
 20
-154.7667805602666
 10
97.89979516866742
 20
-154.9125080992927
 10
97.89979516866742
 20
-154.9125080992927
 10
97.89979516866742
 20
-154.9125080992927
 10
97.89979516866742
 20
-155.3800075566411
 10
97.89979516866742
 20
-155.3800075566411
 10
97.89979516866742
 20
-155.5071315800468
 10
97.86396617562083
 20
-155.5663872223931
 10
97.58043481718475
 20
-155.55777448368
 10
97.58043481718475
 20
-155.55777448368
 10
97.47673744307874
 20
-155.350379735468
 10
97.47673744307874
 20
-155.350379735468
 10
97.54029945478158
 20
-155.3631265887634
 10
97.58887530112362
 20
-155.3676052128942
 10
97.62901066352679
 20
-155.3676052128942
 10
97.70531952852508
 20
-155.3676052128942
 10
97.71582706975507
 20
-155.3441785635945
 10
97.71582706975507
 20
-155.2787217493747
 10
97.71582706975507
 20
-155.2787217493747
 10
97.71582706975507
 20
-154.8491183423641
 10
97.71582706975507
 20
-154.8491183423641
 10
97.61850312229677
 20
-154.8894259595415
 10
97.60162215441905
 20
-154.895627131415
 10
97.55511336536818
 20
-154.9145751565838
 10
97.5508069960116
 20
-154.9359347485924
 10
97.54650062665504
 20
-154.9655625697655
 10
97.52755260148617
 20
-154.9655625697655
 10
97.5191121175473
 20
-154.9655625697655
 10
97.50843232154304
 20
-154.9610839456347
 10
97.50223114966958
 20
-154.9380018058835
 10
97.50223114966958
 20
-154.9380018058835
 10
97.449348933971
 20
-154.7454209682581
 10
97.449348933971
 20
-154.7454209682581
 10
97.59524872777134
 20
-154.6989121792072
 10
97.66087779676533
 20
-154.675830039456
 10
97.71582706975507
 20
-154.6544704474475
 10
97.71582706975507
 20
-154.6544704474475
 10
97.71582706975507
 20
-154.2420925178631
 10
97.71582706975507
 20
-154.2420925178631
 10
97.71582706975507
 20
-154.2420925178631
 10
97.6629448540565
 20
-154.2420925178631
 10
97.6629448540565
 20
-154.2420925178631
 10
97.6629448540565
 20
-154.2420925178631
 10
97.58474118654133
 20
-154.2420925178631
 10
97.58474118654133
 20
-154.2420925178631
 10
97.51704506025618
 20
-154.2420925178631
 10
97.50843232154304
 20
-154.2420925178631
 10
97.47260332849643
 20
-154.2482936897365
 10
97.47260332849643
 20
-154.2482936897365
 10
97.47260332849643
 20
-154.0536457948199
 10
97.47260332849643
 20
-154.0536457948199
 10
97.49999183760417
 20
-154.0601914762419
 10
97.50843232154304
 20
-154.0601914762419
 10
97.5783677598936
 20
-154.0601914762419
 10
97.5783677598936
 20
-154.0601914762419
 10
97.71152070039851
 20
-154.0601914762419
 10
97.71152070039851
 20
-154.0601914762419
 10
97.71152070039851
 20
-153.9902560378913
 10
97.71152070039851
 20
-153.9075737462453
 10
97.70945364310737
 20
-153.903439631663
 10
97.7010131591685
 20
-153.723605647333
 10
97.7010131591685
 20
-153.7046576221641
 10
97.69894610187735
 20
-153.6581488331132
 10
97.69894610187735
 20
-153.6581488331132
 10
97.91460907925399
 20
-153.6664170622778
 10
97.91460907925399
 20
-153.6664170622778
 10
97.92528887525826
 20
-153.6664170622778
 10
97.94647621249255
 20
-153.6688286291175
 10
97.94647621249255
 20
-153.6857095969952
 10
97.94647621249255
 20
-153.7046576221641
 10
97.93166230190598
 20
-153.7153374181684
 10
97.90616859531512
 20
-153.7342854433372
 10
97.90616859531512
 20
-153.7849283469704
 10
97.89979516866742
 20
-154.013682687191
 10
97.90203448073283
 20
-154.0601914762419
 10
98.03105330665545
 20
-154.0601914762419
 10
98.04380015995086
 20
-154.0601914762419
 10
98.14112410740918
 20
-154.0515787375288
 10
98.14112410740918
 20
-154.0515787375288
 10
98.14112410740918
 20
-154.2462266324454
 10
98.14112410740918
 20
-154.2462266324454
 10
98.10288354752289
 20
-154.2441595751542
 10
98.03518742123774
 20
-154.2400254605719
 10
97.89979516866742
 20
-154.2420925178631
 10
97.89979516866742
 20
-154.2420925178631
 10
97.89979516866742
 20
-154.5804008945146
 10
97.89979516866742
 20
-154.5804008945146
 10
97.95491669643141
 20
-154.5573187547634
 10
98.02037351065116
 20
-154.5297579908814
 10
98.06912161176745
 20
-154.5063313415817
 10
98.06912161176745
 20
-154.5063313415817
 10
98.06912161176745
 20
-154.3285644145428
 10
98.06912161176745
 20
-154.3285644145428
 10
98.18332652710347
 20
-154.3413112678383
 10
98.30183781179608
 20
-154.3413112678383
 10
98.41810978442325
 20
-154.3413112678383
 10
98.39485538989782
 20
-154.2462266324454
 10
98.36746688079008
 20
-154.1635443407994
 10
98.30390486908722
 20
-154.0305636550687
 10
98.2594631373275
 20
-154.0326307123599
 10
98.17695310045577
 20
-154.0367648269422
 10
98.13888479534377
 20
-154.0388318842333
 10
98.13888479534377
 20
-154.0388318842333
 10
98.13888479534377
 20
-153.8589978999033
 10
98.13888479534377
 20
-153.8589978999033
 10
98.26376950668405
 20
-153.8676106386164
 10
98.4372300643664
 20
-153.8717447531987
 10
98.51974010123813
 20
-153.8717447531987
 10
98.51974010123813
 20
-153.8717447531987
 10
98.60225013810985
 20
-153.8717447531987
 10
98.60225013810985
 20
-153.8717447531987
 10
98.60225013810985
 20
-153.7087917367464
 10
98.60225013810985
 20
-153.6984564502906
 10
98.60018308081871
 20
-153.6433349225266
 10
98.60018308081871
 20
-153.6433349225266
 10
98.82428654213422
 20
-153.6688286291175
 10
98.82428654213422
 20
-153.6688286291175
 10
98.82859291149078
 20
-153.6688286291175
 10
98.84978024872506
 20
-153.6708956864087
 10
98.84978024872506
 20
-153.6877766542864
 10
98.84978024872506
 20
-153.7025905648729
 10
98.83910045272079
 20
-153.7108587940375
 10
98.81171194361305
 20
-153.7256727046241
 10
98.80533851696533
 20
-153.7914740283924
 10
98.8032714596742
 20
-153.8124891108524
 10
98.8032714596742
 20
-153.8717447531987
 10
98.8032714596742
 20
-153.8717447531987
 10
98.89835609506709
 20
-153.8717447531987
 10
98.89835609506709
 20
-153.8717447531987
 10
98.98086613193882
 20
-153.8717447531987
 10
99.15432668962115
 20
-153.8676106386164
 10
99.27921140096145
 20
-153.8589978999033
 10
99.27921140096145
 20
-153.8589978999033
 10
99.27921140096145
 20
-154.0388318842333
 10
99.27921140096145
 20
-154.0388318842333
 10
99.2495835797883
 20
-154.0367648269422
 10
99.1310722950957
 20
-154.0326307123599
 10
99.09093693269255
 20
-154.0305636550687
 10
99.07612302210598
 20
-154.0812065587019
 10
99.04218883157627
 20
-154.1931721619725
 10
98.97673201735651
 20
-154.3330430386737
 10
99.01893443705084
 20
-154.3330430386737
 10
99.29609236883917
 20
-154.3137505039563
 10
99.35741506847662
 20
-154.3116834466651
 10
99.35741506847662
 20
-154.3116834466651
 10
99.35741506847662
 20
-154.495996055126
 10
99.35741506847662
 20
-154.495996055126
 10
99.32778724730347
 20
-154.495996055126
 10
99.31090627942575
 20
-154.4915174309952
 10
99.14795326297344
 20
-154.4915174309952
 97
        0
 97
        1
330
10B
 75
     2
 76
     1
 98
        1
 10
0.0
 20
0.0
450
        0
451
        0
460
0.0
461
0.0
452
        0
462
0.0
453
        0
470

  0
SPLINE
  5
10D
330
105
100
AcDbEntity
  8
レイヤー 1
100
AcDbSpline
210
0.0
220
0.0
230
1.0
 70
    11
 71
     3
 72
    17
 73
    13
 74
     0
 42
0.0000000001
 43
0.0000000001
 40
0.0
 40
0.0
 40
0.0
 40
0.0
 40
1.0
 40
1.0
 40
1.0
 40
2.0
 40
2.0
 40
2.0
 40
3.0
 40
3.0
 40
3.0
 40
4.0
 40
4.0
 40
4.0
 40
4.0
 10
101.0045152199745
 20
-155.2911240931217
 30
0.0
 10
101.0045152199745
 20
-155.2911240931217
 30
0.0
 10
100.2979261359498
 20
-155.2911240931217
 30
0.0
 10
100.2979261359498
 20
-155.2911240931217
 30
0.0
 10
100.2979261359498
 20
-155.2911240931217
 30
0.0
 10
100.2979261359498
 20
-155.405501263232
 30
0.0
 10
100.2979261359498
 20
-155.405501263232
 30
0.0
 10
100.2979261359498
 20
-155.405501263232
 30
0.0
 10
101.0045152199745
 20
-155.405501263232
 30
0.0
 10
101.0045152199745
 20
-155.405501263232
 30
0.0
 10
101.0045152199745
 20
-155.405501263232
 30
0.0
 10
101.0045152199745
 20
-155.2911240931217
 30
0.0
 10
101.0045152199745
 20
-155.2911240931217
 30
0.0
  0
SPLINE
  5
10E
330
105
100
AcDbEntity
  8
レイヤー 1
100
AcDbSpline
210
0.0
220
0.0
230
1.0
 70
    11
 71
     3
 72
    17
 73
    13
 74
     0
 42
0.0000000001
 43
0.0000000001
 40
0.0
 40
0.0
 40
0.0
 40
0.0
 40
1.0
 40
1.0
 40
1.0
 40
2.0
 40
2.0
 40
2.0
 40
3.0
 40
3.0
 40
3.0
 40
4.0
 40
4.0
 40
4.0
 40
4.0
 10
101.0045152199745
 20
-155.047900351863
 30
0.0
 10
101.0045152199745
 20
-155.047900351863
 30
0.0
 10
100.2979261359498
 20
-155.047900351863
 30
0.0
 10
100.2979261359498
 20
-155.047900351863
 30
0.0
 10
100.2979261359498
 20
-155.047900351863
 30
0.0
 10
100.2979261359498
 20
-155.1622775219733
 30
0.0
 10
100.2979261359498
 20
-155.1622775219733
 30
0.0
 10
100.2979261359498
 20
-155.1622775219733
 30
0.0
 10
101.0045152199745
 20
-155.1622775219733
 30
0.0
 10
101.0045152199745
 20
-155.1622775219733
 30
0.0
 10
101.0045152199745
 20
-155.1622775219733
 30
0.0
 10
101.0045152199745
 20
-155.047900351863
 30
0.0
 10
101.0045152199745
 20
-155.047900351863
 30
0.0
  0
SPLINE
  5
10F
330
105
100
AcDbEntity
  8
レイヤー 1
100
AcDbSpline
210
0.0
220
0.0
230
1.0
 70
    11
 71
     3
 72
    17
 73
    13
 74
     0
 42
0.0000000001
 43
0.0000000001
 40
0.0
 40
0.0
 40
0.0
 40
0.0
 40
1.0
 40
1.0
 40
1.0
 40
2.0
 40
2.0
 40
2.0
 40
3.0
 40
3.0
 40
3.0
 40
4.0
 40
4.0
 40
4.0
 40
4.0
 10
101.0045152199745
 20
-154.8153564066086
 30
0.0
 10
101.0045152199745
 20
-154.8153564066086
 30
0.0
 10
100.2979261359498
 20
-154.8153564066086
 30
0.0
 10
100.2979261359498
 20
-154.8153564066086
 30
0.0
 10
100.2979261359498
 20
-154.8153564066086
 30
0.0
 10
100.2979261359498
 20
-154.923187895297
 30
0.0
 10
100.2979261359498
 20
-154.923187895297
 30
0.0
 10
100.2979261359498
 20
-154.923187895297
 30
0.0
 10
101.0045152199745
 20
-154.923187895297
 30
0.0
 10
101.0045152199745
 20
-154.923187895297
 30
0.0
 10
101.0045152199745
 20
-154.923187895297
 30
0.0
 10
101.0045152199745
 20
-154.8153564066086
 30
0.0
 10
101.0045152199745
 20
-154.8153564066086
 30
0.0
  0
SPLINE
  5
110
330
105
100
AcDbEntity
  8
レイヤー 1
100
AcDbSpline
210
0.0
220
0.0
230
1.0
 70
     9
 71
     3
 72
   203
 73
   199
 74
     0
 42
0.0000000001
 43
0.0000000001
 40
0.0
 40
0.0
 40
0.0
 40
0.0
 40
1.0
 40
1.0
 40
1.0
 40
2.0
 40
2.0
 40
2.0
 40
3.0
 40
3.0
 40
3.0
 40
4.0
 40
4.0
 40
4.0
 40
5.0
 40
5.0
 40
5.0
 40
6.0
 40
6.0
 40
6.0
 40
7.0
 40
7.0
 40
7.0
 40
8.0
 40
8.0
 40
8.0
 40
9.0
 40
9.0
 40
9.0
 40
10.0
 40
10.0
 40
10.0
 40
11.0
 40
11.0
 40
11.0
 40
12.0
 40
12.0
 40
12.0
 40
13.0
 40
13.0
 40
13.0
 40
14.0
 40
14.0
 40
14.0
 40
15.0
 40
15.0
 40
15.0
 40
16.0
 40
16.0
 40
16.0
 40
17.0
 40
17.0
 40
17.0
 40
18.0
 40
18.0
 40
18.0
 40
19.0
 40
19.0
 40
19.0
 40
20.0
 40
20.0
 40
20.0
 40
21.0
 40
21.0
 40
21.0
 40
22.0
 40
22.0
 40
22.0
 40
23.0
 40
23.0
 40
23.0
 40
24.0
 40
24.0
 40
24.0
 40
25.0
 40
25.0
 40
25.0
 40
26.0
 40
26.0
 40
26.0
 40
27.0
 40
27.0
 40
27.0
 40
28.0
 40
28.0
 40
28.0
 40
29.0
 40
29.0
 40
29.0
 40
30.0
 40
30.0
 40
30.0
 40
31.0
 40
31.0
 40
31.0
 40
32.0
 40
32.0
 40
32.0
 40
33.0
 40
33.0
 40
33.0
 40
34.0
 40
34.0
 40
34.0
 40
35.0
 40
35.0
 40
35.0
 40
36.0
 40
36.0
 40
36.0
 40
37.0
 40
37.0
 40
37.0
 40
38.0
 40
38.0
 40
38.0
 40
39.0
 40
39.0
 40
39.0
 40
40.0
 40
40.0
 40
40.0
 40
41.0
 40
41.0
 40
41.0
 40
42.0
 40
42.0
 40
42.0
 40
43.0
 40
43.0
 40
43.0
 40
44.0
 40
44.0
 40
44.0
 40
45.0
 40
45.0
 40
45.0
 40
46.0
 40
46.0
 40
46.0
 40
47.0
 40
47.0
 40
47.0
 40
48.0
 40
48.0
 40
48.0
 40
49.0
 40
49.0
 40
49.0
 40
50.0
 40
50.0
 40
50.0
 40
51.0
 40
51.0
 40
51.0
 40
52.0
 40
52.0
 40
52.0
 40
53.0
 40
53.0
 40
53.0
 40
54.0
 40
54.0
 40
54.0
 40
55.0
 40
55.0
 40
55.0
 40
56.0
 40
56.0
 40
56.0
 40
57.0
 40
57.0
 40
57.0
 40
58.0
 40
58.0
 40
58.0
 40
59.0
 40
59.0
 40
59.0
 40
60.0
 40
60.0
 40
60.0
 40
61.0
 40
61.0
 40
61.0
 40
62.0
 40
62.0
 40
62.0
 40
63.0
 40
63.0
 40
63.0
 40
64.0
 40
64.0
 40
64.0
 40
65.0
 40
65.0
 40
65.0
 40
66.0
 40
66.0
 40
66.0
 40
66.0
 10
100.8394951462311
 20
-154.5593858120546
 30
0.0
 10
100.8394951462311
 20
-154.5593858120546
 30
0.0
 10
100.2810451680721
 20
-154.5593858120546
 30
0.0
 10
100.2810451680721
 20
-154.5593858120546
 30
0.0
 10
100.2703653720678
 20
-154.6038275438143
 30
0.0
 10
100.2619248881289
 20
-154.6355224222786
 30
0.0
 10
100.2491780348335
 20
-154.6734184726163
 30
0.0
 10
100.2746717414244
 20
-154.6734184726163
 30
0.0
 10
100.2894856520109
 20
-154.675830039456
 30
0.0
 10
100.2958590786587
 20
-154.675830039456
 30
0.0
 10
100.2958590786587
 20
-154.675830039456
 30
0.0
 10
100.4841335469276
 20
-154.675830039456
 30
0.0
 10
100.4841335469276
 20
-154.675830039456
 30
0.0
 10
100.4841335469276
 20
-154.675830039456
 30
0.0
 10
100.8584431714
 20
-154.675830039456
 30
0.0
 10
100.8584431714
 20
-154.675830039456
 30
0.0
 10
100.9092583298074
 20
-154.675830039456
 30
0.0
 10
101.1927896882435
 20
-154.6630831861606
 30
0.0
 10
101.2244845667078
 20
-154.6630831861606
 30
0.0
 10
101.2224175094166
 20
-154.6902994404941
 30
0.0
 10
101.2201781973512
 20
-154.7095919752115
 30
0.0
 10
101.2201781973512
 20
-154.7392197963846
 30
0.0
 10
101.21811114006
 20
-154.7709146748489
 30
0.0
 10
101.21811114006
 20
-154.9063069274192
 30
0.0
 10
101.21811114006
 20
-154.9338676913012
 30
0.0
 10
101.21811114006
 20
-154.9338676913012
 30
0.0
 10
101.21811114006
 20
-155.179158489851
 30
0.0
 10
101.21811114006
 20
-155.179158489851
 30
0.0
 10
101.21811114006
 20
-155.2236002216108
 30
0.0
 10
101.2224175094166
 20
-155.4203151738185
 30
0.0
 10
101.2265516239989
 20
-155.5725883942665
 30
0.0
 10
101.2265516239989
 20
-155.5725883942665
 30
0.0
 10
101.000208850618
 20
-155.5725883942665
 30
0.0
 10
101.000208850618
 20
-155.5725883942665
 30
0.0
 10
101.000208850618
 20
-155.5725883942665
 30
0.0
 10
101.0022759079091
 20
-155.5388264585111
 30
0.0
 10
101.0022759079091
 20
-155.5388264585111
 30
0.0
 10
101.0022759079091
 20
-155.5388264585111
 30
0.0
 10
100.299993193241
 20
-155.5388264585111
 30
0.0
 10
100.299993193241
 20
-155.5388264585111
 30
0.0
 10
100.299993193241
 20
-155.5388264585111
 30
0.0
 10
100.3020602505321
 20
-155.5725883942665
 30
0.0
 10
100.3020602505321
 20
-155.5725883942665
 30
0.0
 10
100.3020602505321
 20
-155.5725883942665
 30
0.0
 10
100.08415796109
 20
-155.5725883942665
 30
0.0
 10
100.08415796109
 20
-155.5725883942665
 30
0.0
 10
100.0884643304466
 20
-155.5174668665026
 30
0.0
 10
100.0884643304466
 20
-155.5050645227557
 30
0.0
 10
100.0948377570943
 20
-155.3906873526454
 30
0.0
 10
100.0969048143855
 20
-155.3631265887634
 30
0.0
 10
100.0989718716766
 20
-155.2298013934842
 30
0.0
 10
100.0989718716766
 20
-155.2108533683153
 30
0.0
 10
100.0989718716766
 20
-155.2108533683153
 30
0.0
 10
100.0989718716766
 20
-155.0079372442341
 30
0.0
 10
100.0989718716766
 20
-155.0079372442341
 30
0.0
 10
99.95944550452403
 20
-155.2573621573662
 30
0.0
 10
99.79011906142401
 20
-155.3886202953542
 30
0.0
 10
99.68435463002684
 20
-155.454077109574
 30
0.0
 10
99.68435463002684
 20
-155.454077109574
 30
0.0
 10
99.5108940723445
 20
-155.3145507424213
 30
0.0
 10
99.5108940723445
 20
-155.3145507424213
 30
0.0
 10
99.59977753586395
 20
-155.2639078387882
 30
0.0
 10
99.74361027237314
 20
-155.1770914325599
 30
0.0
 10
99.88106958223461
 20
-154.9824435376433
 30
0.0
 10
99.97219235781946
 20
-154.8553195142376
 30
0.0
 10
100.0376491720392
 20
-154.7116590325026
 30
0.0
 10
100.0715833625689
 20
-154.5593858120546
 30
0.0
 10
99.84300127712259
 20
-154.5614528693457
 30
0.0
 10
99.66316729279256
 20
-154.5676540412192
 30
0.0
 10
99.56808265739965
 20
-154.5697210985103
 30
0.0
 10
99.56808265739965
 20
-154.5697210985103
 30
0.0
 10
99.56808265739965
 20
-154.39229868102
 30
0.0
 10
99.56808265739965
 20
-154.39229868102
 30
0.0
 10
99.76479760960742
 20
-154.3984998528934
 30
0.0
 10
100.0483289680434
 20
-154.4026339674757
 30
0.0
 10
100.1985351312004
 20
-154.4026339674757
 30
0.0
 10
100.1985351312004
 20
-154.4026339674757
 30
0.0
 10
100.4121310512858
 20
-154.4026339674757
 30
0.0
 10
100.4121310512858
 20
-154.4026339674757
 30
0.0
 10
100.4121310512858
 20
-154.4026339674757
 30
0.0
 10
100.4121310512858
 20
-154.2948024787874
 30
0.0
 10
100.4121310512858
 20
-154.2948024787874
 30
0.0
 10
100.4121310512858
 20
-154.2948024787874
 30
0.0
 10
100.2662312574855
 20
-154.2948024787874
 30
0.0
 10
100.2662312574855
 20
-154.2948024787874
 30
0.0
 10
100.0969048143855
 20
-154.2948024787874
 30
0.0
 10
99.92775062605973
 20
-154.2989365933697
 30
0.0
 10
99.76049124025086
 20
-154.3054822747917
 30
0.0
 10
99.76049124025086
 20
-154.3054822747917
 30
0.0
 10
99.76049124025086
 20
-154.1342610291748
 30
0.0
 10
99.76049124025086
 20
-154.1342610291748
 30
0.0
 10
99.9150037727643
 20
-154.1445963156305
 30
0.0
 10
100.101211183742
 20
-154.1445963156305
 30
0.0
 10
100.2662312574855
 20
-154.1445963156305
 30
0.0
 10
100.2662312574855
 20
-154.1445963156305
 30
0.0
 10
100.4121310512858
 20
-154.1445963156305
 30
0.0
 10
100.4121310512858
 20
-154.1445963156305
 30
0.0
 10
100.4121310512858
 20
-154.1445963156305
 30
0.0
 10
100.4121310512858
 20
-154.0260850309379
 30
0.0
 10
100.4121310512858
 20
-154.0260850309379
 30
0.0
 10
100.4121310512858
 20
-154.0260850309379
 30
0.0
 10
100.2810451680721
 20
-154.0260850309379
 30
0.0
 10
100.2810451680721
 20
-154.0260850309379
 30
0.0
 10
100.2343641242469
 20
-154.0260850309379
 30
0.0
 10
100.0312757453915
 20
-154.034697769651
 30
0.0
 10
99.98907332569718
 20
-154.034697769651
 30
0.0
 10
99.7859849468417
 20
-154.0388318842333
 30
0.0
 10
99.70984833661768
 20
-154.0408989415245
 30
0.0
 10
99.63147241432825
 20
-154.0429659988156
 30
0.0
 10
99.63147241432825
 20
-154.0429659988156
 30
0.0
 10
99.63147241432825
 20
-153.8589978999033
 30
0.0
 10
99.63147241432825
 20
-153.8589978999033
 30
0.0
 10
99.74567732966427
 20
-153.8676106386164
 30
0.0
 10
99.79011906142401
 20
-153.8676106386164
 30
0.0
 10
100.1730414246095
 20
-153.875878867781
 30
0.0
 10
100.1096516676809
 20
-153.7807942323881
 30
0.0
 10
100.0820909037989
 20
-153.7532334685061
 30
0.0
 10
100.046089655978
 20
-153.7174044754595
 30
0.0
 10
100.046089655978
 20
-153.7174044754595
 30
0.0
 10
100.2217895257258
 20
-153.6347221838135
 30
0.0
 10
100.2217895257258
 20
-153.6347221838135
 30
0.0
 10
100.2619248881289
 20
-153.6708956864087
 30
0.0
 10
100.3063666198887
 20
-153.7132703608772
 30
0.0
 10
100.3804361728215
 20
-153.8231689068567
 30
0.0
 10
100.3804361728215
 20
-153.8231689068567
 30
0.0
 10
100.2662312574855
 20
-153.8779459250722
 30
0.0
 10
100.2662312574855
 20
-153.8779459250722
 30
0.0
 10
100.2662312574855
 20
-153.8779459250722
 30
0.0
 10
100.2767387987155
 20
-153.8779459250722
 30
0.0
 10
100.2767387987155
 20
-153.8779459250722
 30
0.0
 10
100.2767387987155
 20
-153.8779459250722
 30
0.0
 10
100.7993597838279
 20
-153.8779459250722
 30
0.0
 10
100.7993597838279
 20
-153.8779459250722
 30
0.0
 10
100.7993597838279
 20
-153.8779459250722
 30
0.0
 10
100.7041028936608
 20
-153.833848702861
 30
0.0
 10
100.7041028936608
 20
-153.833848702861
 30
0.0
 10
100.7314914027685
 20
-153.7956081429747
 30
0.0
 10
100.7886799878237
 20
-153.7153374181684
 30
0.0
 10
100.8034938984102
 20
-153.6412678652355
 30
0.0
 10
100.8034938984102
 20
-153.6412678652355
 30
0.0
 10
101.0170898184957
 20
-153.7046576221641
 30
0.0
 10
101.0170898184957
 20
-153.7046576221641
 30
0.0
 10
101.0257025572088
 20
-153.7067246794553
 30
0.0
 10
101.0467176396689
 20
-153.7174044754595
 30
0.0
 10
101.0467176396689
 20
-153.7384195579195
 30
0.0
 10
101.0467176396689
 20
-153.7766601178058
 30
0.0
 10
100.9812608254491
 20
-153.7766601178058
 30
0.0
 10
100.962140545506
 20
-153.7766601178058
 30
0.0
 10
100.951633004276
 20
-153.7956081429747
 30
0.0
 10
100.9283786097505
 20
-153.8359157601521
 30
0.0
 10
100.8987507885774
 20
-153.875878867781
 30
0.0
 10
101.2985541196406
 20
-153.8696776959076
 30
0.0
 10
101.3281819408138
 20
-153.8676106386164
 30
0.0
 10
101.4043185510378
 20
-153.8610649571944
 30
0.0
 10
101.4043185510378
 20
-153.8610649571944
 30
0.0
 10
101.4043185510378
 20
-154.0429659988156
 30
0.0
 10
101.4043185510378
 20
-154.0429659988156
 30
0.0
 10
101.3851982710947
 20
-154.0429659988156
 30
0.0
 10
101.3598768192781
 20
-154.0408989415245
 30
0.0
 10
101.1399074725449
 20
-154.0326307123599
 30
0.0
 10
101.0890923141374
 20
-154.0305636550687
 30
0.0
 10
100.8691229674042
 20
-154.0260850309379
 30
0.0
 10
100.8246812356445
 20
-154.0260850309379
 30
0.0
 10
100.8246812356445
 20
-154.0260850309379
 30
0.0
 10
100.6088460034936
 20
-154.0260850309379
 30
0.0
 10
100.6088460034936
 20
-154.0260850309379
 30
0.0
 10
100.6088460034936
 20
-154.0260850309379
 30
0.0
 10
100.6088460034936
 20
-154.1445963156305
 30
0.0
 10
100.6088460034936
 20
-154.1445963156305
 30
0.0
 10
100.6088460034936
 20
-154.1445963156305
 30
0.0
 10
100.7823065611759
 20
-154.1445963156305
 30
0.0
 10
100.7823065611759
 20
-154.1445963156305
 30
0.0
 10
100.9452595776282
 20
-154.1445963156305
 30
0.0
 10
101.1356011031883
 20
-154.1445963156305
 30
0.0
 10
101.2921806929929
 20
-154.1342610291748
 30
0.0
 10
101.2921806929929
 20
-154.1342610291748
 30
0.0
 10
101.2921806929929
 20
-154.3054822747917
 30
0.0
 10
101.2921806929929
 20
-154.3054822747917
 30
0.0
 10
101.0827188874897
 20
-154.2968695360785
 30
0.0
 10
100.8860039352819
 20
-154.2948024787874
 30
0.0
 10
100.7823065611759
 20
-154.2948024787874
 30
0.0
 10
100.7823065611759
 20
-154.2948024787874
 30
0.0
 10
100.6088460034936
 20
-154.2948024787874
 30
0.0
 10
100.6088460034936
 20
-154.2948024787874
 30
0.0
 10
100.6088460034936
 20
-154.2948024787874
 30
0.0
 10
100.6088460034936
 20
-154.4026339674757
 30
0.0
 10
100.6088460034936
 20
-154.4026339674757
 30
0.0
 10
100.6088460034936
 20
-154.4026339674757
 30
0.0
 10
100.8394951462311
 20
-154.4026339674757
 30
0.0
 10
100.8394951462311
 20
-154.4026339674757
 30
0.0
 10
100.9728203415102
 20
-154.4026339674757
 30
0.0
 10
101.2604858145286
 20
-154.3984998528934
 30
0.0
 10
101.4699476200318
 20
-154.39229868102
 30
0.0
 10
101.4699476200318
 20
-154.39229868102
 30
0.0
 10
101.4699476200318
 20
-154.5697210985103
 30
0.0
 10
101.4699476200318
 20
-154.5697210985103
 30
0.0
 10
101.2773667824063
 20
-154.5635199266369
 30
0.0
 10
100.9642076027971
 20
-154.5593858120546
 30
0.0
 10
100.8394951462311
 20
-154.5593858120546
 30
0.0
  0
HATCH
  5
111
330
105
100
AcDbEntity
  8
レイヤー 1
 62
    18
420
        0
440
 33554687
100
AcDbHatch
 10
0.0
 20
0.0
 30
0.0
210
0.0
220
0.0
230
1.0
  2
SOLID
 70
     1
 71
     1
 91
        4
 92
        1
 93
        1
 72
     4
 94
        3
 73
     0
 74
     0
 95
       17
 96
       13
 40
0.0
 40
0.0
 40
0.0
 40
0.0
 40
1.0
 40
1.0
 40
1.0
 40
2.0
 40
2.0
 40
2.0
 40
3.0
 40
3.0
 40
3.0
 40
4.0
 40
4.0
 40
4.0
 40
4.0
 10
101.0045152199745
 20
-155.2911240931217
 10
101.0045152199745
 20
-155.2911240931217
 10
100.2979261359498
 20
-155.2911240931217
 10
100.2979261359498
 20
-155.2911240931217
 10
100.2979261359498
 20
-155.2911240931217
 10
100.2979261359498
 20
-155.405501263232
 10
100.2979261359498
 20
-155.405501263232
 10
100.2979261359498
 20
-155.405501263232
 10
101.0045152199745
 20
-155.405501263232
 10
101.0045152199745
 20
-155.405501263232
 10
101.0045152199745
 20
-155.405501263232
 10
101.0045152199745
 20
-155.2911240931217
 10
101.0045152199745
 20
-155.2911240931217
 97
        0
 97
        1
330
10D
 92
        1
 93
        1
 72
     4
 94
        3
 73
     0
 74
     0
 95
       17
 96
       13
 40
0.0
 40
0.0
 40
0.0
 40
0.0
 40
1.0
 40
1.0
 40
1.0
 40
2.0
 40
2.0
 40
2.0
 40
3.0
 40
3.0
 40
3.0
 40
4.0
 40
4.0
 40
4.0
 40
4.0
 10
101.0045152199745
 20
-155.047900351863
 10
101.0045152199745
 20
-155.047900351863
 10
100.2979261359498
 20
-155.047900351863
 10
100.2979261359498
 20
-155.047900351863
 10
100.2979261359498
 20
-155.047900351863
 10
100.2979261359498
 20
-155.1622775219733
 10
100.2979261359498
 20
-155.1622775219733
 10
100.2979261359498
 20
-155.1622775219733
 10
101.0045152199745
 20
-155.1622775219733
 10
101.0045152199745
 20
-155.1622775219733
 10
101.0045152199745
 20
-155.1622775219733
 10
101.0045152199745
 20
-155.047900351863
 10
101.0045152199745
 20
-155.047900351863
 97
        0
 97
        1
330
10E
 92
        1
 93
        1
 72
     4
 94
        3
 73
     0
 74
     0
 95
       17
 96
       13
 40
0.0
 40
0.0
 40
0.0
 40
0.0
 40
1.0
 40
1.0
 40
1.0
 40
2.0
 40
2.0
 40
2.0
 40
3.0
 40
3.0
 40
3.0
 40
4.0
 40
4.0
 40
4.0
 40
4.0
 10
101.0045152199745
 20
-154.8153564066086
 10
101.0045152199745
 20
-154.8153564066086
 10
100.2979261359498
 20
-154.8153564066086
 10
100.2979261359498
 20
-154.8153564066086
 10
100.2979261359498
 20
-154.8153564066086
 10
100.2979261359498
 20
-154.923187895297
 10
100.2979261359498
 20
-154.923187895297
 10
100.2979261359498
 20
-154.923187895297
 10
101.0045152199745
 20
-154.923187895297
 10
101.0045152199745
 20
-154.923187895297
 10
101.0045152199745
 20
-154.923187895297
 10
101.0045152199745
 20
-154.8153564066086
 10
101.0045152199745
 20
-154.8153564066086
 97
        0
 97
        1
330
10F
 92
        1
 93
        1
 72
     4
 94
        3
 73
     0
 74
     0
 95
      203
 96
      199
 40
0.0
 40
0.0
 40
0.0
 40
0.0
 40
1.0
 40
1.0
 40
1.0
 40
2.0
 40
2.0
 40
2.0
 40
3.0
 40
3.0
 40
3.0
 40
4.0
 40
4.0
 40
4.0
 40
5.0
 40
5.0
 40
5.0
 40
6.0
 40
6.0
 40
6.0
 40
7.0
 40
7.0
 40
7.0
 40
8.0
 40
8.0
 40
8.0
 40
9.0
 40
9.0
 40
9.0
 40
10.0
 40
10.0
 40
10.0
 40
11.0
 40
11.0
 40
11.0
 40
12.0
 40
12.0
 40
12.0
 40
13.0
 40
13.0
 40
13.0
 40
14.0
 40
14.0
 40
14.0
 40
15.0
 40
15.0
 40
15.0
 40
16.0
 40
16.0
 40
16.0
 40
17.0
 40
17.0
 40
17.0
 40
18.0
 40
18.0
 40
18.0
 40
19.0
 40
19.0
 40
19.0
 40
20.0
 40
20.0
 40
20.0
 40
21.0
 40
21.0
 40
21.0
 40
22.0
 40
22.0
 40
22.0
 40
23.0
 40
23.0
 40
23.0
 40
24.0
 40
24.0
 40
24.0
 40
25.0
 40
25.0
 40
25.0
 40
26.0
 40
26.0
 40
26.0
 40
27.0
 40
27.0
 40
27.0
 40
28.0
 40
28.0
 40
28.0
 40
29.0
 40
29.0
 40
29.0
 40
30.0
 40
30.0
 40
30.0
 40
31.0
 40
31.0
 40
31.0
 40
32.0
 40
32.0
 40
32.0
 40
33.0
 40
33.0
 40
33.0
 40
34.0
 40
34.0
 40
34.0
 40
35.0
 40
35.0
 40
35.0
 40
36.0
 40
36.0
 40
36.0
 40
37.0
 40
37.0
 40
37.0
 40
38.0
 40
38.0
 40
38.0
 40
39.0
 40
39.0
 40
39.0
 40
40.0
 40
40.0
 40
40.0
 40
41.0
 40
41.0
 40
41.0
 40
42.0
 40
42.0
 40
42.0
 40
43.0
 40
43.0
 40
43.0
 40
44.0
 40
44.0
 40
44.0
 40
45.0
 40
45.0
 40
45.0
 40
46.0
 40
46.0
 40
46.0
 40
47.0
 40
47.0
 40
47.0
 40
48.0
 40
48.0
 40
48.0
 40
49.0
 40
49.0
 40
49.0
 40
50.0
 40
50.0
 40
50.0
 40
51.0
 40
51.0
 40
51.0
 40
52.0
 40
52.0
 40
52.0
 40
53.0
 40
53.0
 40
53.0
 40
54.0
 40
54.0
 40
54.0
 40
55.0
 40
55.0
 40
55.0
 40
56.0
 40
56.0
 40
56.0
 40
57.0
 40
57.0
 40
57.0
 40
58.0
 40
58.0
 40
58.0
 40
59.0
 40
59.0
 40
59.0
 40
60.0
 40
60.0
 40
60.0
 40
61.0
 40
61.0
 40
61.0
 40
62.0
 40
62.0
 40
62.0
 40
63.0
 40
63.0
 40
63.0
 40
64.0
 40
64.0
 40
64.0
 40
65.0
 40
65.0
 40
65.0
 40
66.0
 40
66.0
 40
66.0
 40
66.0
 10
100.8394951462311
 20
-154.5593858120546
 10
100.8394951462311
 20
-154.5593858120546
 10
100.2810451680721
 20
-154.5593858120546
 10
100.2810451680721
 20
-154.5593858120546
 10
100.2703653720678
 20
-154.6038275438143
 10
100.2619248881289
 20
-154.6355224222786
 10
100.2491780348335
 20
-154.6734184726163
 10
100.2746717414244
 20
-154.6734184726163
 10
100.2894856520109
 20
-154.675830039456
 10
100.2958590786587
 20
-154.675830039456
 10
100.2958590786587
 20
-154.675830039456
 10
100.4841335469276
 20
-154.675830039456
 10
100.4841335469276
 20
-154.675830039456
 10
100.4841335469276
 20
-154.675830039456
 10
100.8584431714
 20
-154.675830039456
 10
100.8584431714
 20
-154.675830039456
 10
100.9092583298074
 20
-154.675830039456
 10
101.1927896882435
 20
-154.6630831861606
 10
101.2244845667078
 20
-154.6630831861606
 10
101.2224175094166
 20
-154.6902994404941
 10
101.2201781973512
 20
-154.7095919752115
 10
101.2201781973512
 20
-154.7392197963846
 10
101.21811114006
 20
-154.7709146748489
 10
101.21811114006
 20
-154.9063069274192
 10
101.21811114006
 20
-154.9338676913012
 10
101.21811114006
 20
-154.9338676913012
 10
101.21811114006
 20
-155.179158489851
 10
101.21811114006
 20
-155.179158489851
 10
101.21811114006
 20
-155.2236002216108
 10
101.2224175094166
 20
-155.4203151738185
 10
101.2265516239989
 20
-155.5725883942665
 10
101.2265516239989
 20
-155.5725883942665
 10
101.000208850618
 20
-155.5725883942665
 10
101.000208850618
 20
-155.5725883942665
 10
101.000208850618
 20
-155.5725883942665
 10
101.0022759079091
 20
-155.5388264585111
 10
101.0022759079091
 20
-155.5388264585111
 10
101.0022759079091
 20
-155.5388264585111
 10
100.299993193241
 20
-155.5388264585111
 10
100.299993193241
 20
-155.5388264585111
 10
100.299993193241
 20
-155.5388264585111
 10
100.3020602505321
 20
-155.5725883942665
 10
100.3020602505321
 20
-155.5725883942665
 10
100.3020602505321
 20
-155.5725883942665
 10
100.08415796109
 20
-155.5725883942665
 10
100.08415796109
 20
-155.5725883942665
 10
100.0884643304466
 20
-155.5174668665026
 10
100.0884643304466
 20
-155.5050645227557
 10
100.0948377570943
 20
-155.3906873526454
 10
100.0969048143855
 20
-155.3631265887634
 10
100.0989718716766
 20
-155.2298013934842
 10
100.0989718716766
 20
-155.2108533683153
 10
100.0989718716766
 20
-155.2108533683153
 10
100.0989718716766
 20
-155.0079372442341
 10
100.0989718716766
 20
-155.0079372442341
 10
99.95944550452403
 20
-155.2573621573662
 10
99.79011906142401
 20
-155.3886202953542
 10
99.68435463002684
 20
-155.454077109574
 10
99.68435463002684
 20
-155.454077109574
 10
99.5108940723445
 20
-155.3145507424213
 10
99.5108940723445
 20
-155.3145507424213
 10
99.59977753586395
 20
-155.2639078387882
 10
99.74361027237314
 20
-155.1770914325599
 10
99.88106958223461
 20
-154.9824435376433
 10
99.97219235781946
 20
-154.8553195142376
 10
100.0376491720392
 20
-154.7116590325026
 10
100.0715833625689
 20
-154.5593858120546
 10
99.84300127712259
 20
-154.5614528693457
 10
99.66316729279256
 20
-154.5676540412192
 10
99.56808265739965
 20
-154.5697210985103
 10
99.56808265739965
 20
-154.5697210985103
 10
99.56808265739965
 20
-154.39229868102
 10
99.56808265739965
 20
-154.39229868102
 10
99.76479760960742
 20
-154.3984998528934
 10
100.0483289680434
 20
-154.4026339674757
 10
100.1985351312004
 20
-154.4026339674757
 10
100.1985351312004
 20
-154.4026339674757
 10
100.4121310512858
 20
-154.4026339674757
 10
100.4121310512858
 20
-154.4026339674757
 10
100.4121310512858
 20
-154.4026339674757
 10
100.4121310512858
 20
-154.2948024787874
 10
100.4121310512858
 20
-154.2948024787874
 10
100.4121310512858
 20
-154.2948024787874
 10
100.2662312574855
 20
-154.2948024787874
 10
100.2662312574855
 20
-154.2948024787874
 10
100.0969048143855
 20
-154.2948024787874
 10
99.92775062605973
 20
-154.2989365933697
 10
99.76049124025086
 20
-154.3054822747917
 10
99.76049124025086
 20
-154.3054822747917
 10
99.76049124025086
 20
-154.1342610291748
 10
99.76049124025086
 20
-154.1342610291748
 10
99.9150037727643
 20
-154.1445963156305
 10
100.101211183742
 20
-154.1445963156305
 10
100.2662312574855
 20
-154.1445963156305
 10
100.2662312574855
 20
-154.1445963156305
 10
100.4121310512858
 20
-154.1445963156305
 10
100.4121310512858
 20
-154.1445963156305
 10
100.4121310512858
 20
-154.1445963156305
 10
100.4121310512858
 20
-154.0260850309379
 10
100.4121310512858
 20
-154.0260850309379
 10
100.4121310512858
 20
-154.0260850309379
 10
100.2810451680721
 20
-154.0260850309379
 10
100.2810451680721
 20
-154.0260850309379
 10
100.2343641242469
 20
-154.0260850309379
 10
100.0312757453915
 20
-154.034697769651
 10
99.98907332569718
 20
-154.034697769651
 10
99.7859849468417
 20
-154.0388318842333
 10
99.70984833661768
 20
-154.0408989415245
 10
99.63147241432825
 20
-154.0429659988156
 10
99.63147241432825
 20
-154.0429659988156
 10
99.63147241432825
 20
-153.8589978999033
 10
99.63147241432825
 20
-153.8589978999033
 10
99.74567732966427
 20
-153.8676106386164
 10
99.79011906142401
 20
-153.8676106386164
 10
100.1730414246095
 20
-153.875878867781
 10
100.1096516676809
 20
-153.7807942323881
 10
100.0820909037989
 20
-153.7532334685061
 10
100.046089655978
 20
-153.7174044754595
 10
100.046089655978
 20
-153.7174044754595
 10
100.2217895257258
 20
-153.6347221838135
 10
100.2217895257258
 20
-153.6347221838135
 10
100.2619248881289
 20
-153.6708956864087
 10
100.3063666198887
 20
-153.7132703608772
 10
100.3804361728215
 20
-153.8231689068567
 10
100.3804361728215
 20
-153.8231689068567
 10
100.2662312574855
 20
-153.8779459250722
 10
100.2662312574855
 20
-153.8779459250722
 10
100.2662312574855
 20
-153.8779459250722
 10
100.2767387987155
 20
-153.8779459250722
 10
100.2767387987155
 20
-153.8779459250722
 10
100.2767387987155
 20
-153.8779459250722
 10
100.7993597838279
 20
-153.8779459250722
 10
100.7993597838279
 20
-153.8779459250722
 10
100.7993597838279
 20
-153.8779459250722
 10
100.7041028936608
 20
-153.833848702861
 10
100.7041028936608
 20
-153.833848702861
 10
100.7314914027685
 20
-153.7956081429747
 10
100.7886799878237
 20
-153.7153374181684
 10
100.8034938984102
 20
-153.6412678652355
 10
100.8034938984102
 20
-153.6412678652355
 10
101.0170898184957
 20
-153.7046576221641
 10
101.0170898184957
 20
-153.7046576221641
 10
101.0257025572088
 20
-153.7067246794553
 10
101.0467176396689
 20
-153.7174044754595
 10
101.0467176396689
 20
-153.7384195579195
 10
101.0467176396689
 20
-153.7766601178058
 10
100.9812608254491
 20
-153.7766601178058
 10
100.962140545506
 20
-153.7766601178058
 10
100.951633004276
 20
-153.7956081429747
 10
100.9283786097505
 20
-153.8359157601521
 10
100.8987507885774
 20
-153.875878867781
 10
101.2985541196406
 20
-153.8696776959076
 10
101.3281819408138
 20
-153.8676106386164
 10
101.4043185510378
 20
-153.8610649571944
 10
101.4043185510378
 20
-153.8610649571944
 10
101.4043185510378
 20
-154.0429659988156
 10
101.4043185510378
 20
-154.0429659988156
 10
101.3851982710947
 20
-154.0429659988156
 10
101.3598768192781
 20
-154.0408989415245
 10
101.1399074725449
 20
-154.0326307123599
 10
101.0890923141374
 20
-154.0305636550687
 10
100.8691229674042
 20
-154.0260850309379
 10
100.8246812356445
 20
-154.0260850309379
 10
100.8246812356445
 20
-154.0260850309379
 10
100.6088460034936
 20
-154.0260850309379
 10
100.6088460034936
 20
-154.0260850309379
 10
100.6088460034936
 20
-154.0260850309379
 10
100.6088460034936
 20
-154.1445963156305
 10
100.6088460034936
 20
-154.1445963156305
 10
100.6088460034936
 20
-154.1445963156305
 10
100.7823065611759
 20
-154.1445963156305
 10
100.7823065611759
 20
-154.1445963156305
 10
100.9452595776282
 20
-154.1445963156305
 10
101.1356011031883
 20
-154.1445963156305
 10
101.2921806929929
 20
-154.1342610291748
 10
101.2921806929929
 20
-154.1342610291748
 10
101.2921806929929
 20
-154.3054822747917
 10
101.2921806929929
 20
-154.3054822747917
 10
101.0827188874897
 20
-154.2968695360785
 10
100.8860039352819
 20
-154.2948024787874
 10
100.7823065611759
 20
-154.2948024787874
 10
100.7823065611759
 20
-154.2948024787874
 10
100.6088460034936
 20
-154.2948024787874
 10
100.6088460034936
 20
-154.2948024787874
 10
100.6088460034936
 20
-154.2948024787874
 10
100.6088460034936
 20
-154.4026339674757
 10
100.6088460034936
 20
-154.4026339674757
 10
100.6088460034936
 20
-154.4026339674757
 10
100.8394951462311
 20
-154.4026339674757
 10
100.8394951462311
 20
-154.4026339674757
 10
100.9728203415102
 20
-154.4026339674757
 10
101.2604858145286
 20
-154.3984998528934
 10
101.4699476200318
 20
-154.39229868102
 10
101.4699476200318
 20
-154.39229868102
 10
101.4699476200318
 20
-154.5697210985103
 10
101.4699476200318
 20
-154.5697210985103
 10
101.2773667824063
 20
-154.5635199266369
 10
100.9642076027971
 20
-154.5593858120546
 10
100.8394951462311
 20
-154.5593858120546
 97
        0
 97
        1
330
110
 75
     2
 76
     1
 98
        1
 10
0.0
 20
0.0
450
        0
451
        0
460
0.0
461
0.0
452
        0
462
0.0
453
        0
470

  0
SPLINE
  5
112
330
105
100
AcDbEntity
  8
レイヤー 1
100
AcDbSpline
210
0.0
220
0.0
230
1.0
 70
     9
 71
     3
 72
    29
 73
    25
 74
     0
 42
0.0000000001
 43
0.0000000001
 40
0.0
 40
0.0
 40
0.0
 40
0.0
 40
1.0
 40
1.0
 40
1.0
 40
2.0
 40
2.0
 40
2.0
 40
3.0
 40
3.0
 40
3.0
 40
4.0
 40
4.0
 40
4.0
 40
5.0
 40
5.0
 40
5.0
 40
6.0
 40
6.0
 40
6.0
 40
7.0
 40
7.0
 40
7.0
 40
8.0
 40
8.0
 40
8.0
 40
8.0
 10
102.7150051284011
 20
-154.007137005769
 30
0.0
 10
102.7150051284011
 20
-154.007137005769
 30
0.0
 10
102.3617105863887
 20
-154.007137005769
 30
0.0
 10
102.3617105863887
 20
-154.007137005769
 30
0.0
 10
102.2495727283438
 20
-154.007137005769
 30
0.0
 10
102.109874106417
 20
-154.013682687191
 30
0.0
 10
102.0020426177286
 20
-154.0260850309379
 30
0.0
 10
102.0020426177286
 20
-154.0260850309379
 30
0.0
 10
102.0020426177286
 20
-153.7914740283924
 30
0.0
 10
102.0020426177286
 20
-153.7914740283924
 30
0.0
 10
102.1205539024212
 20
-153.806287938979
 30
0.0
 10
102.3045220013336
 20
-153.8104220535613
 30
0.0
 10
102.3617105863887
 20
-153.8104220535613
 30
0.0
 10
102.3617105863887
 20
-153.8104220535613
 30
0.0
 10
102.7150051284011
 20
-153.8104220535613
 30
0.0
 10
102.7150051284011
 20
-153.8104220535613
 30
0.0
 10
102.73395315357
 20
-153.8104220535613
 30
0.0
 10
102.9370415324254
 20
-153.8104220535613
 30
0.0
 10
103.0788072116435
 20
-153.7914740283924
 30
0.0
 10
103.0788072116435
 20
-153.7914740283924
 30
0.0
 10
103.0788072116435
 20
-154.0260850309379
 30
0.0
 10
103.0788072116435
 20
-154.0260850309379
 30
0.0
 10
102.9222276218389
 20
-154.007137005769
 30
0.0
 10
102.7318860962788
 20
-154.007137005769
 30
0.0
 10
102.7150051284011
 20
-154.007137005769
 30
0.0
  0
SPLINE
  5
113
330
105
100
AcDbEntity
  8
レイヤー 1
100
AcDbSpline
210
0.0
220
0.0
230
1.0
 70
     9
 71
     3
 72
    47
 73
    43
 74
     0
 42
0.0000000001
 43
0.0000000001
 40
0.0
 40
0.0
 40
0.0
 40
0.0
 40
1.0
 40
1.0
 40
1.0
 40
2.0
 40
2.0
 40
2.0
 40
3.0
 40
3.0
 40
3.0
 40
4.0
 40
4.0
 40
4.0
 40
5.0
 40
5.0
 40
5.0
 40
6.0
 40
6.0
 40
6.0
 40
7.0
 40
7.0
 40
7.0
 40
8.0
 40
8.0
 40
8.0
 40
9.0
 40
9.0
 40
9.0
 40
10.0
 40
10.0
 40
10.0
 40
11.0
 40
11.0
 40
11.0
 40
12.0
 40
12.0
 40
12.0
 40
13.0
 40
13.0
 40
13.0
 40
14.0
 40
14.0
 40
14.0
 40
14.0
 10
102.8164631904417
 20
-154.5359591627549
 30
0.0
 10
102.8164631904417
 20
-154.5359591627549
 30
0.0
 10
102.7150051284011
 20
-154.5359591627549
 30
0.0
 10
102.7150051284011
 20
-154.5359591627549
 30
0.0
 10
102.7150051284011
 20
-154.6227755689832
 30
0.0
 10
102.6938177911668
 20
-155.0120713588164
 30
0.0
 10
102.497102838959
 20
-155.2318684507754
 30
0.0
 10
102.3446573637367
 20
-155.4013671486496
 30
0.0
 10
102.137434870299
 20
-155.4709580774517
 30
0.0
 10
102.0528577761361
 20
-155.4985188413337
 30
0.0
 10
102.0528577761361
 20
-155.4985188413337
 30
0.0
 10
101.8582098812194
 20
-155.3314317102991
 30
0.0
 10
101.8582098812194
 20
-155.3314317102991
 30
0.0
 10
101.9555338286778
 20
-155.3186848570036
 30
0.0
 10
102.1310614436512
 20
-155.2956027172525
 30
0.0
 10
102.3193359119201
 20
-155.1071559942093
 30
0.0
 10
102.393405464853
 20
-155.0351534985676
 30
0.0
 10
102.497102838959
 20
-154.895627131415
 30
0.0
 10
102.497102838959
 20
-154.5359591627549
 30
0.0
 10
102.497102838959
 20
-154.5359591627549
 30
0.0
 10
102.2664536962216
 20
-154.5359591627549
 30
0.0
 10
102.2664536962216
 20
-154.5359591627549
 30
0.0
 10
102.0802462852438
 20
-154.5359591627549
 30
0.0
 10
101.894038874266
 20
-154.5404377868857
 30
0.0
 10
101.7080037180626
 20
-154.5552516974723
 30
0.0
 10
101.7080037180626
 20
-154.5552516974723
 30
0.0
 10
101.7080037180626
 20
-154.3351100959648
 30
0.0
 10
101.7080037180626
 20
-154.3351100959648
 30
0.0
 10
101.8962781863315
 20
-154.3499240065514
 30
0.0
 10
102.1818766020587
 20
-154.3540581211337
 30
0.0
 10
102.2664536962216
 20
-154.3540581211337
 30
0.0
 10
102.2664536962216
 20
-154.3540581211337
 30
0.0
 10
102.8164631904417
 20
-154.3540581211337
 30
0.0
 10
102.8164631904417
 20
-154.3540581211337
 30
0.0
 10
102.8355834703848
 20
-154.3540581211337
 30
0.0
 10
103.1528767645763
 20
-154.3540581211337
 30
0.0
 10
103.3812865952484
 20
-154.3351100959648
 30
0.0
 10
103.3812865952484
 20
-154.3351100959648
 30
0.0
 10
103.3812865952484
 20
-154.5552516974723
 30
0.0
 10
103.3812865952484
 20
-154.5552516974723
 30
0.0
 10
103.1930121269795
 20
-154.5404377868857
 30
0.0
 10
103.0047376587106
 20
-154.5359591627549
 30
0.0
 10
102.8164631904417
 20
-154.5359591627549
 30
0.0
  0
HATCH
  5
114
330
105
100
AcDbEntity
  8
レイヤー 1
 62
    18
420
        0
440
 33554687
100
AcDbHatch
 10
0.0
 20
0.0
 30
0.0
210
0.0
220
0.0
230
1.0
  2
SOLID
 70
     1
 71
     1
 91
        2
 92
        1
 93
        1
 72
     4
 94
        3
 73
     0
 74
     0
 95
       29
 96
       25
 40
0.0
 40
0.0
 40
0.0
 40
0.0
 40
1.0
 40
1.0
 40
1.0
 40
2.0
 40
2.0
 40
2.0
 40
3.0
 40
3.0
 40
3.0
 40
4.0
 40
4.0
 40
4.0
 40
5.0
 40
5.0
 40
5.0
 40
6.0
 40
6.0
 40
6.0
 40
7.0
 40
7.0
 40
7.0
 40
8.0
 40
8.0
 40
8.0
 40
8.0
 10
102.7150051284011
 20
-154.007137005769
 10
102.7150051284011
 20
-154.007137005769
 10
102.3617105863887
 20
-154.007137005769
 10
102.3617105863887
 20
-154.007137005769
 10
102.2495727283438
 20
-154.007137005769
 10
102.109874106417
 20
-154.013682687191
 10
102.0020426177286
 20
-154.0260850309379
 10
102.0020426177286
 20
-154.0260850309379
 10
102.0020426177286
 20
-153.7914740283924
 10
102.0020426177286
 20
-153.7914740283924
 10
102.1205539024212
 20
-153.806287938979
 10
102.3045220013336
 20
-153.8104220535613
 10
102.3617105863887
 20
-153.8104220535613
 10
102.3617105863887
 20
-153.8104220535613
 10
102.7150051284011
 20
-153.8104220535613
 10
102.7150051284011
 20
-153.8104220535613
 10
102.73395315357
 20
-153.8104220535613
 10
102.9370415324254
 20
-153.8104220535613
 10
103.0788072116435
 20
-153.7914740283924
 10
103.0788072116435
 20
-153.7914740283924
 10
103.0788072116435
 20
-154.0260850309379
 10
103.0788072116435
 20
-154.0260850309379
 10
102.9222276218389
 20
-154.007137005769
 10
102.7318860962788
 20
-154.007137005769
 10
102.7150051284011
 20
-154.007137005769
 97
        0
 97
        1
330
112
 92
        1
 93
        1
 72
     4
 94
        3
 73
     0
 74
     0
 95
       47
 96
       43
 40
0.0
 40
0.0
 40
0.0
 40
0.0
 40
1.0
 40
1.0
 40
1.0
 40
2.0
 40
2.0
 40
2.0
 40
3.0
 40
3.0
 40
3.0
 40
4.0
 40
4.0
 40
4.0
 40
5.0
 40
5.0
 40
5.0
 40
6.0
 40
6.0
 40
6.0
 40
7.0
 40
7.0
 40
7.0
 40
8.0
 40
8.0
 40
8.0
 40
9.0
 40
9.0
 40
9.0
 40
10.0
 40
10.0
 40
10.0
 40
11.0
 40
11.0
 40
11.0
 40
12.0
 40
12.0
 40
12.0
 40
13.0
 40
13.0
 40
13.0
 40
14.0
 40
14.0
 40
14.0
 40
14.0
 10
102.8164631904417
 20
-154.5359591627549
 10
102.8164631904417
 20
-154.5359591627549
 10
102.7150051284011
 20
-154.5359591627549
 10
102.7150051284011
 20
-154.5359591627549
 10
102.7150051284011
 20
-154.6227755689832
 10
102.6938177911668
 20
-155.0120713588164
 10
102.497102838959
 20
-155.2318684507754
 10
102.3446573637367
 20
-155.4013671486496
 10
102.137434870299
 20
-155.4709580774517
 10
102.0528577761361
 20
-155.4985188413337
 10
102.0528577761361
 20
-155.4985188413337
 10
101.8582098812194
 20
-155.3314317102991
 10
101.8582098812194
 20
-155.3314317102991
 10
101.9555338286778
 20
-155.3186848570036
 10
102.1310614436512
 20
-155.2956027172525
 10
102.3193359119201
 20
-155.1071559942093
 10
102.393405464853
 20
-155.0351534985676
 10
102.497102838959
 20
-154.895627131415
 10
102.497102838959
 20
-154.5359591627549
 10
102.497102838959
 20
-154.5359591627549
 10
102.2664536962216
 20
-154.5359591627549
 10
102.2664536962216
 20
-154.5359591627549
 10
102.0802462852438
 20
-154.5359591627549
 10
101.894038874266
 20
-154.5404377868857
 10
101.7080037180626
 20
-154.5552516974723
 10
101.7080037180626
 20
-154.5552516974723
 10
101.7080037180626
 20
-154.3351100959648
 10
101.7080037180626
 20
-154.3351100959648
 10
101.8962781863315
 20
-154.3499240065514
 10
102.1818766020587
 20
-154.3540581211337
 10
102.2664536962216
 20
-154.3540581211337
 10
102.2664536962216
 20
-154.3540581211337
 10
102.8164631904417
 20
-154.3540581211337
 10
102.8164631904417
 20
-154.3540581211337
 10
102.8355834703848
 20
-154.3540581211337
 10
103.1528767645763
 20
-154.3540581211337
 10
103.3812865952484
 20
-154.3351100959648
 10
103.3812865952484
 20
-154.3351100959648
 10
103.3812865952484
 20
-154.5552516974723
 10
103.3812865952484
 20
-154.5552516974723
 10
103.1930121269795
 20
-154.5404377868857
 10
103.0047376587106
 20
-154.5359591627549
 10
102.8164631904417
 20
-154.5359591627549
 97
        0
 97
        1
330
113
 75
     2
 76
     1
 98
        1
 10
0.0
 20
0.0
450
        0
451
        0
460
0.0
461
0.0
452
        0
462
0.0
453
        0
470

  0
SPLINE
  5
115
330
105
100
AcDbEntity
  8
レイヤー 1
100
AcDbSpline
210
0.0
220
0.0
230
1.0
 70
     9
 71
     3
 72
    29
 73
    25
 74
     0
 42
0.0000000001
 43
0.0000000001
 40
0.0
 40
0.0
 40
0.0
 40
0.0
 40
1.0
 40
1.0
 40
1.0
 40
2.0
 40
2.0
 40
2.0
 40
3.0
 40
3.0
 40
3.0
 40
4.0
 40
4.0
 40
4.0
 40
5.0
 40
5.0
 40
5.0
 40
6.0
 40
6.0
 40
6.0
 40
7.0
 40
7.0
 40
7.0
 40
8.0
 40
8.0
 40
8.0
 40
8.0
 10
104.6621730966643
 20
-154.6989121792072
 30
0.0
 10
104.6621730966643
 20
-154.6989121792072
 30
0.0
 10
104.1777926714382
 20
-154.6989121792072
 30
0.0
 10
104.1777926714382
 20
-154.6989121792072
 30
0.0
 10
104.1502319075562
 20
-154.6989121792072
 30
0.0
 10
103.8329386133647
 20
-154.6989121792072
 30
0.0
 10
103.6214097505703
 20
-154.724405885798
 30
0.0
 10
103.6214097505703
 20
-154.724405885798
 30
0.0
 10
103.6214097505703
 20
-154.4935844882863
 30
0.0
 10
103.6214097505703
 20
-154.4935844882863
 30
0.0
 10
103.7800563976661
 20
-154.517011137586
 30
0.0
 10
103.9703979232261
 20
-154.5190781948772
 30
0.0
 10
104.1777926714382
 20
-154.5190781948772
 30
0.0
 10
104.1777926714382
 20
-154.5190781948772
 30
0.0
 10
104.6621730966643
 20
-154.5190781948772
 30
0.0
 10
104.6621730966643
 20
-154.5190781948772
 30
0.0
 10
104.848380507642
 20
-154.5190781948772
 30
0.0
 10
105.0345879186198
 20
-154.517011137586
 30
0.0
 10
105.2185560175321
 20
-154.4935844882863
 30
0.0
 10
105.2185560175321
 20
-154.4935844882863
 30
0.0
 10
105.2185560175321
 20
-154.724405885798
 30
0.0
 10
105.2185560175321
 20
-154.724405885798
 30
0.0
 10
105.0345879186198
 20
-154.7009792364983
 30
0.0
 10
104.7870578080046
 20
-154.6989121792072
 30
0.0
 10
104.6621730966643
 20
-154.6989121792072
 30
0.0
  0
HATCH
  5
116
330
105
100
AcDbEntity
  8
レイヤー 1
 62
    18
420
        0
440
 33554687
100
AcDbHatch
 10
0.0
 20
0.0
 30
0.0
210
0.0
220
0.0
230
1.0
  2
SOLID
 70
     1
 71
     1
 91
        1
 92
        1
 93
        1
 72
     4
 94
        3
 73
     0
 74
     0
 95
       29
 96
       25
 40
0.0
 40
0.0
 40
0.0
 40
0.0
 40
1.0
 40
1.0
 40
1.0
 40
2.0
 40
2.0
 40
2.0
 40
3.0
 40
3.0
 40
3.0
 40
4.0
 40
4.0
 40
4.0
 40
5.0
 40
5.0
 40
5.0
 40
6.0
 40
6.0
 40
6.0
 40
7.0
 40
7.0
 40
7.0
 40
8.0
 40
8.0
 40
8.0
 40
8.0
 10
104.6621730966643
 20
-154.6989121792072
 10
104.6621730966643
 20
-154.6989121792072
 10
104.1777926714382
 20
-154.6989121792072
 10
104.1777926714382
 20
-154.6989121792072
 10
104.1502319075562
 20
-154.6989121792072
 10
103.8329386133647
 20
-154.6989121792072
 10
103.6214097505703
 20
-154.724405885798
 10
103.6214097505703
 20
-154.724405885798
 10
103.6214097505703
 20
-154.4935844882863
 10
103.6214097505703
 20
-154.4935844882863
 10
103.7800563976661
 20
-154.517011137586
 10
103.9703979232261
 20
-154.5190781948772
 10
104.1777926714382
 20
-154.5190781948772
 10
104.1777926714382
 20
-154.5190781948772
 10
104.6621730966643
 20
-154.5190781948772
 10
104.6621730966643
 20
-154.5190781948772
 10
104.848380507642
 20
-154.5190781948772
 10
105.0345879186198
 20
-154.517011137586
 10
105.2185560175321
 20
-154.4935844882863
 10
105.2185560175321
 20
-154.4935844882863
 10
105.2185560175321
 20
-154.724405885798
 10
105.2185560175321
 20
-154.724405885798
 10
105.0345879186198
 20
-154.7009792364983
 10
104.7870578080046
 20
-154.6989121792072
 10
104.6621730966643
 20
-154.6989121792072
 97
        0
 97
        1
330
115
 75
     2
 76
     1
 98
        1
 10
0.0
 20
0.0
450
        0
451
        0
460
0.0
461
0.0
452
        0
462
0.0
453
        0
470

  0
SPLINE
  5
117
330
105
100
AcDbEntity
  8
レイヤー 1
100
AcDbSpline
210
0.0
220
0.0
230
1.0
 70
     9
 71
     3
 72
    47
 73
    43
 74
     0
 42
0.0000000001
 43
0.0000000001
 40
0.0
 40
0.0
 40
0.0
 40
0.0
 40
1.0
 40
1.0
 40
1.0
 40
2.0
 40
2.0
 40
2.0
 40
3.0
 40
3.0
 40
3.0
 40
4.0
 40
4.0
 40
4.0
 40
5.0
 40
5.0
 40
5.0
 40
6.0
 40
6.0
 40
6.0
 40
7.0
 40
7.0
 40
7.0
 40
8.0
 40
8.0
 40
8.0
 40
9.0
 40
9.0
 40
9.0
 40
10.0
 40
10.0
 40
10.0
 40
11.0
 40
11.0
 40
11.0
 40
12.0
 40
12.0
 40
12.0
 40
13.0
 40
13.0
 40
13.0
 40
14.0
 40
14.0
 40
14.0
 40
14.0
 10
106.8823648821336
 20
-154.1046332080016
 30
0.0
 10
106.812429443783
 20
-154.3836859423068
 30
0.0
 10
106.736292833559
 20
-154.6882323832029
 30
0.0
 10
106.4234781634983
 20
-155.020339587981
 30
0.0
 10
106.1864555941131
 20
-155.2701090106616
 30
0.0
 10
105.9411647955633
 20
-155.3696722701853
 30
0.0
 10
105.8354003641661
 20
-155.4117024351054
 30
0.0
 10
105.8354003641661
 20
-155.4117024351054
 30
0.0
 10
105.6407524692495
 20
-155.2298013934842
 30
0.0
 10
105.6407524692495
 20
-155.2298013934842
 30
0.0
 10
105.826787625453
 20
-155.1832926044333
 30
0.0
 10
106.1885226514043
 20
-155.0902750263316
 30
0.0
 10
106.4848008631357
 20
-154.5952148051012
 30
0.0
 10
106.6453423127484
 20
-154.3285644145428
 30
0.0
 10
106.6580891660438
 20
-154.1552761116348
 30
0.0
 10
106.6667019047569
 20
-154.0643255908242
 30
0.0
 10
106.6667019047569
 20
-154.0643255908242
 30
0.0
 10
106.1609618875222
 20
-154.0643255908242
 30
0.0
 10
106.1609618875222
 20
-154.0643255908242
 30
0.0
 10
106.0424506028297
 20
-154.0643255908242
 30
0.0
 10
105.6214599345321
 20
-154.0832736159931
 30
0.0
 10
105.4691867140841
 20
-154.0939534119973
 30
0.0
 10
105.4691867140841
 20
-154.0939534119973
 30
0.0
 10
105.4691867140841
 20
-153.8844916064941
 30
0.0
 10
105.4691867140841
 20
-153.8844916064941
 30
0.0
 10
105.6111246480764
 20
-153.8972384597895
 30
0.0
 10
105.8881103250905
 20
-153.9013725743719
 30
0.0
 10
106.0045545524919
 20
-153.9013725743719
 30
0.0
 10
106.0045545524919
 20
-153.9013725743719
 30
0.0
 10
106.3597438970212
 20
-153.9013725743719
 30
0.0
 10
106.3597438970212
 20
-153.9013725743719
 30
0.0
 10
106.3873046609032
 20
-153.9013725743719
 30
0.0
 10
106.5481906200643
 20
-153.8993055170807
 30
0.0
 10
106.6580891660438
 20
-153.8844916064941
 30
0.0
 10
106.7152777510989
 20
-153.8779459250722
 30
0.0
 10
106.7321587189767
 20
-153.8589978999033
 30
0.0
 10
106.7555853682764
 20
-153.8359157601521
 30
0.0
 10
106.7555853682764
 20
-153.8359157601521
 30
0.0
 10
106.943687581771
 20
-153.986121923309
 30
0.0
 10
106.943687581771
 20
-153.986121923309
 30
0.0
 10
106.9288736711844
 20
-154.0157497444821
 30
0.0
 10
106.9185383847287
 20
-154.034697769651
 30
0.0
 10
106.8823648821336
 20
-154.1046332080016
 30
0.0
  0
HATCH
  5
118
330
105
100
AcDbEntity
  8
レイヤー 1
 62
    18
420
        0
440
 33554687
100
AcDbHatch
 10
0.0
 20
0.0
 30
0.0
210
0.0
220
0.0
230
1.0
  2
SOLID
 70
     1
 71
     1
 91
        1
 92
        1
 93
        1
 72
     4
 94
        3
 73
     0
 74
     0
 95
       47
 96
       43
 40
0.0
 40
0.0
 40
0.0
 40
0.0
 40
1.0
 40
1.0
 40
1.0
 40
2.0
 40
2.0
 40
2.0
 40
3.0
 40
3.0
 40
3.0
 40
4.0
 40
4.0
 40
4.0
 40
5.0
 40
5.0
 40
5.0
 40
6.0
 40
6.0
 40
6.0
 40
7.0
 40
7.0
 40
7.0
 40
8.0
 40
8.0
 40
8.0
 40
9.0
 40
9.0
 40
9.0
 40
10.0
 40
10.0
 40
10.0
 40
11.0
 40
11.0
 40
11.0
 40
12.0
 40
12.0
 40
12.0
 40
13.0
 40
13.0
 40
13.0
 40
14.0
 40
14.0
 40
14.0
 40
14.0
 10
106.8823648821336
 20
-154.1046332080016
 10
106.812429443783
 20
-154.3836859423068
 10
106.736292833559
 20
-154.6882323832029
 10
106.4234781634983
 20
-155.020339587981
 10
106.1864555941131
 20
-155.2701090106616
 10
105.9411647955633
 20
-155.3696722701853
 10
105.8354003641661
 20
-155.4117024351054
 10
105.8354003641661
 20
-155.4117024351054
 10
105.6407524692495
 20
-155.2298013934842
 10
105.6407524692495
 20
-155.2298013934842
 10
105.826787625453
 20
-155.1832926044333
 10
106.1885226514043
 20
-155.0902750263316
 10
106.4848008631357
 20
-154.5952148051012
 10
106.6453423127484
 20
-154.3285644145428
 10
106.6580891660438
 20
-154.1552761116348
 10
106.6667019047569
 20
-154.0643255908242
 10
106.6667019047569
 20
-154.0643255908242
 10
106.1609618875222
 20
-154.0643255908242
 10
106.1609618875222
 20
-154.0643255908242
 10
106.0424506028297
 20
-154.0643255908242
 10
105.6214599345321
 20
-154.0832736159931
 10
105.4691867140841
 20
-154.0939534119973
 10
105.4691867140841
 20
-154.0939534119973
 10
105.4691867140841
 20
-153.8844916064941
 10
105.4691867140841
 20
-153.8844916064941
 10
105.6111246480764
 20
-153.8972384597895
 10
105.8881103250905
 20
-153.9013725743719
 10
106.0045545524919
 20
-153.9013725743719
 10
106.0045545524919
 20
-153.9013725743719
 10
106.3597438970212
 20
-153.9013725743719
 10
106.3597438970212
 20
-153.9013725743719
 10
106.3873046609032
 20
-153.9013725743719
 10
106.5481906200643
 20
-153.8993055170807
 10
106.6580891660438
 20
-153.8844916064941
 10
106.7152777510989
 20
-153.8779459250722
 10
106.7321587189767
 20
-153.8589978999033
 10
106.7555853682764
 20
-153.8359157601521
 10
106.7555853682764
 20
-153.8359157601521
 10
106.943687581771
 20
-153.986121923309
 10
106.943687581771
 20
-153.986121923309
 10
106.9288736711844
 20
-154.0157497444821
 10
106.9185383847287
 20
-154.034697769651
 10
106.8823648821336
 20
-154.1046332080016
 97
        0
 97
        1
330
117
 75
     2
 76
     1
 98
        1
 10
0.0
 20
0.0
450
        0
451
        0
460
0.0
461
0.0
452
        0
462
0.0
453
        0
470

  0
SPLINE
  5
119
330
105
100
AcDbEntity
  8
レイヤー 1
100
AcDbSpline
210
0.0
220
0.0
230
1.0
 70
    11
 71
     3
 72
    17
 73
    13
 74
     0
 42
0.0000000001
 43
0.0000000001
 40
0.0
 40
0.0
 40
0.0
 40
0.0
 40
1.0
 40
1.0
 40
1.0
 40
2.0
 40
2.0
 40
2.0
 40
3.0
 40
3.0
 40
3.0
 40
4.0
 40
4.0
 40
4.0
 40
4.0
 10
107.2726942006124
 20
-153.8865586637853
 30
0.0
 10
107.2726942006124
 20
-153.9458143061316
 30
0.0
 10
107.3192029896632
 20
-153.9923230951825
 30
0.0
 10
107.3784586320095
 20
-153.9923230951825
 30
0.0
 10
107.4377142743558
 20
-153.9923230951825
 30
0.0
 10
107.4862901206979
 20
-153.9458143061316
 30
0.0
 10
107.4862901206979
 20
-153.8865586637853
 30
0.0
 10
107.4862901206979
 20
-153.827303021439
 30
0.0
 10
107.4377142743558
 20
-153.778727175097
 30
0.0
 10
107.3784586320095
 20
-153.778727175097
 30
0.0
 10
107.3192029896632
 20
-153.778727175097
 30
0.0
 10
107.2726942006124
 20
-153.827303021439
 30
0.0
 10
107.2726942006124
 20
-153.8865586637853
 30
0.0
  0
SPLINE
  5
11A
330
105
100
AcDbEntity
  8
レイヤー 1
100
AcDbSpline
210
0.0
220
0.0
230
1.0
 70
     9
 71
     3
 72
    17
 73
    13
 74
     0
 42
0.0000000001
 43
0.0000000001
 40
0.0
 40
0.0
 40
0.0
 40
0.0
 40
1.0
 40
1.0
 40
1.0
 40
2.0
 40
2.0
 40
2.0
 40
3.0
 40
3.0
 40
3.0
 40
4.0
 40
4.0
 40
4.0
 40
4.0
 10
107.5879204375127
 20
-153.8865586637853
 30
0.0
 10
107.5879204375127
 20
-154.0009358338956
 30
0.0
 10
107.494902859411
 20
-154.0960204692885
 30
0.0
 10
107.3784586320095
 20
-154.0960204692885
 30
0.0
 10
107.2640814618992
 20
-154.0960204692885
 30
0.0
 10
107.1689968265064
 20
-154.0009358338956
 30
0.0
 10
107.1689968265064
 20
-153.8865586637853
 30
0.0
 10
107.1689968265064
 20
-153.7701144363838
 30
0.0
 10
107.2640814618992
 20
-153.6770968582821
 30
0.0
 10
107.3784586320095
 20
-153.6770968582821
 30
0.0
 10
107.4928358021198
 20
-153.6770968582821
 30
0.0
 10
107.5879204375127
 20
-153.7701144363838
 30
0.0
 10
107.5879204375127
 20
-153.8865586637853
 30
0.0
  0
HATCH
  5
11B
330
105
100
AcDbEntity
  8
レイヤー 1
 62
    18
420
        0
440
 33554687
100
AcDbHatch
 10
0.0
 20
0.0
 30
0.0
210
0.0
220
0.0
230
1.0
  2
SOLID
 70
     1
 71
     1
 91
        2
 92
        1
 93
        1
 72
     4
 94
        3
 73
     0
 74
     0
 95
       17
 96
       13
 40
0.0
 40
0.0
 40
0.0
 40
0.0
 40
1.0
 40
1.0
 40
1.0
 40
2.0
 40
2.0
 40
2.0
 40
3.0
 40
3.0
 40
3.0
 40
4.0
 40
4.0
 40
4.0
 40
4.0
 10
107.2726942006124
 20
-153.8865586637853
 10
107.2726942006124
 20
-153.9458143061316
 10
107.3192029896632
 20
-153.9923230951825
 10
107.3784586320095
 20
-153.9923230951825
 10
107.4377142743558
 20
-153.9923230951825
 10
107.4862901206979
 20
-153.9458143061316
 10
107.4862901206979
 20
-153.8865586637853
 10
107.4862901206979
 20
-153.827303021439
 10
107.4377142743558
 20
-153.778727175097
 10
107.3784586320095
 20
-153.778727175097
 10
107.3192029896632
 20
-153.778727175097
 10
107.2726942006124
 20
-153.827303021439
 10
107.2726942006124
 20
-153.8865586637853
 97
        0
 97
        1
330
119
 92
        1
 93
        1
 72
     4
 94
        3
 73
     0
 74
     0
 95
       17
 96
       13
 40
0.0
 40
0.0
 40
0.0
 40
0.0
 40
1.0
 40
1.0
 40
1.0
 40
2.0
 40
2.0
 40
2.0
 40
3.0
 40
3.0
 40
3.0
 40
4.0
 40
4.0
 40
4.0
 40
4.0
 10
107.5879204375127
 20
-153.8865586637853
 10
107.5879204375127
 20
-154.0009358338956
 10
107.494902859411
 20
-154.0960204692885
 10
107.3784586320095
 20
-154.0960204692885
 10
107.2640814618992
 20
-154.0960204692885
 10
107.1689968265064
 20
-154.0009358338956
 10
107.1689968265064
 20
-153.8865586637853
 10
107.1689968265064
 20
-153.7701144363838
 10
107.2640814618992
 20
-153.6770968582821
 10
107.3784586320095
 20
-153.6770968582821
 10
107.4928358021198
 20
-153.6770968582821
 10
107.5879204375127
 20
-153.7701144363838
 10
107.5879204375127
 20
-153.8865586637853
 97
        0
 97
        1
330
11A
 75
     2
 76
     1
 98
        1
 10
0.0
 20
0.0
450
        0
451
        0
460
0.0
461
0.0
452
        0
462
0.0
453
        0
470

  0
ENDBLK
  5
108
330
105
100
AcDbEntity
  8
0
100
AcDbBlockEnd
  0
ENDSEC
  0
SECTION
  2
ENTITIES
  0
LINE
  5
79
330
70
100
AcDbEntity
  8
レイヤー 1
  6
AI-Linetype-0
 62
   154
420
    23468
370
    25
100
AcDbLine
 10
95.52450841252172
 20
-147.9352656655069
 30
0.0
 11
105.5242412129631
 21
-147.9352656655069
 31
0.0
  0
LINE
  5
7B
330
70
100
AcDbEntity
  8
レイヤー 1
 62
   250
420
  2299925
370
    25
100
AcDbLine
 10
119.5847311102693
 20
-152.1448088047804
 30
0.0
 11
115.5250323467106
 21
-152.1448088047804
 31
0.0
  0
LINE
  5
7C
330
70
100
AcDbEntity
  8
レイヤー 1
 62
   250
420
  2299925
370
    25
100
AcDbLine
 10
95.52450841252172
 20
-146.6447339991626
 30
0.0
 11
95.52450841252172
 21
-147.1449728879264
 31
0.0
  0
LINE
  5
7D
330
70
100
AcDbEntity
  8
レイヤー 1
 62
   250
420
  2299925
370
    25
100
AcDbLine
 10
115.5250323467106
 20
-147.1449728879264
 30
0.0
 11
95.52450841252172
 21
-147.1449728879264
 31
0.0
  0
LINE
  5
7E
330
70
100
AcDbEntity
  8
レイヤー 1
 62
   250
420
  2299925
370
    25
100
AcDbLine
 10
95.52450841252172
 20
-146.6447339991626
 30
0.0
 11
96.0381881216389
 21
-147.0267923324007
 31
0.0
  0
LINE
  5
7F
330
70
100
AcDbEntity
  8
レイヤー 1
 62
   250
420
  2299925
370
    25
100
AcDbLine
 10
96.0381881216389
 20
-147.0267923324007
 30
0.0
 11
96.52361033147697
 21
-146.6092445547275
 31
0.0
  0
LINE
  5
80
330
70
100
AcDbEntity
  8
レイヤー 1
 62
   250
420
  2299925
370
    25
100
AcDbLine
 10
97.03760754058635
 20
-146.9913028879645
 30
0.0
 11
97.52302975042409
 21
-146.5734023325142
 31
0.0
  0
LINE
  5
81
330
70
100
AcDbEntity
  8
レイヤー 1
 62
   250
420
  2299925
370
    25
100
AcDbLine
 10
96.52361033147697
 20
-146.6092445547275
 30
0.0
 11
97.03760754058635
 21
-146.9913028879645
 31
0.0
  0
LINE
  5
82
330
70
100
AcDbEntity
  8
レイヤー 1
 62
   250
420
  2299925
370
    25
100
AcDbLine
 10
97.52302975042409
 20
-146.5734023325142
 30
0.0
 11
98.03702695953315
 21
-146.9554959435294
 31
0.0
  0
LINE
  5
83
330
70
100
AcDbEntity
  8
レイヤー 1
 62
   250
420
  2299925
370
    25
100
AcDbLine
 10
98.03702695953315
 20
-146.9554959435294
 30
0.0
 11
98.52244916937124
 21
-146.5379481658563
 31
0.0
  0
LINE
  5
84
330
70
100
AcDbEntity
  8
レイヤー 1
 62
   250
420
  2299925
370
    25
100
AcDbLine
 10
98.52244916937124
 20
-146.5379481658563
 30
0.0
 11
99.0364463784803
 21
-146.9196537213162
 31
0.0
  0
LINE
  5
85
330
70
100
AcDbEntity
  8
レイヤー 1
 62
   250
420
  2299925
370
    25
100
AcDbLine
 10
99.0364463784803
 20
-146.9196537213162
 30
0.0
 11
99.52151581054957
 21
-146.502105943643
 31
0.0
  0
LINE
  5
86
330
70
100
AcDbEntity
  8
レイヤー 1
 62
   250
420
  2299925
370
    25
100
AcDbLine
 10
99.52151581054957
 20
-146.502105943643
 30
0.0
 11
100.0355130196586
 21
-146.8838114991029
 31
0.0
  0
LINE
  5
87
330
70
100
AcDbEntity
  8
レイヤー 1
 62
   250
420
  2299925
370
    25
100
AcDbLine
 10
100.0355130196586
 20
-146.8838114991029
 30
0.0
 11
100.5212880072654
 21
-146.4662637214295
 31
0.0
  0
LINE
  5
88
330
70
100
AcDbEntity
  8
レイヤー 1
 62
   250
420
  2299925
370
    25
100
AcDbLine
 10
100.5212880072654
 20
-146.4662637214295
 30
0.0
 11
101.0352852163745
 21
-146.8483220546675
 31
0.0
  0
LINE
  5
89
330
70
100
AcDbEntity
  8
レイヤー 1
 62
   250
420
  2299925
370
    25
100
AcDbLine
 10
101.0352852163745
 20
-146.8483220546675
 30
0.0
 11
101.5203546484438
 21
-146.430774276994
 31
0.0
  0
LINE
  5
8A
330
70
100
AcDbEntity
  8
レイヤー 1
 62
   250
420
  2299925
370
    25
100
AcDbLine
 10
101.5203546484438
 20
-146.430774276994
 30
0.0
 11
102.0343894479903
 21
-146.8128678880095
 31
0.0
  0
LINE
  5
8B
330
70
100
AcDbEntity
  8
レイヤー 1
 62
   250
420
  2299925
370
    25
100
AcDbLine
 10
102.0343894479903
 20
-146.8128678880095
 30
0.0
 11
102.5197740673909
 21
-146.3949673325582
 31
0.0
  0
LINE
  5
8C
330
70
100
AcDbEntity
  8
レイヤー 1
 62
   250
420
  2299925
370
    25
100
AcDbLine
 10
103.0338088921844
 20
-146.7770256657962
 30
0.0
 11
103.5191934863384
 21
-146.3594778881228
 31
0.0
  0
LINE
  5
8D
330
70
100
AcDbEntity
  8
レイヤー 1
 62
   250
420
  2299925
370
    25
100
AcDbLine
 10
102.5197740673909
 20
-146.3949673325582
 30
0.0
 11
103.0338088921844
 21
-146.7770256657962
 31
0.0
  0
LINE
  5
8E
330
70
100
AcDbEntity
  8
レイヤー 1
 62
   250
420
  2299925
370
    25
100
AcDbLine
 10
103.5191934863384
 20
-146.3594778881228
 30
0.0
 11
104.0332283363789
 21
-146.741183443583
 31
0.0
  0
LINE
  5
8F
330
70
100
AcDbEntity
  8
レイヤー 1
 62
   250
420
  2299925
370
    25
100
AcDbLine
 10
104.0332283363789
 20
-146.741183443583
 30
0.0
 11
104.5186129052852
 21
-146.3236356659095
 31
0.0
  0
LINE
  5
90
330
70
100
AcDbEntity
  8
レイヤー 1
 62
   250
420
  2299925
370
    25
100
AcDbLine
 10
105.0322950027959
 20
-146.7053764991473
 30
0.0
 11
105.5180700026749
 21
-146.2878287214738
 31
0.0
  0
LINE
  5
91
330
70
100
AcDbEntity
  8
レイヤー 1
 62
   250
420
  2299925
370
    25
100
AcDbLine
 10
104.5186129052852
 20
-146.3236356659095
 30
0.0
 11
105.0322950027959
 21
-146.7053764991473
 31
0.0
  0
LINE
  5
92
330
70
100
AcDbEntity
  8
レイヤー 1
 62
   250
420
  2299925
370
    25
100
AcDbLine
 10
106.0320672247681
 20
-146.6698870547118
 30
0.0
 11
106.5171366690913
 21
-146.2523392770386
 31
0.0
  0
LINE
  5
93
330
70
100
AcDbEntity
  8
レイヤー 1
 62
   250
420
  2299925
370
    25
100
AcDbLine
 10
105.5180700026749
 20
-146.2878287214738
 30
0.0
 11
106.0320672247681
 21
-146.6698870547118
 31
0.0
  0
LINE
  5
94
330
70
100
AcDbEntity
  8
レイヤー 1
 62
   250
420
  2299925
370
    25
100
AcDbLine
 10
106.5171366690913
 20
-146.2523392770386
 30
0.0
 11
107.0311338911852
 21
-146.6343976102766
 31
0.0
  0
LINE
  5
95
330
70
100
AcDbEntity
  8
レイヤー 1
 62
   250
420
  2299925
370
    25
100
AcDbLine
 10
107.0311338911852
 20
-146.6343976102766
 30
0.0
 11
107.5169088910632
 21
-146.216497054825
 31
0.0
  0
LINE
  5
96
330
70
100
AcDbEntity
  8
レイヤー 1
 62
   250
420
  2299925
370
    25
100
AcDbLine
 10
107.5169088910632
 20
-146.216497054825
 30
0.0
 11
108.0309061131577
 21
-146.598555388063
 31
0.0
  0
LINE
  5
97
330
70
100
AcDbEntity
  8
レイヤー 1
 62
   250
420
  2299925
370
    25
100
AcDbLine
 10
108.0309061131577
 20
-146.598555388063
 30
0.0
 11
108.5159755574809
 21
-146.1810076103895
 31
0.0
  0
LINE
  5
98
330
70
100
AcDbEntity
  8
レイヤー 1
 62
   250
420
  2299925
370
    25
100
AcDbLine
 10
108.5159755574809
 20
-146.1810076103895
 30
0.0
 11
109.0299727795741
 21
-146.562748443627
 31
0.0
  0
LINE
  5
99
330
70
100
AcDbEntity
  8
レイヤー 1
 62
   250
420
  2299925
370
    25
100
AcDbLine
 10
109.0299727795741
 20
-146.562748443627
 30
0.0
 11
109.5157477794528
 21
-146.1452006659538
 31
0.0
  0
LINE
  5
9A
330
70
100
AcDbEntity
  8
レイヤー 1
 62
   250
420
  2299925
370
    25
100
AcDbLine
 10
109.5157477794528
 20
-146.1452006659538
 30
0.0
 11
110.0297450015466
 21
-146.5269062214144
 31
0.0
  0
LINE
  5
9B
330
70
100
AcDbEntity
  8
レイヤー 1
 62
   250
420
  2299925
370
    25
100
AcDbLine
 10
110.0297450015466
 20
-146.5269062214144
 30
0.0
 11
110.514461668092
 21
-146.1093584437406
 31
0.0
  0
LINE
  5
9C
330
70
100
AcDbEntity
  8
レイヤー 1
 62
   250
420
  2299925
370
    25
100
AcDbLine
 10
110.514461668092
 20
-146.1093584437406
 30
0.0
 11
111.0284916280936
 21
-146.4914167769786
 31
0.0
  0
LINE
  5
9D
330
70
100
AcDbEntity
  8
レイヤー 1
 62
   250
420
  2299925
370
    25
100
AcDbLine
 10
111.0284916280936
 20
-146.4914167769786
 30
0.0
 11
111.5135610601629
 21
-146.0738689993048
 31
0.0
  0
LINE
  5
9E
330
70
100
AcDbEntity
  8
レイヤー 1
 62
   250
420
  2299925
370
    25
100
AcDbLine
 10
111.5135610601629
 20
-146.0738689993048
 30
0.0
 11
112.0275582692719
 21
-146.4559273325431
 31
0.0
  0
LINE
  5
9F
330
70
100
AcDbEntity
  8
レイヤー 1
 62
   250
420
  2299925
370
    25
100
AcDbLine
 10
112.0275582692719
 20
-146.4559273325431
 30
0.0
 11
112.5133332568788
 21
-146.03806205487
 31
0.0
  0
LINE
  5
A0
330
70
100
AcDbEntity
  8
レイヤー 1
 62
   250
420
  2299925
370
    25
100
AcDbLine
 10
112.5133332568788
 20
-146.03806205487
 30
0.0
 11
113.0273304659878
 21
-146.4201203881074
 31
0.0
  0
LINE
  5
A1
330
70
100
AcDbEntity
  8
レイヤー 1
 62
   250
420
  2299925
370
    25
100
AcDbLine
 10
113.0273304659878
 20
-146.4201203881074
 30
0.0
 11
113.5123998980571
 21
-146.0025726104345
 31
0.0
  0
LINE
  5
A2
330
70
100
AcDbEntity
  8
レイヤー 1
 62
   250
420
  2299925
370
    25
100
AcDbLine
 10
113.5123998980571
 20
-146.0025726104345
 30
0.0
 11
114.0263971071662
 21
-146.3842781658941
 31
0.0
  0
LINE
  5
A3
330
70
100
AcDbEntity
  8
レイヤー 1
 62
   250
420
  2299925
370
    25
100
AcDbLine
 10
114.0263971071662
 20
-146.3842781658941
 30
0.0
 11
114.5114665392355
 21
-145.9667303882209
 31
0.0
  0
LINE
  5
A4
330
70
100
AcDbEntity
  8
レイヤー 1
 62
   250
420
  2299925
370
    25
100
AcDbLine
 10
114.5114665392355
 20
-145.9667303882209
 30
0.0
 11
115.0254637483445
 21
-146.3484712214594
 31
0.0
  0
LINE
  5
A5
330
70
100
AcDbEntity
  8
レイヤー 1
 62
   250
420
  2299925
370
    25
100
AcDbLine
 10
115.0254637483445
 20
-146.3484712214594
 30
0.0
 11
115.5112387359514
 21
-145.9309234437855
 31
0.0
  0
LINE
  5
A6
330
70
100
AcDbEntity
  8
レイヤー 1
 62
   250
420
  2299925
370
    25
100
AcDbLine
 10
115.5852359451707
 20
-145.8826634437975
 30
0.0
 11
116.5254748211872
 21
-145.8826634437975
 31
0.0
  0
LINE
  5
A7
330
70
100
AcDbEntity
  8
レイヤー 1
 62
   250
420
  2299925
370
    25
100
AcDbLine
 10
116.5254748211872
 20
-145.8826635285685
 30
0.0
 11
116.5254748211872
 21
-151.144719082809
 31
0.0
  0
LINE
  5
A8
330
70
100
AcDbEntity
  8
レイヤー 1
 62
   250
420
  2299925
370
    25
100
AcDbLine
 10
115.5250323467106
 20
-147.1449729726974
 30
0.0
 11
115.5250323467106
 21
-152.1448088047804
 31
0.0
  0
LINE
  5
A9
330
70
100
AcDbEntity
  8
レイヤー 1
 62
   250
420
  2299925
370
    25
100
AcDbLine
 10
119.525464443617
 20
-151.144719082809
 30
0.0
 11
116.5254748211872
 21
-151.144719082809
 31
0.0
  0
SPLINE
  5
AA
330
70
100
AcDbEntity
  8
レイヤー 1
 62
   250
420
  2299925
370
     9
100
AcDbSpline
210
0.0
220
0.0
230
1.0
 70
     9
 71
     3
 72
    17
 73
    13
 74
     0
 42
0.0000000001
 43
0.0000000001
 40
0.0
 40
0.0
 40
0.0
 40
0.0
 40
1.0
 40
1.0
 40
1.0
 40
2.0
 40
2.0
 40
2.0
 40
3.0
 40
3.0
 40
3.0
 40
4.0
 40
4.0
 40
4.0
 40
4.0
 10
95.62441722737059
 20
-141.8829042781309
 30
0.0
 10
95.62441722737059
 20
-141.827447611478
 30
0.0
 10
95.57964757778169
 20
-141.7826801114894
 30
0.0
 10
95.52450841252172
 20
-141.7826801114894
 30
0.0
 10
95.46905174727021
 20
-141.7826801114894
 30
0.0
 10
95.42424897063511
 20
-141.827447611478
 30
0.0
 10
95.42424897063511
 20
-141.8829042781309
 30
0.0
 10
95.42424897063511
 20
-141.938043444784
 30
0.0
 10
95.46905174727021
 20
-141.9828462225508
 30
0.0
 10
95.52450841252172
 20
-141.9828462225508
 30
0.0
 10
95.57964757778169
 20
-141.9828462225508
 30
0.0
 10
95.62441722737059
 20
-141.938043444784
 30
0.0
 10
95.62441722737059
 20
-141.8829042781309
 30
0.0
  0
SPLINE
  5
AB
330
70
100
AcDbEntity
  8
レイヤー 1
 62
   250
420
  2299925
370
     9
100
AcDbSpline
210
0.0
220
0.0
230
1.0
 70
     9
 71
     3
 72
    17
 73
    13
 74
     0
 42
0.0000000001
 43
0.0000000001
 40
0.0
 40
0.0
 40
0.0
 40
0.0
 40
1.0
 40
1.0
 40
1.0
 40
2.0
 40
2.0
 40
2.0
 40
3.0
 40
3.0
 40
3.0
 40
4.0
 40
4.0
 40
4.0
 40
4.0
 10
93.39475374463408
 20
-146.6447339991626
 30
0.0
 10
93.39475374463408
 20
-146.5895948325096
 30
0.0
 10
93.3499862457762
 20
-146.544827332521
 30
0.0
 10
93.29449430274747
 20
-146.544827332521
 30
0.0
 10
93.2393904152644
 20
-146.544827332521
 30
0.0
 10
93.19458763862963
 20
-146.5895948325096
 30
0.0
 10
93.19458763862963
 20
-146.6447339991626
 30
0.0
 10
93.19458763862963
 20
-146.6998378880376
 30
0.0
 10
93.2393904152644
 20
-146.7446406658046
 30
0.0
 10
93.29449430274747
 20
-146.7446406658046
 30
0.0
 10
93.3499862457762
 20
-146.7446406658046
 30
0.0
 10
93.39475374463408
 20
-146.6998378880376
 30
0.0
 10
93.39475374463408
 20
-146.6447339991626
 30
0.0
  0
SPLINE
  5
AC
330
70
100
AcDbEntity
  8
レイヤー 1
 62
   250
420
  2299925
370
     9
100
AcDbSpline
210
0.0
220
0.0
230
1.0
 70
     9
 71
     3
 72
    17
 73
    13
 74
     0
 42
0.0000000001
 43
0.0000000001
 40
0.0
 40
0.0
 40
0.0
 40
0.0
 40
1.0
 40
1.0
 40
1.0
 40
2.0
 40
2.0
 40
2.0
 40
3.0
 40
3.0
 40
3.0
 40
4.0
 40
4.0
 40
4.0
 40
4.0
 10
93.39475374463408
 20
-147.1449728879264
 30
0.0
 10
93.39475374463408
 20
-147.0898337212733
 30
0.0
 10
93.3499862457762
 20
-147.045066221285
 30
0.0
 10
93.29449430274747
 20
-147.045066221285
 30
0.0
 10
93.2393904152644
 20
-147.045066221285
 30
0.0
 10
93.19458763862963
 20
-147.0898337212733
 30
0.0
 10
93.19458763862963
 20
-147.1449728879264
 30
0.0
 10
93.19458763862963
 20
-147.2000767768013
 30
0.0
 10
93.2393904152644
 20
-147.244879554568
 30
0.0
 10
93.29449430274747
 20
-147.244879554568
 30
0.0
 10
93.3499862457762
 20
-147.244879554568
 30
0.0
 10
93.39475374463408
 20
-147.2000767768013
 30
0.0
 10
93.39475374463408
 20
-147.1449728879264
 30
0.0
  0
SPLINE
  5
AD
330
70
100
AcDbEntity
  8
レイヤー 1
 62
   250
420
  2299925
370
     9
100
AcDbSpline
210
0.0
220
0.0
230
1.0
 70
     9
 71
     3
 72
    17
 73
    13
 74
     0
 42
0.0000000001
 43
0.0000000001
 40
0.0
 40
0.0
 40
0.0
 40
0.0
 40
1.0
 40
1.0
 40
1.0
 40
2.0
 40
2.0
 40
2.0
 40
3.0
 40
3.0
 40
3.0
 40
4.0
 40
4.0
 40
4.0
 40
4.0
 10
93.39475374463408
 20
-152.1448088047804
 30
0.0
 10
93.39475374463408
 20
-152.0897049159062
 30
0.0
 10
93.3499862457762
 20
-152.0449021381395
 30
0.0
 10
93.29449430274747
 20
-152.0449021381395
 30
0.0
 10
93.2393904152644
 20
-152.0449021381395
 30
0.0
 10
93.19458763862963
 20
-152.0897049159062
 30
0.0
 10
93.19458763862963
 20
-152.1448088047804
 30
0.0
 10
93.19458763862963
 20
-152.1999479714342
 30
0.0
 10
93.2393904152644
 20
-152.2447154714227
 30
0.0
 10
93.29449430274747
 20
-152.2447154714227
 30
0.0
 10
93.3499862457762
 20
-152.2447154714227
 30
0.0
 10
93.39475374463408
 20
-152.1999479714342
 30
0.0
 10
93.39475374463408
 20
-152.1448088047804
 30
0.0
  0
SPLINE
  5
AE
330
70
100
AcDbEntity
  8
レイヤー 1
 62
   250
420
  2299925
370
     9
100
AcDbSpline
210
0.0
220
0.0
230
1.0
 70
     9
 71
     3
 72
    17
 73
    13
 74
     0
 42
0.0000000001
 43
0.0000000001
 40
0.0
 40
0.0
 40
0.0
 40
0.0
 40
1.0
 40
1.0
 40
1.0
 40
2.0
 40
2.0
 40
2.0
 40
3.0
 40
3.0
 40
3.0
 40
4.0
 40
4.0
 40
4.0
 40
4.0
 10
116.625381485305
 20
-141.8829042781309
 30
0.0
 10
116.625381485305
 20
-141.827447611478
 30
0.0
 10
116.5806139864471
 20
-141.7826801114894
 30
0.0
 10
116.5254748211872
 20
-141.7826801114894
 30
0.0
 10
116.4696653781666
 20
-141.7826801114894
 30
0.0
 10
116.4248626015318
 20
-141.827447611478
 30
0.0
 10
116.4248626015318
 20
-141.8829042781309
 30
0.0
 10
116.4248626015318
 20
-141.938043444784
 30
0.0
 10
116.4696653781666
 20
-141.9828462225508
 30
0.0
 10
116.5254748211872
 20
-141.9828462225508
 30
0.0
 10
116.5806139864471
 20
-141.9828462225508
 30
0.0
 10
116.625381485305
 20
-141.938043444784
 30
0.0
 10
116.625381485305
 20
-141.8829042781309
 30
0.0
  0
SPLINE
  5
AF
330
70
100
AcDbEntity
  8
レイヤー 1
 62
   250
420
  2299925
370
     9
100
AcDbSpline
210
0.0
220
0.0
230
1.0
 70
     9
 71
     3
 72
    17
 73
    13
 74
     0
 42
0.0000000001
 43
0.0000000001
 40
0.0
 40
0.0
 40
0.0
 40
0.0
 40
1.0
 40
1.0
 40
1.0
 40
2.0
 40
2.0
 40
2.0
 40
3.0
 40
3.0
 40
3.0
 40
4.0
 40
4.0
 40
4.0
 40
4.0
 10
119.6432922213649
 20
-141.8829042781309
 30
0.0
 10
119.6432922213649
 20
-141.827447611478
 30
0.0
 10
119.5984894435994
 20
-141.7826801114894
 30
0.0
 10
119.5433827997495
 20
-141.7826801114894
 30
0.0
 10
119.4882436344895
 20
-141.7826801114894
 30
0.0
 10
119.4434761356317
 20
-141.827447611478
 30
0.0
 10
119.4434761356317
 20
-141.8829042781309
 30
0.0
 10
119.4434761356317
 20
-141.938043444784
 30
0.0
 10
119.4882436344895
 20
-141.9828462225508
 30
0.0
 10
119.5433827997495
 20
-141.9828462225508
 30
0.0
 10
119.5984894435994
 20
-141.9828462225508
 30
0.0
 10
119.6432922213649
 20
-141.938043444784
 30
0.0
 10
119.6432922213649
 20
-141.8829042781309
 30
0.0
  0
LINE
  5
B0
330
70
100
AcDbEntity
  8
レイヤー 1
 62
   250
420
  2299925
370
     9
100
AcDbLine
 10
93.29449430274747
 20
-146.6447339991626
 30
0.0
 11
93.29449430274747
 21
-141.3871809449215
 31
0.0
  0
LINE
  5
B1
330
70
100
AcDbEntity
  8
レイヤー 1
 62
   250
420
  2299925
370
     9
100
AcDbLine
 10
93.29449430274747
 20
-146.6447339991626
 30
0.0
 11
93.29449430274747
 21
-147.1449728879264
 31
0.0
  0
LINE
  5
B2
330
70
100
AcDbEntity
  8
レイヤー 1
 62
   250
420
  2299925
370
     9
100
AcDbLine
 10
94.7545356543876
 20
-146.6447339991626
 30
0.0
 11
92.29475738380843
 21
-146.6447339991626
 31
0.0
  0
LINE
  5
B3
330
70
100
AcDbEntity
  8
レイヤー 1
 62
   250
420
  2299925
370
     9
100
AcDbLine
 10
94.7545356543876
 20
-147.1449728879264
 30
0.0
 11
92.29475738380843
 21
-147.1449728879264
 31
0.0
  0
INSERT
  5
B5
330
70
100
AcDbEntity
  8
レイヤー 1
100
AcDbBlockReference
  2
Block_0
 10
0.0
 20
0.0
 30
0.0
  0
LINE
  5
C3
330
70
100
AcDbEntity
  8
レイヤー 1
 62
   250
420
  2299925
370
     9
100
AcDbLine
 10
95.52450841252172
 20
-141.8829042781309
 30
0.0
 11
116.5254748211872
 21
-141.8829042781309
 31
0.0
  0
LINE
  5
C4
330
70
100
AcDbEntity
  8
レイヤー 1
 62
   250
420
  2299925
370
     9
100
AcDbLine
 10
95.52450841252172
 20
-144.1050162220195
 30
0.0
 11
95.52450841252172
 21
-140.8828145561585
 31
0.0
  0
INSERT
  5
C6
330
70
100
AcDbEntity
  8
レイヤー 1
100
AcDbBlockReference
  2
Block_2
 10
0.0
 20
0.0
 30
0.0
  0
LINE
  5
D1
330
70
100
AcDbEntity
  8
レイヤー 1
 62
   250
420
  2299925
370
     9
100
AcDbLine
 10
93.29449430274747
 20
-147.1449729726974
 30
0.0
 11
93.29449430274747
 21
-152.1448088047804
 31
0.0
  0
LINE
  5
D2
330
70
100
AcDbEntity
  8
レイヤー 1
 62
   250
420
  2299925
370
     9
100
AcDbLine
 10
114.7560826441059
 20
-152.1448088047804
 30
0.0
 11
92.29475738380843
 21
-152.1448088047804
 31
0.0
  0
INSERT
  5
D4
330
70
100
AcDbEntity
  8
レイヤー 1
100
AcDbBlockReference
  2
Block_4
 10
0.0
 20
0.0
 30
0.0
  0
LINE
  5
D9
330
70
100
AcDbEntity
  8
レイヤー 1
 62
   250
420
  2299925
370
     9
100
AcDbLine
 10
119.5433827997495
 20
-150.5700793607305
 30
0.0
 11
119.5433827997495
 21
-140.8828146409298
 31
0.0
  0
LINE
  5
DA
330
70
100
AcDbEntity
  8
レイヤー 1
 62
   250
420
  2299925
370
     9
100
AcDbLine
 10
116.5254748211872
 20
-141.8829042781309
 30
0.0
 11
119.525464443617
 21
-141.8829042781309
 31
0.0
  0
LINE
  5
DB
330
70
100
AcDbEntity
  8
レイヤー 1
 62
   250
420
  2299925
370
     9
100
AcDbLine
 10
116.5254748211872
 20
-143.342945666654
 30
0.0
 11
116.5254748211872
 21
-140.8828145561585
 31
0.0
  0
INSERT
  5
DD
330
70
100
AcDbEntity
  8
レイヤー 1
100
AcDbBlockReference
  2
Block_5
 10
0.0
 20
0.0
 30
0.0
  0
SPLINE
  5
E2
330
70
100
AcDbEntity
  8
レイヤー 1
 62
   250
420
  2299925
370
     9
100
AcDbSpline
210
0.0
220
0.0
230
1.0
 70
     9
 71
     3
 72
    17
 73
    13
 74
     0
 42
0.0000000001
 43
0.0000000001
 40
0.0
 40
0.0
 40
0.0
 40
0.0
 40
1.0
 40
1.0
 40
1.0
 40
2.0
 40
2.0
 40
2.0
 40
3.0
 40
3.0
 40
3.0
 40
4.0
 40
4.0
 40
4.0
 40
4.0
 10
115.8385106720464
 20
-156.2582682481973
 30
0.0
 10
115.8385106720464
 20
-156.2031290815436
 30
0.0
 10
115.7551492852843
 20
-156.158361581555
 30
0.0
 10
115.65249095457
 20
-156.158361581555
 30
0.0
 10
115.5512084571539
 20
-156.158361581555
 30
0.0
 10
115.4678470703917
 20
-156.2031290815436
 30
0.0
 10
115.4678470703917
 20
-156.2582682481973
 30
0.0
 10
115.4678470703917
 20
-156.3133721370716
 30
0.0
 10
115.5512084571539
 20
-156.3581749148383
 30
0.0
 10
115.65249095457
 20
-156.3581749148383
 30
0.0
 10
115.7551492852843
 20
-156.3581749148383
 30
0.0
 10
115.8385106720464
 20
-156.3133721370716
 30
0.0
 10
115.8385106720464
 20
-156.2582682481973
 30
0.0
  0
SPLINE
  5
E3
330
70
100
AcDbEntity
  8
レイヤー 1
 62
   250
420
  2299925
370
     9
100
AcDbSpline
210
0.0
220
0.0
230
1.0
 70
     9
 71
     3
 72
    17
 73
    13
 74
     0
 42
0.0000000001
 43
0.0000000001
 40
0.0
 40
0.0
 40
0.0
 40
0.0
 40
1.0
 40
1.0
 40
1.0
 40
2.0
 40
2.0
 40
2.0
 40
3.0
 40
3.0
 40
3.0
 40
4.0
 40
4.0
 40
4.0
 40
4.0
 10
119.9454083450485
 20
-156.2582682481973
 30
0.0
 10
119.9454083450485
 20
-156.2031290815436
 30
0.0
 10
119.8620469582864
 20
-156.158361581555
 30
0.0
 10
119.7607672213363
 20
-156.158361581555
 30
0.0
 10
119.6567302968578
 20
-156.158361581555
 30
0.0
 10
119.5750622433857
 20
-156.2031290815436
 30
0.0
 10
119.5750622433857
 20
-156.2582682481973
 30
0.0
 10
119.5750622433857
 20
-156.3133721370716
 30
0.0
 10
119.6567302968578
 20
-156.3581749148383
 30
0.0
 10
119.7607672213363
 20
-156.3581749148383
 30
0.0
 10
119.8620469582864
 20
-156.3581749148383
 30
0.0
 10
119.9454083450485
 20
-156.3133721370716
 30
0.0
 10
119.9454083450485
 20
-156.2582682481973
 30
0.0
  0
LINE
  5
E4
330
70
100
AcDbEntity
  8
レイヤー 1
 62
   250
420
  2299925
370
     9
100
AcDbLine
 10
119.6518972414255
 20
-156.2582682481973
 30
0.0
 11
115.65249095457
 21
-156.2582682481973
 31
0.0
  0
LINE
  5
E5
330
70
100
AcDbEntity
  8
レイヤー 1
 62
   250
420
  2299925
370
     9
100
AcDbLine
 10
119.7607672213363
 20
-154.7982268596735
 30
0.0
 11
119.7607672213363
 21
-157.2583579701688
 31
0.0
  0
LINE
  5
E6
330
70
100
AcDbEntity
  8
レイヤー 1
 62
   250
420
  2299925
370
     9
100
AcDbLine
 10
115.65249095457
 20
-154.7982268596735
 30
0.0
 11
115.65249095457
 21
-157.2583579701688
 31
0.0
  0
INSERT
  5
E8
330
70
100
AcDbEntity
  8
レイヤー 1
100
AcDbBlockReference
  2
Block_6
 10
0.0
 20
0.0
 30
0.0
  0
LINE
  5
EE
330
70
100
AcDbEntity
  8
レイヤー 1
 62
   250
420
  2299925
370
    25
100
AcDbLine
 10
119.6412080750315
 20
-151.144719082809
 30
0.0
 11
119.6412080750315
 21
-152.1448088047804
 31
0.0
  0
LINE
  5
EF
330
70
100
AcDbEntity
  8
レイヤー 1
 62
   250
420
  2299925
370
     9
100
AcDbLine
 10
110.508285530254
 20
-150.3484451941188
 30
0.0
 11
118.5077683817258
 21
-150.3484451941188
 31
0.0
  0
INSERT
  5
F1
330
70
100
AcDbEntity
  8
レイヤー 1
100
AcDbBlockReference
  2
Block_7
 10
0.0
 20
0.0
 30
0.0
  0
INSERT
  5
F7
330
70
100
AcDbEntity
  8
レイヤー 1
100
AcDbBlockReference
  2
Block_8
 10
0.0
 20
0.0
 30
0.0
  0
ENDSEC
  0
SECTION
  2
OBJECTS
  0
DICTIONARY
  5
C
330
0
100
AcDbDictionary
281
     1
  3
ACAD_COLOR
350
63
  3
ACAD_DETAILVIEWSTYLE
350
6A
  3
ACAD_GROUP
350
D
  3
ACAD_LAYOUT
350
62
  3
ACAD_MATERIAL
350
10
  3
ACAD_MLEADERSTYLE
350
66
  3
ACAD_MLINESTYLE
350
5F
  3
ACAD_PLOTSETTINGS
350
61
  3
ACAD_PLOTSTYLENAME
350
E
  3
ACAD_SCALELIST
350
42
  3
ACAD_SECTIONVIEWSTYLE
350
68
  3
ACAD_TABLESTYLE
350
64
  3
ACAD_VISUALSTYLE
350
29
  3
ACDB_RECOMPOSE_DATA
350
124
  3
AcDbVariableDictionary
350
11C
  0
DICTIONARY
  5
63
102
{ACAD_REACTORS
330
C
102
}
330
C
100
AcDbDictionary
281
     1
  0
DICTIONARY
  5
6A
102
{ACAD_REACTORS
330
C
102
}
330
C
100
AcDbDictionary
281
     1
  3
Imperial24
350
6B
  0
DICTIONARY
  5
D
102
{ACAD_REACTORS
330
C
102
}
330
C
100
AcDbDictionary
281
     1
  0
DICTIONARY
  5
62
102
{ACAD_REACTORS
330
C
102
}
330
C
100
AcDbDictionary
281
     1
  3
Layout1
350
6F
  3
Layout2
350
77
  3
Model
350
73
  0
DICTIONARY
  5
10
102
{ACAD_REACTORS
330
C
102
}
330
C
100
AcDbDictionary
281
     1
  3
ByBlock
350
19
  3
ByLayer
350
11
  3
Global
350
21
  0
DICTIONARY
  5
66
102
{ACAD_REACTORS
330
C
102
}
330
C
100
AcDbDictionary
281
     1
  3
Standard
350
67
  0
DICTIONARY
  5
5F
102
{ACAD_REACTORS
330
C
102
}
330
C
100
AcDbDictionary
281
     1
  3
Standard
350
60
  0
DICTIONARY
  5
61
102
{ACAD_REACTORS
330
C
102
}
330
C
100
AcDbDictionary
281
     1
  0
ACDBDICTIONARYWDFLT
  5
E
102
{ACAD_REACTORS
330
C
102
}
330
C
100
AcDbDictionary
281
     1
  3
Normal
350
F
100
AcDbDictionaryWithDefault
340
F
  0
DICTIONARY
  5
42
102
{ACAD_REACTORS
330
C
102
}
330
C
100
AcDbDictionary
281
     1
  3
A0
350
43
  3
A1
350
44
  3
A2
350
45
  3
A3
350
46
  3
A4
350
47
  3
A5
350
48
  3
A6
350
49
  3
A7
350
4A
  3
A8
350
4B
  3
A9
350
4C
  3
B0
350
4D
  3
B1
350
4E
  3
B2
350
4F
  3
B3
350
50
  3
B4
350
51
  3
B5
350
52
  3
B6
350
53
  0
DICTIONARY
  5
68
102
{ACAD_REACTORS
330
C
102
}
330
C
100
AcDbDictionary
281
     1
  3
Imperial24
350
69
  0
DICTIONARY
  5
64
102
{ACAD_REACTORS
330
C
102
}
330
C
100
AcDbDictionary
281
     1
  3
Standard
350
65
  0
DICTIONARY
  5
29
102
{ACAD_REACTORS
330
C
102
}
330
C
100
AcDbDictionary
281
     1
  3
2dWireframe
350
2F
  3
Basic
350
2E
  3
Brighten
350
35
  3
ColorChange
350
39
  3
Conceptual
350
32
  3
Dim
350
34
  3
EdgeColorOff
350
41
  3
Facepattern
350
38
  3
Flat
350
2A
  3
FlatWithEdges
350
2B
  3
Gouraud
350
2C
  3
GouraudWithEdges
350
2D
  3
Hidden
350
31
  3
JitterOff
350
3F
  3
Linepattern
350
37
  3
OverhangOff
350
40
  3
Realistic
350
33
  3
Shaded
350
3E
  3
Shaded with edges
350
3D
  3
Shades of Gray
350
3A
  3
Sketchy
350
3B
  3
Thicken
350
36
  3
Wireframe
350
30
  3
X-Ray
350
3C
  0
XRECORD
  5
124
102
{ACAD_REACTORS
330
C
102
}
330
C
100
AcDbXrecord
280
     1
 90
        1
330
65
  0
DICTIONARY
  5
11C
102
{ACAD_REACTORS
330
C
102
}
330
C
100
AcDbDictionary
281
     1
  3
CANNOSCALE
350
121
  3
CMLEADERSTYLE
350
11E
  3
CTABLESTYLE
350
11D
  3
CVIEWDETAILSTYLE
350
11F
  3
CVIEWSECTIONSTYLE
350
120
  0
ACDBDETAILVIEWSTYLE
  5
6B
102
{ACAD_XDICTIONARY
360
159
102
}
102
{ACAD_REACTORS
330
6A
102
}
330
6A
100
AcDbModelDocViewStyle
 70
     0
  3
Imperial24
290
     0
100
AcDbDetailViewStyle
 70
     0
 71
     0
 90
        3
 71
     1
340
55
 62
   256
 40
0.24
340
0
 62
   256
 40
0.24
300

 40
0.36
280
     3
 71
     2
340
5D
 90
       25
 62
   256
 71
     3
340
55
 62
   256
 40
0.24
 90
        1
 40
0.75
 90
        1
300
%<\AcVar ViewType \f "%tc1">% %<\AcVar ViewDetailId>%\PSCALE %<\AcVar ViewScale \f "%sn">%
 71
     4
340
5D
 90
       25
 62
   256
340
5D
 90
       25
 62
   256
280
     0
  0
LAYOUT
  5
6F
102
{ACAD_REACTORS
330
62
102
}
330
62
100
AcDbPlotSettings
  1

  2

  4

  6

 40
0.0
 41
0.0
 42
0.0
 43
0.0
 44
0.0
 45
0.0
 46
0.0
 47
0.0
 48
0.0
 49
0.0
140
0.0
141
0.0
142
1.0
143
1.0
 70
   688
 72
     0
 73
     0
 74
     5
  7

 75
    16
147
1.0
 76
     0
 77
     2
 78
   300
148
0.0
149
0.0
100
AcDbLayout
  1
Layout1
 70
     1
 71
     1
 10
0.0
 20
0.0
 11
12.0
 21
9.0
 12
0.0
 22
0.0
 32
0.0
 14
0.0
 24
0.0
 34
0.0
 15
0.0
 25
0.0
 35
0.0
146
0.0
 13
0.0
 23
0.0
 33
0.0
 16
1.0
 26
0.0
 36
0.0
 17
0.0
 27
1.0
 37
0.0
 76
     0
330
6C
  0
LAYOUT
  5
77
102
{ACAD_REACTORS
330
62
102
}
330
62
100
AcDbPlotSettings
  1

  2

  4

  6

 40
0.0
 41
0.0
 42
0.0
 43
0.0
 44
0.0
 45
0.0
 46
0.0
 47
0.0
 48
0.0
 49
0.0
140
0.0
141
0.0
142
1.0
143
1.0
 70
   688
 72
     0
 73
     0
 74
     5
  7

 75
    16
147
1.0
 76
     0
 77
     2
 78
   300
148
0.0
149
0.0
100
AcDbLayout
  1
Layout2
 70
     1
 71
     2
 10
0.0
 20
0.0
 11
12.0
 21
9.0
 12
0.0
 22
0.0
 32
0.0
 14
0.0
 24
0.0
 34
0.0
 15
0.0
 25
0.0
 35
0.0
146
0.0
 13
0.0
 23
0.0
 33
0.0
 16
1.0
 26
0.0
 36
0.0
 17
0.0
 27
1.0
 37
0.0
 76
     0
330
74
  0
LAYOUT
  5
73
102
{ACAD_REACTORS
330
62
102
}
330
62
100
AcDbPlotSettings
  1

  2

  4

  6

 40
0.0
 41
0.0
 42
0.0
 43
0.0
 44
0.0
 45
0.0
 46
0.0
 47
0.0
 48
0.0
 49
0.0
140
0.0
141
0.0
142
1.0
143
1.0
 70
  1712
 72
     0
 73
     0
 74
     0
  7

 75
     0
147
1.0
 76
     0
 77
     2
 78
   300
148
0.0
149
0.0
100
AcDbLayout
  1
Model
 70
     1
 71
     0
 10
0.0
 20
0.0
 11
12.0
 21
9.0
 12
0.0
 22
0.0
 32
0.0
 14
0.0
 24
0.0
 34
0.0
 15
0.0
 25
0.0
 35
0.0
146
0.0
 13
0.0
 23
0.0
 33
0.0
 16
1.0
 26
0.0
 36
0.0
 17
0.0
 27
1.0
 37
0.0
 76
     0
330
70
  0
MATERIAL
  5
19
102
{ACAD_XDICTIONARY
360
1A
102
}
102
{ACAD_REACTORS
330
10
102
}
330
10
100
AcDbMaterial
  1
ByBlock
 72
     0
 43
0.0208333333333333
 43
0.0
 43
0.0
 43
0.0
 43
0.0
 43
0.0208333333333333
 43
0.0
 43
0.0
 43
0.0
 43
0.0
 43
1.0
 43
0.0
 43
0.0
 43
0.0
 43
0.0
 43
1.0
 77
     0
 47
0.0208333333333333
 47
0.0
 47
0.0
 47
0.0
 47
0.0
 47
0.0208333333333333
 47
0.0
 47
0.0
 47
0.0
 47
0.0
 47
1.0
 47
0.0
 47
0.0
 47
0.0
 47
0.0
 47
1.0
171
     0
 49
0.0208333333333333
 49
0.0
 49
0.0
 49
0.0
 49
0.0
 49
0.0208333333333333
 49
0.0
 49
0.0
 49
0.0
 49
0.0
 49
1.0
 49
0.0
 49
0.0
 49
0.0
 49
0.0
 49
1.0
175
     0
142
0.0208333333333333
142
0.0
142
0.0
142
0.0
142
0.0
142
0.0208333333333333
142
0.0
142
0.0
142
0.0
142
0.0
142
1.0
142
0.0
142
0.0
142
0.0
142
0.0
142
1.0
179
     0
144
0.0208333333333333
144
0.0
144
0.0
144
0.0
144
0.0
144
0.0208333333333333
144
0.0
144
0.0
144
0.0
144
0.0
144
1.0
144
0.0
144
0.0
144
0.0
144
0.0
144
1.0
147
0.0208333333333333
147
0.0
147
0.0
147
0.0
147
0.0
147
0.0208333333333333
147
0.0
147
0.0
147
0.0
147
0.0
147
1.0
147
0.0
147
0.0
147
0.0
147
0.0
147
1.0
  0
MATERIAL
  5
11
102
{ACAD_XDICTIONARY
360
12
102
}
102
{ACAD_REACTORS
330
10
102
}
330
10
100
AcDbMaterial
  1
ByLayer
 72
     0
 43
0.0208333333333333
 43
0.0
 43
0.0
 43
0.0
 43
0.0
 43
0.0208333333333333
 43
0.0
 43
0.0
 43
0.0
 43
0.0
 43
1.0
 43
0.0
 43
0.0
 43
0.0
 43
0.0
 43
1.0
 77
     0
 47
0.0208333333333333
 47
0.0
 47
0.0
 47
0.0
 47
0.0
 47
0.0208333333333333
 47
0.0
 47
0.0
 47
0.0
 47
0.0
 47
1.0
 47
0.0
 47
0.0
 47
0.0
 47
0.0
 47
1.0
171
     0
 49
0.0208333333333333
 49
0.0
 49
0.0
 49
0.0
 49
0.0
 49
0.0208333333333333
 49
0.0
 49
0.0
 49
0.0
 49
0.0
 49
1.0
 49
0.0
 49
0.0
 49
0.0
 49
0.0
 49
1.0
175
     0
142
0.0208333333333333
142
0.0
142
0.0
142
0.0
142
0.0
142
0.0208333333333333
142
0.0
142
0.0
142
0.0
142
0.0
142
1.0
142
0.0
142
0.0
142
0.0
142
0.0
142
1.0
179
     0
144
0.0208333333333333
144
0.0
144
0.0
144
0.0
144
0.0
144
0.0208333333333333
144
0.0
144
0.0
144
0.0
144
0.0
144
1.0
144
0.0
144
0.0
144
0.0
144
0.0
144
1.0
147
0.0208333333333333
147
0.0
147
0.0
147
0.0
147
0.0
147
0.0208333333333333
147
0.0
147
0.0
147
0.0
147
0.0
147
1.0
147
0.0
147
0.0
147
0.0
147
0.0
147
1.0
  0
MATERIAL
  5
21
102
{ACAD_XDICTIONARY
360
22
102
}
102
{ACAD_REACTORS
330
10
102
}
330
10
100
AcDbMaterial
  1
Global
 72
     0
 43
0.0208333333333333
 43
0.0
 43
0.0
 43
0.0
 43
0.0
 43
0.0208333333333333
 43
0.0
 43
0.0
 43
0.0
 43
0.0
 43
1.0
 43
0.0
 43
0.0
 43
0.0
 43
0.0
 43
1.0
 77
     0
 47
0.0208333333333333
 47
0.0
 47
0.0
 47
0.0
 47
0.0
 47
0.0208333333333333
 47
0.0
 47
0.0
 47
0.0
 47
0.0
 47
1.0
 47
0.0
 47
0.0
 47
0.0
 47
0.0
 47
1.0
171
     0
 49
0.0208333333333333
 49
0.0
 49
0.0
 49
0.0
 49
0.0
 49
0.0208333333333333
 49
0.0
 49
0.0
 49
0.0
 49
0.0
 49
1.0
 49
0.0
 49
0.0
 49
0.0
 49
0.0
 49
1.0
175
     0
142
0.0208333333333333
142
0.0
142
0.0
142
0.0
142
0.0
142
0.0208333333333333
142
0.0
142
0.0
142
0.0
142
0.0
142
1.0
142
0.0
142
0.0
142
0.0
142
0.0
142
1.0
179
     0
144
0.0208333333333333
144
0.0
144
0.0
144
0.0
144
0.0
144
0.0208333333333333
144
0.0
144
0.0
144
0.0
144
0.0
144
1.0
144
0.0
144
0.0
144
0.0
144
0.0
144
1.0
147
0.0208333333333333
147
0.0
147
0.0
147
0.0
147
0.0
147
0.0208333333333333
147
0.0
147
0.0
147
0.0
147
0.0
147
1.0
147
0.0
147
0.0
147
0.0
147
0.0
147
1.0
  0
MLEADERSTYLE
  5
67
102
{ACAD_XDICTIONARY
360
155
102
}
102
{ACAD_REACTORS
330
66
102
}
330
66
100
AcDbMLeaderStyle
179
     2
170
     2
171
     1
172
     0
 90
        2
 40
0.0
 41
0.0
173
     1
 91
-1056964608
340
5B
 92
       -2
290
     1
 42
0.09
291
     1
 43
0.36
  3
Standard
 44
0.18
300

342
55
174
     1
178
     6
175
     1
176
     0
 93
-1056964608
 45
0.18
292
     0
297
     0
 46
0.18
 94
-1056964608
 47
1.0
 49
1.0
140
1.0
293
     1
141
0.0
294
     1
177
     0
142
1.0
295
     0
296
     0
143
0.125
271
     0
272
     9
273
     9
  0
MLINESTYLE
  5
60
102
{ACAD_REACTORS
330
5F
102
}
330
5F
100
AcDbMlineStyle
  2
STANDARD
 70
     0
  3

 62
   256
 51
90.0
 52
90.0
 71
     2
 49
0.5
 62
   256
  6
BYLAYER
 49
-0.5
 62
   256
  6
BYLAYER
  0
ACDBPLACEHOLDER
  5
F
102
{ACAD_REACTORS
330
E
102
}
330
E
  0
SCALE
  5
43
102
{ACAD_REACTORS
330
42
102
}
330
42
100
AcDbScale
 70
     0
300
1:1
140
1.0
141
1.0
290
     1
  0
SCALE
  5
44
102
{ACAD_REACTORS
330
42
102
}
330
42
100
AcDbScale
 70
     0
300
1/128" = 1'-0"
140
0.0078125
141
12.0
290
     0
  0
SCALE
  5
45
102
{ACAD_REACTORS
330
42
102
}
330
42
100
AcDbScale
 70
     0
300
1/64" = 1'-0"
140
0.015625
141
12.0
290
     0
  0
SCALE
  5
46
102
{ACAD_REACTORS
330
42
102
}
330
42
100
AcDbScale
 70
     0
300
1/32" = 1'-0"
140
0.03125
141
12.0
290
     0
  0
SCALE
  5
47
102
{ACAD_REACTORS
330
42
102
}
330
42
100
AcDbScale
 70
     0
300
1/16" = 1'-0"
140
0.0625
141
12.0
290
     0
  0
SCALE
  5
48
102
{ACAD_REACTORS
330
42
102
}
330
42
100
AcDbScale
 70
     0
300
3/32" = 1'-0"
140
0.09375
141
12.0
290
     0
  0
SCALE
  5
49
102
{ACAD_REACTORS
330
42
102
}
330
42
100
AcDbScale
 70
     0
300
1/8" = 1'-0"
140
0.125
141
12.0
290
     0
  0
SCALE
  5
4A
102
{ACAD_REACTORS
330
42
102
}
330
42
100
AcDbScale
 70
     0
300
3/16" = 1'-0"
140
0.1875
141
12.0
290
     0
  0
SCALE
  5
4B
102
{ACAD_REACTORS
330
42
102
}
330
42
100
AcDbScale
 70
     0
300
1/4" = 1'-0"
140
0.25
141
12.0
290
     0
  0
SCALE
  5
4C
102
{ACAD_REACTORS
330
42
102
}
330
42
100
AcDbScale
 70
     0
300
3/8" = 1'-0"
140
0.375
141
12.0
290
     0
  0
SCALE
  5
4D
102
{ACAD_REACTORS
330
42
102
}
330
42
100
AcDbScale
 70
     0
300
1/2" = 1'-0"
140
0.5
141
12.0
290
     0
  0
SCALE
  5
4E
102
{ACAD_REACTORS
330
42
102
}
330
42
100
AcDbScale
 70
     0
300
3/4" = 1'-0"
140
0.75
141
12.0
290
     0
  0
SCALE
  5
4F
102
{ACAD_REACTORS
330
42
102
}
330
42
100
AcDbScale
 70
     0
300
1" = 1'-0"
140
1.0
141
12.0
290
     0
  0
SCALE
  5
50
102
{ACAD_REACTORS
330
42
102
}
330
42
100
AcDbScale
 70
     0
300
1-1/2" = 1'-0"
140
1.5
141
12.0
290
     0
  0
SCALE
  5
51
102
{ACAD_REACTORS
330
42
102
}
330
42
100
AcDbScale
 70
     0
300
3" = 1'-0"
140
3.0
141
12.0
290
     0
  0
SCALE
  5
52
102
{ACAD_REACTORS
330
42
102
}
330
42
100
AcDbScale
 70
     0
300
6" = 1'-0"
140
6.0
141
12.0
290
     0
  0
SCALE
  5
53
102
{ACAD_REACTORS
330
42
102
}
330
42
100
AcDbScale
 70
     0
300
1'-0" = 1'-0"
140
12.0
141
12.0
290
     0
  0
ACDBSECTIONVIEWSTYLE
  5
69
102
{ACAD_XDICTIONARY
360
157
102
}
102
{ACAD_REACTORS
330
68
102
}
330
68
100
AcDbModelDocViewStyle
 70
     0
  3
Imperial24
290
     0
100
AcDbSectionViewStyle
 70
     0
 71
     0
 90
       78
 71
     1
340
55
 62
   256
 40
0.24
340
0
340
0
 62
   256
 40
0.24
300
I, O, Q, S, X, Z
 40
0.48
 90
        3
 40
0.18
 90
        1
 71
     2
340
5D
 90
       25
 62
   256
340
5D
 90
       50
 62
   256
 40
0.24
 40
0.0
 40
0.24
 71
     3
340
55
 62
   256
 40
0.24
 90
        1
 40
0.75
 90
        1
300
%<\AcVar ViewType \f "%tc1">% %<\AcVar ViewSectionStartId>%-%<\AcVar ViewSectionEndId>%\PSCALE %<\AcVar ViewScale \f "%sn">%
 71
     4
 62
   256
 62
   257
300
ANSI31
 40
1.0
 90
        0
290
     0
290
     0
 90
        6
 40
0.0
 40
1.570796326794896
 40
0.2617993877991494
 40
1.308996938995747
 40
-0.2617993877991494
 40
1.832595714594046
  0
TABLESTYLE
  5
65
102
{ACAD_XDICTIONARY
360
122
102
}
102
{ACAD_REACTORS
330
64
102
}
330
64
100
AcDbTableStyle
280
     0
  3
Standard
 70
     0
 71
     0
 40
0.06
 41
0.06
280
     0
281
     0
  7
Standard
140
0.18
170
     2
 62
     0
 63
     7
283
     0
 90
      512
 91
        0
  1

274
    -2
284
     1
 64
     0
275
    -2
285
     1
 65
     0
276
    -2
286
     1
 66
     0
277
    -2
287
     1
 67
     0
278
    -2
288
     1
 68
     0
279
    -2
289
     1
 69
     0
  7
Standard
140
0.25
170
     5
 62
     0
 63
     7
283
     0
 90
      512
 91
        0
  1

274
    -2
284
     1
 64
     0
275
    -2
285
     1
 65
     0
276
    -2
286
     1
 66
     0
277
    -2
287
     1
 67
     0
278
    -2
288
     1
 68
     0
279
    -2
289
     1
 69
     0
  7
Standard
140
0.18
170
     5
 62
     0
 63
     7
283
     0
 90
      512
 91
        0
  1

274
    -2
284
     1
 64
     0
275
    -2
285
     1
 65
     0
276
    -2
286
     1
 66
     0
277
    -2
287
     1
 67
     0
278
    -2
288
     1
 68
     0
279
    -2
289
     1
 69
     0
  0
VISUALSTYLE
  5
2F
102
{ACAD_XDICTIONARY
360
12F
102
}
102
{ACAD_REACTORS
330
29
102
}
330
29
100
AcDbVisualStyle
  2
2dWireframe
 70
     4
177
     2
291
     0
 71
     0
176
     1
 72
     2
176
     1
 73
     0
176
     1
 90
        0
176
     1
 40
0.6
176
     1
 41
30.0
176
     1
 63
     7
421
 16777215
176
     1
 74
     1
176
     1
 91
        4
176
     1
 64
     7
176
     1
 65
   257
176
     1
 75
     1
176
     1
175
     1
176
     1
 42
1.0
176
     1
 92
        0
176
     1
 66
   257
176
     1
 43
1.0
176
     1
 76
     1
176
     1
 77
     6
176
     1
 78
     2
176
     1
 67
     7
176
     1
 79
     5
176
     1
170
     0
176
     1
171
     0
176
     1
290
     0
176
     1
 93
        1
176
     1
 44
0.0
176
     1
173
     0
176
     1
1001
ACAD
1000
AcDbSavedByObjectVersion
1070
     0
  0
VISUALSTYLE
  5
2E
102
{ACAD_XDICTIONARY
360
12D
102
}
102
{ACAD_REACTORS
330
29
102
}
330
29
100
AcDbVisualStyle
  2
Basic
 70
     7
177
     2
291
     1
 71
     1
176
     1
 72
     0
176
     1
 73
     1
176
     1
 90
        0
176
     1
 40
0.6
176
     1
 41
30.0
176
     1
 63
     7
421
 16777215
176
     1
 74
     0
176
     1
 91
        4
176
     1
 64
     7
176
     1
 65
   257
176
     1
 75
     1
176
     1
175
     1
176
     1
 42
1.0
176
     1
 92
        8
176
     1
 66
     7
176
     1
 43
1.0
176
     1
 76
     1
176
     1
 77
     6
176
     1
 78
     2
176
     1
 67
     7
176
     1
 79
     5
176
     1
170
     0
176
     1
171
     0
176
     1
290
     0
176
     1
 93
        1
176
     1
 44
0.0
176
     1
173
     0
176
     1
1001
ACAD
1000
AcDbSavedByObjectVersion
1070
     0
  0
VISUALSTYLE
  5
35
102
{ACAD_XDICTIONARY
360
13B
102
}
102
{ACAD_REACTORS
330
29
102
}
330
29
100
AcDbVisualStyle
  2
Brighten
 70
    12
177
     2
291
     1
 71
     2
176
     1
 72
     2
176
     1
 73
     0
176
     1
 90
        0
176
     1
 40
0.6
176
     1
 41
30.0
176
     1
 63
     7
421
 16777215
176
     1
 74
     1
176
     1
 91
        4
176
     1
 64
     7
176
     1
 65
   257
176
     1
 75
     1
176
     1
175
     1
176
     1
 42
1.0
176
     1
 92
        8
176
     1
 66
     7
176
     1
 43
1.0
176
     1
 76
     1
176
     1
 77
     6
176
     1
 78
     2
176
     1
 67
     7
176
     1
 79
     5
176
     1
170
     0
176
     1
171
     0
176
     1
290
     0
176
     1
 93
        1
176
     1
 44
50.0
176
     1
173
     0
176
     1
1001
ACAD
1000
AcDbSavedByObjectVersion
1070
     0
  0
VISUALSTYLE
  5
39
102
{ACAD_XDICTIONARY
360
143
102
}
102
{ACAD_REACTORS
330
29
102
}
330
29
100
AcDbVisualStyle
  2
ColorChange
 70
    16
177
     2
291
     1
 71
     2
176
     1
 72
     2
176
     1
 73
     3
176
     1
 90
        0
176
     1
 40
0.6
176
     1
 41
30.0
176
     1
 63
     8
421
  8421504
176
     1
 74
     1
176
     1
 91
        4
176
     1
 64
     7
176
     1
 65
   257
176
     1
 75
     1
176
     1
175
     1
176
     1
 42
1.0
176
     1
 92
        8
176
     1
 66
     8
424
  8421504
176
     1
 43
1.0
176
     1
 76
     1
176
     1
 77
     6
176
     1
 78
     2
176
     1
 67
     7
176
     1
 79
     5
176
     1
170
     0
176
     1
171
     0
176
     1
290
     0
176
     1
 93
        1
176
     1
 44
0.0
176
     1
173
     0
176
     1
1001
ACAD
1000
AcDbSavedByObjectVersion
1070
     0
  0
VISUALSTYLE
  5
32
102
{ACAD_XDICTIONARY
360
135
102
}
102
{ACAD_REACTORS
330
29
102
}
330
29
100
AcDbVisualStyle
  2
Conceptual
 70
     9
177
     2
291
     0
 71
     3
176
     1
 72
     2
176
     1
 73
     0
176
     1
 90
        0
176
     1
 40
0.6
176
     1
 41
30.0
176
     1
 63
     7
421
 16777215
176
     1
 74
     2
176
     1
 91
        2
176
     1
 64
     7
176
     1
 65
   257
176
     1
 75
     1
176
     1
175
     1
176
     1
 42
179.0
176
     1
 92
        8
176
     1
 66
     7
176
     1
 43
1.0
176
     1
 76
     1
176
     1
 77
     6
176
     1
 78
     2
176
     1
 67
     7
176
     1
 79
     3
176
     1
170
     0
176
     1
171
     0
176
     1
290
     0
176
     1
 93
        1
176
     1
 44
0.0
176
     1
173
     0
176
     1
1001
ACAD
1000
AcDbSavedByObjectVersion
1070
     0
  0
VISUALSTYLE
  5
34
102
{ACAD_XDICTIONARY
360
139
102
}
102
{ACAD_REACTORS
330
29
102
}
330
29
100
AcDbVisualStyle
  2
Dim
 70
    11
177
     2
291
     1
 71
     2
176
     1
 72
     2
176
     1
 73
     0
176
     1
 90
        0
176
     1
 40
0.6
176
     1
 41
30.0
176
     1
 63
     7
421
 16777215
176
     1
 74
     1
176
     1
 91
        4
176
     1
 64
     7
176
     1
 65
   257
176
     1
 75
     1
176
     1
175
     1
176
     1
 42
1.0
176
     1
 92
        8
176
     1
 66
     7
176
     1
 43
1.0
176
     1
 76
     1
176
     1
 77
     6
176
     1
 78
     2
176
     1
 67
     7
176
     1
 79
     5
176
     1
170
     0
176
     1
171
     0
176
     1
290
     0
176
     1
 93
        1
176
     1
 44
-50.0
176
     1
173
     0
176
     1
1001
ACAD
1000
AcDbSavedByObjectVersion
1070
     0
  0
VISUALSTYLE
  5
41
102
{ACAD_XDICTIONARY
360
153
102
}
102
{ACAD_REACTORS
330
29
102
}
330
29
100
AcDbVisualStyle
  2
EdgeColorOff
 70
    22
177
     2
291
     1
 71
     2
176
     0
 72
     2
176
     0
 73
     0
176
     0
 90
        0
176
     0
 40
0.6
176
     0
 41
30.0
176
     0
 63
     7
421
 16777215
176
     0
 74
     1
176
     0
 91
        4
176
     0
 64
     7
176
     0
 65
   257
176
     0
 75
     1
176
     0
175
     1
176
     0
 42
1.0
176
     0
 92
        8
176
     2
 66
     7
176
     0
 43
1.0
176
     0
 76
     1
176
     0
 77
     6
176
     0
 78
     2
176
     0
 67
     7
176
     0
 79
     5
176
     0
170
     0
176
     0
171
     0
176
     0
290
     0
176
     0
 93
        1
176
     0
 44
0.0
176
     0
173
     0
176
     0
1001
ACAD
1000
AcDbSavedByObjectVersion
1070
     0
  0
VISUALSTYLE
  5
38
102
{ACAD_XDICTIONARY
360
141
102
}
102
{ACAD_REACTORS
330
29
102
}
330
29
100
AcDbVisualStyle
  2
Facepattern
 70
    15
177
     2
291
     1
 71
     2
176
     1
 72
     2
176
     1
 73
     0
176
     1
 90
        0
176
     1
 40
0.6
176
     1
 41
30.0
176
     1
 63
     7
421
 16777215
176
     1
 74
     1
176
     1
 91
        4
176
     1
 64
     7
176
     1
 65
   257
176
     1
 75
     1
176
     1
175
     1
176
     1
 42
1.0
176
     1
 92
        8
176
     1
 66
     7
176
     1
 43
1.0
176
     1
 76
     1
176
     1
 77
     6
176
     1
 78
     2
176
     1
 67
     7
176
     1
 79
     5
176
     1
170
     0
176
     1
171
     0
176
     1
290
     0
176
     1
 93
        1
176
     1
 44
0.0
176
     1
173
     0
176
     1
1001
ACAD
1000
AcDbSavedByObjectVersion
1070
     0
  0
VISUALSTYLE
  5
2A
102
{ACAD_XDICTIONARY
360
125
102
}
102
{ACAD_REACTORS
330
29
102
}
330
29
100
AcDbVisualStyle
  2
Flat
 70
     0
177
     2
291
     1
 71
     2
176
     1
 72
     1
176
     1
 73
     1
176
     1
 90
        2
176
     1
 40
0.6
176
     1
 41
30.0
176
     1
 63
     7
421
 16777215
176
     1
 74
     0
176
     1
 91
        0
176
     1
 64
     7
176
     1
 65
   257
176
     1
 75
     1
176
     1
175
     1
176
     1
 42
1.0
176
     1
 92
        8
176
     1
 66
     7
176
     1
 43
1.0
176
     1
 76
     1
176
     1
 77
     6
176
     1
 78
     2
176
     1
 67
     7
176
     1
 79
     5
176
     1
170
     0
176
     1
171
     0
176
     1
290
     0
176
     1
 93
       13
176
     1
 44
0.0
176
     1
173
     0
176
     1
1001
ACAD
1000
AcDbSavedByObjectVersion
1070
     0
  0
VISUALSTYLE
  5
2B
102
{ACAD_XDICTIONARY
360
127
102
}
102
{ACAD_REACTORS
330
29
102
}
330
29
100
AcDbVisualStyle
  2
FlatWithEdges
 70
     1
177
     2
291
     1
 71
     2
176
     1
 72
     1
176
     1
 73
     1
176
     1
 90
        2
176
     1
 40
0.6
176
     1
 41
30.0
176
     1
 63
     7
421
 16777215
176
     1
 74
     1
176
     1
 91
        0
176
     1
 64
     7
176
     1
 65
   257
176
     1
 75
     1
176
     1
175
     1
176
     1
 42
1.0
176
     1
 92
        0
176
     1
 66
   257
176
     1
 43
1.0
176
     1
 76
     1
176
     1
 77
     6
176
     1
 78
     2
176
     1
 67
     7
176
     1
 79
     5
176
     1
170
     0
176
     1
171
     0
176
     1
290
     0
176
     1
 93
       13
176
     1
 44
0.0
176
     1
173
     0
176
     1
1001
ACAD
1000
AcDbSavedByObjectVersion
1070
     0
  0
VISUALSTYLE
  5
2C
102
{ACAD_XDICTIONARY
360
129
102
}
102
{ACAD_REACTORS
330
29
102
}
330
29
100
AcDbVisualStyle
  2
Gouraud
 70
     2
177
     2
291
     1
 71
     2
176
     1
 72
     2
176
     1
 73
     1
176
     1
 90
        2
176
     1
 40
0.6
176
     1
 41
30.0
176
     1
 63
     7
421
 16777215
176
     1
 74
     0
176
     1
 91
        0
176
     1
 64
     7
176
     1
 65
   257
176
     1
 75
     1
176
     1
175
     1
176
     1
 42
1.0
176
     1
 92
        0
176
     1
 66
     7
176
     1
 43
1.0
176
     1
 76
     1
176
     1
 77
     6
176
     1
 78
     2
176
     1
 67
     7
176
     1
 79
     5
176
     1
170
     0
176
     1
171
     0
176
     1
290
     0
176
     1
 93
       13
176
     1
 44
0.0
176
     1
173
     0
176
     1
1001
ACAD
1000
AcDbSavedByObjectVersion
1070
     0
  0
VISUALSTYLE
  5
2D
102
{ACAD_XDICTIONARY
360
12B
102
}
102
{ACAD_REACTORS
330
29
102
}
330
29
100
AcDbVisualStyle
  2
GouraudWithEdges
 70
     3
177
     2
291
     1
 71
     2
176
     1
 72
     2
176
     1
 73
     1
176
     1
 90
        2
176
     1
 40
0.6
176
     1
 41
30.0
176
     1
 63
     7
421
 16777215
176
     1
 74
     1
176
     1
 91
        0
176
     1
 64
     7
176
     1
 65
   257
176
     1
 75
     1
176
     1
175
     1
176
     1
 42
1.0
176
     1
 92
        0
176
     1
 66
   257
176
     1
 43
1.0
176
     1
 76
     1
176
     1
 77
     6
176
     1
 78
     2
176
     1
 67
     7
176
     1
 79
     5
176
     1
170
     0
176
     1
171
     0
176
     1
290
     0
176
     1
 93
       13
176
     1
 44
0.0
176
     1
173
     0
176
     1
1001
ACAD
1000
AcDbSavedByObjectVersion
1070
     0
  0
VISUALSTYLE
  5
31
102
{ACAD_XDICTIONARY
360
133
102
}
102
{ACAD_REACTORS
330
29
102
}
330
29
100
AcDbVisualStyle
  2
Hidden
 70
     6
177
     2
291
     0
 71
     1
176
     1
 72
     2
176
     1
 73
     2
176
     1
 90
        0
176
     1
 40
0.6
176
     1
 41
30.0
176
     1
 63
     7
421
 16777215
176
     1
 74
     2
176
     1
 91
        2
176
     1
 64
     7
176
     1
 65
   257
176
     1
 75
     2
176
     1
175
     1
176
     1
 42
40.0
176
     1
 92
        0
176
     1
 66
   257
176
     1
 43
1.0
176
     1
 76
     1
176
     1
 77
     6
176
     1
 78
     2
176
     1
 67
     7
176
     1
 79
     3
176
     1
170
     0
176
     1
171
     0
176
     1
290
     0
176
     1
 93
        1
176
     1
 44
0.0
176
     1
173
     0
176
     1
1001
ACAD
1000
AcDbSavedByObjectVersion
1070
     0
  0
VISUALSTYLE
  5
3F
102
{ACAD_XDICTIONARY
360
14F
102
}
102
{ACAD_REACTORS
330
29
102
}
330
29
100
AcDbVisualStyle
  2
JitterOff
 70
    20
177
     2
291
     1
 71
     2
176
     0
 72
     2
176
     0
 73
     0
176
     0
 90
        0
176
     0
 40
0.6
176
     0
 41
30.0
176
     0
 63
     7
421
 16777215
176
     0
 74
     1
176
     0
 91
        4
176
     0
 64
     7
176
     0
 65
   257
176
     0
 75
     1
176
     0
175
     1
176
     0
 42
1.0
176
     0
 92
       10
176
     2
 66
     7
176
     0
 43
1.0
176
     0
 76
     1
176
     0
 77
     6
176
     0
 78
     2
176
     0
 67
     7
176
     0
 79
     5
176
     0
170
     0
176
     0
171
     0
176
     0
290
     0
176
     0
 93
        1
176
     0
 44
0.0
176
     0
173
     0
176
     0
1001
ACAD
1000
AcDbSavedByObjectVersion
1070
     0
  0
VISUALSTYLE
  5
37
102
{ACAD_XDICTIONARY
360
13F
102
}
102
{ACAD_REACTORS
330
29
102
}
330
29
100
AcDbVisualStyle
  2
Linepattern
 70
    14
177
     2
291
     1
 71
     2
176
     1
 72
     2
176
     1
 73
     0
176
     1
 90
        0
176
     1
 40
0.6
176
     1
 41
30.0
176
     1
 63
     7
421
 16777215
176
     1
 74
     1
176
     1
 91
        4
176
     1
 64
     7
176
     1
 65
   257
176
     1
 75
     7
176
     1
175
     7
176
     1
 42
1.0
176
     1
 92
        8
176
     1
 66
     7
176
     1
 43
1.0
176
     1
 76
     1
176
     1
 77
     6
176
     1
 78
     2
176
     1
 67
     7
176
     1
 79
     5
176
     1
170
     0
176
     1
171
     0
176
     1
290
     0
176
     1
 93
        1
176
     1
 44
0.0
176
     1
173
     0
176
     1
1001
ACAD
1000
AcDbSavedByObjectVersion
1070
     0
  0
VISUALSTYLE
  5
40
102
{ACAD_XDICTIONARY
360
151
102
}
102
{ACAD_REACTORS
330
29
102
}
330
29
100
AcDbVisualStyle
  2
OverhangOff
 70
    21
177
     2
291
     1
 71
     2
176
     0
 72
     2
176
     0
 73
     0
176
     0
 90
        0
176
     0
 40
0.6
176
     0
 41
30.0
176
     0
 63
     7
421
 16777215
176
     0
 74
     1
176
     0
 91
        4
176
     0
 64
     7
176
     0
 65
   257
176
     0
 75
     1
176
     0
175
     1
176
     0
 42
1.0
176
     0
 92
        9
176
     2
 66
     7
176
     0
 43
1.0
176
     0
 76
     1
176
     0
 77
     6
176
     0
 78
     2
176
     0
 67
     7
176
     0
 79
     5
176
     0
170
     0
176
     0
171
     0
176
     0
290
     0
176
     0
 93
        1
176
     0
 44
0.0
176
     0
173
     0
176
     0
1001
ACAD
1000
AcDbSavedByObjectVersion
1070
     0
  0
VISUALSTYLE
  5
33
102
{ACAD_XDICTIONARY
360
137
102
}
102
{ACAD_REACTORS
330
29
102
}
330
29
100
AcDbVisualStyle
  2
Realistic
 70
     8
177
     2
291
     0
 71
     2
176
     1
 72
     3
176
     1
 73
     0
176
     1
 90
        2
176
     1
 40
0.6
176
     1
 41
30.0
176
     1
 63
     7
421
 16777215
176
     1
 74
     0
176
     1
 91
        0
176
     1
 64
     7
176
     1
 65
   257
176
     1
 75
     1
176
     1
175
     1
176
     1
 42
1.0
176
     1
 92
        8
176
     1
 66
   257
176
     1
 43
1.0
176
     1
 76
     1
176
     1
 77
     6
176
     1
 78
     2
176
     1
 67
     7
176
     1
 79
     3
176
     1
170
     0
176
     1
171
     0
176
     1
290
     0
176
     1
 93
       13
176
     1
 44
0.0
176
     1
173
     0
176
     1
1001
ACAD
1000
AcDbSavedByObjectVersion
1070
     0
  0
VISUALSTYLE
  5
3E
102
{ACAD_XDICTIONARY
360
14D
102
}
102
{ACAD_REACTORS
330
29
102
}
330
29
100
AcDbVisualStyle
  2
Shaded
 70
    27
177
     2
291
     0
 71
     2
176
     1
 72
     2
176
     1
 73
     1
176
     1
 90
        2
176
     1
 40
0.6
176
     1
 41
30.0
176
     1
 63
     7
421
 16777215
176
     1
 74
     0
176
     1
 91
        4
176
     1
 64
     7
176
     1
 65
   257
176
     1
 75
     1
176
     1
175
     1
176
     1
 42
1.0
176
     1
 92
        8
176
     1
 66
   257
176
     1
 43
1.0
176
     1
 76
     1
176
     1
 77
     6
176
     1
 78
     2
176
     1
 67
     8
425
  7895160
176
     1
 79
     3
176
     1
170
     0
176
     1
171
     0
176
     1
290
     0
176
     1
 93
        5
176
     1
 44
0.0
176
     1
173
     0
176
     1
1001
ACAD
1000
AcDbSavedByObjectVersion
1070
     0
  0
VISUALSTYLE
  5
3D
102
{ACAD_XDICTIONARY
360
14B
102
}
102
{ACAD_REACTORS
330
29
102
}
330
29
100
AcDbVisualStyle
  2
Shaded with edges
 70
    26
177
     2
291
     0
 71
     2
176
     1
 72
     2
176
     1
 73
     1
176
     1
 90
        2
176
     1
 40
0.6
176
     1
 41
30.0
176
     1
 63
     7
421
 16777215
176
     1
 74
     1
176
     1
 91
        2
176
     1
 64
     7
176
     1
 65
   257
176
     1
 75
     2
176
     1
175
     1
176
     1
 42
1.0
176
     1
 92
        8
176
     1
 66
   257
176
     1
 43
1.0
176
     1
 76
     1
176
     1
 77
     6
176
     1
 78
     2
176
     1
 67
     7
176
     1
 79
     3
176
     1
170
     0
176
     1
171
     0
176
     1
290
     0
176
     1
 93
        5
176
     1
 44
0.0
176
     1
173
     0
176
     1
1001
ACAD
1000
AcDbSavedByObjectVersion
1070
     0
  0
VISUALSTYLE
  5
3A
102
{ACAD_XDICTIONARY
360
145
102
}
102
{ACAD_REACTORS
330
29
102
}
330
29
100
AcDbVisualStyle
  2
Shades of Gray
 70
    23
177
     2
291
     0
 71
     2
176
     1
 72
     2
176
     1
 73
     3
176
     1
 90
        0
176
     1
 40
0.6
176
     1
 41
30.0
176
     1
 63
     7
421
 16777215
176
     1
 74
     2
176
     1
 91
        2
176
     1
 64
     7
176
     1
 65
     7
176
     1
 75
     1
176
     1
175
     1
176
     1
 42
40.0
176
     1
 92
        8
176
     1
 66
     7
176
     1
 43
1.0
176
     1
 76
     1
176
     1
 77
     6
176
     1
 78
     2
176
     1
 67
     7
176
     1
 79
     3
176
     1
170
     0
176
     1
171
     0
176
     1
290
     0
176
     1
 93
        1
176
     1
 44
0.0
176
     1
173
     0
176
     1
1001
ACAD
1000
AcDbSavedByObjectVersion
1070
     0
  0
VISUALSTYLE
  5
3B
102
{ACAD_XDICTIONARY
360
147
102
}
102
{ACAD_REACTORS
330
29
102
}
330
29
100
AcDbVisualStyle
  2
Sketchy
 70
    24
177
     2
291
     0
 71
     1
176
     1
 72
     2
176
     1
 73
     2
176
     1
 90
        0
176
     1
 40
0.6
176
     1
 41
30.0
176
     1
 63
     7
421
 16777215
176
     1
 74
     2
176
     1
 91
        2
176
     1
 64
     7
176
     1
 65
     7
176
     1
 75
     1
176
     1
175
     1
176
     1
 42
40.0
176
     1
 92
       11
176
     1
 66
     7
176
     1
 43
1.0
176
     1
 76
     1
176
     1
 77
     6
176
     1
 78
     2
176
     1
 67
     7
176
     1
 79
     6
176
     1
170
     0
176
     1
171
     0
176
     1
290
     0
176
     1
 93
        1
176
     1
 44
0.0
176
     1
173
     0
176
     1
1001
ACAD
1000
AcDbSavedByObjectVersion
1070
     0
  0
VISUALSTYLE
  5
36
102
{ACAD_XDICTIONARY
360
13D
102
}
102
{ACAD_REACTORS
330
29
102
}
330
29
100
AcDbVisualStyle
  2
Thicken
 70
    13
177
     2
291
     1
 71
     2
176
     1
 72
     2
176
     1
 73
     0
176
     1
 90
        0
176
     1
 40
0.6
176
     1
 41
30.0
176
     1
 63
     7
421
 16777215
176
     1
 74
     1
176
     1
 91
        4
176
     1
 64
     7
176
     1
 65
   257
176
     1
 75
     1
176
     1
175
     1
176
     1
 42
1.0
176
     1
 92
       12
176
     1
 66
     7
176
     1
 43
1.0
176
     1
 76
     1
176
     1
 77
     6
176
     1
 78
     2
176
     1
 67
     7
176
     1
 79
     5
176
     1
170
     0
176
     1
171
     0
176
     1
290
     0
176
     1
 93
        1
176
     1
 44
0.0
176
     1
173
     0
176
     1
1001
ACAD
1000
AcDbSavedByObjectVersion
1070
     0
  0
VISUALSTYLE
  5
30
102
{ACAD_XDICTIONARY
360
131
102
}
102
{ACAD_REACTORS
330
29
102
}
330
29
100
AcDbVisualStyle
  2
Wireframe
 70
     5
177
     2
291
     0
 71
     0
176
     1
 72
     2
176
     1
 73
     0
176
     1
 90
        0
176
     1
 40
0.6
176
     1
 41
30.0
176
     1
 63
     7
421
 16777215
176
     1
 74
     1
176
     1
 91
        4
176
     1
 64
     7
176
     1
 65
   257
176
     1
 75
     1
176
     1
175
     1
176
     1
 42
1.0
176
     1
 92
        0
176
     1
 66
   257
176
     1
 43
1.0
176
     1
 76
     1
176
     1
 77
     6
176
     1
 78
     2
176
     1
 67
     7
176
     1
 79
     3
176
     1
170
     0
176
     1
171
     0
176
     1
290
     0
176
     1
 93
        1
176
     1
 44
0.0
176
     1
173
     0
176
     1
1001
ACAD
1000
AcDbSavedByObjectVersion
1070
     0
  0
VISUALSTYLE
  5
3C
102
{ACAD_XDICTIONARY
360
149
102
}
102
{ACAD_REACTORS
330
29
102
}
330
29
100
AcDbVisualStyle
  2
X-Ray
 70
    25
177
     2
291
     0
 71
     2
176
     1
 72
     2
176
     1
 73
     1
176
     1
 90
        1
176
     1
 40
0.5
176
     1
 41
30.0
176
     1
 63
     7
421
 16777215
176
     1
 74
     1
176
     1
 91
        0
176
     1
 64
     7
176
     1
 65
   257
176
     1
 75
     1
176
     1
175
     1
176
     1
 42
1.0
176
     1
 92
        8
176
     1
 66
     7
176
     1
 43
1.0
176
     1
 76
     1
176
     1
 77
     6
176
     1
 78
     2
176
     1
 67
     7
176
     1
 79
     3
176
     1
170
     0
176
     1
171
     0
176
     1
290
     0
176
     1
 93
       13
176
     1
 44
0.0
176
     1
173
     0
176
     1
1001
ACAD
1000
AcDbSavedByObjectVersion
1070
     0
  0
DICTIONARYVAR
  5
121
102
{ACAD_REACTORS
330
11C
102
}
330
11C
100
DictionaryVariables
280
     0
  1
1:1
  0
DICTIONARYVAR
  5
11E
102
{ACAD_REACTORS
330
11C
102
}
330
11C
100
DictionaryVariables
280
     0
  1
STANDARD
  0
DICTIONARYVAR
  5
11D
102
{ACAD_REACTORS
330
11C
102
}
330
11C
100
DictionaryVariables
280
     0
  1
STANDARD
  0
DICTIONARYVAR
  5
11F
102
{ACAD_REACTORS
330
11C
102
}
330
11C
100
DictionaryVariables
280
     0
  1
Imperial24
  0
DICTIONARYVAR
  5
120
102
{ACAD_REACTORS
330
11C
102
}
330
11C
100
DictionaryVariables
280
     0
  1
Imperial24
  0
DICTIONARY
  5
159
330
6B
100
AcDbDictionary
280
     1
281
     1
  3
ACAD_XREC_ROUNDTRIP
360
15A
  0
DICTIONARY
  5
1A
330
19
100
AcDbDictionary
280
     1
281
     1
  3
BUMPTILE
360
1C
  3
DIFFUSETILE
360
1B
  3
OPACITYTILE
360
1F
  3
REFLECTIONTILE
360
1E
  3
REFRACTIONTILE
360
20
  3
SPECULARTILE
360
1D
  0
DICTIONARY
  5
12
330
11
100
AcDbDictionary
280
     1
281
     1
  3
BUMPTILE
360
14
  3
DIFFUSETILE
360
13
  3
OPACITYTILE
360
17
  3
REFLECTIONTILE
360
16
  3
REFRACTIONTILE
360
18
  3
SPECULARTILE
360
15
  0
DICTIONARY
  5
22
330
21
100
AcDbDictionary
280
     1
281
     1
  3
BUMPTILE
360
24
  3
DIFFUSETILE
360
23
  3
OPACITYTILE
360
27
  3
REFLECTIONTILE
360
26
  3
REFRACTIONTILE
360
28
  3
SPECULARTILE
360
25
  0
DICTIONARY
  5
155
330
67
100
AcDbDictionary
280
     1
281
     1
  3
ACAD_XREC_ROUNDTRIP
360
156
  0
DICTIONARY
  5
157
330
69
100
AcDbDictionary
280
     1
281
     1
  3
ACAD_XREC_ROUNDTRIP
360
158
  0
DICTIONARY
  5
122
330
65
100
AcDbDictionary
280
     1
281
     1
  3
ACAD_ROUNDTRIP_2008_TABLESTYLE_CELLSTYLEMAP
360
123
  0
DICTIONARY
  5
12F
330
2F
100
AcDbDictionary
280
     1
281
     1
  3
ACAD_XREC_ROUNDTRIP
360
130
  0
DICTIONARY
  5
12D
330
2E
100
AcDbDictionary
280
     1
281
     1
  3
ACAD_XREC_ROUNDTRIP
360
12E
  0
DICTIONARY
  5
13B
330
35
100
AcDbDictionary
280
     1
281
     1
  3
ACAD_XREC_ROUNDTRIP
360
13C
  0
DICTIONARY
  5
143
330
39
100
AcDbDictionary
280
     1
281
     1
  3
ACAD_XREC_ROUNDTRIP
360
144
  0
DICTIONARY
  5
135
330
32
100
AcDbDictionary
280
     1
281
     1
  3
ACAD_XREC_ROUNDTRIP
360
136
  0
DICTIONARY
  5
139
330
34
100
AcDbDictionary
280
     1
281
     1
  3
ACAD_XREC_ROUNDTRIP
360
13A
  0
DICTIONARY
  5
153
330
41
100
AcDbDictionary
280
     1
281
     1
  3
ACAD_XREC_ROUNDTRIP
360
154
  0
DICTIONARY
  5
141
330
38
100
AcDbDictionary
280
     1
281
     1
  3
ACAD_XREC_ROUNDTRIP
360
142
  0
DICTIONARY
  5
125
330
2A
100
AcDbDictionary
280
     1
281
     1
  3
ACAD_XREC_ROUNDTRIP
360
126
  0
DICTIONARY
  5
127
330
2B
100
AcDbDictionary
280
     1
281
     1
  3
ACAD_XREC_ROUNDTRIP
360
128
  0
DICTIONARY
  5
129
330
2C
100
AcDbDictionary
280
     1
281
     1
  3
ACAD_XREC_ROUNDTRIP
360
12A
  0
DICTIONARY
  5
12B
330
2D
100
AcDbDictionary
280
     1
281
     1
  3
ACAD_XREC_ROUNDTRIP
360
12C
  0
DICTIONARY
  5
133
330
31
100
AcDbDictionary
280
     1
281
     1
  3
ACAD_XREC_ROUNDTRIP
360
134
  0
DICTIONARY
  5
14F
330
3F
100
AcDbDictionary
280
     1
281
     1
  3
ACAD_XREC_ROUNDTRIP
360
150
  0
DICTIONARY
  5
13F
330
37
100
AcDbDictionary
280
     1
281
     1
  3
ACAD_XREC_ROUNDTRIP
360
140
  0
DICTIONARY
  5
151
330
40
100
AcDbDictionary
280
     1
281
     1
  3
ACAD_XREC_ROUNDTRIP
360
152
  0
DICTIONARY
  5
137
330
33
100
AcDbDictionary
280
     1
281
     1
  3
ACAD_XREC_ROUNDTRIP
360
138
  0
DICTIONARY
  5
14D
330
3E
100
AcDbDictionary
280
     1
281
     1
  3
ACAD_XREC_ROUNDTRIP
360
14E
  0
DICTIONARY
  5
14B
330
3D
100
AcDbDictionary
280
     1
281
     1
  3
ACAD_XREC_ROUNDTRIP
360
14C
  0
DICTIONARY
  5
145
330
3A
100
AcDbDictionary
280
     1
281
     1
  3
ACAD_XREC_ROUNDTRIP
360
146
  0
DICTIONARY
  5
147
330
3B
100
AcDbDictionary
280
     1
281
     1
  3
ACAD_XREC_ROUNDTRIP
360
148
  0
DICTIONARY
  5
13D
330
36
100
AcDbDictionary
280
     1
281
     1
  3
ACAD_XREC_ROUNDTRIP
360
13E
  0
DICTIONARY
  5
131
330
30
100
AcDbDictionary
280
     1
281
     1
  3
ACAD_XREC_ROUNDTRIP
360
132
  0
DICTIONARY
  5
149
330
3C
100
AcDbDictionary
280
     1
281
     1
  3
ACAD_XREC_ROUNDTRIP
360
14A
  0
XRECORD
  5
15A
102
{ACAD_REACTORS
330
159
102
}
330
159
100
AcDbXrecord
280
     1
102
DISPLAYNAME
  1
Imperial24
102
FLAGS
 90
        0
  0
XRECORD
  5
1C
102
{ACAD_REACTORS
330
1A
102
}
330
1A
100
AcDbXrecord
280
     1
270
     1
271
     1
  0
XRECORD
  5
1B
102
{ACAD_REACTORS
330
1A
102
}
330
1A
100
AcDbXrecord
280
     1
270
     1
271
     1
  0
XRECORD
  5
1F
102
{ACAD_REACTORS
330
1A
102
}
330
1A
100
AcDbXrecord
280
     1
270
     1
271
     1
  0
XRECORD
  5
1E
102
{ACAD_REACTORS
330
1A
102
}
330
1A
100
AcDbXrecord
280
     1
270
     1
271
     1
  0
XRECORD
  5
20
102
{ACAD_REACTORS
330
1A
102
}
330
1A
100
AcDbXrecord
280
     1
270
     1
271
     1
  0
XRECORD
  5
1D
102
{ACAD_REACTORS
330
1A
102
}
330
1A
100
AcDbXrecord
280
     1
270
     1
271
     1
  0
XRECORD
  5
14
102
{ACAD_REACTORS
330
12
102
}
330
12
100
AcDbXrecord
280
     1
270
     1
271
     1
  0
XRECORD
  5
13
102
{ACAD_REACTORS
330
12
102
}
330
12
100
AcDbXrecord
280
     1
270
     1
271
     1
  0
XRECORD
  5
17
102
{ACAD_REACTORS
330
12
102
}
330
12
100
AcDbXrecord
280
     1
270
     1
271
     1
  0
XRECORD
  5
16
102
{ACAD_REACTORS
330
12
102
}
330
12
100
AcDbXrecord
280
     1
270
     1
271
     1
  0
XRECORD
  5
18
102
{ACAD_REACTORS
330
12
102
}
330
12
100
AcDbXrecord
280
     1
270
     1
271
     1
  0
XRECORD
  5
15
102
{ACAD_REACTORS
330
12
102
}
330
12
100
AcDbXrecord
280
     1
270
     1
271
     1
  0
XRECORD
  5
24
102
{ACAD_REACTORS
330
22
102
}
330
22
100
AcDbXrecord
280
     1
270
     1
271
     1
  0
XRECORD
  5
23
102
{ACAD_REACTORS
330
22
102
}
330
22
100
AcDbXrecord
280
     1
270
     1
271
     1
  0
XRECORD
  5
27
102
{ACAD_REACTORS
330
22
102
}
330
22
100
AcDbXrecord
280
     1
270
     1
271
     1
  0
XRECORD
  5
26
102
{ACAD_REACTORS
330
22
102
}
330
22
100
AcDbXrecord
280
     1
270
     1
271
     1
  0
XRECORD
  5
28
102
{ACAD_REACTORS
330
22
102
}
330
22
100
AcDbXrecord
280
     1
270
     1
271
     1
  0
XRECORD
  5
25
102
{ACAD_REACTORS
330
22
102
}
330
22
100
AcDbXrecord
280
     1
270
     1
271
     1
  0
XRECORD
  5
156
102
{ACAD_REACTORS
330
155
102
}
330
155
100
AcDbXrecord
280
     1
102
ACAD_ROUNDTRIP_2012_MLEADER_STYLE
298
     1
  0
XRECORD
  5
158
102
{ACAD_REACTORS
330
157
102
}
330
157
100
AcDbXrecord
280
     1
102
DISPLAYNAME
  1
Imperial24
102
FLAGS
 90
        0
  0
CELLSTYLEMAP
  5
123
102
{ACAD_REACTORS
330
122
102
}
330
122
100
AcDbCellStyleMap
 90
        3
300
CELLSTYLE
  1
TABLEFORMAT_BEGIN
 90
        5
170
     1
 91
        0
 92
    32768
 62
   257
 93
        1
300
CONTENTFORMAT
  1
CONTENTFORMAT_BEGIN
 90
        0
 91
        0
 92
      512
 93
        0
300

 40
0.0
140
1.0
 94
        5
 62
     0
340
55
144
0.25
309
CONTENTFORMAT_END
171
     0
 94
        0
309
TABLEFORMAT_END
  1
CELLSTYLE_BEGIN
 90
        1
 91
        1
300
_TITLE
309
CELLSTYLE_END
300
CELLSTYLE
  1
TABLEFORMAT_BEGIN
 90
        5
170
     1
 91
        0
 92
        0
 62
   257
 93
        1
300
CONTENTFORMAT
  1
CONTENTFORMAT_BEGIN
 90
        0
 91
        0
 92
      512
 93
        0
300

 40
0.0
140
1.0
 94
        5
 62
     0
340
55
144
0.18
309
CONTENTFORMAT_END
171
     0
 94
        0
309
TABLEFORMAT_END
  1
CELLSTYLE_BEGIN
 90
        2
 91
        1
300
_HEADER
309
CELLSTYLE_END
300
CELLSTYLE
  1
TABLEFORMAT_BEGIN
 90
        5
170
     1
 91
        0
 92
        0
 62
   257
 93
        1
300
CONTENTFORMAT
  1
CONTENTFORMAT_BEGIN
 90
        0
 91
        0
 92
      512
 93
        0
300

 40
0.0
140
1.0
 94
        2
 62
     0
340
55
144
0.18
309
CONTENTFORMAT_END
171
     0
 94
        0
309
TABLEFORMAT_END
  1
CELLSTYLE_BEGIN
 90
        3
 91
        2
300
_DATA
309
CELLSTYLE_END
  0
XRECORD
  5
130
102
{ACAD_REACTORS
330
12F
102
}
330
12F
100
AcDbXrecord
280
     1
102
RTVSPost2010Prop28
280
     1
102
RTVSPost2010PropOp28
 70
     1
102
RTVSPost2010Prop29
280
     1
102
RTVSPost2010PropOp29
 70
     1
102
RTVSPost2010Prop30
280
     0
102
RTVSPost2010PropOp30
 70
     1
102
RTVSPost2010Prop31
280
     0
102
RTVSPost2010PropOp31
 70
     1
102
RTVSPost2010Prop32
280
     0
102
RTVSPost2010PropOp32
 70
     1
102
RTVSPost2010Prop33
280
     0
102
RTVSPost2010PropOp33
 70
     1
102
RTVSPost2010Prop34
280
     0
102
RTVSPost2010PropOp34
 70
     1
102
RTVSPost2010Prop35
280
     0
102
RTVSPost2010PropOp35
 70
     1
102
RTVSPost2010Prop36
280
     0
102
RTVSPost2010PropOp36
 70
     1
102
RTVSPost2010Prop37
 90
       50
102
RTVSPost2010PropOp37
 70
     1
102
RTVSPost2010Prop38
140
0.0
102
RTVSPost2010PropOp38
 70
     1
102
RTVSPost2010Prop39
140
1.0
102
RTVSPost2010PropOp39
 70
     1
102
RTVSPost2010Prop40
 90
        0
102
RTVSPost2010PropOp40
 70
     1
102
RTVSPost2010Prop41ColorIndex
 90
       18
102
RTVSPost2010Prop41ColorRGB
 90
        0
102
RTVSPost2010PropOp41
 70
     1
102
RTVSPost2010Prop42
 90
       50
102
RTVSPost2010PropOp42
 70
     1
102
RTVSPost2010Prop43
 90
        3
102
RTVSPost2010PropOp43
 70
     1
102
RTVSPost2010Prop44ColorIndex
 90
        5
102
RTVSPost2010Prop44ColorRGB
 90
      255
102
RTVSPost2010PropOp44
 70
     1
102
RTVSPost2010Prop45
280
     0
102
RTVSPost2010PropOp45
 70
     1
102
RTVSPost2010Prop46
 90
       50
102
RTVSPost2010PropOp46
 70
     1
102
RTVSPost2010Prop47
 90
       50
102
RTVSPost2010PropOp47
 70
     1
102
RTVSPost2010Prop48
 90
       50
102
RTVSPost2010PropOp48
 70
     1
102
RTVSPost2010Prop49
280
     0
102
RTVSPost2010PropOp49
 70
     1
102
RTVSPost2010Prop50
 90
       50
102
RTVSPost2010PropOp50
 70
     1
102
RTVSPost2010Prop51ColorIndex
 90
      256
102
RTVSPost2010Prop51ColorRGB
 90
-16777216
102
RTVSPost2010PropOp51
 70
     0
102
RTVSPost2010Prop52
140
1.0
102
RTVSPost2010PropOp52
 70
     0
102
RTVSPost2010Prop53
 90
        2
102
RTVSPost2010PropOp53
 70
     1
102
RTVSPost2010Prop54
  1
strokes_ogs.tif
102
RTVSPost2010PropOp54
 70
     1
102
RTVSPost2010Prop55
280
     0
102
RTVSPost2010PropOp55
 70
     1
102
RTVSPost2010Prop56
140
1.0
102
RTVSPost2010PropOp56
 70
     1
102
RTVSPost2010Prop57
140
1.0
102
RTVSPost2010PropOp57
 70
     1
  0
XRECORD
  5
12E
102
{ACAD_REACTORS
330
12D
102
}
330
12D
100
AcDbXrecord
280
     1
102
RTVSPost2010Prop28
280
     0
102
RTVSPost2010PropOp28
 70
     1
102
RTVSPost2010Prop29
280
     1
102
RTVSPost2010PropOp29
 70
     1
102
RTVSPost2010Prop30
280
     1
102
RTVSPost2010PropOp30
 70
     1
102
RTVSPost2010Prop31
280
     0
102
RTVSPost2010PropOp31
 70
     1
102
RTVSPost2010Prop32
280
     0
102
RTVSPost2010PropOp32
 70
     1
102
RTVSPost2010Prop33
280
     0
102
RTVSPost2010PropOp33
 70
     1
102
RTVSPost2010Prop34
280
     0
102
RTVSPost2010PropOp34
 70
     1
102
RTVSPost2010Prop35
280
     0
102
RTVSPost2010PropOp35
 70
     1
102
RTVSPost2010Prop36
280
     0
102
RTVSPost2010PropOp36
 70
     1
102
RTVSPost2010Prop37
 90
       50
102
RTVSPost2010PropOp37
 70
     1
102
RTVSPost2010Prop38
140
0.0
102
RTVSPost2010PropOp38
 70
     1
102
RTVSPost2010Prop39
140
1.0
102
RTVSPost2010PropOp39
 70
     1
102
RTVSPost2010Prop40
 90
        0
102
RTVSPost2010PropOp40
 70
     1
102
RTVSPost2010Prop41ColorIndex
 90
       18
102
RTVSPost2010Prop41ColorRGB
 90
        0
102
RTVSPost2010PropOp41
 70
     1
102
RTVSPost2010Prop42
 90
       50
102
RTVSPost2010PropOp42
 70
     1
102
RTVSPost2010Prop43
 90
        3
102
RTVSPost2010PropOp43
 70
     1
102
RTVSPost2010Prop44ColorIndex
 90
        5
102
RTVSPost2010Prop44ColorRGB
 90
      255
102
RTVSPost2010PropOp44
 70
     1
102
RTVSPost2010Prop45
280
     0
102
RTVSPost2010PropOp45
 70
     1
102
RTVSPost2010Prop46
 90
       50
102
RTVSPost2010PropOp46
 70
     1
102
RTVSPost2010Prop47
 90
       50
102
RTVSPost2010PropOp47
 70
     1
102
RTVSPost2010Prop48
 90
       50
102
RTVSPost2010PropOp48
 70
     1
102
RTVSPost2010Prop49
280
     0
102
RTVSPost2010PropOp49
 70
     1
102
RTVSPost2010Prop50
 90
       50
102
RTVSPost2010PropOp50
 70
     1
102
RTVSPost2010Prop51ColorIndex
 90
      256
102
RTVSPost2010Prop51ColorRGB
 90
-16777216
102
RTVSPost2010PropOp51
 70
     0
102
RTVSPost2010Prop52
140
1.0
102
RTVSPost2010PropOp52
 70
     0
102
RTVSPost2010Prop53
 90
        2
102
RTVSPost2010PropOp53
 70
     1
102
RTVSPost2010Prop54
  1
strokes_ogs.tif
102
RTVSPost2010PropOp54
 70
     1
102
RTVSPost2010Prop55
280
     0
102
RTVSPost2010PropOp55
 70
     1
102
RTVSPost2010Prop56
140
1.0
102
RTVSPost2010PropOp56
 70
     1
102
RTVSPost2010Prop57
140
1.0
102
RTVSPost2010PropOp57
 70
     1
  0
XRECORD
  5
13C
102
{ACAD_REACTORS
330
13B
102
}
330
13B
100
AcDbXrecord
280
     1
102
RTVSPost2010Prop28
280
     0
102
RTVSPost2010PropOp28
 70
     1
102
RTVSPost2010Prop29
280
     1
102
RTVSPost2010PropOp29
 70
     1
102
RTVSPost2010Prop30
280
     1
102
RTVSPost2010PropOp30
 70
     1
102
RTVSPost2010Prop31
280
     0
102
RTVSPost2010PropOp31
 70
     1
102
RTVSPost2010Prop32
280
     0
102
RTVSPost2010PropOp32
 70
     1
102
RTVSPost2010Prop33
280
     0
102
RTVSPost2010PropOp33
 70
     1
102
RTVSPost2010Prop34
280
     0
102
RTVSPost2010PropOp34
 70
     1
102
RTVSPost2010Prop35
280
     0
102
RTVSPost2010PropOp35
 70
     1
102
RTVSPost2010Prop36
280
     0
102
RTVSPost2010PropOp36
 70
     1
102
RTVSPost2010Prop37
 90
       50
102
RTVSPost2010PropOp37
 70
     1
102
RTVSPost2010Prop38
140
0.0
102
RTVSPost2010PropOp38
 70
     1
102
RTVSPost2010Prop39
140
1.0
102
RTVSPost2010PropOp39
 70
     1
102
RTVSPost2010Prop40
 90
        0
102
RTVSPost2010PropOp40
 70
     1
102
RTVSPost2010Prop41ColorIndex
 90
       18
102
RTVSPost2010Prop41ColorRGB
 90
        0
102
RTVSPost2010PropOp41
 70
     1
102
RTVSPost2010Prop42
 90
       50
102
RTVSPost2010PropOp42
 70
     1
102
RTVSPost2010Prop43
 90
        3
102
RTVSPost2010PropOp43
 70
     1
102
RTVSPost2010Prop44ColorIndex
 90
        5
102
RTVSPost2010Prop44ColorRGB
 90
      255
102
RTVSPost2010PropOp44
 70
     1
102
RTVSPost2010Prop45
280
     0
102
RTVSPost2010PropOp45
 70
     1
102
RTVSPost2010Prop46
 90
       50
102
RTVSPost2010PropOp46
 70
     1
102
RTVSPost2010Prop47
 90
       50
102
RTVSPost2010PropOp47
 70
     1
102
RTVSPost2010Prop48
 90
       50
102
RTVSPost2010PropOp48
 70
     1
102
RTVSPost2010Prop49
280
     0
102
RTVSPost2010PropOp49
 70
     1
102
RTVSPost2010Prop50
 90
       50
102
RTVSPost2010PropOp50
 70
     1
102
RTVSPost2010Prop51ColorIndex
 90
      256
102
RTVSPost2010Prop51ColorRGB
 90
-16777216
102
RTVSPost2010PropOp51
 70
     0
102
RTVSPost2010Prop52
140
1.0
102
RTVSPost2010PropOp52
 70
     0
102
RTVSPost2010Prop53
 90
        2
102
RTVSPost2010PropOp53
 70
     1
102
RTVSPost2010Prop54
  1
strokes_ogs.tif
102
RTVSPost2010PropOp54
 70
     1
102
RTVSPost2010Prop55
280
     0
102
RTVSPost2010PropOp55
 70
     1
102
RTVSPost2010Prop56
140
1.0
102
RTVSPost2010PropOp56
 70
     1
102
RTVSPost2010Prop57
140
1.0
102
RTVSPost2010PropOp57
 70
     1
  0
XRECORD
  5
144
102
{ACAD_REACTORS
330
143
102
}
330
143
100
AcDbXrecord
280
     1
102
RTVSPost2010Prop28
280
     0
102
RTVSPost2010PropOp28
 70
     1
102
RTVSPost2010Prop29
280
     1
102
RTVSPost2010PropOp29
 70
     1
102
RTVSPost2010Prop30
280
     1
102
RTVSPost2010PropOp30
 70
     1
102
RTVSPost2010Prop31
280
     0
102
RTVSPost2010PropOp31
 70
     1
102
RTVSPost2010Prop32
280
     0
102
RTVSPost2010PropOp32
 70
     1
102
RTVSPost2010Prop33
280
     0
102
RTVSPost2010PropOp33
 70
     1
102
RTVSPost2010Prop34
280
     0
102
RTVSPost2010PropOp34
 70
     1
102
RTVSPost2010Prop35
280
     0
102
RTVSPost2010PropOp35
 70
     1
102
RTVSPost2010Prop36
280
     0
102
RTVSPost2010PropOp36
 70
     1
102
RTVSPost2010Prop37
 90
       50
102
RTVSPost2010PropOp37
 70
     1
102
RTVSPost2010Prop38
140
0.0
102
RTVSPost2010PropOp38
 70
     1
102
RTVSPost2010Prop39
140
1.0
102
RTVSPost2010PropOp39
 70
     1
102
RTVSPost2010Prop40
 90
        0
102
RTVSPost2010PropOp40
 70
     1
102
RTVSPost2010Prop41ColorIndex
 90
       18
102
RTVSPost2010Prop41ColorRGB
 90
        0
102
RTVSPost2010PropOp41
 70
     1
102
RTVSPost2010Prop42
 90
       50
102
RTVSPost2010PropOp42
 70
     1
102
RTVSPost2010Prop43
 90
        3
102
RTVSPost2010PropOp43
 70
     1
102
RTVSPost2010Prop44ColorIndex
 90
        5
102
RTVSPost2010Prop44ColorRGB
 90
      255
102
RTVSPost2010PropOp44
 70
     1
102
RTVSPost2010Prop45
280
     0
102
RTVSPost2010PropOp45
 70
     1
102
RTVSPost2010Prop46
 90
       50
102
RTVSPost2010PropOp46
 70
     1
102
RTVSPost2010Prop47
 90
       50
102
RTVSPost2010PropOp47
 70
     1
102
RTVSPost2010Prop48
 90
       50
102
RTVSPost2010PropOp48
 70
     1
102
RTVSPost2010Prop49
280
     0
102
RTVSPost2010PropOp49
 70
     1
102
RTVSPost2010Prop50
 90
       50
102
RTVSPost2010PropOp50
 70
     1
102
RTVSPost2010Prop51ColorIndex
 90
      256
102
RTVSPost2010Prop51ColorRGB
 90
-16777216
102
RTVSPost2010PropOp51
 70
     0
102
RTVSPost2010Prop52
140
1.0
102
RTVSPost2010PropOp52
 70
     0
102
RTVSPost2010Prop53
 90
        2
102
RTVSPost2010PropOp53
 70
     1
102
RTVSPost2010Prop54
  1
strokes_ogs.tif
102
RTVSPost2010PropOp54
 70
     1
102
RTVSPost2010Prop55
280
     0
102
RTVSPost2010PropOp55
 70
     1
102
RTVSPost2010Prop56
140
1.0
102
RTVSPost2010PropOp56
 70
     1
102
RTVSPost2010Prop57
140
1.0
102
RTVSPost2010PropOp57
 70
     1
  0
XRECORD
  5
136
102
{ACAD_REACTORS
330
135
102
}
330
135
100
AcDbXrecord
280
     1
102
RTVSPost2010Prop28
280
     0
102
RTVSPost2010PropOp28
 70
     1
102
RTVSPost2010Prop29
280
     1
102
RTVSPost2010PropOp29
 70
     1
102
RTVSPost2010Prop30
280
     1
102
RTVSPost2010PropOp30
 70
     1
102
RTVSPost2010Prop31
280
     0
102
RTVSPost2010PropOp31
 70
     1
102
RTVSPost2010Prop32
280
     0
102
RTVSPost2010PropOp32
 70
     1
102
RTVSPost2010Prop33
280
     0
102
RTVSPost2010PropOp33
 70
     1
102
RTVSPost2010Prop34
280
     0
102
RTVSPost2010PropOp34
 70
     1
102
RTVSPost2010Prop35
280
     0
102
RTVSPost2010PropOp35
 70
     1
102
RTVSPost2010Prop36
280
     0
102
RTVSPost2010PropOp36
 70
     1
102
RTVSPost2010Prop37
 90
       50
102
RTVSPost2010PropOp37
 70
     1
102
RTVSPost2010Prop38
140
0.0
102
RTVSPost2010PropOp38
 70
     1
102
RTVSPost2010Prop39
140
1.0
102
RTVSPost2010PropOp39
 70
     1
102
RTVSPost2010Prop40
 90
        0
102
RTVSPost2010PropOp40
 70
     1
102
RTVSPost2010Prop41ColorIndex
 90
       18
102
RTVSPost2010Prop41ColorRGB
 90
        0
102
RTVSPost2010PropOp41
 70
     1
102
RTVSPost2010Prop42
 90
       50
102
RTVSPost2010PropOp42
 70
     1
102
RTVSPost2010Prop43
 90
        3
102
RTVSPost2010PropOp43
 70
     1
102
RTVSPost2010Prop44ColorIndex
 90
        5
102
RTVSPost2010Prop44ColorRGB
 90
      255
102
RTVSPost2010PropOp44
 70
     1
102
RTVSPost2010Prop45
280
     0
102
RTVSPost2010PropOp45
 70
     1
102
RTVSPost2010Prop46
 90
       50
102
RTVSPost2010PropOp46
 70
     1
102
RTVSPost2010Prop47
 90
       50
102
RTVSPost2010PropOp47
 70
     1
102
RTVSPost2010Prop48
 90
       50
102
RTVSPost2010PropOp48
 70
     1
102
RTVSPost2010Prop49
280
     0
102
RTVSPost2010PropOp49
 70
     1
102
RTVSPost2010Prop50
 90
       50
102
RTVSPost2010PropOp50
 70
     1
102
RTVSPost2010Prop51ColorIndex
 90
      256
102
RTVSPost2010Prop51ColorRGB
 90
-16777216
102
RTVSPost2010PropOp51
 70
     0
102
RTVSPost2010Prop52
140
1.0
102
RTVSPost2010PropOp52
 70
     0
102
RTVSPost2010Prop53
 90
        2
102
RTVSPost2010PropOp53
 70
     1
102
RTVSPost2010Prop54
  1
strokes_ogs.tif
102
RTVSPost2010PropOp54
 70
     1
102
RTVSPost2010Prop55
280
     0
102
RTVSPost2010PropOp55
 70
     1
102
RTVSPost2010Prop56
140
1.0
102
RTVSPost2010PropOp56
 70
     1
102
RTVSPost2010Prop57
140
1.0
102
RTVSPost2010PropOp57
 70
     1
  0
XRECORD
  5
13A
102
{ACAD_REACTORS
330
139
102
}
330
139
100
AcDbXrecord
280
     1
102
RTVSPost2010Prop28
280
     0
102
RTVSPost2010PropOp28
 70
     1
102
RTVSPost2010Prop29
280
     1
102
RTVSPost2010PropOp29
 70
     1
102
RTVSPost2010Prop30
280
     1
102
RTVSPost2010PropOp30
 70
     1
102
RTVSPost2010Prop31
280
     0
102
RTVSPost2010PropOp31
 70
     1
102
RTVSPost2010Prop32
280
     0
102
RTVSPost2010PropOp32
 70
     1
102
RTVSPost2010Prop33
280
     0
102
RTVSPost2010PropOp33
 70
     1
102
RTVSPost2010Prop34
280
     0
102
RTVSPost2010PropOp34
 70
     1
102
RTVSPost2010Prop35
280
     0
102
RTVSPost2010PropOp35
 70
     1
102
RTVSPost2010Prop36
280
     0
102
RTVSPost2010PropOp36
 70
     1
102
RTVSPost2010Prop37
 90
       50
102
RTVSPost2010PropOp37
 70
     1
102
RTVSPost2010Prop38
140
0.0
102
RTVSPost2010PropOp38
 70
     1
102
RTVSPost2010Prop39
140
1.0
102
RTVSPost2010PropOp39
 70
     1
102
RTVSPost2010Prop40
 90
        0
102
RTVSPost2010PropOp40
 70
     1
102
RTVSPost2010Prop41ColorIndex
 90
       18
102
RTVSPost2010Prop41ColorRGB
 90
        0
102
RTVSPost2010PropOp41
 70
     1
102
RTVSPost2010Prop42
 90
       50
102
RTVSPost2010PropOp42
 70
     1
102
RTVSPost2010Prop43
 90
        3
102
RTVSPost2010PropOp43
 70
     1
102
RTVSPost2010Prop44ColorIndex
 90
        5
102
RTVSPost2010Prop44ColorRGB
 90
      255
102
RTVSPost2010PropOp44
 70
     1
102
RTVSPost2010Prop45
280
     0
102
RTVSPost2010PropOp45
 70
     1
102
RTVSPost2010Prop46
 90
       50
102
RTVSPost2010PropOp46
 70
     1
102
RTVSPost2010Prop47
 90
       50
102
RTVSPost2010PropOp47
 70
     1
102
RTVSPost2010Prop48
 90
       50
102
RTVSPost2010PropOp48
 70
     1
102
RTVSPost2010Prop49
280
     0
102
RTVSPost2010PropOp49
 70
     1
102
RTVSPost2010Prop50
 90
       50
102
RTVSPost2010PropOp50
 70
     1
102
RTVSPost2010Prop51ColorIndex
 90
      256
102
RTVSPost2010Prop51ColorRGB
 90
-16777216
102
RTVSPost2010PropOp51
 70
     0
102
RTVSPost2010Prop52
140
1.0
102
RTVSPost2010PropOp52
 70
     0
102
RTVSPost2010Prop53
 90
        2
102
RTVSPost2010PropOp53
 70
     1
102
RTVSPost2010Prop54
  1
strokes_ogs.tif
102
RTVSPost2010PropOp54
 70
     1
102
RTVSPost2010Prop55
280
     0
102
RTVSPost2010PropOp55
 70
     1
102
RTVSPost2010Prop56
140
1.0
102
RTVSPost2010PropOp56
 70
     1
102
RTVSPost2010Prop57
140
1.0
102
RTVSPost2010PropOp57
 70
     1
  0
XRECORD
  5
154
102
{ACAD_REACTORS
330
153
102
}
330
153
100
AcDbXrecord
280
     1
102
RTVSPost2010Prop28
280
     0
102
RTVSPost2010PropOp28
 70
     0
102
RTVSPost2010Prop29
280
     1
102
RTVSPost2010PropOp29
 70
     0
102
RTVSPost2010Prop30
280
     1
102
RTVSPost2010PropOp30
 70
     0
102
RTVSPost2010Prop31
280
     0
102
RTVSPost2010PropOp31
 70
     0
102
RTVSPost2010Prop32
280
     0
102
RTVSPost2010PropOp32
 70
     0
102
RTVSPost2010Prop33
280
     0
102
RTVSPost2010PropOp33
 70
     0
102
RTVSPost2010Prop34
280
     0
102
RTVSPost2010PropOp34
 70
     0
102
RTVSPost2010Prop35
280
     0
102
RTVSPost2010PropOp35
 70
     0
102
RTVSPost2010Prop36
280
     0
102
RTVSPost2010PropOp36
 70
     0
102
RTVSPost2010Prop37
 90
       50
102
RTVSPost2010PropOp37
 70
     0
102
RTVSPost2010Prop38
140
0.0
102
RTVSPost2010PropOp38
 70
     0
102
RTVSPost2010Prop39
140
1.0
102
RTVSPost2010PropOp39
 70
     0
102
RTVSPost2010Prop40
 90
        0
102
RTVSPost2010PropOp40
 70
     0
102
RTVSPost2010Prop41ColorIndex
 90
       18
102
RTVSPost2010Prop41ColorRGB
 90
        0
102
RTVSPost2010PropOp41
 70
     0
102
RTVSPost2010Prop42
 90
       50
102
RTVSPost2010PropOp42
 70
     0
102
RTVSPost2010Prop43
 90
        3
102
RTVSPost2010PropOp43
 70
     0
102
RTVSPost2010Prop44ColorIndex
 90
        5
102
RTVSPost2010Prop44ColorRGB
 90
      255
102
RTVSPost2010PropOp44
 70
     0
102
RTVSPost2010Prop45
280
     0
102
RTVSPost2010PropOp45
 70
     0
102
RTVSPost2010Prop46
 90
       50
102
RTVSPost2010PropOp46
 70
     0
102
RTVSPost2010Prop47
 90
       50
102
RTVSPost2010PropOp47
 70
     0
102
RTVSPost2010Prop48
 90
       50
102
RTVSPost2010PropOp48
 70
     0
102
RTVSPost2010Prop49
280
     0
102
RTVSPost2010PropOp49
 70
     0
102
RTVSPost2010Prop50
 90
       50
102
RTVSPost2010PropOp50
 70
     0
102
RTVSPost2010Prop51ColorIndex
 90
      256
102
RTVSPost2010Prop51ColorRGB
 90
-16777216
102
RTVSPost2010PropOp51
 70
     0
102
RTVSPost2010Prop52
140
1.0
102
RTVSPost2010PropOp52
 70
     0
102
RTVSPost2010Prop53
 90
        2
102
RTVSPost2010PropOp53
 70
     0
102
RTVSPost2010Prop54
  1
strokes_ogs.tif
102
RTVSPost2010PropOp54
 70
     0
102
RTVSPost2010Prop55
280
     0
102
RTVSPost2010PropOp55
 70
     0
102
RTVSPost2010Prop56
140
1.0
102
RTVSPost2010PropOp56
 70
     0
102
RTVSPost2010Prop57
140
1.0
102
RTVSPost2010PropOp57
 70
     0
  0
XRECORD
  5
142
102
{ACAD_REACTORS
330
141
102
}
330
141
100
AcDbXrecord
280
     1
102
RTVSPost2010Prop28
280
     0
102
RTVSPost2010PropOp28
 70
     1
102
RTVSPost2010Prop29
280
     1
102
RTVSPost2010PropOp29
 70
     1
102
RTVSPost2010Prop30
280
     1
102
RTVSPost2010PropOp30
 70
     1
102
RTVSPost2010Prop31
280
     0
102
RTVSPost2010PropOp31
 70
     1
102
RTVSPost2010Prop32
280
     0
102
RTVSPost2010PropOp32
 70
     1
102
RTVSPost2010Prop33
280
     0
102
RTVSPost2010PropOp33
 70
     1
102
RTVSPost2010Prop34
280
     0
102
RTVSPost2010PropOp34
 70
     1
102
RTVSPost2010Prop35
280
     0
102
RTVSPost2010PropOp35
 70
     1
102
RTVSPost2010Prop36
280
     0
102
RTVSPost2010PropOp36
 70
     1
102
RTVSPost2010Prop37
 90
       50
102
RTVSPost2010PropOp37
 70
     1
102
RTVSPost2010Prop38
140
0.0
102
RTVSPost2010PropOp38
 70
     1
102
RTVSPost2010Prop39
140
1.0
102
RTVSPost2010PropOp39
 70
     1
102
RTVSPost2010Prop40
 90
        0
102
RTVSPost2010PropOp40
 70
     1
102
RTVSPost2010Prop41ColorIndex
 90
       18
102
RTVSPost2010Prop41ColorRGB
 90
        0
102
RTVSPost2010PropOp41
 70
     1
102
RTVSPost2010Prop42
 90
       50
102
RTVSPost2010PropOp42
 70
     1
102
RTVSPost2010Prop43
 90
        3
102
RTVSPost2010PropOp43
 70
     1
102
RTVSPost2010Prop44ColorIndex
 90
        5
102
RTVSPost2010Prop44ColorRGB
 90
      255
102
RTVSPost2010PropOp44
 70
     1
102
RTVSPost2010Prop45
280
     0
102
RTVSPost2010PropOp45
 70
     1
102
RTVSPost2010Prop46
 90
       50
102
RTVSPost2010PropOp46
 70
     1
102
RTVSPost2010Prop47
 90
       50
102
RTVSPost2010PropOp47
 70
     1
102
RTVSPost2010Prop48
 90
       50
102
RTVSPost2010PropOp48
 70
     1
102
RTVSPost2010Prop49
280
     0
102
RTVSPost2010PropOp49
 70
     1
102
RTVSPost2010Prop50
 90
       50
102
RTVSPost2010PropOp50
 70
     1
102
RTVSPost2010Prop51ColorIndex
 90
      256
102
RTVSPost2010Prop51ColorRGB
 90
-16777216
102
RTVSPost2010PropOp51
 70
     0
102
RTVSPost2010Prop52
140
1.0
102
RTVSPost2010PropOp52
 70
     0
102
RTVSPost2010Prop53
 90
        2
102
RTVSPost2010PropOp53
 70
     1
102
RTVSPost2010Prop54
  1
strokes_ogs.tif
102
RTVSPost2010PropOp54
 70
     1
102
RTVSPost2010Prop55
280
     0
102
RTVSPost2010PropOp55
 70
     1
102
RTVSPost2010Prop56
140
1.0
102
RTVSPost2010PropOp56
 70
     1
102
RTVSPost2010Prop57
140
1.0
102
RTVSPost2010PropOp57
 70
     1
  0
XRECORD
  5
126
102
{ACAD_REACTORS
330
125
102
}
330
125
100
AcDbXrecord
280
     1
102
RTVSPost2010Prop28
280
     0
102
RTVSPost2010PropOp28
 70
     1
102
RTVSPost2010Prop29
280
     1
102
RTVSPost2010PropOp29
 70
     1
102
RTVSPost2010Prop30
280
     1
102
RTVSPost2010PropOp30
 70
     1
102
RTVSPost2010Prop31
280
     0
102
RTVSPost2010PropOp31
 70
     1
102
RTVSPost2010Prop32
280
     0
102
RTVSPost2010PropOp32
 70
     1
102
RTVSPost2010Prop33
280
     0
102
RTVSPost2010PropOp33
 70
     1
102
RTVSPost2010Prop34
280
     0
102
RTVSPost2010PropOp34
 70
     1
102
RTVSPost2010Prop35
280
     0
102
RTVSPost2010PropOp35
 70
     1
102
RTVSPost2010Prop36
280
     0
102
RTVSPost2010PropOp36
 70
     1
102
RTVSPost2010Prop37
 90
       50
102
RTVSPost2010PropOp37
 70
     1
102
RTVSPost2010Prop38
140
0.0
102
RTVSPost2010PropOp38
 70
     1
102
RTVSPost2010Prop39
140
1.0
102
RTVSPost2010PropOp39
 70
     1
102
RTVSPost2010Prop40
 90
        0
102
RTVSPost2010PropOp40
 70
     1
102
RTVSPost2010Prop41ColorIndex
 90
       18
102
RTVSPost2010Prop41ColorRGB
 90
        0
102
RTVSPost2010PropOp41
 70
     1
102
RTVSPost2010Prop42
 90
       50
102
RTVSPost2010PropOp42
 70
     1
102
RTVSPost2010Prop43
 90
        3
102
RTVSPost2010PropOp43
 70
     1
102
RTVSPost2010Prop44ColorIndex
 90
        5
102
RTVSPost2010Prop44ColorRGB
 90
      255
102
RTVSPost2010PropOp44
 70
     1
102
RTVSPost2010Prop45
280
     0
102
RTVSPost2010PropOp45
 70
     1
102
RTVSPost2010Prop46
 90
       50
102
RTVSPost2010PropOp46
 70
     1
102
RTVSPost2010Prop47
 90
       50
102
RTVSPost2010PropOp47
 70
     1
102
RTVSPost2010Prop48
 90
       50
102
RTVSPost2010PropOp48
 70
     1
102
RTVSPost2010Prop49
280
     0
102
RTVSPost2010PropOp49
 70
     1
102
RTVSPost2010Prop50
 90
       50
102
RTVSPost2010PropOp50
 70
     1
102
RTVSPost2010Prop51ColorIndex
 90
      256
102
RTVSPost2010Prop51ColorRGB
 90
-16777216
102
RTVSPost2010PropOp51
 70
     0
102
RTVSPost2010Prop52
140
1.0
102
RTVSPost2010PropOp52
 70
     0
102
RTVSPost2010Prop53
 90
        2
102
RTVSPost2010PropOp53
 70
     1
102
RTVSPost2010Prop54
  1
strokes_ogs.tif
102
RTVSPost2010PropOp54
 70
     1
102
RTVSPost2010Prop55
280
     0
102
RTVSPost2010PropOp55
 70
     1
102
RTVSPost2010Prop56
140
1.0
102
RTVSPost2010PropOp56
 70
     1
102
RTVSPost2010Prop57
140
1.0
102
RTVSPost2010PropOp57
 70
     1
  0
XRECORD
  5
128
102
{ACAD_REACTORS
330
127
102
}
330
127
100
AcDbXrecord
280
     1
102
RTVSPost2010Prop28
280
     0
102
RTVSPost2010PropOp28
 70
     1
102
RTVSPost2010Prop29
280
     1
102
RTVSPost2010PropOp29
 70
     1
102
RTVSPost2010Prop30
280
     1
102
RTVSPost2010PropOp30
 70
     1
102
RTVSPost2010Prop31
280
     0
102
RTVSPost2010PropOp31
 70
     1
102
RTVSPost2010Prop32
280
     0
102
RTVSPost2010PropOp32
 70
     1
102
RTVSPost2010Prop33
280
     0
102
RTVSPost2010PropOp33
 70
     1
102
RTVSPost2010Prop34
280
     0
102
RTVSPost2010PropOp34
 70
     1
102
RTVSPost2010Prop35
280
     0
102
RTVSPost2010PropOp35
 70
     1
102
RTVSPost2010Prop36
280
     0
102
RTVSPost2010PropOp36
 70
     1
102
RTVSPost2010Prop37
 90
       50
102
RTVSPost2010PropOp37
 70
     1
102
RTVSPost2010Prop38
140
0.0
102
RTVSPost2010PropOp38
 70
     1
102
RTVSPost2010Prop39
140
1.0
102
RTVSPost2010PropOp39
 70
     1
102
RTVSPost2010Prop40
 90
        0
102
RTVSPost2010PropOp40
 70
     1
102
RTVSPost2010Prop41ColorIndex
 90
       18
102
RTVSPost2010Prop41ColorRGB
 90
        0
102
RTVSPost2010PropOp41
 70
     1
102
RTVSPost2010Prop42
 90
       50
102
RTVSPost2010PropOp42
 70
     1
102
RTVSPost2010Prop43
 90
        3
102
RTVSPost2010PropOp43
 70
     1
102
RTVSPost2010Prop44ColorIndex
 90
        5
102
RTVSPost2010Prop44ColorRGB
 90
      255
102
RTVSPost2010PropOp44
 70
     1
102
RTVSPost2010Prop45
280
     0
102
RTVSPost2010PropOp45
 70
     1
102
RTVSPost2010Prop46
 90
       50
102
RTVSPost2010PropOp46
 70
     1
102
RTVSPost2010Prop47
 90
       50
102
RTVSPost2010PropOp47
 70
     1
102
RTVSPost2010Prop48
 90
       50
102
RTVSPost2010PropOp48
 70
     1
102
RTVSPost2010Prop49
280
     0
102
RTVSPost2010PropOp49
 70
     1
102
RTVSPost2010Prop50
 90
       50
102
RTVSPost2010PropOp50
 70
     1
102
RTVSPost2010Prop51ColorIndex
 90
      256
102
RTVSPost2010Prop51ColorRGB
 90
-16777216
102
RTVSPost2010PropOp51
 70
     0
102
RTVSPost2010Prop52
140
1.0
102
RTVSPost2010PropOp52
 70
     0
102
RTVSPost2010Prop53
 90
        2
102
RTVSPost2010PropOp53
 70
     1
102
RTVSPost2010Prop54
  1
strokes_ogs.tif
102
RTVSPost2010PropOp54
 70
     1
102
RTVSPost2010Prop55
280
     0
102
RTVSPost2010PropOp55
 70
     1
102
RTVSPost2010Prop56
140
1.0
102
RTVSPost2010PropOp56
 70
     1
102
RTVSPost2010Prop57
140
1.0
102
RTVSPost2010PropOp57
 70
     1
  0
XRECORD
  5
12A
102
{ACAD_REACTORS
330
129
102
}
330
129
100
AcDbXrecord
280
     1
102
RTVSPost2010Prop28
280
     0
102
RTVSPost2010PropOp28
 70
     1
102
RTVSPost2010Prop29
280
     1
102
RTVSPost2010PropOp29
 70
     1
102
RTVSPost2010Prop30
280
     1
102
RTVSPost2010PropOp30
 70
     1
102
RTVSPost2010Prop31
280
     0
102
RTVSPost2010PropOp31
 70
     1
102
RTVSPost2010Prop32
280
     0
102
RTVSPost2010PropOp32
 70
     1
102
RTVSPost2010Prop33
280
     0
102
RTVSPost2010PropOp33
 70
     1
102
RTVSPost2010Prop34
280
     0
102
RTVSPost2010PropOp34
 70
     1
102
RTVSPost2010Prop35
280
     0
102
RTVSPost2010PropOp35
 70
     1
102
RTVSPost2010Prop36
280
     0
102
RTVSPost2010PropOp36
 70
     1
102
RTVSPost2010Prop37
 90
       50
102
RTVSPost2010PropOp37
 70
     1
102
RTVSPost2010Prop38
140
0.0
102
RTVSPost2010PropOp38
 70
     1
102
RTVSPost2010Prop39
140
1.0
102
RTVSPost2010PropOp39
 70
     1
102
RTVSPost2010Prop40
 90
        0
102
RTVSPost2010PropOp40
 70
     1
102
RTVSPost2010Prop41ColorIndex
 90
       18
102
RTVSPost2010Prop41ColorRGB
 90
        0
102
RTVSPost2010PropOp41
 70
     1
102
RTVSPost2010Prop42
 90
       50
102
RTVSPost2010PropOp42
 70
     1
102
RTVSPost2010Prop43
 90
        3
102
RTVSPost2010PropOp43
 70
     1
102
RTVSPost2010Prop44ColorIndex
 90
        5
102
RTVSPost2010Prop44ColorRGB
 90
      255
102
RTVSPost2010PropOp44
 70
     1
102
RTVSPost2010Prop45
280
     0
102
RTVSPost2010PropOp45
 70
     1
102
RTVSPost2010Prop46
 90
       50
102
RTVSPost2010PropOp46
 70
     1
102
RTVSPost2010Prop47
 90
       50
102
RTVSPost2010PropOp47
 70
     1
102
RTVSPost2010Prop48
 90
       50
102
RTVSPost2010PropOp48
 70
     1
102
RTVSPost2010Prop49
280
     0
102
RTVSPost2010PropOp49
 70
     1
102
RTVSPost2010Prop50
 90
       50
102
RTVSPost2010PropOp50
 70
     1
102
RTVSPost2010Prop51ColorIndex
 90
      256
102
RTVSPost2010Prop51ColorRGB
 90
-16777216
102
RTVSPost2010PropOp51
 70
     0
102
RTVSPost2010Prop52
140
1.0
102
RTVSPost2010PropOp52
 70
     0
102
RTVSPost2010Prop53
 90
        2
102
RTVSPost2010PropOp53
 70
     1
102
RTVSPost2010Prop54
  1
strokes_ogs.tif
102
RTVSPost2010PropOp54
 70
     1
102
RTVSPost2010Prop55
280
     0
102
RTVSPost2010PropOp55
 70
     1
102
RTVSPost2010Prop56
140
1.0
102
RTVSPost2010PropOp56
 70
     1
102
RTVSPost2010Prop57
140
1.0
102
RTVSPost2010PropOp57
 70
     1
  0
XRECORD
  5
12C
102
{ACAD_REACTORS
330
12B
102
}
330
12B
100
AcDbXrecord
280
     1
102
RTVSPost2010Prop28
280
     0
102
RTVSPost2010PropOp28
 70
     1
102
RTVSPost2010Prop29
280
     1
102
RTVSPost2010PropOp29
 70
     1
102
RTVSPost2010Prop30
280
     1
102
RTVSPost2010PropOp30
 70
     1
102
RTVSPost2010Prop31
280
     0
102
RTVSPost2010PropOp31
 70
     1
102
RTVSPost2010Prop32
280
     0
102
RTVSPost2010PropOp32
 70
     1
102
RTVSPost2010Prop33
280
     0
102
RTVSPost2010PropOp33
 70
     1
102
RTVSPost2010Prop34
280
     0
102
RTVSPost2010PropOp34
 70
     1
102
RTVSPost2010Prop35
280
     0
102
RTVSPost2010PropOp35
 70
     1
102
RTVSPost2010Prop36
280
     0
102
RTVSPost2010PropOp36
 70
     1
102
RTVSPost2010Prop37
 90
       50
102
RTVSPost2010PropOp37
 70
     1
102
RTVSPost2010Prop38
140
0.0
102
RTVSPost2010PropOp38
 70
     1
102
RTVSPost2010Prop39
140
1.0
102
RTVSPost2010PropOp39
 70
     1
102
RTVSPost2010Prop40
 90
        0
102
RTVSPost2010PropOp40
 70
     1
102
RTVSPost2010Prop41ColorIndex
 90
       18
102
RTVSPost2010Prop41ColorRGB
 90
        0
102
RTVSPost2010PropOp41
 70
     1
102
RTVSPost2010Prop42
 90
       50
102
RTVSPost2010PropOp42
 70
     1
102
RTVSPost2010Prop43
 90
        3
102
RTVSPost2010PropOp43
 70
     1
102
RTVSPost2010Prop44ColorIndex
 90
        5
102
RTVSPost2010Prop44ColorRGB
 90
      255
102
RTVSPost2010PropOp44
 70
     1
102
RTVSPost2010Prop45
280
     0
102
RTVSPost2010PropOp45
 70
     1
102
RTVSPost2010Prop46
 90
       50
102
RTVSPost2010PropOp46
 70
     1
102
RTVSPost2010Prop47
 90
       50
102
RTVSPost2010PropOp47
 70
     1
102
RTVSPost2010Prop48
 90
       50
102
RTVSPost2010PropOp48
 70
     1
102
RTVSPost2010Prop49
280
     0
102
RTVSPost2010PropOp49
 70
     1
102
RTVSPost2010Prop50
 90
       50
102
RTVSPost2010PropOp50
 70
     1
102
RTVSPost2010Prop51ColorIndex
 90
      256
102
RTVSPost2010Prop51ColorRGB
 90
-16777216
102
RTVSPost2010PropOp51
 70
     0
102
RTVSPost2010Prop52
140
1.0
102
RTVSPost2010PropOp52
 70
     0
102
RTVSPost2010Prop53
 90
        2
102
RTVSPost2010PropOp53
 70
     1
102
RTVSPost2010Prop54
  1
strokes_ogs.tif
102
RTVSPost2010PropOp54
 70
     1
102
RTVSPost2010Prop55
280
     0
102
RTVSPost2010PropOp55
 70
     1
102
RTVSPost2010Prop56
140
1.0
102
RTVSPost2010PropOp56
 70
     1
102
RTVSPost2010Prop57
140
1.0
102
RTVSPost2010PropOp57
 70
     1
  0
XRECORD
  5
134
102
{ACAD_REACTORS
330
133
102
}
330
133
100
AcDbXrecord
280
     1
102
RTVSPost2010Prop28
280
     0
102
RTVSPost2010PropOp28
 70
     1
102
RTVSPost2010Prop29
280
     1
102
RTVSPost2010PropOp29
 70
     1
102
RTVSPost2010Prop30
280
     1
102
RTVSPost2010PropOp30
 70
     1
102
RTVSPost2010Prop31
280
     0
102
RTVSPost2010PropOp31
 70
     1
102
RTVSPost2010Prop32
280
     0
102
RTVSPost2010PropOp32
 70
     1
102
RTVSPost2010Prop33
280
     0
102
RTVSPost2010PropOp33
 70
     1
102
RTVSPost2010Prop34
280
     0
102
RTVSPost2010PropOp34
 70
     1
102
RTVSPost2010Prop35
280
     0
102
RTVSPost2010PropOp35
 70
     1
102
RTVSPost2010Prop36
280
     0
102
RTVSPost2010PropOp36
 70
     1
102
RTVSPost2010Prop37
 90
       50
102
RTVSPost2010PropOp37
 70
     1
102
RTVSPost2010Prop38
140
0.0
102
RTVSPost2010PropOp38
 70
     1
102
RTVSPost2010Prop39
140
1.0
102
RTVSPost2010PropOp39
 70
     1
102
RTVSPost2010Prop40
 90
        0
102
RTVSPost2010PropOp40
 70
     1
102
RTVSPost2010Prop41ColorIndex
 90
       18
102
RTVSPost2010Prop41ColorRGB
 90
        0
102
RTVSPost2010PropOp41
 70
     1
102
RTVSPost2010Prop42
 90
       50
102
RTVSPost2010PropOp42
 70
     1
102
RTVSPost2010Prop43
 90
        3
102
RTVSPost2010PropOp43
 70
     1
102
RTVSPost2010Prop44ColorIndex
 90
        5
102
RTVSPost2010Prop44ColorRGB
 90
      255
102
RTVSPost2010PropOp44
 70
     1
102
RTVSPost2010Prop45
280
     0
102
RTVSPost2010PropOp45
 70
     1
102
RTVSPost2010Prop46
 90
       50
102
RTVSPost2010PropOp46
 70
     1
102
RTVSPost2010Prop47
 90
       50
102
RTVSPost2010PropOp47
 70
     1
102
RTVSPost2010Prop48
 90
       50
102
RTVSPost2010PropOp48
 70
     1
102
RTVSPost2010Prop49
280
     0
102
RTVSPost2010PropOp49
 70
     1
102
RTVSPost2010Prop50
 90
       50
102
RTVSPost2010PropOp50
 70
     1
102
RTVSPost2010Prop51ColorIndex
 90
      256
102
RTVSPost2010Prop51ColorRGB
 90
-16777216
102
RTVSPost2010PropOp51
 70
     0
102
RTVSPost2010Prop52
140
1.0
102
RTVSPost2010PropOp52
 70
     0
102
RTVSPost2010Prop53
 90
        2
102
RTVSPost2010PropOp53
 70
     1
102
RTVSPost2010Prop54
  1
strokes_ogs.tif
102
RTVSPost2010PropOp54
 70
     1
102
RTVSPost2010Prop55
280
     0
102
RTVSPost2010PropOp55
 70
     1
102
RTVSPost2010Prop56
140
1.0
102
RTVSPost2010PropOp56
 70
     1
102
RTVSPost2010Prop57
140
1.0
102
RTVSPost2010PropOp57
 70
     1
  0
XRECORD
  5
150
102
{ACAD_REACTORS
330
14F
102
}
330
14F
100
AcDbXrecord
280
     1
102
RTVSPost2010Prop28
280
     0
102
RTVSPost2010PropOp28
 70
     0
102
RTVSPost2010Prop29
280
     1
102
RTVSPost2010PropOp29
 70
     0
102
RTVSPost2010Prop30
280
     1
102
RTVSPost2010PropOp30
 70
     0
102
RTVSPost2010Prop31
280
     0
102
RTVSPost2010PropOp31
 70
     0
102
RTVSPost2010Prop32
280
     0
102
RTVSPost2010PropOp32
 70
     0
102
RTVSPost2010Prop33
280
     0
102
RTVSPost2010PropOp33
 70
     0
102
RTVSPost2010Prop34
280
     0
102
RTVSPost2010PropOp34
 70
     0
102
RTVSPost2010Prop35
280
     0
102
RTVSPost2010PropOp35
 70
     0
102
RTVSPost2010Prop36
280
     0
102
RTVSPost2010PropOp36
 70
     0
102
RTVSPost2010Prop37
 90
       50
102
RTVSPost2010PropOp37
 70
     0
102
RTVSPost2010Prop38
140
0.0
102
RTVSPost2010PropOp38
 70
     0
102
RTVSPost2010Prop39
140
1.0
102
RTVSPost2010PropOp39
 70
     0
102
RTVSPost2010Prop40
 90
        0
102
RTVSPost2010PropOp40
 70
     0
102
RTVSPost2010Prop41ColorIndex
 90
       18
102
RTVSPost2010Prop41ColorRGB
 90
        0
102
RTVSPost2010PropOp41
 70
     0
102
RTVSPost2010Prop42
 90
       50
102
RTVSPost2010PropOp42
 70
     0
102
RTVSPost2010Prop43
 90
        3
102
RTVSPost2010PropOp43
 70
     0
102
RTVSPost2010Prop44ColorIndex
 90
        5
102
RTVSPost2010Prop44ColorRGB
 90
      255
102
RTVSPost2010PropOp44
 70
     0
102
RTVSPost2010Prop45
280
     0
102
RTVSPost2010PropOp45
 70
     0
102
RTVSPost2010Prop46
 90
       50
102
RTVSPost2010PropOp46
 70
     0
102
RTVSPost2010Prop47
 90
       50
102
RTVSPost2010PropOp47
 70
     0
102
RTVSPost2010Prop48
 90
       50
102
RTVSPost2010PropOp48
 70
     0
102
RTVSPost2010Prop49
280
     0
102
RTVSPost2010PropOp49
 70
     0
102
RTVSPost2010Prop50
 90
       50
102
RTVSPost2010PropOp50
 70
     0
102
RTVSPost2010Prop51ColorIndex
 90
      256
102
RTVSPost2010Prop51ColorRGB
 90
-16777216
102
RTVSPost2010PropOp51
 70
     0
102
RTVSPost2010Prop52
140
1.0
102
RTVSPost2010PropOp52
 70
     0
102
RTVSPost2010Prop53
 90
        2
102
RTVSPost2010PropOp53
 70
     0
102
RTVSPost2010Prop54
  1
strokes_ogs.tif
102
RTVSPost2010PropOp54
 70
     0
102
RTVSPost2010Prop55
280
     0
102
RTVSPost2010PropOp55
 70
     0
102
RTVSPost2010Prop56
140
1.0
102
RTVSPost2010PropOp56
 70
     0
102
RTVSPost2010Prop57
140
1.0
102
RTVSPost2010PropOp57
 70
     0
  0
XRECORD
  5
140
102
{ACAD_REACTORS
330
13F
102
}
330
13F
100
AcDbXrecord
280
     1
102
RTVSPost2010Prop28
280
     0
102
RTVSPost2010PropOp28
 70
     1
102
RTVSPost2010Prop29
280
     1
102
RTVSPost2010PropOp29
 70
     1
102
RTVSPost2010Prop30
280
     1
102
RTVSPost2010PropOp30
 70
     1
102
RTVSPost2010Prop31
280
     0
102
RTVSPost2010PropOp31
 70
     1
102
RTVSPost2010Prop32
280
     0
102
RTVSPost2010PropOp32
 70
     1
102
RTVSPost2010Prop33
280
     0
102
RTVSPost2010PropOp33
 70
     1
102
RTVSPost2010Prop34
280
     0
102
RTVSPost2010PropOp34
 70
     1
102
RTVSPost2010Prop35
280
     0
102
RTVSPost2010PropOp35
 70
     1
102
RTVSPost2010Prop36
280
     0
102
RTVSPost2010PropOp36
 70
     1
102
RTVSPost2010Prop37
 90
       50
102
RTVSPost2010PropOp37
 70
     1
102
RTVSPost2010Prop38
140
0.0
102
RTVSPost2010PropOp38
 70
     1
102
RTVSPost2010Prop39
140
1.0
102
RTVSPost2010PropOp39
 70
     1
102
RTVSPost2010Prop40
 90
        0
102
RTVSPost2010PropOp40
 70
     1
102
RTVSPost2010Prop41ColorIndex
 90
       18
102
RTVSPost2010Prop41ColorRGB
 90
        0
102
RTVSPost2010PropOp41
 70
     1
102
RTVSPost2010Prop42
 90
       50
102
RTVSPost2010PropOp42
 70
     1
102
RTVSPost2010Prop43
 90
        3
102
RTVSPost2010PropOp43
 70
     1
102
RTVSPost2010Prop44ColorIndex
 90
        5
102
RTVSPost2010Prop44ColorRGB
 90
      255
102
RTVSPost2010PropOp44
 70
     1
102
RTVSPost2010Prop45
280
     0
102
RTVSPost2010PropOp45
 70
     1
102
RTVSPost2010Prop46
 90
       50
102
RTVSPost2010PropOp46
 70
     1
102
RTVSPost2010Prop47
 90
       50
102
RTVSPost2010PropOp47
 70
     1
102
RTVSPost2010Prop48
 90
       50
102
RTVSPost2010PropOp48
 70
     1
102
RTVSPost2010Prop49
280
     0
102
RTVSPost2010PropOp49
 70
     1
102
RTVSPost2010Prop50
 90
       50
102
RTVSPost2010PropOp50
 70
     1
102
RTVSPost2010Prop51ColorIndex
 90
      256
102
RTVSPost2010Prop51ColorRGB
 90
-16777216
102
RTVSPost2010PropOp51
 70
     0
102
RTVSPost2010Prop52
140
1.0
102
RTVSPost2010PropOp52
 70
     0
102
RTVSPost2010Prop53
 90
        2
102
RTVSPost2010PropOp53
 70
     1
102
RTVSPost2010Prop54
  1
strokes_ogs.tif
102
RTVSPost2010PropOp54
 70
     1
102
RTVSPost2010Prop55
280
     0
102
RTVSPost2010PropOp55
 70
     1
102
RTVSPost2010Prop56
140
1.0
102
RTVSPost2010PropOp56
 70
     1
102
RTVSPost2010Prop57
140
1.0
102
RTVSPost2010PropOp57
 70
     1
  0
XRECORD
  5
152
102
{ACAD_REACTORS
330
151
102
}
330
151
100
AcDbXrecord
280
     1
102
RTVSPost2010Prop28
280
     0
102
RTVSPost2010PropOp28
 70
     0
102
RTVSPost2010Prop29
280
     1
102
RTVSPost2010PropOp29
 70
     0
102
RTVSPost2010Prop30
280
     1
102
RTVSPost2010PropOp30
 70
     0
102
RTVSPost2010Prop31
280
     0
102
RTVSPost2010PropOp31
 70
     0
102
RTVSPost2010Prop32
280
     0
102
RTVSPost2010PropOp32
 70
     0
102
RTVSPost2010Prop33
280
     0
102
RTVSPost2010PropOp33
 70
     0
102
RTVSPost2010Prop34
280
     0
102
RTVSPost2010PropOp34
 70
     0
102
RTVSPost2010Prop35
280
     0
102
RTVSPost2010PropOp35
 70
     0
102
RTVSPost2010Prop36
280
     0
102
RTVSPost2010PropOp36
 70
     0
102
RTVSPost2010Prop37
 90
       50
102
RTVSPost2010PropOp37
 70
     0
102
RTVSPost2010Prop38
140
0.0
102
RTVSPost2010PropOp38
 70
     0
102
RTVSPost2010Prop39
140
1.0
102
RTVSPost2010PropOp39
 70
     0
102
RTVSPost2010Prop40
 90
        0
102
RTVSPost2010PropOp40
 70
     0
102
RTVSPost2010Prop41ColorIndex
 90
       18
102
RTVSPost2010Prop41ColorRGB
 90
        0
102
RTVSPost2010PropOp41
 70
     0
102
RTVSPost2010Prop42
 90
       50
102
RTVSPost2010PropOp42
 70
     0
102
RTVSPost2010Prop43
 90
        3
102
RTVSPost2010PropOp43
 70
     0
102
RTVSPost2010Prop44ColorIndex
 90
        5
102
RTVSPost2010Prop44ColorRGB
 90
      255
102
RTVSPost2010PropOp44
 70
     0
102
RTVSPost2010Prop45
280
     0
102
RTVSPost2010PropOp45
 70
     0
102
RTVSPost2010Prop46
 90
       50
102
RTVSPost2010PropOp46
 70
     0
102
RTVSPost2010Prop47
 90
       50
102
RTVSPost2010PropOp47
 70
     0
102
RTVSPost2010Prop48
 90
       50
102
RTVSPost2010PropOp48
 70
     0
102
RTVSPost2010Prop49
280
     0
102
RTVSPost2010PropOp49
 70
     0
102
RTVSPost2010Prop50
 90
       50
102
RTVSPost2010PropOp50
 70
     0
102
RTVSPost2010Prop51ColorIndex
 90
      256
102
RTVSPost2010Prop51ColorRGB
 90
-16777216
102
RTVSPost2010PropOp51
 70
     0
102
RTVSPost2010Prop52
140
1.0
102
RTVSPost2010PropOp52
 70
     0
102
RTVSPost2010Prop53
 90
        2
102
RTVSPost2010PropOp53
 70
     0
102
RTVSPost2010Prop54
  1
strokes_ogs.tif
102
RTVSPost2010PropOp54
 70
     0
102
RTVSPost2010Prop55
280
     0
102
RTVSPost2010PropOp55
 70
     0
102
RTVSPost2010Prop56
140
1.0
102
RTVSPost2010PropOp56
 70
     0
102
RTVSPost2010Prop57
140
1.0
102
RTVSPost2010PropOp57
 70
     0
  0
XRECORD
  5
138
102
{ACAD_REACTORS
330
137
102
}
330
137
100
AcDbXrecord
280
     1
102
RTVSPost2010Prop28
280
     0
102
RTVSPost2010PropOp28
 70
     1
102
RTVSPost2010Prop29
280
     1
102
RTVSPost2010PropOp29
 70
     1
102
RTVSPost2010Prop30
280
     1
102
RTVSPost2010PropOp30
 70
     1
102
RTVSPost2010Prop31
280
     0
102
RTVSPost2010PropOp31
 70
     1
102
RTVSPost2010Prop32
280
     0
102
RTVSPost2010PropOp32
 70
     1
102
RTVSPost2010Prop33
280
     0
102
RTVSPost2010PropOp33
 70
     1
102
RTVSPost2010Prop34
280
     0
102
RTVSPost2010PropOp34
 70
     1
102
RTVSPost2010Prop35
280
     0
102
RTVSPost2010PropOp35
 70
     1
102
RTVSPost2010Prop36
280
     0
102
RTVSPost2010PropOp36
 70
     1
102
RTVSPost2010Prop37
 90
       50
102
RTVSPost2010PropOp37
 70
     1
102
RTVSPost2010Prop38
140
0.0
102
RTVSPost2010PropOp38
 70
     1
102
RTVSPost2010Prop39
140
1.0
102
RTVSPost2010PropOp39
 70
     1
102
RTVSPost2010Prop40
 90
        0
102
RTVSPost2010PropOp40
 70
     1
102
RTVSPost2010Prop41ColorIndex
 90
       18
102
RTVSPost2010Prop41ColorRGB
 90
        0
102
RTVSPost2010PropOp41
 70
     1
102
RTVSPost2010Prop42
 90
       50
102
RTVSPost2010PropOp42
 70
     1
102
RTVSPost2010Prop43
 90
        3
102
RTVSPost2010PropOp43
 70
     1
102
RTVSPost2010Prop44ColorIndex
 90
        5
102
RTVSPost2010Prop44ColorRGB
 90
      255
102
RTVSPost2010PropOp44
 70
     1
102
RTVSPost2010Prop45
280
     0
102
RTVSPost2010PropOp45
 70
     1
102
RTVSPost2010Prop46
 90
       50
102
RTVSPost2010PropOp46
 70
     1
102
RTVSPost2010Prop47
 90
       50
102
RTVSPost2010PropOp47
 70
     1
102
RTVSPost2010Prop48
 90
       50
102
RTVSPost2010PropOp48
 70
     1
102
RTVSPost2010Prop49
280
     0
102
RTVSPost2010PropOp49
 70
     1
102
RTVSPost2010Prop50
 90
       50
102
RTVSPost2010PropOp50
 70
     1
102
RTVSPost2010Prop51ColorIndex
 90
      256
102
RTVSPost2010Prop51ColorRGB
 90
-16777216
102
RTVSPost2010PropOp51
 70
     0
102
RTVSPost2010Prop52
140
1.0
102
RTVSPost2010PropOp52
 70
     0
102
RTVSPost2010Prop53
 90
        2
102
RTVSPost2010PropOp53
 70
     1
102
RTVSPost2010Prop54
  1
strokes_ogs.tif
102
RTVSPost2010PropOp54
 70
     1
102
RTVSPost2010Prop55
280
     0
102
RTVSPost2010PropOp55
 70
     1
102
RTVSPost2010Prop56
140
1.0
102
RTVSPost2010PropOp56
 70
     1
102
RTVSPost2010Prop57
140
1.0
102
RTVSPost2010PropOp57
 70
     1
  0
XRECORD
  5
14E
102
{ACAD_REACTORS
330
14D
102
}
330
14D
100
AcDbXrecord
280
     1
102
RTVSPost2010Prop28
280
     0
102
RTVSPost2010PropOp28
 70
     1
102
RTVSPost2010Prop29
280
     1
102
RTVSPost2010PropOp29
 70
     1
102
RTVSPost2010Prop30
280
     1
102
RTVSPost2010PropOp30
 70
     1
102
RTVSPost2010Prop31
280
     0
102
RTVSPost2010PropOp31
 70
     1
102
RTVSPost2010Prop32
280
     0
102
RTVSPost2010PropOp32
 70
     1
102
RTVSPost2010Prop33
280
     0
102
RTVSPost2010PropOp33
 70
     1
102
RTVSPost2010Prop34
280
     0
102
RTVSPost2010PropOp34
 70
     1
102
RTVSPost2010Prop35
280
     0
102
RTVSPost2010PropOp35
 70
     1
102
RTVSPost2010Prop36
280
     0
102
RTVSPost2010PropOp36
 70
     1
102
RTVSPost2010Prop37
 90
       50
102
RTVSPost2010PropOp37
 70
     1
102
RTVSPost2010Prop38
140
0.0
102
RTVSPost2010PropOp38
 70
     1
102
RTVSPost2010Prop39
140
1.0
102
RTVSPost2010PropOp39
 70
     1
102
RTVSPost2010Prop40
 90
        0
102
RTVSPost2010PropOp40
 70
     1
102
RTVSPost2010Prop41ColorIndex
 90
       18
102
RTVSPost2010Prop41ColorRGB
 90
        0
102
RTVSPost2010PropOp41
 70
     1
102
RTVSPost2010Prop42
 90
       50
102
RTVSPost2010PropOp42
 70
     1
102
RTVSPost2010Prop43
 90
        3
102
RTVSPost2010PropOp43
 70
     1
102
RTVSPost2010Prop44ColorIndex
 90
        5
102
RTVSPost2010Prop44ColorRGB
 90
      255
102
RTVSPost2010PropOp44
 70
     1
102
RTVSPost2010Prop45
280
     0
102
RTVSPost2010PropOp45
 70
     1
102
RTVSPost2010Prop46
 90
       50
102
RTVSPost2010PropOp46
 70
     1
102
RTVSPost2010Prop47
 90
       50
102
RTVSPost2010PropOp47
 70
     1
102
RTVSPost2010Prop48
 90
       50
102
RTVSPost2010PropOp48
 70
     1
102
RTVSPost2010Prop49
280
     0
102
RTVSPost2010PropOp49
 70
     1
102
RTVSPost2010Prop50
 90
       50
102
RTVSPost2010PropOp50
 70
     1
102
RTVSPost2010Prop51ColorIndex
 90
      256
102
RTVSPost2010Prop51ColorRGB
 90
-16777216
102
RTVSPost2010PropOp51
 70
     0
102
RTVSPost2010Prop52
140
1.0
102
RTVSPost2010PropOp52
 70
     0
102
RTVSPost2010Prop53
 90
        2
102
RTVSPost2010PropOp53
 70
     1
102
RTVSPost2010Prop54
  1
strokes_ogs.tif
102
RTVSPost2010PropOp54
 70
     1
102
RTVSPost2010Prop55
280
     0
102
RTVSPost2010PropOp55
 70
     1
102
RTVSPost2010Prop56
140
1.0
102
RTVSPost2010PropOp56
 70
     1
102
RTVSPost2010Prop57
140
1.0
102
RTVSPost2010PropOp57
 70
     1
  0
XRECORD
  5
14C
102
{ACAD_REACTORS
330
14B
102
}
330
14B
100
AcDbXrecord
280
     1
102
RTVSPost2010Prop28
280
     0
102
RTVSPost2010PropOp28
 70
     1
102
RTVSPost2010Prop29
280
     1
102
RTVSPost2010PropOp29
 70
     1
102
RTVSPost2010Prop30
280
     1
102
RTVSPost2010PropOp30
 70
     1
102
RTVSPost2010Prop31
280
     0
102
RTVSPost2010PropOp31
 70
     1
102
RTVSPost2010Prop32
280
     0
102
RTVSPost2010PropOp32
 70
     1
102
RTVSPost2010Prop33
280
     0
102
RTVSPost2010PropOp33
 70
     1
102
RTVSPost2010Prop34
280
     0
102
RTVSPost2010PropOp34
 70
     1
102
RTVSPost2010Prop35
280
     0
102
RTVSPost2010PropOp35
 70
     1
102
RTVSPost2010Prop36
280
     0
102
RTVSPost2010PropOp36
 70
     1
102
RTVSPost2010Prop37
 90
       50
102
RTVSPost2010PropOp37
 70
     1
102
RTVSPost2010Prop38
140
0.0
102
RTVSPost2010PropOp38
 70
     1
102
RTVSPost2010Prop39
140
1.0
102
RTVSPost2010PropOp39
 70
     1
102
RTVSPost2010Prop40
 90
        0
102
RTVSPost2010PropOp40
 70
     1
102
RTVSPost2010Prop41ColorIndex
 90
       18
102
RTVSPost2010Prop41ColorRGB
 90
        0
102
RTVSPost2010PropOp41
 70
     1
102
RTVSPost2010Prop42
 90
       50
102
RTVSPost2010PropOp42
 70
     1
102
RTVSPost2010Prop43
 90
        3
102
RTVSPost2010PropOp43
 70
     1
102
RTVSPost2010Prop44ColorIndex
 90
        5
102
RTVSPost2010Prop44ColorRGB
 90
      255
102
RTVSPost2010PropOp44
 70
     1
102
RTVSPost2010Prop45
280
     0
102
RTVSPost2010PropOp45
 70
     1
102
RTVSPost2010Prop46
 90
       50
102
RTVSPost2010PropOp46
 70
     1
102
RTVSPost2010Prop47
 90
       50
102
RTVSPost2010PropOp47
 70
     1
102
RTVSPost2010Prop48
 90
       50
102
RTVSPost2010PropOp48
 70
     1
102
RTVSPost2010Prop49
280
     0
102
RTVSPost2010PropOp49
 70
     1
102
RTVSPost2010Prop50
 90
       50
102
RTVSPost2010PropOp50
 70
     1
102
RTVSPost2010Prop51ColorIndex
 90
      256
102
RTVSPost2010Prop51ColorRGB
 90
-16777216
102
RTVSPost2010PropOp51
 70
     0
102
RTVSPost2010Prop52
140
1.0
102
RTVSPost2010PropOp52
 70
     0
102
RTVSPost2010Prop53
 90
        2
102
RTVSPost2010PropOp53
 70
     1
102
RTVSPost2010Prop54
  1
strokes_ogs.tif
102
RTVSPost2010PropOp54
 70
     1
102
RTVSPost2010Prop55
280
     0
102
RTVSPost2010PropOp55
 70
     1
102
RTVSPost2010Prop56
140
1.0
102
RTVSPost2010PropOp56
 70
     1
102
RTVSPost2010Prop57
140
1.0
102
RTVSPost2010PropOp57
 70
     1
  0
XRECORD
  5
146
102
{ACAD_REACTORS
330
145
102
}
330
145
100
AcDbXrecord
280
     1
102
RTVSPost2010Prop28
280
     0
102
RTVSPost2010PropOp28
 70
     1
102
RTVSPost2010Prop29
280
     1
102
RTVSPost2010PropOp29
 70
     1
102
RTVSPost2010Prop30
280
     1
102
RTVSPost2010PropOp30
 70
     1
102
RTVSPost2010Prop31
280
     0
102
RTVSPost2010PropOp31
 70
     1
102
RTVSPost2010Prop32
280
     0
102
RTVSPost2010PropOp32
 70
     1
102
RTVSPost2010Prop33
280
     0
102
RTVSPost2010PropOp33
 70
     1
102
RTVSPost2010Prop34
280
     0
102
RTVSPost2010PropOp34
 70
     1
102
RTVSPost2010Prop35
280
     0
102
RTVSPost2010PropOp35
 70
     1
102
RTVSPost2010Prop36
280
     0
102
RTVSPost2010PropOp36
 70
     1
102
RTVSPost2010Prop37
 90
       50
102
RTVSPost2010PropOp37
 70
     1
102
RTVSPost2010Prop38
140
0.0
102
RTVSPost2010PropOp38
 70
     1
102
RTVSPost2010Prop39
140
1.0
102
RTVSPost2010PropOp39
 70
     1
102
RTVSPost2010Prop40
 90
        0
102
RTVSPost2010PropOp40
 70
     1
102
RTVSPost2010Prop41ColorIndex
 90
       18
102
RTVSPost2010Prop41ColorRGB
 90
        0
102
RTVSPost2010PropOp41
 70
     1
102
RTVSPost2010Prop42
 90
       50
102
RTVSPost2010PropOp42
 70
     1
102
RTVSPost2010Prop43
 90
        3
102
RTVSPost2010PropOp43
 70
     1
102
RTVSPost2010Prop44ColorIndex
 90
        5
102
RTVSPost2010Prop44ColorRGB
 90
      255
102
RTVSPost2010PropOp44
 70
     1
102
RTVSPost2010Prop45
280
     0
102
RTVSPost2010PropOp45
 70
     1
102
RTVSPost2010Prop46
 90
       50
102
RTVSPost2010PropOp46
 70
     1
102
RTVSPost2010Prop47
 90
       50
102
RTVSPost2010PropOp47
 70
     1
102
RTVSPost2010Prop48
 90
       50
102
RTVSPost2010PropOp48
 70
     1
102
RTVSPost2010Prop49
280
     0
102
RTVSPost2010PropOp49
 70
     1
102
RTVSPost2010Prop50
 90
       50
102
RTVSPost2010PropOp50
 70
     1
102
RTVSPost2010Prop51ColorIndex
 90
      256
102
RTVSPost2010Prop51ColorRGB
 90
-16777216
102
RTVSPost2010PropOp51
 70
     0
102
RTVSPost2010Prop52
140
1.0
102
RTVSPost2010PropOp52
 70
     0
102
RTVSPost2010Prop53
 90
        2
102
RTVSPost2010PropOp53
 70
     1
102
RTVSPost2010Prop54
  1
strokes_ogs.tif
102
RTVSPost2010PropOp54
 70
     1
102
RTVSPost2010Prop55
280
     0
102
RTVSPost2010PropOp55
 70
     1
102
RTVSPost2010Prop56
140
1.0
102
RTVSPost2010PropOp56
 70
     1
102
RTVSPost2010Prop57
140
1.0
102
RTVSPost2010PropOp57
 70
     1
  0
XRECORD
  5
148
102
{ACAD_REACTORS
330
147
102
}
330
147
100
AcDbXrecord
280
     1
102
RTVSPost2010Prop28
280
     0
102
RTVSPost2010PropOp28
 70
     1
102
RTVSPost2010Prop29
280
     1
102
RTVSPost2010PropOp29
 70
     1
102
RTVSPost2010Prop30
280
     1
102
RTVSPost2010PropOp30
 70
     1
102
RTVSPost2010Prop31
280
     0
102
RTVSPost2010PropOp31
 70
     1
102
RTVSPost2010Prop32
280
     0
102
RTVSPost2010PropOp32
 70
     1
102
RTVSPost2010Prop33
280
     0
102
RTVSPost2010PropOp33
 70
     1
102
RTVSPost2010Prop34
280
     0
102
RTVSPost2010PropOp34
 70
     1
102
RTVSPost2010Prop35
280
     0
102
RTVSPost2010PropOp35
 70
     1
102
RTVSPost2010Prop36
280
     0
102
RTVSPost2010PropOp36
 70
     1
102
RTVSPost2010Prop37
 90
       50
102
RTVSPost2010PropOp37
 70
     1
102
RTVSPost2010Prop38
140
0.0
102
RTVSPost2010PropOp38
 70
     1
102
RTVSPost2010Prop39
140
1.0
102
RTVSPost2010PropOp39
 70
     1
102
RTVSPost2010Prop40
 90
        0
102
RTVSPost2010PropOp40
 70
     1
102
RTVSPost2010Prop41ColorIndex
 90
       18
102
RTVSPost2010Prop41ColorRGB
 90
        0
102
RTVSPost2010PropOp41
 70
     1
102
RTVSPost2010Prop42
 90
       50
102
RTVSPost2010PropOp42
 70
     1
102
RTVSPost2010Prop43
 90
        3
102
RTVSPost2010PropOp43
 70
     1
102
RTVSPost2010Prop44ColorIndex
 90
        5
102
RTVSPost2010Prop44ColorRGB
 90
      255
102
RTVSPost2010PropOp44
 70
     1
102
RTVSPost2010Prop45
280
     0
102
RTVSPost2010PropOp45
 70
     1
102
RTVSPost2010Prop46
 90
       50
102
RTVSPost2010PropOp46
 70
     1
102
RTVSPost2010Prop47
 90
       50
102
RTVSPost2010PropOp47
 70
     1
102
RTVSPost2010Prop48
 90
       50
102
RTVSPost2010PropOp48
 70
     1
102
RTVSPost2010Prop49
280
     0
102
RTVSPost2010PropOp49
 70
     1
102
RTVSPost2010Prop50
 90
       50
102
RTVSPost2010PropOp50
 70
     1
102
RTVSPost2010Prop51ColorIndex
 90
      256
102
RTVSPost2010Prop51ColorRGB
 90
-16777216
102
RTVSPost2010PropOp51
 70
     0
102
RTVSPost2010Prop52
140
1.0
102
RTVSPost2010PropOp52
 70
     0
102
RTVSPost2010Prop53
 90
        2
102
RTVSPost2010PropOp53
 70
     1
102
RTVSPost2010Prop54
  1
strokes_ogs.tif
102
RTVSPost2010PropOp54
 70
     1
102
RTVSPost2010Prop55
280
     0
102
RTVSPost2010PropOp55
 70
     1
102
RTVSPost2010Prop56
140
1.0
102
RTVSPost2010PropOp56
 70
     1
102
RTVSPost2010Prop57
140
1.0
102
RTVSPost2010PropOp57
 70
     1
  0
XRECORD
  5
13E
102
{ACAD_REACTORS
330
13D
102
}
330
13D
100
AcDbXrecord
280
     1
102
RTVSPost2010Prop28
280
     0
102
RTVSPost2010PropOp28
 70
     1
102
RTVSPost2010Prop29
280
     1
102
RTVSPost2010PropOp29
 70
     1
102
RTVSPost2010Prop30
280
     1
102
RTVSPost2010PropOp30
 70
     1
102
RTVSPost2010Prop31
280
     0
102
RTVSPost2010PropOp31
 70
     1
102
RTVSPost2010Prop32
280
     0
102
RTVSPost2010PropOp32
 70
     1
102
RTVSPost2010Prop33
280
     0
102
RTVSPost2010PropOp33
 70
     1
102
RTVSPost2010Prop34
280
     0
102
RTVSPost2010PropOp34
 70
     1
102
RTVSPost2010Prop35
280
     0
102
RTVSPost2010PropOp35
 70
     1
102
RTVSPost2010Prop36
280
     0
102
RTVSPost2010PropOp36
 70
     1
102
RTVSPost2010Prop37
 90
       50
102
RTVSPost2010PropOp37
 70
     1
102
RTVSPost2010Prop38
140
0.0
102
RTVSPost2010PropOp38
 70
     1
102
RTVSPost2010Prop39
140
1.0
102
RTVSPost2010PropOp39
 70
     1
102
RTVSPost2010Prop40
 90
        0
102
RTVSPost2010PropOp40
 70
     1
102
RTVSPost2010Prop41ColorIndex
 90
       18
102
RTVSPost2010Prop41ColorRGB
 90
        0
102
RTVSPost2010PropOp41
 70
     1
102
RTVSPost2010Prop42
 90
       50
102
RTVSPost2010PropOp42
 70
     1
102
RTVSPost2010Prop43
 90
        3
102
RTVSPost2010PropOp43
 70
     1
102
RTVSPost2010Prop44ColorIndex
 90
        5
102
RTVSPost2010Prop44ColorRGB
 90
      255
102
RTVSPost2010PropOp44
 70
     1
102
RTVSPost2010Prop45
280
     0
102
RTVSPost2010PropOp45
 70
     1
102
RTVSPost2010Prop46
 90
       50
102
RTVSPost2010PropOp46
 70
     1
102
RTVSPost2010Prop47
 90
       50
102
RTVSPost2010PropOp47
 70
     1
102
RTVSPost2010Prop48
 90
       50
102
RTVSPost2010PropOp48
 70
     1
102
RTVSPost2010Prop49
280
     0
102
RTVSPost2010PropOp49
 70
     1
102
RTVSPost2010Prop50
 90
       50
102
RTVSPost2010PropOp50
 70
     1
102
RTVSPost2010Prop51ColorIndex
 90
      256
102
RTVSPost2010Prop51ColorRGB
 90
-16777216
102
RTVSPost2010PropOp51
 70
     0
102
RTVSPost2010Prop52
140
1.0
102
RTVSPost2010PropOp52
 70
     0
102
RTVSPost2010Prop53
 90
        2
102
RTVSPost2010PropOp53
 70
     1
102
RTVSPost2010Prop54
  1
strokes_ogs.tif
102
RTVSPost2010PropOp54
 70
     1
102
RTVSPost2010Prop55
280
     0
102
RTVSPost2010PropOp55
 70
     1
102
RTVSPost2010Prop56
140
1.0
102
RTVSPost2010PropOp56
 70
     1
102
RTVSPost2010Prop57
140
1.0
102
RTVSPost2010PropOp57
 70
     1
  0
XRECORD
  5
132
102
{ACAD_REACTORS
330
131
102
}
330
131
100
AcDbXrecord
280
     1
102
RTVSPost2010Prop28
280
     0
102
RTVSPost2010PropOp28
 70
     1
102
RTVSPost2010Prop29
280
     1
102
RTVSPost2010PropOp29
 70
     1
102
RTVSPost2010Prop30
280
     1
102
RTVSPost2010PropOp30
 70
     1
102
RTVSPost2010Prop31
280
     0
102
RTVSPost2010PropOp31
 70
     1
102
RTVSPost2010Prop32
280
     0
102
RTVSPost2010PropOp32
 70
     1
102
RTVSPost2010Prop33
280
     0
102
RTVSPost2010PropOp33
 70
     1
102
RTVSPost2010Prop34
280
     0
102
RTVSPost2010PropOp34
 70
     1
102
RTVSPost2010Prop35
280
     0
102
RTVSPost2010PropOp35
 70
     1
102
RTVSPost2010Prop36
280
     0
102
RTVSPost2010PropOp36
 70
     1
102
RTVSPost2010Prop37
 90
       50
102
RTVSPost2010PropOp37
 70
     1
102
RTVSPost2010Prop38
140
0.0
102
RTVSPost2010PropOp38
 70
     1
102
RTVSPost2010Prop39
140
1.0
102
RTVSPost2010PropOp39
 70
     1
102
RTVSPost2010Prop40
 90
        0
102
RTVSPost2010PropOp40
 70
     1
102
RTVSPost2010Prop41ColorIndex
 90
       18
102
RTVSPost2010Prop41ColorRGB
 90
        0
102
RTVSPost2010PropOp41
 70
     1
102
RTVSPost2010Prop42
 90
       50
102
RTVSPost2010PropOp42
 70
     1
102
RTVSPost2010Prop43
 90
        3
102
RTVSPost2010PropOp43
 70
     1
102
RTVSPost2010Prop44ColorIndex
 90
        5
102
RTVSPost2010Prop44ColorRGB
 90
      255
102
RTVSPost2010PropOp44
 70
     1
102
RTVSPost2010Prop45
280
     0
102
RTVSPost2010PropOp45
 70
     1
102
RTVSPost2010Prop46
 90
       50
102
RTVSPost2010PropOp46
 70
     1
102
RTVSPost2010Prop47
 90
       50
102
RTVSPost2010PropOp47
 70
     1
102
RTVSPost2010Prop48
 90
       50
102
RTVSPost2010PropOp48
 70
     1
102
RTVSPost2010Prop49
280
     0
102
RTVSPost2010PropOp49
 70
     1
102
RTVSPost2010Prop50
 90
       50
102
RTVSPost2010PropOp50
 70
     1
102
RTVSPost2010Prop51ColorIndex
 90
      256
102
RTVSPost2010Prop51ColorRGB
 90
-16777216
102
RTVSPost2010PropOp51
 70
     0
102
RTVSPost2010Prop52
140
1.0
102
RTVSPost2010PropOp52
 70
     0
102
RTVSPost2010Prop53
 90
        2
102
RTVSPost2010PropOp53
 70
     1
102
RTVSPost2010Prop54
  1
strokes_ogs.tif
102
RTVSPost2010PropOp54
 70
     1
102
RTVSPost2010Prop55
280
     0
102
RTVSPost2010PropOp55
 70
     1
102
RTVSPost2010Prop56
140
1.0
102
RTVSPost2010PropOp56
 70
     1
102
RTVSPost2010Prop57
140
1.0
102
RTVSPost2010PropOp57
 70
     1
  0
XRECORD
  5
14A
102
{ACAD_REACTORS
330
149
102
}
330
149
100
AcDbXrecord
280
     1
102
RTVSPost2010Prop28
280
     0
102
RTVSPost2010PropOp28
 70
     1
102
RTVSPost2010Prop29
280
     1
102
RTVSPost2010PropOp29
 70
     1
102
RTVSPost2010Prop30
280
     1
102
RTVSPost2010PropOp30
 70
     1
102
RTVSPost2010Prop31
280
     0
102
RTVSPost2010PropOp31
 70
     1
102
RTVSPost2010Prop32
280
     0
102
RTVSPost2010PropOp32
 70
     1
102
RTVSPost2010Prop33
280
     0
102
RTVSPost2010PropOp33
 70
     1
102
RTVSPost2010Prop34
280
     0
102
RTVSPost2010PropOp34
 70
     1
102
RTVSPost2010Prop35
280
     0
102
RTVSPost2010PropOp35
 70
     1
102
RTVSPost2010Prop36
280
     0
102
RTVSPost2010PropOp36
 70
     1
102
RTVSPost2010Prop37
 90
       50
102
RTVSPost2010PropOp37
 70
     1
102
RTVSPost2010Prop38
140
0.0
102
RTVSPost2010PropOp38
 70
     1
102
RTVSPost2010Prop39
140
1.0
102
RTVSPost2010PropOp39
 70
     1
102
RTVSPost2010Prop40
 90
        0
102
RTVSPost2010PropOp40
 70
     1
102
RTVSPost2010Prop41ColorIndex
 90
       18
102
RTVSPost2010Prop41ColorRGB
 90
        0
102
RTVSPost2010PropOp41
 70
     1
102
RTVSPost2010Prop42
 90
       50
102
RTVSPost2010PropOp42
 70
     1
102
RTVSPost2010Prop43
 90
        3
102
RTVSPost2010PropOp43
 70
     1
102
RTVSPost2010Prop44ColorIndex
 90
        5
102
RTVSPost2010Prop44ColorRGB
 90
      255
102
RTVSPost2010PropOp44
 70
     1
102
RTVSPost2010Prop45
280
     0
102
RTVSPost2010PropOp45
 70
     1
102
RTVSPost2010Prop46
 90
       50
102
RTVSPost2010PropOp46
 70
     1
102
RTVSPost2010Prop47
 90
       50
102
RTVSPost2010PropOp47
 70
     1
102
RTVSPost2010Prop48
 90
       50
102
RTVSPost2010PropOp48
 70
     1
102
RTVSPost2010Prop49
280
     0
102
RTVSPost2010PropOp49
 70
     1
102
RTVSPost2010Prop50
 90
       50
102
RTVSPost2010PropOp50
 70
     1
102
RTVSPost2010Prop51ColorIndex
 90
      256
102
RTVSPost2010Prop51ColorRGB
 90
-16777216
102
RTVSPost2010PropOp51
 70
     0
102
RTVSPost2010Prop52
140
1.0
102
RTVSPost2010PropOp52
 70
     0
102
RTVSPost2010Prop53
 90
        2
102
RTVSPost2010PropOp53
 70
     1
102
RTVSPost2010Prop54
  1
strokes_ogs.tif
102
RTVSPost2010PropOp54
 70
     1
102
RTVSPost2010Prop55
280
     0
102
RTVSPost2010PropOp55
 70
     1
102
RTVSPost2010Prop56
140
1.0
102
RTVSPost2010PropOp56
 70
     1
102
RTVSPost2010Prop57
140
1.0
102
RTVSPost2010PropOp57
 70
     1
  0
ENDSEC
  0
EOF
