  0
SECTION
  2
HEADER
  9
$ACADVER
  1
AC1024
  9
$ACADMAINTVER
 70
   226
  9
$DWGCODEPAGE
  3
ANSI_932
  9
$INSBASE
 10
0.0
 20
0.0
 30
0.0
  9
$EXTMIN
 10
1.000000000000000E+20
 20
1.000000000000000E+20
 30
1.000000000000000E+20
  9
$EXTMAX
 10
-1.000000000000000E+20
 20
-1.000000000000000E+20
 30
-1.000000000000000E+20
  9
$LIMMIN
 10
0.0
 20
0.0
  9
$LIMMAX
 10
12.0
 20
9.0
  9
$ORTHOMODE
 70
     0
  9
$REGENMODE
 70
     1
  9
$FILLMODE
 70
     1
  9
$QTEXTMODE
 70
     0
  9
$MIRRTEXT
 70
     0
  9
$LTSCALE
 40
1.0
  9
$ATTMODE
 70
     1
  9
$TEXTSIZE
 40
0.2
  9
$TRACEWID
 40
0.05
  9
$TEXTSTYLE
  7
Standard
  9
$CLAYER
  8
0
  9
$CELTYPE
  6
ByLayer
  9
$CECOLOR
 62
   256
  9
$CELTSCALE
 40
1.0
  9
$DISPSILH
 70
     0
  9
$DIMSCALE
 40
1.0
  9
$DIMASZ
 40
0.18
  9
$DIMEXO
 40
0.0625
  9
$DIMDLI
 40
0.38
  9
$DIMRND
 40
0.0
  9
$DIMDLE
 40
0.0
  9
$DIMEXE
 40
0.18
  9
$DIMTP
 40
0.0
  9
$DIMTM
 40
0.0
  9
$DIMTXT
 40
0.18
  9
$DIMCEN
 40
0.09
  9
$DIMTSZ
 40
0.0
  9
$DIMTOL
 70
     0
  9
$DIMLIM
 70
     0
  9
$DIMTIH
 70
     1
  9
$DIMTOH
 70
     1
  9
$DIMSE1
 70
     0
  9
$DIMSE2
 70
     0
  9
$DIMTAD
 70
     0
  9
$DIMZIN
 70
     0
  9
$DIMBLK
  1

  9
$DIMASO
 70
     1
  9
$DIMSHO
 70
     1
  9
$DIMPOST
  1

  9
$DIMAPOST
  1

  9
$DIMALT
 70
     0
  9
$DIMALTD
 70
     2
  9
$DIMALTF
 40
25.4
  9
$DIMLFAC
 40
1.0
  9
$DIMTOFL
 70
     0
  9
$DIMTVP
 40
0.0
  9
$DIMTIX
 70
     0
  9
$DIMSOXD
 70
     0
  9
$DIMSAH
 70
     0
  9
$DIMBLK1
  1

  9
$DIMBLK2
  1

  9
$DIMSTYLE
  2
Standard
  9
$DIMCLRD
 70
     0
  9
$DIMCLRE
 70
     0
  9
$DIMCLRT
 70
     0
  9
$DIMTFAC
 40
1.0
  9
$DIMGAP
 40
0.09
  9
$DIMJUST
 70
     0
  9
$DIMSD1
 70
     0
  9
$DIMSD2
 70
     0
  9
$DIMTOLJ
 70
     1
  9
$DIMTZIN
 70
     0
  9
$DIMALTZ
 70
     0
  9
$DIMALTTZ
 70
     0
  9
$DIMUPT
 70
     0
  9
$DIMDEC
 70
     4
  9
$DIMTDEC
 70
     4
  9
$DIMALTU
 70
     2
  9
$DIMALTTD
 70
     2
  9
$DIMTXSTY
  7
Standard
  9
$DIMAUNIT
 70
     0
  9
$DIMADEC
 70
     0
  9
$DIMALTRND
 40
0.0
  9
$DIMAZIN
 70
     0
  9
$DIMDSEP
 70
    46
  9
$DIMATFIT
 70
     3
  9
$DIMFRAC
 70
     0
  9
$DIMLDRBLK
  1

  9
$DIMLUNIT
 70
     2
  9
$DIMLWD
 70
    -2
  9
$DIMLWE
 70
    -2
  9
$DIMTMOVE
 70
     0
  9
$DIMFXL
 40
1.0
  9
$DIMFXLON
 70
     0
  9
$DIMJOGANG
 40
0.7853981633974483
  9
$DIMTFILL
 70
     0
  9
$DIMTFILLCLR
 70
     0
  9
$DIMARCSYM
 70
     0
  9
$DIMLTYPE
  6

  9
$DIMLTEX1
  6

  9
$DIMLTEX2
  6

  9
$DIMTXTDIRECTION
 70
     0
  9
$LUNITS
 70
     2
  9
$LUPREC
 70
     4
  9
$SKETCHINC
 40
0.1
  9
$FILLETRAD
 40
0.0
  9
$AUNITS
 70
     0
  9
$AUPREC
 70
     0
  9
$MENU
  1
.
  9
$ELEVATION
 40
0.0
  9
$PELEVATION
 40
0.0
  9
$THICKNESS
 40
0.0
  9
$LIMCHECK
 70
     0
  9
$CHAMFERA
 40
0.0
  9
$CHAMFERB
 40
0.0
  9
$CHAMFERC
 40
0.0
  9
$CHAMFERD
 40
0.0
  9
$SKPOLY
 70
     0
  9
$TDCREATE
 40
2459569.489189815
  9
$TDUCREATE
 40
2459569.114189815
  9
$TDUPDATE
 40
2459569.489189815
  9
$TDUUPDATE
 40
2459569.114189815
  9
$TDINDWG
 40
0.0000000000
  9
$TDUSRTIMER
 40
0.0000000000
  9
$USRTIMER
 70
     1
  9
$ANGBASE
 50
0.0
  9
$ANGDIR
 70
     0
  9
$PDMODE
 70
     0
  9
$PDSIZE
 40
0.0
  9
$PLINEWID
 40
0.0
  9
$SPLFRAME
 70
     0
  9
$SPLINETYPE
 70
     6
  9
$SPLINESEGS
 70
     8
  9
$HANDSEED
  5
18B
  9
$SURFTAB1
 70
     6
  9
$SURFTAB2
 70
     6
  9
$SURFTYPE
 70
     6
  9
$SURFU
 70
     6
  9
$SURFV
 70
     6
  9
$UCSBASE
  2

  9
$UCSNAME
  2

  9
$UCSORG
 10
0.0
 20
0.0
 30
0.0
  9
$UCSXDIR
 10
1.0
 20
0.0
 30
0.0
  9
$UCSYDIR
 10
0.0
 20
1.0
 30
0.0
  9
$UCSORTHOREF
  2

  9
$UCSORTHOVIEW
 70
     0
  9
$UCSORGTOP
 10
0.0
 20
0.0
 30
0.0
  9
$UCSORGBOTTOM
 10
0.0
 20
0.0
 30
0.0
  9
$UCSORGLEFT
 10
0.0
 20
0.0
 30
0.0
  9
$UCSORGRIGHT
 10
0.0
 20
0.0
 30
0.0
  9
$UCSORGFRONT
 10
0.0
 20
0.0
 30
0.0
  9
$UCSORGBACK
 10
0.0
 20
0.0
 30
0.0
  9
$PUCSBASE
  2

  9
$PUCSNAME
  2

  9
$PUCSORG
 10
0.0
 20
0.0
 30
0.0
  9
$PUCSXDIR
 10
1.0
 20
0.0
 30
0.0
  9
$PUCSYDIR
 10
0.0
 20
1.0
 30
0.0
  9
$PUCSORTHOREF
  2

  9
$PUCSORTHOVIEW
 70
     0
  9
$PUCSORGTOP
 10
0.0
 20
0.0
 30
0.0
  9
$PUCSORGBOTTOM
 10
0.0
 20
0.0
 30
0.0
  9
$PUCSORGLEFT
 10
0.0
 20
0.0
 30
0.0
  9
$PUCSORGRIGHT
 10
0.0
 20
0.0
 30
0.0
  9
$PUCSORGFRONT
 10
0.0
 20
0.0
 30
0.0
  9
$PUCSORGBACK
 10
0.0
 20
0.0
 30
0.0
  9
$USERI1
 70
     0
  9
$USERI2
 70
     0
  9
$USERI3
 70
     0
  9
$USERI4
 70
     0
  9
$USERI5
 70
     0
  9
$USERR1
 40
0.0
  9
$USERR2
 40
0.0
  9
$USERR3
 40
0.0
  9
$USERR4
 40
0.0
  9
$USERR5
 40
0.0
  9
$WORLDVIEW
 70
     1
  9
$SHADEDGE
 70
     3
  9
$SHADEDIF
 70
    70
  9
$TILEMODE
 70
     1
  9
$MAXACTVP
 70
    64
  9
$PINSBASE
 10
0.0
 20
0.0
 30
0.0
  9
$PLIMCHECK
 70
     0
  9
$PEXTMIN
 10
1.000000000000000E+20
 20
1.000000000000000E+20
 30
1.000000000000000E+20
  9
$PEXTMAX
 10
-1.000000000000000E+20
 20
-1.000000000000000E+20
 30
-1.000000000000000E+20
  9
$PLIMMIN
 10
0.0
 20
0.0
  9
$PLIMMAX
 10
12.0
 20
9.0
  9
$UNITMODE
 70
     0
  9
$VISRETAIN
 70
     1
  9
$PLINEGEN
 70
     0
  9
$PSLTSCALE
 70
     1
  9
$TREEDEPTH
 70
  3020
  9
$CMLSTYLE
  2
Standard
  9
$CMLJUST
 70
     0
  9
$CMLSCALE
 40
1.0
  9
$PROXYGRAPHICS
 70
     1
  9
$MEASUREMENT
 70
     0
  9
$CELWEIGHT
370
    -1
  9
$ENDCAPS
280
     0
  9
$JOINSTYLE
280
     0
  9
$LWDISPLAY
290
     1
  9
$INSUNITS
 70
     4
  9
$HYPERLINKBASE
  1

  9
$STYLESHEET
  1

  9
$XEDIT
290
     1
  9
$CEPSNTYPE
380
     0
  9
$PSTYLEMODE
290
     1
  9
$FINGERPRINTGUID
  2
{9AF3C153-2845-9245-99F3-8FEEB37F9BD1}
  9
$VERSIONGUID
  2
{890AF164-6142-0842-8A73-0F821C25E084}
  9
$EXTNAMES
290
     1
  9
$PSVPSCALE
 40
0.0
  9
$OLESTARTUP
290
     0
  9
$SORTENTS
280
   127
  9
$INDEXCTL
280
     0
  9
$HIDETEXT
280
     1
  9
$XCLIPFRAME
280
     2
  9
$HALOGAP
280
     0
  9
$OBSCOLOR
 70
   257
  9
$OBSLTYPE
280
     0
  9
$INTERSECTIONDISPLAY
280
     0
  9
$INTERSECTIONCOLOR
 70
   257
  9
$DIMASSOC
280
     2
  9
$PROJECTNAME
  1

  9
$CAMERADISPLAY
290
     0
  9
$LENSLENGTH
 40
50.0
  9
$CAMERAHEIGHT
 40
0.0
  9
$STEPSPERSEC
 40
2.0
  9
$STEPSIZE
 40
6.0
  9
$3DDWFPREC
 40
2.0
  9
$PSOLWIDTH
 40
0.25
  9
$PSOLHEIGHT
 40
4.0
  9
$LOFTANG1
 40
1.570796326794896
  9
$LOFTANG2
 40
1.570796326794896
  9
$LOFTMAG1
 40
0.0
  9
$LOFTMAG2
 40
0.0
  9
$LOFTPARAM
 70
     7
  9
$LOFTNORMALS
280
     1
  9
$LATITUDE
 40
37.795
  9
$LONGITUDE
 40
-122.394
  9
$NORTHDIRECTION
 40
0.0
  9
$TIMEZONE
 70
 -8000
  9
$LIGHTGLYPHDISPLAY
280
     1
  9
$TILEMODELIGHTSYNCH
280
     1
  9
$CMATERIAL
347
11
  9
$SOLIDHIST
280
     0
  9
$SHOWHIST
280
     1
  9
$DWFFRAME
280
     2
  9
$DGNFRAME
280
     0
  9
$REALWORLDSCALE
290
     1
  9
$INTERFERECOLOR
 62
     1
  9
$INTERFEREOBJVS
345
33
  9
$INTERFEREVPVS
346
30
  9
$CSHADOW
280
     0
  9
$SHADOWPLANELOCATION
 40
0.0
  0
ENDSEC
  0
SECTION
  2
CLASSES
  0
CLASS
  1
ACDBDICTIONARYWDFLT
  2
AcDbDictionaryWithDefault
  3
ObjectDBX Classes
 90
        0
 91
        1
280
     0
281
     0
  0
CLASS
  1
MATERIAL
  2
AcDbMaterial
  3
ObjectDBX Classes
 90
     1153
 91
        3
280
     0
281
     0
  0
CLASS
  1
VISUALSTYLE
  2
AcDbVisualStyle
  3
ObjectDBX Classes
 90
     4095
 91
       24
280
     0
281
     0
  0
CLASS
  1
SCALE
  2
AcDbScale
  3
ObjectDBX Classes
 90
     1153
 91
       17
280
     0
281
     0
  0
CLASS
  1
TABLESTYLE
  2
AcDbTableStyle
  3
ObjectDBX Classes
 90
     4095
 91
        1
280
     0
281
     0
  0
CLASS
  1
MLEADERSTYLE
  2
AcDbMLeaderStyle
  3
ACDB_MLEADERSTYLE_CLASS
 90
     4095
 91
        1
280
     0
281
     0
  0
CLASS
  1
ACDBSECTIONVIEWSTYLE
  2
AcDbSectionViewStyle
  3
ObjectDBX Classes
 90
     1025
 91
        1
280
     0
281
     0
  0
CLASS
  1
ACDBDETAILVIEWSTYLE
  2
AcDbDetailViewStyle
  3
ObjectDBX Classes
 90
     1025
 91
        1
280
     0
281
     0
  0
CLASS
  1
DICTIONARYVAR
  2
AcDbDictionaryVar
  3
ObjectDBX Classes
 90
        0
 91
        5
280
     0
281
     0
  0
CLASS
  1
CELLSTYLEMAP
  2
AcDbCellStyleMap
  3
ObjectDBX Classes
 90
     1152
 91
        1
280
     0
281
     0
  0
ENDSEC
  0
SECTION
  2
TABLES
  0
TABLE
  2
VPORT
  5
8
330
0
100
AcDbSymbolTable
 70
     1
  0
VPORT
  5
57
330
8
100
AcDbSymbolTableRecord
100
AcDbViewportTableRecord
  2
*Active
 70
     0
 10
0.0
 20
0.0
 11
1.0
 21
1.0
 12
0.0
 22
0.0
 13
0.0
 23
0.0
 14
1.0
 24
1.0
 15
0.0
 25
0.0
 16
0.0
 26
0.0
 36
1.0
 17
104.9999999737534
 27
-148.4999999628701
 37
0.0
 40
302.939999924255
 41
0.7070707070707534
 42
50.0
 43
0.0
 44
0.0
 50
0.0
 51
0.0
 71
     0
 72
   100
 73
     1
 74
     0
 75
     1
 76
     0
 77
     0
 78
     0
281
     0
 65
     1
110
0.0
120
0.0
130
0.0
111
1.0
121
0.0
131
0.0
112
0.0
122
1.0
132
0.0
 79
     0
146
0.0
 60
     3
 61
     5
292
     1
282
     1
141
0.0
142
0.0
 63
   250
421
  3355443
  0
ENDTAB
  0
TABLE
  2
LTYPE
  5
5
330
0
100
AcDbSymbolTable
 70
     2
  0
LTYPE
  5
5B
330
5
100
AcDbSymbolTableRecord
100
AcDbLinetypeTableRecord
  2
ByBlock
 70
     0
  3

 72
    65
 73
     0
 40
0.0
  0
LTYPE
  5
5C
330
5
100
AcDbSymbolTableRecord
100
AcDbLinetypeTableRecord
  2
ByLayer
 70
     0
  3

 72
    65
 73
     0
 40
0.0
  0
LTYPE
  5
5D
330
5
100
AcDbSymbolTableRecord
100
AcDbLinetypeTableRecord
  2
Continuous
 70
     0
  3
Solid line
 72
    65
 73
     0
 40
0.0
  0
LTYPE
  5
125
330
5
100
AcDbSymbolTableRecord
100
AcDbLinetypeTableRecord
  2
AI-Linetype-0
 70
     0
  3
Adobe Illustrator Linetype No. 0
 72
    65
 73
     2
 40
1.411111110758333
 49
0.7055555553791667
 74
     0
 49
-0.7055555553791667
 74
     0
  0
ENDTAB
  0
TABLE
  2
LAYER
  5
2
330
0
100
AcDbSymbolTable
 70
     2
  0
LAYER
  5
54
330
2
100
AcDbSymbolTableRecord
100
AcDbLayerTableRecord
  2
0
 70
     0
 62
     7
  6
Continuous
370
    -3
390
F
347
21
  0
LAYER
  5
78
330
2
100
AcDbSymbolTableRecord
100
AcDbLayerTableRecord
  2
レイヤー 1
 70
     0
 62
     7
  6
Continuous
370
     0
390
F
347
21
  0
ENDTAB
  0
TABLE
  2
STYLE
  5
3
330
0
100
AcDbSymbolTable
 70
     2
  0
STYLE
  5
55
330
3
100
AcDbSymbolTableRecord
100
AcDbTextStyleTableRecord
  2
Standard
 70
     0
 40
0.0
 41
1.0
 50
0.0
 71
     0
 42
0.2
  3
txt
  4

  0
STYLE
  5
5A
330
3
100
AcDbSymbolTableRecord
100
AcDbTextStyleTableRecord
  2
Annotative
 70
     0
 40
0.0
 41
1.0
 50
0.0
 71
     0
 42
0.2
  3
txt
  4

1001
AcadAnnotative
1000
AnnotativeData
1002
{
1070
     1
1070
     1
1002
}
  0
ENDTAB
  0
TABLE
  2
VIEW
  5
6
330
0
100
AcDbSymbolTable
 70
     0
  0
ENDTAB
  0
TABLE
  2
UCS
  5
7
330
0
100
AcDbSymbolTable
 70
     0
  0
ENDTAB
  0
TABLE
  2
APPID
  5
9
330
0
100
AcDbSymbolTable
 70
     2
  0
APPID
  5
56
330
9
100
AcDbSymbolTableRecord
100
AcDbRegAppTableRecord
  2
ACAD
 70
     0
  0
APPID
  5
5E
330
9
100
AcDbSymbolTableRecord
100
AcDbRegAppTableRecord
  2
AcadAnnotative
 70
     0
  0
ENDTAB
  0
TABLE
  2
DIMSTYLE
  5
A
330
0
100
AcDbSymbolTable
 70
     2
100
AcDbDimStyleTable
 71
     0
  0
DIMSTYLE
105
58
330
A
100
AcDbSymbolTableRecord
100
AcDbDimStyleTableRecord
  2
Standard
 70
     0
340
55
  0
DIMSTYLE
105
59
330
A
100
AcDbSymbolTableRecord
100
AcDbDimStyleTableRecord
  2
Annotative
 70
     0
340
55
1001
AcadAnnotative
1000
AnnotativeData
1002
{
1070
     1
1070
     1
1002
}
  0
ENDTAB
  0
TABLE
  2
BLOCK_RECORD
  5
1
330
0
100
AcDbSymbolTable
 70
    16
  0
BLOCK_RECORD
  5
70
330
1
100
AcDbSymbolTableRecord
100
AcDbBlockTableRecord
  2
*Model_Space
340
73
 70
     0
280
     1
281
     0
  0
BLOCK_RECORD
  5
6C
330
1
100
AcDbSymbolTableRecord
100
AcDbBlockTableRecord
  2
*Paper_Space
340
6F
 70
     0
280
     1
281
     0
  0
BLOCK_RECORD
  5
74
330
1
100
AcDbSymbolTableRecord
100
AcDbBlockTableRecord
  2
*Paper_Space0
340
77
 70
     0
280
     1
281
     0
  0
BLOCK_RECORD
  5
79
330
1
100
AcDbSymbolTableRecord
100
AcDbBlockTableRecord
  2
Block_0
340
0
102
{BLKREFS
331
7A
102
}
 70
     0
280
     1
281
     0
  0
BLOCK_RECORD
  5
B8
330
1
100
AcDbSymbolTableRecord
100
AcDbBlockTableRecord
  2
Block_1
340
0
102
{BLKREFS
331
B9
102
}
 70
     0
280
     1
281
     0
  0
BLOCK_RECORD
  5
BC
330
1
100
AcDbSymbolTableRecord
100
AcDbBlockTableRecord
  2
Block_2
340
0
102
{BLKREFS
331
BD
102
}
 70
     0
280
     1
281
     0
  0
BLOCK_RECORD
  5
C9
330
1
100
AcDbSymbolTableRecord
100
AcDbBlockTableRecord
  2
Block_3
340
0
102
{BLKREFS
331
CA
102
}
 70
     0
280
     1
281
     0
  0
BLOCK_RECORD
  5
CD
330
1
100
AcDbSymbolTableRecord
100
AcDbBlockTableRecord
  2
Block_4
340
0
102
{BLKREFS
331
CE
102
}
 70
     0
280
     1
281
     0
  0
BLOCK_RECORD
  5
D7
330
1
100
AcDbSymbolTableRecord
100
AcDbBlockTableRecord
  2
Block_5
340
0
102
{BLKREFS
331
D8
102
}
 70
     0
280
     1
281
     0
  0
BLOCK_RECORD
  5
E0
330
1
100
AcDbSymbolTableRecord
100
AcDbBlockTableRecord
  2
Block_6
340
0
102
{BLKREFS
331
E1
102
}
 70
     0
280
     1
281
     0
  0
BLOCK_RECORD
  5
EC
330
1
100
AcDbSymbolTableRecord
100
AcDbBlockTableRecord
  2
Block_7
340
0
102
{BLKREFS
331
ED
102
}
 70
     0
280
     1
281
     0
  0
BLOCK_RECORD
  5
F0
330
1
100
AcDbSymbolTableRecord
100
AcDbBlockTableRecord
  2
Block_8
340
0
102
{BLKREFS
331
F1
102
}
 70
     0
280
     1
281
     0
  0
BLOCK_RECORD
  5
FA
330
1
100
AcDbSymbolTableRecord
100
AcDbBlockTableRecord
  2
Block_9
340
0
102
{BLKREFS
331
FB
102
}
 70
     0
280
     1
281
     0
  0
BLOCK_RECORD
  5
100
330
1
100
AcDbSymbolTableRecord
100
AcDbBlockTableRecord
  2
Block_10
340
0
102
{BLKREFS
331
101
102
}
 70
     0
280
     1
281
     0
  0
BLOCK_RECORD
  5
126
330
1
100
AcDbSymbolTableRecord
100
AcDbBlockTableRecord
  2
Block_11
340
0
102
{BLKREFS
331
127
102
}
 70
     0
280
     1
281
     0
  0
BLOCK_RECORD
  5
12A
330
1
100
AcDbSymbolTableRecord
100
AcDbBlockTableRecord
  2
Block_12
340
0
102
{BLKREFS
331
12B
102
}
 70
     0
280
     1
281
     0
  0
BLOCK_RECORD
  5
131
330
1
100
AcDbSymbolTableRecord
100
AcDbBlockTableRecord
  2
Block_13
340
0
102
{BLKREFS
331
132
102
}
 70
     0
280
     1
281
     0
  0
BLOCK_RECORD
  5
135
330
1
100
AcDbSymbolTableRecord
100
AcDbBlockTableRecord
  2
Block_14
340
0
102
{BLKREFS
331
136
102
}
 70
     0
280
     1
281
     0
  0
ENDTAB
  0
ENDSEC
  0
SECTION
  2
BLOCKS
  0
BLOCK
  5
71
330
70
100
AcDbEntity
  8
0
100
AcDbBlockBegin
  2
*Model_Space
 70
     0
 10
0.0
 20
0.0
 30
0.0
  3
*Model_Space
  1

  0
ENDBLK
  5
72
330
70
100
AcDbEntity
  8
0
100
AcDbBlockEnd
  0
BLOCK
  5
6D
330
6C
100
AcDbEntity
 67
     1
  8
0
100
AcDbBlockBegin
  2
*Paper_Space
 70
     0
 10
0.0
 20
0.0
 30
0.0
  3
*Paper_Space
  1

  0
ENDBLK
  5
6E
330
6C
100
AcDbEntity
 67
     1
  8
0
100
AcDbBlockEnd
  0
BLOCK
  5
75
330
74
100
AcDbEntity
 67
     1
  8
0
100
AcDbBlockBegin
  2
*Paper_Space0
 70
     0
 10
0.0
 20
0.0
 30
0.0
  3
*Paper_Space0
  1

  0
ENDBLK
  5
76
330
74
100
AcDbEntity
 67
     1
  8
0
100
AcDbBlockEnd
  0
BLOCK
  5
7B
330
79
100
AcDbEntity
  8
0
100
AcDbBlockBegin
  2
Block_0
 70
     0
 10
0.0
 20
0.0
 30
0.0
  3
Block_0
  1

  0
LINE
  5
7D
330
79
100
AcDbEntity
  8
レイヤー 1
 62
   250
420
  2299925
370
    25
100
AcDbLine
 10
111.1800739382433
 20
-152.6573095952029
 30
0.0
 11
100.1802056227411
 21
-152.6573095952029
 31
0.0
  0
LINE
  5
7E
330
79
100
AcDbEntity
  8
レイヤー 1
 62
   250
420
  2299925
370
    25
100
AcDbLine
 10
80.17865604225759
 20
-147.1572218188002
 30
0.0
 11
80.17865604225759
 21
-147.6574607075646
 31
0.0
  0
LINE
  5
7F
330
79
100
AcDbEntity
  8
レイヤー 1
 62
   250
420
  2299925
370
    25
100
AcDbLine
 10
100.1802056227411
 20
-147.6574607075646
 30
0.0
 11
80.17865604225759
 21
-147.6574607075646
 31
0.0
  0
LINE
  5
80
330
79
100
AcDbEntity
  8
レイヤー 1
 62
   250
420
  2299925
370
    25
100
AcDbLine
 10
80.17865604225759
 20
-147.1572218188002
 30
0.0
 11
80.69268852914385
 21
-147.5392801520385
 31
0.0
  0
LINE
  5
81
330
79
100
AcDbEntity
  8
レイヤー 1
 62
   250
420
  2299925
370
    25
100
AcDbLine
 10
80.69268852914385
 20
-147.5392801520385
 30
0.0
 11
81.17775796121314
 21
-147.121732374365
 31
0.0
  0
LINE
  5
82
330
79
100
AcDbEntity
  8
レイヤー 1
 62
   250
420
  2299925
370
    25
100
AcDbLine
 10
81.6917551703222
 20
-147.5037907076027
 30
0.0
 11
82.17753015792906
 21
-147.0859254299296
 31
0.0
  0
LINE
  5
83
330
79
100
AcDbEntity
  8
レイヤー 1
 62
   250
420
  2299925
370
    25
100
AcDbLine
 10
81.17775796121314
 20
-147.121732374365
 30
0.0
 11
81.6917551703222
 21
-147.5037907076027
 31
0.0
  0
LINE
  5
84
330
79
100
AcDbEntity
  8
レイヤー 1
 62
   250
420
  2299925
370
    25
100
AcDbLine
 10
82.17753015792906
 20
-147.0859254299296
 30
0.0
 11
82.69152736703812
 21
-147.4679837631676
 31
0.0
  0
LINE
  5
85
330
79
100
AcDbEntity
  8
レイヤー 1
 62
   250
420
  2299925
370
    25
100
AcDbLine
 10
82.69152736703812
 20
-147.4679837631676
 30
0.0
 11
83.17659679910741
 21
-147.0504359854938
 31
0.0
  0
LINE
  5
86
330
79
100
AcDbEntity
  8
レイヤー 1
 62
   250
420
  2299925
370
    25
100
AcDbLine
 10
83.17659679910741
 20
-147.0504359854938
 30
0.0
 11
83.69059400821679
 21
-147.4321415409541
 31
0.0
  0
LINE
  5
87
330
79
100
AcDbEntity
  8
レイヤー 1
 62
   250
420
  2299925
370
    25
100
AcDbLine
 10
83.69059400821679
 20
-147.4321415409541
 30
0.0
 11
84.17601621805454
 21
-147.0145937632806
 31
0.0
  0
LINE
  5
88
330
79
100
AcDbEntity
  8
レイヤー 1
 62
   250
420
  2299925
370
    25
100
AcDbLine
 10
84.17601621805454
 20
-147.0145937632806
 30
0.0
 11
84.6900134271636
 21
-147.3962993187408
 31
0.0
  0
LINE
  5
89
330
79
100
AcDbEntity
  8
レイヤー 1
 62
   250
420
  2299925
370
    25
100
AcDbLine
 10
84.6900134271636
 20
-147.3962993187408
 30
0.0
 11
85.17543563700167
 21
-146.9787515410673
 31
0.0
  0
LINE
  5
8A
330
79
100
AcDbEntity
  8
レイヤー 1
 62
   250
420
  2299925
370
    25
100
AcDbLine
 10
85.17543563700167
 20
-146.9787515410673
 30
0.0
 11
85.68943284611073
 21
-147.3608451520832
 31
0.0
  0
LINE
  5
8B
330
79
100
AcDbEntity
  8
レイヤー 1
 62
   250
420
  2299925
370
    25
100
AcDbLine
 10
85.68943284611073
 20
-147.3608451520832
 30
0.0
 11
86.1748550559488
 21
-146.9432973744097
 31
0.0
  0
LINE
  5
8C
330
79
100
AcDbEntity
  8
レイヤー 1
 62
   250
420
  2299925
370
    25
100
AcDbLine
 10
86.1748550559488
 20
-146.9432973744097
 30
0.0
 11
86.68853476506596
 21
-147.3253557076474
 31
0.0
  0
LINE
  5
8D
330
79
100
AcDbEntity
  8
レイヤー 1
 62
   250
420
  2299925
370
    25
100
AcDbLine
 10
86.68853476506596
 20
-147.3253557076474
 30
0.0
 11
87.17427447489594
 21
-146.9074551521964
 31
0.0
  0
LINE
  5
8E
330
79
100
AcDbEntity
  8
レイヤー 1
 62
   250
420
  2299925
370
    25
100
AcDbLine
 10
87.68830696178188
 20
-147.2895134854338
 30
0.0
 11
88.17337639385115
 21
-146.8719657077609
 31
0.0
  0
LINE
  5
8F
330
79
100
AcDbEntity
  8
レイヤー 1
 62
   250
420
  2299925
370
    25
100
AcDbLine
 10
87.17427447489594
 20
-146.9074551521964
 30
0.0
 11
87.68830696178188
 21
-147.2895134854338
 31
0.0
  0
LINE
  5
90
330
79
100
AcDbEntity
  8
レイヤー 1
 62
   250
420
  2299925
370
    25
100
AcDbLine
 10
88.17337639385115
 20
-146.8719657077609
 30
0.0
 11
88.68737360296055
 21
-147.2536712632212
 31
0.0
  0
LINE
  5
91
330
79
100
AcDbEntity
  8
レイヤー 1
 62
   250
420
  2299925
370
    25
100
AcDbLine
 10
88.68737360296055
 20
-147.2536712632212
 30
0.0
 11
89.17311331279019
 21
-146.8361234855477
 31
0.0
  0
LINE
  5
92
330
79
100
AcDbEntity
  8
レイヤー 1
 62
   250
420
  2299925
370
    25
100
AcDbLine
 10
89.68714579967613
 20
-147.2178643187854
 30
0.0
 11
90.17221523174542
 21
-146.800316541112
 31
0.0
  0
LINE
  5
93
330
79
100
AcDbEntity
  8
レイヤー 1
 62
   250
420
  2299925
370
    25
100
AcDbLine
 10
89.17311331279019
 20
-146.8361234855477
 30
0.0
 11
89.68714579967613
 21
-147.2178643187854
 31
0.0
  0
LINE
  5
94
330
79
100
AcDbEntity
  8
レイヤー 1
 62
   250
420
  2299925
370
    25
100
AcDbLine
 10
90.68621244085449
 20
-147.18237487435
 30
0.0
 11
91.17198742846133
 21
-146.7648270966765
 31
0.0
  0
LINE
  5
95
330
79
100
AcDbEntity
  8
レイヤー 1
 62
   250
420
  2299925
370
    25
100
AcDbLine
 10
90.17221523174542
 20
-146.800316541112
 30
0.0
 11
90.68621244085449
 21
-147.18237487435
 31
0.0
  0
LINE
  5
96
330
79
100
AcDbEntity
  8
レイヤー 1
 62
   250
420
  2299925
370
    25
100
AcDbLine
 10
91.17198742846133
 20
-146.7648270966765
 30
0.0
 11
91.68598463757041
 21
-147.1468854299142
 31
0.0
  0
LINE
  5
97
330
79
100
AcDbEntity
  8
レイヤー 1
 62
   250
420
  2299925
370
    25
100
AcDbLine
 10
91.68598463757041
 20
-147.1468854299142
 30
0.0
 11
92.17105406963968
 21
-146.7289848744632
 31
0.0
  0
LINE
  5
98
330
79
100
AcDbEntity
  8
レイヤー 1
 62
   250
420
  2299925
370
    25
100
AcDbLine
 10
92.17105406963968
 20
-146.7289848744632
 30
0.0
 11
92.68505127874874
 21
-147.1110432077009
 31
0.0
  0
LINE
  5
99
330
79
100
AcDbEntity
  8
レイヤー 1
 62
   250
420
  2299925
370
    25
100
AcDbLine
 10
92.68505127874874
 20
-147.1110432077009
 30
0.0
 11
93.17012071081803
 21
-146.6935307078053
 31
0.0
  0
LINE
  5
9A
330
79
100
AcDbEntity
  8
レイヤー 1
 62
   250
420
  2299925
370
    25
100
AcDbLine
 10
93.17012071081803
 20
-146.6935307078053
 30
0.0
 11
93.68411791992741
 21
-147.0752362632655
 31
0.0
  0
LINE
  5
9B
330
79
100
AcDbEntity
  8
レイヤー 1
 62
   250
420
  2299925
370
    25
100
AcDbLine
 10
93.68411791992741
 20
-147.0752362632655
 30
0.0
 11
94.16989290753395
 21
-146.657688485592
 31
0.0
  0
LINE
  5
9C
330
79
100
AcDbEntity
  8
レイヤー 1
 62
   250
420
  2299925
370
    25
100
AcDbLine
 10
94.16989290753395
 20
-146.657688485592
 30
0.0
 11
94.68389011664301
 21
-147.0393940410523
 31
0.0
  0
LINE
  5
9D
330
79
100
AcDbEntity
  8
レイヤー 1
 62
   250
420
  2299925
370
    25
100
AcDbLine
 10
94.68389011664301
 20
-147.0393940410523
 30
0.0
 11
95.16895954871229
 21
-146.6218462633788
 31
0.0
  0
LINE
  5
9E
330
79
100
AcDbEntity
  8
レイヤー 1
 62
   250
420
  2299925
370
    25
100
AcDbLine
 10
95.16895954871229
 20
-146.6218462633788
 30
0.0
 11
95.68299451275448
 21
-147.0039045966168
 31
0.0
  0
LINE
  5
9F
330
79
100
AcDbEntity
  8
レイヤー 1
 62
   250
420
  2299925
370
    25
100
AcDbLine
 10
95.68299451275448
 20
-147.0039045966168
 30
0.0
 11
96.16873174542821
 21
-146.5863568189433
 31
0.0
  0
LINE
  5
A0
330
79
100
AcDbEntity
  8
レイヤー 1
 62
   250
420
  2299925
370
    25
100
AcDbLine
 10
96.16873174542821
 20
-146.5863568189433
 30
0.0
 11
96.68272895453727
 21
-146.9684151521813
 31
0.0
  0
LINE
  5
A1
330
79
100
AcDbEntity
  8
レイヤー 1
 62
   250
420
  2299925
370
    25
100
AcDbLine
 10
96.68272895453727
 20
-146.9684151521813
 30
0.0
 11
97.16779838660656
 21
-146.5505498745079
 31
0.0
  0
LINE
  5
A2
330
79
100
AcDbEntity
  8
レイヤー 1
 62
   250
420
  2299925
370
    25
100
AcDbLine
 10
97.16779838660656
 20
-146.5505498745079
 30
0.0
 11
97.68183340114374
 21
-146.9326082077456
 31
0.0
  0
LINE
  5
A3
330
79
100
AcDbEntity
  8
レイヤー 1
 62
   250
420
  2299925
370
    25
100
AcDbLine
 10
97.68183340114374
 20
-146.9326082077456
 30
0.0
 11
98.16757058332248
 21
-146.5150604300724
 31
0.0
  0
LINE
  5
A4
330
79
100
AcDbEntity
  8
レイヤー 1
 62
   250
420
  2299925
370
    25
100
AcDbLine
 10
98.16757058332248
 20
-146.5150604300724
 30
0.0
 11
98.68160562311595
 21
-146.8967659855326
 31
0.0
  0
LINE
  5
A5
330
79
100
AcDbEntity
  8
レイヤー 1
 62
   250
420
  2299925
370
    25
100
AcDbLine
 10
98.68160562311595
 20
-146.8967659855326
 30
0.0
 11
99.16667506743912
 21
-146.4792182078591
 31
0.0
  0
LINE
  5
A6
330
79
100
AcDbEntity
  8
レイヤー 1
 62
   250
420
  2299925
370
    25
100
AcDbLine
 10
99.16667506743912
 20
-146.4792182078591
 30
0.0
 11
99.68067228953298
 21
-146.8609590410969
 31
0.0
  0
LINE
  5
A7
330
79
100
AcDbEntity
  8
レイヤー 1
 62
   250
420
  2299925
370
    25
100
AcDbLine
 10
99.68067228953298
 20
-146.8609590410969
 30
0.0
 11
100.1664094212167
 21
-146.4434112634234
 31
0.0
  0
LINE
  5
A8
330
79
100
AcDbEntity
  8
レイヤー 1
 62
   250
420
  2299925
370
    25
100
AcDbLine
 10
100.2404445116154
 20
-146.3951512634357
 30
0.0
 11
101.1799778447137
 21
-146.3951512634357
 31
0.0
  0
LINE
  5
A9
330
79
100
AcDbEntity
  8
レイヤー 1
 62
   250
420
  2299925
370
    25
100
AcDbLine
 10
101.1799778447137
 20
-146.3951512634357
 30
0.0
 11
101.1799778447137
 21
-151.6572198732314
 31
0.0
  0
LINE
  5
AA
330
79
100
AcDbEntity
  8
レイヤー 1
 62
   250
420
  2299925
370
    25
100
AcDbLine
 10
100.1802056227411
 20
-147.6574607075646
 30
0.0
 11
100.1802056227411
 21
-152.6573095952029
 31
0.0
  0
LINE
  5
AB
330
79
100
AcDbEntity
  8
レイヤー 1
 62
   250
420
  2299925
370
    25
100
AcDbLine
 10
110.1795961859898
 20
-151.6572198732314
 30
0.0
 11
101.1799778447137
 21
-151.6572198732314
 31
0.0
  0
LINE
  5
AC
330
79
100
AcDbEntity
  8
レイヤー 1
 62
   250
420
  2299925
370
    25
100
AcDbLine
 10
110.1795961012188
 20
-146.3951512634357
 30
0.0
 11
110.1795961012188
 21
-151.6572198732314
 31
0.0
  0
LINE
  5
AD
330
79
100
AcDbEntity
  8
レイヤー 1
 62
   250
420
  2299925
370
    25
100
AcDbLine
 10
111.1800738534723
 20
-146.3951512634357
 30
0.0
 11
111.1800738534723
 21
-152.6573095952029
 31
0.0
  0
SPLINE
  5
AE
330
79
100
AcDbEntity
  8
レイヤー 1
 62
   250
420
  2299925
370
     9
100
AcDbSpline
210
0.0
220
0.0
230
1.0
 70
     9
 71
     3
 72
    17
 73
    13
 74
     0
 42
0.0000000001
 43
0.0000000001
 40
0.0
 40
0.0
 40
0.0
 40
0.0
 40
1.0
 40
1.0
 40
1.0
 40
2.0
 40
2.0
 40
2.0
 40
3.0
 40
3.0
 40
3.0
 40
4.0
 40
4.0
 40
4.0
 40
4.0
 10
80.27856270637608
 20
-142.3954273755467
 30
0.0
 10
80.27856270637608
 20
-142.3399354311162
 30
0.0
 10
80.23379729439469
 20
-142.2951679311273
 30
0.0
 10
80.17865604225759
 20
-142.2951679311273
 30
0.0
 10
80.12355215477484
 20
-142.2951679311273
 30
0.0
 10
80.07874937814007
 20
-142.3399354311162
 30
0.0
 10
80.07874937814007
 20
-142.3954273755467
 30
0.0
 10
80.07874937814007
 20
-142.4505312644216
 30
0.0
 10
80.12355215477484
 20
-142.4953340421883
 30
0.0
 10
80.17865604225759
 20
-142.4953340421883
 30
0.0
 10
80.23379729439469
 20
-142.4953340421883
 30
0.0
 10
80.27856270637608
 20
-142.4505312644216
 30
0.0
 10
80.27856270637608
 20
-142.3954273755467
 30
0.0
  0
SPLINE
  5
AF
330
79
100
AcDbEntity
  8
レイヤー 1
 62
   250
420
  2299925
370
     9
100
AcDbSpline
210
0.0
220
0.0
230
1.0
 70
     9
 71
     3
 72
    17
 73
    13
 74
     0
 42
0.0000000001
 43
0.0000000001
 40
0.0
 40
0.0
 40
0.0
 40
0.0
 40
1.0
 40
1.0
 40
1.0
 40
2.0
 40
2.0
 40
2.0
 40
3.0
 40
3.0
 40
3.0
 40
4.0
 40
4.0
 40
4.0
 40
4.0
 10
76.27883891952831
 20
-147.1572218188002
 30
0.0
 10
76.27883891952831
 20
-147.1021179299256
 30
0.0
 10
76.23403614289355
 20
-147.0573151521589
 30
0.0
 10
76.17857947764171
 20
-147.0573151521589
 30
0.0
 10
76.12344031238176
 20
-147.0573151521589
 30
0.0
 10
76.07867281352387
 20
-147.1021179299256
 30
0.0
 10
76.07867281352387
 20
-147.1572218188002
 30
0.0
 10
76.07867281352387
 20
-147.2123609854536
 30
0.0
 10
76.12344031238176
 20
-147.2571284854421
 30
0.0
 10
76.17857947764171
 20
-147.2571284854421
 30
0.0
 10
76.23403614289355
 20
-147.2571284854421
 30
0.0
 10
76.27883891952831
 20
-147.2123609854536
 30
0.0
 10
76.27883891952831
 20
-147.1572218188002
 30
0.0
  0
SPLINE
  5
B0
330
79
100
AcDbEntity
  8
レイヤー 1
 62
   250
420
  2299925
370
     9
100
AcDbSpline
210
0.0
220
0.0
230
1.0
 70
     9
 71
     3
 72
    17
 73
    13
 74
     0
 42
0.0000000001
 43
0.0000000001
 40
0.0
 40
0.0
 40
0.0
 40
0.0
 40
1.0
 40
1.0
 40
1.0
 40
2.0
 40
2.0
 40
2.0
 40
3.0
 40
3.0
 40
3.0
 40
4.0
 40
4.0
 40
4.0
 40
4.0
 10
76.27883891952831
 20
-147.6574607075646
 30
0.0
 10
76.27883891952831
 20
-147.6023215409118
 30
0.0
 10
76.23403614289355
 20
-147.5575540409226
 30
0.0
 10
76.17857947764171
 20
-147.5575540409226
 30
0.0
 10
76.12344031238176
 20
-147.5575540409226
 30
0.0
 10
76.07867281352387
 20
-147.6023215409118
 30
0.0
 10
76.07867281352387
 20
-147.6574607075646
 30
0.0
 10
76.07867281352387
 20
-147.7125645964398
 30
0.0
 10
76.12344031238176
 20
-147.7573673742062
 30
0.0
 10
76.17857947764171
 20
-147.7573673742062
 30
0.0
 10
76.23403614289355
 20
-147.7573673742062
 30
0.0
 10
76.27883891952831
 20
-147.7125645964398
 30
0.0
 10
76.27883891952831
 20
-147.6574607075646
 30
0.0
  0
SPLINE
  5
B1
330
79
100
AcDbEntity
  8
レイヤー 1
 62
   250
420
  2299925
370
     9
100
AcDbSpline
210
0.0
220
0.0
230
1.0
 70
     9
 71
     3
 72
    17
 73
    13
 74
     0
 42
0.0000000001
 43
0.0000000001
 40
0.0
 40
0.0
 40
0.0
 40
0.0
 40
1.0
 40
1.0
 40
1.0
 40
2.0
 40
2.0
 40
2.0
 40
3.0
 40
3.0
 40
3.0
 40
4.0
 40
4.0
 40
4.0
 40
4.0
 10
76.27883891952831
 20
-152.6573095952029
 30
0.0
 10
76.27883891952831
 20
-152.6022057063286
 30
0.0
 10
76.23403614289355
 20
-152.5574029285619
 30
0.0
 10
76.17857947764171
 20
-152.5574029285619
 30
0.0
 10
76.12344031238176
 20
-152.5574029285619
 30
0.0
 10
76.07867281352387
 20
-152.6022057063286
 30
0.0
 10
76.07867281352387
 20
-152.6573095952029
 30
0.0
 10
76.07867281352387
 20
-152.7124487618567
 30
0.0
 10
76.12344031238176
 20
-152.7572162618452
 30
0.0
 10
76.17857947764171
 20
-152.7572162618452
 30
0.0
 10
76.23403614289355
 20
-152.7572162618452
 30
0.0
 10
76.27883891952831
 20
-152.7124487618567
 30
0.0
 10
76.27883891952831
 20
-152.6573095952029
 30
0.0
  0
SPLINE
  5
B2
330
79
100
AcDbEntity
  8
レイヤー 1
 62
   250
420
  2299925
370
     9
100
AcDbSpline
210
0.0
220
0.0
230
1.0
 70
     9
 71
     3
 72
    17
 73
    13
 74
     0
 42
0.0000000001
 43
0.0000000001
 40
0.0
 40
0.0
 40
0.0
 40
0.0
 40
1.0
 40
1.0
 40
1.0
 40
2.0
 40
2.0
 40
2.0
 40
3.0
 40
3.0
 40
3.0
 40
4.0
 40
4.0
 40
4.0
 40
4.0
 10
101.2798818928096
 20
-142.3954273755467
 30
0.0
 10
101.2798818928096
 20
-142.3399354311162
 30
0.0
 10
101.2350791161749
 20
-142.2951679311273
 30
0.0
 10
101.1799778447137
 20
-142.2951679311273
 30
0.0
 10
101.1248360634319
 20
-142.2951679311273
 30
0.0
 10
101.080068564574
 20
-142.3399354311162
 30
0.0
 10
101.080068564574
 20
-142.3954273755467
 30
0.0
 10
101.080068564574
 20
-142.4505312644216
 30
0.0
 10
101.1248360634319
 20
-142.4953340421883
 30
0.0
 10
101.1799778447137
 20
-142.4953340421883
 30
0.0
 10
101.2350791161749
 20
-142.4953340421883
 30
0.0
 10
101.2798818928096
 20
-142.4505312644216
 30
0.0
 10
101.2798818928096
 20
-142.3954273755467
 30
0.0
  0
SPLINE
  5
B3
330
79
100
AcDbEntity
  8
レイヤー 1
 62
   250
420
  2299925
370
     9
100
AcDbSpline
210
0.0
220
0.0
230
1.0
 70
     9
 71
     3
 72
    17
 73
    13
 74
     0
 42
0.0000000001
 43
0.0000000001
 40
0.0
 40
0.0
 40
0.0
 40
0.0
 40
1.0
 40
1.0
 40
1.0
 40
2.0
 40
2.0
 40
2.0
 40
3.0
 40
3.0
 40
3.0
 40
4.0
 40
4.0
 40
4.0
 40
4.0
 10
110.2795055354455
 20
-142.3954273755467
 30
0.0
 10
110.2795055354455
 20
-142.3399354311162
 30
0.0
 10
110.2347352664788
 20
-142.2951679311273
 30
0.0
 10
110.1795961012188
 20
-142.2951679311273
 30
0.0
 10
110.1244922137357
 20
-142.2951679311273
 30
0.0
 10
110.079689437101
 20
-142.3399354311162
 30
0.0
 10
110.079689437101
 20
-142.3954273755467
 30
0.0
 10
110.079689437101
 20
-142.4505312644216
 30
0.0
 10
110.1244922137357
 20
-142.4953340421883
 30
0.0
 10
110.1795961012188
 20
-142.4953340421883
 30
0.0
 10
110.2347352664788
 20
-142.4953340421883
 30
0.0
 10
110.2795055354455
 20
-142.4505312644216
 30
0.0
 10
110.2795055354455
 20
-142.3954273755467
 30
0.0
  0
LINE
  5
B4
330
79
100
AcDbEntity
  8
レイヤー 1
 62
   250
420
  2299925
370
     9
100
AcDbLine
 10
76.17857947764171
 20
-147.1572218188002
 30
0.0
 11
76.17857947764171
 21
-141.8993159867816
 31
0.0
  0
LINE
  5
B5
330
79
100
AcDbEntity
  8
レイヤー 1
 62
   250
420
  2299925
370
     9
100
AcDbLine
 10
76.17857947764171
 20
-147.1572218188002
 30
0.0
 11
76.17857947764171
 21
-147.6574607075646
 31
0.0
  0
LINE
  5
B6
330
79
100
AcDbEntity
  8
レイヤー 1
 62
   250
420
  2299925
370
     9
100
AcDbLine
 10
77.63858555150496
 20
-147.1572218188002
 30
0.0
 11
75.17845450315701
 21
-147.1572218188002
 31
0.0
  0
LINE
  5
B7
330
79
100
AcDbEntity
  8
レイヤー 1
 62
   250
420
  2299925
370
     9
100
AcDbLine
 10
77.63858555150496
 20
-147.6574607075646
 30
0.0
 11
75.17845450315701
 21
-147.6574607075646
 31
0.0
  0
INSERT
  5
B9
330
79
100
AcDbEntity
  8
レイヤー 1
100
AcDbBlockReference
  2
Block_1
 10
0.0
 20
0.0
 30
0.0
  0
LINE
  5
C7
330
79
100
AcDbEntity
  8
レイヤー 1
 62
   250
420
  2299925
370
     9
100
AcDbLine
 10
80.17865604225759
 20
-142.3954273755467
 30
0.0
 11
101.1799778447137
 21
-142.3954273755467
 31
0.0
  0
LINE
  5
C8
330
79
100
AcDbEntity
  8
レイヤー 1
 62
   250
420
  2299925
370
     9
100
AcDbLine
 10
80.17865604225759
 20
-144.6175040416577
 30
0.0
 11
80.17865604225759
 21
-141.3953023757967
 31
0.0
  0
INSERT
  5
CA
330
79
100
AcDbEntity
  8
レイヤー 1
100
AcDbBlockReference
  2
Block_3
 10
0.0
 20
0.0
 30
0.0
  0
LINE
  5
D5
330
79
100
AcDbEntity
  8
レイヤー 1
 62
   250
420
  2299925
370
     9
100
AcDbLine
 10
76.17857947764171
 20
-147.6574607075646
 30
0.0
 11
76.17857947764171
 21
-152.6573095952029
 31
0.0
  0
LINE
  5
D6
330
79
100
AcDbEntity
  8
レイヤー 1
 62
   250
420
  2299925
370
     9
100
AcDbLine
 10
97.64048531899177
 20
-152.6573095952029
 30
0.0
 11
75.17845450315701
 21
-152.6573095952029
 31
0.0
  0
INSERT
  5
D8
330
79
100
AcDbEntity
  8
レイヤー 1
100
AcDbBlockReference
  2
Block_5
 10
0.0
 20
0.0
 30
0.0
  0
LINE
  5
DD
330
79
100
AcDbEntity
  8
レイヤー 1
 62
   250
420
  2299925
370
     9
100
AcDbLine
 10
101.1799778447137
 20
-142.3954273755467
 30
0.0
 11
110.1795961859898
 21
-142.3954273755467
 31
0.0
  0
LINE
  5
DE
330
79
100
AcDbEntity
  8
レイヤー 1
 62
   250
420
  2299925
370
     9
100
AcDbLine
 10
101.1799778447137
 20
-143.8554334862928
 30
0.0
 11
101.1799778447137
 21
-141.3953023757967
 31
0.0
  0
LINE
  5
DF
330
79
100
AcDbEntity
  8
レイヤー 1
 62
   250
420
  2299925
370
     9
100
AcDbLine
 10
110.1795961012188
 20
-143.8554334862928
 30
0.0
 11
110.1795961012188
 21
-141.3953023757967
 31
0.0
  0
INSERT
  5
E1
330
79
100
AcDbEntity
  8
レイヤー 1
100
AcDbBlockReference
  2
Block_6
 10
0.0
 20
0.0
 30
0.0
  0
SPLINE
  5
E7
330
79
100
AcDbEntity
  8
レイヤー 1
 62
   250
420
  2299925
370
     9
100
AcDbSpline
210
0.0
220
0.0
230
1.0
 70
     9
 71
     3
 72
    17
 73
    13
 74
     0
 42
0.0000000001
 43
0.0000000001
 40
0.0
 40
0.0
 40
0.0
 40
0.0
 40
1.0
 40
1.0
 40
1.0
 40
2.0
 40
2.0
 40
2.0
 40
3.0
 40
3.0
 40
3.0
 40
4.0
 40
4.0
 40
4.0
 40
4.0
 10
100.2801096960937
 20
-156.7707690386197
 30
0.0
 10
100.2801096960937
 20
-156.7156298719666
 30
0.0
 10
100.2346366416986
 20
-156.6708623719774
 30
0.0
 10
100.1795327542152
 20
-156.6708623719774
 30
0.0
 10
100.1243935889553
 20
-156.6708623719774
 30
0.0
 10
100.0796260900974
 20
-156.7156298719666
 30
0.0
 10
100.0796260900974
 20
-156.7707690386197
 30
0.0
 10
100.0796260900974
 20
-156.8258729274947
 30
0.0
 10
100.1243935889553
 20
-156.8706757052607
 30
0.0
 10
100.1795327542152
 20
-156.8706757052607
 30
0.0
 10
100.2346366416986
 20
-156.8706757052607
 30
0.0
 10
100.2801096960937
 20
-156.8258729274947
 30
0.0
 10
100.2801096960937
 20
-156.7707690386197
 30
0.0
  0
SPLINE
  5
E8
330
79
100
AcDbEntity
  8
レイヤー 1
 62
   250
420
  2299925
370
     9
100
AcDbSpline
210
0.0
220
0.0
230
1.0
 70
     9
 71
     3
 72
    17
 73
    13
 74
     0
 42
0.0000000001
 43
0.0000000001
 40
0.0
 40
0.0
 40
0.0
 40
0.0
 40
1.0
 40
1.0
 40
1.0
 40
2.0
 40
2.0
 40
2.0
 40
3.0
 40
3.0
 40
3.0
 40
4.0
 40
4.0
 40
4.0
 40
4.0
 10
111.2799833129729
 20
-156.7707690386197
 30
0.0
 10
111.2799833129729
 20
-156.7156298719666
 30
0.0
 10
111.2351805352062
 20
-156.6708623719774
 30
0.0
 10
111.1800738534723
 20
-156.6708623719774
 30
0.0
 10
111.1242644104516
 20
-156.6708623719774
 30
0.0
 10
111.0801671893544
 20
-156.7156298719666
 30
0.0
 10
111.0801671893544
 20
-156.7707690386197
 30
0.0
 10
111.0801671893544
 20
-156.8258729274947
 30
0.0
 10
111.1242644104516
 20
-156.8706757052607
 30
0.0
 10
111.1800738534723
 20
-156.8706757052607
 30
0.0
 10
111.2351805352062
 20
-156.8706757052607
 30
0.0
 10
111.2799833129729
 20
-156.8258729274947
 30
0.0
 10
111.2799833129729
 20
-156.7707690386197
 30
0.0
  0
LINE
  5
E9
330
79
100
AcDbEntity
  8
レイヤー 1
 62
   250
420
  2299925
370
     9
100
AcDbLine
 10
111.1800739382433
 20
-156.7707690386197
 30
0.0
 11
100.1795327542152
 21
-156.7707690386197
 31
0.0
  0
LINE
  5
EA
330
79
100
AcDbEntity
  8
レイヤー 1
 62
   250
420
  2299925
370
     9
100
AcDbLine
 10
111.1800738534723
 20
-155.3107276500954
 30
0.0
 11
111.1800738534723
 21
-157.7708587605912
 31
0.0
  0
LINE
  5
EB
330
79
100
AcDbEntity
  8
レイヤー 1
 62
   250
420
  2299925
370
     9
100
AcDbLine
 10
100.1795327542152
 20
-155.3107276500954
 30
0.0
 11
100.1795327542152
 21
-157.7708587605912
 31
0.0
  0
INSERT
  5
ED
330
79
100
AcDbEntity
  8
レイヤー 1
100
AcDbBlockReference
  2
Block_7
 10
0.0
 20
0.0
 30
0.0
  0
LINE
  5
F8
330
79
100
AcDbEntity
  8
レイヤー 1
 62
   250
420
  2299925
370
    25
100
AcDbLine
 10
111.1800738534723
 20
-146.3951512634357
 30
0.0
 11
110.1795961012188
 21
-146.3951512634357
 31
0.0
  0
LINE
  5
F9
330
79
100
AcDbEntity
  8
レイヤー 1
 62
   250
420
  2299925
370
     9
100
AcDbLine
 10
108.1214906405554
 20
-150.3025884846809
 30
0.0
 11
116.1217143253416
 21
-150.3025884846809
 31
0.0
  0
INSERT
  5
FB
330
79
100
AcDbEntity
  8
レイヤー 1
100
AcDbBlockReference
  2
Block_9
 10
0.0
 20
0.0
 30
0.0
  0
INSERT
  5
101
330
79
100
AcDbEntity
  8
レイヤー 1
100
AcDbBlockReference
  2
Block_10
 10
0.0
 20
0.0
 30
0.0
  0
LINE
  5
124
330
79
100
AcDbEntity
  8
レイヤー 1
  6
AI-Linetype-0
 62
   154
420
    23468
370
    25
100
AcDbLine
 10
80.17865604225759
 20
-148.5328434851234
 30
0.0
 11
90.17838884269904
 21
-148.5328434851234
 31
0.0
  0
INSERT
  5
127
330
79
100
AcDbEntity
  8
レイヤー 1
100
AcDbBlockReference
  2
Block_11
 10
0.0
 20
0.0
 30
0.0
  0
ENDBLK
  5
7C
330
79
100
AcDbEntity
  8
0
100
AcDbBlockEnd
  0
BLOCK
  5
BA
330
B8
100
AcDbEntity
  8
0
100
AcDbBlockBegin
  2
Block_1
 70
     0
 10
0.0
 20
0.0
 30
0.0
  3
Block_1
  1

  0
INSERT
  5
BD
330
B8
100
AcDbEntity
  8
レイヤー 1
100
AcDbBlockReference
  2
Block_2
 10
0.0
 20
0.0
 30
0.0
  0
ENDBLK
  5
BB
330
B8
100
AcDbEntity
  8
0
100
AcDbBlockEnd
  0
BLOCK
  5
BE
330
BC
100
AcDbEntity
  8
0
100
AcDbBlockBegin
  2
Block_2
 70
     0
 10
0.0
 20
0.0
 30
0.0
  3
Block_2
  1

  0
SPLINE
  5
C0
330
BC
100
AcDbEntity
  8
レイヤー 1
100
AcDbSpline
210
0.0
220
0.0
230
1.0
 70
     9
 71
     3
 72
    17
 73
    13
 74
     0
 42
0.0000000001
 43
0.0000000001
 40
0.0
 40
0.0
 40
0.0
 40
0.0
 40
1.0
 40
1.0
 40
1.0
 40
2.0
 40
2.0
 40
2.0
 40
3.0
 40
3.0
 40
3.0
 40
4.0
 40
4.0
 40
4.0
 40
4.0
 10
73.33419730154493
 20
-148.2715697871508
 30
0.0
 10
73.33419730154493
 20
-148.5213392098314
 30
0.0
 10
73.61755640520673
 20
-148.5678479988823
 30
0.0
 10
73.96241046328023
 20
-148.5678479988823
 30
0.0
 10
74.28194306953715
 20
-148.5678479988823
 30
0.0
 10
74.59079587978981
 20
-148.5316744962872
 30
0.0
 10
74.59079587978981
 20
-148.2715697871508
 30
0.0
 10
74.59079587978981
 20
-148.0238674217614
 30
0.0
 10
74.30933157864489
 20
-147.9752915754194
 30
0.0
 10
73.96241046328023
 20
-147.9752915754194
 30
0.0
 10
73.64305011179758
 20
-147.9752915754194
 30
0.0
 10
73.33419730154493
 20
-148.0135321353056
 30
0.0
 10
73.33419730154493
 20
-148.2715697871508
 30
0.0
  0
SPLINE
  5
C1
330
BC
100
AcDbEntity
  8
レイヤー 1
100
AcDbSpline
210
0.0
220
0.0
230
1.0
 70
     9
 71
     3
 72
    29
 73
    25
 74
     0
 42
0.0000000001
 43
0.0000000001
 40
0.0
 40
0.0
 40
0.0
 40
0.0
 40
1.0
 40
1.0
 40
1.0
 40
2.0
 40
2.0
 40
2.0
 40
3.0
 40
3.0
 40
3.0
 40
4.0
 40
4.0
 40
4.0
 40
5.0
 40
5.0
 40
5.0
 40
6.0
 40
6.0
 40
6.0
 40
7.0
 40
7.0
 40
7.0
 40
8.0
 40
8.0
 40
8.0
 40
8.0
 10
74.55686168926009
 20
-147.8736612586045
 30
0.0
 10
74.76632349476329
 20
-147.9818372568413
 30
0.0
 10
74.78544377470642
 20
-148.1551255597494
 30
0.0
 10
74.78544377470642
 20
-148.2715697871508
 30
0.0
 10
74.78544377470642
 20
-148.432455746312
 30
0.0
 10
74.73893498565555
 20
-148.5740491707558
 30
0.0
 10
74.55686168926009
 20
-148.6691338061487
 30
0.0
 10
74.36238604911775
 20
-148.7728311802547
 30
0.0
 10
74.12536347973255
 20
-148.7921237149721
 30
0.0
 10
73.96241046328023
 20
-148.7921237149721
 30
0.0
 10
73.81857772677105
 20
-148.7921237149721
 30
0.0
 10
73.56691350157355
 20
-148.7748982375459
 30
0.0
 10
73.36795923730036
 20
-148.6691338061487
 30
0.0
 10
73.1648708584449
 20
-148.5613023174604
 30
0.0
 10
73.14161646391946
 20
-148.4004163582992
 30
0.0
 10
73.14161646391946
 20
-148.2715697871508
 30
0.0
 10
73.14161646391946
 20
-148.1127508852808
 30
0.0
 10
73.18605819567918
 20
-147.9690904035459
 30
0.0
 10
73.36795923730036
 20
-147.8736612586045
 30
0.0
 10
73.56054007492584
 20
-147.7744425086293
 30
0.0
 10
73.7889499055979
 20
-147.7510158593296
 30
0.0
 10
73.96241046328023
 20
-147.7510158593296
 30
0.0
 10
74.13380396367141
 20
-147.7510158593296
 30
0.0
 10
74.36445310640888
 20
-147.7723754513381
 30
0.0
 10
74.55686168926009
 20
-147.8736612586045
 30
0.0
  0
HATCH
  5
C2
330
BC
100
AcDbEntity
  8
レイヤー 1
 62
   250
420
  2299925
440
 33554687
100
AcDbHatch
 10
0.0
 20
0.0
 30
0.0
210
0.0
220
0.0
230
1.0
  2
SOLID
 70
     1
 71
     1
 91
        2
 92
        1
 93
        1
 72
     4
 94
        3
 73
     0
 74
     0
 95
       17
 96
       13
 40
0.0
 40
0.0
 40
0.0
 40
0.0
 40
1.0
 40
1.0
 40
1.0
 40
2.0
 40
2.0
 40
2.0
 40
3.0
 40
3.0
 40
3.0
 40
4.0
 40
4.0
 40
4.0
 40
4.0
 10
73.33419730154493
 20
-148.2715697871508
 10
73.33419730154493
 20
-148.5213392098314
 10
73.61755640520673
 20
-148.5678479988823
 10
73.96241046328023
 20
-148.5678479988823
 10
74.28194306953715
 20
-148.5678479988823
 10
74.59079587978981
 20
-148.5316744962872
 10
74.59079587978981
 20
-148.2715697871508
 10
74.59079587978981
 20
-148.0238674217614
 10
74.30933157864489
 20
-147.9752915754194
 10
73.96241046328023
 20
-147.9752915754194
 10
73.64305011179758
 20
-147.9752915754194
 10
73.33419730154493
 20
-148.0135321353056
 10
73.33419730154493
 20
-148.2715697871508
 97
        0
 97
        1
330
C0
 92
        1
 93
        1
 72
     4
 94
        3
 73
     0
 74
     0
 95
       29
 96
       25
 40
0.0
 40
0.0
 40
0.0
 40
0.0
 40
1.0
 40
1.0
 40
1.0
 40
2.0
 40
2.0
 40
2.0
 40
3.0
 40
3.0
 40
3.0
 40
4.0
 40
4.0
 40
4.0
 40
5.0
 40
5.0
 40
5.0
 40
6.0
 40
6.0
 40
6.0
 40
7.0
 40
7.0
 40
7.0
 40
8.0
 40
8.0
 40
8.0
 40
8.0
 10
74.55686168926009
 20
-147.8736612586045
 10
74.76632349476329
 20
-147.9818372568413
 10
74.78544377470642
 20
-148.1551255597494
 10
74.78544377470642
 20
-148.2715697871508
 10
74.78544377470642
 20
-148.432455746312
 10
74.73893498565555
 20
-148.5740491707558
 10
74.55686168926009
 20
-148.6691338061487
 10
74.36238604911775
 20
-148.7728311802547
 10
74.12536347973255
 20
-148.7921237149721
 10
73.96241046328023
 20
-148.7921237149721
 10
73.81857772677105
 20
-148.7921237149721
 10
73.56691350157355
 20
-148.7748982375459
 10
73.36795923730036
 20
-148.6691338061487
 10
73.1648708584449
 20
-148.5613023174604
 10
73.14161646391946
 20
-148.4004163582992
 10
73.14161646391946
 20
-148.2715697871508
 10
73.14161646391946
 20
-148.1127508852808
 10
73.18605819567918
 20
-147.9690904035459
 10
73.36795923730036
 20
-147.8736612586045
 10
73.56054007492584
 20
-147.7744425086293
 10
73.7889499055979
 20
-147.7510158593296
 10
73.96241046328023
 20
-147.7510158593296
 10
74.13380396367141
 20
-147.7510158593296
 10
74.36445310640888
 20
-147.7723754513381
 10
74.55686168926009
 20
-147.8736612586045
 97
        0
 97
        1
330
C1
 75
     2
 76
     1
 98
        1
 10
0.0
 20
0.0
450
        0
451
        0
460
0.0
461
0.0
452
        0
462
0.0
453
        0
470

  0
SPLINE
  5
C3
330
BC
100
AcDbEntity
  8
レイヤー 1
100
AcDbSpline
210
0.0
220
0.0
230
1.0
 70
    11
 71
     3
 72
    17
 73
    13
 74
     0
 42
0.0000000001
 43
0.0000000001
 40
0.0
 40
0.0
 40
0.0
 40
0.0
 40
1.0
 40
1.0
 40
1.0
 40
2.0
 40
2.0
 40
2.0
 40
3.0
 40
3.0
 40
3.0
 40
4.0
 40
4.0
 40
4.0
 40
4.0
 10
74.73462861629899
 20
-147.5346638628559
 30
0.0
 10
74.73462861629899
 20
-147.5346638628559
 30
0.0
 10
74.48296439110149
 20
-147.5346638628559
 30
0.0
 10
74.48296439110149
 20
-147.5346638628559
 30
0.0
 10
74.48296439110149
 20
-147.5346638628559
 30
0.0
 10
74.48296439110149
 20
-147.2828273828841
 30
0.0
 10
74.48296439110149
 20
-147.2828273828841
 30
0.0
 10
74.48296439110149
 20
-147.2828273828841
 30
0.0
 10
74.73462861629899
 20
-147.2828273828841
 30
0.0
 10
74.73462861629899
 20
-147.2828273828841
 30
0.0
 10
74.73462861629899
 20
-147.2828273828841
 30
0.0
 10
74.73462861629899
 20
-147.5346638628559
 30
0.0
 10
74.73462861629899
 20
-147.5346638628559
 30
0.0
  0
HATCH
  5
C4
330
BC
100
AcDbEntity
  8
レイヤー 1
 62
   250
420
  2299925
440
 33554687
100
AcDbHatch
 10
0.0
 20
0.0
 30
0.0
210
0.0
220
0.0
230
1.0
  2
SOLID
 70
     1
 71
     1
 91
        1
 92
        1
 93
        1
 72
     4
 94
        3
 73
     0
 74
     0
 95
       17
 96
       13
 40
0.0
 40
0.0
 40
0.0
 40
0.0
 40
1.0
 40
1.0
 40
1.0
 40
2.0
 40
2.0
 40
2.0
 40
3.0
 40
3.0
 40
3.0
 40
4.0
 40
4.0
 40
4.0
 40
4.0
 10
74.73462861629899
 20
-147.5346638628559
 10
74.73462861629899
 20
-147.5346638628559
 10
74.48296439110149
 20
-147.5346638628559
 10
74.48296439110149
 20
-147.5346638628559
 10
74.48296439110149
 20
-147.5346638628559
 10
74.48296439110149
 20
-147.2828273828841
 10
74.48296439110149
 20
-147.2828273828841
 10
74.48296439110149
 20
-147.2828273828841
 10
74.73462861629899
 20
-147.2828273828841
 10
74.73462861629899
 20
-147.2828273828841
 10
74.73462861629899
 20
-147.2828273828841
 10
74.73462861629899
 20
-147.5346638628559
 10
74.73462861629899
 20
-147.5346638628559
 97
        0
 97
        1
330
C3
 75
     2
 76
     1
 98
        1
 10
0.0
 20
0.0
450
        0
451
        0
460
0.0
461
0.0
452
        0
462
0.0
453
        0
470

  0
SPLINE
  5
C5
330
BC
100
AcDbEntity
  8
レイヤー 1
100
AcDbSpline
210
0.0
220
0.0
230
1.0
 70
     9
 71
     3
 72
    53
 73
    49
 74
     0
 42
0.0000000001
 43
0.0000000001
 40
0.0
 40
0.0
 40
0.0
 40
0.0
 40
1.0
 40
1.0
 40
1.0
 40
2.0
 40
2.0
 40
2.0
 40
3.0
 40
3.0
 40
3.0
 40
4.0
 40
4.0
 40
4.0
 40
5.0
 40
5.0
 40
5.0
 40
6.0
 40
6.0
 40
6.0
 40
7.0
 40
7.0
 40
7.0
 40
8.0
 40
8.0
 40
8.0
 40
9.0
 40
9.0
 40
9.0
 40
10.0
 40
10.0
 40
10.0
 40
11.0
 40
11.0
 40
11.0
 40
12.0
 40
12.0
 40
12.0
 40
13.0
 40
13.0
 40
13.0
 40
14.0
 40
14.0
 40
14.0
 40
15.0
 40
15.0
 40
15.0
 40
16.0
 40
16.0
 40
16.0
 40
16.0
 10
74.78544377470642
 20
-146.5655585028551
 30
0.0
 10
74.78544377470642
 20
-146.6437621703703
 30
0.0
 10
74.7685628068287
 20
-146.7453924871852
 30
0.0
 10
74.70500079512584
 20
-146.847022804
 30
0.0
 10
74.59492999437211
 20
-147.0203111069081
 30
0.0
 10
74.46384411115835
 20
-147.0416706989166
 30
0.0
 10
74.35601262247003
 20
-147.0606187240855
 30
0.0
 10
74.35601262247003
 20
-147.0606187240855
 30
0.0
 10
74.35601262247003
 20
-146.8384100652869
 30
0.0
 10
74.35601262247003
 20
-146.8384100652869
 30
0.0
 10
74.55479463196894
 20
-146.7836330470714
 30
0.0
 10
74.58442245314209
 20
-146.6565090236657
 30
0.0
 10
74.58442245314209
 20
-146.5634914455639
 30
0.0
 10
74.58442245314209
 20
-146.4239650784113
 30
0.0
 10
74.48503144839263
 20
-146.2716918579633
 30
0.0
 10
74.25231524836402
 20
-146.2716918579633
 30
0.0
 10
73.99634465380994
 20
-146.2716918579633
 30
0.0
 10
73.92658147023364
 20
-146.4515258422933
 30
0.0
 10
73.92658147023364
 20
-146.5721041842771
 30
0.0
 10
73.92658147023364
 20
-146.6037990627414
 30
0.0
 10
73.92658147023364
 20
-146.7453924871852
 30
0.0
 10
74.05560029615624
 20
-146.8342759507046
 30
0.0
 10
74.05560029615624
 20
-146.8342759507046
 30
0.0
 10
74.0364800162131
 20
-147.0099758204524
 30
0.0
 10
74.0364800162131
 20
-147.0099758204524
 30
0.0
 10
74.0364800162131
 20
-147.0099758204524
 30
0.0
 10
73.19036456503575
 20
-146.8893974784686
 30
0.0
 10
73.19036456503575
 20
-146.8893974784686
 30
0.0
 10
73.19036456503575
 20
-146.8893974784686
 30
0.0
 10
73.19036456503575
 20
-146.1108058988021
 30
0.0
 10
73.19036456503575
 20
-146.1108058988021
 30
0.0
 10
73.19036456503575
 20
-146.1108058988021
 30
0.0
 10
73.38501245995236
 20
-146.1108058988021
 30
0.0
 10
73.38501245995236
 20
-146.1108058988021
 30
0.0
 10
73.38501245995236
 20
-146.1108058988021
 30
0.0
 10
73.38501245995236
 20
-146.7264444620163
 30
0.0
 10
73.38501245995236
 20
-146.7264444620163
 30
0.0
 10
73.38501245995236
 20
-146.7264444620163
 30
0.0
 10
73.80807018554104
 20
-146.791901276236
 30
0.0
 10
73.80807018554104
 20
-146.791901276236
 30
0.0
 10
73.77413599501133
 20
-146.7305785765986
 30
0.0
 10
73.73400063260817
 20
-146.6482407945011
 30
0.0
 10
73.73400063260817
 20
-146.5297295098085
 30
0.0
 10
73.73400063260817
 20
-146.2758259725456
 30
0.0
 10
73.92020804358593
 20
-146.0388034031604
 30
0.0
 10
74.23319496842087
 20
-146.0388034031604
 30
0.0
 10
74.55066051738665
 20
-146.0388034031604
 30
0.0
 10
74.78544377470642
 20
-146.2630791192502
 30
0.0
 10
74.78544377470642
 20
-146.5655585028551
 30
0.0
  0
HATCH
  5
C6
330
BC
100
AcDbEntity
  8
レイヤー 1
 62
   250
420
  2299925
440
 33554687
100
AcDbHatch
 10
0.0
 20
0.0
 30
0.0
210
0.0
220
0.0
230
1.0
  2
SOLID
 70
     1
 71
     1
 91
        1
 92
        1
 93
        1
 72
     4
 94
        3
 73
     0
 74
     0
 95
       53
 96
       49
 40
0.0
 40
0.0
 40
0.0
 40
0.0
 40
1.0
 40
1.0
 40
1.0
 40
2.0
 40
2.0
 40
2.0
 40
3.0
 40
3.0
 40
3.0
 40
4.0
 40
4.0
 40
4.0
 40
5.0
 40
5.0
 40
5.0
 40
6.0
 40
6.0
 40
6.0
 40
7.0
 40
7.0
 40
7.0
 40
8.0
 40
8.0
 40
8.0
 40
9.0
 40
9.0
 40
9.0
 40
10.0
 40
10.0
 40
10.0
 40
11.0
 40
11.0
 40
11.0
 40
12.0
 40
12.0
 40
12.0
 40
13.0
 40
13.0
 40
13.0
 40
14.0
 40
14.0
 40
14.0
 40
15.0
 40
15.0
 40
15.0
 40
16.0
 40
16.0
 40
16.0
 40
16.0
 10
74.78544377470642
 20
-146.5655585028551
 10
74.78544377470642
 20
-146.6437621703703
 10
74.7685628068287
 20
-146.7453924871852
 10
74.70500079512584
 20
-146.847022804
 10
74.59492999437211
 20
-147.0203111069081
 10
74.46384411115835
 20
-147.0416706989166
 10
74.35601262247003
 20
-147.0606187240855
 10
74.35601262247003
 20
-147.0606187240855
 10
74.35601262247003
 20
-146.8384100652869
 10
74.35601262247003
 20
-146.8384100652869
 10
74.55479463196894
 20
-146.7836330470714
 10
74.58442245314209
 20
-146.6565090236657
 10
74.58442245314209
 20
-146.5634914455639
 10
74.58442245314209
 20
-146.4239650784113
 10
74.48503144839263
 20
-146.2716918579633
 10
74.25231524836402
 20
-146.2716918579633
 10
73.99634465380994
 20
-146.2716918579633
 10
73.92658147023364
 20
-146.4515258422933
 10
73.92658147023364
 20
-146.5721041842771
 10
73.92658147023364
 20
-146.6037990627414
 10
73.92658147023364
 20
-146.7453924871852
 10
74.05560029615624
 20
-146.8342759507046
 10
74.05560029615624
 20
-146.8342759507046
 10
74.0364800162131
 20
-147.0099758204524
 10
74.0364800162131
 20
-147.0099758204524
 10
74.0364800162131
 20
-147.0099758204524
 10
73.19036456503575
 20
-146.8893974784686
 10
73.19036456503575
 20
-146.8893974784686
 10
73.19036456503575
 20
-146.8893974784686
 10
73.19036456503575
 20
-146.1108058988021
 10
73.19036456503575
 20
-146.1108058988021
 10
73.19036456503575
 20
-146.1108058988021
 10
73.38501245995236
 20
-146.1108058988021
 10
73.38501245995236
 20
-146.1108058988021
 10
73.38501245995236
 20
-146.1108058988021
 10
73.38501245995236
 20
-146.7264444620163
 10
73.38501245995236
 20
-146.7264444620163
 10
73.38501245995236
 20
-146.7264444620163
 10
73.80807018554104
 20
-146.791901276236
 10
73.80807018554104
 20
-146.791901276236
 10
73.77413599501133
 20
-146.7305785765986
 10
73.73400063260817
 20
-146.6482407945011
 10
73.73400063260817
 20
-146.5297295098085
 10
73.73400063260817
 20
-146.2758259725456
 10
73.92020804358593
 20
-146.0388034031604
 10
74.23319496842087
 20
-146.0388034031604
 10
74.55066051738665
 20
-146.0388034031604
 10
74.78544377470642
 20
-146.2630791192502
 10
74.78544377470642
 20
-146.5655585028551
 97
        0
 97
        1
330
C5
 75
     2
 76
     1
 98
        1
 10
0.0
 20
0.0
450
        0
451
        0
460
0.0
461
0.0
452
        0
462
0.0
453
        0
470

  0
ENDBLK
  5
BF
330
BC
100
AcDbEntity
  8
0
100
AcDbBlockEnd
  0
BLOCK
  5
CB
330
C9
100
AcDbEntity
  8
0
100
AcDbBlockBegin
  2
Block_3
 70
     0
 10
0.0
 20
0.0
 30
0.0
  3
Block_3
  1

  0
INSERT
  5
CE
330
C9
100
AcDbEntity
  8
レイヤー 1
100
AcDbBlockReference
  2
Block_4
 10
0.0
 20
0.0
 30
0.0
  0
ENDBLK
  5
CC
330
C9
100
AcDbEntity
  8
0
100
AcDbBlockEnd
  0
BLOCK
  5
CF
330
CD
100
AcDbEntity
  8
0
100
AcDbBlockBegin
  2
Block_4
 70
     0
 10
0.0
 20
0.0
 30
0.0
  3
Block_4
  1

  0
SPLINE
  5
D1
330
CD
100
AcDbEntity
  8
レイヤー 1
100
AcDbSpline
210
0.0
220
0.0
230
1.0
 70
     9
 71
     3
 72
    44
 73
    40
 74
     0
 42
0.0000000001
 43
0.0000000001
 40
0.0
 40
0.0
 40
0.0
 40
0.0
 40
1.0
 40
1.0
 40
1.0
 40
2.0
 40
2.0
 40
2.0
 40
3.0
 40
3.0
 40
3.0
 40
4.0
 40
4.0
 40
4.0
 40
5.0
 40
5.0
 40
5.0
 40
6.0
 40
6.0
 40
6.0
 40
7.0
 40
7.0
 40
7.0
 40
8.0
 40
8.0
 40
8.0
 40
9.0
 40
9.0
 40
9.0
 40
10.0
 40
10.0
 40
10.0
 40
11.0
 40
11.0
 40
11.0
 40
12.0
 40
12.0
 40
12.0
 40
13.0
 40
13.0
 40
13.0
 40
13.0
 10
90.18329804603057
 20
-141.1019815727974
 30
0.0
 10
89.96539575658852
 20
-141.2606282198932
 30
0.0
 10
89.87220592371251
 20
-141.334697772826
 30
0.0
 10
89.82363007737047
 20
-141.4785305093352
 30
0.0
 10
89.82363007737047
 20
-141.4785305093352
 30
0.0
 10
90.60204940226268
 20
-141.4785305093352
 30
0.0
 10
90.60204940226268
 20
-141.4785305093352
 30
0.0
 10
90.60204940226268
 20
-141.4785305093352
 30
0.0
 10
90.60204940226268
 20
-141.6836859454818
 30
0.0
 10
90.60204940226268
 20
-141.6836859454818
 30
0.0
 10
90.60204940226268
 20
-141.6836859454818
 30
0.0
 10
89.57403290946414
 20
-141.6836859454818
 30
0.0
 10
89.57403290946414
 20
-141.6836859454818
 30
0.0
 10
89.60572778792842
 20
-141.3260850341129
 30
0.0
 10
89.67118460214818
 20
-141.2478813665977
 30
0.0
 10
90.05634627739912
 20
-140.9495360975751
 30
0.0
 10
90.31231687195317
 20
-140.7507540880762
 30
0.0
 10
90.37777368617291
 20
-140.683057961791
 30
0.0
 10
90.37777368617291
 20
-140.5455986519295
 30
0.0
 10
90.37777368617291
 20
-140.427087367237
 30
0.0
 10
90.30594344530546
 20
-140.2958292292489
 30
0.0
 10
90.10922849309769
 20
-140.2958292292489
 30
0.0
 10
89.84895152918708
 20
-140.2958292292489
 30
0.0
 10
89.84051104524821
 20
-140.5264783719864
 30
0.0
 10
89.83620467589165
 20
-140.6429225993878
 30
0.0
 10
89.83620467589165
 20
-140.6429225993878
 30
0.0
 10
89.61210121457614
 20
-140.6429225993878
 30
0.0
 10
89.61210121457614
 20
-140.6429225993878
 30
0.0
 10
89.62054169851501
 20
-140.5159708307564
 30
0.0
 10
89.63104923974503
 20
-140.4038329727115
 30
0.0
 10
89.71149221932561
 20
-140.2853216880189
 30
0.0
 10
89.82139076530506
 20
-140.124607983632
 30
0.0
 10
90.00759817628283
 20
-140.0906737931023
 30
0.0
 10
90.12404240368427
 20
-140.0906737931023
 30
0.0
 10
90.40120033547262
 20
-140.0906737931023
 30
0.0
 10
90.60842282891039
 20
-140.2748141467889
 30
0.0
 10
90.60842282891039
 20
-140.5476657092207
 30
0.0
 10
90.60842282891039
 20
-140.7760755398928
 30
0.0
 10
90.49215085628322
 20
-140.8756387994165
 30
0.0
 10
90.18329804603057
 20
-141.1019815727974
 30
0.0
  0
HATCH
  5
D2
330
CD
100
AcDbEntity
  8
レイヤー 1
 62
   250
420
  2299925
440
 33554687
100
AcDbHatch
 10
0.0
 20
0.0
 30
0.0
210
0.0
220
0.0
230
1.0
  2
SOLID
 70
     1
 71
     1
 91
        1
 92
        1
 93
        1
 72
     4
 94
        3
 73
     0
 74
     0
 95
       44
 96
       40
 40
0.0
 40
0.0
 40
0.0
 40
0.0
 40
1.0
 40
1.0
 40
1.0
 40
2.0
 40
2.0
 40
2.0
 40
3.0
 40
3.0
 40
3.0
 40
4.0
 40
4.0
 40
4.0
 40
5.0
 40
5.0
 40
5.0
 40
6.0
 40
6.0
 40
6.0
 40
7.0
 40
7.0
 40
7.0
 40
8.0
 40
8.0
 40
8.0
 40
9.0
 40
9.0
 40
9.0
 40
10.0
 40
10.0
 40
10.0
 40
11.0
 40
11.0
 40
11.0
 40
12.0
 40
12.0
 40
12.0
 40
13.0
 40
13.0
 40
13.0
 40
13.0
 10
90.18329804603057
 20
-141.1019815727974
 10
89.96539575658852
 20
-141.2606282198932
 10
89.87220592371251
 20
-141.334697772826
 10
89.82363007737047
 20
-141.4785305093352
 10
89.82363007737047
 20
-141.4785305093352
 10
90.60204940226268
 20
-141.4785305093352
 10
90.60204940226268
 20
-141.4785305093352
 10
90.60204940226268
 20
-141.4785305093352
 10
90.60204940226268
 20
-141.6836859454818
 10
90.60204940226268
 20
-141.6836859454818
 10
90.60204940226268
 20
-141.6836859454818
 10
89.57403290946414
 20
-141.6836859454818
 10
89.57403290946414
 20
-141.6836859454818
 10
89.60572778792842
 20
-141.3260850341129
 10
89.67118460214818
 20
-141.2478813665977
 10
90.05634627739912
 20
-140.9495360975751
 10
90.31231687195317
 20
-140.7507540880762
 10
90.37777368617291
 20
-140.683057961791
 10
90.37777368617291
 20
-140.5455986519295
 10
90.37777368617291
 20
-140.427087367237
 10
90.30594344530546
 20
-140.2958292292489
 10
90.10922849309769
 20
-140.2958292292489
 10
89.84895152918708
 20
-140.2958292292489
 10
89.84051104524821
 20
-140.5264783719864
 10
89.83620467589165
 20
-140.6429225993878
 10
89.83620467589165
 20
-140.6429225993878
 10
89.61210121457614
 20
-140.6429225993878
 10
89.61210121457614
 20
-140.6429225993878
 10
89.62054169851501
 20
-140.5159708307564
 10
89.63104923974503
 20
-140.4038329727115
 10
89.71149221932561
 20
-140.2853216880189
 10
89.82139076530506
 20
-140.124607983632
 10
90.00759817628283
 20
-140.0906737931023
 10
90.12404240368427
 20
-140.0906737931023
 10
90.40120033547262
 20
-140.0906737931023
 10
90.60842282891039
 20
-140.2748141467889
 10
90.60842282891039
 20
-140.5476657092207
 10
90.60842282891039
 20
-140.7760755398928
 10
90.49215085628322
 20
-140.8756387994165
 10
90.18329804603057
 20
-141.1019815727974
 97
        0
 97
        1
330
D1
 75
     2
 76
     1
 98
        1
 10
0.0
 20
0.0
450
        0
451
        0
460
0.0
461
0.0
452
        0
462
0.0
453
        0
470

  0
SPLINE
  5
D3
330
CD
100
AcDbEntity
  8
レイヤー 1
100
AcDbSpline
210
0.0
220
0.0
230
1.0
 70
    11
 71
     3
 72
    26
 73
    22
 74
     0
 42
0.0000000001
 43
0.0000000001
 40
0.0
 40
0.0
 40
0.0
 40
0.0
 40
1.0
 40
1.0
 40
1.0
 40
2.0
 40
2.0
 40
2.0
 40
3.0
 40
3.0
 40
3.0
 40
4.0
 40
4.0
 40
4.0
 40
5.0
 40
5.0
 40
5.0
 40
6.0
 40
6.0
 40
6.0
 40
7.0
 40
7.0
 40
7.0
 40
7.0
 10
91.21837698457389
 20
-141.6836859454818
 30
0.0
 10
91.21837698457389
 20
-141.6836859454818
 30
0.0
 10
91.21837698457389
 20
-140.579360587685
 30
0.0
 10
91.21837698457389
 20
-140.579360587685
 30
0.0
 10
91.21837698457389
 20
-140.579360587685
 30
0.0
 10
90.88833683708696
 20
-140.579360587685
 30
0.0
 10
90.88833683708696
 20
-140.579360587685
 30
0.0
 10
90.88833683708696
 20
-140.579360587685
 30
0.0
 10
90.88833683708696
 20
-140.4312214818193
 30
0.0
 10
90.88833683708696
 20
-140.4312214818193
 30
0.0
 10
91.22044404186503
 20
-140.4165798260069
 30
0.0
 10
91.2669528309159
 20
-140.2536268095546
 30
0.0
 10
91.29658065208905
 20
-140.1394218942186
 30
0.0
 10
91.29658065208905
 20
-140.1394218942186
 30
0.0
 10
91.44265270066364
 20
-140.1394218942186
 30
0.0
 10
91.44265270066364
 20
-140.1394218942186
 30
0.0
 10
91.44265270066364
 20
-140.1394218942186
 30
0.0
 10
91.44265270066364
 20
-141.6836859454818
 30
0.0
 10
91.44265270066364
 20
-141.6836859454818
 30
0.0
 10
91.44265270066364
 20
-141.6836859454818
 30
0.0
 10
91.21837698457389
 20
-141.6836859454818
 30
0.0
 10
91.21837698457389
 20
-141.6836859454818
 30
0.0
  0
HATCH
  5
D4
330
CD
100
AcDbEntity
  8
レイヤー 1
 62
   250
420
  2299925
440
 33554687
100
AcDbHatch
 10
0.0
 20
0.0
 30
0.0
210
0.0
220
0.0
230
1.0
  2
SOLID
 70
     1
 71
     1
 91
        1
 92
        1
 93
        1
 72
     4
 94
        3
 73
     0
 74
     0
 95
       26
 96
       22
 40
0.0
 40
0.0
 40
0.0
 40
0.0
 40
1.0
 40
1.0
 40
1.0
 40
2.0
 40
2.0
 40
2.0
 40
3.0
 40
3.0
 40
3.0
 40
4.0
 40
4.0
 40
4.0
 40
5.0
 40
5.0
 40
5.0
 40
6.0
 40
6.0
 40
6.0
 40
7.0
 40
7.0
 40
7.0
 40
7.0
 10
91.21837698457389
 20
-141.6836859454818
 10
91.21837698457389
 20
-141.6836859454818
 10
91.21837698457389
 20
-140.579360587685
 10
91.21837698457389
 20
-140.579360587685
 10
91.21837698457389
 20
-140.579360587685
 10
90.88833683708696
 20
-140.579360587685
 10
90.88833683708696
 20
-140.579360587685
 10
90.88833683708696
 20
-140.579360587685
 10
90.88833683708696
 20
-140.4312214818193
 10
90.88833683708696
 20
-140.4312214818193
 10
91.22044404186503
 20
-140.4165798260069
 10
91.2669528309159
 20
-140.2536268095546
 10
91.29658065208905
 20
-140.1394218942186
 10
91.29658065208905
 20
-140.1394218942186
 10
91.44265270066364
 20
-140.1394218942186
 10
91.44265270066364
 20
-140.1394218942186
 10
91.44265270066364
 20
-140.1394218942186
 10
91.44265270066364
 20
-141.6836859454818
 10
91.44265270066364
 20
-141.6836859454818
 10
91.44265270066364
 20
-141.6836859454818
 10
91.21837698457389
 20
-141.6836859454818
 10
91.21837698457389
 20
-141.6836859454818
 97
        0
 97
        1
330
D3
 75
     2
 76
     1
 98
        1
 10
0.0
 20
0.0
450
        0
451
        0
460
0.0
461
0.0
452
        0
462
0.0
453
        0
470

  0
ENDBLK
  5
D0
330
CD
100
AcDbEntity
  8
0
100
AcDbBlockEnd
  0
BLOCK
  5
D9
330
D7
100
AcDbEntity
  8
0
100
AcDbBlockBegin
  2
Block_5
 70
     0
 10
0.0
 20
0.0
 30
0.0
  3
Block_5
  1

  0
SPLINE
  5
DB
330
D7
100
AcDbEntity
  8
レイヤー 1
100
AcDbSpline
210
0.0
220
0.0
230
1.0
 70
     9
 71
     3
 72
    53
 73
    49
 74
     0
 42
0.0000000001
 43
0.0000000001
 40
0.0
 40
0.0
 40
0.0
 40
0.0
 40
1.0
 40
1.0
 40
1.0
 40
2.0
 40
2.0
 40
2.0
 40
3.0
 40
3.0
 40
3.0
 40
4.0
 40
4.0
 40
4.0
 40
5.0
 40
5.0
 40
5.0
 40
6.0
 40
6.0
 40
6.0
 40
7.0
 40
7.0
 40
7.0
 40
8.0
 40
8.0
 40
8.0
 40
9.0
 40
9.0
 40
9.0
 40
10.0
 40
10.0
 40
10.0
 40
11.0
 40
11.0
 40
11.0
 40
12.0
 40
12.0
 40
12.0
 40
13.0
 40
13.0
 40
13.0
 40
14.0
 40
14.0
 40
14.0
 40
15.0
 40
15.0
 40
15.0
 40
16.0
 40
16.0
 40
16.0
 40
16.0
 10
75.51597627235365
 20
-150.1765353357197
 30
0.0
 10
75.51597627235365
 20
-150.2547390032349
 30
0.0
 10
75.49892304970166
 20
-150.3563693200498
 30
0.0
 10
75.43553329277306
 20
-150.4579996368646
 30
0.0
 10
75.32546249201932
 20
-150.6312879397727
 30
0.0
 10
75.19437660880557
 20
-150.6526475317813
 30
0.0
 10
75.08654512011725
 20
-150.6715955569501
 30
0.0
 10
75.08654512011725
 20
-150.6715955569501
 30
0.0
 10
75.08654512011725
 20
-150.4493868981515
 30
0.0
 10
75.08654512011725
 20
-150.4493868981515
 30
0.0
 10
75.28532712961617
 20
-150.394609879936
 30
0.0
 10
75.31495495078932
 20
-150.2674858565303
 30
0.0
 10
75.31495495078932
 20
-150.1744682784286
 30
0.0
 10
75.31495495078932
 20
-150.034941911276
 30
0.0
 10
75.21556394603987
 20
-149.8826686908279
 30
0.0
 10
74.98284774601123
 20
-149.8826686908279
 30
0.0
 10
74.72687715145717
 20
-149.8826686908279
 30
0.0
 10
74.65711396788086
 20
-150.062502675158
 30
0.0
 10
74.65711396788086
 20
-150.1830810171417
 30
0.0
 10
74.65711396788086
 20
-150.214775895606
 30
0.0
 10
74.65711396788086
 20
-150.3563693200498
 30
0.0
 10
74.78613279380347
 20
-150.4452527835692
 30
0.0
 10
74.78613279380347
 20
-150.4452527835692
 30
0.0
 10
74.76701251386034
 20
-150.620952653317
 30
0.0
 10
74.76701251386034
 20
-150.620952653317
 30
0.0
 10
74.76701251386034
 20
-150.620952653317
 30
0.0
 10
73.92089706268297
 20
-150.5003743113332
 30
0.0
 10
73.92089706268297
 20
-150.5003743113332
 30
0.0
 10
73.92089706268297
 20
-150.5003743113332
 30
0.0
 10
73.92089706268297
 20
-149.7217827316668
 30
0.0
 10
73.92089706268297
 20
-149.7217827316668
 30
0.0
 10
73.92089706268297
 20
-149.7217827316668
 30
0.0
 10
74.11554495759959
 20
-149.7217827316668
 30
0.0
 10
74.11554495759959
 20
-149.7217827316668
 30
0.0
 10
74.11554495759959
 20
-149.7217827316668
 30
0.0
 10
74.11554495759959
 20
-150.3374212948809
 30
0.0
 10
74.11554495759959
 20
-150.3374212948809
 30
0.0
 10
74.11554495759959
 20
-150.3374212948809
 30
0.0
 10
74.53860268318827
 20
-150.4028781091006
 30
0.0
 10
74.53860268318827
 20
-150.4028781091006
 30
0.0
 10
74.50466849265855
 20
-150.3415554094632
 30
0.0
 10
74.4645331302554
 20
-150.2592176273657
 30
0.0
 10
74.4645331302554
 20
-150.1407063426731
 30
0.0
 10
74.4645331302554
 20
-149.8868028054102
 30
0.0
 10
74.65074054123315
 20
-149.649780236025
 30
0.0
 10
74.96372746606809
 20
-149.649780236025
 30
0.0
 10
75.28119301503387
 20
-149.649780236025
 30
0.0
 10
75.51597627235365
 20
-149.8740559521148
 30
0.0
 10
75.51597627235365
 20
-150.1765353357197
 30
0.0
  0
HATCH
  5
DC
330
D7
100
AcDbEntity
  8
レイヤー 1
 62
   250
420
  2299925
440
 33554687
100
AcDbHatch
 10
0.0
 20
0.0
 30
0.0
210
0.0
220
0.0
230
1.0
  2
SOLID
 70
     1
 71
     1
 91
        1
 92
        1
 93
        1
 72
     4
 94
        3
 73
     0
 74
     0
 95
       53
 96
       49
 40
0.0
 40
0.0
 40
0.0
 40
0.0
 40
1.0
 40
1.0
 40
1.0
 40
2.0
 40
2.0
 40
2.0
 40
3.0
 40
3.0
 40
3.0
 40
4.0
 40
4.0
 40
4.0
 40
5.0
 40
5.0
 40
5.0
 40
6.0
 40
6.0
 40
6.0
 40
7.0
 40
7.0
 40
7.0
 40
8.0
 40
8.0
 40
8.0
 40
9.0
 40
9.0
 40
9.0
 40
10.0
 40
10.0
 40
10.0
 40
11.0
 40
11.0
 40
11.0
 40
12.0
 40
12.0
 40
12.0
 40
13.0
 40
13.0
 40
13.0
 40
14.0
 40
14.0
 40
14.0
 40
15.0
 40
15.0
 40
15.0
 40
16.0
 40
16.0
 40
16.0
 40
16.0
 10
75.51597627235365
 20
-150.1765353357197
 10
75.51597627235365
 20
-150.2547390032349
 10
75.49892304970166
 20
-150.3563693200498
 10
75.43553329277306
 20
-150.4579996368646
 10
75.32546249201932
 20
-150.6312879397727
 10
75.19437660880557
 20
-150.6526475317813
 10
75.08654512011725
 20
-150.6715955569501
 10
75.08654512011725
 20
-150.6715955569501
 10
75.08654512011725
 20
-150.4493868981515
 10
75.08654512011725
 20
-150.4493868981515
 10
75.28532712961617
 20
-150.394609879936
 10
75.31495495078932
 20
-150.2674858565303
 10
75.31495495078932
 20
-150.1744682784286
 10
75.31495495078932
 20
-150.034941911276
 10
75.21556394603987
 20
-149.8826686908279
 10
74.98284774601123
 20
-149.8826686908279
 10
74.72687715145717
 20
-149.8826686908279
 10
74.65711396788086
 20
-150.062502675158
 10
74.65711396788086
 20
-150.1830810171417
 10
74.65711396788086
 20
-150.214775895606
 10
74.65711396788086
 20
-150.3563693200498
 10
74.78613279380347
 20
-150.4452527835692
 10
74.78613279380347
 20
-150.4452527835692
 10
74.76701251386034
 20
-150.620952653317
 10
74.76701251386034
 20
-150.620952653317
 10
74.76701251386034
 20
-150.620952653317
 10
73.92089706268297
 20
-150.5003743113332
 10
73.92089706268297
 20
-150.5003743113332
 10
73.92089706268297
 20
-150.5003743113332
 10
73.92089706268297
 20
-149.7217827316668
 10
73.92089706268297
 20
-149.7217827316668
 10
73.92089706268297
 20
-149.7217827316668
 10
74.11554495759959
 20
-149.7217827316668
 10
74.11554495759959
 20
-149.7217827316668
 10
74.11554495759959
 20
-149.7217827316668
 10
74.11554495759959
 20
-150.3374212948809
 10
74.11554495759959
 20
-150.3374212948809
 10
74.11554495759959
 20
-150.3374212948809
 10
74.53860268318827
 20
-150.4028781091006
 10
74.53860268318827
 20
-150.4028781091006
 10
74.50466849265855
 20
-150.3415554094632
 10
74.4645331302554
 20
-150.2592176273657
 10
74.4645331302554
 20
-150.1407063426731
 10
74.4645331302554
 20
-149.8868028054102
 10
74.65074054123315
 20
-149.649780236025
 10
74.96372746606809
 20
-149.649780236025
 10
75.28119301503387
 20
-149.649780236025
 10
75.51597627235365
 20
-149.8740559521148
 10
75.51597627235365
 20
-150.1765353357197
 97
        0
 97
        1
330
DB
 75
     2
 76
     1
 98
        1
 10
0.0
 20
0.0
450
        0
451
        0
460
0.0
461
0.0
452
        0
462
0.0
453
        0
470

  0
ENDBLK
  5
DA
330
D7
100
AcDbEntity
  8
0
100
AcDbBlockEnd
  0
BLOCK
  5
E2
330
E0
100
AcDbEntity
  8
0
100
AcDbBlockBegin
  2
Block_6
 70
     0
 10
0.0
 20
0.0
 30
0.0
  3
Block_6
  1

  0
SPLINE
  5
E4
330
E0
100
AcDbEntity
  8
レイヤー 1
100
AcDbSpline
210
0.0
220
0.0
230
1.0
 70
     9
 71
     3
 72
    17
 73
    13
 74
     0
 42
0.0000000001
 43
0.0000000001
 40
0.0
 40
0.0
 40
0.0
 40
0.0
 40
1.0
 40
1.0
 40
1.0
 40
2.0
 40
2.0
 40
2.0
 40
3.0
 40
3.0
 40
3.0
 40
4.0
 40
4.0
 40
4.0
 40
4.0
 10
105.6772704813932
 20
-140.2818765925337
 30
0.0
 10
105.5587591967006
 20
-140.2818765925337
 30
0.0
 10
105.3832315817271
 20
-140.3388929228146
 30
0.0
 10
105.3832315817271
 20
-140.6244913385418
 30
0.0
 10
105.3832315817271
 20
-140.8508341119227
 30
0.0
 10
105.522930203654
 20
-140.9460910020898
 30
0.0
 10
105.6583224562243
 20
-140.9460910020898
 30
0.0
 10
105.9204942226518
 20
-140.9460910020898
 30
0.0
 10
105.9587347825381
 20
-140.7366291965866
 30
0.0
 10
105.9587347825381
 20
-140.6203572239595
 30
0.0
 10
105.9587347825381
 20
-140.4446573542117
 30
0.0
 10
105.8633056375967
 20
-140.2818765925337
 30
0.0
 10
105.6772704813932
 20
-140.2818765925337
 30
0.0
  0
SPLINE
  5
E5
330
E0
100
AcDbEntity
  8
レイヤー 1
100
AcDbSpline
210
0.0
220
0.0
230
1.0
 70
     9
 71
     3
 72
    32
 73
    28
 74
     0
 42
0.0000000001
 43
0.0000000001
 40
0.0
 40
0.0
 40
0.0
 40
0.0
 40
1.0
 40
1.0
 40
1.0
 40
2.0
 40
2.0
 40
2.0
 40
3.0
 40
3.0
 40
3.0
 40
4.0
 40
4.0
 40
4.0
 40
5.0
 40
5.0
 40
5.0
 40
6.0
 40
6.0
 40
6.0
 40
7.0
 40
7.0
 40
7.0
 40
8.0
 40
8.0
 40
8.0
 40
9.0
 40
9.0
 40
9.0
 40
9.0
 10
105.6369628642157
 20
-141.7331230656952
 30
0.0
 10
105.4635023065334
 20
-141.7331230656952
 30
0.0
 10
105.2182115079836
 20
-141.6631876273446
 30
0.0
 10
105.1801432028716
 20
-141.3310804225665
 30
0.0
 10
105.1801432028716
 20
-141.3310804225665
 30
0.0
 10
105.3937391229571
 20
-141.3310804225665
 30
0.0
 10
105.3937391229571
 20
-141.3310804225665
 30
0.0
 10
105.4044189189614
 20
-141.3903360649128
 30
0.0
 10
105.4361137974257
 20
-141.5384751707786
 30
0.0
 10
105.6390299215069
 20
-141.5384751707786
 30
0.0
 10
105.9311740186561
 20
-141.5384751707786
 30
0.0
 10
105.9690700689938
 20
-141.2084350232916
 30
0.0
 10
105.9818169222892
 20
-141.003279587145
 30
0.0
 10
105.8908664014786
 20
-141.0835503119513
 30
0.0
 10
105.8233425299677
 20
-141.1407388970065
 30
0.0
 10
105.6414414883466
 20
-141.1407388970065
 30
0.0
 10
105.4614352492423
 20
-141.1407388970065
 30
0.0
 10
105.1589558656373
 20
-141.0349744656093
 30
0.0
 10
105.1589558656373
 20
-140.6287977078983
 30
0.0
 10
105.1589558656373
 20
-140.3092651016414
 30
0.0
 10
105.3577378751362
 20
-140.0892957549082
 30
0.0
 10
105.675203424102
 20
-140.0892957549082
 30
0.0
 10
106.1892116705013
 20
-140.0892957549082
 30
0.0
 10
106.1998914665056
 20
-140.6436116184849
 30
0.0
 10
106.1998914665056
 20
-140.8572075385704
 30
0.0
 10
106.1998914665056
 20
-141.0878566813079
 30
0.0
 10
106.1805989317882
 20
-141.7331230656952
 30
0.0
 10
105.6369628642157
 20
-141.7331230656952
 30
0.0
  0
HATCH
  5
E6
330
E0
100
AcDbEntity
  8
レイヤー 1
 62
   250
420
  2299925
440
 33554687
100
AcDbHatch
 10
0.0
 20
0.0
 30
0.0
210
0.0
220
0.0
230
1.0
  2
SOLID
 70
     1
 71
     1
 91
        2
 92
        1
 93
        1
 72
     4
 94
        3
 73
     0
 74
     0
 95
       17
 96
       13
 40
0.0
 40
0.0
 40
0.0
 40
0.0
 40
1.0
 40
1.0
 40
1.0
 40
2.0
 40
2.0
 40
2.0
 40
3.0
 40
3.0
 40
3.0
 40
4.0
 40
4.0
 40
4.0
 40
4.0
 10
105.6772704813932
 20
-140.2818765925337
 10
105.5587591967006
 20
-140.2818765925337
 10
105.3832315817271
 20
-140.3388929228146
 10
105.3832315817271
 20
-140.6244913385418
 10
105.3832315817271
 20
-140.8508341119227
 10
105.522930203654
 20
-140.9460910020898
 10
105.6583224562243
 20
-140.9460910020898
 10
105.9204942226518
 20
-140.9460910020898
 10
105.9587347825381
 20
-140.7366291965866
 10
105.9587347825381
 20
-140.6203572239595
 10
105.9587347825381
 20
-140.4446573542117
 10
105.8633056375967
 20
-140.2818765925337
 10
105.6772704813932
 20
-140.2818765925337
 97
        0
 97
        1
330
E4
 92
        1
 93
        1
 72
     4
 94
        3
 73
     0
 74
     0
 95
       32
 96
       28
 40
0.0
 40
0.0
 40
0.0
 40
0.0
 40
1.0
 40
1.0
 40
1.0
 40
2.0
 40
2.0
 40
2.0
 40
3.0
 40
3.0
 40
3.0
 40
4.0
 40
4.0
 40
4.0
 40
5.0
 40
5.0
 40
5.0
 40
6.0
 40
6.0
 40
6.0
 40
7.0
 40
7.0
 40
7.0
 40
8.0
 40
8.0
 40
8.0
 40
9.0
 40
9.0
 40
9.0
 40
9.0
 10
105.6369628642157
 20
-141.7331230656952
 10
105.4635023065334
 20
-141.7331230656952
 10
105.2182115079836
 20
-141.6631876273446
 10
105.1801432028716
 20
-141.3310804225665
 10
105.1801432028716
 20
-141.3310804225665
 10
105.3937391229571
 20
-141.3310804225665
 10
105.3937391229571
 20
-141.3310804225665
 10
105.4044189189614
 20
-141.3903360649128
 10
105.4361137974257
 20
-141.5384751707786
 10
105.6390299215069
 20
-141.5384751707786
 10
105.9311740186561
 20
-141.5384751707786
 10
105.9690700689938
 20
-141.2084350232916
 10
105.9818169222892
 20
-141.003279587145
 10
105.8908664014786
 20
-141.0835503119513
 10
105.8233425299677
 20
-141.1407388970065
 10
105.6414414883466
 20
-141.1407388970065
 10
105.4614352492423
 20
-141.1407388970065
 10
105.1589558656373
 20
-141.0349744656093
 10
105.1589558656373
 20
-140.6287977078983
 10
105.1589558656373
 20
-140.3092651016414
 10
105.3577378751362
 20
-140.0892957549082
 10
105.675203424102
 20
-140.0892957549082
 10
106.1892116705013
 20
-140.0892957549082
 10
106.1998914665056
 20
-140.6436116184849
 10
106.1998914665056
 20
-140.8572075385704
 10
106.1998914665056
 20
-141.0878566813079
 10
106.1805989317882
 20
-141.7331230656952
 10
105.6369628642157
 20
-141.7331230656952
 97
        0
 97
        1
330
E5
 75
     2
 76
     1
 98
        1
 10
0.0
 20
0.0
450
        0
451
        0
460
0.0
461
0.0
452
        0
462
0.0
453
        0
470

  0
ENDBLK
  5
E3
330
E0
100
AcDbEntity
  8
0
100
AcDbBlockEnd
  0
BLOCK
  5
EE
330
EC
100
AcDbEntity
  8
0
100
AcDbBlockBegin
  2
Block_7
 70
     0
 10
0.0
 20
0.0
 30
0.0
  3
Block_7
  1

  0
INSERT
  5
F1
330
EC
100
AcDbEntity
  8
レイヤー 1
100
AcDbBlockReference
  2
Block_8
 10
0.0
 20
0.0
 30
0.0
  0
ENDBLK
  5
EF
330
EC
100
AcDbEntity
  8
0
100
AcDbBlockEnd
  0
BLOCK
  5
F2
330
F0
100
AcDbEntity
  8
0
100
AcDbBlockBegin
  2
Block_8
 70
     0
 10
0.0
 20
0.0
 30
0.0
  3
Block_8
  1

  0
SPLINE
  5
F4
330
F0
100
AcDbEntity
  8
レイヤー 1
100
AcDbSpline
210
0.0
220
0.0
230
1.0
 70
    11
 71
     3
 72
    26
 73
    22
 74
     0
 42
0.0000000001
 43
0.0000000001
 40
0.0
 40
0.0
 40
0.0
 40
0.0
 40
1.0
 40
1.0
 40
1.0
 40
2.0
 40
2.0
 40
2.0
 40
3.0
 40
3.0
 40
3.0
 40
4.0
 40
4.0
 40
4.0
 40
5.0
 40
5.0
 40
5.0
 40
6.0
 40
6.0
 40
6.0
 40
7.0
 40
7.0
 40
7.0
 40
7.0
 10
105.0425116382359
 20
-156.0593803863324
 30
0.0
 10
105.0425116382359
 20
-156.0593803863324
 30
0.0
 10
105.0425116382359
 20
-154.9552272833098
 30
0.0
 10
105.0425116382359
 20
-154.9552272833098
 30
0.0
 10
105.0425116382359
 20
-154.9552272833098
 30
0.0
 10
104.7124714907489
 20
-154.9552272833098
 30
0.0
 10
104.7124714907489
 20
-154.9552272833098
 30
0.0
 10
104.7124714907489
 20
-154.9552272833098
 30
0.0
 10
104.7124714907489
 20
-154.807088177444
 30
0.0
 10
104.7124714907489
 20
-154.807088177444
 30
0.0
 10
105.044578695527
 20
-154.7922742668575
 30
0.0
 10
105.0910874845779
 20
-154.6293212504052
 30
0.0
 10
105.1207153057511
 20
-154.5149440802949
 30
0.0
 10
105.1207153057511
 20
-154.5149440802949
 30
0.0
 10
105.2667873543256
 20
-154.5149440802949
 30
0.0
 10
105.2667873543256
 20
-154.5149440802949
 30
0.0
 10
105.2667873543256
 20
-154.5149440802949
 30
0.0
 10
105.2667873543256
 20
-156.0593803863324
 30
0.0
 10
105.2667873543256
 20
-156.0593803863324
 30
0.0
 10
105.2667873543256
 20
-156.0593803863324
 30
0.0
 10
105.0425116382359
 20
-156.0593803863324
 30
0.0
 10
105.0425116382359
 20
-156.0593803863324
 30
0.0
  0
HATCH
  5
F5
330
F0
100
AcDbEntity
  8
レイヤー 1
 62
   250
420
  2299925
440
 33554687
100
AcDbHatch
 10
0.0
 20
0.0
 30
0.0
210
0.0
220
0.0
230
1.0
  2
SOLID
 70
     1
 71
     1
 91
        1
 92
        1
 93
        1
 72
     4
 94
        3
 73
     0
 74
     0
 95
       26
 96
       22
 40
0.0
 40
0.0
 40
0.0
 40
0.0
 40
1.0
 40
1.0
 40
1.0
 40
2.0
 40
2.0
 40
2.0
 40
3.0
 40
3.0
 40
3.0
 40
4.0
 40
4.0
 40
4.0
 40
5.0
 40
5.0
 40
5.0
 40
6.0
 40
6.0
 40
6.0
 40
7.0
 40
7.0
 40
7.0
 40
7.0
 10
105.0425116382359
 20
-156.0593803863324
 10
105.0425116382359
 20
-156.0593803863324
 10
105.0425116382359
 20
-154.9552272833098
 10
105.0425116382359
 20
-154.9552272833098
 10
105.0425116382359
 20
-154.9552272833098
 10
104.7124714907489
 20
-154.9552272833098
 10
104.7124714907489
 20
-154.9552272833098
 10
104.7124714907489
 20
-154.9552272833098
 10
104.7124714907489
 20
-154.807088177444
 10
104.7124714907489
 20
-154.807088177444
 10
105.044578695527
 20
-154.7922742668575
 10
105.0910874845779
 20
-154.6293212504052
 10
105.1207153057511
 20
-154.5149440802949
 10
105.1207153057511
 20
-154.5149440802949
 10
105.2667873543256
 20
-154.5149440802949
 10
105.2667873543256
 20
-154.5149440802949
 10
105.2667873543256
 20
-154.5149440802949
 10
105.2667873543256
 20
-156.0593803863324
 10
105.2667873543256
 20
-156.0593803863324
 10
105.2667873543256
 20
-156.0593803863324
 10
105.0425116382359
 20
-156.0593803863324
 10
105.0425116382359
 20
-156.0593803863324
 97
        0
 97
        1
330
F4
 75
     2
 76
     1
 98
        1
 10
0.0
 20
0.0
450
        0
451
        0
460
0.0
461
0.0
452
        0
462
0.0
453
        0
470

  0
SPLINE
  5
F6
330
F0
100
AcDbEntity
  8
レイヤー 1
100
AcDbSpline
210
0.0
220
0.0
230
1.0
 70
    11
 71
     3
 72
    26
 73
    22
 74
     0
 42
0.0000000001
 43
0.0000000001
 40
0.0
 40
0.0
 40
0.0
 40
0.0
 40
1.0
 40
1.0
 40
1.0
 40
2.0
 40
2.0
 40
2.0
 40
3.0
 40
3.0
 40
3.0
 40
4.0
 40
4.0
 40
4.0
 40
5.0
 40
5.0
 40
5.0
 40
6.0
 40
6.0
 40
6.0
 40
7.0
 40
7.0
 40
7.0
 40
7.0
 10
106.219184001223
 20
-156.0593803863324
 30
0.0
 10
106.219184001223
 20
-156.0593803863324
 30
0.0
 10
106.219184001223
 20
-154.9552272833098
 30
0.0
 10
106.219184001223
 20
-154.9552272833098
 30
0.0
 10
106.219184001223
 20
-154.9552272833098
 30
0.0
 10
105.889143853736
 20
-154.9552272833098
 30
0.0
 10
105.889143853736
 20
-154.9552272833098
 30
0.0
 10
105.889143853736
 20
-154.9552272833098
 30
0.0
 10
105.889143853736
 20
-154.807088177444
 30
0.0
 10
105.889143853736
 20
-154.807088177444
 30
0.0
 10
106.2212510585141
 20
-154.7922742668575
 30
0.0
 10
106.267759847565
 20
-154.6293212504052
 30
0.0
 10
106.2973876687381
 20
-154.5149440802949
 30
0.0
 10
106.2973876687381
 20
-154.5149440802949
 30
0.0
 10
106.4434597173127
 20
-154.5149440802949
 30
0.0
 10
106.4434597173127
 20
-154.5149440802949
 30
0.0
 10
106.4434597173127
 20
-154.5149440802949
 30
0.0
 10
106.4434597173127
 20
-156.0593803863324
 30
0.0
 10
106.4434597173127
 20
-156.0593803863324
 30
0.0
 10
106.4434597173127
 20
-156.0593803863324
 30
0.0
 10
106.219184001223
 20
-156.0593803863324
 30
0.0
 10
106.219184001223
 20
-156.0593803863324
 30
0.0
  0
HATCH
  5
F7
330
F0
100
AcDbEntity
  8
レイヤー 1
 62
   250
420
  2299925
440
 33554687
100
AcDbHatch
 10
0.0
 20
0.0
 30
0.0
210
0.0
220
0.0
230
1.0
  2
SOLID
 70
     1
 71
     1
 91
        1
 92
        1
 93
        1
 72
     4
 94
        3
 73
     0
 74
     0
 95
       26
 96
       22
 40
0.0
 40
0.0
 40
0.0
 40
0.0
 40
1.0
 40
1.0
 40
1.0
 40
2.0
 40
2.0
 40
2.0
 40
3.0
 40
3.0
 40
3.0
 40
4.0
 40
4.0
 40
4.0
 40
5.0
 40
5.0
 40
5.0
 40
6.0
 40
6.0
 40
6.0
 40
7.0
 40
7.0
 40
7.0
 40
7.0
 10
106.219184001223
 20
-156.0593803863324
 10
106.219184001223
 20
-156.0593803863324
 10
106.219184001223
 20
-154.9552272833098
 10
106.219184001223
 20
-154.9552272833098
 10
106.219184001223
 20
-154.9552272833098
 10
105.889143853736
 20
-154.9552272833098
 10
105.889143853736
 20
-154.9552272833098
 10
105.889143853736
 20
-154.9552272833098
 10
105.889143853736
 20
-154.807088177444
 10
105.889143853736
 20
-154.807088177444
 10
106.2212510585141
 20
-154.7922742668575
 10
106.267759847565
 20
-154.6293212504052
 10
106.2973876687381
 20
-154.5149440802949
 10
106.2973876687381
 20
-154.5149440802949
 10
106.4434597173127
 20
-154.5149440802949
 10
106.4434597173127
 20
-154.5149440802949
 10
106.4434597173127
 20
-154.5149440802949
 10
106.4434597173127
 20
-156.0593803863324
 10
106.4434597173127
 20
-156.0593803863324
 10
106.4434597173127
 20
-156.0593803863324
 10
106.219184001223
 20
-156.0593803863324
 10
106.219184001223
 20
-156.0593803863324
 97
        0
 97
        1
330
F6
 75
     2
 76
     1
 98
        1
 10
0.0
 20
0.0
450
        0
451
        0
460
0.0
461
0.0
452
        0
462
0.0
453
        0
470

  0
ENDBLK
  5
F3
330
F0
100
AcDbEntity
  8
0
100
AcDbBlockEnd
  0
BLOCK
  5
FC
330
FA
100
AcDbEntity
  8
0
100
AcDbBlockBegin
  2
Block_9
 70
     0
 10
0.0
 20
0.0
 30
0.0
  3
Block_9
  1

  0
SPLINE
  5
FE
330
FA
100
AcDbEntity
  8
レイヤー 1
100
AcDbSpline
210
0.0
220
0.0
230
1.0
 70
    11
 71
     3
 72
    26
 73
    22
 74
     0
 42
0.0000000001
 43
0.0000000001
 40
0.0
 40
0.0
 40
0.0
 40
0.0
 40
1.0
 40
1.0
 40
1.0
 40
2.0
 40
2.0
 40
2.0
 40
3.0
 40
3.0
 40
3.0
 40
4.0
 40
4.0
 40
4.0
 40
5.0
 40
5.0
 40
5.0
 40
6.0
 40
6.0
 40
6.0
 40
7.0
 40
7.0
 40
7.0
 40
7.0
 10
113.0814696982921
 20
-149.5364365945603
 30
0.0
 10
113.0814696982921
 20
-149.5364365945603
 30
0.0
 10
113.0814696982921
 20
-148.4321112367635
 30
0.0
 10
113.0814696982921
 20
-148.4321112367635
 30
0.0
 10
113.0814696982921
 20
-148.4321112367635
 30
0.0
 10
112.7514295508052
 20
-148.4321112367635
 30
0.0
 10
112.7514295508052
 20
-148.4321112367635
 30
0.0
 10
112.7514295508052
 20
-148.4321112367635
 30
0.0
 10
112.7514295508052
 20
-148.2839721308977
 30
0.0
 10
112.7514295508052
 20
-148.2839721308977
 30
0.0
 10
113.0835367555833
 20
-148.2693304750854
 30
0.0
 10
113.1300455446341
 20
-148.1063774586331
 30
0.0
 10
113.1596733658073
 20
-147.9921725432971
 30
0.0
 10
113.1596733658073
 20
-147.9921725432971
 30
0.0
 10
113.3057454143819
 20
-147.9921725432971
 30
0.0
 10
113.3057454143819
 20
-147.9921725432971
 30
0.0
 10
113.3057454143819
 20
-147.9921725432971
 30
0.0
 10
113.3057454143819
 20
-149.5364365945603
 30
0.0
 10
113.3057454143819
 20
-149.5364365945603
 30
0.0
 10
113.3057454143819
 20
-149.5364365945603
 30
0.0
 10
113.0814696982921
 20
-149.5364365945603
 30
0.0
 10
113.0814696982921
 20
-149.5364365945603
 30
0.0
  0
HATCH
  5
FF
330
FA
100
AcDbEntity
  8
レイヤー 1
 62
   250
420
  2299925
440
 33554687
100
AcDbHatch
 10
0.0
 20
0.0
 30
0.0
210
0.0
220
0.0
230
1.0
  2
SOLID
 70
     1
 71
     1
 91
        1
 92
        1
 93
        1
 72
     4
 94
        3
 73
     0
 74
     0
 95
       26
 96
       22
 40
0.0
 40
0.0
 40
0.0
 40
0.0
 40
1.0
 40
1.0
 40
1.0
 40
2.0
 40
2.0
 40
2.0
 40
3.0
 40
3.0
 40
3.0
 40
4.0
 40
4.0
 40
4.0
 40
5.0
 40
5.0
 40
5.0
 40
6.0
 40
6.0
 40
6.0
 40
7.0
 40
7.0
 40
7.0
 40
7.0
 10
113.0814696982921
 20
-149.5364365945603
 10
113.0814696982921
 20
-149.5364365945603
 10
113.0814696982921
 20
-148.4321112367635
 10
113.0814696982921
 20
-148.4321112367635
 10
113.0814696982921
 20
-148.4321112367635
 10
112.7514295508052
 20
-148.4321112367635
 10
112.7514295508052
 20
-148.4321112367635
 10
112.7514295508052
 20
-148.4321112367635
 10
112.7514295508052
 20
-148.2839721308977
 10
112.7514295508052
 20
-148.2839721308977
 10
113.0835367555833
 20
-148.2693304750854
 10
113.1300455446341
 20
-148.1063774586331
 10
113.1596733658073
 20
-147.9921725432971
 10
113.1596733658073
 20
-147.9921725432971
 10
113.3057454143819
 20
-147.9921725432971
 10
113.3057454143819
 20
-147.9921725432971
 10
113.3057454143819
 20
-147.9921725432971
 10
113.3057454143819
 20
-149.5364365945603
 10
113.3057454143819
 20
-149.5364365945603
 10
113.3057454143819
 20
-149.5364365945603
 10
113.0814696982921
 20
-149.5364365945603
 10
113.0814696982921
 20
-149.5364365945603
 97
        0
 97
        1
330
FE
 75
     2
 76
     1
 98
        1
 10
0.0
 20
0.0
450
        0
451
        0
460
0.0
461
0.0
452
        0
462
0.0
453
        0
470

  0
ENDBLK
  5
FD
330
FA
100
AcDbEntity
  8
0
100
AcDbBlockEnd
  0
BLOCK
  5
102
330
100
100
AcDbEntity
  8
0
100
AcDbBlockBegin
  2
Block_10
 70
     0
 10
0.0
 20
0.0
 30
0.0
  3
Block_10
  1

  0
SPLINE
  5
104
330
100
100
AcDbEntity
  8
レイヤー 1
 62
   250
420
  2299925
370
     9
100
AcDbSpline
210
0.0
220
0.0
230
1.0
 70
     8
 71
     3
 72
    26
 73
    22
 74
     0
 42
0.0000000001
 43
0.0000000001
 40
0.0
 40
0.0
 40
0.0
 40
0.0
 40
1.0
 40
1.0
 40
1.0
 40
2.0
 40
2.0
 40
2.0
 40
3.0
 40
3.0
 40
3.0
 40
4.0
 40
4.0
 40
4.0
 40
5.0
 40
5.0
 40
5.0
 40
6.0
 40
6.0
 40
6.0
 40
7.0
 40
7.0
 40
7.0
 40
7.0
 10
128.2133166420729
 20
-146.1199140412823
 30
0.0
 10
128.2133166420729
 20
-146.1199140412823
 30
0.0
 10
119.6212344714536
 20
-149.1426198738599
 30
0.0
 10
119.6212344714536
 20
-149.1426198738599
 30
0.0
 10
119.6212344714536
 20
-149.1426198738599
 30
0.0
 10
118.252844784142
 20
-149.4085790404599
 30
0.0
 10
118.7661717154903
 20
-149.8647207070125
 30
0.0
 10
118.7661717154903
 20
-149.8647207070125
 30
0.0
 10
119.0700221999144
 20
-150.0549032069649
 30
0.0
 10
119.6026430830391
 20
-150.2643473735797
 30
0.0
 10
119.6026430830391
 20
-150.2643473735797
 30
0.0
 10
124.6014687888417
 20
-152.2828359841855
 30
0.0
 10
124.6014687888417
 20
-152.2828359841855
 30
0.0
 10
124.6014687888417
 20
-152.2828359841855
 30
0.0
 10
124.6014687888417
 20
-155.357576538973
 30
0.0
 10
124.6014687888417
 20
-155.357576538973
 30
0.0
 10
124.6014687888417
 20
-155.357576538973
 30
0.0
 10
127.2438448325402
 20
-156.6315982053204
 30
0.0
 10
127.2438448325402
 20
-156.6315982053204
 30
0.0
 10
127.2438448325402
 20
-156.6315982053204
 30
0.0
 10
137.4268809616382
 20
-152.2280495953108
 30
0.0
 10
137.4268809616382
 20
-152.2280495953108
 30
0.0
  0
LINE
  5
105
330
100
100
AcDbEntity
  8
レイヤー 1
 62
   250
420
  2299925
370
     9
100
AcDbLine
 10
126.749814845144
 20
-152.7820165396166
 30
0.0
 11
136.932850974242
 21
-148.7815870961723
 31
0.0
  0
SPLINE
  5
106
330
100
100
AcDbEntity
  8
レイヤー 1
 62
   250
420
  2299925
370
     9
100
AcDbSpline
210
0.0
220
0.0
230
1.0
 70
     8
 71
     3
 72
    26
 73
    22
 74
     0
 42
0.0000000001
 43
0.0000000001
 40
0.0
 40
0.0
 40
0.0
 40
0.0
 40
1.0
 40
1.0
 40
1.0
 40
2.0
 40
2.0
 40
2.0
 40
3.0
 40
3.0
 40
3.0
 40
4.0
 40
4.0
 40
4.0
 40
5.0
 40
5.0
 40
5.0
 40
6.0
 40
6.0
 40
6.0
 40
7.0
 40
7.0
 40
7.0
 40
7.0
 10
128.3076814720661
 20
-146.2907995967948
 30
0.0
 10
128.3076814720661
 20
-146.2907995967948
 30
0.0
 10
119.412460587891
 20
-149.4085790404599
 30
0.0
 10
119.412460587891
 20
-149.4085790404599
 30
0.0
 10
119.412460587891
 20
-149.4085790404599
 30
0.0
 10
118.9377305332808
 20
-149.4843909848851
 30
0.0
 10
118.9756158768136
 20
-149.6552765403984
 30
0.0
 10
118.9756158768136
 20
-149.6552765403984
 30
0.0
 10
118.9563189328615
 20
-149.7317587626015
 30
0.0
 10
119.2608749776442
 20
-149.8268323736889
 30
0.0
 10
119.2608749776442
 20
-149.8268323736889
 30
0.0
 10
124.9432046134567
 20
-152.0695818175724
 30
0.0
 10
124.9432046134567
 20
-152.0695818175724
 30
0.0
 10
124.9432046134567
 20
-152.0695818175724
 30
0.0
 10
124.9432046134567
 20
-155.0351376501645
 30
0.0
 10
124.9432046134567
 20
-155.0351376501645
 30
0.0
 10
124.9432046134567
 20
-155.0351376501645
 30
0.0
 10
126.749814845144
 20
-155.8902004277287
 30
0.0
 10
126.749814845144
 20
-155.8902004277287
 30
0.0
 10
126.749814845144
 20
-155.8902004277287
 30
0.0
 10
126.749814845144
 20
-152.7820165396166
 30
0.0
 10
126.749814845144
 20
-152.7820165396166
 30
0.0
  0
LINE
  5
107
330
100
100
AcDbEntity
  8
レイヤー 1
 62
   250
420
  2299925
370
     9
100
AcDbLine
 10
134.2580546535928
 20
-148.3440720962817
 30
0.0
 11
124.9432046134567
 21
-152.0695818175724
 31
0.0
  0
LINE
  5
108
330
100
100
AcDbEntity
  8
レイヤー 1
 62
   250
420
  2299925
370
     9
100
AcDbLine
 10
127.2438448325402
 20
-156.6315982053204
 30
0.0
 11
127.2438448325402
 21
-152.977384872901
 31
0.0
  0
LINE
  5
109
330
100
100
AcDbEntity
  8
レイヤー 1
 62
   250
420
  2299925
370
     9
100
AcDbLine
 10
124.9432046134567
 20
-155.0351376501645
 30
0.0
 11
126.749814845144
 21
-154.3833101503274
 31
0.0
  0
SPLINE
  5
10A
330
100
100
AcDbEntity
  8
レイヤー 1
 62
   250
420
  2299925
370
     9
100
AcDbSpline
210
0.0
220
0.0
230
1.0
 70
     9
 71
     3
 72
    17
 73
    13
 74
     0
 42
0.0000000001
 43
0.0000000001
 40
0.0
 40
0.0
 40
0.0
 40
0.0
 40
1.0
 40
1.0
 40
1.0
 40
2.0
 40
2.0
 40
2.0
 40
3.0
 40
3.0
 40
3.0
 40
4.0
 40
4.0
 40
4.0
 40
4.0
 10
131.5378205563251
 20
-148.1249618185586
 30
0.0
 10
131.5378205563251
 20
-148.3599118185002
 30
0.0
 10
131.2091727869318
 20
-148.55076459623
 30
0.0
 10
130.8047130750282
 20
-148.55076459623
 30
0.0
 10
130.3981719742889
 20
-148.55076459623
 30
0.0
 10
130.0709000381938
 20
-148.3599118185002
 30
0.0
 10
130.0709000381938
 20
-148.1249618185586
 30
0.0
 10
130.0709000381938
 20
-147.8900118186175
 30
0.0
 10
130.3981719742889
 20
-147.6998293186651
 30
0.0
 10
130.8047130750282
 20
-147.6998293186651
 30
0.0
 10
131.2091727869318
 20
-147.6998293186651
 30
0.0
 10
131.5378205563251
 20
-147.8900118186175
 30
0.0
 10
131.5378205563251
 20
-148.1249618185586
 30
0.0
  0
SPLINE
  5
10B
330
100
100
AcDbEntity
  8
レイヤー 1
 62
   250
420
  2299925
370
     9
100
AcDbSpline
210
0.0
220
0.0
230
1.0
 70
     8
 71
     3
 72
    11
 73
     7
 74
     0
 42
0.0000000001
 43
0.0000000001
 40
0.0
 40
0.0
 40
0.0
 40
0.0
 40
1.0
 40
1.0
 40
1.0
 40
2.0
 40
2.0
 40
2.0
 40
2.0
 10
130.1983586460532
 20
-148.3592062629447
 30
0.0
 10
130.1983586460532
 20
-148.3592062629447
 30
0.0
 10
130.1763100355046
 20
-147.8479607075169
 30
0.0
 10
131.005905530264
 20
-147.8913876519504
 30
0.0
 10
131.005905530264
 20
-147.8913876519504
 30
0.0
 10
131.4950991685261
 20
-147.9547465408233
 30
0.0
 10
131.4103619484657
 20
-148.3378632073946
 30
0.0
  0
SPLINE
  5
10C
330
100
100
AcDbEntity
  8
レイヤー 1
 62
   250
420
  2299925
370
     9
100
AcDbSpline
210
0.0
220
0.0
230
1.0
 70
     9
 71
     3
 72
    17
 73
    13
 74
     0
 42
0.0000000001
 43
0.0000000001
 40
0.0
 40
0.0
 40
0.0
 40
0.0
 40
1.0
 40
1.0
 40
1.0
 40
2.0
 40
2.0
 40
2.0
 40
3.0
 40
3.0
 40
3.0
 40
4.0
 40
4.0
 40
4.0
 40
4.0
 10
131.3014947290209
 20
-147.0445798743842
 30
0.0
 10
131.3014947290209
 20
-147.2795298743258
 30
0.0
 10
130.9728116818508
 20
-147.4703826520556
 30
0.0
 10
130.5683872477241
 20
-147.4703826520556
 30
0.0
 10
130.1625517025223
 20
-147.4703826520556
 30
0.0
 10
129.8345742108897
 20
-147.2795298743258
 30
0.0
 10
129.8345742108897
 20
-147.0445798743842
 30
0.0
 10
129.8345742108897
 20
-146.8096298744432
 30
0.0
 10
130.1625517025223
 20
-146.6187418189352
 30
0.0
 10
130.5683872477241
 20
-146.6187418189352
 30
0.0
 10
130.9728116818508
 20
-146.6187418189352
 30
0.0
 10
131.3014947290209
 20
-146.8096298744432
 30
0.0
 10
131.3014947290209
 20
-147.0445798743842
 30
0.0
  0
SPLINE
  5
10D
330
100
100
AcDbEntity
  8
レイヤー 1
 62
   250
420
  2299925
370
     9
100
AcDbSpline
210
0.0
220
0.0
230
1.0
 70
     8
 71
     3
 72
    11
 73
     7
 74
     0
 42
0.0000000001
 43
0.0000000001
 40
0.0
 40
0.0
 40
0.0
 40
0.0
 40
1.0
 40
1.0
 40
1.0
 40
2.0
 40
2.0
 40
2.0
 40
2.0
 10
129.9620360860803
 20
-147.2781540409926
 30
0.0
 10
129.9620360860803
 20
-147.2781540409926
 30
0.0
 10
129.940689763738
 20
-146.7675787633426
 30
0.0
 10
130.7702499747669
 20
-146.8110057077761
 30
0.0
 10
130.7702499747669
 20
-146.8110057077761
 30
0.0
 10
131.258773341222
 20
-146.8736943188716
 30
0.0
 10
131.1740008433847
 20
-147.2574812632202
 30
0.0
  0
SPLINE
  5
10E
330
100
100
AcDbEntity
  8
レイヤー 1
 62
   250
420
  2299925
370
     9
100
AcDbSpline
210
0.0
220
0.0
230
1.0
 70
    11
 71
     3
 72
    17
 73
    13
 74
     0
 42
0.0000000001
 43
0.0000000001
 40
0.0
 40
0.0
 40
0.0
 40
0.0
 40
1.0
 40
1.0
 40
1.0
 40
2.0
 40
2.0
 40
2.0
 40
3.0
 40
3.0
 40
3.0
 40
4.0
 40
4.0
 40
4.0
 40
4.0
 10
121.644873586493
 20
-149.6442345959565
 30
0.0
 10
121.644873586493
 20
-149.8791845958975
 30
0.0
 10
121.3162258170997
 20
-150.0700373736279
 30
0.0
 10
120.9110958274354
 20
-150.0700373736279
 30
0.0
 10
120.5059305599943
 20
-150.0700373736279
 30
0.0
 10
120.177282790601
 20
-149.8791845958975
 30
0.0
 10
120.177282790601
 20
-149.6442345959565
 30
0.0
 10
120.177282790601
 20
-149.4092845960155
 30
0.0
 10
120.5059305599943
 20
-149.218431818285
 30
0.0
 10
120.9110958274354
 20
-149.218431818285
 30
0.0
 10
121.3162258170997
 20
-149.218431818285
 30
0.0
 10
121.644873586493
 20
-149.4092845960155
 30
0.0
 10
121.644873586493
 20
-149.6442345959565
 30
0.0
  0
SPLINE
  5
10F
330
100
100
AcDbEntity
  8
レイヤー 1
 62
   250
420
  2299925
370
     9
100
AcDbSpline
210
0.0
220
0.0
230
1.0
 70
     8
 71
     3
 72
    11
 73
     7
 74
     0
 42
0.0000000001
 43
0.0000000001
 40
0.0
 40
0.0
 40
0.0
 40
0.0
 40
1.0
 40
1.0
 40
1.0
 40
2.0
 40
2.0
 40
2.0
 40
2.0
 10
120.3054499773835
 20
-149.8785143181201
 30
0.0
 10
120.3054499773835
 20
-149.8785143181201
 30
0.0
 10
120.2833983434493
 20
-149.3672687626927
 30
0.0
 10
121.1129583105146
 20
-149.4106604293484
 30
0.0
 10
121.1129583105146
 20
-149.4106604293484
 30
0.0
 10
121.602152198694
 20
-149.4740545959994
 30
0.0
 10
121.5174149786336
 20
-149.8571359847919
 30
0.0
  0
SPLINE
  5
110
330
100
100
AcDbEntity
  8
レイヤー 1
 62
   250
420
  2299925
370
     9
100
AcDbSpline
210
0.0
220
0.0
230
1.0
 70
     9
 71
     3
 72
    17
 73
    13
 74
     0
 42
0.0000000001
 43
0.0000000001
 40
0.0
 40
0.0
 40
0.0
 40
0.0
 40
1.0
 40
1.0
 40
1.0
 40
2.0
 40
2.0
 40
2.0
 40
3.0
 40
3.0
 40
3.0
 40
4.0
 40
4.0
 40
4.0
 40
4.0
 10
129.3432958900899
 20
-149.2053437627329
 30
0.0
 10
129.3432958900899
 20
-149.4402937626739
 30
0.0
 10
129.0132370096215
 20
-149.6311465404043
 30
0.0
 10
128.6088125754948
 20
-149.6311465404043
 30
0.0
 10
128.2043528635912
 20
-149.6311465404043
 30
0.0
 10
127.875669816421
 20
-149.4402937626739
 30
0.0
 10
127.875669816421
 20
-149.2053437627329
 30
0.0
 10
127.875669816421
 20
-148.9710640405693
 30
0.0
 10
128.2043528635912
 20
-148.7802112628395
 30
0.0
 10
128.6088125754948
 20
-148.7802112628395
 30
0.0
 10
129.0132370096215
 20
-148.7802112628395
 30
0.0
 10
129.3432958900899
 20
-148.9710640405693
 30
0.0
 10
129.3432958900899
 20
-149.2053437627329
 30
0.0
  0
SPLINE
  5
111
330
100
100
AcDbEntity
  8
レイヤー 1
 62
   250
420
  2299925
370
     9
100
AcDbSpline
210
0.0
220
0.0
230
1.0
 70
     8
 71
     3
 72
    11
 73
     7
 74
     0
 42
0.0000000001
 43
0.0000000001
 40
0.0
 40
0.0
 40
0.0
 40
0.0
 40
1.0
 40
1.0
 40
1.0
 40
2.0
 40
2.0
 40
2.0
 40
2.0
 10
128.0031637020573
 20
-149.439588207119
 30
0.0
 10
128.0031637020573
 20
-149.439588207119
 30
0.0
 10
127.9817853692693
 20
-148.9283426516909
 30
0.0
 10
128.8113775703269
 20
-148.9717695961248
 30
0.0
 10
128.8113775703269
 20
-148.9717695961248
 30
0.0
 10
129.3005777529123
 20
-149.0351284849976
 30
0.0
 10
129.2151317266929
 20
-149.4182451515683
 30
0.0
  0
SPLINE
  5
112
330
100
100
AcDbEntity
  8
レイヤー 1
 62
   250
420
  2299925
370
     9
100
AcDbSpline
210
0.0
220
0.0
230
1.0
 70
     9
 71
     3
 72
    17
 73
    13
 74
     0
 42
0.0000000001
 43
0.0000000001
 40
0.0
 40
0.0
 40
0.0
 40
0.0
 40
1.0
 40
1.0
 40
1.0
 40
2.0
 40
2.0
 40
2.0
 40
3.0
 40
3.0
 40
3.0
 40
4.0
 40
4.0
 40
4.0
 40
4.0
 10
129.1062645072482
 20
-148.1249618185586
 30
0.0
 10
129.1062645072482
 20
-148.3599118185002
 30
0.0
 10
128.7776167378549
 20
-148.55076459623
 30
0.0
 10
128.3724514704137
 20
-148.55076459623
 30
0.0
 10
127.968027036287
 20
-148.55076459623
 30
0.0
 10
127.6386737113562
 20
-148.3599118185002
 30
0.0
 10
127.6386737113562
 20
-148.1249618185586
 30
0.0
 10
127.6386737113562
 20
-147.8900118186175
 30
0.0
 10
127.968027036287
 20
-147.6998293186651
 30
0.0
 10
128.3724514704137
 20
-147.6998293186651
 30
0.0
 10
128.7776167378549
 20
-147.6998293186651
 30
0.0
 10
129.1062645072482
 20
-147.8900118186175
 30
0.0
 10
129.1062645072482
 20
-148.1249618185586
 30
0.0
  0
SPLINE
  5
113
330
100
100
AcDbEntity
  8
レイヤー 1
 62
   250
420
  2299925
370
     9
100
AcDbSpline
210
0.0
220
0.0
230
1.0
 70
     8
 71
     3
 72
    11
 73
     7
 74
     0
 42
0.0000000001
 43
0.0000000001
 40
0.0
 40
0.0
 40
0.0
 40
0.0
 40
1.0
 40
1.0
 40
1.0
 40
2.0
 40
2.0
 40
2.0
 40
2.0
 10
127.7675081525138
 20
-148.3592062629447
 30
0.0
 10
127.7675081525138
 20
-148.3592062629447
 30
0.0
 10
127.7454595419652
 20
-147.8479607075169
 30
0.0
 10
128.5743461874852
 20
-147.8913876519504
 30
0.0
 10
128.5743461874852
 20
-147.8913876519504
 30
0.0
 10
129.0635431194492
 20
-147.9547465408233
 30
0.0
 10
128.9788058993888
 20
-148.3378632073946
 30
0.0
  0
SPLINE
  5
114
330
100
100
AcDbEntity
  8
レイヤー 1
 62
   250
420
  2299925
370
     9
100
AcDbSpline
210
0.0
220
0.0
230
1.0
 70
    11
 71
     3
 72
    17
 73
    13
 74
     0
 42
0.0000000001
 43
0.0000000001
 40
0.0
 40
0.0
 40
0.0
 40
0.0
 40
1.0
 40
1.0
 40
1.0
 40
2.0
 40
2.0
 40
2.0
 40
3.0
 40
3.0
 40
3.0
 40
4.0
 40
4.0
 40
4.0
 40
4.0
 10
128.5667614654565
 20
-147.1796232076839
 30
0.0
 10
128.5667614654565
 20
-147.4145732076252
 30
0.0
 10
128.2374081405256
 20
-147.6054259853553
 30
0.0
 10
127.832948428622
 20
-147.6054259853553
 30
0.0
 10
127.4278184389578
 20
-147.6054259853553
 30
0.0
 10
127.0984651140269
 20
-147.4145732076252
 30
0.0
 10
127.0984651140269
 20
-147.1796232076839
 30
0.0
 10
127.0984651140269
 20
-146.9446732077429
 30
0.0
 10
127.4278184389578
 20
-146.7544907077901
 30
0.0
 10
127.832948428622
 20
-146.7544907077901
 30
0.0
 10
128.2374081405256
 20
-146.7544907077901
 30
0.0
 10
128.5667614654565
 20
-146.9446732077429
 30
0.0
 10
128.5667614654565
 20
-147.1796232076839
 30
0.0
  0
SPLINE
  5
115
330
100
100
AcDbEntity
  8
レイヤー 1
 62
   250
420
  2299925
370
     9
100
AcDbSpline
210
0.0
220
0.0
230
1.0
 70
     8
 71
     3
 72
    11
 73
     7
 74
     0
 42
0.0000000001
 43
0.0000000001
 40
0.0
 40
0.0
 40
0.0
 40
0.0
 40
1.0
 40
1.0
 40
1.0
 40
2.0
 40
2.0
 40
2.0
 40
2.0
 10
127.2266292774238
 20
-147.4138676520697
 30
0.0
 10
127.2266292774238
 20
-147.4138676520697
 30
0.0
 10
127.2059565001735
 20
-146.9026220966419
 30
0.0
 10
128.0341728679328
 20
-146.9460490410757
 30
0.0
 10
128.0341728679328
 20
-146.9460490410757
 30
0.0
 10
128.5233697998968
 20
-147.0094432077265
 30
0.0
 10
128.4385973020595
 20
-147.3925245965196
 30
0.0
  0
SPLINE
  5
116
330
100
100
AcDbEntity
  8
レイヤー 1
 62
   250
420
  2299925
370
     9
100
AcDbSpline
210
0.0
220
0.0
230
1.0
 70
     9
 71
     3
 72
    17
 73
    13
 74
     0
 42
0.0000000001
 43
0.0000000001
 40
0.0
 40
0.0
 40
0.0
 40
0.0
 40
1.0
 40
1.0
 40
1.0
 40
2.0
 40
2.0
 40
2.0
 40
3.0
 40
3.0
 40
3.0
 40
4.0
 40
4.0
 40
4.0
 40
4.0
 10
127.046783170901
 20
-150.0156037625304
 30
0.0
 10
127.046783170901
 20
-150.2505890402495
 30
0.0
 10
126.7174298459702
 20
-150.4414418179799
 30
0.0
 10
126.3130054118435
 20
-150.4414418179799
 30
0.0
 10
125.9071698666416
 20
-150.4414418179799
 30
0.0
 10
125.5798626527697
 20
-150.2505890402495
 30
0.0
 10
125.5798626527697
 20
-150.0156037625304
 30
0.0
 10
125.5798626527697
 20
-149.7806537625893
 30
0.0
 10
125.9071698666416
 20
-149.5905065404144
 30
0.0
 10
126.3130054118435
 20
-149.5905065404144
 30
0.0
 10
126.7174298459702
 20
-149.5905065404144
 30
0.0
 10
127.046783170901
 20
-149.7806537625893
 30
0.0
 10
127.046783170901
 20
-150.0156037625304
 30
0.0
  0
SPLINE
  5
117
330
100
100
AcDbEntity
  8
レイヤー 1
 62
   250
420
  2299925
370
     9
100
AcDbSpline
210
0.0
220
0.0
230
1.0
 70
     8
 71
     3
 72
    11
 73
     7
 74
     0
 42
0.0000000001
 43
0.0000000001
 40
0.0
 40
0.0
 40
0.0
 40
0.0
 40
1.0
 40
1.0
 40
1.0
 40
2.0
 40
2.0
 40
2.0
 40
2.0
 10
125.707356538406
 20
-150.249883484694
 30
0.0
 10
125.707356538406
 20
-150.249883484694
 30
0.0
 10
125.6853110871496
 20
-149.7386379292666
 30
0.0
 10
126.5155704066756
 20
-149.7820295959222
 30
0.0
 10
126.5155704066756
 20
-149.7820295959222
 30
0.0
 10
127.004061783102
 20
-149.8454237625733
 30
0.0
 10
126.9186221979521
 20
-150.2285404291439
 30
0.0
  0
SPLINE
  5
118
330
100
100
AcDbEntity
  8
レイヤー 1
 62
   250
420
  2299925
370
     9
100
AcDbSpline
210
0.0
220
0.0
230
1.0
 70
     9
 71
     3
 72
    17
 73
    13
 74
     0
 42
0.0000000001
 43
0.0000000001
 40
0.0
 40
0.0
 40
0.0
 40
0.0
 40
1.0
 40
1.0
 40
1.0
 40
2.0
 40
2.0
 40
2.0
 40
3.0
 40
3.0
 40
3.0
 40
4.0
 40
4.0
 40
4.0
 40
4.0
 10
126.8097870658362
 20
-148.935221818356
 30
0.0
 10
126.8097870658362
 20
-149.1702070960752
 30
0.0
 10
126.481104018666
 20
-149.3610598738056
 30
0.0
 10
126.0766443067624
 20
-149.3610598738056
 30
0.0
 10
125.6715143170981
 20
-149.3610598738056
 30
0.0
 10
125.3428665477049
 20
-149.1702070960752
 30
0.0
 10
125.3428665477049
 20
-148.935221818356
 30
0.0
 10
125.3428665477049
 20
-148.7009773739702
 30
0.0
 10
125.6715143170981
 20
-148.5094190406849
 30
0.0
 10
126.0766443067624
 20
-148.5094190406849
 30
0.0
 10
126.481104018666
 20
-148.5094190406849
 30
0.0
 10
126.8097870658362
 20
-148.7009773739702
 30
0.0
 10
126.8097870658362
 20
-148.935221818356
 30
0.0
  0
SPLINE
  5
119
330
100
100
AcDbEntity
  8
レイヤー 1
 62
   250
420
  2299925
370
     9
100
AcDbSpline
210
0.0
220
0.0
230
1.0
 70
     8
 71
     3
 72
    11
 73
     7
 74
     0
 42
0.0000000001
 43
0.0000000001
 40
0.0
 40
0.0
 40
0.0
 40
0.0
 40
1.0
 40
1.0
 40
1.0
 40
2.0
 40
2.0
 40
2.0
 40
2.0
 10
125.4709954333249
 20
-149.1688312627423
 30
0.0
 10
125.4709954333249
 20
-149.1688312627423
 30
0.0
 10
125.4496555316531
 20
-148.6582559850919
 30
0.0
 10
126.2785390238339
 20
-148.7016476517479
 30
0.0
 10
126.2785390238339
 20
-148.7016476517479
 30
0.0
 10
126.7677359557979
 20
-148.7650418183989
 30
0.0
 10
126.6822931801999
 20
-149.1481584849696
 30
0.0
  0
SPLINE
  5
11A
330
100
100
AcDbEntity
  8
レイヤー 1
 62
   250
420
  2299925
370
     9
100
AcDbSpline
210
0.0
220
0.0
230
1.0
 70
     9
 71
     3
 72
    17
 73
    13
 74
     0
 42
0.0000000001
 43
0.0000000001
 40
0.0
 40
0.0
 40
0.0
 40
0.0
 40
1.0
 40
1.0
 40
1.0
 40
2.0
 40
2.0
 40
2.0
 40
3.0
 40
3.0
 40
3.0
 40
4.0
 40
4.0
 40
4.0
 40
4.0
 10
126.2702840240445
 20
-147.9899184852592
 30
0.0
 10
126.2702840240445
 20
-148.2248684852005
 30
0.0
 10
125.9409306991136
 20
-148.4150157073751
 30
0.0
 10
125.53714442052
 20
-148.4150157073751
 30
0.0
 10
125.1313057197689
 20
-148.4150157073751
 30
0.0
 10
124.8026610873702
 20
-148.2248684852005
 30
0.0
 10
124.8026610873702
 20
-147.9899184852592
 30
0.0
 10
124.8026610873702
 20
-147.75493320754
 30
0.0
 10
125.1313057197689
 20
-147.5647859853654
 30
0.0
 10
125.53714442052
 20
-147.5647859853654
 30
0.0
 10
125.9409306991136
 20
-147.5647859853654
 30
0.0
 10
126.2702840240445
 20
-147.75493320754
 30
0.0
 10
126.2702840240445
 20
-147.9899184852592
 30
0.0
  0
SPLINE
  5
11B
330
100
100
AcDbEntity
  8
レイヤー 1
 62
   250
420
  2299925
370
     9
100
AcDbSpline
210
0.0
220
0.0
230
1.0
 70
     8
 71
     3
 72
    11
 73
     7
 74
     0
 42
0.0000000001
 43
0.0000000001
 40
0.0
 40
0.0
 40
0.0
 40
0.0
 40
1.0
 40
1.0
 40
1.0
 40
2.0
 40
2.0
 40
2.0
 40
2.0
 10
124.9308221137726
 20
-148.2234926518676
 30
0.0
 10
124.9308221137726
 20
-148.2234926518676
 30
0.0
 10
124.9094437809846
 20
-147.7129173742172
 30
0.0
 10
125.737660148744
 20
-147.7563090408729
 30
0.0
 10
125.737660148744
 20
-147.7563090408729
 30
0.0
 10
126.2275626362455
 20
-147.8197032075239
 30
0.0
 10
126.1427901384082
 20
-148.2028198740949
 30
0.0
  0
SPLINE
  5
11C
330
100
100
AcDbEntity
  8
レイヤー 1
 62
   250
420
  2299925
370
     9
100
AcDbSpline
210
0.0
220
0.0
230
1.0
 70
     9
 71
     3
 72
    17
 73
    13
 74
     0
 42
0.0000000001
 43
0.0000000001
 40
0.0
 40
0.0
 40
0.0
 40
0.0
 40
1.0
 40
1.0
 40
1.0
 40
2.0
 40
2.0
 40
2.0
 40
3.0
 40
3.0
 40
3.0
 40
4.0
 40
4.0
 40
4.0
 40
4.0
 10
124.6152623996009
 20
-150.8266045956609
 30
0.0
 10
124.6152623996009
 20
-151.060849040047
 30
0.0
 10
124.2865793524308
 20
-151.2517370955543
 30
0.0
 10
123.8814493627665
 20
-151.2517370955543
 30
0.0
 10
123.4762840953254
 20
-151.2517370955543
 30
0.0
 10
123.1476363259321
 20
-151.060849040047
 30
0.0
 10
123.1476363259321
 20
-150.8266045956609
 30
0.0
 10
123.1476363259321
 20
-150.5916545957199
 30
0.0
 10
123.4762840953254
 20
-150.4007665402119
 30
0.0
 10
123.8814493627665
 20
-150.4007665402119
 30
0.0
 10
124.2865793524308
 20
-150.4007665402119
 30
0.0
 10
124.6152623996009
 20
-150.5916545957199
 30
0.0
 10
124.6152623996009
 20
-150.8266045956609
 30
0.0
  0
SPLINE
  5
11D
330
100
100
AcDbEntity
  8
レイヤー 1
 62
   250
420
  2299925
370
     9
100
AcDbSpline
210
0.0
220
0.0
230
1.0
 70
     8
 71
     3
 72
    11
 73
     7
 74
     0
 42
0.0000000001
 43
0.0000000001
 40
0.0
 40
0.0
 40
0.0
 40
0.0
 40
1.0
 40
1.0
 40
1.0
 40
2.0
 40
2.0
 40
2.0
 40
2.0
 10
123.275800489329
 20
-151.0601787622696
 30
0.0
 10
123.275800489329
 20
-151.0601787622696
 30
0.0
 10
123.2537518787804
 20
-150.5496034846196
 30
0.0
 10
124.0840143575987
 20
-150.5923248734972
 30
0.0
 10
124.0840143575987
 20
-150.5923248734972
 30
0.0
 10
124.572541011802
 20
-150.6557190401482
 30
0.0
 10
124.4884740695022
 20
-151.0395059844969
 30
0.0
  0
SPLINE
  5
11E
330
100
100
AcDbEntity
  8
レイヤー 1
 62
   250
420
  2299925
370
     9
100
AcDbSpline
210
0.0
220
0.0
230
1.0
 70
     9
 71
     3
 72
    17
 73
    13
 74
     0
 42
0.0000000001
 43
0.0000000001
 40
0.0
 40
0.0
 40
0.0
 40
0.0
 40
1.0
 40
1.0
 40
1.0
 40
2.0
 40
2.0
 40
2.0
 40
3.0
 40
3.0
 40
3.0
 40
4.0
 40
4.0
 40
4.0
 40
4.0
 10
124.3796068500575
 20
-149.745517095931
 30
0.0
 10
124.3796068500575
 20
-149.9804670958726
 30
0.0
 10
124.0495479695891
 20
-150.17135515138
 30
0.0
 10
123.6451235354623
 20
-150.17135515138
 30
0.0
 10
123.2399582680212
 20
-150.17135515138
 30
0.0
 10
122.9119807763886
 20
-149.9804670958726
 30
0.0
 10
122.9119807763886
 20
-149.745517095931
 30
0.0
 10
122.9119807763886
 20
-149.51056709599
 30
0.0
 10
123.2399582680212
 20
-149.3203845960375
 30
0.0
 10
123.6451235354623
 20
-149.3203845960375
 30
0.0
 10
124.0495479695891
 20
-149.3203845960375
 30
0.0
 10
124.3796068500575
 20
-149.51056709599
 30
0.0
 10
124.3796068500575
 20
-149.745517095931
 30
0.0
  0
SPLINE
  5
11F
330
100
100
AcDbEntity
  8
レイヤー 1
 62
   250
420
  2299925
370
     9
100
AcDbSpline
210
0.0
220
0.0
230
1.0
 70
     8
 71
     3
 72
    11
 73
     7
 74
     0
 42
0.0000000001
 43
0.0000000001
 40
0.0
 40
0.0
 40
0.0
 40
0.0
 40
1.0
 40
1.0
 40
1.0
 40
2.0
 40
2.0
 40
2.0
 40
2.0
 10
123.0387721989222
 20
-149.9797968180953
 30
0.0
 10
123.0387721989222
 20
-149.9797968180953
 30
0.0
 10
123.0180963292369
 20
-149.4685512626672
 30
0.0
 10
123.8476916431643
 20
-149.5119429293229
 30
0.0
 10
123.8476916431643
 20
-149.5119429293229
 30
0.0
 10
124.3368854622585
 20
-149.5753370959739
 30
0.0
 10
124.2514426866605
 20
-149.958418484767
 30
0.0
  0
SPLINE
  5
120
330
100
100
AcDbEntity
  8
レイヤー 1
 62
   250
420
  2299925
370
     9
100
AcDbSpline
210
0.0
220
0.0
230
1.0
 70
     9
 71
     3
 72
    17
 73
    13
 74
     0
 42
0.0000000001
 43
0.0000000001
 40
0.0
 40
0.0
 40
0.0
 40
0.0
 40
1.0
 40
1.0
 40
1.0
 40
2.0
 40
2.0
 40
2.0
 40
3.0
 40
3.0
 40
3.0
 40
4.0
 40
4.0
 40
4.0
 40
4.0
 10
123.8387279749675
 20
-148.8001784850567
 30
0.0
 10
123.8387279749675
 20
-149.0351284849976
 30
0.0
 10
123.5100449277974
 20
-149.2260165405056
 30
0.0
 10
123.1056204936707
 20
-149.2260165405056
 30
0.0
 10
122.6997849484688
 20
-149.2260165405056
 30
0.0
 10
122.3718074568362
 20
-149.0351284849976
 30
0.0
 10
122.3718074568362
 20
-148.8001784850567
 30
0.0
 10
122.3718074568362
 20
-148.5652284851153
 30
0.0
 10
122.6997849484688
 20
-148.3750812629407
 30
0.0
 10
123.1056204936707
 20
-148.3750812629407
 30
0.0
 10
123.5100449277974
 20
-148.3750812629407
 30
0.0
 10
123.8387279749675
 20
-148.5652284851153
 30
0.0
 10
123.8387279749675
 20
-148.8001784850567
 30
0.0
  0
SPLINE
  5
121
330
100
100
AcDbEntity
  8
レイヤー 1
 62
   250
420
  2299925
370
     9
100
AcDbSpline
210
0.0
220
0.0
230
1.0
 70
     8
 71
     3
 72
    11
 73
     7
 74
     0
 42
0.0000000001
 43
0.0000000001
 40
0.0
 40
0.0
 40
0.0
 40
0.0
 40
1.0
 40
1.0
 40
1.0
 40
2.0
 40
2.0
 40
2.0
 40
2.0
 10
122.4999716202332
 20
-149.0344582072203
 30
0.0
 10
122.4999716202332
 20
-149.0344582072203
 30
0.0
 10
122.4779230096846
 20
-148.5232126517925
 30
0.0
 10
123.3074799329653
 20
-148.5666043184485
 30
0.0
 10
123.3074799329653
 20
-148.5666043184485
 30
0.0
 10
123.7966768649293
 20
-148.6299984850989
 30
0.0
 10
123.7112693671082
 20
-149.013079873892
 30
0.0
  0
LINE
  5
122
330
100
100
AcDbEntity
  8
レイヤー 1
 62
   250
420
  2299925
370
     9
100
AcDbLine
 10
126.7491445673833
 20
-152.7820165396166
 30
0.0
 11
127.2438448325402
 21
-152.977384872901
 31
0.0
  0
LINE
  5
123
330
100
100
AcDbEntity
  8
レイヤー 1
 62
   250
420
  2299925
370
     9
100
AcDbLine
 10
127.2438448325402
 20
-152.977384872901
 30
0.0
 11
137.4268809616382
 21
-148.9765673739014
 31
0.0
  0
ENDBLK
  5
103
330
100
100
AcDbEntity
  8
0
100
AcDbBlockEnd
  0
BLOCK
  5
128
330
126
100
AcDbEntity
  8
0
100
AcDbBlockBegin
  2
Block_11
 70
     0
 10
0.0
 20
0.0
 30
0.0
  3
Block_11
  1

  0
INSERT
  5
12B
330
126
100
AcDbEntity
  8
レイヤー 1
100
AcDbBlockReference
  2
Block_12
 10
0.0
 20
0.0
 30
0.0
  0
INSERT
  5
132
330
126
100
AcDbEntity
  8
レイヤー 1
100
AcDbBlockReference
  2
Block_13
 10
0.0
 20
0.0
 30
0.0
  0
ENDBLK
  5
129
330
126
100
AcDbEntity
  8
0
100
AcDbBlockEnd
  0
BLOCK
  5
12C
330
12A
100
AcDbEntity
  8
0
100
AcDbBlockBegin
  2
Block_12
 70
     0
 10
0.0
 20
0.0
 30
0.0
  3
Block_12
  1

  0
LINE
  5
12E
330
12A
100
AcDbEntity
  8
レイヤー 1
 62
    18
420
        0
370
     9
100
AcDbLine
 10
84.43559010032116
 20
-148.6331029295428
 30
0.0
 11
85.24690841295603
 21
-149.2177262627295
 31
0.0
  0
LINE
  5
12F
330
12A
100
AcDbEntity
  8
レイヤー 1
 62
    18
420
        0
370
     9
100
AcDbLine
 10
84.43559010032116
 20
-148.6331029295428
 30
0.0
 11
87.01323142344893
 21
-151.7901818176424
 31
0.0
  0
LINE
  5
130
330
12A
100
AcDbEntity
  8
レイヤー 1
 62
    18
420
        0
370
     9
100
AcDbLine
 10
84.43559010032116
 20
-148.6331029295428
 30
0.0
 11
84.84590592318644
 21
-149.5451745959817
 31
0.0
  0
ENDBLK
  5
12D
330
12A
100
AcDbEntity
  8
0
100
AcDbBlockEnd
  0
BLOCK
  5
133
330
131
100
AcDbEntity
  8
0
100
AcDbBlockBegin
  2
Block_13
 70
     0
 10
0.0
 20
0.0
 30
0.0
  3
Block_13
  1

  0
INSERT
  5
136
330
131
100
AcDbEntity
  8
レイヤー 1
100
AcDbBlockReference
  2
Block_14
 10
0.0
 20
0.0
 30
0.0
  0
ENDBLK
  5
134
330
131
100
AcDbEntity
  8
0
100
AcDbBlockEnd
  0
BLOCK
  5
137
330
135
100
AcDbEntity
  8
0
100
AcDbBlockBegin
  2
Block_14
 70
     0
 10
0.0
 20
0.0
 30
0.0
  3
Block_14
  1

  0
SPLINE
  5
139
330
135
100
AcDbEntity
  8
レイヤー 1
100
AcDbSpline
210
0.0
220
0.0
230
1.0
 70
     9
 71
     3
 72
    17
 73
    13
 74
     0
 42
0.0000000001
 43
0.0000000001
 40
0.0
 40
0.0
 40
0.0
 40
0.0
 40
1.0
 40
1.0
 40
1.0
 40
2.0
 40
2.0
 40
2.0
 40
3.0
 40
3.0
 40
3.0
 40
4.0
 40
4.0
 40
4.0
 40
4.0
 10
88.67968612149327
 20
-151.6896212728415
 30
0.0
 10
88.66280515361555
 20
-151.7192490940146
 30
0.0
 10
88.61198999520812
 20
-151.8122666721164
 30
0.0
 10
88.60148245397811
 20
-151.8312146972852
 30
0.0
 10
88.79182397953817
 20
-151.8904703396315
 30
0.0
 10
88.81301131677245
 20
-151.8970160210535
 30
0.0
 10
88.88501381241416
 20
-151.924232275387
 30
0.0
 10
88.93996308540391
 20
-151.8377603787072
 30
0.0
 10
88.96321747992933
 20
-151.7636908257744
 30
0.0
 10
88.97803139051591
 20
-151.6896212728415
 30
0.0
 10
88.97803139051591
 20
-151.6896212728415
 30
0.0
 10
88.67968612149327
 20
-151.6896212728415
 30
0.0
 10
88.67968612149327
 20
-151.6896212728415
 30
0.0
  0
SPLINE
  5
13A
330
135
100
AcDbEntity
  8
レイヤー 1
100
AcDbSpline
210
0.0
220
0.0
230
1.0
 70
    11
 71
     3
 72
    20
 73
    16
 74
     0
 42
0.0000000001
 43
0.0000000001
 40
0.0
 40
0.0
 40
0.0
 40
0.0
 40
1.0
 40
1.0
 40
1.0
 40
2.0
 40
2.0
 40
2.0
 40
3.0
 40
3.0
 40
3.0
 40
4.0
 40
4.0
 40
4.0
 40
5.0
 40
5.0
 40
5.0
 40
5.0
 10
88.61629636456468
 20
-150.8390271975333
 30
0.0
 10
88.61629636456468
 20
-150.8390271975333
 30
0.0
 10
88.58460148610038
 20
-150.8390271975333
 30
0.0
 10
88.58460148610038
 20
-150.8390271975333
 30
0.0
 10
88.63111027515126
 20
-150.938590457057
 30
0.0
 10
88.66280515361555
 20
-151.0188611818633
 30
0.0
 10
88.69673934414526
 20
-151.145985205269
 30
0.0
 10
88.69673934414526
 20
-151.145985205269
 30
0.0
 10
88.90396183758303
 20
-151.145985205269
 30
0.0
 10
88.90396183758303
 20
-151.145985205269
 30
0.0
 10
88.93565671604733
 20
-151.0529676271673
 30
0.0
 10
88.95891111057277
 20
-150.9682182782302
 30
0.0
 10
88.98233775987248
 20
-150.8390271975333
 30
0.0
 10
88.98233775987248
 20
-150.8390271975333
 30
0.0
 10
88.61629636456468
 20
-150.8390271975333
 30
0.0
 10
88.61629636456468
 20
-150.8390271975333
 30
0.0
  0
SPLINE
  5
13B
330
135
100
AcDbEntity
  8
レイヤー 1
100
AcDbSpline
210
0.0
220
0.0
230
1.0
 70
     9
 71
     3
 72
   242
 73
   238
 74
     0
 42
0.0000000001
 43
0.0000000001
 40
0.0
 40
0.0
 40
0.0
 40
0.0
 40
1.0
 40
1.0
 40
1.0
 40
2.0
 40
2.0
 40
2.0
 40
3.0
 40
3.0
 40
3.0
 40
4.0
 40
4.0
 40
4.0
 40
5.0
 40
5.0
 40
5.0
 40
6.0
 40
6.0
 40
6.0
 40
7.0
 40
7.0
 40
7.0
 40
8.0
 40
8.0
 40
8.0
 40
9.0
 40
9.0
 40
9.0
 40
10.0
 40
10.0
 40
10.0
 40
11.0
 40
11.0
 40
11.0
 40
12.0
 40
12.0
 40
12.0
 40
13.0
 40
13.0
 40
13.0
 40
14.0
 40
14.0
 40
14.0
 40
15.0
 40
15.0
 40
15.0
 40
16.0
 40
16.0
 40
16.0
 40
17.0
 40
17.0
 40
17.0
 40
18.0
 40
18.0
 40
18.0
 40
19.0
 40
19.0
 40
19.0
 40
20.0
 40
20.0
 40
20.0
 40
21.0
 40
21.0
 40
21.0
 40
22.0
 40
22.0
 40
22.0
 40
23.0
 40
23.0
 40
23.0
 40
24.0
 40
24.0
 40
24.0
 40
25.0
 40
25.0
 40
25.0
 40
26.0
 40
26.0
 40
26.0
 40
27.0
 40
27.0
 40
27.0
 40
28.0
 40
28.0
 40
28.0
 40
29.0
 40
29.0
 40
29.0
 40
30.0
 40
30.0
 40
30.0
 40
31.0
 40
31.0
 40
31.0
 40
32.0
 40
32.0
 40
32.0
 40
33.0
 40
33.0
 40
33.0
 40
34.0
 40
34.0
 40
34.0
 40
35.0
 40
35.0
 40
35.0
 40
36.0
 40
36.0
 40
36.0
 40
37.0
 40
37.0
 40
37.0
 40
38.0
 40
38.0
 40
38.0
 40
39.0
 40
39.0
 40
39.0
 40
40.0
 40
40.0
 40
40.0
 40
41.0
 40
41.0
 40
41.0
 40
42.0
 40
42.0
 40
42.0
 40
43.0
 40
43.0
 40
43.0
 40
44.0
 40
44.0
 40
44.0
 40
45.0
 40
45.0
 40
45.0
 40
46.0
 40
46.0
 40
46.0
 40
47.0
 40
47.0
 40
47.0
 40
48.0
 40
48.0
 40
48.0
 40
49.0
 40
49.0
 40
49.0
 40
50.0
 40
50.0
 40
50.0
 40
51.0
 40
51.0
 40
51.0
 40
52.0
 40
52.0
 40
52.0
 40
53.0
 40
53.0
 40
53.0
 40
54.0
 40
54.0
 40
54.0
 40
55.0
 40
55.0
 40
55.0
 40
56.0
 40
56.0
 40
56.0
 40
57.0
 40
57.0
 40
57.0
 40
58.0
 40
58.0
 40
58.0
 40
59.0
 40
59.0
 40
59.0
 40
60.0
 40
60.0
 40
60.0
 40
61.0
 40
61.0
 40
61.0
 40
62.0
 40
62.0
 40
62.0
 40
63.0
 40
63.0
 40
63.0
 40
64.0
 40
64.0
 40
64.0
 40
65.0
 40
65.0
 40
65.0
 40
66.0
 40
66.0
 40
66.0
 40
67.0
 40
67.0
 40
67.0
 40
68.0
 40
68.0
 40
68.0
 40
69.0
 40
69.0
 40
69.0
 40
70.0
 40
70.0
 40
70.0
 40
71.0
 40
71.0
 40
71.0
 40
72.0
 40
72.0
 40
72.0
 40
73.0
 40
73.0
 40
73.0
 40
74.0
 40
74.0
 40
74.0
 40
75.0
 40
75.0
 40
75.0
 40
76.0
 40
76.0
 40
76.0
 40
77.0
 40
77.0
 40
77.0
 40
78.0
 40
78.0
 40
78.0
 40
79.0
 40
79.0
 40
79.0
 40
79.0
 10
89.24450952629999
 20
-151.3044595975905
 30
0.0
 10
89.24450952629999
 20
-151.3044595975905
 30
0.0
 10
88.99077824381134
 20
-151.3044595975905
 30
0.0
 10
88.99077824381134
 20
-151.3044595975905
 30
0.0
 10
88.99077824381134
 20
-151.3044595975905
 30
0.0
 10
88.71362031202298
 20
-151.3044595975905
 30
0.0
 10
88.71362031202298
 20
-151.3044595975905
 30
0.0
 10
88.71362031202298
 20
-151.3044595975905
 30
0.0
 10
88.84057208065444
 20
-151.3468342720591
 30
0.0
 10
88.84057208065444
 20
-151.3468342720591
 30
0.0
 10
88.85107962188445
 20
-151.3509683866414
 30
0.0
 10
88.86382647517988
 20
-151.3575140680634
 30
0.0
 10
88.86382647517988
 20
-151.3702609213588
 30
0.0
 10
88.86382647517988
 20
-151.3912760038188
 30
0.0
 10
88.83213159671559
 20
-151.3974771756923
 30
0.0
 10
88.81094425948129
 20
-151.4019557998231
 30
0.0
 10
88.80026446347702
 20
-151.4250379395743
 30
0.0
 10
88.77063664230387
 20
-151.4908392633425
 30
0.0
 10
88.751688617135
 20
-151.5352809951023
 30
0.0
 10
88.751688617135
 20
-151.5352809951023
 30
0.0
 10
89.02247312227563
 20
-151.5352809951023
 30
0.0
 10
89.02247312227563
 20
-151.5352809951023
 30
0.0
 10
89.11342364308623
 20
-151.5352809951023
 30
0.0
 10
89.31013859529398
 20
-151.5308023709715
 30
0.0
 10
89.45190427451203
 20
-151.5225341418069
 30
0.0
 10
89.45190427451203
 20
-151.5225341418069
 30
0.0
 10
89.45190427451203
 20
-151.7003010688457
 30
0.0
 10
89.45190427451203
 20
-151.7003010688457
 30
0.0
 10
89.36939423764028
 20
-151.6958224447149
 30
0.0
 10
89.348206900406
 20
-151.6958224447149
 30
0.0
 10
89.16837291607597
 20
-151.6916883301326
 30
0.0
 10
89.13667803761168
 20
-151.8460286078718
 30
0.0
 10
89.09223630585193
 20
-151.9266438422266
 30
0.0
 10
89.04779457409222
 20
-151.9962347710287
 30
0.0
 10
89.16837291607597
 20
-152.055490413375
 30
0.0
 10
89.27413734747315
 20
-152.1233587944344
 30
0.0
 10
89.37783472157915
 20
-152.2056965765319
 30
0.0
 10
89.37783472157915
 20
-152.2056965765319
 30
0.0
 10
89.25932343688655
 20
-152.3727837075665
 30
0.0
 10
89.25932343688655
 20
-152.3727837075665
 30
0.0
 10
89.23606904236113
 20
-152.3538356823976
 30
0.0
 10
89.22349444383996
 20
-152.3452229436845
 30
0.0
 10
89.11135658579508
 20
-152.2608181042959
 30
0.0
 10
89.06260848467878
 20
-152.2225775444096
 30
0.0
 10
89.0033528423325
 20
-152.186748551363
 30
0.0
 10
88.92308211752618
 20
-152.1423068196033
 30
0.0
 10
88.71155325473184
 20
-152.3283419758068
 30
0.0
 10
88.50622556381095
 20
-152.3517686251065
 30
0.0
 10
88.21649303350143
 20
-152.3813964462796
 30
0.0
 10
88.21649303350143
 20
-152.3813964462796
 30
0.0
 10
88.11279565939541
 20
-152.2015624619496
 30
0.0
 10
88.11279565939541
 20
-152.2015624619496
 30
0.0
 10
88.43008895358693
 20
-152.1974283473673
 30
0.0
 10
88.6056165685604
 20
-152.1719346407764
 30
0.0
 10
88.75806204378271
 20
-152.062036094797
 30
0.0
 10
88.63955075909011
 20
-152.0110486816153
 30
0.0
 10
88.55066729557067
 20
-151.9834879177333
 30
0.0
 10
88.51466604774982
 20
-151.9710855739864
 30
0.0
 10
88.49571802258093
 20
-151.9983018283198
 30
0.0
 10
88.48090411199436
 20
-152.0175943630372
 30
0.0
 10
88.45334334811237
 20
-152.0513562987927
 30
0.0
 10
88.45334334811237
 20
-152.0513562987927
 30
0.0
 10
88.2566283959046
 20
-151.9686740071467
 30
0.0
 10
88.2566283959046
 20
-151.9686740071467
 30
0.0
 10
88.33913843277633
 20
-151.8884032823404
 30
0.0
 10
88.40046113241378
 20
-151.7933186469475
 30
0.0
 10
88.45764971746893
 20
-151.6916883301326
 30
0.0
 10
88.26713593713462
 20
-151.6958224447149
 30
0.0
 10
88.24612085467459
 20
-151.6958224447149
 30
0.0
 10
88.16361081780284
 20
-151.7003010688457
 30
0.0
 10
88.16361081780284
 20
-151.7003010688457
 30
0.0
 10
88.16361081780284
 20
-151.5225341418069
 30
0.0
 10
88.16361081780284
 20
-151.5225341418069
 30
0.0
 10
88.30313718495547
 20
-151.5287353136803
 30
0.0
 10
88.51259899045865
 20
-151.5328694282626
 30
0.0
 10
88.53792044227525
 20
-151.5328694282626
 30
0.0
 10
88.55497366492723
 20
-151.4991074925071
 30
0.0
 10
88.60992293791696
 20
-151.3785291505234
 30
0.0
 10
88.62904321786009
 20
-151.3044595975905
 30
0.0
 10
88.60992293791696
 20
-151.3044595975905
 30
0.0
 10
88.43215601087807
 20
-151.3110052790125
 30
0.0
 10
88.23750811596147
 20
-151.3237521323079
 30
0.0
 10
88.23750811596147
 20
-151.3237521323079
 30
0.0
 10
88.23750811596147
 20
-151.4567328180386
 30
0.0
 10
88.23750811596147
 20
-151.4567328180386
 30
0.0
 10
88.18893226961945
 20
-151.4822265246294
 30
0.0
 10
88.12967662727315
 20
-151.5139214030937
 30
0.0
 10
87.99635143199397
 20
-151.579722726862
 30
0.0
 10
87.99635143199397
 20
-151.579722726862
 30
0.0
 10
87.99635143199397
 20
-151.7254502658881
 30
0.0
 10
87.99635143199397
 20
-151.7254502658881
 30
0.0
 10
87.99635143199397
 20
-151.7254502658881
 30
0.0
 10
87.99635143199397
 20
-152.1929497232365
 30
0.0
 10
87.99635143199397
 20
-152.1929497232365
 30
0.0
 10
87.99635143199397
 20
-152.3200737466422
 30
0.0
 10
87.96052243894738
 20
-152.3793293889885
 30
0.0
 10
87.67699108051131
 20
-152.3707166502753
 30
0.0
 10
87.67699108051131
 20
-152.3707166502753
 30
0.0
 10
87.5732937064053
 20
-152.1633219020633
 30
0.0
 10
87.5732937064053
 20
-152.1633219020633
 30
0.0
 10
87.63685571810816
 20
-152.1760687553587
 30
0.0
 10
87.68543156445018
 20
-152.180202869941
 30
0.0
 10
87.72556692685332
 20
-152.180202869941
 30
0.0
 10
87.80187579185161
 20
-152.180202869941
 30
0.0
 10
87.81238333308163
 20
-152.1571207301899
 30
0.0
 10
87.81238333308163
 20
-152.0916639159701
 30
0.0
 10
87.81238333308163
 20
-152.0916639159701
 30
0.0
 10
87.81238333308163
 20
-151.6620605089595
 30
0.0
 10
87.81238333308163
 20
-151.6620605089595
 30
0.0
 10
87.71505938562333
 20
-151.7023681261369
 30
0.0
 10
87.69817841774559
 20
-151.7085692980103
 30
0.0
 10
87.65166962869471
 20
-151.7275173231792
 30
0.0
 10
87.64736325933816
 20
-151.7488769151878
 30
0.0
 10
87.6430568899816
 20
-151.7785047363609
 30
0.0
 10
87.62410886481273
 20
-151.7785047363609
 30
0.0
 10
87.61566838087388
 20
-151.7785047363609
 30
0.0
 10
87.60498858486959
 20
-151.7743706217786
 30
0.0
 10
87.59878741299614
 20
-151.7509439724789
 30
0.0
 10
87.59878741299614
 20
-151.7509439724789
 30
0.0
 10
87.54590519729756
 20
-151.5583631348534
 30
0.0
 10
87.54590519729756
 20
-151.5583631348534
 30
0.0
 10
87.69180499109788
 20
-151.5118543458026
 30
0.0
 10
87.75743406009189
 20
-151.4887722060514
 30
0.0
 10
87.81238333308163
 20
-151.4674126140429
 30
0.0
 10
87.81238333308163
 20
-151.4674126140429
 30
0.0
 10
87.81238333308163
 20
-151.0550346844584
 30
0.0
 10
87.81238333308163
 20
-151.0550346844584
 30
0.0
 10
87.81238333308163
 20
-151.0550346844584
 30
0.0
 10
87.75950111738303
 20
-151.0550346844584
 30
0.0
 10
87.75950111738303
 20
-151.0550346844584
 30
0.0
 10
87.75950111738303
 20
-151.0550346844584
 30
0.0
 10
87.68129744986786
 20
-151.0550346844584
 30
0.0
 10
87.68129744986786
 20
-151.0550346844584
 30
0.0
 10
87.61360132358271
 20
-151.0550346844584
 30
0.0
 10
87.60498858486959
 20
-151.0550346844584
 30
0.0
 10
87.56915959182299
 20
-151.0612358563319
 30
0.0
 10
87.56915959182299
 20
-151.0612358563319
 30
0.0
 10
87.56915959182299
 20
-150.8665879614153
 30
0.0
 10
87.56915959182299
 20
-150.8665879614153
 30
0.0
 10
87.59654810093072
 20
-150.8731336428373
 30
0.0
 10
87.60498858486959
 20
-150.8731336428373
 30
0.0
 10
87.67492402322016
 20
-150.8731336428373
 30
0.0
 10
87.67492402322016
 20
-150.8731336428373
 30
0.0
 10
87.80807696372507
 20
-150.8731336428373
 30
0.0
 10
87.80807696372507
 20
-150.8731336428373
 30
0.0
 10
87.80807696372507
 20
-150.8031982044867
 30
0.0
 10
87.80807696372507
 20
-150.7205159128407
 30
0.0
 10
87.80600990643391
 20
-150.7163817982584
 30
0.0
 10
87.79756942249505
 20
-150.5365478139284
 30
0.0
 10
87.79756942249505
 20
-150.5175997887595
 30
0.0
 10
87.79550236520391
 20
-150.4710909997086
 30
0.0
 10
87.79550236520391
 20
-150.4710909997086
 30
0.0
 10
88.01116534258055
 20
-150.4793592288732
 30
0.0
 10
88.01116534258055
 20
-150.4793592288732
 30
0.0
 10
88.02184513858483
 20
-150.4793592288732
 30
0.0
 10
88.04303247581911
 20
-150.4817707957129
 30
0.0
 10
88.04303247581911
 20
-150.4986517635906
 30
0.0
 10
88.04303247581911
 20
-150.5175997887595
 30
0.0
 10
88.02821856523253
 20
-150.5282795847637
 30
0.0
 10
88.00272485864168
 20
-150.5472276099326
 30
0.0
 10
88.00272485864168
 20
-150.5978705135658
 30
0.0
 10
87.99635143199397
 20
-150.8262803442379
 30
0.0
 10
87.99859074405938
 20
-150.8731336428373
 30
0.0
 10
88.12760956998198
 20
-150.8731336428373
 30
0.0
 10
88.14035642327741
 20
-150.8731336428373
 30
0.0
 10
88.23750811596147
 20
-150.8645209041241
 30
0.0
 10
88.23750811596147
 20
-150.8645209041241
 30
0.0
 10
88.23750811596147
 20
-151.0591687990407
 30
0.0
 10
88.23750811596147
 20
-151.0591687990407
 30
0.0
 10
88.19943981084945
 20
-151.0571017417496
 30
0.0
 10
88.13174368456428
 20
-151.0529676271673
 30
0.0
 10
87.99635143199397
 20
-151.0550346844584
 30
0.0
 10
87.99635143199397
 20
-151.0550346844584
 30
0.0
 10
87.99635143199397
 20
-151.39334306111
 30
0.0
 10
87.99635143199397
 20
-151.39334306111
 30
0.0
 10
88.05147295975798
 20
-151.3702609213588
 30
0.0
 10
88.11692977397772
 20
-151.3427001574768
 30
0.0
 10
88.165677875094
 20
-151.3192735081771
 30
0.0
 10
88.165677875094
 20
-151.3192735081771
 30
0.0
 10
88.165677875094
 20
-151.1415065811382
 30
0.0
 10
88.165677875094
 20
-151.1415065811382
 30
0.0
 10
88.27988279043003
 20
-151.1542534344336
 30
0.0
 10
88.39839407512263
 20
-151.1542534344336
 30
0.0
 10
88.51466604774982
 20
-151.1542534344336
 30
0.0
 10
88.49141165322437
 20
-151.0591687990407
 30
0.0
 10
88.46402314411664
 20
-150.9764865073948
 30
0.0
 10
88.40046113241378
 20
-150.8435058216641
 30
0.0
 10
88.35601940065405
 20
-150.8455728789552
 30
0.0
 10
88.27350936378232
 20
-150.8497069935376
 30
0.0
 10
88.2354410586703
 20
-150.8517740508287
 30
0.0
 10
88.2354410586703
 20
-150.8517740508287
 30
0.0
 10
88.2354410586703
 20
-150.6719400664987
 30
0.0
 10
88.2354410586703
 20
-150.6719400664987
 30
0.0
 10
88.36032577001061
 20
-150.6805528052118
 30
0.0
 10
88.53378632769295
 20
-150.6846869197941
 30
0.0
 10
88.61629636456468
 20
-150.6846869197941
 30
0.0
 10
88.61629636456468
 20
-150.6846869197941
 30
0.0
 10
88.69880640143641
 20
-150.6846869197941
 30
0.0
 10
88.69880640143641
 20
-150.6846869197941
 30
0.0
 10
88.69880640143641
 20
-150.5217339033418
 30
0.0
 10
88.69880640143641
 20
-150.511398616886
 30
0.0
 10
88.69673934414526
 20
-150.456277089122
 30
0.0
 10
88.69673934414526
 20
-150.456277089122
 30
0.0
 10
88.92084280546077
 20
-150.4817707957129
 30
0.0
 10
88.92084280546077
 20
-150.4817707957129
 30
0.0
 10
88.92514917481731
 20
-150.4817707957129
 30
0.0
 10
88.94633651205161
 20
-150.483837853004
 30
0.0
 10
88.94633651205161
 20
-150.5007188208817
 30
0.0
 10
88.94633651205161
 20
-150.5155327314683
 30
0.0
 10
88.93565671604733
 20
-150.5238009606329
 30
0.0
 10
88.90826820693961
 20
-150.5386148712195
 30
0.0
 10
88.9018947802919
 20
-150.6044161949878
 30
0.0
 10
88.89982772300074
 20
-150.6254312774478
 30
0.0
 10
88.89982772300074
 20
-150.6846869197941
 30
0.0
 10
88.89982772300074
 20
-150.6846869197941
 30
0.0
 10
88.99491235839363
 20
-150.6846869197941
 30
0.0
 10
88.99491235839363
 20
-150.6846869197941
 30
0.0
 10
89.07742239526537
 20
-150.6846869197941
 30
0.0
 10
89.2508829529477
 20
-150.6805528052118
 30
0.0
 10
89.37576766428801
 20
-150.6719400664987
 30
0.0
 10
89.37576766428801
 20
-150.6719400664987
 30
0.0
 10
89.37576766428801
 20
-150.8517740508287
 30
0.0
 10
89.37576766428801
 20
-150.8517740508287
 30
0.0
 10
89.34613984311486
 20
-150.8497069935376
 30
0.0
 10
89.22762855842227
 20
-150.8455728789552
 30
0.0
 10
89.18749319601911
 20
-150.8435058216641
 30
0.0
 10
89.17267928543251
 20
-150.8941487252973
 30
0.0
 10
89.13874509490282
 20
-151.0061143285679
 30
0.0
 10
89.07328828068306
 20
-151.145985205269
 30
0.0
 10
89.11549070037738
 20
-151.145985205269
 30
0.0
 10
89.39264863216573
 20
-151.1266926705516
 30
0.0
 10
89.45397133180318
 20
-151.1246256132605
 30
0.0
 10
89.45397133180318
 20
-151.1246256132605
 30
0.0
 10
89.45397133180318
 20
-151.3089382217214
 30
0.0
 10
89.45397133180318
 20
-151.3089382217214
 30
0.0
 10
89.42434351063003
 20
-151.3089382217214
 30
0.0
 10
89.4074625427523
 20
-151.3044595975905
 30
0.0
 10
89.24450952629999
 20
-151.3044595975905
 30
0.0
  0
HATCH
  5
13C
330
135
100
AcDbEntity
  8
レイヤー 1
 62
    18
420
        0
440
 33554687
100
AcDbHatch
 10
0.0
 20
0.0
 30
0.0
210
0.0
220
0.0
230
1.0
  2
SOLID
 70
     1
 71
     1
 91
        3
 92
        1
 93
        1
 72
     4
 94
        3
 73
     0
 74
     0
 95
       17
 96
       13
 40
0.0
 40
0.0
 40
0.0
 40
0.0
 40
1.0
 40
1.0
 40
1.0
 40
2.0
 40
2.0
 40
2.0
 40
3.0
 40
3.0
 40
3.0
 40
4.0
 40
4.0
 40
4.0
 40
4.0
 10
88.67968612149327
 20
-151.6896212728415
 10
88.66280515361555
 20
-151.7192490940146
 10
88.61198999520812
 20
-151.8122666721164
 10
88.60148245397811
 20
-151.8312146972852
 10
88.79182397953817
 20
-151.8904703396315
 10
88.81301131677245
 20
-151.8970160210535
 10
88.88501381241416
 20
-151.924232275387
 10
88.93996308540391
 20
-151.8377603787072
 10
88.96321747992933
 20
-151.7636908257744
 10
88.97803139051591
 20
-151.6896212728415
 10
88.97803139051591
 20
-151.6896212728415
 10
88.67968612149327
 20
-151.6896212728415
 10
88.67968612149327
 20
-151.6896212728415
 97
        0
 97
        1
330
139
 92
        1
 93
        1
 72
     4
 94
        3
 73
     0
 74
     0
 95
       20
 96
       16
 40
0.0
 40
0.0
 40
0.0
 40
0.0
 40
1.0
 40
1.0
 40
1.0
 40
2.0
 40
2.0
 40
2.0
 40
3.0
 40
3.0
 40
3.0
 40
4.0
 40
4.0
 40
4.0
 40
5.0
 40
5.0
 40
5.0
 40
5.0
 10
88.61629636456468
 20
-150.8390271975333
 10
88.61629636456468
 20
-150.8390271975333
 10
88.58460148610038
 20
-150.8390271975333
 10
88.58460148610038
 20
-150.8390271975333
 10
88.63111027515126
 20
-150.938590457057
 10
88.66280515361555
 20
-151.0188611818633
 10
88.69673934414526
 20
-151.145985205269
 10
88.69673934414526
 20
-151.145985205269
 10
88.90396183758303
 20
-151.145985205269
 10
88.90396183758303
 20
-151.145985205269
 10
88.93565671604733
 20
-151.0529676271673
 10
88.95891111057277
 20
-150.9682182782302
 10
88.98233775987248
 20
-150.8390271975333
 10
88.98233775987248
 20
-150.8390271975333
 10
88.61629636456468
 20
-150.8390271975333
 10
88.61629636456468
 20
-150.8390271975333
 97
        0
 97
        1
330
13A
 92
        1
 93
        1
 72
     4
 94
        3
 73
     0
 74
     0
 95
      242
 96
      238
 40
0.0
 40
0.0
 40
0.0
 40
0.0
 40
1.0
 40
1.0
 40
1.0
 40
2.0
 40
2.0
 40
2.0
 40
3.0
 40
3.0
 40
3.0
 40
4.0
 40
4.0
 40
4.0
 40
5.0
 40
5.0
 40
5.0
 40
6.0
 40
6.0
 40
6.0
 40
7.0
 40
7.0
 40
7.0
 40
8.0
 40
8.0
 40
8.0
 40
9.0
 40
9.0
 40
9.0
 40
10.0
 40
10.0
 40
10.0
 40
11.0
 40
11.0
 40
11.0
 40
12.0
 40
12.0
 40
12.0
 40
13.0
 40
13.0
 40
13.0
 40
14.0
 40
14.0
 40
14.0
 40
15.0
 40
15.0
 40
15.0
 40
16.0
 40
16.0
 40
16.0
 40
17.0
 40
17.0
 40
17.0
 40
18.0
 40
18.0
 40
18.0
 40
19.0
 40
19.0
 40
19.0
 40
20.0
 40
20.0
 40
20.0
 40
21.0
 40
21.0
 40
21.0
 40
22.0
 40
22.0
 40
22.0
 40
23.0
 40
23.0
 40
23.0
 40
24.0
 40
24.0
 40
24.0
 40
25.0
 40
25.0
 40
25.0
 40
26.0
 40
26.0
 40
26.0
 40
27.0
 40
27.0
 40
27.0
 40
28.0
 40
28.0
 40
28.0
 40
29.0
 40
29.0
 40
29.0
 40
30.0
 40
30.0
 40
30.0
 40
31.0
 40
31.0
 40
31.0
 40
32.0
 40
32.0
 40
32.0
 40
33.0
 40
33.0
 40
33.0
 40
34.0
 40
34.0
 40
34.0
 40
35.0
 40
35.0
 40
35.0
 40
36.0
 40
36.0
 40
36.0
 40
37.0
 40
37.0
 40
37.0
 40
38.0
 40
38.0
 40
38.0
 40
39.0
 40
39.0
 40
39.0
 40
40.0
 40
40.0
 40
40.0
 40
41.0
 40
41.0
 40
41.0
 40
42.0
 40
42.0
 40
42.0
 40
43.0
 40
43.0
 40
43.0
 40
44.0
 40
44.0
 40
44.0
 40
45.0
 40
45.0
 40
45.0
 40
46.0
 40
46.0
 40
46.0
 40
47.0
 40
47.0
 40
47.0
 40
48.0
 40
48.0
 40
48.0
 40
49.0
 40
49.0
 40
49.0
 40
50.0
 40
50.0
 40
50.0
 40
51.0
 40
51.0
 40
51.0
 40
52.0
 40
52.0
 40
52.0
 40
53.0
 40
53.0
 40
53.0
 40
54.0
 40
54.0
 40
54.0
 40
55.0
 40
55.0
 40
55.0
 40
56.0
 40
56.0
 40
56.0
 40
57.0
 40
57.0
 40
57.0
 40
58.0
 40
58.0
 40
58.0
 40
59.0
 40
59.0
 40
59.0
 40
60.0
 40
60.0
 40
60.0
 40
61.0
 40
61.0
 40
61.0
 40
62.0
 40
62.0
 40
62.0
 40
63.0
 40
63.0
 40
63.0
 40
64.0
 40
64.0
 40
64.0
 40
65.0
 40
65.0
 40
65.0
 40
66.0
 40
66.0
 40
66.0
 40
67.0
 40
67.0
 40
67.0
 40
68.0
 40
68.0
 40
68.0
 40
69.0
 40
69.0
 40
69.0
 40
70.0
 40
70.0
 40
70.0
 40
71.0
 40
71.0
 40
71.0
 40
72.0
 40
72.0
 40
72.0
 40
73.0
 40
73.0
 40
73.0
 40
74.0
 40
74.0
 40
74.0
 40
75.0
 40
75.0
 40
75.0
 40
76.0
 40
76.0
 40
76.0
 40
77.0
 40
77.0
 40
77.0
 40
78.0
 40
78.0
 40
78.0
 40
79.0
 40
79.0
 40
79.0
 40
79.0
 10
89.24450952629999
 20
-151.3044595975905
 10
89.24450952629999
 20
-151.3044595975905
 10
88.99077824381134
 20
-151.3044595975905
 10
88.99077824381134
 20
-151.3044595975905
 10
88.99077824381134
 20
-151.3044595975905
 10
88.71362031202298
 20
-151.3044595975905
 10
88.71362031202298
 20
-151.3044595975905
 10
88.71362031202298
 20
-151.3044595975905
 10
88.84057208065444
 20
-151.3468342720591
 10
88.84057208065444
 20
-151.3468342720591
 10
88.85107962188445
 20
-151.3509683866414
 10
88.86382647517988
 20
-151.3575140680634
 10
88.86382647517988
 20
-151.3702609213588
 10
88.86382647517988
 20
-151.3912760038188
 10
88.83213159671559
 20
-151.3974771756923
 10
88.81094425948129
 20
-151.4019557998231
 10
88.80026446347702
 20
-151.4250379395743
 10
88.77063664230387
 20
-151.4908392633425
 10
88.751688617135
 20
-151.5352809951023
 10
88.751688617135
 20
-151.5352809951023
 10
89.02247312227563
 20
-151.5352809951023
 10
89.02247312227563
 20
-151.5352809951023
 10
89.11342364308623
 20
-151.5352809951023
 10
89.31013859529398
 20
-151.5308023709715
 10
89.45190427451203
 20
-151.5225341418069
 10
89.45190427451203
 20
-151.5225341418069
 10
89.45190427451203
 20
-151.7003010688457
 10
89.45190427451203
 20
-151.7003010688457
 10
89.36939423764028
 20
-151.6958224447149
 10
89.348206900406
 20
-151.6958224447149
 10
89.16837291607597
 20
-151.6916883301326
 10
89.13667803761168
 20
-151.8460286078718
 10
89.09223630585193
 20
-151.9266438422266
 10
89.04779457409222
 20
-151.9962347710287
 10
89.16837291607597
 20
-152.055490413375
 10
89.27413734747315
 20
-152.1233587944344
 10
89.37783472157915
 20
-152.2056965765319
 10
89.37783472157915
 20
-152.2056965765319
 10
89.25932343688655
 20
-152.3727837075665
 10
89.25932343688655
 20
-152.3727837075665
 10
89.23606904236113
 20
-152.3538356823976
 10
89.22349444383996
 20
-152.3452229436845
 10
89.11135658579508
 20
-152.2608181042959
 10
89.06260848467878
 20
-152.2225775444096
 10
89.0033528423325
 20
-152.186748551363
 10
88.92308211752618
 20
-152.1423068196033
 10
88.71155325473184
 20
-152.3283419758068
 10
88.50622556381095
 20
-152.3517686251065
 10
88.21649303350143
 20
-152.3813964462796
 10
88.21649303350143
 20
-152.3813964462796
 10
88.11279565939541
 20
-152.2015624619496
 10
88.11279565939541
 20
-152.2015624619496
 10
88.43008895358693
 20
-152.1974283473673
 10
88.6056165685604
 20
-152.1719346407764
 10
88.75806204378271
 20
-152.062036094797
 10
88.63955075909011
 20
-152.0110486816153
 10
88.55066729557067
 20
-151.9834879177333
 10
88.51466604774982
 20
-151.9710855739864
 10
88.49571802258093
 20
-151.9983018283198
 10
88.48090411199436
 20
-152.0175943630372
 10
88.45334334811237
 20
-152.0513562987927
 10
88.45334334811237
 20
-152.0513562987927
 10
88.2566283959046
 20
-151.9686740071467
 10
88.2566283959046
 20
-151.9686740071467
 10
88.33913843277633
 20
-151.8884032823404
 10
88.40046113241378
 20
-151.7933186469475
 10
88.45764971746893
 20
-151.6916883301326
 10
88.26713593713462
 20
-151.6958224447149
 10
88.24612085467459
 20
-151.6958224447149
 10
88.16361081780284
 20
-151.7003010688457
 10
88.16361081780284
 20
-151.7003010688457
 10
88.16361081780284
 20
-151.5225341418069
 10
88.16361081780284
 20
-151.5225341418069
 10
88.30313718495547
 20
-151.5287353136803
 10
88.51259899045865
 20
-151.5328694282626
 10
88.53792044227525
 20
-151.5328694282626
 10
88.55497366492723
 20
-151.4991074925071
 10
88.60992293791696
 20
-151.3785291505234
 10
88.62904321786009
 20
-151.3044595975905
 10
88.60992293791696
 20
-151.3044595975905
 10
88.43215601087807
 20
-151.3110052790125
 10
88.23750811596147
 20
-151.3237521323079
 10
88.23750811596147
 20
-151.3237521323079
 10
88.23750811596147
 20
-151.4567328180386
 10
88.23750811596147
 20
-151.4567328180386
 10
88.18893226961945
 20
-151.4822265246294
 10
88.12967662727315
 20
-151.5139214030937
 10
87.99635143199397
 20
-151.579722726862
 10
87.99635143199397
 20
-151.579722726862
 10
87.99635143199397
 20
-151.7254502658881
 10
87.99635143199397
 20
-151.7254502658881
 10
87.99635143199397
 20
-151.7254502658881
 10
87.99635143199397
 20
-152.1929497232365
 10
87.99635143199397
 20
-152.1929497232365
 10
87.99635143199397
 20
-152.3200737466422
 10
87.96052243894738
 20
-152.3793293889885
 10
87.67699108051131
 20
-152.3707166502753
 10
87.67699108051131
 20
-152.3707166502753
 10
87.5732937064053
 20
-152.1633219020633
 10
87.5732937064053
 20
-152.1633219020633
 10
87.63685571810816
 20
-152.1760687553587
 10
87.68543156445018
 20
-152.180202869941
 10
87.72556692685332
 20
-152.180202869941
 10
87.80187579185161
 20
-152.180202869941
 10
87.81238333308163
 20
-152.1571207301899
 10
87.81238333308163
 20
-152.0916639159701
 10
87.81238333308163
 20
-152.0916639159701
 10
87.81238333308163
 20
-151.6620605089595
 10
87.81238333308163
 20
-151.6620605089595
 10
87.71505938562333
 20
-151.7023681261369
 10
87.69817841774559
 20
-151.7085692980103
 10
87.65166962869471
 20
-151.7275173231792
 10
87.64736325933816
 20
-151.7488769151878
 10
87.6430568899816
 20
-151.7785047363609
 10
87.62410886481273
 20
-151.7785047363609
 10
87.61566838087388
 20
-151.7785047363609
 10
87.60498858486959
 20
-151.7743706217786
 10
87.59878741299614
 20
-151.7509439724789
 10
87.59878741299614
 20
-151.7509439724789
 10
87.54590519729756
 20
-151.5583631348534
 10
87.54590519729756
 20
-151.5583631348534
 10
87.69180499109788
 20
-151.5118543458026
 10
87.75743406009189
 20
-151.4887722060514
 10
87.81238333308163
 20
-151.4674126140429
 10
87.81238333308163
 20
-151.4674126140429
 10
87.81238333308163
 20
-151.0550346844584
 10
87.81238333308163
 20
-151.0550346844584
 10
87.81238333308163
 20
-151.0550346844584
 10
87.75950111738303
 20
-151.0550346844584
 10
87.75950111738303
 20
-151.0550346844584
 10
87.75950111738303
 20
-151.0550346844584
 10
87.68129744986786
 20
-151.0550346844584
 10
87.68129744986786
 20
-151.0550346844584
 10
87.61360132358271
 20
-151.0550346844584
 10
87.60498858486959
 20
-151.0550346844584
 10
87.56915959182299
 20
-151.0612358563319
 10
87.56915959182299
 20
-151.0612358563319
 10
87.56915959182299
 20
-150.8665879614153
 10
87.56915959182299
 20
-150.8665879614153
 10
87.59654810093072
 20
-150.8731336428373
 10
87.60498858486959
 20
-150.8731336428373
 10
87.67492402322016
 20
-150.8731336428373
 10
87.67492402322016
 20
-150.8731336428373
 10
87.80807696372507
 20
-150.8731336428373
 10
87.80807696372507
 20
-150.8731336428373
 10
87.80807696372507
 20
-150.8031982044867
 10
87.80807696372507
 20
-150.7205159128407
 10
87.80600990643391
 20
-150.7163817982584
 10
87.79756942249505
 20
-150.5365478139284
 10
87.79756942249505
 20
-150.5175997887595
 10
87.79550236520391
 20
-150.4710909997086
 10
87.79550236520391
 20
-150.4710909997086
 10
88.01116534258055
 20
-150.4793592288732
 10
88.01116534258055
 20
-150.4793592288732
 10
88.02184513858483
 20
-150.4793592288732
 10
88.04303247581911
 20
-150.4817707957129
 10
88.04303247581911
 20
-150.4986517635906
 10
88.04303247581911
 20
-150.5175997887595
 10
88.02821856523253
 20
-150.5282795847637
 10
88.00272485864168
 20
-150.5472276099326
 10
88.00272485864168
 20
-150.5978705135658
 10
87.99635143199397
 20
-150.8262803442379
 10
87.99859074405938
 20
-150.8731336428373
 10
88.12760956998198
 20
-150.8731336428373
 10
88.14035642327741
 20
-150.8731336428373
 10
88.23750811596147
 20
-150.8645209041241
 10
88.23750811596147
 20
-150.8645209041241
 10
88.23750811596147
 20
-151.0591687990407
 10
88.23750811596147
 20
-151.0591687990407
 10
88.19943981084945
 20
-151.0571017417496
 10
88.13174368456428
 20
-151.0529676271673
 10
87.99635143199397
 20
-151.0550346844584
 10
87.99635143199397
 20
-151.0550346844584
 10
87.99635143199397
 20
-151.39334306111
 10
87.99635143199397
 20
-151.39334306111
 10
88.05147295975798
 20
-151.3702609213588
 10
88.11692977397772
 20
-151.3427001574768
 10
88.165677875094
 20
-151.3192735081771
 10
88.165677875094
 20
-151.3192735081771
 10
88.165677875094
 20
-151.1415065811382
 10
88.165677875094
 20
-151.1415065811382
 10
88.27988279043003
 20
-151.1542534344336
 10
88.39839407512263
 20
-151.1542534344336
 10
88.51466604774982
 20
-151.1542534344336
 10
88.49141165322437
 20
-151.0591687990407
 10
88.46402314411664
 20
-150.9764865073948
 10
88.40046113241378
 20
-150.8435058216641
 10
88.35601940065405
 20
-150.8455728789552
 10
88.27350936378232
 20
-150.8497069935376
 10
88.2354410586703
 20
-150.8517740508287
 10
88.2354410586703
 20
-150.8517740508287
 10
88.2354410586703
 20
-150.6719400664987
 10
88.2354410586703
 20
-150.6719400664987
 10
88.36032577001061
 20
-150.6805528052118
 10
88.53378632769295
 20
-150.6846869197941
 10
88.61629636456468
 20
-150.6846869197941
 10
88.61629636456468
 20
-150.6846869197941
 10
88.69880640143641
 20
-150.6846869197941
 10
88.69880640143641
 20
-150.6846869197941
 10
88.69880640143641
 20
-150.5217339033418
 10
88.69880640143641
 20
-150.511398616886
 10
88.69673934414526
 20
-150.456277089122
 10
88.69673934414526
 20
-150.456277089122
 10
88.92084280546077
 20
-150.4817707957129
 10
88.92084280546077
 20
-150.4817707957129
 10
88.92514917481731
 20
-150.4817707957129
 10
88.94633651205161
 20
-150.483837853004
 10
88.94633651205161
 20
-150.5007188208817
 10
88.94633651205161
 20
-150.5155327314683
 10
88.93565671604733
 20
-150.5238009606329
 10
88.90826820693961
 20
-150.5386148712195
 10
88.9018947802919
 20
-150.6044161949878
 10
88.89982772300074
 20
-150.6254312774478
 10
88.89982772300074
 20
-150.6846869197941
 10
88.89982772300074
 20
-150.6846869197941
 10
88.99491235839363
 20
-150.6846869197941
 10
88.99491235839363
 20
-150.6846869197941
 10
89.07742239526537
 20
-150.6846869197941
 10
89.2508829529477
 20
-150.6805528052118
 10
89.37576766428801
 20
-150.6719400664987
 10
89.37576766428801
 20
-150.6719400664987
 10
89.37576766428801
 20
-150.8517740508287
 10
89.37576766428801
 20
-150.8517740508287
 10
89.34613984311486
 20
-150.8497069935376
 10
89.22762855842227
 20
-150.8455728789552
 10
89.18749319601911
 20
-150.8435058216641
 10
89.17267928543251
 20
-150.8941487252973
 10
89.13874509490282
 20
-151.0061143285679
 10
89.07328828068306
 20
-151.145985205269
 10
89.11549070037738
 20
-151.145985205269
 10
89.39264863216573
 20
-151.1266926705516
 10
89.45397133180318
 20
-151.1246256132605
 10
89.45397133180318
 20
-151.1246256132605
 10
89.45397133180318
 20
-151.3089382217214
 10
89.45397133180318
 20
-151.3089382217214
 10
89.42434351063003
 20
-151.3089382217214
 10
89.4074625427523
 20
-151.3044595975905
 10
89.24450952629999
 20
-151.3044595975905
 97
        0
 97
        1
330
13B
 75
     2
 76
     1
 98
        1
 10
0.0
 20
0.0
450
        0
451
        0
460
0.0
461
0.0
452
        0
462
0.0
453
        0
470

  0
SPLINE
  5
13D
330
135
100
AcDbEntity
  8
レイヤー 1
100
AcDbSpline
210
0.0
220
0.0
230
1.0
 70
    11
 71
     3
 72
    17
 73
    13
 74
     0
 42
0.0000000001
 43
0.0000000001
 40
0.0
 40
0.0
 40
0.0
 40
0.0
 40
1.0
 40
1.0
 40
1.0
 40
2.0
 40
2.0
 40
2.0
 40
3.0
 40
3.0
 40
3.0
 40
4.0
 40
4.0
 40
4.0
 40
4.0
 10
91.10107148330113
 20
-152.104066259717
 30
0.0
 10
91.10107148330113
 20
-152.104066259717
 30
0.0
 10
90.39448239927638
 20
-152.104066259717
 30
0.0
 10
90.39448239927638
 20
-152.104066259717
 30
0.0
 10
90.39448239927638
 20
-152.104066259717
 30
0.0
 10
90.39448239927638
 20
-152.2184434298273
 30
0.0
 10
90.39448239927638
 20
-152.2184434298273
 30
0.0
 10
90.39448239927638
 20
-152.2184434298273
 30
0.0
 10
91.10107148330113
 20
-152.2184434298273
 30
0.0
 10
91.10107148330113
 20
-152.2184434298273
 30
0.0
 10
91.10107148330113
 20
-152.2184434298273
 30
0.0
 10
91.10107148330113
 20
-152.104066259717
 30
0.0
 10
91.10107148330113
 20
-152.104066259717
 30
0.0
  0
SPLINE
  5
13E
330
135
100
AcDbEntity
  8
レイヤー 1
100
AcDbSpline
210
0.0
220
0.0
230
1.0
 70
    11
 71
     3
 72
    17
 73
    13
 74
     0
 42
0.0000000001
 43
0.0000000001
 40
0.0
 40
0.0
 40
0.0
 40
0.0
 40
1.0
 40
1.0
 40
1.0
 40
2.0
 40
2.0
 40
2.0
 40
3.0
 40
3.0
 40
3.0
 40
4.0
 40
4.0
 40
4.0
 40
4.0
 10
91.10107148330113
 20
-151.8608425184584
 30
0.0
 10
91.10107148330113
 20
-151.8608425184584
 30
0.0
 10
90.39448239927638
 20
-151.8608425184584
 30
0.0
 10
90.39448239927638
 20
-151.8608425184584
 30
0.0
 10
90.39448239927638
 20
-151.8608425184584
 30
0.0
 10
90.39448239927638
 20
-151.9752196885687
 30
0.0
 10
90.39448239927638
 20
-151.9752196885687
 30
0.0
 10
90.39448239927638
 20
-151.9752196885687
 30
0.0
 10
91.10107148330113
 20
-151.9752196885687
 30
0.0
 10
91.10107148330113
 20
-151.9752196885687
 30
0.0
 10
91.10107148330113
 20
-151.9752196885687
 30
0.0
 10
91.10107148330113
 20
-151.8608425184584
 30
0.0
 10
91.10107148330113
 20
-151.8608425184584
 30
0.0
  0
SPLINE
  5
13F
330
135
100
AcDbEntity
  8
レイヤー 1
100
AcDbSpline
210
0.0
220
0.0
230
1.0
 70
    11
 71
     3
 72
    17
 73
    13
 74
     0
 42
0.0000000001
 43
0.0000000001
 40
0.0
 40
0.0
 40
0.0
 40
0.0
 40
1.0
 40
1.0
 40
1.0
 40
2.0
 40
2.0
 40
2.0
 40
3.0
 40
3.0
 40
3.0
 40
4.0
 40
4.0
 40
4.0
 40
4.0
 10
91.10107148330113
 20
-151.628298573204
 30
0.0
 10
91.10107148330113
 20
-151.628298573204
 30
0.0
 10
90.39448239927638
 20
-151.628298573204
 30
0.0
 10
90.39448239927638
 20
-151.628298573204
 30
0.0
 10
90.39448239927638
 20
-151.628298573204
 30
0.0
 10
90.39448239927638
 20
-151.7361300618923
 30
0.0
 10
90.39448239927638
 20
-151.7361300618923
 30
0.0
 10
90.39448239927638
 20
-151.7361300618923
 30
0.0
 10
91.10107148330113
 20
-151.7361300618923
 30
0.0
 10
91.10107148330113
 20
-151.7361300618923
 30
0.0
 10
91.10107148330113
 20
-151.7361300618923
 30
0.0
 10
91.10107148330113
 20
-151.628298573204
 30
0.0
 10
91.10107148330113
 20
-151.628298573204
 30
0.0
  0
SPLINE
  5
140
330
135
100
AcDbEntity
  8
レイヤー 1
100
AcDbSpline
210
0.0
220
0.0
230
1.0
 70
     9
 71
     3
 72
   203
 73
   199
 74
     0
 42
0.0000000001
 43
0.0000000001
 40
0.0
 40
0.0
 40
0.0
 40
0.0
 40
1.0
 40
1.0
 40
1.0
 40
2.0
 40
2.0
 40
2.0
 40
3.0
 40
3.0
 40
3.0
 40
4.0
 40
4.0
 40
4.0
 40
5.0
 40
5.0
 40
5.0
 40
6.0
 40
6.0
 40
6.0
 40
7.0
 40
7.0
 40
7.0
 40
8.0
 40
8.0
 40
8.0
 40
9.0
 40
9.0
 40
9.0
 40
10.0
 40
10.0
 40
10.0
 40
11.0
 40
11.0
 40
11.0
 40
12.0
 40
12.0
 40
12.0
 40
13.0
 40
13.0
 40
13.0
 40
14.0
 40
14.0
 40
14.0
 40
15.0
 40
15.0
 40
15.0
 40
16.0
 40
16.0
 40
16.0
 40
17.0
 40
17.0
 40
17.0
 40
18.0
 40
18.0
 40
18.0
 40
19.0
 40
19.0
 40
19.0
 40
20.0
 40
20.0
 40
20.0
 40
21.0
 40
21.0
 40
21.0
 40
22.0
 40
22.0
 40
22.0
 40
23.0
 40
23.0
 40
23.0
 40
24.0
 40
24.0
 40
24.0
 40
25.0
 40
25.0
 40
25.0
 40
26.0
 40
26.0
 40
26.0
 40
27.0
 40
27.0
 40
27.0
 40
28.0
 40
28.0
 40
28.0
 40
29.0
 40
29.0
 40
29.0
 40
30.0
 40
30.0
 40
30.0
 40
31.0
 40
31.0
 40
31.0
 40
32.0
 40
32.0
 40
32.0
 40
33.0
 40
33.0
 40
33.0
 40
34.0
 40
34.0
 40
34.0
 40
35.0
 40
35.0
 40
35.0
 40
36.0
 40
36.0
 40
36.0
 40
37.0
 40
37.0
 40
37.0
 40
38.0
 40
38.0
 40
38.0
 40
39.0
 40
39.0
 40
39.0
 40
40.0
 40
40.0
 40
40.0
 40
41.0
 40
41.0
 40
41.0
 40
42.0
 40
42.0
 40
42.0
 40
43.0
 40
43.0
 40
43.0
 40
44.0
 40
44.0
 40
44.0
 40
45.0
 40
45.0
 40
45.0
 40
46.0
 40
46.0
 40
46.0
 40
47.0
 40
47.0
 40
47.0
 40
48.0
 40
48.0
 40
48.0
 40
49.0
 40
49.0
 40
49.0
 40
50.0
 40
50.0
 40
50.0
 40
51.0
 40
51.0
 40
51.0
 40
52.0
 40
52.0
 40
52.0
 40
53.0
 40
53.0
 40
53.0
 40
54.0
 40
54.0
 40
54.0
 40
55.0
 40
55.0
 40
55.0
 40
56.0
 40
56.0
 40
56.0
 40
57.0
 40
57.0
 40
57.0
 40
58.0
 40
58.0
 40
58.0
 40
59.0
 40
59.0
 40
59.0
 40
60.0
 40
60.0
 40
60.0
 40
61.0
 40
61.0
 40
61.0
 40
62.0
 40
62.0
 40
62.0
 40
63.0
 40
63.0
 40
63.0
 40
64.0
 40
64.0
 40
64.0
 40
65.0
 40
65.0
 40
65.0
 40
66.0
 40
66.0
 40
66.0
 40
66.0
 10
90.93605140955766
 20
-151.37232797865
 30
0.0
 10
90.93605140955766
 20
-151.37232797865
 30
0.0
 10
90.37760143139866
 20
-151.37232797865
 30
0.0
 10
90.37760143139866
 20
-151.37232797865
 30
0.0
 10
90.3669216353944
 20
-151.4167697104097
 30
0.0
 10
90.35848115145553
 20
-151.448464588874
 30
0.0
 10
90.3457342981601
 20
-151.4863606392117
 30
0.0
 10
90.37122800475094
 20
-151.4863606392117
 30
0.0
 10
90.38604191533751
 20
-151.4887722060514
 30
0.0
 10
90.39241534198522
 20
-151.4887722060514
 30
0.0
 10
90.39241534198522
 20
-151.4887722060514
 30
0.0
 10
90.58068981025414
 20
-151.4887722060514
 30
0.0
 10
90.58068981025414
 20
-151.4887722060514
 30
0.0
 10
90.58068981025414
 20
-151.4887722060514
 30
0.0
 10
90.95499943472653
 20
-151.4887722060514
 30
0.0
 10
90.95499943472653
 20
-151.4887722060514
 30
0.0
 10
91.00581459313396
 20
-151.4887722060514
 30
0.0
 10
91.28934595157003
 20
-151.476025352756
 30
0.0
 10
91.32104083003431
 20
-151.476025352756
 30
0.0
 10
91.31897377274318
 20
-151.503586116638
 30
0.0
 10
91.31673446067777
 20
-151.5225341418069
 30
0.0
 10
91.31673446067777
 20
-151.55216196298
 30
0.0
 10
91.31466740338662
 20
-151.5838568414443
 30
0.0
 10
91.31466740338662
 20
-151.7192490940146
 30
0.0
 10
91.31466740338662
 20
-151.7468098578966
 30
0.0
 10
91.31466740338662
 20
-151.7468098578966
 30
0.0
 10
91.31466740338662
 20
-151.9921006564464
 30
0.0
 10
91.31466740338662
 20
-151.9921006564464
 30
0.0
 10
91.31466740338662
 20
-152.0365423882061
 30
0.0
 10
91.31897377274318
 20
-152.2332573404139
 30
0.0
 10
91.32310788732548
 20
-152.3855305608619
 30
0.0
 10
91.32310788732548
 20
-152.3855305608619
 30
0.0
 10
91.09676511394455
 20
-152.3855305608619
 30
0.0
 10
91.09676511394455
 20
-152.3855305608619
 30
0.0
 10
91.09676511394455
 20
-152.3855305608619
 30
0.0
 10
91.09900442600997
 20
-152.3517686251065
 30
0.0
 10
91.09900442600997
 20
-152.3517686251065
 30
0.0
 10
91.09900442600997
 20
-152.3517686251065
 30
0.0
 10
90.39654945656753
 20
-152.3517686251065
 30
0.0
 10
90.39654945656753
 20
-152.3517686251065
 30
0.0
 10
90.39654945656753
 20
-152.3517686251065
 30
0.0
 10
90.39861651385868
 20
-152.3855305608619
 30
0.0
 10
90.39861651385868
 20
-152.3855305608619
 30
0.0
 10
90.39861651385868
 20
-152.3855305608619
 30
0.0
 10
90.18071422441662
 20
-152.3855305608619
 30
0.0
 10
90.18071422441662
 20
-152.3855305608619
 30
0.0
 10
90.18502059377318
 20
-152.3304090330979
 30
0.0
 10
90.18502059377318
 20
-152.318006689351
 30
0.0
 10
90.19139402042091
 20
-152.2036295192407
 30
0.0
 10
90.19346107771205
 20
-152.1760687553587
 30
0.0
 10
90.1955281350032
 20
-152.0427435600796
 30
0.0
 10
90.1955281350032
 20
-152.0237955349107
 30
0.0
 10
90.1955281350032
 20
-152.0237955349107
 30
0.0
 10
90.1955281350032
 20
-151.8208794108295
 30
0.0
 10
90.1955281350032
 20
-151.8208794108295
 30
0.0
 10
90.05600176785058
 20
-152.0703043239616
 30
0.0
 10
89.88667532475055
 20
-152.2015624619496
 30
0.0
 10
89.7809108933534
 20
-152.2670192761693
 30
0.0
 10
89.7809108933534
 20
-152.2670192761693
 30
0.0
 10
89.60745033567105
 20
-152.1274929090167
 30
0.0
 10
89.60745033567105
 20
-152.1274929090167
 30
0.0
 10
89.6963337991905
 20
-152.0768500053835
 30
0.0
 10
89.84016653569968
 20
-151.9900335991553
 30
0.0
 10
89.97762584556115
 20
-151.7953857042386
 30
0.0
 10
90.06874862114601
 20
-151.6682616808329
 30
0.0
 10
90.13420543536575
 20
-151.524601199098
 30
0.0
 10
90.16813962589546
 20
-151.37232797865
 30
0.0
 10
89.93955754044915
 20
-151.3743950359411
 30
0.0
 10
89.7597235561191
 20
-151.3805962078146
 30
0.0
 10
89.66463892072621
 20
-151.3826632651057
 30
0.0
 10
89.66463892072621
 20
-151.3826632651057
 30
0.0
 10
89.66463892072621
 20
-151.2052408476153
 30
0.0
 10
89.66463892072621
 20
-151.2052408476153
 30
0.0
 10
89.86135387293398
 20
-151.2114420194888
 30
0.0
 10
90.14488523137002
 20
-151.2155761340711
 30
0.0
 10
90.29509139452692
 20
-151.2155761340711
 30
0.0
 10
90.29509139452692
 20
-151.2155761340711
 30
0.0
 10
90.50868731461241
 20
-151.2155761340711
 30
0.0
 10
90.50868731461241
 20
-151.2155761340711
 30
0.0
 10
90.50868731461241
 20
-151.2155761340711
 30
0.0
 10
90.50868731461241
 20
-151.1077446453828
 30
0.0
 10
90.50868731461241
 20
-151.1077446453828
 30
0.0
 10
90.50868731461241
 20
-151.1077446453828
 30
0.0
 10
90.36278752081209
 20
-151.1077446453828
 30
0.0
 10
90.36278752081209
 20
-151.1077446453828
 30
0.0
 10
90.19346107771205
 20
-151.1077446453828
 30
0.0
 10
90.02430688938629
 20
-151.1118787599651
 30
0.0
 10
89.8570475035774
 20
-151.1184244413871
 30
0.0
 10
89.8570475035774
 20
-151.1184244413871
 30
0.0
 10
89.8570475035774
 20
-150.9472031957701
 30
0.0
 10
89.8570475035774
 20
-150.9472031957701
 30
0.0
 10
90.01156003609088
 20
-150.9575384822259
 30
0.0
 10
90.19776744706861
 20
-150.9575384822259
 30
0.0
 10
90.36278752081209
 20
-150.9575384822259
 30
0.0
 10
90.36278752081209
 20
-150.9575384822259
 30
0.0
 10
90.50868731461241
 20
-150.9575384822259
 30
0.0
 10
90.50868731461241
 20
-150.9575384822259
 30
0.0
 10
90.50868731461241
 20
-150.9575384822259
 30
0.0
 10
90.50868731461241
 20
-150.8390271975333
 30
0.0
 10
90.50868731461241
 20
-150.8390271975333
 30
0.0
 10
90.50868731461241
 20
-150.8390271975333
 30
0.0
 10
90.37760143139866
 20
-150.8390271975333
 30
0.0
 10
90.37760143139866
 20
-150.8390271975333
 30
0.0
 10
90.33092038757352
 20
-150.8390271975333
 30
0.0
 10
90.12783200871805
 20
-150.8476399362464
 30
0.0
 10
90.08562958902373
 20
-150.8476399362464
 30
0.0
 10
89.88254121016826
 20
-150.8517740508287
 30
0.0
 10
89.80640459994424
 20
-150.8538411081199
 30
0.0
 10
89.7280286776548
 20
-150.855908165411
 30
0.0
 10
89.7280286776548
 20
-150.855908165411
 30
0.0
 10
89.7280286776548
 20
-150.6719400664987
 30
0.0
 10
89.7280286776548
 20
-150.6719400664987
 30
0.0
 10
89.84223359299084
 20
-150.6805528052118
 30
0.0
 10
89.88667532475055
 20
-150.6805528052118
 30
0.0
 10
90.26959768793608
 20
-150.6888210343764
 30
0.0
 10
90.20620793100748
 20
-150.5937363989835
 30
0.0
 10
90.17864716712548
 20
-150.5661756351015
 30
0.0
 10
90.14264591930462
 20
-150.5303466420549
 30
0.0
 10
90.14264591930462
 20
-150.5303466420549
 30
0.0
 10
90.31834578905236
 20
-150.4476643504089
 30
0.0
 10
90.31834578905236
 20
-150.4476643504089
 30
0.0
 10
90.35848115145553
 20
-150.483837853004
 30
0.0
 10
90.40292288321523
 20
-150.5262125274726
 30
0.0
 10
90.47699243614813
 20
-150.6361110734521
 30
0.0
 10
90.47699243614813
 20
-150.6361110734521
 30
0.0
 10
90.36278752081209
 20
-150.6912326012161
 30
0.0
 10
90.36278752081209
 20
-150.6912326012161
 30
0.0
 10
90.36278752081209
 20
-150.6912326012161
 30
0.0
 10
90.3732950620421
 20
-150.6912326012161
 30
0.0
 10
90.3732950620421
 20
-150.6912326012161
 30
0.0
 10
90.3732950620421
 20
-150.6912326012161
 30
0.0
 10
90.89574379238023
 20
-150.6912326012161
 30
0.0
 10
90.89574379238023
 20
-150.6912326012161
 30
0.0
 10
90.89574379238023
 20
-150.6912326012161
 30
0.0
 10
90.80065915698734
 20
-150.6467908694563
 30
0.0
 10
90.80065915698734
 20
-150.6467908694563
 30
0.0
 10
90.82821992086934
 20
-150.6085503095701
 30
0.0
 10
90.88523625115021
 20
-150.5282795847637
 30
0.0
 10
90.9000501617368
 20
-150.4542100318309
 30
0.0
 10
90.9000501617368
 20
-150.4542100318309
 30
0.0
 10
91.11364608182228
 20
-150.5175997887595
 30
0.0
 10
91.11364608182228
 20
-150.5175997887595
 30
0.0
 10
91.12225882053541
 20
-150.5196668460506
 30
0.0
 10
91.14327390299543
 20
-150.5303466420549
 30
0.0
 10
91.14327390299543
 20
-150.5513617245149
 30
0.0
 10
91.14327390299543
 20
-150.5896022844012
 30
0.0
 10
91.07781708877569
 20
-150.5896022844012
 30
0.0
 10
91.05869680883255
 20
-150.5896022844012
 30
0.0
 10
91.04818926760254
 20
-150.6085503095701
 30
0.0
 10
91.02493487307709
 20
-150.6488579267475
 30
0.0
 10
90.99530705190394
 20
-150.6888210343764
 30
0.0
 10
91.39511038296721
 20
-150.6826198625029
 30
0.0
 10
91.42473820414036
 20
-150.6805528052118
 30
0.0
 10
91.50087481436436
 20
-150.6740071237898
 30
0.0
 10
91.50087481436436
 20
-150.6740071237898
 30
0.0
 10
91.50087481436436
 20
-150.855908165411
 30
0.0
 10
91.50087481436436
 20
-150.855908165411
 30
0.0
 10
91.48175453442123
 20
-150.855908165411
 30
0.0
 10
91.45643308260465
 20
-150.8538411081199
 30
0.0
 10
91.23646373587144
 20
-150.8455728789552
 30
0.0
 10
91.18564857746401
 20
-150.8435058216641
 30
0.0
 10
90.96567923073079
 20
-150.8390271975333
 30
0.0
 10
90.92123749897108
 20
-150.8390271975333
 30
0.0
 10
90.92123749897108
 20
-150.8390271975333
 30
0.0
 10
90.70540226682018
 20
-150.8390271975333
 30
0.0
 10
90.70540226682018
 20
-150.8390271975333
 30
0.0
 10
90.70540226682018
 20
-150.8390271975333
 30
0.0
 10
90.70540226682018
 20
-150.9575384822259
 30
0.0
 10
90.70540226682018
 20
-150.9575384822259
 30
0.0
 10
90.70540226682018
 20
-150.9575384822259
 30
0.0
 10
90.8788628245025
 20
-150.9575384822259
 30
0.0
 10
90.8788628245025
 20
-150.9575384822259
 30
0.0
 10
91.04181584095483
 20
-150.9575384822259
 30
0.0
 10
91.23215736651488
 20
-150.9575384822259
 30
0.0
 10
91.38873695631948
 20
-150.9472031957701
 30
0.0
 10
91.38873695631948
 20
-150.9472031957701
 30
0.0
 10
91.38873695631948
 20
-151.1184244413871
 30
0.0
 10
91.38873695631948
 20
-151.1184244413871
 30
0.0
 10
91.1792751508163
 20
-151.1098117026739
 30
0.0
 10
90.98256019860853
 20
-151.1077446453828
 30
0.0
 10
90.8788628245025
 20
-151.1077446453828
 30
0.0
 10
90.8788628245025
 20
-151.1077446453828
 30
0.0
 10
90.70540226682018
 20
-151.1077446453828
 30
0.0
 10
90.70540226682018
 20
-151.1077446453828
 30
0.0
 10
90.70540226682018
 20
-151.1077446453828
 30
0.0
 10
90.70540226682018
 20
-151.2155761340711
 30
0.0
 10
90.70540226682018
 20
-151.2155761340711
 30
0.0
 10
90.70540226682018
 20
-151.2155761340711
 30
0.0
 10
90.93605140955766
 20
-151.2155761340711
 30
0.0
 10
90.93605140955766
 20
-151.2155761340711
 30
0.0
 10
91.06937660483684
 20
-151.2155761340711
 30
0.0
 10
91.35704207785519
 20
-151.2114420194888
 30
0.0
 10
91.56650388335838
 20
-151.2052408476153
 30
0.0
 10
91.56650388335838
 20
-151.2052408476153
 30
0.0
 10
91.56650388335838
 20
-151.3826632651057
 30
0.0
 10
91.56650388335838
 20
-151.3826632651057
 30
0.0
 10
91.37392304573291
 20
-151.3764620932323
 30
0.0
 10
91.0607638661237
 20
-151.37232797865
 30
0.0
 10
90.93605140955766
 20
-151.37232797865
 30
0.0
  0
HATCH
  5
141
330
135
100
AcDbEntity
  8
レイヤー 1
 62
    18
420
        0
440
 33554687
100
AcDbHatch
 10
0.0
 20
0.0
 30
0.0
210
0.0
220
0.0
230
1.0
  2
SOLID
 70
     1
 71
     1
 91
        4
 92
        1
 93
        1
 72
     4
 94
        3
 73
     0
 74
     0
 95
       17
 96
       13
 40
0.0
 40
0.0
 40
0.0
 40
0.0
 40
1.0
 40
1.0
 40
1.0
 40
2.0
 40
2.0
 40
2.0
 40
3.0
 40
3.0
 40
3.0
 40
4.0
 40
4.0
 40
4.0
 40
4.0
 10
91.10107148330113
 20
-152.104066259717
 10
91.10107148330113
 20
-152.104066259717
 10
90.39448239927638
 20
-152.104066259717
 10
90.39448239927638
 20
-152.104066259717
 10
90.39448239927638
 20
-152.104066259717
 10
90.39448239927638
 20
-152.2184434298273
 10
90.39448239927638
 20
-152.2184434298273
 10
90.39448239927638
 20
-152.2184434298273
 10
91.10107148330113
 20
-152.2184434298273
 10
91.10107148330113
 20
-152.2184434298273
 10
91.10107148330113
 20
-152.2184434298273
 10
91.10107148330113
 20
-152.104066259717
 10
91.10107148330113
 20
-152.104066259717
 97
        0
 97
        1
330
13D
 92
        1
 93
        1
 72
     4
 94
        3
 73
     0
 74
     0
 95
       17
 96
       13
 40
0.0
 40
0.0
 40
0.0
 40
0.0
 40
1.0
 40
1.0
 40
1.0
 40
2.0
 40
2.0
 40
2.0
 40
3.0
 40
3.0
 40
3.0
 40
4.0
 40
4.0
 40
4.0
 40
4.0
 10
91.10107148330113
 20
-151.8608425184584
 10
91.10107148330113
 20
-151.8608425184584
 10
90.39448239927638
 20
-151.8608425184584
 10
90.39448239927638
 20
-151.8608425184584
 10
90.39448239927638
 20
-151.8608425184584
 10
90.39448239927638
 20
-151.9752196885687
 10
90.39448239927638
 20
-151.9752196885687
 10
90.39448239927638
 20
-151.9752196885687
 10
91.10107148330113
 20
-151.9752196885687
 10
91.10107148330113
 20
-151.9752196885687
 10
91.10107148330113
 20
-151.9752196885687
 10
91.10107148330113
 20
-151.8608425184584
 10
91.10107148330113
 20
-151.8608425184584
 97
        0
 97
        1
330
13E
 92
        1
 93
        1
 72
     4
 94
        3
 73
     0
 74
     0
 95
       17
 96
       13
 40
0.0
 40
0.0
 40
0.0
 40
0.0
 40
1.0
 40
1.0
 40
1.0
 40
2.0
 40
2.0
 40
2.0
 40
3.0
 40
3.0
 40
3.0
 40
4.0
 40
4.0
 40
4.0
 40
4.0
 10
91.10107148330113
 20
-151.628298573204
 10
91.10107148330113
 20
-151.628298573204
 10
90.39448239927638
 20
-151.628298573204
 10
90.39448239927638
 20
-151.628298573204
 10
90.39448239927638
 20
-151.628298573204
 10
90.39448239927638
 20
-151.7361300618923
 10
90.39448239927638
 20
-151.7361300618923
 10
90.39448239927638
 20
-151.7361300618923
 10
91.10107148330113
 20
-151.7361300618923
 10
91.10107148330113
 20
-151.7361300618923
 10
91.10107148330113
 20
-151.7361300618923
 10
91.10107148330113
 20
-151.628298573204
 10
91.10107148330113
 20
-151.628298573204
 97
        0
 97
        1
330
13F
 92
        1
 93
        1
 72
     4
 94
        3
 73
     0
 74
     0
 95
      203
 96
      199
 40
0.0
 40
0.0
 40
0.0
 40
0.0
 40
1.0
 40
1.0
 40
1.0
 40
2.0
 40
2.0
 40
2.0
 40
3.0
 40
3.0
 40
3.0
 40
4.0
 40
4.0
 40
4.0
 40
5.0
 40
5.0
 40
5.0
 40
6.0
 40
6.0
 40
6.0
 40
7.0
 40
7.0
 40
7.0
 40
8.0
 40
8.0
 40
8.0
 40
9.0
 40
9.0
 40
9.0
 40
10.0
 40
10.0
 40
10.0
 40
11.0
 40
11.0
 40
11.0
 40
12.0
 40
12.0
 40
12.0
 40
13.0
 40
13.0
 40
13.0
 40
14.0
 40
14.0
 40
14.0
 40
15.0
 40
15.0
 40
15.0
 40
16.0
 40
16.0
 40
16.0
 40
17.0
 40
17.0
 40
17.0
 40
18.0
 40
18.0
 40
18.0
 40
19.0
 40
19.0
 40
19.0
 40
20.0
 40
20.0
 40
20.0
 40
21.0
 40
21.0
 40
21.0
 40
22.0
 40
22.0
 40
22.0
 40
23.0
 40
23.0
 40
23.0
 40
24.0
 40
24.0
 40
24.0
 40
25.0
 40
25.0
 40
25.0
 40
26.0
 40
26.0
 40
26.0
 40
27.0
 40
27.0
 40
27.0
 40
28.0
 40
28.0
 40
28.0
 40
29.0
 40
29.0
 40
29.0
 40
30.0
 40
30.0
 40
30.0
 40
31.0
 40
31.0
 40
31.0
 40
32.0
 40
32.0
 40
32.0
 40
33.0
 40
33.0
 40
33.0
 40
34.0
 40
34.0
 40
34.0
 40
35.0
 40
35.0
 40
35.0
 40
36.0
 40
36.0
 40
36.0
 40
37.0
 40
37.0
 40
37.0
 40
38.0
 40
38.0
 40
38.0
 40
39.0
 40
39.0
 40
39.0
 40
40.0
 40
40.0
 40
40.0
 40
41.0
 40
41.0
 40
41.0
 40
42.0
 40
42.0
 40
42.0
 40
43.0
 40
43.0
 40
43.0
 40
44.0
 40
44.0
 40
44.0
 40
45.0
 40
45.0
 40
45.0
 40
46.0
 40
46.0
 40
46.0
 40
47.0
 40
47.0
 40
47.0
 40
48.0
 40
48.0
 40
48.0
 40
49.0
 40
49.0
 40
49.0
 40
50.0
 40
50.0
 40
50.0
 40
51.0
 40
51.0
 40
51.0
 40
52.0
 40
52.0
 40
52.0
 40
53.0
 40
53.0
 40
53.0
 40
54.0
 40
54.0
 40
54.0
 40
55.0
 40
55.0
 40
55.0
 40
56.0
 40
56.0
 40
56.0
 40
57.0
 40
57.0
 40
57.0
 40
58.0
 40
58.0
 40
58.0
 40
59.0
 40
59.0
 40
59.0
 40
60.0
 40
60.0
 40
60.0
 40
61.0
 40
61.0
 40
61.0
 40
62.0
 40
62.0
 40
62.0
 40
63.0
 40
63.0
 40
63.0
 40
64.0
 40
64.0
 40
64.0
 40
65.0
 40
65.0
 40
65.0
 40
66.0
 40
66.0
 40
66.0
 40
66.0
 10
90.93605140955766
 20
-151.37232797865
 10
90.93605140955766
 20
-151.37232797865
 10
90.37760143139866
 20
-151.37232797865
 10
90.37760143139866
 20
-151.37232797865
 10
90.3669216353944
 20
-151.4167697104097
 10
90.35848115145553
 20
-151.448464588874
 10
90.3457342981601
 20
-151.4863606392117
 10
90.37122800475094
 20
-151.4863606392117
 10
90.38604191533751
 20
-151.4887722060514
 10
90.39241534198522
 20
-151.4887722060514
 10
90.39241534198522
 20
-151.4887722060514
 10
90.58068981025414
 20
-151.4887722060514
 10
90.58068981025414
 20
-151.4887722060514
 10
90.58068981025414
 20
-151.4887722060514
 10
90.95499943472653
 20
-151.4887722060514
 10
90.95499943472653
 20
-151.4887722060514
 10
91.00581459313396
 20
-151.4887722060514
 10
91.28934595157003
 20
-151.476025352756
 10
91.32104083003431
 20
-151.476025352756
 10
91.31897377274318
 20
-151.503586116638
 10
91.31673446067777
 20
-151.5225341418069
 10
91.31673446067777
 20
-151.55216196298
 10
91.31466740338662
 20
-151.5838568414443
 10
91.31466740338662
 20
-151.7192490940146
 10
91.31466740338662
 20
-151.7468098578966
 10
91.31466740338662
 20
-151.7468098578966
 10
91.31466740338662
 20
-151.9921006564464
 10
91.31466740338662
 20
-151.9921006564464
 10
91.31466740338662
 20
-152.0365423882061
 10
91.31897377274318
 20
-152.2332573404139
 10
91.32310788732548
 20
-152.3855305608619
 10
91.32310788732548
 20
-152.3855305608619
 10
91.09676511394455
 20
-152.3855305608619
 10
91.09676511394455
 20
-152.3855305608619
 10
91.09676511394455
 20
-152.3855305608619
 10
91.09900442600997
 20
-152.3517686251065
 10
91.09900442600997
 20
-152.3517686251065
 10
91.09900442600997
 20
-152.3517686251065
 10
90.39654945656753
 20
-152.3517686251065
 10
90.39654945656753
 20
-152.3517686251065
 10
90.39654945656753
 20
-152.3517686251065
 10
90.39861651385868
 20
-152.3855305608619
 10
90.39861651385868
 20
-152.3855305608619
 10
90.39861651385868
 20
-152.3855305608619
 10
90.18071422441662
 20
-152.3855305608619
 10
90.18071422441662
 20
-152.3855305608619
 10
90.18502059377318
 20
-152.3304090330979
 10
90.18502059377318
 20
-152.318006689351
 10
90.19139402042091
 20
-152.2036295192407
 10
90.19346107771205
 20
-152.1760687553587
 10
90.1955281350032
 20
-152.0427435600796
 10
90.1955281350032
 20
-152.0237955349107
 10
90.1955281350032
 20
-152.0237955349107
 10
90.1955281350032
 20
-151.8208794108295
 10
90.1955281350032
 20
-151.8208794108295
 10
90.05600176785058
 20
-152.0703043239616
 10
89.88667532475055
 20
-152.2015624619496
 10
89.7809108933534
 20
-152.2670192761693
 10
89.7809108933534
 20
-152.2670192761693
 10
89.60745033567105
 20
-152.1274929090167
 10
89.60745033567105
 20
-152.1274929090167
 10
89.6963337991905
 20
-152.0768500053835
 10
89.84016653569968
 20
-151.9900335991553
 10
89.97762584556115
 20
-151.7953857042386
 10
90.06874862114601
 20
-151.6682616808329
 10
90.13420543536575
 20
-151.524601199098
 10
90.16813962589546
 20
-151.37232797865
 10
89.93955754044915
 20
-151.3743950359411
 10
89.7597235561191
 20
-151.3805962078146
 10
89.66463892072621
 20
-151.3826632651057
 10
89.66463892072621
 20
-151.3826632651057
 10
89.66463892072621
 20
-151.2052408476153
 10
89.66463892072621
 20
-151.2052408476153
 10
89.86135387293398
 20
-151.2114420194888
 10
90.14488523137002
 20
-151.2155761340711
 10
90.29509139452692
 20
-151.2155761340711
 10
90.29509139452692
 20
-151.2155761340711
 10
90.50868731461241
 20
-151.2155761340711
 10
90.50868731461241
 20
-151.2155761340711
 10
90.50868731461241
 20
-151.2155761340711
 10
90.50868731461241
 20
-151.1077446453828
 10
90.50868731461241
 20
-151.1077446453828
 10
90.50868731461241
 20
-151.1077446453828
 10
90.36278752081209
 20
-151.1077446453828
 10
90.36278752081209
 20
-151.1077446453828
 10
90.19346107771205
 20
-151.1077446453828
 10
90.02430688938629
 20
-151.1118787599651
 10
89.8570475035774
 20
-151.1184244413871
 10
89.8570475035774
 20
-151.1184244413871
 10
89.8570475035774
 20
-150.9472031957701
 10
89.8570475035774
 20
-150.9472031957701
 10
90.01156003609088
 20
-150.9575384822259
 10
90.19776744706861
 20
-150.9575384822259
 10
90.36278752081209
 20
-150.9575384822259
 10
90.36278752081209
 20
-150.9575384822259
 10
90.50868731461241
 20
-150.9575384822259
 10
90.50868731461241
 20
-150.9575384822259
 10
90.50868731461241
 20
-150.9575384822259
 10
90.50868731461241
 20
-150.8390271975333
 10
90.50868731461241
 20
-150.8390271975333
 10
90.50868731461241
 20
-150.8390271975333
 10
90.37760143139866
 20
-150.8390271975333
 10
90.37760143139866
 20
-150.8390271975333
 10
90.33092038757352
 20
-150.8390271975333
 10
90.12783200871805
 20
-150.8476399362464
 10
90.08562958902373
 20
-150.8476399362464
 10
89.88254121016826
 20
-150.8517740508287
 10
89.80640459994424
 20
-150.8538411081199
 10
89.7280286776548
 20
-150.855908165411
 10
89.7280286776548
 20
-150.855908165411
 10
89.7280286776548
 20
-150.6719400664987
 10
89.7280286776548
 20
-150.6719400664987
 10
89.84223359299084
 20
-150.6805528052118
 10
89.88667532475055
 20
-150.6805528052118
 10
90.26959768793608
 20
-150.6888210343764
 10
90.20620793100748
 20
-150.5937363989835
 10
90.17864716712548
 20
-150.5661756351015
 10
90.14264591930462
 20
-150.5303466420549
 10
90.14264591930462
 20
-150.5303466420549
 10
90.31834578905236
 20
-150.4476643504089
 10
90.31834578905236
 20
-150.4476643504089
 10
90.35848115145553
 20
-150.483837853004
 10
90.40292288321523
 20
-150.5262125274726
 10
90.47699243614813
 20
-150.6361110734521
 10
90.47699243614813
 20
-150.6361110734521
 10
90.36278752081209
 20
-150.6912326012161
 10
90.36278752081209
 20
-150.6912326012161
 10
90.36278752081209
 20
-150.6912326012161
 10
90.3732950620421
 20
-150.6912326012161
 10
90.3732950620421
 20
-150.6912326012161
 10
90.3732950620421
 20
-150.6912326012161
 10
90.89574379238023
 20
-150.6912326012161
 10
90.89574379238023
 20
-150.6912326012161
 10
90.89574379238023
 20
-150.6912326012161
 10
90.80065915698734
 20
-150.6467908694563
 10
90.80065915698734
 20
-150.6467908694563
 10
90.82821992086934
 20
-150.6085503095701
 10
90.88523625115021
 20
-150.5282795847637
 10
90.9000501617368
 20
-150.4542100318309
 10
90.9000501617368
 20
-150.4542100318309
 10
91.11364608182228
 20
-150.5175997887595
 10
91.11364608182228
 20
-150.5175997887595
 10
91.12225882053541
 20
-150.5196668460506
 10
91.14327390299543
 20
-150.5303466420549
 10
91.14327390299543
 20
-150.5513617245149
 10
91.14327390299543
 20
-150.5896022844012
 10
91.07781708877569
 20
-150.5896022844012
 10
91.05869680883255
 20
-150.5896022844012
 10
91.04818926760254
 20
-150.6085503095701
 10
91.02493487307709
 20
-150.6488579267475
 10
90.99530705190394
 20
-150.6888210343764
 10
91.39511038296721
 20
-150.6826198625029
 10
91.42473820414036
 20
-150.6805528052118
 10
91.50087481436436
 20
-150.6740071237898
 10
91.50087481436436
 20
-150.6740071237898
 10
91.50087481436436
 20
-150.855908165411
 10
91.50087481436436
 20
-150.855908165411
 10
91.48175453442123
 20
-150.855908165411
 10
91.45643308260465
 20
-150.8538411081199
 10
91.23646373587144
 20
-150.8455728789552
 10
91.18564857746401
 20
-150.8435058216641
 10
90.96567923073079
 20
-150.8390271975333
 10
90.92123749897108
 20
-150.8390271975333
 10
90.92123749897108
 20
-150.8390271975333
 10
90.70540226682018
 20
-150.8390271975333
 10
90.70540226682018
 20
-150.8390271975333
 10
90.70540226682018
 20
-150.8390271975333
 10
90.70540226682018
 20
-150.9575384822259
 10
90.70540226682018
 20
-150.9575384822259
 10
90.70540226682018
 20
-150.9575384822259
 10
90.8788628245025
 20
-150.9575384822259
 10
90.8788628245025
 20
-150.9575384822259
 10
91.04181584095483
 20
-150.9575384822259
 10
91.23215736651488
 20
-150.9575384822259
 10
91.38873695631948
 20
-150.9472031957701
 10
91.38873695631948
 20
-150.9472031957701
 10
91.38873695631948
 20
-151.1184244413871
 10
91.38873695631948
 20
-151.1184244413871
 10
91.1792751508163
 20
-151.1098117026739
 10
90.98256019860853
 20
-151.1077446453828
 10
90.8788628245025
 20
-151.1077446453828
 10
90.8788628245025
 20
-151.1077446453828
 10
90.70540226682018
 20
-151.1077446453828
 10
90.70540226682018
 20
-151.1077446453828
 10
90.70540226682018
 20
-151.1077446453828
 10
90.70540226682018
 20
-151.2155761340711
 10
90.70540226682018
 20
-151.2155761340711
 10
90.70540226682018
 20
-151.2155761340711
 10
90.93605140955766
 20
-151.2155761340711
 10
90.93605140955766
 20
-151.2155761340711
 10
91.06937660483684
 20
-151.2155761340711
 10
91.35704207785519
 20
-151.2114420194888
 10
91.56650388335838
 20
-151.2052408476153
 10
91.56650388335838
 20
-151.2052408476153
 10
91.56650388335838
 20
-151.3826632651057
 10
91.56650388335838
 20
-151.3826632651057
 10
91.37392304573291
 20
-151.3764620932323
 10
91.0607638661237
 20
-151.37232797865
 10
90.93605140955766
 20
-151.37232797865
 97
        0
 97
        1
330
140
 75
     2
 76
     1
 98
        1
 10
0.0
 20
0.0
450
        0
451
        0
460
0.0
461
0.0
452
        0
462
0.0
453
        0
470

  0
SPLINE
  5
142
330
135
100
AcDbEntity
  8
レイヤー 1
100
AcDbSpline
210
0.0
220
0.0
230
1.0
 70
     9
 71
     3
 72
    29
 73
    25
 74
     0
 42
0.0000000001
 43
0.0000000001
 40
0.0
 40
0.0
 40
0.0
 40
0.0
 40
1.0
 40
1.0
 40
1.0
 40
2.0
 40
2.0
 40
2.0
 40
3.0
 40
3.0
 40
3.0
 40
4.0
 40
4.0
 40
4.0
 40
5.0
 40
5.0
 40
5.0
 40
6.0
 40
6.0
 40
6.0
 40
7.0
 40
7.0
 40
7.0
 40
8.0
 40
8.0
 40
8.0
 40
8.0
 10
92.81156139172766
 20
-150.8200791723644
 30
0.0
 10
92.81156139172766
 20
-150.8200791723644
 30
0.0
 10
92.45826684971531
 20
-150.8200791723644
 30
0.0
 10
92.45826684971531
 20
-150.8200791723644
 30
0.0
 10
92.34612899167041
 20
-150.8200791723644
 30
0.0
 10
92.20643036974353
 20
-150.8262803442379
 30
0.0
 10
92.09859888105521
 20
-150.8390271975333
 30
0.0
 10
92.09859888105521
 20
-150.8390271975333
 30
0.0
 10
92.09859888105521
 20
-150.6044161949878
 30
0.0
 10
92.09859888105521
 20
-150.6044161949878
 30
0.0
 10
92.21711016574781
 20
-150.6192301055743
 30
0.0
 10
92.40107826466015
 20
-150.6233642201566
 30
0.0
 10
92.45826684971531
 20
-150.6233642201566
 30
0.0
 10
92.45826684971531
 20
-150.6233642201566
 30
0.0
 10
92.81156139172766
 20
-150.6233642201566
 30
0.0
 10
92.81156139172766
 20
-150.6233642201566
 30
0.0
 10
92.83050941689655
 20
-150.6233642201566
 30
0.0
 10
93.03359779575201
 20
-150.6233642201566
 30
0.0
 10
93.17536347497005
 20
-150.6044161949878
 30
0.0
 10
93.17536347497005
 20
-150.6044161949878
 30
0.0
 10
93.17536347497005
 20
-150.8390271975333
 30
0.0
 10
93.17536347497005
 20
-150.8390271975333
 30
0.0
 10
93.01878388516545
 20
-150.8200791723644
 30
0.0
 10
92.82844235960538
 20
-150.8200791723644
 30
0.0
 10
92.81156139172766
 20
-150.8200791723644
 30
0.0
  0
SPLINE
  5
143
330
135
100
AcDbEntity
  8
レイヤー 1
100
AcDbSpline
210
0.0
220
0.0
230
1.0
 70
     9
 71
     3
 72
    47
 73
    43
 74
     0
 42
0.0000000001
 43
0.0000000001
 40
0.0
 40
0.0
 40
0.0
 40
0.0
 40
1.0
 40
1.0
 40
1.0
 40
2.0
 40
2.0
 40
2.0
 40
3.0
 40
3.0
 40
3.0
 40
4.0
 40
4.0
 40
4.0
 40
5.0
 40
5.0
 40
5.0
 40
6.0
 40
6.0
 40
6.0
 40
7.0
 40
7.0
 40
7.0
 40
8.0
 40
8.0
 40
8.0
 40
9.0
 40
9.0
 40
9.0
 40
10.0
 40
10.0
 40
10.0
 40
11.0
 40
11.0
 40
11.0
 40
12.0
 40
12.0
 40
12.0
 40
13.0
 40
13.0
 40
13.0
 40
14.0
 40
14.0
 40
14.0
 40
14.0
 10
92.91301945376828
 20
-151.3489013293503
 30
0.0
 10
92.91301945376828
 20
-151.3489013293503
 30
0.0
 10
92.81156139172766
 20
-151.3489013293503
 30
0.0
 10
92.81156139172766
 20
-151.3489013293503
 30
0.0
 10
92.81156139172766
 20
-151.4357177355786
 30
0.0
 10
92.79037405449338
 20
-151.8250135254118
 30
0.0
 10
92.59365910228561
 20
-152.0451551269192
 30
0.0
 10
92.4412136270633
 20
-152.214309315245
 30
0.0
 10
92.23399113362553
 20
-152.2839002440471
 30
0.0
 10
92.14941403946266
 20
-152.3114610079291
 30
0.0
 10
92.14941403946266
 20
-152.3114610079291
 30
0.0
 10
91.95476614454603
 20
-152.1443738768944
 30
0.0
 10
91.95476614454603
 20
-152.1443738768944
 30
0.0
 10
92.05209009200435
 20
-152.131627023599
 30
0.0
 10
92.22761770697783
 20
-152.1085448838479
 30
0.0
 10
92.41589217524673
 20
-151.9200981608047
 30
0.0
 10
92.48996172817959
 20
-151.848095665163
 30
0.0
 10
92.59365910228561
 20
-151.7085692980103
 30
0.0
 10
92.59365910228561
 20
-151.3489013293503
 30
0.0
 10
92.59365910228561
 20
-151.3489013293503
 30
0.0
 10
92.36300995954813
 20
-151.3489013293503
 30
0.0
 10
92.36300995954813
 20
-151.3489013293503
 30
0.0
 10
92.1768025485704
 20
-151.3489013293503
 30
0.0
 10
91.99059513759264
 20
-151.3533799534811
 30
0.0
 10
91.80455998138915
 20
-151.3678493545191
 30
0.0
 10
91.80455998138915
 20
-151.3678493545191
 30
0.0
 10
91.80455998138915
 20
-151.1480522625602
 30
0.0
 10
91.80455998138915
 20
-151.1480522625602
 30
0.0
 10
91.99283444965805
 20
-151.1628661731468
 30
0.0
 10
92.27843286538526
 20
-151.1670002877291
 30
0.0
 10
92.36300995954813
 20
-151.1670002877291
 30
0.0
 10
92.36300995954813
 20
-151.1670002877291
 30
0.0
 10
92.91301945376828
 20
-151.1670002877291
 30
0.0
 10
92.91301945376828
 20
-151.1670002877291
 30
0.0
 10
92.93213973371141
 20
-151.1670002877291
 30
0.0
 10
93.24943302790293
 20
-151.1670002877291
 30
0.0
 10
93.47784285857498
 20
-151.1480522625602
 30
0.0
 10
93.47784285857498
 20
-151.1480522625602
 30
0.0
 10
93.47784285857498
 20
-151.3678493545191
 30
0.0
 10
93.47784285857498
 20
-151.3678493545191
 30
0.0
 10
93.28956839030608
 20
-151.3533799534811
 30
0.0
 10
93.10129392203718
 20
-151.3489013293503
 30
0.0
 10
92.91301945376828
 20
-151.3489013293503
 30
0.0
  0
HATCH
  5
144
330
135
100
AcDbEntity
  8
レイヤー 1
 62
    18
420
        0
440
 33554687
100
AcDbHatch
 10
0.0
 20
0.0
 30
0.0
210
0.0
220
0.0
230
1.0
  2
SOLID
 70
     1
 71
     1
 91
        2
 92
        1
 93
        1
 72
     4
 94
        3
 73
     0
 74
     0
 95
       29
 96
       25
 40
0.0
 40
0.0
 40
0.0
 40
0.0
 40
1.0
 40
1.0
 40
1.0
 40
2.0
 40
2.0
 40
2.0
 40
3.0
 40
3.0
 40
3.0
 40
4.0
 40
4.0
 40
4.0
 40
5.0
 40
5.0
 40
5.0
 40
6.0
 40
6.0
 40
6.0
 40
7.0
 40
7.0
 40
7.0
 40
8.0
 40
8.0
 40
8.0
 40
8.0
 10
92.81156139172766
 20
-150.8200791723644
 10
92.81156139172766
 20
-150.8200791723644
 10
92.45826684971531
 20
-150.8200791723644
 10
92.45826684971531
 20
-150.8200791723644
 10
92.34612899167041
 20
-150.8200791723644
 10
92.20643036974353
 20
-150.8262803442379
 10
92.09859888105521
 20
-150.8390271975333
 10
92.09859888105521
 20
-150.8390271975333
 10
92.09859888105521
 20
-150.6044161949878
 10
92.09859888105521
 20
-150.6044161949878
 10
92.21711016574781
 20
-150.6192301055743
 10
92.40107826466015
 20
-150.6233642201566
 10
92.45826684971531
 20
-150.6233642201566
 10
92.45826684971531
 20
-150.6233642201566
 10
92.81156139172766
 20
-150.6233642201566
 10
92.81156139172766
 20
-150.6233642201566
 10
92.83050941689655
 20
-150.6233642201566
 10
93.03359779575201
 20
-150.6233642201566
 10
93.17536347497005
 20
-150.6044161949878
 10
93.17536347497005
 20
-150.6044161949878
 10
93.17536347497005
 20
-150.8390271975333
 10
93.17536347497005
 20
-150.8390271975333
 10
93.01878388516545
 20
-150.8200791723644
 10
92.82844235960538
 20
-150.8200791723644
 10
92.81156139172766
 20
-150.8200791723644
 97
        0
 97
        1
330
142
 92
        1
 93
        1
 72
     4
 94
        3
 73
     0
 74
     0
 95
       47
 96
       43
 40
0.0
 40
0.0
 40
0.0
 40
0.0
 40
1.0
 40
1.0
 40
1.0
 40
2.0
 40
2.0
 40
2.0
 40
3.0
 40
3.0
 40
3.0
 40
4.0
 40
4.0
 40
4.0
 40
5.0
 40
5.0
 40
5.0
 40
6.0
 40
6.0
 40
6.0
 40
7.0
 40
7.0
 40
7.0
 40
8.0
 40
8.0
 40
8.0
 40
9.0
 40
9.0
 40
9.0
 40
10.0
 40
10.0
 40
10.0
 40
11.0
 40
11.0
 40
11.0
 40
12.0
 40
12.0
 40
12.0
 40
13.0
 40
13.0
 40
13.0
 40
14.0
 40
14.0
 40
14.0
 40
14.0
 10
92.91301945376828
 20
-151.3489013293503
 10
92.91301945376828
 20
-151.3489013293503
 10
92.81156139172766
 20
-151.3489013293503
 10
92.81156139172766
 20
-151.3489013293503
 10
92.81156139172766
 20
-151.4357177355786
 10
92.79037405449338
 20
-151.8250135254118
 10
92.59365910228561
 20
-152.0451551269192
 10
92.4412136270633
 20
-152.214309315245
 10
92.23399113362553
 20
-152.2839002440471
 10
92.14941403946266
 20
-152.3114610079291
 10
92.14941403946266
 20
-152.3114610079291
 10
91.95476614454603
 20
-152.1443738768944
 10
91.95476614454603
 20
-152.1443738768944
 10
92.05209009200435
 20
-152.131627023599
 10
92.22761770697783
 20
-152.1085448838479
 10
92.41589217524673
 20
-151.9200981608047
 10
92.48996172817959
 20
-151.848095665163
 10
92.59365910228561
 20
-151.7085692980103
 10
92.59365910228561
 20
-151.3489013293503
 10
92.59365910228561
 20
-151.3489013293503
 10
92.36300995954813
 20
-151.3489013293503
 10
92.36300995954813
 20
-151.3489013293503
 10
92.1768025485704
 20
-151.3489013293503
 10
91.99059513759264
 20
-151.3533799534811
 10
91.80455998138915
 20
-151.3678493545191
 10
91.80455998138915
 20
-151.3678493545191
 10
91.80455998138915
 20
-151.1480522625602
 10
91.80455998138915
 20
-151.1480522625602
 10
91.99283444965805
 20
-151.1628661731468
 10
92.27843286538526
 20
-151.1670002877291
 10
92.36300995954813
 20
-151.1670002877291
 10
92.36300995954813
 20
-151.1670002877291
 10
92.91301945376828
 20
-151.1670002877291
 10
92.91301945376828
 20
-151.1670002877291
 10
92.93213973371141
 20
-151.1670002877291
 10
93.24943302790293
 20
-151.1670002877291
 10
93.47784285857498
 20
-151.1480522625602
 10
93.47784285857498
 20
-151.1480522625602
 10
93.47784285857498
 20
-151.3678493545191
 10
93.47784285857498
 20
-151.3678493545191
 10
93.28956839030608
 20
-151.3533799534811
 10
93.10129392203718
 20
-151.3489013293503
 10
92.91301945376828
 20
-151.3489013293503
 97
        0
 97
        1
330
143
 75
     2
 76
     1
 98
        1
 10
0.0
 20
0.0
450
        0
451
        0
460
0.0
461
0.0
452
        0
462
0.0
453
        0
470

  0
SPLINE
  5
145
330
135
100
AcDbEntity
  8
レイヤー 1
100
AcDbSpline
210
0.0
220
0.0
230
1.0
 70
     9
 71
     3
 72
    29
 73
    25
 74
     0
 42
0.0000000001
 43
0.0000000001
 40
0.0
 40
0.0
 40
0.0
 40
0.0
 40
1.0
 40
1.0
 40
1.0
 40
2.0
 40
2.0
 40
2.0
 40
3.0
 40
3.0
 40
3.0
 40
4.0
 40
4.0
 40
4.0
 40
5.0
 40
5.0
 40
5.0
 40
6.0
 40
6.0
 40
6.0
 40
7.0
 40
7.0
 40
7.0
 40
8.0
 40
8.0
 40
8.0
 40
8.0
 10
94.75872935999088
 20
-151.5118543458026
 30
0.0
 10
94.75872935999088
 20
-151.5118543458026
 30
0.0
 10
94.27434893476474
 20
-151.5118543458026
 30
0.0
 10
94.27434893476474
 20
-151.5118543458026
 30
0.0
 10
94.24678817088276
 20
-151.5118543458026
 30
0.0
 10
93.92949487669124
 20
-151.5118543458026
 30
0.0
 10
93.71796601389689
 20
-151.5373480523934
 30
0.0
 10
93.71796601389689
 20
-151.5373480523934
 30
0.0
 10
93.71796601389689
 20
-151.3065266548817
 30
0.0
 10
93.71796601389689
 20
-151.3065266548817
 30
0.0
 10
93.87661266099266
 20
-151.3299533041814
 30
0.0
 10
94.06695418655271
 20
-151.3320203614725
 30
0.0
 10
94.27434893476474
 20
-151.3320203614725
 30
0.0
 10
94.27434893476474
 20
-151.3320203614725
 30
0.0
 10
94.75872935999088
 20
-151.3320203614725
 30
0.0
 10
94.75872935999088
 20
-151.3320203614725
 30
0.0
 10
94.94493677096862
 20
-151.3320203614725
 30
0.0
 10
95.13114418194637
 20
-151.3299533041814
 30
0.0
 10
95.31511228085873
 20
-151.3065266548817
 30
0.0
 10
95.31511228085873
 20
-151.3065266548817
 30
0.0
 10
95.31511228085873
 20
-151.5373480523934
 30
0.0
 10
95.31511228085873
 20
-151.5373480523934
 30
0.0
 10
95.13114418194637
 20
-151.5139214030937
 30
0.0
 10
94.88361407133117
 20
-151.5118543458026
 30
0.0
 10
94.75872935999088
 20
-151.5118543458026
 30
0.0
  0
HATCH
  5
146
330
135
100
AcDbEntity
  8
レイヤー 1
 62
    18
420
        0
440
 33554687
100
AcDbHatch
 10
0.0
 20
0.0
 30
0.0
210
0.0
220
0.0
230
1.0
  2
SOLID
 70
     1
 71
     1
 91
        1
 92
        1
 93
        1
 72
     4
 94
        3
 73
     0
 74
     0
 95
       29
 96
       25
 40
0.0
 40
0.0
 40
0.0
 40
0.0
 40
1.0
 40
1.0
 40
1.0
 40
2.0
 40
2.0
 40
2.0
 40
3.0
 40
3.0
 40
3.0
 40
4.0
 40
4.0
 40
4.0
 40
5.0
 40
5.0
 40
5.0
 40
6.0
 40
6.0
 40
6.0
 40
7.0
 40
7.0
 40
7.0
 40
8.0
 40
8.0
 40
8.0
 40
8.0
 10
94.75872935999088
 20
-151.5118543458026
 10
94.75872935999088
 20
-151.5118543458026
 10
94.27434893476474
 20
-151.5118543458026
 10
94.27434893476474
 20
-151.5118543458026
 10
94.24678817088276
 20
-151.5118543458026
 10
93.92949487669124
 20
-151.5118543458026
 10
93.71796601389689
 20
-151.5373480523934
 10
93.71796601389689
 20
-151.5373480523934
 10
93.71796601389689
 20
-151.3065266548817
 10
93.71796601389689
 20
-151.3065266548817
 10
93.87661266099266
 20
-151.3299533041814
 10
94.06695418655271
 20
-151.3320203614725
 10
94.27434893476474
 20
-151.3320203614725
 10
94.27434893476474
 20
-151.3320203614725
 10
94.75872935999088
 20
-151.3320203614725
 10
94.75872935999088
 20
-151.3320203614725
 10
94.94493677096862
 20
-151.3320203614725
 10
95.13114418194637
 20
-151.3299533041814
 10
95.31511228085873
 20
-151.3065266548817
 10
95.31511228085873
 20
-151.3065266548817
 10
95.31511228085873
 20
-151.5373480523934
 10
95.31511228085873
 20
-151.5373480523934
 10
95.13114418194637
 20
-151.5139214030937
 10
94.88361407133117
 20
-151.5118543458026
 10
94.75872935999088
 20
-151.5118543458026
 97
        0
 97
        1
330
145
 75
     2
 76
     1
 98
        1
 10
0.0
 20
0.0
450
        0
451
        0
460
0.0
461
0.0
452
        0
462
0.0
453
        0
470

  0
SPLINE
  5
147
330
135
100
AcDbEntity
  8
レイヤー 1
100
AcDbSpline
210
0.0
220
0.0
230
1.0
 70
     9
 71
     3
 72
    47
 73
    43
 74
     0
 42
0.0000000001
 43
0.0000000001
 40
0.0
 40
0.0
 40
0.0
 40
0.0
 40
1.0
 40
1.0
 40
1.0
 40
2.0
 40
2.0
 40
2.0
 40
3.0
 40
3.0
 40
3.0
 40
4.0
 40
4.0
 40
4.0
 40
5.0
 40
5.0
 40
5.0
 40
6.0
 40
6.0
 40
6.0
 40
7.0
 40
7.0
 40
7.0
 40
8.0
 40
8.0
 40
8.0
 40
9.0
 40
9.0
 40
9.0
 40
10.0
 40
10.0
 40
10.0
 40
11.0
 40
11.0
 40
11.0
 40
12.0
 40
12.0
 40
12.0
 40
13.0
 40
13.0
 40
13.0
 40
14.0
 40
14.0
 40
14.0
 40
14.0
 10
96.97892114546014
 20
-150.917575374597
 30
0.0
 10
96.90915796188383
 20
-151.1966281089022
 30
0.0
 10
96.8330213516598
 20
-151.5011745497983
 30
0.0
 10
96.5198621720506
 20
-151.8332817545764
 30
0.0
 10
96.28301185743968
 20
-152.083051177257
 30
0.0
 10
96.03754880411562
 20
-152.1826144367807
 30
0.0
 10
95.93178437271845
 20
-152.2246446017008
 30
0.0
 10
95.93178437271845
 20
-152.2246446017008
 30
0.0
 10
95.73713647780182
 20
-152.0427435600796
 30
0.0
 10
95.73713647780182
 20
-152.0427435600796
 30
0.0
 10
95.92334388877958
 20
-151.9962347710287
 30
0.0
 10
96.28507891473082
 20
-151.903217192927
 30
0.0
 10
96.58118487168804
 20
-151.4081569716966
 30
0.0
 10
96.74207083084922
 20
-151.1415065811382
 30
0.0
 10
96.75464542937037
 20
-150.9682182782302
 30
0.0
 10
96.76325816808351
 20
-150.8772677574196
 30
0.0
 10
96.76325816808351
 20
-150.8772677574196
 30
0.0
 10
96.25751815084882
 20
-150.8772677574196
 30
0.0
 10
96.25751815084882
 20
-150.8772677574196
 30
0.0
 10
96.1391791209305
 20
-150.8772677574196
 30
0.0
 10
95.71818845263296
 20
-150.8962157825884
 30
0.0
 10
95.56574297741065
 20
-150.9068955785927
 30
0.0
 10
95.56574297741065
 20
-150.9068955785927
 30
0.0
 10
95.56574297741065
 20
-150.6974337730895
 30
0.0
 10
95.56574297741065
 20
-150.6974337730895
 30
0.0
 10
95.70750865662867
 20
-150.7101806263849
 30
0.0
 10
95.98466658841703
 20
-150.7143147409673
 30
0.0
 10
96.10111081581848
 20
-150.7143147409673
 30
0.0
 10
96.10111081581848
 20
-150.7143147409673
 30
0.0
 10
96.456472415122
 20
-150.7143147409673
 30
0.0
 10
96.456472415122
 20
-150.7143147409673
 30
0.0
 10
96.48386092422974
 20
-150.7143147409673
 30
0.0
 10
96.6447468833909
 20
-150.7122476836761
 30
0.0
 10
96.75464542937037
 20
-150.6974337730895
 30
0.0
 10
96.81183401442552
 20
-150.6912326012161
 30
0.0
 10
96.82871498230325
 20
-150.6719400664987
 30
0.0
 10
96.85196937682867
 20
-150.6488579267475
 30
0.0
 10
96.85196937682867
 20
-150.6488579267475
 30
0.0
 10
97.04024384509757
 20
-150.7990640899044
 30
0.0
 10
97.04024384509757
 20
-150.7990640899044
 30
0.0
 10
97.02542993451102
 20
-150.8286919110775
 30
0.0
 10
97.014922393281
 20
-150.8476399362464
 30
0.0
 10
96.97892114546014
 20
-150.917575374597
 30
0.0
  0
HATCH
  5
148
330
135
100
AcDbEntity
  8
レイヤー 1
 62
    18
420
        0
440
 33554687
100
AcDbHatch
 10
0.0
 20
0.0
 30
0.0
210
0.0
220
0.0
230
1.0
  2
SOLID
 70
     1
 71
     1
 91
        1
 92
        1
 93
        1
 72
     4
 94
        3
 73
     0
 74
     0
 95
       47
 96
       43
 40
0.0
 40
0.0
 40
0.0
 40
0.0
 40
1.0
 40
1.0
 40
1.0
 40
2.0
 40
2.0
 40
2.0
 40
3.0
 40
3.0
 40
3.0
 40
4.0
 40
4.0
 40
4.0
 40
5.0
 40
5.0
 40
5.0
 40
6.0
 40
6.0
 40
6.0
 40
7.0
 40
7.0
 40
7.0
 40
8.0
 40
8.0
 40
8.0
 40
9.0
 40
9.0
 40
9.0
 40
10.0
 40
10.0
 40
10.0
 40
11.0
 40
11.0
 40
11.0
 40
12.0
 40
12.0
 40
12.0
 40
13.0
 40
13.0
 40
13.0
 40
14.0
 40
14.0
 40
14.0
 40
14.0
 10
96.97892114546014
 20
-150.917575374597
 10
96.90915796188383
 20
-151.1966281089022
 10
96.8330213516598
 20
-151.5011745497983
 10
96.5198621720506
 20
-151.8332817545764
 10
96.28301185743968
 20
-152.083051177257
 10
96.03754880411562
 20
-152.1826144367807
 10
95.93178437271845
 20
-152.2246446017008
 10
95.93178437271845
 20
-152.2246446017008
 10
95.73713647780182
 20
-152.0427435600796
 10
95.73713647780182
 20
-152.0427435600796
 10
95.92334388877958
 20
-151.9962347710287
 10
96.28507891473082
 20
-151.903217192927
 10
96.58118487168804
 20
-151.4081569716966
 10
96.74207083084922
 20
-151.1415065811382
 10
96.75464542937037
 20
-150.9682182782302
 10
96.76325816808351
 20
-150.8772677574196
 10
96.76325816808351
 20
-150.8772677574196
 10
96.25751815084882
 20
-150.8772677574196
 10
96.25751815084882
 20
-150.8772677574196
 10
96.1391791209305
 20
-150.8772677574196
 10
95.71818845263296
 20
-150.8962157825884
 10
95.56574297741065
 20
-150.9068955785927
 10
95.56574297741065
 20
-150.9068955785927
 10
95.56574297741065
 20
-150.6974337730895
 10
95.56574297741065
 20
-150.6974337730895
 10
95.70750865662867
 20
-150.7101806263849
 10
95.98466658841703
 20
-150.7143147409673
 10
96.10111081581848
 20
-150.7143147409673
 10
96.10111081581848
 20
-150.7143147409673
 10
96.456472415122
 20
-150.7143147409673
 10
96.456472415122
 20
-150.7143147409673
 10
96.48386092422974
 20
-150.7143147409673
 10
96.6447468833909
 20
-150.7122476836761
 10
96.75464542937037
 20
-150.6974337730895
 10
96.81183401442552
 20
-150.6912326012161
 10
96.82871498230325
 20
-150.6719400664987
 10
96.85196937682867
 20
-150.6488579267475
 10
96.85196937682867
 20
-150.6488579267475
 10
97.04024384509757
 20
-150.7990640899044
 10
97.04024384509757
 20
-150.7990640899044
 10
97.02542993451102
 20
-150.8286919110775
 10
97.014922393281
 20
-150.8476399362464
 10
96.97892114546014
 20
-150.917575374597
 97
        0
 97
        1
330
147
 75
     2
 76
     1
 98
        1
 10
0.0
 20
0.0
450
        0
451
        0
460
0.0
461
0.0
452
        0
462
0.0
453
        0
470

  0
SPLINE
  5
149
330
135
100
AcDbEntity
  8
レイヤー 1
100
AcDbSpline
210
0.0
220
0.0
230
1.0
 70
    11
 71
     3
 72
    17
 73
    13
 74
     0
 42
0.0000000001
 43
0.0000000001
 40
0.0
 40
0.0
 40
0.0
 40
0.0
 40
1.0
 40
1.0
 40
1.0
 40
2.0
 40
2.0
 40
2.0
 40
3.0
 40
3.0
 40
3.0
 40
4.0
 40
4.0
 40
4.0
 40
4.0
 10
97.36925046393894
 20
-150.6995008303807
 30
0.0
 10
97.36925046393894
 20
-150.758756472727
 30
0.0
 10
97.41575925298981
 20
-150.8052652617778
 30
0.0
 10
97.47501489533611
 20
-150.8052652617778
 30
0.0
 10
97.53427053768241
 20
-150.8052652617778
 30
0.0
 10
97.58284638402443
 20
-150.758756472727
 30
0.0
 10
97.58284638402443
 20
-150.6995008303807
 30
0.0
 10
97.58284638402443
 20
-150.6402451880344
 30
0.0
 10
97.53427053768241
 20
-150.5916693416924
 30
0.0
 10
97.47501489533611
 20
-150.5916693416924
 30
0.0
 10
97.41575925298981
 20
-150.5916693416924
 30
0.0
 10
97.36925046393894
 20
-150.6402451880344
 30
0.0
 10
97.36925046393894
 20
-150.6995008303807
 30
0.0
  0
SPLINE
  5
14A
330
135
100
AcDbEntity
  8
レイヤー 1
100
AcDbSpline
210
0.0
220
0.0
230
1.0
 70
     9
 71
     3
 72
    17
 73
    13
 74
     0
 42
0.0000000001
 43
0.0000000001
 40
0.0
 40
0.0
 40
0.0
 40
0.0
 40
1.0
 40
1.0
 40
1.0
 40
2.0
 40
2.0
 40
2.0
 40
3.0
 40
3.0
 40
3.0
 40
4.0
 40
4.0
 40
4.0
 40
4.0
 10
97.68447670083929
 20
-150.6995008303807
 30
0.0
 10
97.68447670083929
 20
-150.813878000491
 30
0.0
 10
97.5912868679633
 20
-150.9089626358839
 30
0.0
 10
97.47501489533611
 20
-150.9089626358839
 30
0.0
 10
97.36080998000009
 20
-150.9089626358839
 30
0.0
 10
97.26555308983293
 20
-150.813878000491
 30
0.0
 10
97.26555308983293
 20
-150.6995008303807
 30
0.0
 10
97.26555308983293
 20
-150.5830566029792
 30
0.0
 10
97.36080998000009
 20
-150.4900390248775
 30
0.0
 10
97.47501489533611
 20
-150.4900390248775
 30
0.0
 10
97.58921981067215
 20
-150.4900390248775
 30
0.0
 10
97.68447670083929
 20
-150.5830566029792
 30
0.0
 10
97.68447670083929
 20
-150.6995008303807
 30
0.0
  0
HATCH
  5
14B
330
135
100
AcDbEntity
  8
レイヤー 1
 62
    18
420
        0
440
 33554687
100
AcDbHatch
 10
0.0
 20
0.0
 30
0.0
210
0.0
220
0.0
230
1.0
  2
SOLID
 70
     1
 71
     1
 91
        2
 92
        1
 93
        1
 72
     4
 94
        3
 73
     0
 74
     0
 95
       17
 96
       13
 40
0.0
 40
0.0
 40
0.0
 40
0.0
 40
1.0
 40
1.0
 40
1.0
 40
2.0
 40
2.0
 40
2.0
 40
3.0
 40
3.0
 40
3.0
 40
4.0
 40
4.0
 40
4.0
 40
4.0
 10
97.36925046393894
 20
-150.6995008303807
 10
97.36925046393894
 20
-150.758756472727
 10
97.41575925298981
 20
-150.8052652617778
 10
97.47501489533611
 20
-150.8052652617778
 10
97.53427053768241
 20
-150.8052652617778
 10
97.58284638402443
 20
-150.758756472727
 10
97.58284638402443
 20
-150.6995008303807
 10
97.58284638402443
 20
-150.6402451880344
 10
97.53427053768241
 20
-150.5916693416924
 10
97.47501489533611
 20
-150.5916693416924
 10
97.41575925298981
 20
-150.5916693416924
 10
97.36925046393894
 20
-150.6402451880344
 10
97.36925046393894
 20
-150.6995008303807
 97
        0
 97
        1
330
149
 92
        1
 93
        1
 72
     4
 94
        3
 73
     0
 74
     0
 95
       17
 96
       13
 40
0.0
 40
0.0
 40
0.0
 40
0.0
 40
1.0
 40
1.0
 40
1.0
 40
2.0
 40
2.0
 40
2.0
 40
3.0
 40
3.0
 40
3.0
 40
4.0
 40
4.0
 40
4.0
 40
4.0
 10
97.68447670083929
 20
-150.6995008303807
 10
97.68447670083929
 20
-150.813878000491
 10
97.5912868679633
 20
-150.9089626358839
 10
97.47501489533611
 20
-150.9089626358839
 10
97.36080998000009
 20
-150.9089626358839
 10
97.26555308983293
 20
-150.813878000491
 10
97.26555308983293
 20
-150.6995008303807
 10
97.26555308983293
 20
-150.5830566029792
 10
97.36080998000009
 20
-150.4900390248775
 10
97.47501489533611
 20
-150.4900390248775
 10
97.58921981067215
 20
-150.4900390248775
 10
97.68447670083929
 20
-150.5830566029792
 10
97.68447670083929
 20
-150.6995008303807
 97
        0
 97
        1
330
14A
 75
     2
 76
     1
 98
        1
 10
0.0
 20
0.0
450
        0
451
        0
460
0.0
461
0.0
452
        0
462
0.0
453
        0
470

  0
ENDBLK
  5
138
330
135
100
AcDbEntity
  8
0
100
AcDbBlockEnd
  0
ENDSEC
  0
SECTION
  2
ENTITIES
  0
INSERT
  5
7A
330
70
100
AcDbEntity
  8
レイヤー 1
100
AcDbBlockReference
  2
Block_0
 10
0.0
 20
0.0
 30
0.0
  0
ENDSEC
  0
SECTION
  2
OBJECTS
  0
DICTIONARY
  5
C
330
0
100
AcDbDictionary
281
     1
  3
ACAD_COLOR
350
63
  3
ACAD_DETAILVIEWSTYLE
350
6A
  3
ACAD_GROUP
350
D
  3
ACAD_LAYOUT
350
62
  3
ACAD_MATERIAL
350
10
  3
ACAD_MLEADERSTYLE
350
66
  3
ACAD_MLINESTYLE
350
5F
  3
ACAD_PLOTSETTINGS
350
61
  3
ACAD_PLOTSTYLENAME
350
E
  3
ACAD_SCALELIST
350
42
  3
ACAD_SECTIONVIEWSTYLE
350
68
  3
ACAD_TABLESTYLE
350
64
  3
ACAD_VISUALSTYLE
350
29
  3
ACDB_RECOMPOSE_DATA
350
154
  3
AcDbVariableDictionary
350
14C
  0
DICTIONARY
  5
63
102
{ACAD_REACTORS
330
C
102
}
330
C
100
AcDbDictionary
281
     1
  0
DICTIONARY
  5
6A
102
{ACAD_REACTORS
330
C
102
}
330
C
100
AcDbDictionary
281
     1
  3
Imperial24
350
6B
  0
DICTIONARY
  5
D
102
{ACAD_REACTORS
330
C
102
}
330
C
100
AcDbDictionary
281
     1
  0
DICTIONARY
  5
62
102
{ACAD_REACTORS
330
C
102
}
330
C
100
AcDbDictionary
281
     1
  3
Layout1
350
6F
  3
Layout2
350
77
  3
Model
350
73
  0
DICTIONARY
  5
10
102
{ACAD_REACTORS
330
C
102
}
330
C
100
AcDbDictionary
281
     1
  3
ByBlock
350
19
  3
ByLayer
350
11
  3
Global
350
21
  0
DICTIONARY
  5
66
102
{ACAD_REACTORS
330
C
102
}
330
C
100
AcDbDictionary
281
     1
  3
Standard
350
67
  0
DICTIONARY
  5
5F
102
{ACAD_REACTORS
330
C
102
}
330
C
100
AcDbDictionary
281
     1
  3
Standard
350
60
  0
DICTIONARY
  5
61
102
{ACAD_REACTORS
330
C
102
}
330
C
100
AcDbDictionary
281
     1
  0
ACDBDICTIONARYWDFLT
  5
E
102
{ACAD_REACTORS
330
C
102
}
330
C
100
AcDbDictionary
281
     1
  3
Normal
350
F
100
AcDbDictionaryWithDefault
340
F
  0
DICTIONARY
  5
42
102
{ACAD_REACTORS
330
C
102
}
330
C
100
AcDbDictionary
281
     1
  3
A0
350
43
  3
A1
350
44
  3
A2
350
45
  3
A3
350
46
  3
A4
350
47
  3
A5
350
48
  3
A6
350
49
  3
A7
350
4A
  3
A8
350
4B
  3
A9
350
4C
  3
B0
350
4D
  3
B1
350
4E
  3
B2
350
4F
  3
B3
350
50
  3
B4
350
51
  3
B5
350
52
  3
B6
350
53
  0
DICTIONARY
  5
68
102
{ACAD_REACTORS
330
C
102
}
330
C
100
AcDbDictionary
281
     1
  3
Imperial24
350
69
  0
DICTIONARY
  5
64
102
{ACAD_REACTORS
330
C
102
}
330
C
100
AcDbDictionary
281
     1
  3
Standard
350
65
  0
DICTIONARY
  5
29
102
{ACAD_REACTORS
330
C
102
}
330
C
100
AcDbDictionary
281
     1
  3
2dWireframe
350
2F
  3
Basic
350
2E
  3
Brighten
350
35
  3
ColorChange
350
39
  3
Conceptual
350
32
  3
Dim
350
34
  3
EdgeColorOff
350
41
  3
Facepattern
350
38
  3
Flat
350
2A
  3
FlatWithEdges
350
2B
  3
Gouraud
350
2C
  3
GouraudWithEdges
350
2D
  3
Hidden
350
31
  3
JitterOff
350
3F
  3
Linepattern
350
37
  3
OverhangOff
350
40
  3
Realistic
350
33
  3
Shaded
350
3E
  3
Shaded with edges
350
3D
  3
Shades of Gray
350
3A
  3
Sketchy
350
3B
  3
Thicken
350
36
  3
Wireframe
350
30
  3
X-Ray
350
3C
  0
XRECORD
  5
154
102
{ACAD_REACTORS
330
C
102
}
330
C
100
AcDbXrecord
280
     1
 90
        1
330
65
  0
DICTIONARY
  5
14C
102
{ACAD_REACTORS
330
C
102
}
330
C
100
AcDbDictionary
281
     1
  3
CANNOSCALE
350
151
  3
CMLEADERSTYLE
350
14E
  3
CTABLESTYLE
350
14D
  3
CVIEWDETAILSTYLE
350
14F
  3
CVIEWSECTIONSTYLE
350
150
  0
ACDBDETAILVIEWSTYLE
  5
6B
102
{ACAD_XDICTIONARY
360
189
102
}
102
{ACAD_REACTORS
330
6A
102
}
330
6A
100
AcDbModelDocViewStyle
 70
     0
  3
Imperial24
290
     0
100
AcDbDetailViewStyle
 70
     0
 71
     0
 90
        3
 71
     1
340
55
 62
   256
 40
0.24
340
0
 62
   256
 40
0.24
300

 40
0.36
280
     3
 71
     2
340
5D
 90
       25
 62
   256
 71
     3
340
55
 62
   256
 40
0.24
 90
        1
 40
0.75
 90
        1
300
%<\AcVar ViewType \f "%tc1">% %<\AcVar ViewDetailId>%\PSCALE %<\AcVar ViewScale \f "%sn">%
 71
     4
340
5D
 90
       25
 62
   256
340
5D
 90
       25
 62
   256
280
     0
  0
LAYOUT
  5
6F
102
{ACAD_REACTORS
330
62
102
}
330
62
100
AcDbPlotSettings
  1

  2

  4

  6

 40
0.0
 41
0.0
 42
0.0
 43
0.0
 44
0.0
 45
0.0
 46
0.0
 47
0.0
 48
0.0
 49
0.0
140
0.0
141
0.0
142
1.0
143
1.0
 70
   688
 72
     0
 73
     0
 74
     5
  7

 75
    16
147
1.0
 76
     0
 77
     2
 78
   300
148
0.0
149
0.0
100
AcDbLayout
  1
Layout1
 70
     1
 71
     1
 10
0.0
 20
0.0
 11
12.0
 21
9.0
 12
0.0
 22
0.0
 32
0.0
 14
0.0
 24
0.0
 34
0.0
 15
0.0
 25
0.0
 35
0.0
146
0.0
 13
0.0
 23
0.0
 33
0.0
 16
1.0
 26
0.0
 36
0.0
 17
0.0
 27
1.0
 37
0.0
 76
     0
330
6C
  0
LAYOUT
  5
77
102
{ACAD_REACTORS
330
62
102
}
330
62
100
AcDbPlotSettings
  1

  2

  4

  6

 40
0.0
 41
0.0
 42
0.0
 43
0.0
 44
0.0
 45
0.0
 46
0.0
 47
0.0
 48
0.0
 49
0.0
140
0.0
141
0.0
142
1.0
143
1.0
 70
   688
 72
     0
 73
     0
 74
     5
  7

 75
    16
147
1.0
 76
     0
 77
     2
 78
   300
148
0.0
149
0.0
100
AcDbLayout
  1
Layout2
 70
     1
 71
     2
 10
0.0
 20
0.0
 11
12.0
 21
9.0
 12
0.0
 22
0.0
 32
0.0
 14
0.0
 24
0.0
 34
0.0
 15
0.0
 25
0.0
 35
0.0
146
0.0
 13
0.0
 23
0.0
 33
0.0
 16
1.0
 26
0.0
 36
0.0
 17
0.0
 27
1.0
 37
0.0
 76
     0
330
74
  0
LAYOUT
  5
73
102
{ACAD_REACTORS
330
62
102
}
330
62
100
AcDbPlotSettings
  1

  2

  4

  6

 40
0.0
 41
0.0
 42
0.0
 43
0.0
 44
0.0
 45
0.0
 46
0.0
 47
0.0
 48
0.0
 49
0.0
140
0.0
141
0.0
142
1.0
143
1.0
 70
  1712
 72
     0
 73
     0
 74
     0
  7

 75
     0
147
1.0
 76
     0
 77
     2
 78
   300
148
0.0
149
0.0
100
AcDbLayout
  1
Model
 70
     1
 71
     0
 10
0.0
 20
0.0
 11
12.0
 21
9.0
 12
0.0
 22
0.0
 32
0.0
 14
0.0
 24
0.0
 34
0.0
 15
0.0
 25
0.0
 35
0.0
146
0.0
 13
0.0
 23
0.0
 33
0.0
 16
1.0
 26
0.0
 36
0.0
 17
0.0
 27
1.0
 37
0.0
 76
     0
330
70
  0
MATERIAL
  5
19
102
{ACAD_XDICTIONARY
360
1A
102
}
102
{ACAD_REACTORS
330
10
102
}
330
10
100
AcDbMaterial
  1
ByBlock
 72
     0
 43
0.0208333333333333
 43
0.0
 43
0.0
 43
0.0
 43
0.0
 43
0.0208333333333333
 43
0.0
 43
0.0
 43
0.0
 43
0.0
 43
1.0
 43
0.0
 43
0.0
 43
0.0
 43
0.0
 43
1.0
 77
     0
 47
0.0208333333333333
 47
0.0
 47
0.0
 47
0.0
 47
0.0
 47
0.0208333333333333
 47
0.0
 47
0.0
 47
0.0
 47
0.0
 47
1.0
 47
0.0
 47
0.0
 47
0.0
 47
0.0
 47
1.0
171
     0
 49
0.0208333333333333
 49
0.0
 49
0.0
 49
0.0
 49
0.0
 49
0.0208333333333333
 49
0.0
 49
0.0
 49
0.0
 49
0.0
 49
1.0
 49
0.0
 49
0.0
 49
0.0
 49
0.0
 49
1.0
175
     0
142
0.0208333333333333
142
0.0
142
0.0
142
0.0
142
0.0
142
0.0208333333333333
142
0.0
142
0.0
142
0.0
142
0.0
142
1.0
142
0.0
142
0.0
142
0.0
142
0.0
142
1.0
179
     0
144
0.0208333333333333
144
0.0
144
0.0
144
0.0
144
0.0
144
0.0208333333333333
144
0.0
144
0.0
144
0.0
144
0.0
144
1.0
144
0.0
144
0.0
144
0.0
144
0.0
144
1.0
147
0.0208333333333333
147
0.0
147
0.0
147
0.0
147
0.0
147
0.0208333333333333
147
0.0
147
0.0
147
0.0
147
0.0
147
1.0
147
0.0
147
0.0
147
0.0
147
0.0
147
1.0
  0
MATERIAL
  5
11
102
{ACAD_XDICTIONARY
360
12
102
}
102
{ACAD_REACTORS
330
10
102
}
330
10
100
AcDbMaterial
  1
ByLayer
 72
     0
 43
0.0208333333333333
 43
0.0
 43
0.0
 43
0.0
 43
0.0
 43
0.0208333333333333
 43
0.0
 43
0.0
 43
0.0
 43
0.0
 43
1.0
 43
0.0
 43
0.0
 43
0.0
 43
0.0
 43
1.0
 77
     0
 47
0.0208333333333333
 47
0.0
 47
0.0
 47
0.0
 47
0.0
 47
0.0208333333333333
 47
0.0
 47
0.0
 47
0.0
 47
0.0
 47
1.0
 47
0.0
 47
0.0
 47
0.0
 47
0.0
 47
1.0
171
     0
 49
0.0208333333333333
 49
0.0
 49
0.0
 49
0.0
 49
0.0
 49
0.0208333333333333
 49
0.0
 49
0.0
 49
0.0
 49
0.0
 49
1.0
 49
0.0
 49
0.0
 49
0.0
 49
0.0
 49
1.0
175
     0
142
0.0208333333333333
142
0.0
142
0.0
142
0.0
142
0.0
142
0.0208333333333333
142
0.0
142
0.0
142
0.0
142
0.0
142
1.0
142
0.0
142
0.0
142
0.0
142
0.0
142
1.0
179
     0
144
0.0208333333333333
144
0.0
144
0.0
144
0.0
144
0.0
144
0.0208333333333333
144
0.0
144
0.0
144
0.0
144
0.0
144
1.0
144
0.0
144
0.0
144
0.0
144
0.0
144
1.0
147
0.0208333333333333
147
0.0
147
0.0
147
0.0
147
0.0
147
0.0208333333333333
147
0.0
147
0.0
147
0.0
147
0.0
147
1.0
147
0.0
147
0.0
147
0.0
147
0.0
147
1.0
  0
MATERIAL
  5
21
102
{ACAD_XDICTIONARY
360
22
102
}
102
{ACAD_REACTORS
330
10
102
}
330
10
100
AcDbMaterial
  1
Global
 72
     0
 43
0.0208333333333333
 43
0.0
 43
0.0
 43
0.0
 43
0.0
 43
0.0208333333333333
 43
0.0
 43
0.0
 43
0.0
 43
0.0
 43
1.0
 43
0.0
 43
0.0
 43
0.0
 43
0.0
 43
1.0
 77
     0
 47
0.0208333333333333
 47
0.0
 47
0.0
 47
0.0
 47
0.0
 47
0.0208333333333333
 47
0.0
 47
0.0
 47
0.0
 47
0.0
 47
1.0
 47
0.0
 47
0.0
 47
0.0
 47
0.0
 47
1.0
171
     0
 49
0.0208333333333333
 49
0.0
 49
0.0
 49
0.0
 49
0.0
 49
0.0208333333333333
 49
0.0
 49
0.0
 49
0.0
 49
0.0
 49
1.0
 49
0.0
 49
0.0
 49
0.0
 49
0.0
 49
1.0
175
     0
142
0.0208333333333333
142
0.0
142
0.0
142
0.0
142
0.0
142
0.0208333333333333
142
0.0
142
0.0
142
0.0
142
0.0
142
1.0
142
0.0
142
0.0
142
0.0
142
0.0
142
1.0
179
     0
144
0.0208333333333333
144
0.0
144
0.0
144
0.0
144
0.0
144
0.0208333333333333
144
0.0
144
0.0
144
0.0
144
0.0
144
1.0
144
0.0
144
0.0
144
0.0
144
0.0
144
1.0
147
0.0208333333333333
147
0.0
147
0.0
147
0.0
147
0.0
147
0.0208333333333333
147
0.0
147
0.0
147
0.0
147
0.0
147
1.0
147
0.0
147
0.0
147
0.0
147
0.0
147
1.0
  0
MLEADERSTYLE
  5
67
102
{ACAD_XDICTIONARY
360
185
102
}
102
{ACAD_REACTORS
330
66
102
}
330
66
100
AcDbMLeaderStyle
179
     2
170
     2
171
     1
172
     0
 90
        2
 40
0.0
 41
0.0
173
     1
 91
-1056964608
340
5B
 92
       -2
290
     1
 42
0.09
291
     1
 43
0.36
  3
Standard
 44
0.18
300

342
55
174
     1
178
     6
175
     1
176
     0
 93
-1056964608
 45
0.18
292
     0
297
     0
 46
0.18
 94
-1056964608
 47
1.0
 49
1.0
140
1.0
293
     1
141
0.0
294
     1
177
     0
142
1.0
295
     0
296
     0
143
0.125
271
     0
272
     9
273
     9
  0
MLINESTYLE
  5
60
102
{ACAD_REACTORS
330
5F
102
}
330
5F
100
AcDbMlineStyle
  2
STANDARD
 70
     0
  3

 62
   256
 51
90.0
 52
90.0
 71
     2
 49
0.5
 62
   256
  6
BYLAYER
 49
-0.5
 62
   256
  6
BYLAYER
  0
ACDBPLACEHOLDER
  5
F
102
{ACAD_REACTORS
330
E
102
}
330
E
  0
SCALE
  5
43
102
{ACAD_REACTORS
330
42
102
}
330
42
100
AcDbScale
 70
     0
300
1:1
140
1.0
141
1.0
290
     1
  0
SCALE
  5
44
102
{ACAD_REACTORS
330
42
102
}
330
42
100
AcDbScale
 70
     0
300
1/128" = 1'-0"
140
0.0078125
141
12.0
290
     0
  0
SCALE
  5
45
102
{ACAD_REACTORS
330
42
102
}
330
42
100
AcDbScale
 70
     0
300
1/64" = 1'-0"
140
0.015625
141
12.0
290
     0
  0
SCALE
  5
46
102
{ACAD_REACTORS
330
42
102
}
330
42
100
AcDbScale
 70
     0
300
1/32" = 1'-0"
140
0.03125
141
12.0
290
     0
  0
SCALE
  5
47
102
{ACAD_REACTORS
330
42
102
}
330
42
100
AcDbScale
 70
     0
300
1/16" = 1'-0"
140
0.0625
141
12.0
290
     0
  0
SCALE
  5
48
102
{ACAD_REACTORS
330
42
102
}
330
42
100
AcDbScale
 70
     0
300
3/32" = 1'-0"
140
0.09375
141
12.0
290
     0
  0
SCALE
  5
49
102
{ACAD_REACTORS
330
42
102
}
330
42
100
AcDbScale
 70
     0
300
1/8" = 1'-0"
140
0.125
141
12.0
290
     0
  0
SCALE
  5
4A
102
{ACAD_REACTORS
330
42
102
}
330
42
100
AcDbScale
 70
     0
300
3/16" = 1'-0"
140
0.1875
141
12.0
290
     0
  0
SCALE
  5
4B
102
{ACAD_REACTORS
330
42
102
}
330
42
100
AcDbScale
 70
     0
300
1/4" = 1'-0"
140
0.25
141
12.0
290
     0
  0
SCALE
  5
4C
102
{ACAD_REACTORS
330
42
102
}
330
42
100
AcDbScale
 70
     0
300
3/8" = 1'-0"
140
0.375
141
12.0
290
     0
  0
SCALE
  5
4D
102
{ACAD_REACTORS
330
42
102
}
330
42
100
AcDbScale
 70
     0
300
1/2" = 1'-0"
140
0.5
141
12.0
290
     0
  0
SCALE
  5
4E
102
{ACAD_REACTORS
330
42
102
}
330
42
100
AcDbScale
 70
     0
300
3/4" = 1'-0"
140
0.75
141
12.0
290
     0
  0
SCALE
  5
4F
102
{ACAD_REACTORS
330
42
102
}
330
42
100
AcDbScale
 70
     0
300
1" = 1'-0"
140
1.0
141
12.0
290
     0
  0
SCALE
  5
50
102
{ACAD_REACTORS
330
42
102
}
330
42
100
AcDbScale
 70
     0
300
1-1/2" = 1'-0"
140
1.5
141
12.0
290
     0
  0
SCALE
  5
51
102
{ACAD_REACTORS
330
42
102
}
330
42
100
AcDbScale
 70
     0
300
3" = 1'-0"
140
3.0
141
12.0
290
     0
  0
SCALE
  5
52
102
{ACAD_REACTORS
330
42
102
}
330
42
100
AcDbScale
 70
     0
300
6" = 1'-0"
140
6.0
141
12.0
290
     0
  0
SCALE
  5
53
102
{ACAD_REACTORS
330
42
102
}
330
42
100
AcDbScale
 70
     0
300
1'-0" = 1'-0"
140
12.0
141
12.0
290
     0
  0
ACDBSECTIONVIEWSTYLE
  5
69
102
{ACAD_XDICTIONARY
360
187
102
}
102
{ACAD_REACTORS
330
68
102
}
330
68
100
AcDbModelDocViewStyle
 70
     0
  3
Imperial24
290
     0
100
AcDbSectionViewStyle
 70
     0
 71
     0
 90
       78
 71
     1
340
55
 62
   256
 40
0.24
340
0
340
0
 62
   256
 40
0.24
300
I, O, Q, S, X, Z
 40
0.48
 90
        3
 40
0.18
 90
        1
 71
     2
340
5D
 90
       25
 62
   256
340
5D
 90
       50
 62
   256
 40
0.24
 40
0.0
 40
0.24
 71
     3
340
55
 62
   256
 40
0.24
 90
        1
 40
0.75
 90
        1
300
%<\AcVar ViewType \f "%tc1">% %<\AcVar ViewSectionStartId>%-%<\AcVar ViewSectionEndId>%\PSCALE %<\AcVar ViewScale \f "%sn">%
 71
     4
 62
   256
 62
   257
300
ANSI31
 40
1.0
 90
        0
290
     0
290
     0
 90
        6
 40
0.0
 40
1.570796326794896
 40
0.2617993877991494
 40
1.308996938995747
 40
-0.2617993877991494
 40
1.832595714594046
  0
TABLESTYLE
  5
65
102
{ACAD_XDICTIONARY
360
152
102
}
102
{ACAD_REACTORS
330
64
102
}
330
64
100
AcDbTableStyle
280
     0
  3
Standard
 70
     0
 71
     0
 40
0.06
 41
0.06
280
     0
281
     0
  7
Standard
140
0.18
170
     2
 62
     0
 63
     7
283
     0
 90
      512
 91
        0
  1

274
    -2
284
     1
 64
     0
275
    -2
285
     1
 65
     0
276
    -2
286
     1
 66
     0
277
    -2
287
     1
 67
     0
278
    -2
288
     1
 68
     0
279
    -2
289
     1
 69
     0
  7
Standard
140
0.25
170
     5
 62
     0
 63
     7
283
     0
 90
      512
 91
        0
  1

274
    -2
284
     1
 64
     0
275
    -2
285
     1
 65
     0
276
    -2
286
     1
 66
     0
277
    -2
287
     1
 67
     0
278
    -2
288
     1
 68
     0
279
    -2
289
     1
 69
     0
  7
Standard
140
0.18
170
     5
 62
     0
 63
     7
283
     0
 90
      512
 91
        0
  1

274
    -2
284
     1
 64
     0
275
    -2
285
     1
 65
     0
276
    -2
286
     1
 66
     0
277
    -2
287
     1
 67
     0
278
    -2
288
     1
 68
     0
279
    -2
289
     1
 69
     0
  0
VISUALSTYLE
  5
2F
102
{ACAD_XDICTIONARY
360
15F
102
}
102
{ACAD_REACTORS
330
29
102
}
330
29
100
AcDbVisualStyle
  2
2dWireframe
 70
     4
177
     2
291
     0
 71
     0
176
     1
 72
     2
176
     1
 73
     0
176
     1
 90
        0
176
     1
 40
0.6
176
     1
 41
30.0
176
     1
 63
     7
421
 16777215
176
     1
 74
     1
176
     1
 91
        4
176
     1
 64
     7
176
     1
 65
   257
176
     1
 75
     1
176
     1
175
     1
176
     1
 42
1.0
176
     1
 92
        0
176
     1
 66
   257
176
     1
 43
1.0
176
     1
 76
     1
176
     1
 77
     6
176
     1
 78
     2
176
     1
 67
     7
176
     1
 79
     5
176
     1
170
     0
176
     1
171
     0
176
     1
290
     0
176
     1
 93
        1
176
     1
 44
0.0
176
     1
173
     0
176
     1
1001
ACAD
1000
AcDbSavedByObjectVersion
1070
     0
  0
VISUALSTYLE
  5
2E
102
{ACAD_XDICTIONARY
360
15D
102
}
102
{ACAD_REACTORS
330
29
102
}
330
29
100
AcDbVisualStyle
  2
Basic
 70
     7
177
     2
291
     1
 71
     1
176
     1
 72
     0
176
     1
 73
     1
176
     1
 90
        0
176
     1
 40
0.6
176
     1
 41
30.0
176
     1
 63
     7
421
 16777215
176
     1
 74
     0
176
     1
 91
        4
176
     1
 64
     7
176
     1
 65
   257
176
     1
 75
     1
176
     1
175
     1
176
     1
 42
1.0
176
     1
 92
        8
176
     1
 66
     7
176
     1
 43
1.0
176
     1
 76
     1
176
     1
 77
     6
176
     1
 78
     2
176
     1
 67
     7
176
     1
 79
     5
176
     1
170
     0
176
     1
171
     0
176
     1
290
     0
176
     1
 93
        1
176
     1
 44
0.0
176
     1
173
     0
176
     1
1001
ACAD
1000
AcDbSavedByObjectVersion
1070
     0
  0
VISUALSTYLE
  5
35
102
{ACAD_XDICTIONARY
360
16B
102
}
102
{ACAD_REACTORS
330
29
102
}
330
29
100
AcDbVisualStyle
  2
Brighten
 70
    12
177
     2
291
     1
 71
     2
176
     1
 72
     2
176
     1
 73
     0
176
     1
 90
        0
176
     1
 40
0.6
176
     1
 41
30.0
176
     1
 63
     7
421
 16777215
176
     1
 74
     1
176
     1
 91
        4
176
     1
 64
     7
176
     1
 65
   257
176
     1
 75
     1
176
     1
175
     1
176
     1
 42
1.0
176
     1
 92
        8
176
     1
 66
     7
176
     1
 43
1.0
176
     1
 76
     1
176
     1
 77
     6
176
     1
 78
     2
176
     1
 67
     7
176
     1
 79
     5
176
     1
170
     0
176
     1
171
     0
176
     1
290
     0
176
     1
 93
        1
176
     1
 44
50.0
176
     1
173
     0
176
     1
1001
ACAD
1000
AcDbSavedByObjectVersion
1070
     0
  0
VISUALSTYLE
  5
39
102
{ACAD_XDICTIONARY
360
173
102
}
102
{ACAD_REACTORS
330
29
102
}
330
29
100
AcDbVisualStyle
  2
ColorChange
 70
    16
177
     2
291
     1
 71
     2
176
     1
 72
     2
176
     1
 73
     3
176
     1
 90
        0
176
     1
 40
0.6
176
     1
 41
30.0
176
     1
 63
     8
421
  8421504
176
     1
 74
     1
176
     1
 91
        4
176
     1
 64
     7
176
     1
 65
   257
176
     1
 75
     1
176
     1
175
     1
176
     1
 42
1.0
176
     1
 92
        8
176
     1
 66
     8
424
  8421504
176
     1
 43
1.0
176
     1
 76
     1
176
     1
 77
     6
176
     1
 78
     2
176
     1
 67
     7
176
     1
 79
     5
176
     1
170
     0
176
     1
171
     0
176
     1
290
     0
176
     1
 93
        1
176
     1
 44
0.0
176
     1
173
     0
176
     1
1001
ACAD
1000
AcDbSavedByObjectVersion
1070
     0
  0
VISUALSTYLE
  5
32
102
{ACAD_XDICTIONARY
360
165
102
}
102
{ACAD_REACTORS
330
29
102
}
330
29
100
AcDbVisualStyle
  2
Conceptual
 70
     9
177
     2
291
     0
 71
     3
176
     1
 72
     2
176
     1
 73
     0
176
     1
 90
        0
176
     1
 40
0.6
176
     1
 41
30.0
176
     1
 63
     7
421
 16777215
176
     1
 74
     2
176
     1
 91
        2
176
     1
 64
     7
176
     1
 65
   257
176
     1
 75
     1
176
     1
175
     1
176
     1
 42
179.0
176
     1
 92
        8
176
     1
 66
     7
176
     1
 43
1.0
176
     1
 76
     1
176
     1
 77
     6
176
     1
 78
     2
176
     1
 67
     7
176
     1
 79
     3
176
     1
170
     0
176
     1
171
     0
176
     1
290
     0
176
     1
 93
        1
176
     1
 44
0.0
176
     1
173
     0
176
     1
1001
ACAD
1000
AcDbSavedByObjectVersion
1070
     0
  0
VISUALSTYLE
  5
34
102
{ACAD_XDICTIONARY
360
169
102
}
102
{ACAD_REACTORS
330
29
102
}
330
29
100
AcDbVisualStyle
  2
Dim
 70
    11
177
     2
291
     1
 71
     2
176
     1
 72
     2
176
     1
 73
     0
176
     1
 90
        0
176
     1
 40
0.6
176
     1
 41
30.0
176
     1
 63
     7
421
 16777215
176
     1
 74
     1
176
     1
 91
        4
176
     1
 64
     7
176
     1
 65
   257
176
     1
 75
     1
176
     1
175
     1
176
     1
 42
1.0
176
     1
 92
        8
176
     1
 66
     7
176
     1
 43
1.0
176
     1
 76
     1
176
     1
 77
     6
176
     1
 78
     2
176
     1
 67
     7
176
     1
 79
     5
176
     1
170
     0
176
     1
171
     0
176
     1
290
     0
176
     1
 93
        1
176
     1
 44
-50.0
176
     1
173
     0
176
     1
1001
ACAD
1000
AcDbSavedByObjectVersion
1070
     0
  0
VISUALSTYLE
  5
41
102
{ACAD_XDICTIONARY
360
183
102
}
102
{ACAD_REACTORS
330
29
102
}
330
29
100
AcDbVisualStyle
  2
EdgeColorOff
 70
    22
177
     2
291
     1
 71
     2
176
     0
 72
     2
176
     0
 73
     0
176
     0
 90
        0
176
     0
 40
0.6
176
     0
 41
30.0
176
     0
 63
     7
421
 16777215
176
     0
 74
     1
176
     0
 91
        4
176
     0
 64
     7
176
     0
 65
   257
176
     0
 75
     1
176
     0
175
     1
176
     0
 42
1.0
176
     0
 92
        8
176
     2
 66
     7
176
     0
 43
1.0
176
     0
 76
     1
176
     0
 77
     6
176
     0
 78
     2
176
     0
 67
     7
176
     0
 79
     5
176
     0
170
     0
176
     0
171
     0
176
     0
290
     0
176
     0
 93
        1
176
     0
 44
0.0
176
     0
173
     0
176
     0
1001
ACAD
1000
AcDbSavedByObjectVersion
1070
     0
  0
VISUALSTYLE
  5
38
102
{ACAD_XDICTIONARY
360
171
102
}
102
{ACAD_REACTORS
330
29
102
}
330
29
100
AcDbVisualStyle
  2
Facepattern
 70
    15
177
     2
291
     1
 71
     2
176
     1
 72
     2
176
     1
 73
     0
176
     1
 90
        0
176
     1
 40
0.6
176
     1
 41
30.0
176
     1
 63
     7
421
 16777215
176
     1
 74
     1
176
     1
 91
        4
176
     1
 64
     7
176
     1
 65
   257
176
     1
 75
     1
176
     1
175
     1
176
     1
 42
1.0
176
     1
 92
        8
176
     1
 66
     7
176
     1
 43
1.0
176
     1
 76
     1
176
     1
 77
     6
176
     1
 78
     2
176
     1
 67
     7
176
     1
 79
     5
176
     1
170
     0
176
     1
171
     0
176
     1
290
     0
176
     1
 93
        1
176
     1
 44
0.0
176
     1
173
     0
176
     1
1001
ACAD
1000
AcDbSavedByObjectVersion
1070
     0
  0
VISUALSTYLE
  5
2A
102
{ACAD_XDICTIONARY
360
155
102
}
102
{ACAD_REACTORS
330
29
102
}
330
29
100
AcDbVisualStyle
  2
Flat
 70
     0
177
     2
291
     1
 71
     2
176
     1
 72
     1
176
     1
 73
     1
176
     1
 90
        2
176
     1
 40
0.6
176
     1
 41
30.0
176
     1
 63
     7
421
 16777215
176
     1
 74
     0
176
     1
 91
        0
176
     1
 64
     7
176
     1
 65
   257
176
     1
 75
     1
176
     1
175
     1
176
     1
 42
1.0
176
     1
 92
        8
176
     1
 66
     7
176
     1
 43
1.0
176
     1
 76
     1
176
     1
 77
     6
176
     1
 78
     2
176
     1
 67
     7
176
     1
 79
     5
176
     1
170
     0
176
     1
171
     0
176
     1
290
     0
176
     1
 93
       13
176
     1
 44
0.0
176
     1
173
     0
176
     1
1001
ACAD
1000
AcDbSavedByObjectVersion
1070
     0
  0
VISUALSTYLE
  5
2B
102
{ACAD_XDICTIONARY
360
157
102
}
102
{ACAD_REACTORS
330
29
102
}
330
29
100
AcDbVisualStyle
  2
FlatWithEdges
 70
     1
177
     2
291
     1
 71
     2
176
     1
 72
     1
176
     1
 73
     1
176
     1
 90
        2
176
     1
 40
0.6
176
     1
 41
30.0
176
     1
 63
     7
421
 16777215
176
     1
 74
     1
176
     1
 91
        0
176
     1
 64
     7
176
     1
 65
   257
176
     1
 75
     1
176
     1
175
     1
176
     1
 42
1.0
176
     1
 92
        0
176
     1
 66
   257
176
     1
 43
1.0
176
     1
 76
     1
176
     1
 77
     6
176
     1
 78
     2
176
     1
 67
     7
176
     1
 79
     5
176
     1
170
     0
176
     1
171
     0
176
     1
290
     0
176
     1
 93
       13
176
     1
 44
0.0
176
     1
173
     0
176
     1
1001
ACAD
1000
AcDbSavedByObjectVersion
1070
     0
  0
VISUALSTYLE
  5
2C
102
{ACAD_XDICTIONARY
360
159
102
}
102
{ACAD_REACTORS
330
29
102
}
330
29
100
AcDbVisualStyle
  2
Gouraud
 70
     2
177
     2
291
     1
 71
     2
176
     1
 72
     2
176
     1
 73
     1
176
     1
 90
        2
176
     1
 40
0.6
176
     1
 41
30.0
176
     1
 63
     7
421
 16777215
176
     1
 74
     0
176
     1
 91
        0
176
     1
 64
     7
176
     1
 65
   257
176
     1
 75
     1
176
     1
175
     1
176
     1
 42
1.0
176
     1
 92
        0
176
     1
 66
     7
176
     1
 43
1.0
176
     1
 76
     1
176
     1
 77
     6
176
     1
 78
     2
176
     1
 67
     7
176
     1
 79
     5
176
     1
170
     0
176
     1
171
     0
176
     1
290
     0
176
     1
 93
       13
176
     1
 44
0.0
176
     1
173
     0
176
     1
1001
ACAD
1000
AcDbSavedByObjectVersion
1070
     0
  0
VISUALSTYLE
  5
2D
102
{ACAD_XDICTIONARY
360
15B
102
}
102
{ACAD_REACTORS
330
29
102
}
330
29
100
AcDbVisualStyle
  2
GouraudWithEdges
 70
     3
177
     2
291
     1
 71
     2
176
     1
 72
     2
176
     1
 73
     1
176
     1
 90
        2
176
     1
 40
0.6
176
     1
 41
30.0
176
     1
 63
     7
421
 16777215
176
     1
 74
     1
176
     1
 91
        0
176
     1
 64
     7
176
     1
 65
   257
176
     1
 75
     1
176
     1
175
     1
176
     1
 42
1.0
176
     1
 92
        0
176
     1
 66
   257
176
     1
 43
1.0
176
     1
 76
     1
176
     1
 77
     6
176
     1
 78
     2
176
     1
 67
     7
176
     1
 79
     5
176
     1
170
     0
176
     1
171
     0
176
     1
290
     0
176
     1
 93
       13
176
     1
 44
0.0
176
     1
173
     0
176
     1
1001
ACAD
1000
AcDbSavedByObjectVersion
1070
     0
  0
VISUALSTYLE
  5
31
102
{ACAD_XDICTIONARY
360
163
102
}
102
{ACAD_REACTORS
330
29
102
}
330
29
100
AcDbVisualStyle
  2
Hidden
 70
     6
177
     2
291
     0
 71
     1
176
     1
 72
     2
176
     1
 73
     2
176
     1
 90
        0
176
     1
 40
0.6
176
     1
 41
30.0
176
     1
 63
     7
421
 16777215
176
     1
 74
     2
176
     1
 91
        2
176
     1
 64
     7
176
     1
 65
   257
176
     1
 75
     2
176
     1
175
     1
176
     1
 42
40.0
176
     1
 92
        0
176
     1
 66
   257
176
     1
 43
1.0
176
     1
 76
     1
176
     1
 77
     6
176
     1
 78
     2
176
     1
 67
     7
176
     1
 79
     3
176
     1
170
     0
176
     1
171
     0
176
     1
290
     0
176
     1
 93
        1
176
     1
 44
0.0
176
     1
173
     0
176
     1
1001
ACAD
1000
AcDbSavedByObjectVersion
1070
     0
  0
VISUALSTYLE
  5
3F
102
{ACAD_XDICTIONARY
360
17F
102
}
102
{ACAD_REACTORS
330
29
102
}
330
29
100
AcDbVisualStyle
  2
JitterOff
 70
    20
177
     2
291
     1
 71
     2
176
     0
 72
     2
176
     0
 73
     0
176
     0
 90
        0
176
     0
 40
0.6
176
     0
 41
30.0
176
     0
 63
     7
421
 16777215
176
     0
 74
     1
176
     0
 91
        4
176
     0
 64
     7
176
     0
 65
   257
176
     0
 75
     1
176
     0
175
     1
176
     0
 42
1.0
176
     0
 92
       10
176
     2
 66
     7
176
     0
 43
1.0
176
     0
 76
     1
176
     0
 77
     6
176
     0
 78
     2
176
     0
 67
     7
176
     0
 79
     5
176
     0
170
     0
176
     0
171
     0
176
     0
290
     0
176
     0
 93
        1
176
     0
 44
0.0
176
     0
173
     0
176
     0
1001
ACAD
1000
AcDbSavedByObjectVersion
1070
     0
  0
VISUALSTYLE
  5
37
102
{ACAD_XDICTIONARY
360
16F
102
}
102
{ACAD_REACTORS
330
29
102
}
330
29
100
AcDbVisualStyle
  2
Linepattern
 70
    14
177
     2
291
     1
 71
     2
176
     1
 72
     2
176
     1
 73
     0
176
     1
 90
        0
176
     1
 40
0.6
176
     1
 41
30.0
176
     1
 63
     7
421
 16777215
176
     1
 74
     1
176
     1
 91
        4
176
     1
 64
     7
176
     1
 65
   257
176
     1
 75
     7
176
     1
175
     7
176
     1
 42
1.0
176
     1
 92
        8
176
     1
 66
     7
176
     1
 43
1.0
176
     1
 76
     1
176
     1
 77
     6
176
     1
 78
     2
176
     1
 67
     7
176
     1
 79
     5
176
     1
170
     0
176
     1
171
     0
176
     1
290
     0
176
     1
 93
        1
176
     1
 44
0.0
176
     1
173
     0
176
     1
1001
ACAD
1000
AcDbSavedByObjectVersion
1070
     0
  0
VISUALSTYLE
  5
40
102
{ACAD_XDICTIONARY
360
181
102
}
102
{ACAD_REACTORS
330
29
102
}
330
29
100
AcDbVisualStyle
  2
OverhangOff
 70
    21
177
     2
291
     1
 71
     2
176
     0
 72
     2
176
     0
 73
     0
176
     0
 90
        0
176
     0
 40
0.6
176
     0
 41
30.0
176
     0
 63
     7
421
 16777215
176
     0
 74
     1
176
     0
 91
        4
176
     0
 64
     7
176
     0
 65
   257
176
     0
 75
     1
176
     0
175
     1
176
     0
 42
1.0
176
     0
 92
        9
176
     2
 66
     7
176
     0
 43
1.0
176
     0
 76
     1
176
     0
 77
     6
176
     0
 78
     2
176
     0
 67
     7
176
     0
 79
     5
176
     0
170
     0
176
     0
171
     0
176
     0
290
     0
176
     0
 93
        1
176
     0
 44
0.0
176
     0
173
     0
176
     0
1001
ACAD
1000
AcDbSavedByObjectVersion
1070
     0
  0
VISUALSTYLE
  5
33
102
{ACAD_XDICTIONARY
360
167
102
}
102
{ACAD_REACTORS
330
29
102
}
330
29
100
AcDbVisualStyle
  2
Realistic
 70
     8
177
     2
291
     0
 71
     2
176
     1
 72
     3
176
     1
 73
     0
176
     1
 90
        2
176
     1
 40
0.6
176
     1
 41
30.0
176
     1
 63
     7
421
 16777215
176
     1
 74
     0
176
     1
 91
        0
176
     1
 64
     7
176
     1
 65
   257
176
     1
 75
     1
176
     1
175
     1
176
     1
 42
1.0
176
     1
 92
        8
176
     1
 66
   257
176
     1
 43
1.0
176
     1
 76
     1
176
     1
 77
     6
176
     1
 78
     2
176
     1
 67
     7
176
     1
 79
     3
176
     1
170
     0
176
     1
171
     0
176
     1
290
     0
176
     1
 93
       13
176
     1
 44
0.0
176
     1
173
     0
176
     1
1001
ACAD
1000
AcDbSavedByObjectVersion
1070
     0
  0
VISUALSTYLE
  5
3E
102
{ACAD_XDICTIONARY
360
17D
102
}
102
{ACAD_REACTORS
330
29
102
}
330
29
100
AcDbVisualStyle
  2
Shaded
 70
    27
177
     2
291
     0
 71
     2
176
     1
 72
     2
176
     1
 73
     1
176
     1
 90
        2
176
     1
 40
0.6
176
     1
 41
30.0
176
     1
 63
     7
421
 16777215
176
     1
 74
     0
176
     1
 91
        4
176
     1
 64
     7
176
     1
 65
   257
176
     1
 75
     1
176
     1
175
     1
176
     1
 42
1.0
176
     1
 92
        8
176
     1
 66
   257
176
     1
 43
1.0
176
     1
 76
     1
176
     1
 77
     6
176
     1
 78
     2
176
     1
 67
     8
425
  7895160
176
     1
 79
     3
176
     1
170
     0
176
     1
171
     0
176
     1
290
     0
176
     1
 93
        5
176
     1
 44
0.0
176
     1
173
     0
176
     1
1001
ACAD
1000
AcDbSavedByObjectVersion
1070
     0
  0
VISUALSTYLE
  5
3D
102
{ACAD_XDICTIONARY
360
17B
102
}
102
{ACAD_REACTORS
330
29
102
}
330
29
100
AcDbVisualStyle
  2
Shaded with edges
 70
    26
177
     2
291
     0
 71
     2
176
     1
 72
     2
176
     1
 73
     1
176
     1
 90
        2
176
     1
 40
0.6
176
     1
 41
30.0
176
     1
 63
     7
421
 16777215
176
     1
 74
     1
176
     1
 91
        2
176
     1
 64
     7
176
     1
 65
   257
176
     1
 75
     2
176
     1
175
     1
176
     1
 42
1.0
176
     1
 92
        8
176
     1
 66
   257
176
     1
 43
1.0
176
     1
 76
     1
176
     1
 77
     6
176
     1
 78
     2
176
     1
 67
     7
176
     1
 79
     3
176
     1
170
     0
176
     1
171
     0
176
     1
290
     0
176
     1
 93
        5
176
     1
 44
0.0
176
     1
173
     0
176
     1
1001
ACAD
1000
AcDbSavedByObjectVersion
1070
     0
  0
VISUALSTYLE
  5
3A
102
{ACAD_XDICTIONARY
360
175
102
}
102
{ACAD_REACTORS
330
29
102
}
330
29
100
AcDbVisualStyle
  2
Shades of Gray
 70
    23
177
     2
291
     0
 71
     2
176
     1
 72
     2
176
     1
 73
     3
176
     1
 90
        0
176
     1
 40
0.6
176
     1
 41
30.0
176
     1
 63
     7
421
 16777215
176
     1
 74
     2
176
     1
 91
        2
176
     1
 64
     7
176
     1
 65
     7
176
     1
 75
     1
176
     1
175
     1
176
     1
 42
40.0
176
     1
 92
        8
176
     1
 66
     7
176
     1
 43
1.0
176
     1
 76
     1
176
     1
 77
     6
176
     1
 78
     2
176
     1
 67
     7
176
     1
 79
     3
176
     1
170
     0
176
     1
171
     0
176
     1
290
     0
176
     1
 93
        1
176
     1
 44
0.0
176
     1
173
     0
176
     1
1001
ACAD
1000
AcDbSavedByObjectVersion
1070
     0
  0
VISUALSTYLE
  5
3B
102
{ACAD_XDICTIONARY
360
177
102
}
102
{ACAD_REACTORS
330
29
102
}
330
29
100
AcDbVisualStyle
  2
Sketchy
 70
    24
177
     2
291
     0
 71
     1
176
     1
 72
     2
176
     1
 73
     2
176
     1
 90
        0
176
     1
 40
0.6
176
     1
 41
30.0
176
     1
 63
     7
421
 16777215
176
     1
 74
     2
176
     1
 91
        2
176
     1
 64
     7
176
     1
 65
     7
176
     1
 75
     1
176
     1
175
     1
176
     1
 42
40.0
176
     1
 92
       11
176
     1
 66
     7
176
     1
 43
1.0
176
     1
 76
     1
176
     1
 77
     6
176
     1
 78
     2
176
     1
 67
     7
176
     1
 79
     6
176
     1
170
     0
176
     1
171
     0
176
     1
290
     0
176
     1
 93
        1
176
     1
 44
0.0
176
     1
173
     0
176
     1
1001
ACAD
1000
AcDbSavedByObjectVersion
1070
     0
  0
VISUALSTYLE
  5
36
102
{ACAD_XDICTIONARY
360
16D
102
}
102
{ACAD_REACTORS
330
29
102
}
330
29
100
AcDbVisualStyle
  2
Thicken
 70
    13
177
     2
291
     1
 71
     2
176
     1
 72
     2
176
     1
 73
     0
176
     1
 90
        0
176
     1
 40
0.6
176
     1
 41
30.0
176
     1
 63
     7
421
 16777215
176
     1
 74
     1
176
     1
 91
        4
176
     1
 64
     7
176
     1
 65
   257
176
     1
 75
     1
176
     1
175
     1
176
     1
 42
1.0
176
     1
 92
       12
176
     1
 66
     7
176
     1
 43
1.0
176
     1
 76
     1
176
     1
 77
     6
176
     1
 78
     2
176
     1
 67
     7
176
     1
 79
     5
176
     1
170
     0
176
     1
171
     0
176
     1
290
     0
176
     1
 93
        1
176
     1
 44
0.0
176
     1
173
     0
176
     1
1001
ACAD
1000
AcDbSavedByObjectVersion
1070
     0
  0
VISUALSTYLE
  5
30
102
{ACAD_XDICTIONARY
360
161
102
}
102
{ACAD_REACTORS
330
29
102
}
330
29
100
AcDbVisualStyle
  2
Wireframe
 70
     5
177
     2
291
     0
 71
     0
176
     1
 72
     2
176
     1
 73
     0
176
     1
 90
        0
176
     1
 40
0.6
176
     1
 41
30.0
176
     1
 63
     7
421
 16777215
176
     1
 74
     1
176
     1
 91
        4
176
     1
 64
     7
176
     1
 65
   257
176
     1
 75
     1
176
     1
175
     1
176
     1
 42
1.0
176
     1
 92
        0
176
     1
 66
   257
176
     1
 43
1.0
176
     1
 76
     1
176
     1
 77
     6
176
     1
 78
     2
176
     1
 67
     7
176
     1
 79
     3
176
     1
170
     0
176
     1
171
     0
176
     1
290
     0
176
     1
 93
        1
176
     1
 44
0.0
176
     1
173
     0
176
     1
1001
ACAD
1000
AcDbSavedByObjectVersion
1070
     0
  0
VISUALSTYLE
  5
3C
102
{ACAD_XDICTIONARY
360
179
102
}
102
{ACAD_REACTORS
330
29
102
}
330
29
100
AcDbVisualStyle
  2
X-Ray
 70
    25
177
     2
291
     0
 71
     2
176
     1
 72
     2
176
     1
 73
     1
176
     1
 90
        1
176
     1
 40
0.5
176
     1
 41
30.0
176
     1
 63
     7
421
 16777215
176
     1
 74
     1
176
     1
 91
        0
176
     1
 64
     7
176
     1
 65
   257
176
     1
 75
     1
176
     1
175
     1
176
     1
 42
1.0
176
     1
 92
        8
176
     1
 66
     7
176
     1
 43
1.0
176
     1
 76
     1
176
     1
 77
     6
176
     1
 78
     2
176
     1
 67
     7
176
     1
 79
     3
176
     1
170
     0
176
     1
171
     0
176
     1
290
     0
176
     1
 93
       13
176
     1
 44
0.0
176
     1
173
     0
176
     1
1001
ACAD
1000
AcDbSavedByObjectVersion
1070
     0
  0
DICTIONARYVAR
  5
151
102
{ACAD_REACTORS
330
14C
102
}
330
14C
100
DictionaryVariables
280
     0
  1
1:1
  0
DICTIONARYVAR
  5
14E
102
{ACAD_REACTORS
330
14C
102
}
330
14C
100
DictionaryVariables
280
     0
  1
STANDARD
  0
DICTIONARYVAR
  5
14D
102
{ACAD_REACTORS
330
14C
102
}
330
14C
100
DictionaryVariables
280
     0
  1
STANDARD
  0
DICTIONARYVAR
  5
14F
102
{ACAD_REACTORS
330
14C
102
}
330
14C
100
DictionaryVariables
280
     0
  1
Imperial24
  0
DICTIONARYVAR
  5
150
102
{ACAD_REACTORS
330
14C
102
}
330
14C
100
DictionaryVariables
280
     0
  1
Imperial24
  0
DICTIONARY
  5
189
330
6B
100
AcDbDictionary
280
     1
281
     1
  3
ACAD_XREC_ROUNDTRIP
360
18A
  0
DICTIONARY
  5
1A
330
19
100
AcDbDictionary
280
     1
281
     1
  3
BUMPTILE
360
1C
  3
DIFFUSETILE
360
1B
  3
OPACITYTILE
360
1F
  3
REFLECTIONTILE
360
1E
  3
REFRACTIONTILE
360
20
  3
SPECULARTILE
360
1D
  0
DICTIONARY
  5
12
330
11
100
AcDbDictionary
280
     1
281
     1
  3
BUMPTILE
360
14
  3
DIFFUSETILE
360
13
  3
OPACITYTILE
360
17
  3
REFLECTIONTILE
360
16
  3
REFRACTIONTILE
360
18
  3
SPECULARTILE
360
15
  0
DICTIONARY
  5
22
330
21
100
AcDbDictionary
280
     1
281
     1
  3
BUMPTILE
360
24
  3
DIFFUSETILE
360
23
  3
OPACITYTILE
360
27
  3
REFLECTIONTILE
360
26
  3
REFRACTIONTILE
360
28
  3
SPECULARTILE
360
25
  0
DICTIONARY
  5
185
330
67
100
AcDbDictionary
280
     1
281
     1
  3
ACAD_XREC_ROUNDTRIP
360
186
  0
DICTIONARY
  5
187
330
69
100
AcDbDictionary
280
     1
281
     1
  3
ACAD_XREC_ROUNDTRIP
360
188
  0
DICTIONARY
  5
152
330
65
100
AcDbDictionary
280
     1
281
     1
  3
ACAD_ROUNDTRIP_2008_TABLESTYLE_CELLSTYLEMAP
360
153
  0
DICTIONARY
  5
15F
330
2F
100
AcDbDictionary
280
     1
281
     1
  3
ACAD_XREC_ROUNDTRIP
360
160
  0
DICTIONARY
  5
15D
330
2E
100
AcDbDictionary
280
     1
281
     1
  3
ACAD_XREC_ROUNDTRIP
360
15E
  0
DICTIONARY
  5
16B
330
35
100
AcDbDictionary
280
     1
281
     1
  3
ACAD_XREC_ROUNDTRIP
360
16C
  0
DICTIONARY
  5
173
330
39
100
AcDbDictionary
280
     1
281
     1
  3
ACAD_XREC_ROUNDTRIP
360
174
  0
DICTIONARY
  5
165
330
32
100
AcDbDictionary
280
     1
281
     1
  3
ACAD_XREC_ROUNDTRIP
360
166
  0
DICTIONARY
  5
169
330
34
100
AcDbDictionary
280
     1
281
     1
  3
ACAD_XREC_ROUNDTRIP
360
16A
  0
DICTIONARY
  5
183
330
41
100
AcDbDictionary
280
     1
281
     1
  3
ACAD_XREC_ROUNDTRIP
360
184
  0
DICTIONARY
  5
171
330
38
100
AcDbDictionary
280
     1
281
     1
  3
ACAD_XREC_ROUNDTRIP
360
172
  0
DICTIONARY
  5
155
330
2A
100
AcDbDictionary
280
     1
281
     1
  3
ACAD_XREC_ROUNDTRIP
360
156
  0
DICTIONARY
  5
157
330
2B
100
AcDbDictionary
280
     1
281
     1
  3
ACAD_XREC_ROUNDTRIP
360
158
  0
DICTIONARY
  5
159
330
2C
100
AcDbDictionary
280
     1
281
     1
  3
ACAD_XREC_ROUNDTRIP
360
15A
  0
DICTIONARY
  5
15B
330
2D
100
AcDbDictionary
280
     1
281
     1
  3
ACAD_XREC_ROUNDTRIP
360
15C
  0
DICTIONARY
  5
163
330
31
100
AcDbDictionary
280
     1
281
     1
  3
ACAD_XREC_ROUNDTRIP
360
164
  0
DICTIONARY
  5
17F
330
3F
100
AcDbDictionary
280
     1
281
     1
  3
ACAD_XREC_ROUNDTRIP
360
180
  0
DICTIONARY
  5
16F
330
37
100
AcDbDictionary
280
     1
281
     1
  3
ACAD_XREC_ROUNDTRIP
360
170
  0
DICTIONARY
  5
181
330
40
100
AcDbDictionary
280
     1
281
     1
  3
ACAD_XREC_ROUNDTRIP
360
182
  0
DICTIONARY
  5
167
330
33
100
AcDbDictionary
280
     1
281
     1
  3
ACAD_XREC_ROUNDTRIP
360
168
  0
DICTIONARY
  5
17D
330
3E
100
AcDbDictionary
280
     1
281
     1
  3
ACAD_XREC_ROUNDTRIP
360
17E
  0
DICTIONARY
  5
17B
330
3D
100
AcDbDictionary
280
     1
281
     1
  3
ACAD_XREC_ROUNDTRIP
360
17C
  0
DICTIONARY
  5
175
330
3A
100
AcDbDictionary
280
     1
281
     1
  3
ACAD_XREC_ROUNDTRIP
360
176
  0
DICTIONARY
  5
177
330
3B
100
AcDbDictionary
280
     1
281
     1
  3
ACAD_XREC_ROUNDTRIP
360
178
  0
DICTIONARY
  5
16D
330
36
100
AcDbDictionary
280
     1
281
     1
  3
ACAD_XREC_ROUNDTRIP
360
16E
  0
DICTIONARY
  5
161
330
30
100
AcDbDictionary
280
     1
281
     1
  3
ACAD_XREC_ROUNDTRIP
360
162
  0
DICTIONARY
  5
179
330
3C
100
AcDbDictionary
280
     1
281
     1
  3
ACAD_XREC_ROUNDTRIP
360
17A
  0
XRECORD
  5
18A
102
{ACAD_REACTORS
330
189
102
}
330
189
100
AcDbXrecord
280
     1
102
DISPLAYNAME
  1
Imperial24
102
FLAGS
 90
        0
  0
XRECORD
  5
1C
102
{ACAD_REACTORS
330
1A
102
}
330
1A
100
AcDbXrecord
280
     1
270
     1
271
     1
  0
XRECORD
  5
1B
102
{ACAD_REACTORS
330
1A
102
}
330
1A
100
AcDbXrecord
280
     1
270
     1
271
     1
  0
XRECORD
  5
1F
102
{ACAD_REACTORS
330
1A
102
}
330
1A
100
AcDbXrecord
280
     1
270
     1
271
     1
  0
XRECORD
  5
1E
102
{ACAD_REACTORS
330
1A
102
}
330
1A
100
AcDbXrecord
280
     1
270
     1
271
     1
  0
XRECORD
  5
20
102
{ACAD_REACTORS
330
1A
102
}
330
1A
100
AcDbXrecord
280
     1
270
     1
271
     1
  0
XRECORD
  5
1D
102
{ACAD_REACTORS
330
1A
102
}
330
1A
100
AcDbXrecord
280
     1
270
     1
271
     1
  0
XRECORD
  5
14
102
{ACAD_REACTORS
330
12
102
}
330
12
100
AcDbXrecord
280
     1
270
     1
271
     1
  0
XRECORD
  5
13
102
{ACAD_REACTORS
330
12
102
}
330
12
100
AcDbXrecord
280
     1
270
     1
271
     1
  0
XRECORD
  5
17
102
{ACAD_REACTORS
330
12
102
}
330
12
100
AcDbXrecord
280
     1
270
     1
271
     1
  0
XRECORD
  5
16
102
{ACAD_REACTORS
330
12
102
}
330
12
100
AcDbXrecord
280
     1
270
     1
271
     1
  0
XRECORD
  5
18
102
{ACAD_REACTORS
330
12
102
}
330
12
100
AcDbXrecord
280
     1
270
     1
271
     1
  0
XRECORD
  5
15
102
{ACAD_REACTORS
330
12
102
}
330
12
100
AcDbXrecord
280
     1
270
     1
271
     1
  0
XRECORD
  5
24
102
{ACAD_REACTORS
330
22
102
}
330
22
100
AcDbXrecord
280
     1
270
     1
271
     1
  0
XRECORD
  5
23
102
{ACAD_REACTORS
330
22
102
}
330
22
100
AcDbXrecord
280
     1
270
     1
271
     1
  0
XRECORD
  5
27
102
{ACAD_REACTORS
330
22
102
}
330
22
100
AcDbXrecord
280
     1
270
     1
271
     1
  0
XRECORD
  5
26
102
{ACAD_REACTORS
330
22
102
}
330
22
100
AcDbXrecord
280
     1
270
     1
271
     1
  0
XRECORD
  5
28
102
{ACAD_REACTORS
330
22
102
}
330
22
100
AcDbXrecord
280
     1
270
     1
271
     1
  0
XRECORD
  5
25
102
{ACAD_REACTORS
330
22
102
}
330
22
100
AcDbXrecord
280
     1
270
     1
271
     1
  0
XRECORD
  5
186
102
{ACAD_REACTORS
330
185
102
}
330
185
100
AcDbXrecord
280
     1
102
ACAD_ROUNDTRIP_2012_MLEADER_STYLE
298
     1
  0
XRECORD
  5
188
102
{ACAD_REACTORS
330
187
102
}
330
187
100
AcDbXrecord
280
     1
102
DISPLAYNAME
  1
Imperial24
102
FLAGS
 90
        0
  0
CELLSTYLEMAP
  5
153
102
{ACAD_REACTORS
330
152
102
}
330
152
100
AcDbCellStyleMap
 90
        3
300
CELLSTYLE
  1
TABLEFORMAT_BEGIN
 90
        5
170
     1
 91
        0
 92
    32768
 62
   257
 93
        1
300
CONTENTFORMAT
  1
CONTENTFORMAT_BEGIN
 90
        0
 91
        0
 92
      512
 93
        0
300

 40
0.0
140
1.0
 94
        5
 62
     0
340
55
144
0.25
309
CONTENTFORMAT_END
171
     0
 94
        0
309
TABLEFORMAT_END
  1
CELLSTYLE_BEGIN
 90
        1
 91
        1
300
_TITLE
309
CELLSTYLE_END
300
CELLSTYLE
  1
TABLEFORMAT_BEGIN
 90
        5
170
     1
 91
        0
 92
        0
 62
   257
 93
        1
300
CONTENTFORMAT
  1
CONTENTFORMAT_BEGIN
 90
        0
 91
        0
 92
      512
 93
        0
300

 40
0.0
140
1.0
 94
        5
 62
     0
340
55
144
0.18
309
CONTENTFORMAT_END
171
     0
 94
        0
309
TABLEFORMAT_END
  1
CELLSTYLE_BEGIN
 90
        2
 91
        1
300
_HEADER
309
CELLSTYLE_END
300
CELLSTYLE
  1
TABLEFORMAT_BEGIN
 90
        5
170
     1
 91
        0
 92
        0
 62
   257
 93
        1
300
CONTENTFORMAT
  1
CONTENTFORMAT_BEGIN
 90
        0
 91
        0
 92
      512
 93
        0
300

 40
0.0
140
1.0
 94
        2
 62
     0
340
55
144
0.18
309
CONTENTFORMAT_END
171
     0
 94
        0
309
TABLEFORMAT_END
  1
CELLSTYLE_BEGIN
 90
        3
 91
        2
300
_DATA
309
CELLSTYLE_END
  0
XRECORD
  5
160
102
{ACAD_REACTORS
330
15F
102
}
330
15F
100
AcDbXrecord
280
     1
102
RTVSPost2010Prop28
280
     1
102
RTVSPost2010PropOp28
 70
     1
102
RTVSPost2010Prop29
280
     1
102
RTVSPost2010PropOp29
 70
     1
102
RTVSPost2010Prop30
280
     0
102
RTVSPost2010PropOp30
 70
     1
102
RTVSPost2010Prop31
280
     0
102
RTVSPost2010PropOp31
 70
     1
102
RTVSPost2010Prop32
280
     0
102
RTVSPost2010PropOp32
 70
     1
102
RTVSPost2010Prop33
280
     0
102
RTVSPost2010PropOp33
 70
     1
102
RTVSPost2010Prop34
280
     0
102
RTVSPost2010PropOp34
 70
     1
102
RTVSPost2010Prop35
280
     0
102
RTVSPost2010PropOp35
 70
     1
102
RTVSPost2010Prop36
280
     0
102
RTVSPost2010PropOp36
 70
     1
102
RTVSPost2010Prop37
 90
       50
102
RTVSPost2010PropOp37
 70
     1
102
RTVSPost2010Prop38
140
0.0
102
RTVSPost2010PropOp38
 70
     1
102
RTVSPost2010Prop39
140
1.0
102
RTVSPost2010PropOp39
 70
     1
102
RTVSPost2010Prop40
 90
        0
102
RTVSPost2010PropOp40
 70
     1
102
RTVSPost2010Prop41ColorIndex
 90
       18
102
RTVSPost2010Prop41ColorRGB
 90
        0
102
RTVSPost2010PropOp41
 70
     1
102
RTVSPost2010Prop42
 90
       50
102
RTVSPost2010PropOp42
 70
     1
102
RTVSPost2010Prop43
 90
        3
102
RTVSPost2010PropOp43
 70
     1
102
RTVSPost2010Prop44ColorIndex
 90
        5
102
RTVSPost2010Prop44ColorRGB
 90
      255
102
RTVSPost2010PropOp44
 70
     1
102
RTVSPost2010Prop45
280
     0
102
RTVSPost2010PropOp45
 70
     1
102
RTVSPost2010Prop46
 90
       50
102
RTVSPost2010PropOp46
 70
     1
102
RTVSPost2010Prop47
 90
       50
102
RTVSPost2010PropOp47
 70
     1
102
RTVSPost2010Prop48
 90
       50
102
RTVSPost2010PropOp48
 70
     1
102
RTVSPost2010Prop49
280
     0
102
RTVSPost2010PropOp49
 70
     1
102
RTVSPost2010Prop50
 90
       50
102
RTVSPost2010PropOp50
 70
     1
102
RTVSPost2010Prop51ColorIndex
 90
      256
102
RTVSPost2010Prop51ColorRGB
 90
-16777216
102
RTVSPost2010PropOp51
 70
     0
102
RTVSPost2010Prop52
140
1.0
102
RTVSPost2010PropOp52
 70
     0
102
RTVSPost2010Prop53
 90
        2
102
RTVSPost2010PropOp53
 70
     1
102
RTVSPost2010Prop54
  1
strokes_ogs.tif
102
RTVSPost2010PropOp54
 70
     1
102
RTVSPost2010Prop55
280
     0
102
RTVSPost2010PropOp55
 70
     1
102
RTVSPost2010Prop56
140
1.0
102
RTVSPost2010PropOp56
 70
     1
102
RTVSPost2010Prop57
140
1.0
102
RTVSPost2010PropOp57
 70
     1
  0
XRECORD
  5
15E
102
{ACAD_REACTORS
330
15D
102
}
330
15D
100
AcDbXrecord
280
     1
102
RTVSPost2010Prop28
280
     0
102
RTVSPost2010PropOp28
 70
     1
102
RTVSPost2010Prop29
280
     1
102
RTVSPost2010PropOp29
 70
     1
102
RTVSPost2010Prop30
280
     1
102
RTVSPost2010PropOp30
 70
     1
102
RTVSPost2010Prop31
280
     0
102
RTVSPost2010PropOp31
 70
     1
102
RTVSPost2010Prop32
280
     0
102
RTVSPost2010PropOp32
 70
     1
102
RTVSPost2010Prop33
280
     0
102
RTVSPost2010PropOp33
 70
     1
102
RTVSPost2010Prop34
280
     0
102
RTVSPost2010PropOp34
 70
     1
102
RTVSPost2010Prop35
280
     0
102
RTVSPost2010PropOp35
 70
     1
102
RTVSPost2010Prop36
280
     0
102
RTVSPost2010PropOp36
 70
     1
102
RTVSPost2010Prop37
 90
       50
102
RTVSPost2010PropOp37
 70
     1
102
RTVSPost2010Prop38
140
0.0
102
RTVSPost2010PropOp38
 70
     1
102
RTVSPost2010Prop39
140
1.0
102
RTVSPost2010PropOp39
 70
     1
102
RTVSPost2010Prop40
 90
        0
102
RTVSPost2010PropOp40
 70
     1
102
RTVSPost2010Prop41ColorIndex
 90
       18
102
RTVSPost2010Prop41ColorRGB
 90
        0
102
RTVSPost2010PropOp41
 70
     1
102
RTVSPost2010Prop42
 90
       50
102
RTVSPost2010PropOp42
 70
     1
102
RTVSPost2010Prop43
 90
        3
102
RTVSPost2010PropOp43
 70
     1
102
RTVSPost2010Prop44ColorIndex
 90
        5
102
RTVSPost2010Prop44ColorRGB
 90
      255
102
RTVSPost2010PropOp44
 70
     1
102
RTVSPost2010Prop45
280
     0
102
RTVSPost2010PropOp45
 70
     1
102
RTVSPost2010Prop46
 90
       50
102
RTVSPost2010PropOp46
 70
     1
102
RTVSPost2010Prop47
 90
       50
102
RTVSPost2010PropOp47
 70
     1
102
RTVSPost2010Prop48
 90
       50
102
RTVSPost2010PropOp48
 70
     1
102
RTVSPost2010Prop49
280
     0
102
RTVSPost2010PropOp49
 70
     1
102
RTVSPost2010Prop50
 90
       50
102
RTVSPost2010PropOp50
 70
     1
102
RTVSPost2010Prop51ColorIndex
 90
      256
102
RTVSPost2010Prop51ColorRGB
 90
-16777216
102
RTVSPost2010PropOp51
 70
     0
102
RTVSPost2010Prop52
140
1.0
102
RTVSPost2010PropOp52
 70
     0
102
RTVSPost2010Prop53
 90
        2
102
RTVSPost2010PropOp53
 70
     1
102
RTVSPost2010Prop54
  1
strokes_ogs.tif
102
RTVSPost2010PropOp54
 70
     1
102
RTVSPost2010Prop55
280
     0
102
RTVSPost2010PropOp55
 70
     1
102
RTVSPost2010Prop56
140
1.0
102
RTVSPost2010PropOp56
 70
     1
102
RTVSPost2010Prop57
140
1.0
102
RTVSPost2010PropOp57
 70
     1
  0
XRECORD
  5
16C
102
{ACAD_REACTORS
330
16B
102
}
330
16B
100
AcDbXrecord
280
     1
102
RTVSPost2010Prop28
280
     0
102
RTVSPost2010PropOp28
 70
     1
102
RTVSPost2010Prop29
280
     1
102
RTVSPost2010PropOp29
 70
     1
102
RTVSPost2010Prop30
280
     1
102
RTVSPost2010PropOp30
 70
     1
102
RTVSPost2010Prop31
280
     0
102
RTVSPost2010PropOp31
 70
     1
102
RTVSPost2010Prop32
280
     0
102
RTVSPost2010PropOp32
 70
     1
102
RTVSPost2010Prop33
280
     0
102
RTVSPost2010PropOp33
 70
     1
102
RTVSPost2010Prop34
280
     0
102
RTVSPost2010PropOp34
 70
     1
102
RTVSPost2010Prop35
280
     0
102
RTVSPost2010PropOp35
 70
     1
102
RTVSPost2010Prop36
280
     0
102
RTVSPost2010PropOp36
 70
     1
102
RTVSPost2010Prop37
 90
       50
102
RTVSPost2010PropOp37
 70
     1
102
RTVSPost2010Prop38
140
0.0
102
RTVSPost2010PropOp38
 70
     1
102
RTVSPost2010Prop39
140
1.0
102
RTVSPost2010PropOp39
 70
     1
102
RTVSPost2010Prop40
 90
        0
102
RTVSPost2010PropOp40
 70
     1
102
RTVSPost2010Prop41ColorIndex
 90
       18
102
RTVSPost2010Prop41ColorRGB
 90
        0
102
RTVSPost2010PropOp41
 70
     1
102
RTVSPost2010Prop42
 90
       50
102
RTVSPost2010PropOp42
 70
     1
102
RTVSPost2010Prop43
 90
        3
102
RTVSPost2010PropOp43
 70
     1
102
RTVSPost2010Prop44ColorIndex
 90
        5
102
RTVSPost2010Prop44ColorRGB
 90
      255
102
RTVSPost2010PropOp44
 70
     1
102
RTVSPost2010Prop45
280
     0
102
RTVSPost2010PropOp45
 70
     1
102
RTVSPost2010Prop46
 90
       50
102
RTVSPost2010PropOp46
 70
     1
102
RTVSPost2010Prop47
 90
       50
102
RTVSPost2010PropOp47
 70
     1
102
RTVSPost2010Prop48
 90
       50
102
RTVSPost2010PropOp48
 70
     1
102
RTVSPost2010Prop49
280
     0
102
RTVSPost2010PropOp49
 70
     1
102
RTVSPost2010Prop50
 90
       50
102
RTVSPost2010PropOp50
 70
     1
102
RTVSPost2010Prop51ColorIndex
 90
      256
102
RTVSPost2010Prop51ColorRGB
 90
-16777216
102
RTVSPost2010PropOp51
 70
     0
102
RTVSPost2010Prop52
140
1.0
102
RTVSPost2010PropOp52
 70
     0
102
RTVSPost2010Prop53
 90
        2
102
RTVSPost2010PropOp53
 70
     1
102
RTVSPost2010Prop54
  1
strokes_ogs.tif
102
RTVSPost2010PropOp54
 70
     1
102
RTVSPost2010Prop55
280
     0
102
RTVSPost2010PropOp55
 70
     1
102
RTVSPost2010Prop56
140
1.0
102
RTVSPost2010PropOp56
 70
     1
102
RTVSPost2010Prop57
140
1.0
102
RTVSPost2010PropOp57
 70
     1
  0
XRECORD
  5
174
102
{ACAD_REACTORS
330
173
102
}
330
173
100
AcDbXrecord
280
     1
102
RTVSPost2010Prop28
280
     0
102
RTVSPost2010PropOp28
 70
     1
102
RTVSPost2010Prop29
280
     1
102
RTVSPost2010PropOp29
 70
     1
102
RTVSPost2010Prop30
280
     1
102
RTVSPost2010PropOp30
 70
     1
102
RTVSPost2010Prop31
280
     0
102
RTVSPost2010PropOp31
 70
     1
102
RTVSPost2010Prop32
280
     0
102
RTVSPost2010PropOp32
 70
     1
102
RTVSPost2010Prop33
280
     0
102
RTVSPost2010PropOp33
 70
     1
102
RTVSPost2010Prop34
280
     0
102
RTVSPost2010PropOp34
 70
     1
102
RTVSPost2010Prop35
280
     0
102
RTVSPost2010PropOp35
 70
     1
102
RTVSPost2010Prop36
280
     0
102
RTVSPost2010PropOp36
 70
     1
102
RTVSPost2010Prop37
 90
       50
102
RTVSPost2010PropOp37
 70
     1
102
RTVSPost2010Prop38
140
0.0
102
RTVSPost2010PropOp38
 70
     1
102
RTVSPost2010Prop39
140
1.0
102
RTVSPost2010PropOp39
 70
     1
102
RTVSPost2010Prop40
 90
        0
102
RTVSPost2010PropOp40
 70
     1
102
RTVSPost2010Prop41ColorIndex
 90
       18
102
RTVSPost2010Prop41ColorRGB
 90
        0
102
RTVSPost2010PropOp41
 70
     1
102
RTVSPost2010Prop42
 90
       50
102
RTVSPost2010PropOp42
 70
     1
102
RTVSPost2010Prop43
 90
        3
102
RTVSPost2010PropOp43
 70
     1
102
RTVSPost2010Prop44ColorIndex
 90
        5
102
RTVSPost2010Prop44ColorRGB
 90
      255
102
RTVSPost2010PropOp44
 70
     1
102
RTVSPost2010Prop45
280
     0
102
RTVSPost2010PropOp45
 70
     1
102
RTVSPost2010Prop46
 90
       50
102
RTVSPost2010PropOp46
 70
     1
102
RTVSPost2010Prop47
 90
       50
102
RTVSPost2010PropOp47
 70
     1
102
RTVSPost2010Prop48
 90
       50
102
RTVSPost2010PropOp48
 70
     1
102
RTVSPost2010Prop49
280
     0
102
RTVSPost2010PropOp49
 70
     1
102
RTVSPost2010Prop50
 90
       50
102
RTVSPost2010PropOp50
 70
     1
102
RTVSPost2010Prop51ColorIndex
 90
      256
102
RTVSPost2010Prop51ColorRGB
 90
-16777216
102
RTVSPost2010PropOp51
 70
     0
102
RTVSPost2010Prop52
140
1.0
102
RTVSPost2010PropOp52
 70
     0
102
RTVSPost2010Prop53
 90
        2
102
RTVSPost2010PropOp53
 70
     1
102
RTVSPost2010Prop54
  1
strokes_ogs.tif
102
RTVSPost2010PropOp54
 70
     1
102
RTVSPost2010Prop55
280
     0
102
RTVSPost2010PropOp55
 70
     1
102
RTVSPost2010Prop56
140
1.0
102
RTVSPost2010PropOp56
 70
     1
102
RTVSPost2010Prop57
140
1.0
102
RTVSPost2010PropOp57
 70
     1
  0
XRECORD
  5
166
102
{ACAD_REACTORS
330
165
102
}
330
165
100
AcDbXrecord
280
     1
102
RTVSPost2010Prop28
280
     0
102
RTVSPost2010PropOp28
 70
     1
102
RTVSPost2010Prop29
280
     1
102
RTVSPost2010PropOp29
 70
     1
102
RTVSPost2010Prop30
280
     1
102
RTVSPost2010PropOp30
 70
     1
102
RTVSPost2010Prop31
280
     0
102
RTVSPost2010PropOp31
 70
     1
102
RTVSPost2010Prop32
280
     0
102
RTVSPost2010PropOp32
 70
     1
102
RTVSPost2010Prop33
280
     0
102
RTVSPost2010PropOp33
 70
     1
102
RTVSPost2010Prop34
280
     0
102
RTVSPost2010PropOp34
 70
     1
102
RTVSPost2010Prop35
280
     0
102
RTVSPost2010PropOp35
 70
     1
102
RTVSPost2010Prop36
280
     0
102
RTVSPost2010PropOp36
 70
     1
102
RTVSPost2010Prop37
 90
       50
102
RTVSPost2010PropOp37
 70
     1
102
RTVSPost2010Prop38
140
0.0
102
RTVSPost2010PropOp38
 70
     1
102
RTVSPost2010Prop39
140
1.0
102
RTVSPost2010PropOp39
 70
     1
102
RTVSPost2010Prop40
 90
        0
102
RTVSPost2010PropOp40
 70
     1
102
RTVSPost2010Prop41ColorIndex
 90
       18
102
RTVSPost2010Prop41ColorRGB
 90
        0
102
RTVSPost2010PropOp41
 70
     1
102
RTVSPost2010Prop42
 90
       50
102
RTVSPost2010PropOp42
 70
     1
102
RTVSPost2010Prop43
 90
        3
102
RTVSPost2010PropOp43
 70
     1
102
RTVSPost2010Prop44ColorIndex
 90
        5
102
RTVSPost2010Prop44ColorRGB
 90
      255
102
RTVSPost2010PropOp44
 70
     1
102
RTVSPost2010Prop45
280
     0
102
RTVSPost2010PropOp45
 70
     1
102
RTVSPost2010Prop46
 90
       50
102
RTVSPost2010PropOp46
 70
     1
102
RTVSPost2010Prop47
 90
       50
102
RTVSPost2010PropOp47
 70
     1
102
RTVSPost2010Prop48
 90
       50
102
RTVSPost2010PropOp48
 70
     1
102
RTVSPost2010Prop49
280
     0
102
RTVSPost2010PropOp49
 70
     1
102
RTVSPost2010Prop50
 90
       50
102
RTVSPost2010PropOp50
 70
     1
102
RTVSPost2010Prop51ColorIndex
 90
      256
102
RTVSPost2010Prop51ColorRGB
 90
-16777216
102
RTVSPost2010PropOp51
 70
     0
102
RTVSPost2010Prop52
140
1.0
102
RTVSPost2010PropOp52
 70
     0
102
RTVSPost2010Prop53
 90
        2
102
RTVSPost2010PropOp53
 70
     1
102
RTVSPost2010Prop54
  1
strokes_ogs.tif
102
RTVSPost2010PropOp54
 70
     1
102
RTVSPost2010Prop55
280
     0
102
RTVSPost2010PropOp55
 70
     1
102
RTVSPost2010Prop56
140
1.0
102
RTVSPost2010PropOp56
 70
     1
102
RTVSPost2010Prop57
140
1.0
102
RTVSPost2010PropOp57
 70
     1
  0
XRECORD
  5
16A
102
{ACAD_REACTORS
330
169
102
}
330
169
100
AcDbXrecord
280
     1
102
RTVSPost2010Prop28
280
     0
102
RTVSPost2010PropOp28
 70
     1
102
RTVSPost2010Prop29
280
     1
102
RTVSPost2010PropOp29
 70
     1
102
RTVSPost2010Prop30
280
     1
102
RTVSPost2010PropOp30
 70
     1
102
RTVSPost2010Prop31
280
     0
102
RTVSPost2010PropOp31
 70
     1
102
RTVSPost2010Prop32
280
     0
102
RTVSPost2010PropOp32
 70
     1
102
RTVSPost2010Prop33
280
     0
102
RTVSPost2010PropOp33
 70
     1
102
RTVSPost2010Prop34
280
     0
102
RTVSPost2010PropOp34
 70
     1
102
RTVSPost2010Prop35
280
     0
102
RTVSPost2010PropOp35
 70
     1
102
RTVSPost2010Prop36
280
     0
102
RTVSPost2010PropOp36
 70
     1
102
RTVSPost2010Prop37
 90
       50
102
RTVSPost2010PropOp37
 70
     1
102
RTVSPost2010Prop38
140
0.0
102
RTVSPost2010PropOp38
 70
     1
102
RTVSPost2010Prop39
140
1.0
102
RTVSPost2010PropOp39
 70
     1
102
RTVSPost2010Prop40
 90
        0
102
RTVSPost2010PropOp40
 70
     1
102
RTVSPost2010Prop41ColorIndex
 90
       18
102
RTVSPost2010Prop41ColorRGB
 90
        0
102
RTVSPost2010PropOp41
 70
     1
102
RTVSPost2010Prop42
 90
       50
102
RTVSPost2010PropOp42
 70
     1
102
RTVSPost2010Prop43
 90
        3
102
RTVSPost2010PropOp43
 70
     1
102
RTVSPost2010Prop44ColorIndex
 90
        5
102
RTVSPost2010Prop44ColorRGB
 90
      255
102
RTVSPost2010PropOp44
 70
     1
102
RTVSPost2010Prop45
280
     0
102
RTVSPost2010PropOp45
 70
     1
102
RTVSPost2010Prop46
 90
       50
102
RTVSPost2010PropOp46
 70
     1
102
RTVSPost2010Prop47
 90
       50
102
RTVSPost2010PropOp47
 70
     1
102
RTVSPost2010Prop48
 90
       50
102
RTVSPost2010PropOp48
 70
     1
102
RTVSPost2010Prop49
280
     0
102
RTVSPost2010PropOp49
 70
     1
102
RTVSPost2010Prop50
 90
       50
102
RTVSPost2010PropOp50
 70
     1
102
RTVSPost2010Prop51ColorIndex
 90
      256
102
RTVSPost2010Prop51ColorRGB
 90
-16777216
102
RTVSPost2010PropOp51
 70
     0
102
RTVSPost2010Prop52
140
1.0
102
RTVSPost2010PropOp52
 70
     0
102
RTVSPost2010Prop53
 90
        2
102
RTVSPost2010PropOp53
 70
     1
102
RTVSPost2010Prop54
  1
strokes_ogs.tif
102
RTVSPost2010PropOp54
 70
     1
102
RTVSPost2010Prop55
280
     0
102
RTVSPost2010PropOp55
 70
     1
102
RTVSPost2010Prop56
140
1.0
102
RTVSPost2010PropOp56
 70
     1
102
RTVSPost2010Prop57
140
1.0
102
RTVSPost2010PropOp57
 70
     1
  0
XRECORD
  5
184
102
{ACAD_REACTORS
330
183
102
}
330
183
100
AcDbXrecord
280
     1
102
RTVSPost2010Prop28
280
     0
102
RTVSPost2010PropOp28
 70
     0
102
RTVSPost2010Prop29
280
     1
102
RTVSPost2010PropOp29
 70
     0
102
RTVSPost2010Prop30
280
     1
102
RTVSPost2010PropOp30
 70
     0
102
RTVSPost2010Prop31
280
     0
102
RTVSPost2010PropOp31
 70
     0
102
RTVSPost2010Prop32
280
     0
102
RTVSPost2010PropOp32
 70
     0
102
RTVSPost2010Prop33
280
     0
102
RTVSPost2010PropOp33
 70
     0
102
RTVSPost2010Prop34
280
     0
102
RTVSPost2010PropOp34
 70
     0
102
RTVSPost2010Prop35
280
     0
102
RTVSPost2010PropOp35
 70
     0
102
RTVSPost2010Prop36
280
     0
102
RTVSPost2010PropOp36
 70
     0
102
RTVSPost2010Prop37
 90
       50
102
RTVSPost2010PropOp37
 70
     0
102
RTVSPost2010Prop38
140
0.0
102
RTVSPost2010PropOp38
 70
     0
102
RTVSPost2010Prop39
140
1.0
102
RTVSPost2010PropOp39
 70
     0
102
RTVSPost2010Prop40
 90
        0
102
RTVSPost2010PropOp40
 70
     0
102
RTVSPost2010Prop41ColorIndex
 90
       18
102
RTVSPost2010Prop41ColorRGB
 90
        0
102
RTVSPost2010PropOp41
 70
     0
102
RTVSPost2010Prop42
 90
       50
102
RTVSPost2010PropOp42
 70
     0
102
RTVSPost2010Prop43
 90
        3
102
RTVSPost2010PropOp43
 70
     0
102
RTVSPost2010Prop44ColorIndex
 90
        5
102
RTVSPost2010Prop44ColorRGB
 90
      255
102
RTVSPost2010PropOp44
 70
     0
102
RTVSPost2010Prop45
280
     0
102
RTVSPost2010PropOp45
 70
     0
102
RTVSPost2010Prop46
 90
       50
102
RTVSPost2010PropOp46
 70
     0
102
RTVSPost2010Prop47
 90
       50
102
RTVSPost2010PropOp47
 70
     0
102
RTVSPost2010Prop48
 90
       50
102
RTVSPost2010PropOp48
 70
     0
102
RTVSPost2010Prop49
280
     0
102
RTVSPost2010PropOp49
 70
     0
102
RTVSPost2010Prop50
 90
       50
102
RTVSPost2010PropOp50
 70
     0
102
RTVSPost2010Prop51ColorIndex
 90
      256
102
RTVSPost2010Prop51ColorRGB
 90
-16777216
102
RTVSPost2010PropOp51
 70
     0
102
RTVSPost2010Prop52
140
1.0
102
RTVSPost2010PropOp52
 70
     0
102
RTVSPost2010Prop53
 90
        2
102
RTVSPost2010PropOp53
 70
     0
102
RTVSPost2010Prop54
  1
strokes_ogs.tif
102
RTVSPost2010PropOp54
 70
     0
102
RTVSPost2010Prop55
280
     0
102
RTVSPost2010PropOp55
 70
     0
102
RTVSPost2010Prop56
140
1.0
102
RTVSPost2010PropOp56
 70
     0
102
RTVSPost2010Prop57
140
1.0
102
RTVSPost2010PropOp57
 70
     0
  0
XRECORD
  5
172
102
{ACAD_REACTORS
330
171
102
}
330
171
100
AcDbXrecord
280
     1
102
RTVSPost2010Prop28
280
     0
102
RTVSPost2010PropOp28
 70
     1
102
RTVSPost2010Prop29
280
     1
102
RTVSPost2010PropOp29
 70
     1
102
RTVSPost2010Prop30
280
     1
102
RTVSPost2010PropOp30
 70
     1
102
RTVSPost2010Prop31
280
     0
102
RTVSPost2010PropOp31
 70
     1
102
RTVSPost2010Prop32
280
     0
102
RTVSPost2010PropOp32
 70
     1
102
RTVSPost2010Prop33
280
     0
102
RTVSPost2010PropOp33
 70
     1
102
RTVSPost2010Prop34
280
     0
102
RTVSPost2010PropOp34
 70
     1
102
RTVSPost2010Prop35
280
     0
102
RTVSPost2010PropOp35
 70
     1
102
RTVSPost2010Prop36
280
     0
102
RTVSPost2010PropOp36
 70
     1
102
RTVSPost2010Prop37
 90
       50
102
RTVSPost2010PropOp37
 70
     1
102
RTVSPost2010Prop38
140
0.0
102
RTVSPost2010PropOp38
 70
     1
102
RTVSPost2010Prop39
140
1.0
102
RTVSPost2010PropOp39
 70
     1
102
RTVSPost2010Prop40
 90
        0
102
RTVSPost2010PropOp40
 70
     1
102
RTVSPost2010Prop41ColorIndex
 90
       18
102
RTVSPost2010Prop41ColorRGB
 90
        0
102
RTVSPost2010PropOp41
 70
     1
102
RTVSPost2010Prop42
 90
       50
102
RTVSPost2010PropOp42
 70
     1
102
RTVSPost2010Prop43
 90
        3
102
RTVSPost2010PropOp43
 70
     1
102
RTVSPost2010Prop44ColorIndex
 90
        5
102
RTVSPost2010Prop44ColorRGB
 90
      255
102
RTVSPost2010PropOp44
 70
     1
102
RTVSPost2010Prop45
280
     0
102
RTVSPost2010PropOp45
 70
     1
102
RTVSPost2010Prop46
 90
       50
102
RTVSPost2010PropOp46
 70
     1
102
RTVSPost2010Prop47
 90
       50
102
RTVSPost2010PropOp47
 70
     1
102
RTVSPost2010Prop48
 90
       50
102
RTVSPost2010PropOp48
 70
     1
102
RTVSPost2010Prop49
280
     0
102
RTVSPost2010PropOp49
 70
     1
102
RTVSPost2010Prop50
 90
       50
102
RTVSPost2010PropOp50
 70
     1
102
RTVSPost2010Prop51ColorIndex
 90
      256
102
RTVSPost2010Prop51ColorRGB
 90
-16777216
102
RTVSPost2010PropOp51
 70
     0
102
RTVSPost2010Prop52
140
1.0
102
RTVSPost2010PropOp52
 70
     0
102
RTVSPost2010Prop53
 90
        2
102
RTVSPost2010PropOp53
 70
     1
102
RTVSPost2010Prop54
  1
strokes_ogs.tif
102
RTVSPost2010PropOp54
 70
     1
102
RTVSPost2010Prop55
280
     0
102
RTVSPost2010PropOp55
 70
     1
102
RTVSPost2010Prop56
140
1.0
102
RTVSPost2010PropOp56
 70
     1
102
RTVSPost2010Prop57
140
1.0
102
RTVSPost2010PropOp57
 70
     1
  0
XRECORD
  5
156
102
{ACAD_REACTORS
330
155
102
}
330
155
100
AcDbXrecord
280
     1
102
RTVSPost2010Prop28
280
     0
102
RTVSPost2010PropOp28
 70
     1
102
RTVSPost2010Prop29
280
     1
102
RTVSPost2010PropOp29
 70
     1
102
RTVSPost2010Prop30
280
     1
102
RTVSPost2010PropOp30
 70
     1
102
RTVSPost2010Prop31
280
     0
102
RTVSPost2010PropOp31
 70
     1
102
RTVSPost2010Prop32
280
     0
102
RTVSPost2010PropOp32
 70
     1
102
RTVSPost2010Prop33
280
     0
102
RTVSPost2010PropOp33
 70
     1
102
RTVSPost2010Prop34
280
     0
102
RTVSPost2010PropOp34
 70
     1
102
RTVSPost2010Prop35
280
     0
102
RTVSPost2010PropOp35
 70
     1
102
RTVSPost2010Prop36
280
     0
102
RTVSPost2010PropOp36
 70
     1
102
RTVSPost2010Prop37
 90
       50
102
RTVSPost2010PropOp37
 70
     1
102
RTVSPost2010Prop38
140
0.0
102
RTVSPost2010PropOp38
 70
     1
102
RTVSPost2010Prop39
140
1.0
102
RTVSPost2010PropOp39
 70
     1
102
RTVSPost2010Prop40
 90
        0
102
RTVSPost2010PropOp40
 70
     1
102
RTVSPost2010Prop41ColorIndex
 90
       18
102
RTVSPost2010Prop41ColorRGB
 90
        0
102
RTVSPost2010PropOp41
 70
     1
102
RTVSPost2010Prop42
 90
       50
102
RTVSPost2010PropOp42
 70
     1
102
RTVSPost2010Prop43
 90
        3
102
RTVSPost2010PropOp43
 70
     1
102
RTVSPost2010Prop44ColorIndex
 90
        5
102
RTVSPost2010Prop44ColorRGB
 90
      255
102
RTVSPost2010PropOp44
 70
     1
102
RTVSPost2010Prop45
280
     0
102
RTVSPost2010PropOp45
 70
     1
102
RTVSPost2010Prop46
 90
       50
102
RTVSPost2010PropOp46
 70
     1
102
RTVSPost2010Prop47
 90
       50
102
RTVSPost2010PropOp47
 70
     1
102
RTVSPost2010Prop48
 90
       50
102
RTVSPost2010PropOp48
 70
     1
102
RTVSPost2010Prop49
280
     0
102
RTVSPost2010PropOp49
 70
     1
102
RTVSPost2010Prop50
 90
       50
102
RTVSPost2010PropOp50
 70
     1
102
RTVSPost2010Prop51ColorIndex
 90
      256
102
RTVSPost2010Prop51ColorRGB
 90
-16777216
102
RTVSPost2010PropOp51
 70
     0
102
RTVSPost2010Prop52
140
1.0
102
RTVSPost2010PropOp52
 70
     0
102
RTVSPost2010Prop53
 90
        2
102
RTVSPost2010PropOp53
 70
     1
102
RTVSPost2010Prop54
  1
strokes_ogs.tif
102
RTVSPost2010PropOp54
 70
     1
102
RTVSPost2010Prop55
280
     0
102
RTVSPost2010PropOp55
 70
     1
102
RTVSPost2010Prop56
140
1.0
102
RTVSPost2010PropOp56
 70
     1
102
RTVSPost2010Prop57
140
1.0
102
RTVSPost2010PropOp57
 70
     1
  0
XRECORD
  5
158
102
{ACAD_REACTORS
330
157
102
}
330
157
100
AcDbXrecord
280
     1
102
RTVSPost2010Prop28
280
     0
102
RTVSPost2010PropOp28
 70
     1
102
RTVSPost2010Prop29
280
     1
102
RTVSPost2010PropOp29
 70
     1
102
RTVSPost2010Prop30
280
     1
102
RTVSPost2010PropOp30
 70
     1
102
RTVSPost2010Prop31
280
     0
102
RTVSPost2010PropOp31
 70
     1
102
RTVSPost2010Prop32
280
     0
102
RTVSPost2010PropOp32
 70
     1
102
RTVSPost2010Prop33
280
     0
102
RTVSPost2010PropOp33
 70
     1
102
RTVSPost2010Prop34
280
     0
102
RTVSPost2010PropOp34
 70
     1
102
RTVSPost2010Prop35
280
     0
102
RTVSPost2010PropOp35
 70
     1
102
RTVSPost2010Prop36
280
     0
102
RTVSPost2010PropOp36
 70
     1
102
RTVSPost2010Prop37
 90
       50
102
RTVSPost2010PropOp37
 70
     1
102
RTVSPost2010Prop38
140
0.0
102
RTVSPost2010PropOp38
 70
     1
102
RTVSPost2010Prop39
140
1.0
102
RTVSPost2010PropOp39
 70
     1
102
RTVSPost2010Prop40
 90
        0
102
RTVSPost2010PropOp40
 70
     1
102
RTVSPost2010Prop41ColorIndex
 90
       18
102
RTVSPost2010Prop41ColorRGB
 90
        0
102
RTVSPost2010PropOp41
 70
     1
102
RTVSPost2010Prop42
 90
       50
102
RTVSPost2010PropOp42
 70
     1
102
RTVSPost2010Prop43
 90
        3
102
RTVSPost2010PropOp43
 70
     1
102
RTVSPost2010Prop44ColorIndex
 90
        5
102
RTVSPost2010Prop44ColorRGB
 90
      255
102
RTVSPost2010PropOp44
 70
     1
102
RTVSPost2010Prop45
280
     0
102
RTVSPost2010PropOp45
 70
     1
102
RTVSPost2010Prop46
 90
       50
102
RTVSPost2010PropOp46
 70
     1
102
RTVSPost2010Prop47
 90
       50
102
RTVSPost2010PropOp47
 70
     1
102
RTVSPost2010Prop48
 90
       50
102
RTVSPost2010PropOp48
 70
     1
102
RTVSPost2010Prop49
280
     0
102
RTVSPost2010PropOp49
 70
     1
102
RTVSPost2010Prop50
 90
       50
102
RTVSPost2010PropOp50
 70
     1
102
RTVSPost2010Prop51ColorIndex
 90
      256
102
RTVSPost2010Prop51ColorRGB
 90
-16777216
102
RTVSPost2010PropOp51
 70
     0
102
RTVSPost2010Prop52
140
1.0
102
RTVSPost2010PropOp52
 70
     0
102
RTVSPost2010Prop53
 90
        2
102
RTVSPost2010PropOp53
 70
     1
102
RTVSPost2010Prop54
  1
strokes_ogs.tif
102
RTVSPost2010PropOp54
 70
     1
102
RTVSPost2010Prop55
280
     0
102
RTVSPost2010PropOp55
 70
     1
102
RTVSPost2010Prop56
140
1.0
102
RTVSPost2010PropOp56
 70
     1
102
RTVSPost2010Prop57
140
1.0
102
RTVSPost2010PropOp57
 70
     1
  0
XRECORD
  5
15A
102
{ACAD_REACTORS
330
159
102
}
330
159
100
AcDbXrecord
280
     1
102
RTVSPost2010Prop28
280
     0
102
RTVSPost2010PropOp28
 70
     1
102
RTVSPost2010Prop29
280
     1
102
RTVSPost2010PropOp29
 70
     1
102
RTVSPost2010Prop30
280
     1
102
RTVSPost2010PropOp30
 70
     1
102
RTVSPost2010Prop31
280
     0
102
RTVSPost2010PropOp31
 70
     1
102
RTVSPost2010Prop32
280
     0
102
RTVSPost2010PropOp32
 70
     1
102
RTVSPost2010Prop33
280
     0
102
RTVSPost2010PropOp33
 70
     1
102
RTVSPost2010Prop34
280
     0
102
RTVSPost2010PropOp34
 70
     1
102
RTVSPost2010Prop35
280
     0
102
RTVSPost2010PropOp35
 70
     1
102
RTVSPost2010Prop36
280
     0
102
RTVSPost2010PropOp36
 70
     1
102
RTVSPost2010Prop37
 90
       50
102
RTVSPost2010PropOp37
 70
     1
102
RTVSPost2010Prop38
140
0.0
102
RTVSPost2010PropOp38
 70
     1
102
RTVSPost2010Prop39
140
1.0
102
RTVSPost2010PropOp39
 70
     1
102
RTVSPost2010Prop40
 90
        0
102
RTVSPost2010PropOp40
 70
     1
102
RTVSPost2010Prop41ColorIndex
 90
       18
102
RTVSPost2010Prop41ColorRGB
 90
        0
102
RTVSPost2010PropOp41
 70
     1
102
RTVSPost2010Prop42
 90
       50
102
RTVSPost2010PropOp42
 70
     1
102
RTVSPost2010Prop43
 90
        3
102
RTVSPost2010PropOp43
 70
     1
102
RTVSPost2010Prop44ColorIndex
 90
        5
102
RTVSPost2010Prop44ColorRGB
 90
      255
102
RTVSPost2010PropOp44
 70
     1
102
RTVSPost2010Prop45
280
     0
102
RTVSPost2010PropOp45
 70
     1
102
RTVSPost2010Prop46
 90
       50
102
RTVSPost2010PropOp46
 70
     1
102
RTVSPost2010Prop47
 90
       50
102
RTVSPost2010PropOp47
 70
     1
102
RTVSPost2010Prop48
 90
       50
102
RTVSPost2010PropOp48
 70
     1
102
RTVSPost2010Prop49
280
     0
102
RTVSPost2010PropOp49
 70
     1
102
RTVSPost2010Prop50
 90
       50
102
RTVSPost2010PropOp50
 70
     1
102
RTVSPost2010Prop51ColorIndex
 90
      256
102
RTVSPost2010Prop51ColorRGB
 90
-16777216
102
RTVSPost2010PropOp51
 70
     0
102
RTVSPost2010Prop52
140
1.0
102
RTVSPost2010PropOp52
 70
     0
102
RTVSPost2010Prop53
 90
        2
102
RTVSPost2010PropOp53
 70
     1
102
RTVSPost2010Prop54
  1
strokes_ogs.tif
102
RTVSPost2010PropOp54
 70
     1
102
RTVSPost2010Prop55
280
     0
102
RTVSPost2010PropOp55
 70
     1
102
RTVSPost2010Prop56
140
1.0
102
RTVSPost2010PropOp56
 70
     1
102
RTVSPost2010Prop57
140
1.0
102
RTVSPost2010PropOp57
 70
     1
  0
XRECORD
  5
15C
102
{ACAD_REACTORS
330
15B
102
}
330
15B
100
AcDbXrecord
280
     1
102
RTVSPost2010Prop28
280
     0
102
RTVSPost2010PropOp28
 70
     1
102
RTVSPost2010Prop29
280
     1
102
RTVSPost2010PropOp29
 70
     1
102
RTVSPost2010Prop30
280
     1
102
RTVSPost2010PropOp30
 70
     1
102
RTVSPost2010Prop31
280
     0
102
RTVSPost2010PropOp31
 70
     1
102
RTVSPost2010Prop32
280
     0
102
RTVSPost2010PropOp32
 70
     1
102
RTVSPost2010Prop33
280
     0
102
RTVSPost2010PropOp33
 70
     1
102
RTVSPost2010Prop34
280
     0
102
RTVSPost2010PropOp34
 70
     1
102
RTVSPost2010Prop35
280
     0
102
RTVSPost2010PropOp35
 70
     1
102
RTVSPost2010Prop36
280
     0
102
RTVSPost2010PropOp36
 70
     1
102
RTVSPost2010Prop37
 90
       50
102
RTVSPost2010PropOp37
 70
     1
102
RTVSPost2010Prop38
140
0.0
102
RTVSPost2010PropOp38
 70
     1
102
RTVSPost2010Prop39
140
1.0
102
RTVSPost2010PropOp39
 70
     1
102
RTVSPost2010Prop40
 90
        0
102
RTVSPost2010PropOp40
 70
     1
102
RTVSPost2010Prop41ColorIndex
 90
       18
102
RTVSPost2010Prop41ColorRGB
 90
        0
102
RTVSPost2010PropOp41
 70
     1
102
RTVSPost2010Prop42
 90
       50
102
RTVSPost2010PropOp42
 70
     1
102
RTVSPost2010Prop43
 90
        3
102
RTVSPost2010PropOp43
 70
     1
102
RTVSPost2010Prop44ColorIndex
 90
        5
102
RTVSPost2010Prop44ColorRGB
 90
      255
102
RTVSPost2010PropOp44
 70
     1
102
RTVSPost2010Prop45
280
     0
102
RTVSPost2010PropOp45
 70
     1
102
RTVSPost2010Prop46
 90
       50
102
RTVSPost2010PropOp46
 70
     1
102
RTVSPost2010Prop47
 90
       50
102
RTVSPost2010PropOp47
 70
     1
102
RTVSPost2010Prop48
 90
       50
102
RTVSPost2010PropOp48
 70
     1
102
RTVSPost2010Prop49
280
     0
102
RTVSPost2010PropOp49
 70
     1
102
RTVSPost2010Prop50
 90
       50
102
RTVSPost2010PropOp50
 70
     1
102
RTVSPost2010Prop51ColorIndex
 90
      256
102
RTVSPost2010Prop51ColorRGB
 90
-16777216
102
RTVSPost2010PropOp51
 70
     0
102
RTVSPost2010Prop52
140
1.0
102
RTVSPost2010PropOp52
 70
     0
102
RTVSPost2010Prop53
 90
        2
102
RTVSPost2010PropOp53
 70
     1
102
RTVSPost2010Prop54
  1
strokes_ogs.tif
102
RTVSPost2010PropOp54
 70
     1
102
RTVSPost2010Prop55
280
     0
102
RTVSPost2010PropOp55
 70
     1
102
RTVSPost2010Prop56
140
1.0
102
RTVSPost2010PropOp56
 70
     1
102
RTVSPost2010Prop57
140
1.0
102
RTVSPost2010PropOp57
 70
     1
  0
XRECORD
  5
164
102
{ACAD_REACTORS
330
163
102
}
330
163
100
AcDbXrecord
280
     1
102
RTVSPost2010Prop28
280
     0
102
RTVSPost2010PropOp28
 70
     1
102
RTVSPost2010Prop29
280
     1
102
RTVSPost2010PropOp29
 70
     1
102
RTVSPost2010Prop30
280
     1
102
RTVSPost2010PropOp30
 70
     1
102
RTVSPost2010Prop31
280
     0
102
RTVSPost2010PropOp31
 70
     1
102
RTVSPost2010Prop32
280
     0
102
RTVSPost2010PropOp32
 70
     1
102
RTVSPost2010Prop33
280
     0
102
RTVSPost2010PropOp33
 70
     1
102
RTVSPost2010Prop34
280
     0
102
RTVSPost2010PropOp34
 70
     1
102
RTVSPost2010Prop35
280
     0
102
RTVSPost2010PropOp35
 70
     1
102
RTVSPost2010Prop36
280
     0
102
RTVSPost2010PropOp36
 70
     1
102
RTVSPost2010Prop37
 90
       50
102
RTVSPost2010PropOp37
 70
     1
102
RTVSPost2010Prop38
140
0.0
102
RTVSPost2010PropOp38
 70
     1
102
RTVSPost2010Prop39
140
1.0
102
RTVSPost2010PropOp39
 70
     1
102
RTVSPost2010Prop40
 90
        0
102
RTVSPost2010PropOp40
 70
     1
102
RTVSPost2010Prop41ColorIndex
 90
       18
102
RTVSPost2010Prop41ColorRGB
 90
        0
102
RTVSPost2010PropOp41
 70
     1
102
RTVSPost2010Prop42
 90
       50
102
RTVSPost2010PropOp42
 70
     1
102
RTVSPost2010Prop43
 90
        3
102
RTVSPost2010PropOp43
 70
     1
102
RTVSPost2010Prop44ColorIndex
 90
        5
102
RTVSPost2010Prop44ColorRGB
 90
      255
102
RTVSPost2010PropOp44
 70
     1
102
RTVSPost2010Prop45
280
     0
102
RTVSPost2010PropOp45
 70
     1
102
RTVSPost2010Prop46
 90
       50
102
RTVSPost2010PropOp46
 70
     1
102
RTVSPost2010Prop47
 90
       50
102
RTVSPost2010PropOp47
 70
     1
102
RTVSPost2010Prop48
 90
       50
102
RTVSPost2010PropOp48
 70
     1
102
RTVSPost2010Prop49
280
     0
102
RTVSPost2010PropOp49
 70
     1
102
RTVSPost2010Prop50
 90
       50
102
RTVSPost2010PropOp50
 70
     1
102
RTVSPost2010Prop51ColorIndex
 90
      256
102
RTVSPost2010Prop51ColorRGB
 90
-16777216
102
RTVSPost2010PropOp51
 70
     0
102
RTVSPost2010Prop52
140
1.0
102
RTVSPost2010PropOp52
 70
     0
102
RTVSPost2010Prop53
 90
        2
102
RTVSPost2010PropOp53
 70
     1
102
RTVSPost2010Prop54
  1
strokes_ogs.tif
102
RTVSPost2010PropOp54
 70
     1
102
RTVSPost2010Prop55
280
     0
102
RTVSPost2010PropOp55
 70
     1
102
RTVSPost2010Prop56
140
1.0
102
RTVSPost2010PropOp56
 70
     1
102
RTVSPost2010Prop57
140
1.0
102
RTVSPost2010PropOp57
 70
     1
  0
XRECORD
  5
180
102
{ACAD_REACTORS
330
17F
102
}
330
17F
100
AcDbXrecord
280
     1
102
RTVSPost2010Prop28
280
     0
102
RTVSPost2010PropOp28
 70
     0
102
RTVSPost2010Prop29
280
     1
102
RTVSPost2010PropOp29
 70
     0
102
RTVSPost2010Prop30
280
     1
102
RTVSPost2010PropOp30
 70
     0
102
RTVSPost2010Prop31
280
     0
102
RTVSPost2010PropOp31
 70
     0
102
RTVSPost2010Prop32
280
     0
102
RTVSPost2010PropOp32
 70
     0
102
RTVSPost2010Prop33
280
     0
102
RTVSPost2010PropOp33
 70
     0
102
RTVSPost2010Prop34
280
     0
102
RTVSPost2010PropOp34
 70
     0
102
RTVSPost2010Prop35
280
     0
102
RTVSPost2010PropOp35
 70
     0
102
RTVSPost2010Prop36
280
     0
102
RTVSPost2010PropOp36
 70
     0
102
RTVSPost2010Prop37
 90
       50
102
RTVSPost2010PropOp37
 70
     0
102
RTVSPost2010Prop38
140
0.0
102
RTVSPost2010PropOp38
 70
     0
102
RTVSPost2010Prop39
140
1.0
102
RTVSPost2010PropOp39
 70
     0
102
RTVSPost2010Prop40
 90
        0
102
RTVSPost2010PropOp40
 70
     0
102
RTVSPost2010Prop41ColorIndex
 90
       18
102
RTVSPost2010Prop41ColorRGB
 90
        0
102
RTVSPost2010PropOp41
 70
     0
102
RTVSPost2010Prop42
 90
       50
102
RTVSPost2010PropOp42
 70
     0
102
RTVSPost2010Prop43
 90
        3
102
RTVSPost2010PropOp43
 70
     0
102
RTVSPost2010Prop44ColorIndex
 90
        5
102
RTVSPost2010Prop44ColorRGB
 90
      255
102
RTVSPost2010PropOp44
 70
     0
102
RTVSPost2010Prop45
280
     0
102
RTVSPost2010PropOp45
 70
     0
102
RTVSPost2010Prop46
 90
       50
102
RTVSPost2010PropOp46
 70
     0
102
RTVSPost2010Prop47
 90
       50
102
RTVSPost2010PropOp47
 70
     0
102
RTVSPost2010Prop48
 90
       50
102
RTVSPost2010PropOp48
 70
     0
102
RTVSPost2010Prop49
280
     0
102
RTVSPost2010PropOp49
 70
     0
102
RTVSPost2010Prop50
 90
       50
102
RTVSPost2010PropOp50
 70
     0
102
RTVSPost2010Prop51ColorIndex
 90
      256
102
RTVSPost2010Prop51ColorRGB
 90
-16777216
102
RTVSPost2010PropOp51
 70
     0
102
RTVSPost2010Prop52
140
1.0
102
RTVSPost2010PropOp52
 70
     0
102
RTVSPost2010Prop53
 90
        2
102
RTVSPost2010PropOp53
 70
     0
102
RTVSPost2010Prop54
  1
strokes_ogs.tif
102
RTVSPost2010PropOp54
 70
     0
102
RTVSPost2010Prop55
280
     0
102
RTVSPost2010PropOp55
 70
     0
102
RTVSPost2010Prop56
140
1.0
102
RTVSPost2010PropOp56
 70
     0
102
RTVSPost2010Prop57
140
1.0
102
RTVSPost2010PropOp57
 70
     0
  0
XRECORD
  5
170
102
{ACAD_REACTORS
330
16F
102
}
330
16F
100
AcDbXrecord
280
     1
102
RTVSPost2010Prop28
280
     0
102
RTVSPost2010PropOp28
 70
     1
102
RTVSPost2010Prop29
280
     1
102
RTVSPost2010PropOp29
 70
     1
102
RTVSPost2010Prop30
280
     1
102
RTVSPost2010PropOp30
 70
     1
102
RTVSPost2010Prop31
280
     0
102
RTVSPost2010PropOp31
 70
     1
102
RTVSPost2010Prop32
280
     0
102
RTVSPost2010PropOp32
 70
     1
102
RTVSPost2010Prop33
280
     0
102
RTVSPost2010PropOp33
 70
     1
102
RTVSPost2010Prop34
280
     0
102
RTVSPost2010PropOp34
 70
     1
102
RTVSPost2010Prop35
280
     0
102
RTVSPost2010PropOp35
 70
     1
102
RTVSPost2010Prop36
280
     0
102
RTVSPost2010PropOp36
 70
     1
102
RTVSPost2010Prop37
 90
       50
102
RTVSPost2010PropOp37
 70
     1
102
RTVSPost2010Prop38
140
0.0
102
RTVSPost2010PropOp38
 70
     1
102
RTVSPost2010Prop39
140
1.0
102
RTVSPost2010PropOp39
 70
     1
102
RTVSPost2010Prop40
 90
        0
102
RTVSPost2010PropOp40
 70
     1
102
RTVSPost2010Prop41ColorIndex
 90
       18
102
RTVSPost2010Prop41ColorRGB
 90
        0
102
RTVSPost2010PropOp41
 70
     1
102
RTVSPost2010Prop42
 90
       50
102
RTVSPost2010PropOp42
 70
     1
102
RTVSPost2010Prop43
 90
        3
102
RTVSPost2010PropOp43
 70
     1
102
RTVSPost2010Prop44ColorIndex
 90
        5
102
RTVSPost2010Prop44ColorRGB
 90
      255
102
RTVSPost2010PropOp44
 70
     1
102
RTVSPost2010Prop45
280
     0
102
RTVSPost2010PropOp45
 70
     1
102
RTVSPost2010Prop46
 90
       50
102
RTVSPost2010PropOp46
 70
     1
102
RTVSPost2010Prop47
 90
       50
102
RTVSPost2010PropOp47
 70
     1
102
RTVSPost2010Prop48
 90
       50
102
RTVSPost2010PropOp48
 70
     1
102
RTVSPost2010Prop49
280
     0
102
RTVSPost2010PropOp49
 70
     1
102
RTVSPost2010Prop50
 90
       50
102
RTVSPost2010PropOp50
 70
     1
102
RTVSPost2010Prop51ColorIndex
 90
      256
102
RTVSPost2010Prop51ColorRGB
 90
-16777216
102
RTVSPost2010PropOp51
 70
     0
102
RTVSPost2010Prop52
140
1.0
102
RTVSPost2010PropOp52
 70
     0
102
RTVSPost2010Prop53
 90
        2
102
RTVSPost2010PropOp53
 70
     1
102
RTVSPost2010Prop54
  1
strokes_ogs.tif
102
RTVSPost2010PropOp54
 70
     1
102
RTVSPost2010Prop55
280
     0
102
RTVSPost2010PropOp55
 70
     1
102
RTVSPost2010Prop56
140
1.0
102
RTVSPost2010PropOp56
 70
     1
102
RTVSPost2010Prop57
140
1.0
102
RTVSPost2010PropOp57
 70
     1
  0
XRECORD
  5
182
102
{ACAD_REACTORS
330
181
102
}
330
181
100
AcDbXrecord
280
     1
102
RTVSPost2010Prop28
280
     0
102
RTVSPost2010PropOp28
 70
     0
102
RTVSPost2010Prop29
280
     1
102
RTVSPost2010PropOp29
 70
     0
102
RTVSPost2010Prop30
280
     1
102
RTVSPost2010PropOp30
 70
     0
102
RTVSPost2010Prop31
280
     0
102
RTVSPost2010PropOp31
 70
     0
102
RTVSPost2010Prop32
280
     0
102
RTVSPost2010PropOp32
 70
     0
102
RTVSPost2010Prop33
280
     0
102
RTVSPost2010PropOp33
 70
     0
102
RTVSPost2010Prop34
280
     0
102
RTVSPost2010PropOp34
 70
     0
102
RTVSPost2010Prop35
280
     0
102
RTVSPost2010PropOp35
 70
     0
102
RTVSPost2010Prop36
280
     0
102
RTVSPost2010PropOp36
 70
     0
102
RTVSPost2010Prop37
 90
       50
102
RTVSPost2010PropOp37
 70
     0
102
RTVSPost2010Prop38
140
0.0
102
RTVSPost2010PropOp38
 70
     0
102
RTVSPost2010Prop39
140
1.0
102
RTVSPost2010PropOp39
 70
     0
102
RTVSPost2010Prop40
 90
        0
102
RTVSPost2010PropOp40
 70
     0
102
RTVSPost2010Prop41ColorIndex
 90
       18
102
RTVSPost2010Prop41ColorRGB
 90
        0
102
RTVSPost2010PropOp41
 70
     0
102
RTVSPost2010Prop42
 90
       50
102
RTVSPost2010PropOp42
 70
     0
102
RTVSPost2010Prop43
 90
        3
102
RTVSPost2010PropOp43
 70
     0
102
RTVSPost2010Prop44ColorIndex
 90
        5
102
RTVSPost2010Prop44ColorRGB
 90
      255
102
RTVSPost2010PropOp44
 70
     0
102
RTVSPost2010Prop45
280
     0
102
RTVSPost2010PropOp45
 70
     0
102
RTVSPost2010Prop46
 90
       50
102
RTVSPost2010PropOp46
 70
     0
102
RTVSPost2010Prop47
 90
       50
102
RTVSPost2010PropOp47
 70
     0
102
RTVSPost2010Prop48
 90
       50
102
RTVSPost2010PropOp48
 70
     0
102
RTVSPost2010Prop49
280
     0
102
RTVSPost2010PropOp49
 70
     0
102
RTVSPost2010Prop50
 90
       50
102
RTVSPost2010PropOp50
 70
     0
102
RTVSPost2010Prop51ColorIndex
 90
      256
102
RTVSPost2010Prop51ColorRGB
 90
-16777216
102
RTVSPost2010PropOp51
 70
     0
102
RTVSPost2010Prop52
140
1.0
102
RTVSPost2010PropOp52
 70
     0
102
RTVSPost2010Prop53
 90
        2
102
RTVSPost2010PropOp53
 70
     0
102
RTVSPost2010Prop54
  1
strokes_ogs.tif
102
RTVSPost2010PropOp54
 70
     0
102
RTVSPost2010Prop55
280
     0
102
RTVSPost2010PropOp55
 70
     0
102
RTVSPost2010Prop56
140
1.0
102
RTVSPost2010PropOp56
 70
     0
102
RTVSPost2010Prop57
140
1.0
102
RTVSPost2010PropOp57
 70
     0
  0
XRECORD
  5
168
102
{ACAD_REACTORS
330
167
102
}
330
167
100
AcDbXrecord
280
     1
102
RTVSPost2010Prop28
280
     0
102
RTVSPost2010PropOp28
 70
     1
102
RTVSPost2010Prop29
280
     1
102
RTVSPost2010PropOp29
 70
     1
102
RTVSPost2010Prop30
280
     1
102
RTVSPost2010PropOp30
 70
     1
102
RTVSPost2010Prop31
280
     0
102
RTVSPost2010PropOp31
 70
     1
102
RTVSPost2010Prop32
280
     0
102
RTVSPost2010PropOp32
 70
     1
102
RTVSPost2010Prop33
280
     0
102
RTVSPost2010PropOp33
 70
     1
102
RTVSPost2010Prop34
280
     0
102
RTVSPost2010PropOp34
 70
     1
102
RTVSPost2010Prop35
280
     0
102
RTVSPost2010PropOp35
 70
     1
102
RTVSPost2010Prop36
280
     0
102
RTVSPost2010PropOp36
 70
     1
102
RTVSPost2010Prop37
 90
       50
102
RTVSPost2010PropOp37
 70
     1
102
RTVSPost2010Prop38
140
0.0
102
RTVSPost2010PropOp38
 70
     1
102
RTVSPost2010Prop39
140
1.0
102
RTVSPost2010PropOp39
 70
     1
102
RTVSPost2010Prop40
 90
        0
102
RTVSPost2010PropOp40
 70
     1
102
RTVSPost2010Prop41ColorIndex
 90
       18
102
RTVSPost2010Prop41ColorRGB
 90
        0
102
RTVSPost2010PropOp41
 70
     1
102
RTVSPost2010Prop42
 90
       50
102
RTVSPost2010PropOp42
 70
     1
102
RTVSPost2010Prop43
 90
        3
102
RTVSPost2010PropOp43
 70
     1
102
RTVSPost2010Prop44ColorIndex
 90
        5
102
RTVSPost2010Prop44ColorRGB
 90
      255
102
RTVSPost2010PropOp44
 70
     1
102
RTVSPost2010Prop45
280
     0
102
RTVSPost2010PropOp45
 70
     1
102
RTVSPost2010Prop46
 90
       50
102
RTVSPost2010PropOp46
 70
     1
102
RTVSPost2010Prop47
 90
       50
102
RTVSPost2010PropOp47
 70
     1
102
RTVSPost2010Prop48
 90
       50
102
RTVSPost2010PropOp48
 70
     1
102
RTVSPost2010Prop49
280
     0
102
RTVSPost2010PropOp49
 70
     1
102
RTVSPost2010Prop50
 90
       50
102
RTVSPost2010PropOp50
 70
     1
102
RTVSPost2010Prop51ColorIndex
 90
      256
102
RTVSPost2010Prop51ColorRGB
 90
-16777216
102
RTVSPost2010PropOp51
 70
     0
102
RTVSPost2010Prop52
140
1.0
102
RTVSPost2010PropOp52
 70
     0
102
RTVSPost2010Prop53
 90
        2
102
RTVSPost2010PropOp53
 70
     1
102
RTVSPost2010Prop54
  1
strokes_ogs.tif
102
RTVSPost2010PropOp54
 70
     1
102
RTVSPost2010Prop55
280
     0
102
RTVSPost2010PropOp55
 70
     1
102
RTVSPost2010Prop56
140
1.0
102
RTVSPost2010PropOp56
 70
     1
102
RTVSPost2010Prop57
140
1.0
102
RTVSPost2010PropOp57
 70
     1
  0
XRECORD
  5
17E
102
{ACAD_REACTORS
330
17D
102
}
330
17D
100
AcDbXrecord
280
     1
102
RTVSPost2010Prop28
280
     0
102
RTVSPost2010PropOp28
 70
     1
102
RTVSPost2010Prop29
280
     1
102
RTVSPost2010PropOp29
 70
     1
102
RTVSPost2010Prop30
280
     1
102
RTVSPost2010PropOp30
 70
     1
102
RTVSPost2010Prop31
280
     0
102
RTVSPost2010PropOp31
 70
     1
102
RTVSPost2010Prop32
280
     0
102
RTVSPost2010PropOp32
 70
     1
102
RTVSPost2010Prop33
280
     0
102
RTVSPost2010PropOp33
 70
     1
102
RTVSPost2010Prop34
280
     0
102
RTVSPost2010PropOp34
 70
     1
102
RTVSPost2010Prop35
280
     0
102
RTVSPost2010PropOp35
 70
     1
102
RTVSPost2010Prop36
280
     0
102
RTVSPost2010PropOp36
 70
     1
102
RTVSPost2010Prop37
 90
       50
102
RTVSPost2010PropOp37
 70
     1
102
RTVSPost2010Prop38
140
0.0
102
RTVSPost2010PropOp38
 70
     1
102
RTVSPost2010Prop39
140
1.0
102
RTVSPost2010PropOp39
 70
     1
102
RTVSPost2010Prop40
 90
        0
102
RTVSPost2010PropOp40
 70
     1
102
RTVSPost2010Prop41ColorIndex
 90
       18
102
RTVSPost2010Prop41ColorRGB
 90
        0
102
RTVSPost2010PropOp41
 70
     1
102
RTVSPost2010Prop42
 90
       50
102
RTVSPost2010PropOp42
 70
     1
102
RTVSPost2010Prop43
 90
        3
102
RTVSPost2010PropOp43
 70
     1
102
RTVSPost2010Prop44ColorIndex
 90
        5
102
RTVSPost2010Prop44ColorRGB
 90
      255
102
RTVSPost2010PropOp44
 70
     1
102
RTVSPost2010Prop45
280
     0
102
RTVSPost2010PropOp45
 70
     1
102
RTVSPost2010Prop46
 90
       50
102
RTVSPost2010PropOp46
 70
     1
102
RTVSPost2010Prop47
 90
       50
102
RTVSPost2010PropOp47
 70
     1
102
RTVSPost2010Prop48
 90
       50
102
RTVSPost2010PropOp48
 70
     1
102
RTVSPost2010Prop49
280
     0
102
RTVSPost2010PropOp49
 70
     1
102
RTVSPost2010Prop50
 90
       50
102
RTVSPost2010PropOp50
 70
     1
102
RTVSPost2010Prop51ColorIndex
 90
      256
102
RTVSPost2010Prop51ColorRGB
 90
-16777216
102
RTVSPost2010PropOp51
 70
     0
102
RTVSPost2010Prop52
140
1.0
102
RTVSPost2010PropOp52
 70
     0
102
RTVSPost2010Prop53
 90
        2
102
RTVSPost2010PropOp53
 70
     1
102
RTVSPost2010Prop54
  1
strokes_ogs.tif
102
RTVSPost2010PropOp54
 70
     1
102
RTVSPost2010Prop55
280
     0
102
RTVSPost2010PropOp55
 70
     1
102
RTVSPost2010Prop56
140
1.0
102
RTVSPost2010PropOp56
 70
     1
102
RTVSPost2010Prop57
140
1.0
102
RTVSPost2010PropOp57
 70
     1
  0
XRECORD
  5
17C
102
{ACAD_REACTORS
330
17B
102
}
330
17B
100
AcDbXrecord
280
     1
102
RTVSPost2010Prop28
280
     0
102
RTVSPost2010PropOp28
 70
     1
102
RTVSPost2010Prop29
280
     1
102
RTVSPost2010PropOp29
 70
     1
102
RTVSPost2010Prop30
280
     1
102
RTVSPost2010PropOp30
 70
     1
102
RTVSPost2010Prop31
280
     0
102
RTVSPost2010PropOp31
 70
     1
102
RTVSPost2010Prop32
280
     0
102
RTVSPost2010PropOp32
 70
     1
102
RTVSPost2010Prop33
280
     0
102
RTVSPost2010PropOp33
 70
     1
102
RTVSPost2010Prop34
280
     0
102
RTVSPost2010PropOp34
 70
     1
102
RTVSPost2010Prop35
280
     0
102
RTVSPost2010PropOp35
 70
     1
102
RTVSPost2010Prop36
280
     0
102
RTVSPost2010PropOp36
 70
     1
102
RTVSPost2010Prop37
 90
       50
102
RTVSPost2010PropOp37
 70
     1
102
RTVSPost2010Prop38
140
0.0
102
RTVSPost2010PropOp38
 70
     1
102
RTVSPost2010Prop39
140
1.0
102
RTVSPost2010PropOp39
 70
     1
102
RTVSPost2010Prop40
 90
        0
102
RTVSPost2010PropOp40
 70
     1
102
RTVSPost2010Prop41ColorIndex
 90
       18
102
RTVSPost2010Prop41ColorRGB
 90
        0
102
RTVSPost2010PropOp41
 70
     1
102
RTVSPost2010Prop42
 90
       50
102
RTVSPost2010PropOp42
 70
     1
102
RTVSPost2010Prop43
 90
        3
102
RTVSPost2010PropOp43
 70
     1
102
RTVSPost2010Prop44ColorIndex
 90
        5
102
RTVSPost2010Prop44ColorRGB
 90
      255
102
RTVSPost2010PropOp44
 70
     1
102
RTVSPost2010Prop45
280
     0
102
RTVSPost2010PropOp45
 70
     1
102
RTVSPost2010Prop46
 90
       50
102
RTVSPost2010PropOp46
 70
     1
102
RTVSPost2010Prop47
 90
       50
102
RTVSPost2010PropOp47
 70
     1
102
RTVSPost2010Prop48
 90
       50
102
RTVSPost2010PropOp48
 70
     1
102
RTVSPost2010Prop49
280
     0
102
RTVSPost2010PropOp49
 70
     1
102
RTVSPost2010Prop50
 90
       50
102
RTVSPost2010PropOp50
 70
     1
102
RTVSPost2010Prop51ColorIndex
 90
      256
102
RTVSPost2010Prop51ColorRGB
 90
-16777216
102
RTVSPost2010PropOp51
 70
     0
102
RTVSPost2010Prop52
140
1.0
102
RTVSPost2010PropOp52
 70
     0
102
RTVSPost2010Prop53
 90
        2
102
RTVSPost2010PropOp53
 70
     1
102
RTVSPost2010Prop54
  1
strokes_ogs.tif
102
RTVSPost2010PropOp54
 70
     1
102
RTVSPost2010Prop55
280
     0
102
RTVSPost2010PropOp55
 70
     1
102
RTVSPost2010Prop56
140
1.0
102
RTVSPost2010PropOp56
 70
     1
102
RTVSPost2010Prop57
140
1.0
102
RTVSPost2010PropOp57
 70
     1
  0
XRECORD
  5
176
102
{ACAD_REACTORS
330
175
102
}
330
175
100
AcDbXrecord
280
     1
102
RTVSPost2010Prop28
280
     0
102
RTVSPost2010PropOp28
 70
     1
102
RTVSPost2010Prop29
280
     1
102
RTVSPost2010PropOp29
 70
     1
102
RTVSPost2010Prop30
280
     1
102
RTVSPost2010PropOp30
 70
     1
102
RTVSPost2010Prop31
280
     0
102
RTVSPost2010PropOp31
 70
     1
102
RTVSPost2010Prop32
280
     0
102
RTVSPost2010PropOp32
 70
     1
102
RTVSPost2010Prop33
280
     0
102
RTVSPost2010PropOp33
 70
     1
102
RTVSPost2010Prop34
280
     0
102
RTVSPost2010PropOp34
 70
     1
102
RTVSPost2010Prop35
280
     0
102
RTVSPost2010PropOp35
 70
     1
102
RTVSPost2010Prop36
280
     0
102
RTVSPost2010PropOp36
 70
     1
102
RTVSPost2010Prop37
 90
       50
102
RTVSPost2010PropOp37
 70
     1
102
RTVSPost2010Prop38
140
0.0
102
RTVSPost2010PropOp38
 70
     1
102
RTVSPost2010Prop39
140
1.0
102
RTVSPost2010PropOp39
 70
     1
102
RTVSPost2010Prop40
 90
        0
102
RTVSPost2010PropOp40
 70
     1
102
RTVSPost2010Prop41ColorIndex
 90
       18
102
RTVSPost2010Prop41ColorRGB
 90
        0
102
RTVSPost2010PropOp41
 70
     1
102
RTVSPost2010Prop42
 90
       50
102
RTVSPost2010PropOp42
 70
     1
102
RTVSPost2010Prop43
 90
        3
102
RTVSPost2010PropOp43
 70
     1
102
RTVSPost2010Prop44ColorIndex
 90
        5
102
RTVSPost2010Prop44ColorRGB
 90
      255
102
RTVSPost2010PropOp44
 70
     1
102
RTVSPost2010Prop45
280
     0
102
RTVSPost2010PropOp45
 70
     1
102
RTVSPost2010Prop46
 90
       50
102
RTVSPost2010PropOp46
 70
     1
102
RTVSPost2010Prop47
 90
       50
102
RTVSPost2010PropOp47
 70
     1
102
RTVSPost2010Prop48
 90
       50
102
RTVSPost2010PropOp48
 70
     1
102
RTVSPost2010Prop49
280
     0
102
RTVSPost2010PropOp49
 70
     1
102
RTVSPost2010Prop50
 90
       50
102
RTVSPost2010PropOp50
 70
     1
102
RTVSPost2010Prop51ColorIndex
 90
      256
102
RTVSPost2010Prop51ColorRGB
 90
-16777216
102
RTVSPost2010PropOp51
 70
     0
102
RTVSPost2010Prop52
140
1.0
102
RTVSPost2010PropOp52
 70
     0
102
RTVSPost2010Prop53
 90
        2
102
RTVSPost2010PropOp53
 70
     1
102
RTVSPost2010Prop54
  1
strokes_ogs.tif
102
RTVSPost2010PropOp54
 70
     1
102
RTVSPost2010Prop55
280
     0
102
RTVSPost2010PropOp55
 70
     1
102
RTVSPost2010Prop56
140
1.0
102
RTVSPost2010PropOp56
 70
     1
102
RTVSPost2010Prop57
140
1.0
102
RTVSPost2010PropOp57
 70
     1
  0
XRECORD
  5
178
102
{ACAD_REACTORS
330
177
102
}
330
177
100
AcDbXrecord
280
     1
102
RTVSPost2010Prop28
280
     0
102
RTVSPost2010PropOp28
 70
     1
102
RTVSPost2010Prop29
280
     1
102
RTVSPost2010PropOp29
 70
     1
102
RTVSPost2010Prop30
280
     1
102
RTVSPost2010PropOp30
 70
     1
102
RTVSPost2010Prop31
280
     0
102
RTVSPost2010PropOp31
 70
     1
102
RTVSPost2010Prop32
280
     0
102
RTVSPost2010PropOp32
 70
     1
102
RTVSPost2010Prop33
280
     0
102
RTVSPost2010PropOp33
 70
     1
102
RTVSPost2010Prop34
280
     0
102
RTVSPost2010PropOp34
 70
     1
102
RTVSPost2010Prop35
280
     0
102
RTVSPost2010PropOp35
 70
     1
102
RTVSPost2010Prop36
280
     0
102
RTVSPost2010PropOp36
 70
     1
102
RTVSPost2010Prop37
 90
       50
102
RTVSPost2010PropOp37
 70
     1
102
RTVSPost2010Prop38
140
0.0
102
RTVSPost2010PropOp38
 70
     1
102
RTVSPost2010Prop39
140
1.0
102
RTVSPost2010PropOp39
 70
     1
102
RTVSPost2010Prop40
 90
        0
102
RTVSPost2010PropOp40
 70
     1
102
RTVSPost2010Prop41ColorIndex
 90
       18
102
RTVSPost2010Prop41ColorRGB
 90
        0
102
RTVSPost2010PropOp41
 70
     1
102
RTVSPost2010Prop42
 90
       50
102
RTVSPost2010PropOp42
 70
     1
102
RTVSPost2010Prop43
 90
        3
102
RTVSPost2010PropOp43
 70
     1
102
RTVSPost2010Prop44ColorIndex
 90
        5
102
RTVSPost2010Prop44ColorRGB
 90
      255
102
RTVSPost2010PropOp44
 70
     1
102
RTVSPost2010Prop45
280
     0
102
RTVSPost2010PropOp45
 70
     1
102
RTVSPost2010Prop46
 90
       50
102
RTVSPost2010PropOp46
 70
     1
102
RTVSPost2010Prop47
 90
       50
102
RTVSPost2010PropOp47
 70
     1
102
RTVSPost2010Prop48
 90
       50
102
RTVSPost2010PropOp48
 70
     1
102
RTVSPost2010Prop49
280
     0
102
RTVSPost2010PropOp49
 70
     1
102
RTVSPost2010Prop50
 90
       50
102
RTVSPost2010PropOp50
 70
     1
102
RTVSPost2010Prop51ColorIndex
 90
      256
102
RTVSPost2010Prop51ColorRGB
 90
-16777216
102
RTVSPost2010PropOp51
 70
     0
102
RTVSPost2010Prop52
140
1.0
102
RTVSPost2010PropOp52
 70
     0
102
RTVSPost2010Prop53
 90
        2
102
RTVSPost2010PropOp53
 70
     1
102
RTVSPost2010Prop54
  1
strokes_ogs.tif
102
RTVSPost2010PropOp54
 70
     1
102
RTVSPost2010Prop55
280
     0
102
RTVSPost2010PropOp55
 70
     1
102
RTVSPost2010Prop56
140
1.0
102
RTVSPost2010PropOp56
 70
     1
102
RTVSPost2010Prop57
140
1.0
102
RTVSPost2010PropOp57
 70
     1
  0
XRECORD
  5
16E
102
{ACAD_REACTORS
330
16D
102
}
330
16D
100
AcDbXrecord
280
     1
102
RTVSPost2010Prop28
280
     0
102
RTVSPost2010PropOp28
 70
     1
102
RTVSPost2010Prop29
280
     1
102
RTVSPost2010PropOp29
 70
     1
102
RTVSPost2010Prop30
280
     1
102
RTVSPost2010PropOp30
 70
     1
102
RTVSPost2010Prop31
280
     0
102
RTVSPost2010PropOp31
 70
     1
102
RTVSPost2010Prop32
280
     0
102
RTVSPost2010PropOp32
 70
     1
102
RTVSPost2010Prop33
280
     0
102
RTVSPost2010PropOp33
 70
     1
102
RTVSPost2010Prop34
280
     0
102
RTVSPost2010PropOp34
 70
     1
102
RTVSPost2010Prop35
280
     0
102
RTVSPost2010PropOp35
 70
     1
102
RTVSPost2010Prop36
280
     0
102
RTVSPost2010PropOp36
 70
     1
102
RTVSPost2010Prop37
 90
       50
102
RTVSPost2010PropOp37
 70
     1
102
RTVSPost2010Prop38
140
0.0
102
RTVSPost2010PropOp38
 70
     1
102
RTVSPost2010Prop39
140
1.0
102
RTVSPost2010PropOp39
 70
     1
102
RTVSPost2010Prop40
 90
        0
102
RTVSPost2010PropOp40
 70
     1
102
RTVSPost2010Prop41ColorIndex
 90
       18
102
RTVSPost2010Prop41ColorRGB
 90
        0
102
RTVSPost2010PropOp41
 70
     1
102
RTVSPost2010Prop42
 90
       50
102
RTVSPost2010PropOp42
 70
     1
102
RTVSPost2010Prop43
 90
        3
102
RTVSPost2010PropOp43
 70
     1
102
RTVSPost2010Prop44ColorIndex
 90
        5
102
RTVSPost2010Prop44ColorRGB
 90
      255
102
RTVSPost2010PropOp44
 70
     1
102
RTVSPost2010Prop45
280
     0
102
RTVSPost2010PropOp45
 70
     1
102
RTVSPost2010Prop46
 90
       50
102
RTVSPost2010PropOp46
 70
     1
102
RTVSPost2010Prop47
 90
       50
102
RTVSPost2010PropOp47
 70
     1
102
RTVSPost2010Prop48
 90
       50
102
RTVSPost2010PropOp48
 70
     1
102
RTVSPost2010Prop49
280
     0
102
RTVSPost2010PropOp49
 70
     1
102
RTVSPost2010Prop50
 90
       50
102
RTVSPost2010PropOp50
 70
     1
102
RTVSPost2010Prop51ColorIndex
 90
      256
102
RTVSPost2010Prop51ColorRGB
 90
-16777216
102
RTVSPost2010PropOp51
 70
     0
102
RTVSPost2010Prop52
140
1.0
102
RTVSPost2010PropOp52
 70
     0
102
RTVSPost2010Prop53
 90
        2
102
RTVSPost2010PropOp53
 70
     1
102
RTVSPost2010Prop54
  1
strokes_ogs.tif
102
RTVSPost2010PropOp54
 70
     1
102
RTVSPost2010Prop55
280
     0
102
RTVSPost2010PropOp55
 70
     1
102
RTVSPost2010Prop56
140
1.0
102
RTVSPost2010PropOp56
 70
     1
102
RTVSPost2010Prop57
140
1.0
102
RTVSPost2010PropOp57
 70
     1
  0
XRECORD
  5
162
102
{ACAD_REACTORS
330
161
102
}
330
161
100
AcDbXrecord
280
     1
102
RTVSPost2010Prop28
280
     0
102
RTVSPost2010PropOp28
 70
     1
102
RTVSPost2010Prop29
280
     1
102
RTVSPost2010PropOp29
 70
     1
102
RTVSPost2010Prop30
280
     1
102
RTVSPost2010PropOp30
 70
     1
102
RTVSPost2010Prop31
280
     0
102
RTVSPost2010PropOp31
 70
     1
102
RTVSPost2010Prop32
280
     0
102
RTVSPost2010PropOp32
 70
     1
102
RTVSPost2010Prop33
280
     0
102
RTVSPost2010PropOp33
 70
     1
102
RTVSPost2010Prop34
280
     0
102
RTVSPost2010PropOp34
 70
     1
102
RTVSPost2010Prop35
280
     0
102
RTVSPost2010PropOp35
 70
     1
102
RTVSPost2010Prop36
280
     0
102
RTVSPost2010PropOp36
 70
     1
102
RTVSPost2010Prop37
 90
       50
102
RTVSPost2010PropOp37
 70
     1
102
RTVSPost2010Prop38
140
0.0
102
RTVSPost2010PropOp38
 70
     1
102
RTVSPost2010Prop39
140
1.0
102
RTVSPost2010PropOp39
 70
     1
102
RTVSPost2010Prop40
 90
        0
102
RTVSPost2010PropOp40
 70
     1
102
RTVSPost2010Prop41ColorIndex
 90
       18
102
RTVSPost2010Prop41ColorRGB
 90
        0
102
RTVSPost2010PropOp41
 70
     1
102
RTVSPost2010Prop42
 90
       50
102
RTVSPost2010PropOp42
 70
     1
102
RTVSPost2010Prop43
 90
        3
102
RTVSPost2010PropOp43
 70
     1
102
RTVSPost2010Prop44ColorIndex
 90
        5
102
RTVSPost2010Prop44ColorRGB
 90
      255
102
RTVSPost2010PropOp44
 70
     1
102
RTVSPost2010Prop45
280
     0
102
RTVSPost2010PropOp45
 70
     1
102
RTVSPost2010Prop46
 90
       50
102
RTVSPost2010PropOp46
 70
     1
102
RTVSPost2010Prop47
 90
       50
102
RTVSPost2010PropOp47
 70
     1
102
RTVSPost2010Prop48
 90
       50
102
RTVSPost2010PropOp48
 70
     1
102
RTVSPost2010Prop49
280
     0
102
RTVSPost2010PropOp49
 70
     1
102
RTVSPost2010Prop50
 90
       50
102
RTVSPost2010PropOp50
 70
     1
102
RTVSPost2010Prop51ColorIndex
 90
      256
102
RTVSPost2010Prop51ColorRGB
 90
-16777216
102
RTVSPost2010PropOp51
 70
     0
102
RTVSPost2010Prop52
140
1.0
102
RTVSPost2010PropOp52
 70
     0
102
RTVSPost2010Prop53
 90
        2
102
RTVSPost2010PropOp53
 70
     1
102
RTVSPost2010Prop54
  1
strokes_ogs.tif
102
RTVSPost2010PropOp54
 70
     1
102
RTVSPost2010Prop55
280
     0
102
RTVSPost2010PropOp55
 70
     1
102
RTVSPost2010Prop56
140
1.0
102
RTVSPost2010PropOp56
 70
     1
102
RTVSPost2010Prop57
140
1.0
102
RTVSPost2010PropOp57
 70
     1
  0
XRECORD
  5
17A
102
{ACAD_REACTORS
330
179
102
}
330
179
100
AcDbXrecord
280
     1
102
RTVSPost2010Prop28
280
     0
102
RTVSPost2010PropOp28
 70
     1
102
RTVSPost2010Prop29
280
     1
102
RTVSPost2010PropOp29
 70
     1
102
RTVSPost2010Prop30
280
     1
102
RTVSPost2010PropOp30
 70
     1
102
RTVSPost2010Prop31
280
     0
102
RTVSPost2010PropOp31
 70
     1
102
RTVSPost2010Prop32
280
     0
102
RTVSPost2010PropOp32
 70
     1
102
RTVSPost2010Prop33
280
     0
102
RTVSPost2010PropOp33
 70
     1
102
RTVSPost2010Prop34
280
     0
102
RTVSPost2010PropOp34
 70
     1
102
RTVSPost2010Prop35
280
     0
102
RTVSPost2010PropOp35
 70
     1
102
RTVSPost2010Prop36
280
     0
102
RTVSPost2010PropOp36
 70
     1
102
RTVSPost2010Prop37
 90
       50
102
RTVSPost2010PropOp37
 70
     1
102
RTVSPost2010Prop38
140
0.0
102
RTVSPost2010PropOp38
 70
     1
102
RTVSPost2010Prop39
140
1.0
102
RTVSPost2010PropOp39
 70
     1
102
RTVSPost2010Prop40
 90
        0
102
RTVSPost2010PropOp40
 70
     1
102
RTVSPost2010Prop41ColorIndex
 90
       18
102
RTVSPost2010Prop41ColorRGB
 90
        0
102
RTVSPost2010PropOp41
 70
     1
102
RTVSPost2010Prop42
 90
       50
102
RTVSPost2010PropOp42
 70
     1
102
RTVSPost2010Prop43
 90
        3
102
RTVSPost2010PropOp43
 70
     1
102
RTVSPost2010Prop44ColorIndex
 90
        5
102
RTVSPost2010Prop44ColorRGB
 90
      255
102
RTVSPost2010PropOp44
 70
     1
102
RTVSPost2010Prop45
280
     0
102
RTVSPost2010PropOp45
 70
     1
102
RTVSPost2010Prop46
 90
       50
102
RTVSPost2010PropOp46
 70
     1
102
RTVSPost2010Prop47
 90
       50
102
RTVSPost2010PropOp47
 70
     1
102
RTVSPost2010Prop48
 90
       50
102
RTVSPost2010PropOp48
 70
     1
102
RTVSPost2010Prop49
280
     0
102
RTVSPost2010PropOp49
 70
     1
102
RTVSPost2010Prop50
 90
       50
102
RTVSPost2010PropOp50
 70
     1
102
RTVSPost2010Prop51ColorIndex
 90
      256
102
RTVSPost2010Prop51ColorRGB
 90
-16777216
102
RTVSPost2010PropOp51
 70
     0
102
RTVSPost2010Prop52
140
1.0
102
RTVSPost2010PropOp52
 70
     0
102
RTVSPost2010Prop53
 90
        2
102
RTVSPost2010PropOp53
 70
     1
102
RTVSPost2010Prop54
  1
strokes_ogs.tif
102
RTVSPost2010PropOp54
 70
     1
102
RTVSPost2010Prop55
280
     0
102
RTVSPost2010PropOp55
 70
     1
102
RTVSPost2010Prop56
140
1.0
102
RTVSPost2010PropOp56
 70
     1
102
RTVSPost2010Prop57
140
1.0
102
RTVSPost2010PropOp57
 70
     1
  0
ENDSEC
  0
EOF
