  0
SECTION
  2
HEADER
  9
$ACADVER
  1
AC1024
  9
$ACADMAINTVER
 70
   226
  9
$DWGCODEPAGE
  3
ANSI_932
  9
$INSBASE
 10
0.0
 20
0.0
 30
0.0
  9
$EXTMIN
 10
1.000000000000000E+20
 20
1.000000000000000E+20
 30
1.000000000000000E+20
  9
$EXTMAX
 10
-1.000000000000000E+20
 20
-1.000000000000000E+20
 30
-1.000000000000000E+20
  9
$LIMMIN
 10
0.0
 20
0.0
  9
$LIMMAX
 10
12.0
 20
9.0
  9
$ORTHOMODE
 70
     0
  9
$REGENMODE
 70
     1
  9
$FILLMODE
 70
     1
  9
$QTEXTMODE
 70
     0
  9
$MIRRTEXT
 70
     0
  9
$LTSCALE
 40
1.0
  9
$ATTMODE
 70
     1
  9
$TEXTSIZE
 40
0.2
  9
$TRACEWID
 40
0.05
  9
$TEXTSTYLE
  7
Standard
  9
$CLAYER
  8
0
  9
$CELTYPE
  6
ByLayer
  9
$CECOLOR
 62
   256
  9
$CELTSCALE
 40
1.0
  9
$DISPSILH
 70
     0
  9
$DIMSCALE
 40
1.0
  9
$DIMASZ
 40
0.18
  9
$DIMEXO
 40
0.0625
  9
$DIMDLI
 40
0.38
  9
$DIMRND
 40
0.0
  9
$DIMDLE
 40
0.0
  9
$DIMEXE
 40
0.18
  9
$DIMTP
 40
0.0
  9
$DIMTM
 40
0.0
  9
$DIMTXT
 40
0.18
  9
$DIMCEN
 40
0.09
  9
$DIMTSZ
 40
0.0
  9
$DIMTOL
 70
     0
  9
$DIMLIM
 70
     0
  9
$DIMTIH
 70
     1
  9
$DIMTOH
 70
     1
  9
$DIMSE1
 70
     0
  9
$DIMSE2
 70
     0
  9
$DIMTAD
 70
     0
  9
$DIMZIN
 70
     0
  9
$DIMBLK
  1

  9
$DIMASO
 70
     1
  9
$DIMSHO
 70
     1
  9
$DIMPOST
  1

  9
$DIMAPOST
  1

  9
$DIMALT
 70
     0
  9
$DIMALTD
 70
     2
  9
$DIMALTF
 40
25.4
  9
$DIMLFAC
 40
1.0
  9
$DIMTOFL
 70
     0
  9
$DIMTVP
 40
0.0
  9
$DIMTIX
 70
     0
  9
$DIMSOXD
 70
     0
  9
$DIMSAH
 70
     0
  9
$DIMBLK1
  1

  9
$DIMBLK2
  1

  9
$DIMSTYLE
  2
Standard
  9
$DIMCLRD
 70
     0
  9
$DIMCLRE
 70
     0
  9
$DIMCLRT
 70
     0
  9
$DIMTFAC
 40
1.0
  9
$DIMGAP
 40
0.09
  9
$DIMJUST
 70
     0
  9
$DIMSD1
 70
     0
  9
$DIMSD2
 70
     0
  9
$DIMTOLJ
 70
     1
  9
$DIMTZIN
 70
     0
  9
$DIMALTZ
 70
     0
  9
$DIMALTTZ
 70
     0
  9
$DIMUPT
 70
     0
  9
$DIMDEC
 70
     4
  9
$DIMTDEC
 70
     4
  9
$DIMALTU
 70
     2
  9
$DIMALTTD
 70
     2
  9
$DIMTXSTY
  7
Standard
  9
$DIMAUNIT
 70
     0
  9
$DIMADEC
 70
     0
  9
$DIMALTRND
 40
0.0
  9
$DIMAZIN
 70
     0
  9
$DIMDSEP
 70
    46
  9
$DIMATFIT
 70
     3
  9
$DIMFRAC
 70
     0
  9
$DIMLDRBLK
  1

  9
$DIMLUNIT
 70
     2
  9
$DIMLWD
 70
    -2
  9
$DIMLWE
 70
    -2
  9
$DIMTMOVE
 70
     0
  9
$DIMFXL
 40
1.0
  9
$DIMFXLON
 70
     0
  9
$DIMJOGANG
 40
0.7853981633974483
  9
$DIMTFILL
 70
     0
  9
$DIMTFILLCLR
 70
     0
  9
$DIMARCSYM
 70
     0
  9
$DIMLTYPE
  6

  9
$DIMLTEX1
  6

  9
$DIMLTEX2
  6

  9
$DIMTXTDIRECTION
 70
     0
  9
$LUNITS
 70
     2
  9
$LUPREC
 70
     4
  9
$SKETCHINC
 40
0.1
  9
$FILLETRAD
 40
0.0
  9
$AUNITS
 70
     0
  9
$AUPREC
 70
     0
  9
$MENU
  1
.
  9
$ELEVATION
 40
0.0
  9
$PELEVATION
 40
0.0
  9
$THICKNESS
 40
0.0
  9
$LIMCHECK
 70
     0
  9
$CHAMFERA
 40
0.0
  9
$CHAMFERB
 40
0.0
  9
$CHAMFERC
 40
0.0
  9
$CHAMFERD
 40
0.0
  9
$SKPOLY
 70
     0
  9
$TDCREATE
 40
2459569.489155093
  9
$TDUCREATE
 40
2459569.114155093
  9
$TDUPDATE
 40
2459569.489155093
  9
$TDUUPDATE
 40
2459569.114155093
  9
$TDINDWG
 40
0.0000000000
  9
$TDUSRTIMER
 40
0.0000000000
  9
$USRTIMER
 70
     1
  9
$ANGBASE
 50
0.0
  9
$ANGDIR
 70
     0
  9
$PDMODE
 70
     0
  9
$PDSIZE
 40
0.0
  9
$PLINEWID
 40
0.0
  9
$SPLFRAME
 70
     0
  9
$SPLINETYPE
 70
     6
  9
$SPLINESEGS
 70
     8
  9
$HANDSEED
  5
1A7
  9
$SURFTAB1
 70
     6
  9
$SURFTAB2
 70
     6
  9
$SURFTYPE
 70
     6
  9
$SURFU
 70
     6
  9
$SURFV
 70
     6
  9
$UCSBASE
  2

  9
$UCSNAME
  2

  9
$UCSORG
 10
0.0
 20
0.0
 30
0.0
  9
$UCSXDIR
 10
1.0
 20
0.0
 30
0.0
  9
$UCSYDIR
 10
0.0
 20
1.0
 30
0.0
  9
$UCSORTHOREF
  2

  9
$UCSORTHOVIEW
 70
     0
  9
$UCSORGTOP
 10
0.0
 20
0.0
 30
0.0
  9
$UCSORGBOTTOM
 10
0.0
 20
0.0
 30
0.0
  9
$UCSORGLEFT
 10
0.0
 20
0.0
 30
0.0
  9
$UCSORGRIGHT
 10
0.0
 20
0.0
 30
0.0
  9
$UCSORGFRONT
 10
0.0
 20
0.0
 30
0.0
  9
$UCSORGBACK
 10
0.0
 20
0.0
 30
0.0
  9
$PUCSBASE
  2

  9
$PUCSNAME
  2

  9
$PUCSORG
 10
0.0
 20
0.0
 30
0.0
  9
$PUCSXDIR
 10
1.0
 20
0.0
 30
0.0
  9
$PUCSYDIR
 10
0.0
 20
1.0
 30
0.0
  9
$PUCSORTHOREF
  2

  9
$PUCSORTHOVIEW
 70
     0
  9
$PUCSORGTOP
 10
0.0
 20
0.0
 30
0.0
  9
$PUCSORGBOTTOM
 10
0.0
 20
0.0
 30
0.0
  9
$PUCSORGLEFT
 10
0.0
 20
0.0
 30
0.0
  9
$PUCSORGRIGHT
 10
0.0
 20
0.0
 30
0.0
  9
$PUCSORGFRONT
 10
0.0
 20
0.0
 30
0.0
  9
$PUCSORGBACK
 10
0.0
 20
0.0
 30
0.0
  9
$USERI1
 70
     0
  9
$USERI2
 70
     0
  9
$USERI3
 70
     0
  9
$USERI4
 70
     0
  9
$USERI5
 70
     0
  9
$USERR1
 40
0.0
  9
$USERR2
 40
0.0
  9
$USERR3
 40
0.0
  9
$USERR4
 40
0.0
  9
$USERR5
 40
0.0
  9
$WORLDVIEW
 70
     1
  9
$SHADEDGE
 70
     3
  9
$SHADEDIF
 70
    70
  9
$TILEMODE
 70
     1
  9
$MAXACTVP
 70
    64
  9
$PINSBASE
 10
0.0
 20
0.0
 30
0.0
  9
$PLIMCHECK
 70
     0
  9
$PEXTMIN
 10
1.000000000000000E+20
 20
1.000000000000000E+20
 30
1.000000000000000E+20
  9
$PEXTMAX
 10
-1.000000000000000E+20
 20
-1.000000000000000E+20
 30
-1.000000000000000E+20
  9
$PLIMMIN
 10
0.0
 20
0.0
  9
$PLIMMAX
 10
12.0
 20
9.0
  9
$UNITMODE
 70
     0
  9
$VISRETAIN
 70
     1
  9
$PLINEGEN
 70
     0
  9
$PSLTSCALE
 70
     1
  9
$TREEDEPTH
 70
  3020
  9
$CMLSTYLE
  2
Standard
  9
$CMLJUST
 70
     0
  9
$CMLSCALE
 40
1.0
  9
$PROXYGRAPHICS
 70
     1
  9
$MEASUREMENT
 70
     0
  9
$CELWEIGHT
370
    -1
  9
$ENDCAPS
280
     0
  9
$JOINSTYLE
280
     0
  9
$LWDISPLAY
290
     1
  9
$INSUNITS
 70
     4
  9
$HYPERLINKBASE
  1

  9
$STYLESHEET
  1

  9
$XEDIT
290
     1
  9
$CEPSNTYPE
380
     0
  9
$PSTYLEMODE
290
     1
  9
$FINGERPRINTGUID
  2
{F1694B4B-42FD-F04E-894E-5F2D433101F3}
  9
$VERSIONGUID
  2
{702F6A33-4BD6-1945-8B93-BF5B65EA5615}
  9
$EXTNAMES
290
     1
  9
$PSVPSCALE
 40
0.0
  9
$OLESTARTUP
290
     0
  9
$SORTENTS
280
   127
  9
$INDEXCTL
280
     0
  9
$HIDETEXT
280
     1
  9
$XCLIPFRAME
280
     2
  9
$HALOGAP
280
     0
  9
$OBSCOLOR
 70
   257
  9
$OBSLTYPE
280
     0
  9
$INTERSECTIONDISPLAY
280
     0
  9
$INTERSECTIONCOLOR
 70
   257
  9
$DIMASSOC
280
     2
  9
$PROJECTNAME
  1

  9
$CAMERADISPLAY
290
     0
  9
$LENSLENGTH
 40
50.0
  9
$CAMERAHEIGHT
 40
0.0
  9
$STEPSPERSEC
 40
2.0
  9
$STEPSIZE
 40
6.0
  9
$3DDWFPREC
 40
2.0
  9
$PSOLWIDTH
 40
0.25
  9
$PSOLHEIGHT
 40
4.0
  9
$LOFTANG1
 40
1.570796326794896
  9
$LOFTANG2
 40
1.570796326794896
  9
$LOFTMAG1
 40
0.0
  9
$LOFTMAG2
 40
0.0
  9
$LOFTPARAM
 70
     7
  9
$LOFTNORMALS
280
     1
  9
$LATITUDE
 40
37.795
  9
$LONGITUDE
 40
-122.394
  9
$NORTHDIRECTION
 40
0.0
  9
$TIMEZONE
 70
 -8000
  9
$LIGHTGLYPHDISPLAY
280
     1
  9
$TILEMODELIGHTSYNCH
280
     1
  9
$CMATERIAL
347
11
  9
$SOLIDHIST
280
     0
  9
$SHOWHIST
280
     1
  9
$DWFFRAME
280
     2
  9
$DGNFRAME
280
     0
  9
$REALWORLDSCALE
290
     1
  9
$INTERFERECOLOR
 62
     1
  9
$INTERFEREOBJVS
345
33
  9
$INTERFEREVPVS
346
30
  9
$CSHADOW
280
     0
  9
$SHADOWPLANELOCATION
 40
0.0
  0
ENDSEC
  0
SECTION
  2
CLASSES
  0
CLASS
  1
ACDBDICTIONARYWDFLT
  2
AcDbDictionaryWithDefault
  3
ObjectDBX Classes
 90
        0
 91
        1
280
     0
281
     0
  0
CLASS
  1
MATERIAL
  2
AcDbMaterial
  3
ObjectDBX Classes
 90
     1153
 91
        3
280
     0
281
     0
  0
CLASS
  1
VISUALSTYLE
  2
AcDbVisualStyle
  3
ObjectDBX Classes
 90
     4095
 91
       24
280
     0
281
     0
  0
CLASS
  1
SCALE
  2
AcDbScale
  3
ObjectDBX Classes
 90
     1153
 91
       17
280
     0
281
     0
  0
CLASS
  1
TABLESTYLE
  2
AcDbTableStyle
  3
ObjectDBX Classes
 90
     4095
 91
        1
280
     0
281
     0
  0
CLASS
  1
MLEADERSTYLE
  2
AcDbMLeaderStyle
  3
ACDB_MLEADERSTYLE_CLASS
 90
     4095
 91
        1
280
     0
281
     0
  0
CLASS
  1
ACDBSECTIONVIEWSTYLE
  2
AcDbSectionViewStyle
  3
ObjectDBX Classes
 90
     1025
 91
        1
280
     0
281
     0
  0
CLASS
  1
ACDBDETAILVIEWSTYLE
  2
AcDbDetailViewStyle
  3
ObjectDBX Classes
 90
     1025
 91
        1
280
     0
281
     0
  0
CLASS
  1
DICTIONARYVAR
  2
AcDbDictionaryVar
  3
ObjectDBX Classes
 90
        0
 91
        5
280
     0
281
     0
  0
CLASS
  1
CELLSTYLEMAP
  2
AcDbCellStyleMap
  3
ObjectDBX Classes
 90
     1152
 91
        1
280
     0
281
     0
  0
ENDSEC
  0
SECTION
  2
TABLES
  0
TABLE
  2
VPORT
  5
8
330
0
100
AcDbSymbolTable
 70
     1
  0
VPORT
  5
57
330
8
100
AcDbSymbolTableRecord
100
AcDbViewportTableRecord
  2
*Active
 70
     0
 10
0.0
 20
0.0
 11
1.0
 21
1.0
 12
0.0
 22
0.0
 13
0.0
 23
0.0
 14
1.0
 24
1.0
 15
0.0
 25
0.0
 16
0.0
 26
0.0
 36
1.0
 17
104.9999999737534
 27
-148.4999999628701
 37
0.0
 40
302.939999924255
 41
0.7070707070707534
 42
50.0
 43
0.0
 44
0.0
 50
0.0
 51
0.0
 71
     0
 72
   100
 73
     1
 74
     0
 75
     1
 76
     0
 77
     0
 78
     0
281
     0
 65
     1
110
0.0
120
0.0
130
0.0
111
1.0
121
0.0
131
0.0
112
0.0
122
1.0
132
0.0
 79
     0
146
0.0
 60
     3
 61
     5
292
     1
282
     1
141
0.0
142
0.0
 63
   250
421
  3355443
  0
ENDTAB
  0
TABLE
  2
LTYPE
  5
5
330
0
100
AcDbSymbolTable
 70
     2
  0
LTYPE
  5
5B
330
5
100
AcDbSymbolTableRecord
100
AcDbLinetypeTableRecord
  2
ByBlock
 70
     0
  3

 72
    65
 73
     0
 40
0.0
  0
LTYPE
  5
5C
330
5
100
AcDbSymbolTableRecord
100
AcDbLinetypeTableRecord
  2
ByLayer
 70
     0
  3

 72
    65
 73
     0
 40
0.0
  0
LTYPE
  5
5D
330
5
100
AcDbSymbolTableRecord
100
AcDbLinetypeTableRecord
  2
Continuous
 70
     0
  3
Solid line
 72
    65
 73
     0
 40
0.0
  0
LTYPE
  5
A5
330
5
100
AcDbSymbolTableRecord
100
AcDbLinetypeTableRecord
  2
AI-Linetype-0
 70
     0
  3
Adobe Illustrator Linetype No. 0
 72
    65
 73
     2
 40
1.411111110758333
 49
0.7055555553791667
 74
     0
 49
-0.7055555553791667
 74
     0
  0
ENDTAB
  0
TABLE
  2
LAYER
  5
2
330
0
100
AcDbSymbolTable
 70
     2
  0
LAYER
  5
54
330
2
100
AcDbSymbolTableRecord
100
AcDbLayerTableRecord
  2
0
 70
     0
 62
     7
  6
Continuous
370
    -3
390
F
347
21
  0
LAYER
  5
78
330
2
100
AcDbSymbolTableRecord
100
AcDbLayerTableRecord
  2
レイヤー 1
 70
     0
 62
     7
  6
Continuous
370
     0
390
F
347
21
  0
ENDTAB
  0
TABLE
  2
STYLE
  5
3
330
0
100
AcDbSymbolTable
 70
     2
  0
STYLE
  5
55
330
3
100
AcDbSymbolTableRecord
100
AcDbTextStyleTableRecord
  2
Standard
 70
     0
 40
0.0
 41
1.0
 50
0.0
 71
     0
 42
0.2
  3
txt
  4

  0
STYLE
  5
5A
330
3
100
AcDbSymbolTableRecord
100
AcDbTextStyleTableRecord
  2
Annotative
 70
     0
 40
0.0
 41
1.0
 50
0.0
 71
     0
 42
0.2
  3
txt
  4

1001
AcadAnnotative
1000
AnnotativeData
1002
{
1070
     1
1070
     1
1002
}
  0
ENDTAB
  0
TABLE
  2
VIEW
  5
6
330
0
100
AcDbSymbolTable
 70
     0
  0
ENDTAB
  0
TABLE
  2
UCS
  5
7
330
0
100
AcDbSymbolTable
 70
     0
  0
ENDTAB
  0
TABLE
  2
APPID
  5
9
330
0
100
AcDbSymbolTable
 70
     2
  0
APPID
  5
56
330
9
100
AcDbSymbolTableRecord
100
AcDbRegAppTableRecord
  2
ACAD
 70
     0
  0
APPID
  5
5E
330
9
100
AcDbSymbolTableRecord
100
AcDbRegAppTableRecord
  2
AcadAnnotative
 70
     0
  0
ENDTAB
  0
TABLE
  2
DIMSTYLE
  5
A
330
0
100
AcDbSymbolTable
 70
     2
100
AcDbDimStyleTable
 71
     0
  0
DIMSTYLE
105
58
330
A
100
AcDbSymbolTableRecord
100
AcDbDimStyleTableRecord
  2
Standard
 70
     0
340
55
  0
DIMSTYLE
105
59
330
A
100
AcDbSymbolTableRecord
100
AcDbDimStyleTableRecord
  2
Annotative
 70
     0
340
55
1001
AcadAnnotative
1000
AnnotativeData
1002
{
1070
     1
1070
     1
1002
}
  0
ENDTAB
  0
TABLE
  2
BLOCK_RECORD
  5
1
330
0
100
AcDbSymbolTable
 70
    16
  0
BLOCK_RECORD
  5
70
330
1
100
AcDbSymbolTableRecord
100
AcDbBlockTableRecord
  2
*Model_Space
340
73
 70
     0
280
     1
281
     0
  0
BLOCK_RECORD
  5
6C
330
1
100
AcDbSymbolTableRecord
100
AcDbBlockTableRecord
  2
*Paper_Space
340
6F
 70
     0
280
     1
281
     0
  0
BLOCK_RECORD
  5
74
330
1
100
AcDbSymbolTableRecord
100
AcDbBlockTableRecord
  2
*Paper_Space0
340
77
 70
     0
280
     1
281
     0
  0
BLOCK_RECORD
  5
79
330
1
100
AcDbSymbolTableRecord
100
AcDbBlockTableRecord
  2
Block_0
340
0
102
{BLKREFS
331
7A
102
}
 70
     0
280
     1
281
     0
  0
BLOCK_RECORD
  5
7D
330
1
100
AcDbSymbolTableRecord
100
AcDbBlockTableRecord
  2
Block_1
340
0
102
{BLKREFS
331
7E
102
}
 70
     0
280
     1
281
     0
  0
BLOCK_RECORD
  5
81
330
1
100
AcDbSymbolTableRecord
100
AcDbBlockTableRecord
  2
Block_2
340
0
102
{BLKREFS
331
82
102
}
 70
     0
280
     1
281
     0
  0
BLOCK_RECORD
  5
A6
330
1
100
AcDbSymbolTableRecord
100
AcDbBlockTableRecord
  2
Block_3
340
0
102
{BLKREFS
331
A7
102
}
 70
     0
280
     1
281
     0
  0
BLOCK_RECORD
  5
111
330
1
100
AcDbSymbolTableRecord
100
AcDbBlockTableRecord
  2
Block_4
340
0
102
{BLKREFS
331
112
102
}
 70
     0
280
     1
281
     0
  0
BLOCK_RECORD
  5
115
330
1
100
AcDbSymbolTableRecord
100
AcDbBlockTableRecord
  2
Block_5
340
0
102
{BLKREFS
331
116
102
}
 70
     0
280
     1
281
     0
  0
BLOCK_RECORD
  5
122
330
1
100
AcDbSymbolTableRecord
100
AcDbBlockTableRecord
  2
Block_6
340
0
102
{BLKREFS
331
123
102
}
 70
     0
280
     1
281
     0
  0
BLOCK_RECORD
  5
126
330
1
100
AcDbSymbolTableRecord
100
AcDbBlockTableRecord
  2
Block_7
340
0
102
{BLKREFS
331
127
102
}
 70
     0
280
     1
281
     0
  0
BLOCK_RECORD
  5
130
330
1
100
AcDbSymbolTableRecord
100
AcDbBlockTableRecord
  2
Block_8
340
0
102
{BLKREFS
331
131
102
}
 70
     0
280
     1
281
     0
  0
BLOCK_RECORD
  5
138
330
1
100
AcDbSymbolTableRecord
100
AcDbBlockTableRecord
  2
Block_9
340
0
102
{BLKREFS
331
139
102
}
 70
     0
280
     1
281
     0
  0
BLOCK_RECORD
  5
13C
330
1
100
AcDbSymbolTableRecord
100
AcDbBlockTableRecord
  2
Block_10
340
0
102
{BLKREFS
331
13D
102
}
 70
     0
280
     1
281
     0
  0
BLOCK_RECORD
  5
147
330
1
100
AcDbSymbolTableRecord
100
AcDbBlockTableRecord
  2
Block_11
340
0
102
{BLKREFS
331
148
102
}
 70
     0
280
     1
281
     0
  0
BLOCK_RECORD
  5
155
330
1
100
AcDbSymbolTableRecord
100
AcDbBlockTableRecord
  2
Block_12
340
0
102
{BLKREFS
331
156
102
}
 70
     0
280
     1
281
     0
  0
BLOCK_RECORD
  5
159
330
1
100
AcDbSymbolTableRecord
100
AcDbBlockTableRecord
  2
Block_13
340
0
102
{BLKREFS
331
15A
102
}
 70
     0
280
     1
281
     0
  0
BLOCK_RECORD
  5
162
330
1
100
AcDbSymbolTableRecord
100
AcDbBlockTableRecord
  2
Block_14
340
0
102
{BLKREFS
331
163
102
}
 70
     0
280
     1
281
     0
  0
ENDTAB
  0
ENDSEC
  0
SECTION
  2
BLOCKS
  0
BLOCK
  5
71
330
70
100
AcDbEntity
  8
0
100
AcDbBlockBegin
  2
*Model_Space
 70
     0
 10
0.0
 20
0.0
 30
0.0
  3
*Model_Space
  1

  0
ENDBLK
  5
72
330
70
100
AcDbEntity
  8
0
100
AcDbBlockEnd
  0
BLOCK
  5
6D
330
6C
100
AcDbEntity
 67
     1
  8
0
100
AcDbBlockBegin
  2
*Paper_Space
 70
     0
 10
0.0
 20
0.0
 30
0.0
  3
*Paper_Space
  1

  0
ENDBLK
  5
6E
330
6C
100
AcDbEntity
 67
     1
  8
0
100
AcDbBlockEnd
  0
BLOCK
  5
75
330
74
100
AcDbEntity
 67
     1
  8
0
100
AcDbBlockBegin
  2
*Paper_Space0
 70
     0
 10
0.0
 20
0.0
 30
0.0
  3
*Paper_Space0
  1

  0
ENDBLK
  5
76
330
74
100
AcDbEntity
 67
     1
  8
0
100
AcDbBlockEnd
  0
BLOCK
  5
7B
330
79
100
AcDbEntity
  8
0
100
AcDbBlockBegin
  2
Block_0
 70
     0
 10
0.0
 20
0.0
 30
0.0
  3
Block_0
  1

  0
INSERT
  5
7E
330
79
100
AcDbEntity
  8
レイヤー 1
100
AcDbBlockReference
  2
Block_1
 10
0.0
 20
0.0
 30
0.0
  0
LWPOLYLINE
  5
A3
330
79
100
AcDbEntity
  8
レイヤー 1
 62
   250
420
  2299925
370
     9
100
AcDbPolyline
 90
        3
 70
     0
 43
0.0
 10
117.9936387615031
 20
-145.8404429201264
 10
124.1672497151122
 20
-153.9541554180979
 10
134.8091438880594
 20
-153.9541554180979
  0
LWPOLYLINE
  5
A4
330
79
100
AcDbEntity
  8
レイヤー 1
  6
AI-Linetype-0
 62
   154
420
    23468
370
    25
100
AcDbPolyline
 90
        6
 70
     0
 43
0.0
 10
80.07043283763755
 20
-146.5459984755056
 10
101.7075281189629
 20
-145.5464026424222
 10
101.7075281189629
 20
-150.8380693077656
 10
109.5855334482712
 20
-150.8380693077656
 10
109.5855334482712
 20
-145.4289276424517
 10
131.1638912310948
 20
-146.4283470866462
  0
INSERT
  5
A7
330
79
100
AcDbEntity
  8
レイヤー 1
100
AcDbBlockReference
  2
Block_3
 10
0.0
 20
0.0
 30
0.0
  0
ENDBLK
  5
7C
330
79
100
AcDbEntity
  8
0
100
AcDbBlockEnd
  0
BLOCK
  5
7F
330
7D
100
AcDbEntity
  8
0
100
AcDbBlockBegin
  2
Block_1
 70
     0
 10
0.0
 20
0.0
 30
0.0
  3
Block_1
  1

  0
INSERT
  5
82
330
7D
100
AcDbEntity
  8
レイヤー 1
100
AcDbBlockReference
  2
Block_2
 10
0.0
 20
0.0
 30
0.0
  0
ENDBLK
  5
80
330
7D
100
AcDbEntity
  8
0
100
AcDbBlockEnd
  0
BLOCK
  5
83
330
81
100
AcDbEntity
  8
0
100
AcDbBlockBegin
  2
Block_2
 70
     0
 10
0.0
 20
0.0
 30
0.0
  3
Block_2
  1

  0
SPLINE
  5
85
330
81
100
AcDbEntity
  8
レイヤー 1
100
AcDbSpline
210
0.0
220
0.0
230
1.0
 70
     9
 71
     3
 72
    59
 73
    55
 74
     0
 42
0.0000000001
 43
0.0000000001
 40
0.0
 40
0.0
 40
0.0
 40
0.0
 40
1.0
 40
1.0
 40
1.0
 40
2.0
 40
2.0
 40
2.0
 40
3.0
 40
3.0
 40
3.0
 40
4.0
 40
4.0
 40
4.0
 40
5.0
 40
5.0
 40
5.0
 40
6.0
 40
6.0
 40
6.0
 40
7.0
 40
7.0
 40
7.0
 40
8.0
 40
8.0
 40
8.0
 40
9.0
 40
9.0
 40
9.0
 40
10.0
 40
10.0
 40
10.0
 40
11.0
 40
11.0
 40
11.0
 40
12.0
 40
12.0
 40
12.0
 40
13.0
 40
13.0
 40
13.0
 40
14.0
 40
14.0
 40
14.0
 40
15.0
 40
15.0
 40
15.0
 40
16.0
 40
16.0
 40
16.0
 40
17.0
 40
17.0
 40
17.0
 40
18.0
 40
18.0
 40
18.0
 40
18.0
 10
125.5265326292086
 20
-149.5712320589613
 30
0.0
 10
125.380460580634
 20
-150.0580240510271
 30
0.0
 10
125.1620415268692
 20
-150.580300526591
 30
0.0
 10
124.6376979940142
 20
-150.8975938207825
 30
0.0
 10
124.6376979940142
 20
-150.8975938207825
 30
0.0
 10
124.4730224298192
 20
-150.7453206003345
 30
0.0
 10
124.4730224298192
 20
-150.7453206003345
 30
0.0
 10
124.6139268351659
 20
-150.6757296715324
 30
0.0
 10
124.828556283897
 20
-150.5654866160045
 30
0.0
 10
125.049042394953
 20
-150.2354464685175
 30
0.0
 10
125.256437143165
 20
-149.9226317984568
 30
0.0
 10
125.3063910277012
 20
-149.6666612039027
 30
0.0
 10
125.3305066960979
 20
-149.539537180497
 30
0.0
 10
125.3305066960979
 20
-149.539537180497
 30
0.0
 10
124.7637884887743
 20
-149.539537180497
 30
0.0
 10
124.7637884887743
 20
-149.539537180497
 30
0.0
 10
124.6731824775122
 20
-149.7004231396582
 30
0.0
 10
124.5674180461151
 20
-149.8675102706928
 30
0.0
 10
124.3989528768864
 20
-150.0387315163098
 30
0.0
 10
124.3989528768864
 20
-150.0387315163098
 30
0.0
 10
124.2470241659868
 20
-149.9160861170348
 30
0.0
 10
124.2470241659868
 20
-149.9160861170348
 30
0.0
 10
124.2990451078141
 20
-149.869577327984
 30
0.0
 10
124.4285806980595
 20
-149.7576117247134
 30
0.0
 10
124.5729301988915
 20
-149.5078423020328
 30
0.0
 10
124.6397650513053
 20
-149.3893310173401
 30
0.0
 10
124.7303710625674
 20
-149.2201768290144
 30
0.0
 10
124.7527641832215
 20
-149.0975314297395
 30
0.0
 10
124.7527641832215
 20
-149.0975314297395
 30
0.0
 10
124.9546467786571
 20
-149.1988172370058
 30
0.0
 10
124.9546467786571
 20
-149.1988172370058
 30
0.0
 10
124.9673936319526
 20
-149.2053629184278
 30
0.0
 10
124.9804849947965
 20
-149.2136311475924
 30
0.0
 10
124.9804849947965
 20
-149.228445058179
 30
0.0
 10
124.9804849947965
 20
-149.2498046501875
 30
0.0
 10
124.9580918741424
 20
-149.262551503483
 30
0.0
 10
124.9508571736234
 20
-149.2646185607741
 30
0.0
 10
124.9267415052266
 20
-149.2728867899387
 30
0.0
 10
124.9195068047076
 20
-149.2708197326475
 30
0.0
 10
124.8971136840535
 20
-149.2963134392384
 30
0.0
 10
124.8747205633994
 20
-149.3218071458293
 30
0.0
 10
124.8767876206905
 20
-149.3300753749938
 30
0.0
 10
124.84888234726
 20
-149.3831298454667
 30
0.0
 10
124.84888234726
 20
-149.3831298454667
 30
0.0
 10
125.1413709539577
 20
-149.3831298454667
 30
0.0
 10
125.1413709539577
 20
-149.3831298454667
 30
0.0
 10
125.3656466700475
 20
-149.3831298454667
 30
0.0
 10
125.393551943478
 20
-149.3703829921713
 30
0.0
 10
125.4435058280141
 20
-149.3407551709981
 30
0.0
 10
125.4435058280141
 20
-149.3407551709981
 30
0.0
 10
125.5802761187785
 20
-149.5057752447416
 30
0.0
 10
125.5802761187785
 20
-149.5057752447416
 30
0.0
 10
125.5506482976054
 20
-149.5416042377882
 30
0.0
 10
125.5489257498628
 20
-149.5436712950793
 30
0.0
 10
125.5265326292086
 20
-149.5712320589613
 30
0.0
  0
HATCH
  5
86
330
81
100
AcDbEntity
  8
レイヤー 1
 62
   250
420
  2299925
440
 33554687
100
AcDbHatch
 10
0.0
 20
0.0
 30
0.0
210
0.0
220
0.0
230
1.0
  2
SOLID
 70
     1
 71
     1
 91
        1
 92
        1
 93
        1
 72
     4
 94
        3
 73
     0
 74
     0
 95
       59
 96
       55
 40
0.0
 40
0.0
 40
0.0
 40
0.0
 40
1.0
 40
1.0
 40
1.0
 40
2.0
 40
2.0
 40
2.0
 40
3.0
 40
3.0
 40
3.0
 40
4.0
 40
4.0
 40
4.0
 40
5.0
 40
5.0
 40
5.0
 40
6.0
 40
6.0
 40
6.0
 40
7.0
 40
7.0
 40
7.0
 40
8.0
 40
8.0
 40
8.0
 40
9.0
 40
9.0
 40
9.0
 40
10.0
 40
10.0
 40
10.0
 40
11.0
 40
11.0
 40
11.0
 40
12.0
 40
12.0
 40
12.0
 40
13.0
 40
13.0
 40
13.0
 40
14.0
 40
14.0
 40
14.0
 40
15.0
 40
15.0
 40
15.0
 40
16.0
 40
16.0
 40
16.0
 40
17.0
 40
17.0
 40
17.0
 40
18.0
 40
18.0
 40
18.0
 40
18.0
 10
125.5265326292086
 20
-149.5712320589613
 10
125.380460580634
 20
-150.0580240510271
 10
125.1620415268692
 20
-150.580300526591
 10
124.6376979940142
 20
-150.8975938207825
 10
124.6376979940142
 20
-150.8975938207825
 10
124.4730224298192
 20
-150.7453206003345
 10
124.4730224298192
 20
-150.7453206003345
 10
124.6139268351659
 20
-150.6757296715324
 10
124.828556283897
 20
-150.5654866160045
 10
125.049042394953
 20
-150.2354464685175
 10
125.256437143165
 20
-149.9226317984568
 10
125.3063910277012
 20
-149.6666612039027
 10
125.3305066960979
 20
-149.539537180497
 10
125.3305066960979
 20
-149.539537180497
 10
124.7637884887743
 20
-149.539537180497
 10
124.7637884887743
 20
-149.539537180497
 10
124.6731824775122
 20
-149.7004231396582
 10
124.5674180461151
 20
-149.8675102706928
 10
124.3989528768864
 20
-150.0387315163098
 10
124.3989528768864
 20
-150.0387315163098
 10
124.2470241659868
 20
-149.9160861170348
 10
124.2470241659868
 20
-149.9160861170348
 10
124.2990451078141
 20
-149.869577327984
 10
124.4285806980595
 20
-149.7576117247134
 10
124.5729301988915
 20
-149.5078423020328
 10
124.6397650513053
 20
-149.3893310173401
 10
124.7303710625674
 20
-149.2201768290144
 10
124.7527641832215
 20
-149.0975314297395
 10
124.7527641832215
 20
-149.0975314297395
 10
124.9546467786571
 20
-149.1988172370058
 10
124.9546467786571
 20
-149.1988172370058
 10
124.9673936319526
 20
-149.2053629184278
 10
124.9804849947965
 20
-149.2136311475924
 10
124.9804849947965
 20
-149.228445058179
 10
124.9804849947965
 20
-149.2498046501875
 10
124.9580918741424
 20
-149.262551503483
 10
124.9508571736234
 20
-149.2646185607741
 10
124.9267415052266
 20
-149.2728867899387
 10
124.9195068047076
 20
-149.2708197326475
 10
124.8971136840535
 20
-149.2963134392384
 10
124.8747205633994
 20
-149.3218071458293
 10
124.8767876206905
 20
-149.3300753749938
 10
124.84888234726
 20
-149.3831298454667
 10
124.84888234726
 20
-149.3831298454667
 10
125.1413709539577
 20
-149.3831298454667
 10
125.1413709539577
 20
-149.3831298454667
 10
125.3656466700475
 20
-149.3831298454667
 10
125.393551943478
 20
-149.3703829921713
 10
125.4435058280141
 20
-149.3407551709981
 10
125.4435058280141
 20
-149.3407551709981
 10
125.5802761187785
 20
-149.5057752447416
 10
125.5802761187785
 20
-149.5057752447416
 10
125.5506482976054
 20
-149.5416042377882
 10
125.5489257498628
 20
-149.5436712950793
 10
125.5265326292086
 20
-149.5712320589613
 97
        0
 97
        1
330
85
 75
     2
 76
     1
 98
        1
 10
0.0
 20
0.0
450
        0
451
        0
460
0.0
461
0.0
452
        0
462
0.0
453
        0
470

  0
SPLINE
  5
87
330
81
100
AcDbEntity
  8
レイヤー 1
100
AcDbSpline
210
0.0
220
0.0
230
1.0
 70
    11
 71
     3
 72
    17
 73
    13
 74
     0
 42
0.0000000001
 43
0.0000000001
 40
0.0
 40
0.0
 40
0.0
 40
0.0
 40
1.0
 40
1.0
 40
1.0
 40
2.0
 40
2.0
 40
2.0
 40
3.0
 40
3.0
 40
3.0
 40
4.0
 40
4.0
 40
4.0
 40
4.0
 10
126.9655490133975
 20
-149.4802815381507
 30
0.0
 10
126.9655490133975
 20
-149.4802815381507
 30
0.0
 10
126.0543212575489
 20
-149.4802815381507
 30
0.0
 10
126.0543212575489
 20
-149.4802815381507
 30
0.0
 10
126.0543212575489
 20
-149.4802815381507
 30
0.0
 10
126.0543212575489
 20
-150.3687716637967
 30
0.0
 10
126.0543212575489
 20
-150.3687716637967
 30
0.0
 10
126.0543212575489
 20
-150.3687716637967
 30
0.0
 10
126.9655490133975
 20
-150.3687716637967
 30
0.0
 10
126.9655490133975
 20
-150.3687716637967
 30
0.0
 10
126.9655490133975
 20
-150.3687716637967
 30
0.0
 10
126.9655490133975
 20
-149.4802815381507
 30
0.0
 10
126.9655490133975
 20
-149.4802815381507
 30
0.0
  0
SPLINE
  5
88
330
81
100
AcDbEntity
  8
レイヤー 1
100
AcDbSpline
210
0.0
220
0.0
230
1.0
 70
     9
 71
     3
 72
    53
 73
    49
 74
     0
 42
0.0000000001
 43
0.0000000001
 40
0.0
 40
0.0
 40
0.0
 40
0.0
 40
1.0
 40
1.0
 40
1.0
 40
2.0
 40
2.0
 40
2.0
 40
3.0
 40
3.0
 40
3.0
 40
4.0
 40
4.0
 40
4.0
 40
5.0
 40
5.0
 40
5.0
 40
6.0
 40
6.0
 40
6.0
 40
7.0
 40
7.0
 40
7.0
 40
8.0
 40
8.0
 40
8.0
 40
9.0
 40
9.0
 40
9.0
 40
10.0
 40
10.0
 40
10.0
 40
11.0
 40
11.0
 40
11.0
 40
12.0
 40
12.0
 40
12.0
 40
13.0
 40
13.0
 40
13.0
 40
14.0
 40
14.0
 40
14.0
 40
15.0
 40
15.0
 40
15.0
 40
16.0
 40
16.0
 40
16.0
 40
16.0
 10
126.9452229500345
 20
-150.683997900697
 30
0.0
 10
126.9524576505535
 20
-150.6395561689373
 30
0.0
 10
126.9524576505535
 20
-150.6312879397727
 30
0.0
 10
126.9579698033299
 20
-150.5572183868399
 30
0.0
 10
126.9579698033299
 20
-150.5572183868399
 30
0.0
 10
126.05638831484
 20
-150.5572183868399
 30
0.0
 10
126.05638831484
 20
-150.5572183868399
 30
0.0
 10
126.05638831484
 20
-150.5889132653041
 30
0.0
 10
126.05638831484
 20
-150.6440347930681
 30
0.0
 10
126.0598334103253
 20
-150.6798637861147
 30
0.0
 10
126.0598334103253
 20
-150.6798637861147
 30
0.0
 10
125.848993566628
 20
-150.6798637861147
 30
0.0
 10
125.848993566628
 20
-150.6798637861147
 30
0.0
 10
125.8545057194044
 20
-150.6247422583508
 30
0.0
 10
125.8638074772146
 20
-150.5337917375401
 30
0.0
 10
125.8638074772146
 20
-150.4049451663918
 30
0.0
 10
125.8655300249572
 20
-150.1996174754709
 30
0.0
 10
125.8655300249572
 20
-150.1761908261712
 30
0.0
 10
125.8655300249572
 20
-150.15310868642
 30
0.0
 10
125.8655300249572
 20
-150.15310868642
 30
0.0
 10
125.8655300249572
 20
-149.7131699929536
 30
0.0
 10
125.8655300249572
 20
-149.7131699929536
 30
0.0
 10
125.8655300249572
 20
-149.6473686691854
 30
0.0
 10
125.8600178721808
 20
-149.3238742031204
 30
0.0
 10
125.856228267147
 20
-149.2687526753564
 30
0.0
 10
125.9654377940295
 20
-149.2814995286518
 30
0.0
 10
126.1969482106382
 20
-149.2856336432341
 30
0.0
 10
126.3120143998456
 20
-149.2856336432341
 30
0.0
 10
126.3120143998456
 20
-149.2856336432341
 30
0.0
 10
126.709922928392
 20
-149.2856336432341
 30
0.0
 10
126.709922928392
 20
-149.2856336432341
 30
0.0
 10
126.8415255759285
 20
-149.2856336432341
 30
0.0
 10
127.0375515090392
 20
-149.283566585943
 30
0.0
 10
127.165364551542
 20
-149.2752983567784
 30
0.0
 10
127.1581298510229
 20
-149.3851969027579
 30
0.0
 10
127.1543402459892
 20
-149.6346218158899
 30
0.0
 10
127.1543402459892
 20
-149.7531331005825
 30
0.0
 10
127.1543402459892
 20
-149.7531331005825
 30
0.0
 10
127.1543402459892
 20
-150.1720567115889
 30
0.0
 10
127.1543402459892
 20
-150.1720567115889
 30
0.0
 10
127.1543402459892
 20
-150.2144313860575
 30
0.0
 10
127.1598523987656
 20
-150.3963324276787
 30
0.0
 10
127.1598523987656
 20
-150.4345729875649
 30
0.0
 10
127.1619194560567
 20
-150.5847791507218
 30
0.0
 10
127.1691541565757
 20
-150.635422054355
 30
0.0
 10
127.1767333666433
 20
-150.683997900697
 30
0.0
 10
127.1767333666433
 20
-150.683997900697
 30
0.0
 10
126.9452229500345
 20
-150.683997900697
 30
0.0
 10
126.9452229500345
 20
-150.683997900697
 30
0.0
  0
HATCH
  5
89
330
81
100
AcDbEntity
  8
レイヤー 1
 62
   250
420
  2299925
440
 33554687
100
AcDbHatch
 10
0.0
 20
0.0
 30
0.0
210
0.0
220
0.0
230
1.0
  2
SOLID
 70
     1
 71
     1
 91
        2
 92
        1
 93
        1
 72
     4
 94
        3
 73
     0
 74
     0
 95
       17
 96
       13
 40
0.0
 40
0.0
 40
0.0
 40
0.0
 40
1.0
 40
1.0
 40
1.0
 40
2.0
 40
2.0
 40
2.0
 40
3.0
 40
3.0
 40
3.0
 40
4.0
 40
4.0
 40
4.0
 40
4.0
 10
126.9655490133975
 20
-149.4802815381507
 10
126.9655490133975
 20
-149.4802815381507
 10
126.0543212575489
 20
-149.4802815381507
 10
126.0543212575489
 20
-149.4802815381507
 10
126.0543212575489
 20
-149.4802815381507
 10
126.0543212575489
 20
-150.3687716637967
 10
126.0543212575489
 20
-150.3687716637967
 10
126.0543212575489
 20
-150.3687716637967
 10
126.9655490133975
 20
-150.3687716637967
 10
126.9655490133975
 20
-150.3687716637967
 10
126.9655490133975
 20
-150.3687716637967
 10
126.9655490133975
 20
-149.4802815381507
 10
126.9655490133975
 20
-149.4802815381507
 97
        0
 97
        1
330
87
 92
        1
 93
        1
 72
     4
 94
        3
 73
     0
 74
     0
 95
       53
 96
       49
 40
0.0
 40
0.0
 40
0.0
 40
0.0
 40
1.0
 40
1.0
 40
1.0
 40
2.0
 40
2.0
 40
2.0
 40
3.0
 40
3.0
 40
3.0
 40
4.0
 40
4.0
 40
4.0
 40
5.0
 40
5.0
 40
5.0
 40
6.0
 40
6.0
 40
6.0
 40
7.0
 40
7.0
 40
7.0
 40
8.0
 40
8.0
 40
8.0
 40
9.0
 40
9.0
 40
9.0
 40
10.0
 40
10.0
 40
10.0
 40
11.0
 40
11.0
 40
11.0
 40
12.0
 40
12.0
 40
12.0
 40
13.0
 40
13.0
 40
13.0
 40
14.0
 40
14.0
 40
14.0
 40
15.0
 40
15.0
 40
15.0
 40
16.0
 40
16.0
 40
16.0
 40
16.0
 10
126.9452229500345
 20
-150.683997900697
 10
126.9524576505535
 20
-150.6395561689373
 10
126.9524576505535
 20
-150.6312879397727
 10
126.9579698033299
 20
-150.5572183868399
 10
126.9579698033299
 20
-150.5572183868399
 10
126.05638831484
 20
-150.5572183868399
 10
126.05638831484
 20
-150.5572183868399
 10
126.05638831484
 20
-150.5889132653041
 10
126.05638831484
 20
-150.6440347930681
 10
126.0598334103253
 20
-150.6798637861147
 10
126.0598334103253
 20
-150.6798637861147
 10
125.848993566628
 20
-150.6798637861147
 10
125.848993566628
 20
-150.6798637861147
 10
125.8545057194044
 20
-150.6247422583508
 10
125.8638074772146
 20
-150.5337917375401
 10
125.8638074772146
 20
-150.4049451663918
 10
125.8655300249572
 20
-150.1996174754709
 10
125.8655300249572
 20
-150.1761908261712
 10
125.8655300249572
 20
-150.15310868642
 10
125.8655300249572
 20
-150.15310868642
 10
125.8655300249572
 20
-149.7131699929536
 10
125.8655300249572
 20
-149.7131699929536
 10
125.8655300249572
 20
-149.6473686691854
 10
125.8600178721808
 20
-149.3238742031204
 10
125.856228267147
 20
-149.2687526753564
 10
125.9654377940295
 20
-149.2814995286518
 10
126.1969482106382
 20
-149.2856336432341
 10
126.3120143998456
 20
-149.2856336432341
 10
126.3120143998456
 20
-149.2856336432341
 10
126.709922928392
 20
-149.2856336432341
 10
126.709922928392
 20
-149.2856336432341
 10
126.8415255759285
 20
-149.2856336432341
 10
127.0375515090392
 20
-149.283566585943
 10
127.165364551542
 20
-149.2752983567784
 10
127.1581298510229
 20
-149.3851969027579
 10
127.1543402459892
 20
-149.6346218158899
 10
127.1543402459892
 20
-149.7531331005825
 10
127.1543402459892
 20
-149.7531331005825
 10
127.1543402459892
 20
-150.1720567115889
 10
127.1543402459892
 20
-150.1720567115889
 10
127.1543402459892
 20
-150.2144313860575
 10
127.1598523987656
 20
-150.3963324276787
 10
127.1598523987656
 20
-150.4345729875649
 10
127.1619194560567
 20
-150.5847791507218
 10
127.1691541565757
 20
-150.635422054355
 10
127.1767333666433
 20
-150.683997900697
 10
127.1767333666433
 20
-150.683997900697
 10
126.9452229500345
 20
-150.683997900697
 10
126.9452229500345
 20
-150.683997900697
 97
        0
 97
        1
330
88
 75
     2
 76
     1
 98
        1
 10
0.0
 20
0.0
450
        0
451
        0
460
0.0
461
0.0
452
        0
462
0.0
453
        0
470

  0
SPLINE
  5
8A
330
81
100
AcDbEntity
  8
レイヤー 1
100
AcDbSpline
210
0.0
220
0.0
230
1.0
 70
     9
 71
     3
 72
    56
 73
    52
 74
     0
 42
0.0000000001
 43
0.0000000001
 40
0.0
 40
0.0
 40
0.0
 40
0.0
 40
1.0
 40
1.0
 40
1.0
 40
2.0
 40
2.0
 40
2.0
 40
3.0
 40
3.0
 40
3.0
 40
4.0
 40
4.0
 40
4.0
 40
5.0
 40
5.0
 40
5.0
 40
6.0
 40
6.0
 40
6.0
 40
7.0
 40
7.0
 40
7.0
 40
8.0
 40
8.0
 40
8.0
 40
9.0
 40
9.0
 40
9.0
 40
10.0
 40
10.0
 40
10.0
 40
11.0
 40
11.0
 40
11.0
 40
12.0
 40
12.0
 40
12.0
 40
13.0
 40
13.0
 40
13.0
 40
14.0
 40
14.0
 40
14.0
 40
15.0
 40
15.0
 40
15.0
 40
16.0
 40
16.0
 40
16.0
 40
17.0
 40
17.0
 40
17.0
 40
17.0
 10
128.7063557620942
 20
-150.7497992244653
 30
0.0
 10
128.5378905928655
 20
-150.4407741594384
 30
0.0
 10
128.3122368385816
 20
-150.2354464685175
 30
0.0
 10
128.2323106233238
 20
-150.1699896542977
 30
0.0
 10
127.9749619905757
 20
-150.5086425404978
 30
0.0
 10
127.7214029628613
 20
-150.6609157609459
 30
0.0
 10
127.5474256408562
 20
-150.7539333390476
 30
0.0
 10
127.5474256408562
 20
-150.7539333390476
 30
0.0
 10
127.4082437832521
 20
-150.5654866160045
 30
0.0
 10
127.4082437832521
 20
-150.5654866160045
 30
0.0
 10
127.4991943040627
 20
-150.5296576229578
 30
0.0
 10
127.6862629889118
 20
-150.4535210127338
 30
0.0
 10
127.88986813209
 20
-150.2674858565303
 30
0.0
 10
128.1213785486988
 20
-150.0556124841875
 30
0.0
 10
128.2843315651511
 20
-149.7679470111691
 30
0.0
 10
128.3918185442909
 20
-149.4551323411084
 30
0.0
 10
128.3918185442909
 20
-149.4551323411084
 30
0.0
 10
128.0621229063525
 20
-149.4551323411084
 30
0.0
 10
128.0621229063525
 20
-149.4551323411084
 30
0.0
 10
127.9287977110733
 20
-149.4551323411084
 30
0.0
 10
127.745518631258
 20
-149.4592664556907
 30
0.0
 10
127.6139159837215
 20
-149.4782144808596
 30
0.0
 10
127.6139159837215
 20
-149.4782144808596
 30
0.0
 10
127.6139159837215
 20
-149.2666856180653
 30
0.0
 10
127.6139159837215
 20
-149.2666856180653
 30
0.0
 10
127.6731716260678
 20
-149.2728867899387
 30
0.0
 10
127.9008924376428
 20
-149.283566585943
 30
0.0
 10
127.9770290478668
 20
-149.283566585943
 30
0.0
 10
127.9770290478668
 20
-149.283566585943
 30
0.0
 10
128.2491915912016
 20
-149.283566585943
 30
0.0
 10
128.2491915912016
 20
-149.283566585943
 30
0.0
 10
128.4307481232742
 20
-149.283566585943
 30
0.0
 10
128.4510741866372
 20
-149.2773654140695
 30
0.0
 10
128.4714002500002
 20
-149.2728867899387
 30
0.0
 10
128.5103298289835
 20
-149.2666856180653
 30
0.0
 10
128.5434027456419
 20
-149.2411919114744
 30
0.0
 10
128.5620062612622
 20
-149.2243109435967
 30
0.0
 10
128.5620062612622
 20
-149.2243109435967
 30
0.0
 10
128.6991210615752
 20
-149.3979437560533
 30
0.0
 10
128.6991210615752
 20
-149.3979437560533
 30
0.0
 10
128.6639810876256
 20
-149.4255045199353
 30
0.0
 10
128.6526122725243
 20
-149.435839806391
 30
0.0
 10
128.6102375980558
 20
-149.4720133089861
 30
0.0
 10
128.4972384661396
 20
-149.7193711648271
 30
0.0
 10
128.4269585182405
 20
-149.869577327984
 30
0.0
 10
128.3360079974299
 20
-150.0156493765586
 30
0.0
 10
128.6102375980558
 20
-150.2333794112264
 30
0.0
 10
128.8100531362003
 20
-150.5189778269536
 30
0.0
 10
128.8565619252511
 20
-150.5971814944687
 30
0.0
 10
128.8565619252511
 20
-150.5971814944687
 30
0.0
 10
128.7063557620942
 20
-150.7497992244653
 30
0.0
 10
128.7063557620942
 20
-150.7497992244653
 30
0.0
  0
HATCH
  5
8B
330
81
100
AcDbEntity
  8
レイヤー 1
 62
   250
420
  2299925
440
 33554687
100
AcDbHatch
 10
0.0
 20
0.0
 30
0.0
210
0.0
220
0.0
230
1.0
  2
SOLID
 70
     1
 71
     1
 91
        1
 92
        1
 93
        1
 72
     4
 94
        3
 73
     0
 74
     0
 95
       56
 96
       52
 40
0.0
 40
0.0
 40
0.0
 40
0.0
 40
1.0
 40
1.0
 40
1.0
 40
2.0
 40
2.0
 40
2.0
 40
3.0
 40
3.0
 40
3.0
 40
4.0
 40
4.0
 40
4.0
 40
5.0
 40
5.0
 40
5.0
 40
6.0
 40
6.0
 40
6.0
 40
7.0
 40
7.0
 40
7.0
 40
8.0
 40
8.0
 40
8.0
 40
9.0
 40
9.0
 40
9.0
 40
10.0
 40
10.0
 40
10.0
 40
11.0
 40
11.0
 40
11.0
 40
12.0
 40
12.0
 40
12.0
 40
13.0
 40
13.0
 40
13.0
 40
14.0
 40
14.0
 40
14.0
 40
15.0
 40
15.0
 40
15.0
 40
16.0
 40
16.0
 40
16.0
 40
17.0
 40
17.0
 40
17.0
 40
17.0
 10
128.7063557620942
 20
-150.7497992244653
 10
128.5378905928655
 20
-150.4407741594384
 10
128.3122368385816
 20
-150.2354464685175
 10
128.2323106233238
 20
-150.1699896542977
 10
127.9749619905757
 20
-150.5086425404978
 10
127.7214029628613
 20
-150.6609157609459
 10
127.5474256408562
 20
-150.7539333390476
 10
127.5474256408562
 20
-150.7539333390476
 10
127.4082437832521
 20
-150.5654866160045
 10
127.4082437832521
 20
-150.5654866160045
 10
127.4991943040627
 20
-150.5296576229578
 10
127.6862629889118
 20
-150.4535210127338
 10
127.88986813209
 20
-150.2674858565303
 10
128.1213785486988
 20
-150.0556124841875
 10
128.2843315651511
 20
-149.7679470111691
 10
128.3918185442909
 20
-149.4551323411084
 10
128.3918185442909
 20
-149.4551323411084
 10
128.0621229063525
 20
-149.4551323411084
 10
128.0621229063525
 20
-149.4551323411084
 10
127.9287977110733
 20
-149.4551323411084
 10
127.745518631258
 20
-149.4592664556907
 10
127.6139159837215
 20
-149.4782144808596
 10
127.6139159837215
 20
-149.4782144808596
 10
127.6139159837215
 20
-149.2666856180653
 10
127.6139159837215
 20
-149.2666856180653
 10
127.6731716260678
 20
-149.2728867899387
 10
127.9008924376428
 20
-149.283566585943
 10
127.9770290478668
 20
-149.283566585943
 10
127.9770290478668
 20
-149.283566585943
 10
128.2491915912016
 20
-149.283566585943
 10
128.2491915912016
 20
-149.283566585943
 10
128.4307481232742
 20
-149.283566585943
 10
128.4510741866372
 20
-149.2773654140695
 10
128.4714002500002
 20
-149.2728867899387
 10
128.5103298289835
 20
-149.2666856180653
 10
128.5434027456419
 20
-149.2411919114744
 10
128.5620062612622
 20
-149.2243109435967
 10
128.5620062612622
 20
-149.2243109435967
 10
128.6991210615752
 20
-149.3979437560533
 10
128.6991210615752
 20
-149.3979437560533
 10
128.6639810876256
 20
-149.4255045199353
 10
128.6526122725243
 20
-149.435839806391
 10
128.6102375980558
 20
-149.4720133089861
 10
128.4972384661396
 20
-149.7193711648271
 10
128.4269585182405
 20
-149.869577327984
 10
128.3360079974299
 20
-150.0156493765586
 10
128.6102375980558
 20
-150.2333794112264
 10
128.8100531362003
 20
-150.5189778269536
 10
128.8565619252511
 20
-150.5971814944687
 10
128.8565619252511
 20
-150.5971814944687
 10
128.7063557620942
 20
-150.7497992244653
 10
128.7063557620942
 20
-150.7497992244653
 97
        0
 97
        1
330
8A
 75
     2
 76
     1
 98
        1
 10
0.0
 20
0.0
450
        0
451
        0
460
0.0
461
0.0
452
        0
462
0.0
453
        0
470

  0
SPLINE
  5
8C
330
81
100
AcDbEntity
  8
レイヤー 1
100
AcDbSpline
210
0.0
220
0.0
230
1.0
 70
    11
 71
     3
 72
    17
 73
    13
 74
     0
 42
0.0000000001
 43
0.0000000001
 40
0.0
 40
0.0
 40
0.0
 40
0.0
 40
1.0
 40
1.0
 40
1.0
 40
2.0
 40
2.0
 40
2.0
 40
3.0
 40
3.0
 40
3.0
 40
4.0
 40
4.0
 40
4.0
 40
4.0
 10
130.3548339517863
 20
-149.7724256352999
 30
0.0
 10
130.3548339517863
 20
-149.7724256352999
 30
0.0
 10
129.9531358182061
 20
-149.7724256352999
 30
0.0
 10
129.9531358182061
 20
-149.7724256352999
 30
0.0
 10
129.9531358182061
 20
-149.7724256352999
 30
0.0
 10
129.9531358182061
 20
-150.0811061907783
 30
0.0
 10
129.9531358182061
 20
-150.0811061907783
 30
0.0
 10
129.9531358182061
 20
-150.0811061907783
 30
0.0
 10
130.3548339517863
 20
-150.0811061907783
 30
0.0
 10
130.3548339517863
 20
-150.0811061907783
 30
0.0
 10
130.3548339517863
 20
-150.0811061907783
 30
0.0
 10
130.3548339517863
 20
-149.7724256352999
 30
0.0
 10
130.3548339517863
 20
-149.7724256352999
 30
0.0
  0
SPLINE
  5
8D
330
81
100
AcDbEntity
  8
レイヤー 1
100
AcDbSpline
210
0.0
220
0.0
230
1.0
 70
    11
 71
     3
 72
    17
 73
    13
 74
     0
 42
0.0000000001
 43
0.0000000001
 40
0.0
 40
0.0
 40
0.0
 40
0.0
 40
1.0
 40
1.0
 40
1.0
 40
2.0
 40
2.0
 40
2.0
 40
3.0
 40
3.0
 40
3.0
 40
4.0
 40
4.0
 40
4.0
 40
4.0
 10
130.3548339517863
 20
-149.3004475538207
 30
0.0
 10
130.3548339517863
 20
-149.3004475538207
 30
0.0
 10
129.9531358182061
 20
-149.3004475538207
 30
0.0
 10
129.9531358182061
 20
-149.3004475538207
 30
0.0
 10
129.9531358182061
 20
-149.3004475538207
 30
0.0
 10
129.9531358182061
 20
-149.6049939947168
 30
0.0
 10
129.9531358182061
 20
-149.6049939947168
 30
0.0
 10
129.9531358182061
 20
-149.6049939947168
 30
0.0
 10
130.3548339517863
 20
-149.6049939947168
 30
0.0
 10
130.3548339517863
 20
-149.6049939947168
 30
0.0
 10
130.3548339517863
 20
-149.6049939947168
 30
0.0
 10
130.3548339517863
 20
-149.3004475538207
 30
0.0
 10
130.3548339517863
 20
-149.3004475538207
 30
0.0
  0
SPLINE
  5
8E
330
81
100
AcDbEntity
  8
レイヤー 1
100
AcDbSpline
210
0.0
220
0.0
230
1.0
 70
    11
 71
     3
 72
    17
 73
    13
 74
     0
 42
0.0000000001
 43
0.0000000001
 40
0.0
 40
0.0
 40
0.0
 40
0.0
 40
1.0
 40
1.0
 40
1.0
 40
2.0
 40
2.0
 40
2.0
 40
3.0
 40
3.0
 40
3.0
 40
4.0
 40
4.0
 40
4.0
 40
4.0
 10
129.78639319672
 20
-149.7724256352999
 30
0.0
 10
129.78639319672
 20
-149.7724256352999
 30
0.0
 10
129.4029540692118
 20
-149.7724256352999
 30
0.0
 10
129.4029540692118
 20
-149.7724256352999
 30
0.0
 10
129.4029540692118
 20
-149.7724256352999
 30
0.0
 10
129.4029540692118
 20
-150.0811061907783
 30
0.0
 10
129.4029540692118
 20
-150.0811061907783
 30
0.0
 10
129.4029540692118
 20
-150.0811061907783
 30
0.0
 10
129.78639319672
 20
-150.0811061907783
 30
0.0
 10
129.78639319672
 20
-150.0811061907783
 30
0.0
 10
129.78639319672
 20
-150.0811061907783
 30
0.0
 10
129.78639319672
 20
-149.7724256352999
 30
0.0
 10
129.78639319672
 20
-149.7724256352999
 30
0.0
  0
SPLINE
  5
8F
330
81
100
AcDbEntity
  8
レイヤー 1
100
AcDbSpline
210
0.0
220
0.0
230
1.0
 70
    11
 71
     3
 72
    17
 73
    13
 74
     0
 42
0.0000000001
 43
0.0000000001
 40
0.0
 40
0.0
 40
0.0
 40
0.0
 40
1.0
 40
1.0
 40
1.0
 40
2.0
 40
2.0
 40
2.0
 40
3.0
 40
3.0
 40
3.0
 40
4.0
 40
4.0
 40
4.0
 40
4.0
 10
129.78639319672
 20
-149.3004475538207
 30
0.0
 10
129.78639319672
 20
-149.3004475538207
 30
0.0
 10
129.4029540692118
 20
-149.3004475538207
 30
0.0
 10
129.4029540692118
 20
-149.3004475538207
 30
0.0
 10
129.4029540692118
 20
-149.3004475538207
 30
0.0
 10
129.4029540692118
 20
-149.6049939947168
 30
0.0
 10
129.4029540692118
 20
-149.6049939947168
 30
0.0
 10
129.4029540692118
 20
-149.6049939947168
 30
0.0
 10
129.78639319672
 20
-149.6049939947168
 30
0.0
 10
129.78639319672
 20
-149.6049939947168
 30
0.0
 10
129.78639319672
 20
-149.6049939947168
 30
0.0
 10
129.78639319672
 20
-149.3004475538207
 30
0.0
 10
129.78639319672
 20
-149.3004475538207
 30
0.0
  0
SPLINE
  5
90
330
81
100
AcDbEntity
  8
レイヤー 1
100
AcDbSpline
210
0.0
220
0.0
230
1.0
 70
     9
 71
     3
 72
    77
 73
    73
 74
     0
 42
0.0000000001
 43
0.0000000001
 40
0.0
 40
0.0
 40
0.0
 40
0.0
 40
1.0
 40
1.0
 40
1.0
 40
2.0
 40
2.0
 40
2.0
 40
3.0
 40
3.0
 40
3.0
 40
4.0
 40
4.0
 40
4.0
 40
5.0
 40
5.0
 40
5.0
 40
6.0
 40
6.0
 40
6.0
 40
7.0
 40
7.0
 40
7.0
 40
8.0
 40
8.0
 40
8.0
 40
9.0
 40
9.0
 40
9.0
 40
10.0
 40
10.0
 40
10.0
 40
11.0
 40
11.0
 40
11.0
 40
12.0
 40
12.0
 40
12.0
 40
13.0
 40
13.0
 40
13.0
 40
14.0
 40
14.0
 40
14.0
 40
15.0
 40
15.0
 40
15.0
 40
16.0
 40
16.0
 40
16.0
 40
17.0
 40
17.0
 40
17.0
 40
18.0
 40
18.0
 40
18.0
 40
19.0
 40
19.0
 40
19.0
 40
20.0
 40
20.0
 40
20.0
 40
21.0
 40
21.0
 40
21.0
 40
22.0
 40
22.0
 40
22.0
 40
23.0
 40
23.0
 40
23.0
 40
24.0
 40
24.0
 40
24.0
 40
24.0
 10
130.4733452364789
 20
-150.8872585343268
 30
0.0
 10
130.4326931097529
 20
-150.9124077313691
 30
0.0
 10
130.3234835828705
 20
-150.9251545846645
 30
0.0
 10
130.254926182714
 20
-150.9251545846645
 30
0.0
 10
130.2435573676127
 20
-150.9251545846645
 30
0.0
 10
130.2215087565071
 20
-150.9251545846645
 30
0.0
 10
130.191880935334
 20
-150.9210204700822
 30
0.0
 10
130.191880935334
 20
-150.9210204700822
 30
0.0
 10
130.1067870768483
 20
-150.6946776967013
 30
0.0
 10
130.1067870768483
 20
-150.6946776967013
 30
0.0
 10
130.1326252929877
 20
-150.7008788685748
 30
0.0
 10
130.1825791775238
 20
-150.7094916072879
 30
0.0
 10
130.2845540038872
 20
-150.7094916072879
 30
0.0
 10
130.3531114040436
 20
-150.7094916072879
 30
0.0
 10
130.3548339517863
 20
-150.6671169328193
 30
0.0
 10
130.3548339517863
 20
-150.6099283477642
 30
0.0
 10
130.3548339517863
 20
-150.6099283477642
 30
0.0
 10
130.3548339517863
 20
-150.2609401751084
 30
0.0
 10
130.3548339517863
 20
-150.2609401751084
 30
0.0
 10
130.3548339517863
 20
-150.2609401751084
 30
0.0
 10
129.9531358182061
 20
-150.2609401751084
 30
0.0
 10
129.9531358182061
 20
-150.2609401751084
 30
0.0
 10
129.9548583659487
 20
-150.3983994849698
 30
0.0
 10
129.9565809136914
 20
-150.5971814944687
 30
0.0
 10
129.9624375760163
 20
-150.7305066897479
 30
0.0
 10
129.9641601237589
 20
-150.7580674536299
 30
0.0
 10
129.9641601237589
 20
-150.8025091853896
 30
0.0
 10
129.9751844293117
 20
-150.8638318850271
 30
0.0
 10
129.9751844293117
 20
-150.8638318850271
 30
0.0
 10
129.7640000760659
 20
-150.8638318850271
 30
0.0
 10
129.7640000760659
 20
-150.8638318850271
 30
0.0
 10
129.78639319672
 20
-150.739119428461
 30
0.0
 10
129.78639319672
 20
-150.3983994849698
 30
0.0
 10
129.78639319672
 20
-150.2609401751084
 30
0.0
 10
129.78639319672
 20
-150.2609401751084
 30
0.0
 10
129.3995089737265
 20
-150.2609401751084
 30
0.0
 10
129.3995089737265
 20
-150.2609401751084
 30
0.0
 10
129.378838400815
 20
-150.4683349233204
 30
0.0
 10
129.3216498157599
 20
-150.7370523711699
 30
0.0
 10
129.1493950414974
 20
-150.9210204700822
 30
0.0
 10
129.1493950414974
 20
-150.9210204700822
 30
0.0
 10
128.9847194773024
 20
-150.7983750708073
 30
0.0
 10
128.9847194773024
 20
-150.7983750708073
 30
0.0
 10
129.2065836265525
 20
-150.5782334692999
 30
0.0
 10
129.234488899983
 20
-150.2461262645218
 30
0.0
 10
129.234488899983
 20
-149.9140190597437
 30
0.0
 10
129.234488899983
 20
-149.9140190597437
 30
0.0
 10
129.234488899983
 20
-149.4782144808596
 30
0.0
 10
129.234488899983
 20
-149.4782144808596
 30
0.0
 10
129.234488899983
 20
-149.442385487813
 30
0.0
 10
129.2327663522404
 20
-149.2094970330101
 30
0.0
 10
129.2251871421729
 20
-149.1078667161952
 30
0.0
 10
129.3474880318992
 20
-149.1185465121995
 30
0.0
 10
129.558672385145
 20
-149.1185465121995
 30
0.0
 10
129.6844183703566
 20
-149.1185465121995
 30
0.0
 10
129.6844183703566
 20
-149.1185465121995
 30
0.0
 10
130.0864610134853
 20
-149.1185465121995
 30
0.0
 10
130.0864610134853
 20
-149.1185465121995
 30
0.0
 10
130.0992078667807
 20
-149.1185465121995
 30
0.0
 10
130.4047878363224
 20
-149.1185465121995
 30
0.0
 10
130.543625184378
 20
-149.1078667161952
 30
0.0
 10
130.5419026366353
 20
-149.1609211866681
 30
0.0
 10
130.5363904838589
 20
-149.3218071458293
 30
0.0
 10
130.5363904838589
 20
-149.3724500494624
 30
0.0
 10
130.5363904838589
 20
-149.3724500494624
 30
0.0
 10
130.5363904838589
 20
-149.9794758739635
 30
0.0
 10
130.5363904838589
 20
-149.9794758739635
 30
0.0
 10
130.5363904838589
 20
-149.9987684086808
 30
0.0
 10
130.5456922416691
 20
-150.5699652401353
 30
0.0
 10
130.5456922416691
 20
-150.6819308434059
 30
0.0
 10
130.5456922416691
 20
-150.739119428461
 30
0.0
 10
130.5456922416691
 20
-150.8407497452759
 30
0.0
 10
130.4733452364789
 20
-150.8872585343268
 30
0.0
  0
HATCH
  5
91
330
81
100
AcDbEntity
  8
レイヤー 1
 62
   250
420
  2299925
440
 33554687
100
AcDbHatch
 10
0.0
 20
0.0
 30
0.0
210
0.0
220
0.0
230
1.0
  2
SOLID
 70
     1
 71
     1
 91
        5
 92
        1
 93
        1
 72
     4
 94
        3
 73
     0
 74
     0
 95
       17
 96
       13
 40
0.0
 40
0.0
 40
0.0
 40
0.0
 40
1.0
 40
1.0
 40
1.0
 40
2.0
 40
2.0
 40
2.0
 40
3.0
 40
3.0
 40
3.0
 40
4.0
 40
4.0
 40
4.0
 40
4.0
 10
130.3548339517863
 20
-149.7724256352999
 10
130.3548339517863
 20
-149.7724256352999
 10
129.9531358182061
 20
-149.7724256352999
 10
129.9531358182061
 20
-149.7724256352999
 10
129.9531358182061
 20
-149.7724256352999
 10
129.9531358182061
 20
-150.0811061907783
 10
129.9531358182061
 20
-150.0811061907783
 10
129.9531358182061
 20
-150.0811061907783
 10
130.3548339517863
 20
-150.0811061907783
 10
130.3548339517863
 20
-150.0811061907783
 10
130.3548339517863
 20
-150.0811061907783
 10
130.3548339517863
 20
-149.7724256352999
 10
130.3548339517863
 20
-149.7724256352999
 97
        0
 97
        1
330
8C
 92
        1
 93
        1
 72
     4
 94
        3
 73
     0
 74
     0
 95
       17
 96
       13
 40
0.0
 40
0.0
 40
0.0
 40
0.0
 40
1.0
 40
1.0
 40
1.0
 40
2.0
 40
2.0
 40
2.0
 40
3.0
 40
3.0
 40
3.0
 40
4.0
 40
4.0
 40
4.0
 40
4.0
 10
130.3548339517863
 20
-149.3004475538207
 10
130.3548339517863
 20
-149.3004475538207
 10
129.9531358182061
 20
-149.3004475538207
 10
129.9531358182061
 20
-149.3004475538207
 10
129.9531358182061
 20
-149.3004475538207
 10
129.9531358182061
 20
-149.6049939947168
 10
129.9531358182061
 20
-149.6049939947168
 10
129.9531358182061
 20
-149.6049939947168
 10
130.3548339517863
 20
-149.6049939947168
 10
130.3548339517863
 20
-149.6049939947168
 10
130.3548339517863
 20
-149.6049939947168
 10
130.3548339517863
 20
-149.3004475538207
 10
130.3548339517863
 20
-149.3004475538207
 97
        0
 97
        1
330
8D
 92
        1
 93
        1
 72
     4
 94
        3
 73
     0
 74
     0
 95
       17
 96
       13
 40
0.0
 40
0.0
 40
0.0
 40
0.0
 40
1.0
 40
1.0
 40
1.0
 40
2.0
 40
2.0
 40
2.0
 40
3.0
 40
3.0
 40
3.0
 40
4.0
 40
4.0
 40
4.0
 40
4.0
 10
129.78639319672
 20
-149.7724256352999
 10
129.78639319672
 20
-149.7724256352999
 10
129.4029540692118
 20
-149.7724256352999
 10
129.4029540692118
 20
-149.7724256352999
 10
129.4029540692118
 20
-149.7724256352999
 10
129.4029540692118
 20
-150.0811061907783
 10
129.4029540692118
 20
-150.0811061907783
 10
129.4029540692118
 20
-150.0811061907783
 10
129.78639319672
 20
-150.0811061907783
 10
129.78639319672
 20
-150.0811061907783
 10
129.78639319672
 20
-150.0811061907783
 10
129.78639319672
 20
-149.7724256352999
 10
129.78639319672
 20
-149.7724256352999
 97
        0
 97
        1
330
8E
 92
        1
 93
        1
 72
     4
 94
        3
 73
     0
 74
     0
 95
       17
 96
       13
 40
0.0
 40
0.0
 40
0.0
 40
0.0
 40
1.0
 40
1.0
 40
1.0
 40
2.0
 40
2.0
 40
2.0
 40
3.0
 40
3.0
 40
3.0
 40
4.0
 40
4.0
 40
4.0
 40
4.0
 10
129.78639319672
 20
-149.3004475538207
 10
129.78639319672
 20
-149.3004475538207
 10
129.4029540692118
 20
-149.3004475538207
 10
129.4029540692118
 20
-149.3004475538207
 10
129.4029540692118
 20
-149.3004475538207
 10
129.4029540692118
 20
-149.6049939947168
 10
129.4029540692118
 20
-149.6049939947168
 10
129.4029540692118
 20
-149.6049939947168
 10
129.78639319672
 20
-149.6049939947168
 10
129.78639319672
 20
-149.6049939947168
 10
129.78639319672
 20
-149.6049939947168
 10
129.78639319672
 20
-149.3004475538207
 10
129.78639319672
 20
-149.3004475538207
 97
        0
 97
        1
330
8F
 92
        1
 93
        1
 72
     4
 94
        3
 73
     0
 74
     0
 95
       77
 96
       73
 40
0.0
 40
0.0
 40
0.0
 40
0.0
 40
1.0
 40
1.0
 40
1.0
 40
2.0
 40
2.0
 40
2.0
 40
3.0
 40
3.0
 40
3.0
 40
4.0
 40
4.0
 40
4.0
 40
5.0
 40
5.0
 40
5.0
 40
6.0
 40
6.0
 40
6.0
 40
7.0
 40
7.0
 40
7.0
 40
8.0
 40
8.0
 40
8.0
 40
9.0
 40
9.0
 40
9.0
 40
10.0
 40
10.0
 40
10.0
 40
11.0
 40
11.0
 40
11.0
 40
12.0
 40
12.0
 40
12.0
 40
13.0
 40
13.0
 40
13.0
 40
14.0
 40
14.0
 40
14.0
 40
15.0
 40
15.0
 40
15.0
 40
16.0
 40
16.0
 40
16.0
 40
17.0
 40
17.0
 40
17.0
 40
18.0
 40
18.0
 40
18.0
 40
19.0
 40
19.0
 40
19.0
 40
20.0
 40
20.0
 40
20.0
 40
21.0
 40
21.0
 40
21.0
 40
22.0
 40
22.0
 40
22.0
 40
23.0
 40
23.0
 40
23.0
 40
24.0
 40
24.0
 40
24.0
 40
24.0
 10
130.4733452364789
 20
-150.8872585343268
 10
130.4326931097529
 20
-150.9124077313691
 10
130.3234835828705
 20
-150.9251545846645
 10
130.254926182714
 20
-150.9251545846645
 10
130.2435573676127
 20
-150.9251545846645
 10
130.2215087565071
 20
-150.9251545846645
 10
130.191880935334
 20
-150.9210204700822
 10
130.191880935334
 20
-150.9210204700822
 10
130.1067870768483
 20
-150.6946776967013
 10
130.1067870768483
 20
-150.6946776967013
 10
130.1326252929877
 20
-150.7008788685748
 10
130.1825791775238
 20
-150.7094916072879
 10
130.2845540038872
 20
-150.7094916072879
 10
130.3531114040436
 20
-150.7094916072879
 10
130.3548339517863
 20
-150.6671169328193
 10
130.3548339517863
 20
-150.6099283477642
 10
130.3548339517863
 20
-150.6099283477642
 10
130.3548339517863
 20
-150.2609401751084
 10
130.3548339517863
 20
-150.2609401751084
 10
130.3548339517863
 20
-150.2609401751084
 10
129.9531358182061
 20
-150.2609401751084
 10
129.9531358182061
 20
-150.2609401751084
 10
129.9548583659487
 20
-150.3983994849698
 10
129.9565809136914
 20
-150.5971814944687
 10
129.9624375760163
 20
-150.7305066897479
 10
129.9641601237589
 20
-150.7580674536299
 10
129.9641601237589
 20
-150.8025091853896
 10
129.9751844293117
 20
-150.8638318850271
 10
129.9751844293117
 20
-150.8638318850271
 10
129.7640000760659
 20
-150.8638318850271
 10
129.7640000760659
 20
-150.8638318850271
 10
129.78639319672
 20
-150.739119428461
 10
129.78639319672
 20
-150.3983994849698
 10
129.78639319672
 20
-150.2609401751084
 10
129.78639319672
 20
-150.2609401751084
 10
129.3995089737265
 20
-150.2609401751084
 10
129.3995089737265
 20
-150.2609401751084
 10
129.378838400815
 20
-150.4683349233204
 10
129.3216498157599
 20
-150.7370523711699
 10
129.1493950414974
 20
-150.9210204700822
 10
129.1493950414974
 20
-150.9210204700822
 10
128.9847194773024
 20
-150.7983750708073
 10
128.9847194773024
 20
-150.7983750708073
 10
129.2065836265525
 20
-150.5782334692999
 10
129.234488899983
 20
-150.2461262645218
 10
129.234488899983
 20
-149.9140190597437
 10
129.234488899983
 20
-149.9140190597437
 10
129.234488899983
 20
-149.4782144808596
 10
129.234488899983
 20
-149.4782144808596
 10
129.234488899983
 20
-149.442385487813
 10
129.2327663522404
 20
-149.2094970330101
 10
129.2251871421729
 20
-149.1078667161952
 10
129.3474880318992
 20
-149.1185465121995
 10
129.558672385145
 20
-149.1185465121995
 10
129.6844183703566
 20
-149.1185465121995
 10
129.6844183703566
 20
-149.1185465121995
 10
130.0864610134853
 20
-149.1185465121995
 10
130.0864610134853
 20
-149.1185465121995
 10
130.0992078667807
 20
-149.1185465121995
 10
130.4047878363224
 20
-149.1185465121995
 10
130.543625184378
 20
-149.1078667161952
 10
130.5419026366353
 20
-149.1609211866681
 10
130.5363904838589
 20
-149.3218071458293
 10
130.5363904838589
 20
-149.3724500494624
 10
130.5363904838589
 20
-149.3724500494624
 10
130.5363904838589
 20
-149.9794758739635
 10
130.5363904838589
 20
-149.9794758739635
 10
130.5363904838589
 20
-149.9987684086808
 10
130.5456922416691
 20
-150.5699652401353
 10
130.5456922416691
 20
-150.6819308434059
 10
130.5456922416691
 20
-150.739119428461
 10
130.5456922416691
 20
-150.8407497452759
 10
130.4733452364789
 20
-150.8872585343268
 97
        0
 97
        1
330
90
 75
     2
 76
     1
 98
        1
 10
0.0
 20
0.0
450
        0
451
        0
460
0.0
461
0.0
452
        0
462
0.0
453
        0
470

  0
SPLINE
  5
92
330
81
100
AcDbEntity
  8
レイヤー 1
100
AcDbSpline
210
0.0
220
0.0
230
1.0
 70
     9
 71
     3
 72
    17
 73
    13
 74
     0
 42
0.0000000001
 43
0.0000000001
 40
0.0
 40
0.0
 40
0.0
 40
0.0
 40
1.0
 40
1.0
 40
1.0
 40
2.0
 40
2.0
 40
2.0
 40
3.0
 40
3.0
 40
3.0
 40
4.0
 40
4.0
 40
4.0
 40
4.0
 10
125.6953423079859
 20
-151.6479356174699
 30
0.0
 10
125.6471109711924
 20
-151.6479356174699
 30
0.0
 10
125.6081813922091
 20
-151.6923773492297
 30
0.0
 10
125.6081813922091
 20
-151.7474988769937
 30
0.0
 10
125.6081813922091
 20
-151.8046874620488
 30
0.0
 10
125.6471109711924
 20
-151.8532633083908
 30
0.0
 10
125.6991319130196
 20
-151.8532633083908
 30
0.0
 10
125.7508083452984
 20
-151.8532633083908
 30
0.0
 10
125.7859483192479
 20
-151.8026204047576
 30
0.0
 10
125.7859483192479
 20
-151.7495659342848
 30
0.0
 10
125.7859483192479
 20
-151.6923773492297
 30
0.0
 10
125.745296192522
 20
-151.6479356174699
 30
0.0
 10
125.6953423079859
 20
-151.6479356174699
 30
0.0
  0
SPLINE
  5
93
330
81
100
AcDbEntity
  8
レイヤー 1
100
AcDbSpline
210
0.0
220
0.0
230
1.0
 70
     9
 71
     3
 72
    17
 73
    13
 74
     0
 42
0.0000000001
 43
0.0000000001
 40
0.0
 40
0.0
 40
0.0
 40
0.0
 40
1.0
 40
1.0
 40
1.0
 40
2.0
 40
2.0
 40
2.0
 40
3.0
 40
3.0
 40
3.0
 40
4.0
 40
4.0
 40
4.0
 40
4.0
 10
125.6970648557285
 20
-151.9779757649569
 30
0.0
 10
125.5861327811034
 20
-151.9779757649569
 30
0.0
 10
125.497249317584
 20
-151.8766899576905
 30
0.0
 10
125.497249317584
 20
-151.7495659342848
 30
0.0
 10
125.497249317584
 20
-151.6227864204276
 30
0.0
 10
125.5861327811034
 20
-151.5190890463216
 30
0.0
 10
125.6970648557285
 20
-151.5190890463216
 30
0.0
 10
125.8083414399021
 20
-151.5190890463216
 30
0.0
 10
125.8989474511641
 20
-151.6227864204276
 30
0.0
 10
125.8989474511641
 20
-151.7495659342848
 30
0.0
 10
125.8989474511641
 20
-151.8766899576905
 30
0.0
 10
125.8083414399021
 20
-151.9779757649569
 30
0.0
 10
125.6970648557285
 20
-151.9779757649569
 30
0.0
  0
SPLINE
  5
94
330
81
100
AcDbEntity
  8
レイヤー 1
100
AcDbSpline
210
0.0
220
0.0
230
1.0
 70
     9
 71
     3
 72
    44
 73
    40
 74
     0
 42
0.0000000001
 43
0.0000000001
 40
0.0
 40
0.0
 40
0.0
 40
0.0
 40
1.0
 40
1.0
 40
1.0
 40
2.0
 40
2.0
 40
2.0
 40
3.0
 40
3.0
 40
3.0
 40
4.0
 40
4.0
 40
4.0
 40
5.0
 40
5.0
 40
5.0
 40
6.0
 40
6.0
 40
6.0
 40
7.0
 40
7.0
 40
7.0
 40
8.0
 40
8.0
 40
8.0
 40
9.0
 40
9.0
 40
9.0
 40
10.0
 40
10.0
 40
10.0
 40
11.0
 40
11.0
 40
11.0
 40
12.0
 40
12.0
 40
12.0
 40
13.0
 40
13.0
 40
13.0
 40
13.0
 10
125.5137857759132
 20
-152.1771022840043
 30
0.0
 10
125.4156005545836
 20
-152.545038481829
 30
0.0
 10
125.3711588228239
 20
-152.703857383699
 30
0.0
 10
125.1989040485614
 20
-152.9532822968311
 30
0.0
 10
125.0380180894002
 20
-153.1841036943428
 30
0.0
 10
124.8306233411882
 20
-153.3701388505464
 30
0.0
 10
124.5860215617354
 20
-153.4631564286481
 30
0.0
 10
124.5860215617354
 20
-153.4631564286481
 30
0.0
 10
124.4175563925067
 20
-153.283322444318
 30
0.0
 10
124.4175563925067
 20
-153.283322444318
 30
0.0
 10
124.9787624470539
 20
-153.13104922387
 30
0.0
 10
125.2674614487178
 20
-152.5746663030021
 30
0.0
 10
125.3232719955789
 20
-152.1347276095357
 30
0.0
 10
125.3232719955789
 20
-152.1347276095357
 30
0.0
 10
124.6528564141493
 20
-152.1347276095357
 30
0.0
 10
124.6528564141493
 20
-152.1347276095357
 30
0.0
 10
124.5712076511488
 20
-152.1347276095357
 30
0.0
 10
124.4103216919877
 20
-152.138861724118
 30
0.0
 10
124.2732068916747
 20
-152.1578097492869
 30
0.0
 10
124.2732068916747
 20
-152.1578097492869
 30
0.0
 10
124.2732068916747
 20
-151.938012657328
 30
0.0
 10
124.2732068916747
 20
-151.938012657328
 30
0.0
 10
124.3489989923502
 20
-151.959027739788
 30
0.0
 10
124.5694851034062
 20
-151.959027739788
 30
0.0
 10
124.6563015096345
 20
-151.959027739788
 30
0.0
 10
124.6563015096345
 20
-151.959027739788
 30
0.0
 10
125.0342284843664
 20
-151.959027739788
 30
0.0
 10
125.0342284843664
 20
-151.959027739788
 30
0.0
 10
125.0710910060586
 20
-151.959027739788
 30
0.0
 10
125.276763206528
 20
-151.9569606824969
 30
0.0
 10
125.3101806327349
 20
-151.9507595106234
 30
0.0
 10
125.3470431544271
 20
-151.9442138292014
 30
0.0
 10
125.3491102117183
 20
-151.9421467719103
 30
0.0
 10
125.4028537012882
 20
-151.9018391547328
 30
0.0
 10
125.4028537012882
 20
-151.9018391547328
 30
0.0
 10
125.5675292654831
 20
-152.0565239420206
 30
0.0
 10
125.5675292654831
 20
-152.0565239420206
 30
0.0
 10
125.5416910493437
 20
-152.0861517631937
 30
0.0
 10
125.5285996864998
 20
-152.117846641658
 30
0.0
 10
125.5137857759132
 20
-152.1771022840043
 30
0.0
  0
HATCH
  5
95
330
81
100
AcDbEntity
  8
レイヤー 1
 62
   250
420
  2299925
440
 33554687
100
AcDbHatch
 10
0.0
 20
0.0
 30
0.0
210
0.0
220
0.0
230
1.0
  2
SOLID
 70
     1
 71
     1
 91
        3
 92
        1
 93
        1
 72
     4
 94
        3
 73
     0
 74
     0
 95
       17
 96
       13
 40
0.0
 40
0.0
 40
0.0
 40
0.0
 40
1.0
 40
1.0
 40
1.0
 40
2.0
 40
2.0
 40
2.0
 40
3.0
 40
3.0
 40
3.0
 40
4.0
 40
4.0
 40
4.0
 40
4.0
 10
125.6953423079859
 20
-151.6479356174699
 10
125.6471109711924
 20
-151.6479356174699
 10
125.6081813922091
 20
-151.6923773492297
 10
125.6081813922091
 20
-151.7474988769937
 10
125.6081813922091
 20
-151.8046874620488
 10
125.6471109711924
 20
-151.8532633083908
 10
125.6991319130196
 20
-151.8532633083908
 10
125.7508083452984
 20
-151.8532633083908
 10
125.7859483192479
 20
-151.8026204047576
 10
125.7859483192479
 20
-151.7495659342848
 10
125.7859483192479
 20
-151.6923773492297
 10
125.745296192522
 20
-151.6479356174699
 10
125.6953423079859
 20
-151.6479356174699
 97
        0
 97
        1
330
92
 92
        1
 93
        1
 72
     4
 94
        3
 73
     0
 74
     0
 95
       17
 96
       13
 40
0.0
 40
0.0
 40
0.0
 40
0.0
 40
1.0
 40
1.0
 40
1.0
 40
2.0
 40
2.0
 40
2.0
 40
3.0
 40
3.0
 40
3.0
 40
4.0
 40
4.0
 40
4.0
 40
4.0
 10
125.6970648557285
 20
-151.9779757649569
 10
125.5861327811034
 20
-151.9779757649569
 10
125.497249317584
 20
-151.8766899576905
 10
125.497249317584
 20
-151.7495659342848
 10
125.497249317584
 20
-151.6227864204276
 10
125.5861327811034
 20
-151.5190890463216
 10
125.6970648557285
 20
-151.5190890463216
 10
125.8083414399021
 20
-151.5190890463216
 10
125.8989474511641
 20
-151.6227864204276
 10
125.8989474511641
 20
-151.7495659342848
 10
125.8989474511641
 20
-151.8766899576905
 10
125.8083414399021
 20
-151.9779757649569
 10
125.6970648557285
 20
-151.9779757649569
 97
        0
 97
        1
330
93
 92
        1
 93
        1
 72
     4
 94
        3
 73
     0
 74
     0
 95
       44
 96
       40
 40
0.0
 40
0.0
 40
0.0
 40
0.0
 40
1.0
 40
1.0
 40
1.0
 40
2.0
 40
2.0
 40
2.0
 40
3.0
 40
3.0
 40
3.0
 40
4.0
 40
4.0
 40
4.0
 40
5.0
 40
5.0
 40
5.0
 40
6.0
 40
6.0
 40
6.0
 40
7.0
 40
7.0
 40
7.0
 40
8.0
 40
8.0
 40
8.0
 40
9.0
 40
9.0
 40
9.0
 40
10.0
 40
10.0
 40
10.0
 40
11.0
 40
11.0
 40
11.0
 40
12.0
 40
12.0
 40
12.0
 40
13.0
 40
13.0
 40
13.0
 40
13.0
 10
125.5137857759132
 20
-152.1771022840043
 10
125.4156005545836
 20
-152.545038481829
 10
125.3711588228239
 20
-152.703857383699
 10
125.1989040485614
 20
-152.9532822968311
 10
125.0380180894002
 20
-153.1841036943428
 10
124.8306233411882
 20
-153.3701388505464
 10
124.5860215617354
 20
-153.4631564286481
 10
124.5860215617354
 20
-153.4631564286481
 10
124.4175563925067
 20
-153.283322444318
 10
124.4175563925067
 20
-153.283322444318
 10
124.9787624470539
 20
-153.13104922387
 10
125.2674614487178
 20
-152.5746663030021
 10
125.3232719955789
 20
-152.1347276095357
 10
125.3232719955789
 20
-152.1347276095357
 10
124.6528564141493
 20
-152.1347276095357
 10
124.6528564141493
 20
-152.1347276095357
 10
124.5712076511488
 20
-152.1347276095357
 10
124.4103216919877
 20
-152.138861724118
 10
124.2732068916747
 20
-152.1578097492869
 10
124.2732068916747
 20
-152.1578097492869
 10
124.2732068916747
 20
-151.938012657328
 10
124.2732068916747
 20
-151.938012657328
 10
124.3489989923502
 20
-151.959027739788
 10
124.5694851034062
 20
-151.959027739788
 10
124.6563015096345
 20
-151.959027739788
 10
124.6563015096345
 20
-151.959027739788
 10
125.0342284843664
 20
-151.959027739788
 10
125.0342284843664
 20
-151.959027739788
 10
125.0710910060586
 20
-151.959027739788
 10
125.276763206528
 20
-151.9569606824969
 10
125.3101806327349
 20
-151.9507595106234
 10
125.3470431544271
 20
-151.9442138292014
 10
125.3491102117183
 20
-151.9421467719103
 10
125.4028537012882
 20
-151.9018391547328
 10
125.4028537012882
 20
-151.9018391547328
 10
125.5675292654831
 20
-152.0565239420206
 10
125.5675292654831
 20
-152.0565239420206
 10
125.5416910493437
 20
-152.0861517631937
 10
125.5285996864998
 20
-152.117846641658
 10
125.5137857759132
 20
-152.1771022840043
 97
        0
 97
        1
330
94
 75
     2
 76
     1
 98
        1
 10
0.0
 20
0.0
450
        0
451
        0
460
0.0
461
0.0
452
        0
462
0.0
453
        0
470

  0
SPLINE
  5
96
330
81
100
AcDbEntity
  8
レイヤー 1
100
AcDbSpline
210
0.0
220
0.0
230
1.0
 70
     9
 71
     3
 72
    29
 73
    25
 74
     0
 42
0.0000000001
 43
0.0000000001
 40
0.0
 40
0.0
 40
0.0
 40
0.0
 40
1.0
 40
1.0
 40
1.0
 40
2.0
 40
2.0
 40
2.0
 40
3.0
 40
3.0
 40
3.0
 40
4.0
 40
4.0
 40
4.0
 40
5.0
 40
5.0
 40
5.0
 40
6.0
 40
6.0
 40
6.0
 40
7.0
 40
7.0
 40
7.0
 40
8.0
 40
8.0
 40
8.0
 40
8.0
 10
126.8380804804432
 20
-151.8598089898128
 30
0.0
 10
126.8380804804432
 20
-151.8598089898128
 30
0.0
 10
126.5400797209691
 20
-151.8598089898128
 30
0.0
 10
126.5400797209691
 20
-151.8598089898128
 30
0.0
 10
126.4401719518969
 20
-151.8598089898128
 30
0.0
 10
126.3381971255335
 20
-151.8639431043951
 30
0.0
 10
126.2382893564612
 20
-151.8787570149817
 30
0.0
 10
126.2382893564612
 20
-151.8787570149817
 30
0.0
 10
126.2382893564612
 20
-151.6692952094785
 30
0.0
 10
126.2382893564612
 20
-151.6692952094785
 30
0.0
 10
126.3419867305673
 20
-151.6841091200651
 30
0.0
 10
126.4939154414668
 20
-151.6882432346474
 30
0.0
 10
126.5400797209691
 20
-151.6882432346474
 30
0.0
 10
126.5400797209691
 20
-151.6882432346474
 30
0.0
 10
126.8380804804432
 20
-151.6882432346474
 30
0.0
 10
126.8380804804432
 20
-151.6882432346474
 30
0.0
 10
126.9400553068066
 20
-151.6882432346474
 30
0.0
 10
127.0416856236215
 20
-151.6841091200651
 30
0.0
 10
127.1436604499849
 20
-151.6692952094785
 30
0.0
 10
127.1436604499849
 20
-151.6692952094785
 30
0.0
 10
127.1436604499849
 20
-151.8787570149817
 30
0.0
 10
127.1436604499849
 20
-151.8787570149817
 30
0.0
 10
127.0120578024483
 20
-151.8598089898128
 30
0.0
 10
126.8511718432872
 20
-151.8598089898128
 30
0.0
 10
126.8380804804432
 20
-151.8598089898128
 30
0.0
  0
SPLINE
  5
97
330
81
100
AcDbEntity
  8
レイヤー 1
100
AcDbSpline
210
0.0
220
0.0
230
1.0
 70
     9
 71
     3
 72
    50
 73
    46
 74
     0
 42
0.0000000001
 43
0.0000000001
 40
0.0
 40
0.0
 40
0.0
 40
0.0
 40
1.0
 40
1.0
 40
1.0
 40
2.0
 40
2.0
 40
2.0
 40
3.0
 40
3.0
 40
3.0
 40
4.0
 40
4.0
 40
4.0
 40
5.0
 40
5.0
 40
5.0
 40
6.0
 40
6.0
 40
6.0
 40
7.0
 40
7.0
 40
7.0
 40
8.0
 40
8.0
 40
8.0
 40
9.0
 40
9.0
 40
9.0
 40
10.0
 40
10.0
 40
10.0
 40
11.0
 40
11.0
 40
11.0
 40
12.0
 40
12.0
 40
12.0
 40
13.0
 40
13.0
 40
13.0
 40
14.0
 40
14.0
 40
14.0
 40
15.0
 40
15.0
 40
15.0
 40
15.0
 10
127.269750944745
 20
-152.4857828394827
 30
0.0
 10
127.2011935445886
 20
-152.6635497665216
 30
0.0
 10
127.082682259896
 20
-152.8709445147336
 30
0.0
 10
126.9621039179122
 20
-153.0104708818863
 30
0.0
 10
126.8139648120465
 20
-153.1816921275032
 30
0.0
 10
126.6716823685057
 20
-153.2705755910226
 30
0.0
 10
126.3919406151034
 20
-153.4125135250149
 30
0.0
 10
126.3919406151034
 20
-153.4125135250149
 30
0.0
 10
126.2438015092376
 20
-153.2240668019717
 30
0.0
 10
126.2438015092376
 20
-153.2240668019717
 30
0.0
 10
126.40675452569
 20
-153.2009846622206
 30
0.0
 10
126.5566161792983
 20
-153.1141682559923
 30
0.0
 10
126.6899413745775
 20
-153.0084038245951
 30
0.0
 10
126.9197292434437
 20
-152.8265027829739
 30
0.0
 10
127.0864718649298
 20
-152.5133436033647
 30
0.0
 10
127.1288465393983
 20
-152.3314425617435
 30
0.0
 10
127.1288465393983
 20
-152.3314425617435
 30
0.0
 10
126.5418022687118
 20
-152.3314425617435
 30
0.0
 10
126.5418022687118
 20
-152.3314425617435
 30
0.0
 10
126.4029649206562
 20
-152.3314425617435
 30
0.0
 10
126.1473388356507
 20
-152.3397107909081
 30
0.0
 10
126.0140136403715
 20
-152.3569362683343
 30
0.0
 10
126.0140136403715
 20
-152.3569362683343
 30
0.0
 10
126.0140136403715
 20
-152.1281819281138
 30
0.0
 10
126.0140136403715
 20
-152.1281819281138
 30
0.0
 10
126.0436414615446
 20
-152.1347276095357
 30
0.0
 10
126.0660345821988
 20
-152.1409287814092
 30
0.0
 10
126.1121988617011
 20
-152.1450628959915
 30
0.0
 10
126.2010823252206
 20
-152.1516085774135
 30
0.0
 10
126.373337099483
 20
-152.1536756347046
 30
0.0
 10
126.4474066524159
 20
-152.1536756347046
 30
0.0
 10
126.4474066524159
 20
-152.1536756347046
 30
0.0
 10
126.8901014222705
 20
-152.1536756347046
 30
0.0
 10
126.8901014222705
 20
-152.1536756347046
 30
0.0
 10
126.9493570646168
 20
-152.1536756347046
 30
0.0
 10
127.0771701071196
 20
-152.1495415201223
 30
0.0
 10
127.1305690871409
 20
-152.1429958387003
 30
0.0
 10
127.193614334521
 20
-152.1347276095357
 30
0.0
 10
127.2177300029178
 20
-152.1199136989492
 30
0.0
 10
127.2473578240909
 20
-152.0964870496495
 30
0.0
 10
127.2473578240909
 20
-152.0964870496495
 30
0.0
 10
127.3917073249229
 20
-152.2635741806841
 30
0.0
 10
127.3917073249229
 20
-152.2635741806841
 30
0.0
 10
127.330729134834
 20
-152.3314425617435
 30
0.0
 10
127.290077008108
 20
-152.4351399358495
 30
0.0
 10
127.269750944745
 20
-152.4857828394827
 30
0.0
  0
HATCH
  5
98
330
81
100
AcDbEntity
  8
レイヤー 1
 62
   250
420
  2299925
440
 33554687
100
AcDbHatch
 10
0.0
 20
0.0
 30
0.0
210
0.0
220
0.0
230
1.0
  2
SOLID
 70
     1
 71
     1
 91
        2
 92
        1
 93
        1
 72
     4
 94
        3
 73
     0
 74
     0
 95
       29
 96
       25
 40
0.0
 40
0.0
 40
0.0
 40
0.0
 40
1.0
 40
1.0
 40
1.0
 40
2.0
 40
2.0
 40
2.0
 40
3.0
 40
3.0
 40
3.0
 40
4.0
 40
4.0
 40
4.0
 40
5.0
 40
5.0
 40
5.0
 40
6.0
 40
6.0
 40
6.0
 40
7.0
 40
7.0
 40
7.0
 40
8.0
 40
8.0
 40
8.0
 40
8.0
 10
126.8380804804432
 20
-151.8598089898128
 10
126.8380804804432
 20
-151.8598089898128
 10
126.5400797209691
 20
-151.8598089898128
 10
126.5400797209691
 20
-151.8598089898128
 10
126.4401719518969
 20
-151.8598089898128
 10
126.3381971255335
 20
-151.8639431043951
 10
126.2382893564612
 20
-151.8787570149817
 10
126.2382893564612
 20
-151.8787570149817
 10
126.2382893564612
 20
-151.6692952094785
 10
126.2382893564612
 20
-151.6692952094785
 10
126.3419867305673
 20
-151.6841091200651
 10
126.4939154414668
 20
-151.6882432346474
 10
126.5400797209691
 20
-151.6882432346474
 10
126.5400797209691
 20
-151.6882432346474
 10
126.8380804804432
 20
-151.6882432346474
 10
126.8380804804432
 20
-151.6882432346474
 10
126.9400553068066
 20
-151.6882432346474
 10
127.0416856236215
 20
-151.6841091200651
 10
127.1436604499849
 20
-151.6692952094785
 10
127.1436604499849
 20
-151.6692952094785
 10
127.1436604499849
 20
-151.8787570149817
 10
127.1436604499849
 20
-151.8787570149817
 10
127.0120578024483
 20
-151.8598089898128
 10
126.8511718432872
 20
-151.8598089898128
 10
126.8380804804432
 20
-151.8598089898128
 97
        0
 97
        1
330
96
 92
        1
 93
        1
 72
     4
 94
        3
 73
     0
 74
     0
 95
       50
 96
       46
 40
0.0
 40
0.0
 40
0.0
 40
0.0
 40
1.0
 40
1.0
 40
1.0
 40
2.0
 40
2.0
 40
2.0
 40
3.0
 40
3.0
 40
3.0
 40
4.0
 40
4.0
 40
4.0
 40
5.0
 40
5.0
 40
5.0
 40
6.0
 40
6.0
 40
6.0
 40
7.0
 40
7.0
 40
7.0
 40
8.0
 40
8.0
 40
8.0
 40
9.0
 40
9.0
 40
9.0
 40
10.0
 40
10.0
 40
10.0
 40
11.0
 40
11.0
 40
11.0
 40
12.0
 40
12.0
 40
12.0
 40
13.0
 40
13.0
 40
13.0
 40
14.0
 40
14.0
 40
14.0
 40
15.0
 40
15.0
 40
15.0
 40
15.0
 10
127.269750944745
 20
-152.4857828394827
 10
127.2011935445886
 20
-152.6635497665216
 10
127.082682259896
 20
-152.8709445147336
 10
126.9621039179122
 20
-153.0104708818863
 10
126.8139648120465
 20
-153.1816921275032
 10
126.6716823685057
 20
-153.2705755910226
 10
126.3919406151034
 20
-153.4125135250149
 10
126.3919406151034
 20
-153.4125135250149
 10
126.2438015092376
 20
-153.2240668019717
 10
126.2438015092376
 20
-153.2240668019717
 10
126.40675452569
 20
-153.2009846622206
 10
126.5566161792983
 20
-153.1141682559923
 10
126.6899413745775
 20
-153.0084038245951
 10
126.9197292434437
 20
-152.8265027829739
 10
127.0864718649298
 20
-152.5133436033647
 10
127.1288465393983
 20
-152.3314425617435
 10
127.1288465393983
 20
-152.3314425617435
 10
126.5418022687118
 20
-152.3314425617435
 10
126.5418022687118
 20
-152.3314425617435
 10
126.4029649206562
 20
-152.3314425617435
 10
126.1473388356507
 20
-152.3397107909081
 10
126.0140136403715
 20
-152.3569362683343
 10
126.0140136403715
 20
-152.3569362683343
 10
126.0140136403715
 20
-152.1281819281138
 10
126.0140136403715
 20
-152.1281819281138
 10
126.0436414615446
 20
-152.1347276095357
 10
126.0660345821988
 20
-152.1409287814092
 10
126.1121988617011
 20
-152.1450628959915
 10
126.2010823252206
 20
-152.1516085774135
 10
126.373337099483
 20
-152.1536756347046
 10
126.4474066524159
 20
-152.1536756347046
 10
126.4474066524159
 20
-152.1536756347046
 10
126.8901014222705
 20
-152.1536756347046
 10
126.8901014222705
 20
-152.1536756347046
 10
126.9493570646168
 20
-152.1536756347046
 10
127.0771701071196
 20
-152.1495415201223
 10
127.1305690871409
 20
-152.1429958387003
 10
127.193614334521
 20
-152.1347276095357
 10
127.2177300029178
 20
-152.1199136989492
 10
127.2473578240909
 20
-152.0964870496495
 10
127.2473578240909
 20
-152.0964870496495
 10
127.3917073249229
 20
-152.2635741806841
 10
127.3917073249229
 20
-152.2635741806841
 10
127.330729134834
 20
-152.3314425617435
 10
127.290077008108
 20
-152.4351399358495
 10
127.269750944745
 20
-152.4857828394827
 97
        0
 97
        1
330
97
 75
     2
 76
     1
 98
        1
 10
0.0
 20
0.0
450
        0
451
        0
460
0.0
461
0.0
452
        0
462
0.0
453
        0
470

  0
SPLINE
  5
99
330
81
100
AcDbEntity
  8
レイヤー 1
100
AcDbSpline
210
0.0
220
0.0
230
1.0
 70
     9
 71
     3
 72
    50
 73
    46
 74
     0
 42
0.0000000001
 43
0.0000000001
 40
0.0
 40
0.0
 40
0.0
 40
0.0
 40
1.0
 40
1.0
 40
1.0
 40
2.0
 40
2.0
 40
2.0
 40
3.0
 40
3.0
 40
3.0
 40
4.0
 40
4.0
 40
4.0
 40
5.0
 40
5.0
 40
5.0
 40
6.0
 40
6.0
 40
6.0
 40
7.0
 40
7.0
 40
7.0
 40
8.0
 40
8.0
 40
8.0
 40
9.0
 40
9.0
 40
9.0
 40
10.0
 40
10.0
 40
10.0
 40
11.0
 40
11.0
 40
11.0
 40
12.0
 40
12.0
 40
12.0
 40
13.0
 40
13.0
 40
13.0
 40
14.0
 40
14.0
 40
14.0
 40
15.0
 40
15.0
 40
15.0
 40
15.0
 10
128.7676784617317
 20
-151.8449950792262
 30
0.0
 10
128.5843993819164
 20
-152.0585909993117
 30
0.0
 10
128.5216986440848
 20
-152.1305934949535
 30
0.0
 10
128.3973306970673
 20
-152.2487602700975
 30
0.0
 10
128.3973306970673
 20
-152.2487602700975
 30
0.0
 10
128.3973306970673
 20
-152.8158229869696
 30
0.0
 10
128.3973306970673
 20
-152.8158229869696
 30
0.0
 10
128.3973306970673
 20
-152.9660291501265
 30
0.0
 10
128.4031873593922
 20
-152.9849771752954
 30
0.0
 10
128.4066324548775
 20
-153.1627441023343
 30
0.0
 10
128.4086995121686
 20
-153.2940022403223
 30
0.0
 10
128.414211664945
 20
-153.3425780866643
 30
0.0
 10
128.4197238177214
 20
-153.4018337290106
 30
0.0
 10
128.4197238177214
 20
-153.4018337290106
 30
0.0
 10
128.2216308273196
 20
-153.4018337290106
 30
0.0
 10
128.2216308273196
 20
-153.4018337290106
 30
0.0
 10
128.2254204323533
 20
-153.3573919972509
 30
0.0
 10
128.2288655278386
 20
-153.3108832082
 30
0.0
 10
128.2288655278386
 20
-153.3022704694869
 30
0.0
 10
128.2288655278386
 20
-153.2219997446806
 30
0.0
 10
128.2326551328724
 20
-152.8709445147336
 30
0.0
 10
128.2326551328724
 20
-152.7989420190919
 30
0.0
 10
128.2326551328724
 20
-152.7989420190919
 30
0.0
 10
128.2326551328724
 20
-152.392765261381
 30
0.0
 10
128.2326551328724
 20
-152.392765261381
 30
0.0
 10
128.0734917214538
 20
-152.517477717947
 30
0.0
 10
127.902959494934
 20
-152.627720773475
 30
0.0
 10
127.7251925678951
 20
-152.7141926701548
 30
0.0
 10
127.7251925678951
 20
-152.7141926701548
 30
0.0
 10
127.5474256408562
 20
-152.5512396537024
 30
0.0
 10
127.5474256408562
 20
-152.5512396537024
 30
0.0
 10
127.654912619996
 20
-152.5154106606558
 30
0.0
 10
127.8788438265372
 20
-152.441341107723
 30
0.0
 10
128.1806341910451
 20
-152.1853705131689
 30
0.0
 10
128.3697699331853
 20
-152.0268961208474
 30
0.0
 10
128.538235102414
 20
-151.8384493978043
 30
0.0
 10
128.6715602976932
 20
-151.6183077962968
 30
0.0
 10
128.6715602976932
 20
-151.6183077962968
 30
0.0
 10
128.8400254669219
 20
-151.7623127875802
 30
0.0
 10
128.8400254669219
 20
-151.7623127875802
 30
0.0
 10
128.8510497724747
 20
-151.7729925835845
 30
0.0
 10
128.8586289825422
 20
-151.7878064941711
 30
0.0
 10
128.8586289825422
 20
-151.8005533474665
 30
0.0
 10
128.8586289825422
 20
-151.8405164550954
 30
0.0
 10
128.8252115563353
 20
-151.8405164550954
 30
0.0
 10
128.7676784617317
 20
-151.8449950792262
 30
0.0
  0
HATCH
  5
9A
330
81
100
AcDbEntity
  8
レイヤー 1
 62
   250
420
  2299925
440
 33554687
100
AcDbHatch
 10
0.0
 20
0.0
 30
0.0
210
0.0
220
0.0
230
1.0
  2
SOLID
 70
     1
 71
     1
 91
        1
 92
        1
 93
        1
 72
     4
 94
        3
 73
     0
 74
     0
 95
       50
 96
       46
 40
0.0
 40
0.0
 40
0.0
 40
0.0
 40
1.0
 40
1.0
 40
1.0
 40
2.0
 40
2.0
 40
2.0
 40
3.0
 40
3.0
 40
3.0
 40
4.0
 40
4.0
 40
4.0
 40
5.0
 40
5.0
 40
5.0
 40
6.0
 40
6.0
 40
6.0
 40
7.0
 40
7.0
 40
7.0
 40
8.0
 40
8.0
 40
8.0
 40
9.0
 40
9.0
 40
9.0
 40
10.0
 40
10.0
 40
10.0
 40
11.0
 40
11.0
 40
11.0
 40
12.0
 40
12.0
 40
12.0
 40
13.0
 40
13.0
 40
13.0
 40
14.0
 40
14.0
 40
14.0
 40
15.0
 40
15.0
 40
15.0
 40
15.0
 10
128.7676784617317
 20
-151.8449950792262
 10
128.5843993819164
 20
-152.0585909993117
 10
128.5216986440848
 20
-152.1305934949535
 10
128.3973306970673
 20
-152.2487602700975
 10
128.3973306970673
 20
-152.2487602700975
 10
128.3973306970673
 20
-152.8158229869696
 10
128.3973306970673
 20
-152.8158229869696
 10
128.3973306970673
 20
-152.9660291501265
 10
128.4031873593922
 20
-152.9849771752954
 10
128.4066324548775
 20
-153.1627441023343
 10
128.4086995121686
 20
-153.2940022403223
 10
128.414211664945
 20
-153.3425780866643
 10
128.4197238177214
 20
-153.4018337290106
 10
128.4197238177214
 20
-153.4018337290106
 10
128.2216308273196
 20
-153.4018337290106
 10
128.2216308273196
 20
-153.4018337290106
 10
128.2254204323533
 20
-153.3573919972509
 10
128.2288655278386
 20
-153.3108832082
 10
128.2288655278386
 20
-153.3022704694869
 10
128.2288655278386
 20
-153.2219997446806
 10
128.2326551328724
 20
-152.8709445147336
 10
128.2326551328724
 20
-152.7989420190919
 10
128.2326551328724
 20
-152.7989420190919
 10
128.2326551328724
 20
-152.392765261381
 10
128.2326551328724
 20
-152.392765261381
 10
128.0734917214538
 20
-152.517477717947
 10
127.902959494934
 20
-152.627720773475
 10
127.7251925678951
 20
-152.7141926701548
 10
127.7251925678951
 20
-152.7141926701548
 10
127.5474256408562
 20
-152.5512396537024
 10
127.5474256408562
 20
-152.5512396537024
 10
127.654912619996
 20
-152.5154106606558
 10
127.8788438265372
 20
-152.441341107723
 10
128.1806341910451
 20
-152.1853705131689
 10
128.3697699331853
 20
-152.0268961208474
 10
128.538235102414
 20
-151.8384493978043
 10
128.6715602976932
 20
-151.6183077962968
 10
128.6715602976932
 20
-151.6183077962968
 10
128.8400254669219
 20
-151.7623127875802
 10
128.8400254669219
 20
-151.7623127875802
 10
128.8510497724747
 20
-151.7729925835845
 10
128.8586289825422
 20
-151.7878064941711
 10
128.8586289825422
 20
-151.8005533474665
 10
128.8586289825422
 20
-151.8405164550954
 10
128.8252115563353
 20
-151.8405164550954
 10
128.7676784617317
 20
-151.8449950792262
 97
        0
 97
        1
330
99
 75
     2
 76
     1
 98
        1
 10
0.0
 20
0.0
450
        0
451
        0
460
0.0
461
0.0
452
        0
462
0.0
453
        0
470

  0
SPLINE
  5
9B
330
81
100
AcDbEntity
  8
レイヤー 1
100
AcDbSpline
210
0.0
220
0.0
230
1.0
 70
     9
 71
     3
 72
    50
 73
    46
 74
     0
 42
0.0000000001
 43
0.0000000001
 40
0.0
 40
0.0
 40
0.0
 40
0.0
 40
1.0
 40
1.0
 40
1.0
 40
2.0
 40
2.0
 40
2.0
 40
3.0
 40
3.0
 40
3.0
 40
4.0
 40
4.0
 40
4.0
 40
5.0
 40
5.0
 40
5.0
 40
6.0
 40
6.0
 40
6.0
 40
7.0
 40
7.0
 40
7.0
 40
8.0
 40
8.0
 40
8.0
 40
9.0
 40
9.0
 40
9.0
 40
10.0
 40
10.0
 40
10.0
 40
11.0
 40
11.0
 40
11.0
 40
12.0
 40
12.0
 40
12.0
 40
13.0
 40
13.0
 40
13.0
 40
14.0
 40
14.0
 40
14.0
 40
15.0
 40
15.0
 40
15.0
 40
15.0
 10
130.2638834309757
 20
-152.3717501789209
 30
0.0
 10
130.2104844509543
 20
-152.4434081650141
 30
0.0
 10
129.9824191298308
 20
-152.7607014592057
 30
0.0
 10
129.9324652452947
 20
-152.8244357256828
 30
0.0
 10
130.0065347982275
 20
-152.9215874183668
 30
0.0
 10
130.0509765299872
 20
-152.9849771752954
 30
0.0
 10
130.1085096245909
 20
-153.075927696106
 30
0.0
 10
130.1085096245909
 20
-153.075927696106
 30
0.0
 10
129.9472791558812
 20
-153.213731515516
 30
0.0
 10
129.9472791558812
 20
-153.213731515516
 30
0.0
 10
129.8287678711886
 20
-153.0018581431732
 30
0.0
 10
129.6789062175802
 20
-152.7779269366319
 30
0.0
 10
129.4215575848321
 20
-152.5788004175844
 30
0.0
 10
129.4215575848321
 20
-152.5788004175844
 30
0.0
 10
129.5510931750775
 20
-152.4244601398453
 30
0.0
 10
129.5510931750775
 20
-152.4244601398453
 30
0.0
 10
129.6475558486645
 20
-152.5047308646516
 30
0.0
 10
129.7381618599265
 20
-152.593614328171
 30
0.0
 10
129.8232557184122
 20
-152.6890434731124
 30
0.0
 10
129.8825113607585
 20
-152.6129068628884
 30
0.0
 10
130.0602782877974
 20
-152.3693386120813
 30
0.0
 10
130.1770670247474
 20
-152.1409287814092
 30
0.0
 10
130.1770670247474
 20
-152.1409287814092
 30
0.0
 10
129.5883002063182
 20
-152.1409287814092
 30
0.0
 10
129.5883002063182
 20
-152.1409287814092
 30
0.0
 10
129.4787461698873
 20
-152.1409287814092
 30
0.0
 10
129.2586045683798
 20
-152.1495415201223
 30
0.0
 10
129.0753254885645
 20
-152.1598768065781
 30
0.0
 10
129.0753254885645
 20
-152.1598768065781
 30
0.0
 10
129.0753254885645
 20
-151.9400797146191
 30
0.0
 10
129.0753254885645
 20
-151.9400797146191
 30
0.0
 10
129.2362114477257
 20
-151.959027739788
 30
0.0
 10
129.4160454320557
 20
-151.9631618543703
 30
0.0
 10
129.5807209962506
 20
-151.9631618543703
 30
0.0
 10
129.5807209962506
 20
-151.9631618543703
 30
0.0
 10
130.0213487088141
 20
-151.9631618543703
 30
0.0
 10
130.0213487088141
 20
-151.9631618543703
 30
0.0
 10
130.3176269205456
 20
-151.9631618543703
 30
0.0
 10
130.3565564995289
 20
-151.9483479437837
 30
0.0
 10
130.4289035047191
 20
-151.9083848361548
 30
0.0
 10
130.4289035047191
 20
-151.9083848361548
 30
0.0
 10
130.5749755532938
 20
-152.0668592284763
 30
0.0
 10
130.5749755532938
 20
-152.0668592284763
 30
0.0
 10
130.4416503580146
 20
-152.138861724118
 30
0.0
 10
130.315904372803
 20
-152.3018147405704
 30
0.0
 10
130.2638834309757
 20
-152.3717501789209
 30
0.0
  0
HATCH
  5
9C
330
81
100
AcDbEntity
  8
レイヤー 1
 62
   250
420
  2299925
440
 33554687
100
AcDbHatch
 10
0.0
 20
0.0
 30
0.0
210
0.0
220
0.0
230
1.0
  2
SOLID
 70
     1
 71
     1
 91
        1
 92
        1
 93
        1
 72
     4
 94
        3
 73
     0
 74
     0
 95
       50
 96
       46
 40
0.0
 40
0.0
 40
0.0
 40
0.0
 40
1.0
 40
1.0
 40
1.0
 40
2.0
 40
2.0
 40
2.0
 40
3.0
 40
3.0
 40
3.0
 40
4.0
 40
4.0
 40
4.0
 40
5.0
 40
5.0
 40
5.0
 40
6.0
 40
6.0
 40
6.0
 40
7.0
 40
7.0
 40
7.0
 40
8.0
 40
8.0
 40
8.0
 40
9.0
 40
9.0
 40
9.0
 40
10.0
 40
10.0
 40
10.0
 40
11.0
 40
11.0
 40
11.0
 40
12.0
 40
12.0
 40
12.0
 40
13.0
 40
13.0
 40
13.0
 40
14.0
 40
14.0
 40
14.0
 40
15.0
 40
15.0
 40
15.0
 40
15.0
 10
130.2638834309757
 20
-152.3717501789209
 10
130.2104844509543
 20
-152.4434081650141
 10
129.9824191298308
 20
-152.7607014592057
 10
129.9324652452947
 20
-152.8244357256828
 10
130.0065347982275
 20
-152.9215874183668
 10
130.0509765299872
 20
-152.9849771752954
 10
130.1085096245909
 20
-153.075927696106
 10
130.1085096245909
 20
-153.075927696106
 10
129.9472791558812
 20
-153.213731515516
 10
129.9472791558812
 20
-153.213731515516
 10
129.8287678711886
 20
-153.0018581431732
 10
129.6789062175802
 20
-152.7779269366319
 10
129.4215575848321
 20
-152.5788004175844
 10
129.4215575848321
 20
-152.5788004175844
 10
129.5510931750775
 20
-152.4244601398453
 10
129.5510931750775
 20
-152.4244601398453
 10
129.6475558486645
 20
-152.5047308646516
 10
129.7381618599265
 20
-152.593614328171
 10
129.8232557184122
 20
-152.6890434731124
 10
129.8825113607585
 20
-152.6129068628884
 10
130.0602782877974
 20
-152.3693386120813
 10
130.1770670247474
 20
-152.1409287814092
 10
130.1770670247474
 20
-152.1409287814092
 10
129.5883002063182
 20
-152.1409287814092
 10
129.5883002063182
 20
-152.1409287814092
 10
129.4787461698873
 20
-152.1409287814092
 10
129.2586045683798
 20
-152.1495415201223
 10
129.0753254885645
 20
-152.1598768065781
 10
129.0753254885645
 20
-152.1598768065781
 10
129.0753254885645
 20
-151.9400797146191
 10
129.0753254885645
 20
-151.9400797146191
 10
129.2362114477257
 20
-151.959027739788
 10
129.4160454320557
 20
-151.9631618543703
 10
129.5807209962506
 20
-151.9631618543703
 10
129.5807209962506
 20
-151.9631618543703
 10
130.0213487088141
 20
-151.9631618543703
 10
130.0213487088141
 20
-151.9631618543703
 10
130.3176269205456
 20
-151.9631618543703
 10
130.3565564995289
 20
-151.9483479437837
 10
130.4289035047191
 20
-151.9083848361548
 10
130.4289035047191
 20
-151.9083848361548
 10
130.5749755532938
 20
-152.0668592284763
 10
130.5749755532938
 20
-152.0668592284763
 10
130.4416503580146
 20
-152.138861724118
 10
130.315904372803
 20
-152.3018147405704
 10
130.2638834309757
 20
-152.3717501789209
 97
        0
 97
        1
330
9B
 75
     2
 76
     1
 98
        1
 10
0.0
 20
0.0
450
        0
451
        0
460
0.0
461
0.0
452
        0
462
0.0
453
        0
470

  0
SPLINE
  5
9D
330
81
100
AcDbEntity
  8
レイヤー 1
100
AcDbSpline
210
0.0
220
0.0
230
1.0
 70
     9
 71
     3
 72
    29
 73
    25
 74
     0
 42
0.0000000001
 43
0.0000000001
 40
0.0
 40
0.0
 40
0.0
 40
0.0
 40
1.0
 40
1.0
 40
1.0
 40
2.0
 40
2.0
 40
2.0
 40
3.0
 40
3.0
 40
3.0
 40
4.0
 40
4.0
 40
4.0
 40
5.0
 40
5.0
 40
5.0
 40
6.0
 40
6.0
 40
6.0
 40
7.0
 40
7.0
 40
7.0
 40
8.0
 40
8.0
 40
8.0
 40
8.0
 10
131.6863633568353
 20
-152.6149739201796
 30
0.0
 10
131.6863633568353
 20
-152.6149739201796
 30
0.0
 10
131.2622721026011
 20
-152.6149739201796
 30
0.0
 10
131.2622721026011
 20
-152.6149739201796
 30
0.0
 10
131.2381564342043
 20
-152.6149739201796
 30
0.0
 10
130.9601372285447
 20
-152.6149739201796
 30
0.0
 10
130.7751356009867
 20
-152.6401231172219
 30
0.0
 10
130.7751356009867
 20
-152.6401231172219
 30
0.0
 10
130.7751356009867
 20
-152.4096462292587
 30
0.0
 10
130.7751356009867
 20
-152.4096462292587
 30
0.0
 10
130.9139729490423
 20
-152.4330728785584
 30
0.0
 10
131.0807155705284
 20
-152.4351399358495
 30
0.0
 10
131.2622721026011
 20
-152.4351399358495
 30
0.0
 10
131.2622721026011
 20
-152.4351399358495
 30
0.0
 10
131.6863633568353
 20
-152.4351399358495
 30
0.0
 10
131.6863633568353
 20
-152.4351399358495
 30
0.0
 10
131.8489718637391
 20
-152.4351399358495
 30
0.0
 10
132.01226938974
 20
-152.4330728785584
 30
0.0
 10
132.1731553489011
 20
-152.4096462292587
 30
0.0
 10
132.1731553489011
 20
-152.4096462292587
 30
0.0
 10
132.1731553489011
 20
-152.6401231172219
 30
0.0
 10
132.1731553489011
 20
-152.6401231172219
 30
0.0
 10
132.01226938974
 20
-152.6170409774707
 30
0.0
 10
131.7955728837177
 20
-152.6149739201796
 30
0.0
 10
131.6863633568353
 20
-152.6149739201796
 30
0.0
  0
HATCH
  5
9E
330
81
100
AcDbEntity
  8
レイヤー 1
 62
   250
420
  2299925
440
 33554687
100
AcDbHatch
 10
0.0
 20
0.0
 30
0.0
210
0.0
220
0.0
230
1.0
  2
SOLID
 70
     1
 71
     1
 91
        1
 92
        1
 93
        1
 72
     4
 94
        3
 73
     0
 74
     0
 95
       29
 96
       25
 40
0.0
 40
0.0
 40
0.0
 40
0.0
 40
1.0
 40
1.0
 40
1.0
 40
2.0
 40
2.0
 40
2.0
 40
3.0
 40
3.0
 40
3.0
 40
4.0
 40
4.0
 40
4.0
 40
5.0
 40
5.0
 40
5.0
 40
6.0
 40
6.0
 40
6.0
 40
7.0
 40
7.0
 40
7.0
 40
8.0
 40
8.0
 40
8.0
 40
8.0
 10
131.6863633568353
 20
-152.6149739201796
 10
131.6863633568353
 20
-152.6149739201796
 10
131.2622721026011
 20
-152.6149739201796
 10
131.2622721026011
 20
-152.6149739201796
 10
131.2381564342043
 20
-152.6149739201796
 10
130.9601372285447
 20
-152.6149739201796
 10
130.7751356009867
 20
-152.6401231172219
 10
130.7751356009867
 20
-152.6401231172219
 10
130.7751356009867
 20
-152.4096462292587
 10
130.7751356009867
 20
-152.4096462292587
 10
130.9139729490423
 20
-152.4330728785584
 10
131.0807155705284
 20
-152.4351399358495
 10
131.2622721026011
 20
-152.4351399358495
 10
131.2622721026011
 20
-152.4351399358495
 10
131.6863633568353
 20
-152.4351399358495
 10
131.6863633568353
 20
-152.4351399358495
 10
131.8489718637391
 20
-152.4351399358495
 10
132.01226938974
 20
-152.4330728785584
 10
132.1731553489011
 20
-152.4096462292587
 10
132.1731553489011
 20
-152.4096462292587
 10
132.1731553489011
 20
-152.6401231172219
 10
132.1731553489011
 20
-152.6401231172219
 10
132.01226938974
 20
-152.6170409774707
 10
131.7955728837177
 20
-152.6149739201796
 10
131.6863633568353
 20
-152.6149739201796
 97
        0
 97
        1
330
9D
 75
     2
 76
     1
 98
        1
 10
0.0
 20
0.0
450
        0
451
        0
460
0.0
461
0.0
452
        0
462
0.0
453
        0
470

  0
SPLINE
  5
9F
330
81
100
AcDbEntity
  8
レイヤー 1
100
AcDbSpline
210
0.0
220
0.0
230
1.0
 70
     9
 71
     3
 72
    20
 73
    16
 74
     0
 42
0.0000000001
 43
0.0000000001
 40
0.0
 40
0.0
 40
0.0
 40
0.0
 40
1.0
 40
1.0
 40
1.0
 40
2.0
 40
2.0
 40
2.0
 40
3.0
 40
3.0
 40
3.0
 40
4.0
 40
4.0
 40
4.0
 40
5.0
 40
5.0
 40
5.0
 40
5.0
 10
133.2621500317886
 20
-152.9660291501265
 30
0.0
 10
133.2214979050627
 20
-152.7882622230876
 30
0.0
 10
133.136404046577
 20
-152.6466687986439
 30
0.0
 10
133.0141031568506
 20
-152.5367702526644
 30
0.0
 10
133.0141031568506
 20
-152.5367702526644
 30
0.0
 10
133.1550075621974
 20
-152.4223930825541
 30
0.0
 10
133.1550075621974
 20
-152.4223930825541
 30
0.0
 10
133.2084065422187
 20
-152.4647677570227
 30
0.0
 10
133.2438910257168
 20
-152.4985296927781
 30
0.0
 10
133.3103813685821
 20
-152.6063611814664
 30
0.0
 10
133.3806613164812
 20
-152.7228054088679
 30
0.0
 10
133.3992648321016
 20
-152.7755153697922
 30
0.0
 10
133.4216579527557
 20
-152.8413166935605
 30
0.0
 10
133.4216579527557
 20
-152.8413166935605
 30
0.0
 10
133.2621500317886
 20
-152.9660291501265
 30
0.0
 10
133.2621500317886
 20
-152.9660291501265
 30
0.0
  0
SPLINE
  5
A0
330
81
100
AcDbEntity
  8
レイヤー 1
100
AcDbSpline
210
0.0
220
0.0
230
1.0
 70
     9
 71
     3
 72
    77
 73
    73
 74
     0
 42
0.0000000001
 43
0.0000000001
 40
0.0
 40
0.0
 40
0.0
 40
0.0
 40
1.0
 40
1.0
 40
1.0
 40
2.0
 40
2.0
 40
2.0
 40
3.0
 40
3.0
 40
3.0
 40
4.0
 40
4.0
 40
4.0
 40
5.0
 40
5.0
 40
5.0
 40
6.0
 40
6.0
 40
6.0
 40
7.0
 40
7.0
 40
7.0
 40
8.0
 40
8.0
 40
8.0
 40
9.0
 40
9.0
 40
9.0
 40
10.0
 40
10.0
 40
10.0
 40
11.0
 40
11.0
 40
11.0
 40
12.0
 40
12.0
 40
12.0
 40
13.0
 40
13.0
 40
13.0
 40
14.0
 40
14.0
 40
14.0
 40
15.0
 40
15.0
 40
15.0
 40
16.0
 40
16.0
 40
16.0
 40
17.0
 40
17.0
 40
17.0
 40
18.0
 40
18.0
 40
18.0
 40
19.0
 40
19.0
 40
19.0
 40
20.0
 40
20.0
 40
20.0
 40
21.0
 40
21.0
 40
21.0
 40
22.0
 40
22.0
 40
22.0
 40
23.0
 40
23.0
 40
23.0
 40
24.0
 40
24.0
 40
24.0
 40
24.0
 10
133.936355218252
 20
-152.2404920409329
 30
0.0
 10
133.8753770281631
 20
-152.2363579263506
 30
0.0
 10
133.8161213858168
 20
-152.2363579263506
 30
0.0
 10
133.7568657434705
 20
-152.2363579263506
 30
0.0
 10
133.7568657434705
 20
-152.2363579263506
 30
0.0
 10
133.7568657434705
 20
-153.0104708818863
 30
0.0
 10
133.7568657434705
 20
-153.0104708818863
 30
0.0
 10
133.7568657434705
 20
-153.2750542151534
 30
0.0
 10
133.7547986861793
 20
-153.3046820363266
 30
0.0
 10
133.7492865334029
 20
-153.3343098574997
 30
0.0
 10
133.7196587122298
 20
-153.4672905432304
 30
0.0
 10
133.6307752487103
 20
-153.4759032819435
 30
0.0
 10
133.4771239900682
 20
-153.4759032819435
 30
0.0
 10
133.4419840161187
 20
-153.4759032819435
 30
0.0
 10
133.4271701055321
 20
-153.4759032819435
 30
0.0
 10
133.3920301315825
 20
-153.4717691673612
 30
0.0
 10
133.3920301315825
 20
-153.4717691673612
 30
0.0
 10
133.2828206047001
 20
-153.2306124833937
 30
0.0
 10
133.2828206047001
 20
-153.2306124833937
 30
0.0
 10
133.384450921515
 20
-153.262307361858
 30
0.0
 10
133.4567979267052
 20
-153.262307361858
 30
0.0
 10
133.4771239900682
 20
-153.262307361858
 30
0.0
 10
133.5381021801571
 20
-153.262307361858
 30
0.0
 10
133.5677300013303
 20
-153.2454263939803
 30
0.0
 10
133.571519606364
 20
-153.1882378089252
 30
0.0
 10
133.571519606364
 20
-153.1754909556297
 30
0.0
 10
133.5732421541067
 20
-153.0783392629457
 30
0.0
 10
133.5732421541067
 20
-153.0211506778905
 30
0.0
 10
133.5732421541067
 20
-153.0211506778905
 30
0.0
 10
133.5732421541067
 20
-152.2339463595109
 30
0.0
 10
133.5732421541067
 20
-152.2339463595109
 30
0.0
 10
133.5732421541067
 20
-152.2339463595109
 30
0.0
 10
133.3158935213585
 20
-152.2339463595109
 30
0.0
 10
133.3158935213585
 20
-152.2339463595109
 30
0.0
 10
133.1880804788557
 20
-152.2339463595109
 30
0.0
 10
133.060267436353
 20
-152.2404920409329
 30
0.0
 10
132.9345214511413
 20
-152.2532388942283
 30
0.0
 10
132.9345214511413
 20
-152.2532388942283
 30
0.0
 10
132.9345214511413
 20
-152.0458441460163
 30
0.0
 10
132.9345214511413
 20
-152.0458441460163
 30
0.0
 10
133.0661240986779
 20
-152.0585909993117
 30
0.0
 10
133.2566378790122
 20
-152.062725113894
 30
0.0
 10
133.3158935213585
 20
-152.062725113894
 30
0.0
 10
133.3158935213585
 20
-152.062725113894
 30
0.0
 10
133.5732421541067
 20
-152.062725113894
 30
0.0
 10
133.5732421541067
 20
-152.062725113894
 30
0.0
 10
133.571519606364
 20
-151.7940076660445
 30
0.0
 10
133.571519606364
 20
-151.7178710558205
 30
0.0
 10
133.5639403962965
 20
-151.5697319499548
 30
0.0
 10
133.5639403962965
 20
-151.5697319499548
 30
0.0
 10
133.7899386601289
 20
-151.607972509841
 30
0.0
 10
133.7899386601289
 20
-151.607972509841
 30
0.0
 10
133.8030300229728
 20
-151.6100395671322
 30
0.0
 10
133.8161213858168
 20
-151.6162407390056
 30
0.0
 10
133.8161213858168
 20
-151.6376003310142
 30
0.0
 10
133.8161213858168
 20
-151.6565483561831
 30
0.0
 10
133.8102647234919
 20
-151.6586154134742
 30
0.0
 10
133.7603108389558
 20
-151.6923773492297
 30
0.0
 10
133.7568657434705
 20
-151.7709255262934
 30
0.0
 10
133.7568657434705
 20
-151.7857394368799
 30
0.0
 10
133.7568657434705
 20
-152.062725113894
 30
0.0
 10
133.9122395498553
 20
-152.0585909993117
 30
0.0
 10
133.9287760081845
 20
-152.0585909993117
 30
0.0
 10
133.9584038293576
 20
-152.0541123751809
 30
0.0
 10
134.0028455611173
 20
-152.0499782605986
 30
0.0
 10
134.0066351661511
 20
-152.0479112033074
 30
0.0
 10
134.0455647451344
 20
-152.0458441460163
 30
0.0
 10
134.0455647451344
 20
-152.0458441460163
 30
0.0
 10
134.0455647451344
 20
-152.2532388942283
 30
0.0
 10
134.0455647451344
 20
-152.2532388942283
 30
0.0
 10
134.019726528995
 20
-152.2511718369372
 30
0.0
 10
133.9714951922016
 20
-152.2425590982241
 30
0.0
 10
133.936355218252
 20
-152.2404920409329
 30
0.0
  0
SPLINE
  5
A1
330
81
100
AcDbEntity
  8
レイヤー 1
100
AcDbSpline
210
0.0
220
0.0
230
1.0
 70
     9
 71
     3
 72
    53
 73
    49
 74
     0
 42
0.0000000001
 43
0.0000000001
 40
0.0
 40
0.0
 40
0.0
 40
0.0
 40
1.0
 40
1.0
 40
1.0
 40
2.0
 40
2.0
 40
2.0
 40
3.0
 40
3.0
 40
3.0
 40
4.0
 40
4.0
 40
4.0
 40
5.0
 40
5.0
 40
5.0
 40
6.0
 40
6.0
 40
6.0
 40
7.0
 40
7.0
 40
7.0
 40
8.0
 40
8.0
 40
8.0
 40
9.0
 40
9.0
 40
9.0
 40
10.0
 40
10.0
 40
10.0
 40
11.0
 40
11.0
 40
11.0
 40
12.0
 40
12.0
 40
12.0
 40
13.0
 40
13.0
 40
13.0
 40
14.0
 40
14.0
 40
14.0
 40
15.0
 40
15.0
 40
15.0
 40
16.0
 40
16.0
 40
16.0
 40
16.0
 10
132.9290092983649
 20
-151.7412977051202
 30
0.0
 10
132.8697536560186
 20
-151.8935709255682
 30
0.0
 10
132.832546624778
 20
-151.9717745930834
 30
0.0
 10
132.7994737081196
 20
-152.0392984645943
 30
0.0
 10
132.8363362298117
 20
-152.0606580566029
 30
0.0
 10
132.8401258348455
 20
-152.062725113894
 30
0.0
 10
132.8401258348455
 20
-152.0775390244806
 30
0.0
 10
132.8401258348455
 20
-152.090285877776
 30
0.0
 10
132.8104980136723
 20
-152.1240478135315
 30
0.0
 10
132.8011962558622
 20
-152.1326605522446
 30
0.0
 10
132.7994737081196
 20
-152.3293755044524
 30
0.0
 10
132.7994737081196
 20
-152.3503905869124
 30
0.0
 10
132.7994737081196
 20
-152.4837157821916
 30
0.0
 10
132.7974066508284
 20
-152.496462635487
 30
0.0
 10
132.7974066508284
 20
-152.5112765460736
 30
0.0
 10
132.7974066508284
 20
-152.5260904566601
 30
0.0
 10
132.7974066508284
 20
-152.5260904566601
 30
0.0
 10
132.7974066508284
 20
-153.0611137855194
 30
0.0
 10
132.7974066508284
 20
-153.0611137855194
 30
0.0
 10
132.7974066508284
 20
-153.1331162811611
 30
0.0
 10
132.8011962558622
 20
-153.3680717932552
 30
0.0
 10
132.8087754659297
 20
-153.4779703392346
 30
0.0
 10
132.8087754659297
 20
-153.4779703392346
 30
0.0
 10
132.5955240553928
 20
-153.4779703392346
 30
0.0
 10
132.5955240553928
 20
-153.4779703392346
 30
0.0
 10
132.6158501187557
 20
-153.3194959469132
 30
0.0
 10
132.6217067810807
 20
-153.0783392629457
 30
0.0
 10
132.6217067810807
 20
-153.0569796709371
 30
0.0
 10
132.6217067810807
 20
-153.0569796709371
 30
0.0
 10
132.6217067810807
 20
-152.3397107909081
 30
0.0
 10
132.6217067810807
 20
-152.3397107909081
 30
0.0
 10
132.5421250753714
 20
-152.4540879610184
 30
0.0
 10
132.4883815858015
 20
-152.5133436033647
 30
0.0
 10
132.4511745545608
 20
-152.5557182778333
 30
0.0
 10
132.4511745545608
 20
-152.5557182778333
 30
0.0
 10
132.2844319330747
 20
-152.4182589679718
 30
0.0
 10
132.2844319330747
 20
-152.4182589679718
 30
0.0
 10
132.5307562602701
 20
-152.2022514810466
 30
0.0
 10
132.6992214294988
 20
-151.8935709255682
 30
0.0
 10
132.7974066508284
 20
-151.5569850966593
 30
0.0
 10
132.7974066508284
 20
-151.5569850966593
 30
0.0
 10
132.9899874884539
 20
-151.6713622667696
 30
0.0
 10
132.9899874884539
 20
-151.6713622667696
 30
0.0
 10
133.0010117940067
 20
-151.6775634386431
 30
0.0
 10
133.0085910040742
 20
-151.6820420627739
 30
0.0
 10
133.0085910040742
 20
-151.6968559733605
 30
0.0
 10
133.0085910040742
 20
-151.7220051704028
 30
0.0
 10
132.9937770934876
 20
-151.7264837945336
 30
0.0
 10
132.9290092983649
 20
-151.7412977051202
 30
0.0
  0
HATCH
  5
A2
330
81
100
AcDbEntity
  8
レイヤー 1
 62
   250
420
  2299925
440
 33554687
100
AcDbHatch
 10
0.0
 20
0.0
 30
0.0
210
0.0
220
0.0
230
1.0
  2
SOLID
 70
     1
 71
     1
 91
        3
 92
        1
 93
        1
 72
     4
 94
        3
 73
     0
 74
     0
 95
       20
 96
       16
 40
0.0
 40
0.0
 40
0.0
 40
0.0
 40
1.0
 40
1.0
 40
1.0
 40
2.0
 40
2.0
 40
2.0
 40
3.0
 40
3.0
 40
3.0
 40
4.0
 40
4.0
 40
4.0
 40
5.0
 40
5.0
 40
5.0
 40
5.0
 10
133.2621500317886
 20
-152.9660291501265
 10
133.2214979050627
 20
-152.7882622230876
 10
133.136404046577
 20
-152.6466687986439
 10
133.0141031568506
 20
-152.5367702526644
 10
133.0141031568506
 20
-152.5367702526644
 10
133.1550075621974
 20
-152.4223930825541
 10
133.1550075621974
 20
-152.4223930825541
 10
133.2084065422187
 20
-152.4647677570227
 10
133.2438910257168
 20
-152.4985296927781
 10
133.3103813685821
 20
-152.6063611814664
 10
133.3806613164812
 20
-152.7228054088679
 10
133.3992648321016
 20
-152.7755153697922
 10
133.4216579527557
 20
-152.8413166935605
 10
133.4216579527557
 20
-152.8413166935605
 10
133.2621500317886
 20
-152.9660291501265
 10
133.2621500317886
 20
-152.9660291501265
 97
        0
 97
        1
330
9F
 92
        1
 93
        1
 72
     4
 94
        3
 73
     0
 74
     0
 95
       77
 96
       73
 40
0.0
 40
0.0
 40
0.0
 40
0.0
 40
1.0
 40
1.0
 40
1.0
 40
2.0
 40
2.0
 40
2.0
 40
3.0
 40
3.0
 40
3.0
 40
4.0
 40
4.0
 40
4.0
 40
5.0
 40
5.0
 40
5.0
 40
6.0
 40
6.0
 40
6.0
 40
7.0
 40
7.0
 40
7.0
 40
8.0
 40
8.0
 40
8.0
 40
9.0
 40
9.0
 40
9.0
 40
10.0
 40
10.0
 40
10.0
 40
11.0
 40
11.0
 40
11.0
 40
12.0
 40
12.0
 40
12.0
 40
13.0
 40
13.0
 40
13.0
 40
14.0
 40
14.0
 40
14.0
 40
15.0
 40
15.0
 40
15.0
 40
16.0
 40
16.0
 40
16.0
 40
17.0
 40
17.0
 40
17.0
 40
18.0
 40
18.0
 40
18.0
 40
19.0
 40
19.0
 40
19.0
 40
20.0
 40
20.0
 40
20.0
 40
21.0
 40
21.0
 40
21.0
 40
22.0
 40
22.0
 40
22.0
 40
23.0
 40
23.0
 40
23.0
 40
24.0
 40
24.0
 40
24.0
 40
24.0
 10
133.936355218252
 20
-152.2404920409329
 10
133.8753770281631
 20
-152.2363579263506
 10
133.8161213858168
 20
-152.2363579263506
 10
133.7568657434705
 20
-152.2363579263506
 10
133.7568657434705
 20
-152.2363579263506
 10
133.7568657434705
 20
-153.0104708818863
 10
133.7568657434705
 20
-153.0104708818863
 10
133.7568657434705
 20
-153.2750542151534
 10
133.7547986861793
 20
-153.3046820363266
 10
133.7492865334029
 20
-153.3343098574997
 10
133.7196587122298
 20
-153.4672905432304
 10
133.6307752487103
 20
-153.4759032819435
 10
133.4771239900682
 20
-153.4759032819435
 10
133.4419840161187
 20
-153.4759032819435
 10
133.4271701055321
 20
-153.4759032819435
 10
133.3920301315825
 20
-153.4717691673612
 10
133.3920301315825
 20
-153.4717691673612
 10
133.2828206047001
 20
-153.2306124833937
 10
133.2828206047001
 20
-153.2306124833937
 10
133.384450921515
 20
-153.262307361858
 10
133.4567979267052
 20
-153.262307361858
 10
133.4771239900682
 20
-153.262307361858
 10
133.5381021801571
 20
-153.262307361858
 10
133.5677300013303
 20
-153.2454263939803
 10
133.571519606364
 20
-153.1882378089252
 10
133.571519606364
 20
-153.1754909556297
 10
133.5732421541067
 20
-153.0783392629457
 10
133.5732421541067
 20
-153.0211506778905
 10
133.5732421541067
 20
-153.0211506778905
 10
133.5732421541067
 20
-152.2339463595109
 10
133.5732421541067
 20
-152.2339463595109
 10
133.5732421541067
 20
-152.2339463595109
 10
133.3158935213585
 20
-152.2339463595109
 10
133.3158935213585
 20
-152.2339463595109
 10
133.1880804788557
 20
-152.2339463595109
 10
133.060267436353
 20
-152.2404920409329
 10
132.9345214511413
 20
-152.2532388942283
 10
132.9345214511413
 20
-152.2532388942283
 10
132.9345214511413
 20
-152.0458441460163
 10
132.9345214511413
 20
-152.0458441460163
 10
133.0661240986779
 20
-152.0585909993117
 10
133.2566378790122
 20
-152.062725113894
 10
133.3158935213585
 20
-152.062725113894
 10
133.3158935213585
 20
-152.062725113894
 10
133.5732421541067
 20
-152.062725113894
 10
133.5732421541067
 20
-152.062725113894
 10
133.571519606364
 20
-151.7940076660445
 10
133.571519606364
 20
-151.7178710558205
 10
133.5639403962965
 20
-151.5697319499548
 10
133.5639403962965
 20
-151.5697319499548
 10
133.7899386601289
 20
-151.607972509841
 10
133.7899386601289
 20
-151.607972509841
 10
133.8030300229728
 20
-151.6100395671322
 10
133.8161213858168
 20
-151.6162407390056
 10
133.8161213858168
 20
-151.6376003310142
 10
133.8161213858168
 20
-151.6565483561831
 10
133.8102647234919
 20
-151.6586154134742
 10
133.7603108389558
 20
-151.6923773492297
 10
133.7568657434705
 20
-151.7709255262934
 10
133.7568657434705
 20
-151.7857394368799
 10
133.7568657434705
 20
-152.062725113894
 10
133.9122395498553
 20
-152.0585909993117
 10
133.9287760081845
 20
-152.0585909993117
 10
133.9584038293576
 20
-152.0541123751809
 10
134.0028455611173
 20
-152.0499782605986
 10
134.0066351661511
 20
-152.0479112033074
 10
134.0455647451344
 20
-152.0458441460163
 10
134.0455647451344
 20
-152.0458441460163
 10
134.0455647451344
 20
-152.2532388942283
 10
134.0455647451344
 20
-152.2532388942283
 10
134.019726528995
 20
-152.2511718369372
 10
133.9714951922016
 20
-152.2425590982241
 10
133.936355218252
 20
-152.2404920409329
 97
        0
 97
        1
330
A0
 92
        1
 93
        1
 72
     4
 94
        3
 73
     0
 74
     0
 95
       53
 96
       49
 40
0.0
 40
0.0
 40
0.0
 40
0.0
 40
1.0
 40
1.0
 40
1.0
 40
2.0
 40
2.0
 40
2.0
 40
3.0
 40
3.0
 40
3.0
 40
4.0
 40
4.0
 40
4.0
 40
5.0
 40
5.0
 40
5.0
 40
6.0
 40
6.0
 40
6.0
 40
7.0
 40
7.0
 40
7.0
 40
8.0
 40
8.0
 40
8.0
 40
9.0
 40
9.0
 40
9.0
 40
10.0
 40
10.0
 40
10.0
 40
11.0
 40
11.0
 40
11.0
 40
12.0
 40
12.0
 40
12.0
 40
13.0
 40
13.0
 40
13.0
 40
14.0
 40
14.0
 40
14.0
 40
15.0
 40
15.0
 40
15.0
 40
16.0
 40
16.0
 40
16.0
 40
16.0
 10
132.9290092983649
 20
-151.7412977051202
 10
132.8697536560186
 20
-151.8935709255682
 10
132.832546624778
 20
-151.9717745930834
 10
132.7994737081196
 20
-152.0392984645943
 10
132.8363362298117
 20
-152.0606580566029
 10
132.8401258348455
 20
-152.062725113894
 10
132.8401258348455
 20
-152.0775390244806
 10
132.8401258348455
 20
-152.090285877776
 10
132.8104980136723
 20
-152.1240478135315
 10
132.8011962558622
 20
-152.1326605522446
 10
132.7994737081196
 20
-152.3293755044524
 10
132.7994737081196
 20
-152.3503905869124
 10
132.7994737081196
 20
-152.4837157821916
 10
132.7974066508284
 20
-152.496462635487
 10
132.7974066508284
 20
-152.5112765460736
 10
132.7974066508284
 20
-152.5260904566601
 10
132.7974066508284
 20
-152.5260904566601
 10
132.7974066508284
 20
-153.0611137855194
 10
132.7974066508284
 20
-153.0611137855194
 10
132.7974066508284
 20
-153.1331162811611
 10
132.8011962558622
 20
-153.3680717932552
 10
132.8087754659297
 20
-153.4779703392346
 10
132.8087754659297
 20
-153.4779703392346
 10
132.5955240553928
 20
-153.4779703392346
 10
132.5955240553928
 20
-153.4779703392346
 10
132.6158501187557
 20
-153.3194959469132
 10
132.6217067810807
 20
-153.0783392629457
 10
132.6217067810807
 20
-153.0569796709371
 10
132.6217067810807
 20
-153.0569796709371
 10
132.6217067810807
 20
-152.3397107909081
 10
132.6217067810807
 20
-152.3397107909081
 10
132.5421250753714
 20
-152.4540879610184
 10
132.4883815858015
 20
-152.5133436033647
 10
132.4511745545608
 20
-152.5557182778333
 10
132.4511745545608
 20
-152.5557182778333
 10
132.2844319330747
 20
-152.4182589679718
 10
132.2844319330747
 20
-152.4182589679718
 10
132.5307562602701
 20
-152.2022514810466
 10
132.6992214294988
 20
-151.8935709255682
 10
132.7974066508284
 20
-151.5569850966593
 10
132.7974066508284
 20
-151.5569850966593
 10
132.9899874884539
 20
-151.6713622667696
 10
132.9899874884539
 20
-151.6713622667696
 10
133.0010117940067
 20
-151.6775634386431
 10
133.0085910040742
 20
-151.6820420627739
 10
133.0085910040742
 20
-151.6968559733605
 10
133.0085910040742
 20
-151.7220051704028
 10
132.9937770934876
 20
-151.7264837945336
 10
132.9290092983649
 20
-151.7412977051202
 97
        0
 97
        1
330
A1
 75
     2
 76
     1
 98
        1
 10
0.0
 20
0.0
450
        0
451
        0
460
0.0
461
0.0
452
        0
462
0.0
453
        0
470

  0
ENDBLK
  5
84
330
81
100
AcDbEntity
  8
0
100
AcDbBlockEnd
  0
BLOCK
  5
A8
330
A6
100
AcDbEntity
  8
0
100
AcDbBlockBegin
  2
Block_3
 70
     0
 10
0.0
 20
0.0
 30
0.0
  3
Block_3
  1

  0
LINE
  5
AA
330
A6
100
AcDbEntity
  8
レイヤー 1
 62
   250
420
  2299925
370
    25
100
AcDbLine
 10
111.1051589650579
 20
-152.4281445851463
 30
0.0
 11
100.1052114931744
 21
-152.4281445851463
 31
0.0
  0
LINE
  5
AB
330
A6
100
AcDbEntity
  8
レイヤー 1
 62
   250
420
  2299925
370
    25
100
AcDbLine
 10
80.10454644787834
 20
-146.9280568087436
 30
0.0
 11
80.10454644787834
 21
-147.4282604197291
 31
0.0
  0
LINE
  5
AC
330
A6
100
AcDbEntity
  8
レイヤー 1
 62
   250
420
  2299925
370
    25
100
AcDbLine
 10
100.1052114931744
 20
-147.4282604197291
 30
0.0
 11
80.10454644787834
 21
-147.4282604197291
 31
0.0
  0
LINE
  5
AD
330
A6
100
AcDbEntity
  8
レイヤー 1
 62
   250
420
  2299925
370
    25
100
AcDbLine
 10
80.10454644787834
 20
-146.9280568087436
 30
0.0
 11
80.6185436569874
 21
-147.3101151419812
 31
0.0
  0
LINE
  5
AE
330
A6
100
AcDbEntity
  8
レイヤー 1
 62
   250
420
  2299925
370
    25
100
AcDbLine
 10
80.6185436569874
 20
-147.3101151419812
 30
0.0
 11
81.1036130890567
 21
-146.8925673643077
 31
0.0
  0
LINE
  5
AF
330
A6
100
AcDbEntity
  8
レイヤー 1
 62
   250
420
  2299925
370
    25
100
AcDbLine
 10
81.61761029816576
 20
-147.2746256975458
 30
0.0
 11
82.1033852857726
 21
-146.8567251420945
 31
0.0
  0
LINE
  5
B0
330
A6
100
AcDbEntity
  8
レイヤー 1
 62
   250
420
  2299925
370
    25
100
AcDbLine
 10
81.1036130890567
 20
-146.8925673643077
 30
0.0
 11
81.61761029816576
 21
-147.2746256975458
 31
0.0
  0
LINE
  5
B1
330
A6
100
AcDbEntity
  8
レイヤー 1
 62
   250
420
  2299925
370
    25
100
AcDbLine
 10
82.1033852857726
 20
-146.8567251420945
 30
0.0
 11
82.61738249488166
 21
-147.2387834753325
 31
0.0
  0
LINE
  5
B2
330
A6
100
AcDbEntity
  8
レイヤー 1
 62
   250
420
  2299925
370
    25
100
AcDbLine
 10
82.61738249488166
 20
-147.2387834753325
 30
0.0
 11
83.10245192695127
 21
-146.821235697659
 31
0.0
  0
LINE
  5
B3
330
A6
100
AcDbEntity
  8
レイヤー 1
 62
   250
420
  2299925
370
    25
100
AcDbLine
 10
83.10245192695127
 20
-146.821235697659
 30
0.0
 11
83.61644913606001
 21
-147.2029765308974
 31
0.0
  0
LINE
  5
B4
330
A6
100
AcDbEntity
  8
レイヤー 1
 62
   250
420
  2299925
370
    25
100
AcDbLine
 10
83.61644913606001
 20
-147.2029765308974
 30
0.0
 11
84.1015185681293
 21
-146.7854287532236
 31
0.0
  0
LINE
  5
B5
330
A6
100
AcDbEntity
  8
レイヤー 1
 62
   250
420
  2299925
370
    25
100
AcDbLine
 10
84.1015185681293
 20
-146.7854287532236
 30
0.0
 11
84.61555105501524
 21
-147.1671343086835
 31
0.0
  0
LINE
  5
B6
330
A6
100
AcDbEntity
  8
レイヤー 1
 62
   250
420
  2299925
370
    25
100
AcDbLine
 10
84.61555105501524
 20
-147.1671343086835
 30
0.0
 11
85.1012907648449
 21
-146.7495865310104
 31
0.0
  0
LINE
  5
B7
330
A6
100
AcDbEntity
  8
レイヤー 1
 62
   250
420
  2299925
370
    25
100
AcDbLine
 10
85.1012907648449
 20
-146.7495865310104
 30
0.0
 11
85.61528797395428
 21
-147.1316448642484
 31
0.0
  0
LINE
  5
B8
330
A6
100
AcDbEntity
  8
レイヤー 1
 62
   250
420
  2299925
370
    25
100
AcDbLine
 10
85.61528797395428
 20
-147.1316448642484
 30
0.0
 11
86.10035740602357
 21
-146.7140970865752
 31
0.0
  0
LINE
  5
B9
330
A6
100
AcDbEntity
  8
レイヤー 1
 62
   250
420
  2299925
370
    25
100
AcDbLine
 10
86.10035740602357
 20
-146.7140970865752
 30
0.0
 11
86.61438989290951
 21
-147.0961554198126
 31
0.0
  0
LINE
  5
BA
330
A6
100
AcDbEntity
  8
レイヤー 1
 62
   250
420
  2299925
370
    25
100
AcDbLine
 10
86.61438989290951
 20
-147.0961554198126
 30
0.0
 11
87.10012960273948
 21
-146.6782901421391
 31
0.0
  0
LINE
  5
BB
330
A6
100
AcDbEntity
  8
レイヤー 1
 62
   250
420
  2299925
370
    25
100
AcDbLine
 10
87.61416208962542
 20
-147.0603484753771
 30
0.0
 11
88.09923152169471
 21
-146.6428006977037
 31
0.0
  0
LINE
  5
BC
330
A6
100
AcDbEntity
  8
レイヤー 1
 62
   250
420
  2299925
370
    25
100
AcDbLine
 10
87.10012960273948
 20
-146.6782901421391
 30
0.0
 11
87.61416208962542
 21
-147.0603484753771
 31
0.0
  0
LINE
  5
BD
330
A6
100
AcDbEntity
  8
レイヤー 1
 62
   250
420
  2299925
370
    25
100
AcDbLine
 10
88.09923152169471
 20
-146.6428006977037
 30
0.0
 11
88.61322873080409
 21
-147.0245062531639
 31
0.0
  0
LINE
  5
BE
330
A6
100
AcDbEntity
  8
レイヤー 1
 62
   250
420
  2299925
370
    25
100
AcDbLine
 10
88.61322873080409
 20
-147.0245062531639
 30
0.0
 11
89.09896844063373
 21
-146.6069584754904
 31
0.0
  0
LINE
  5
BF
330
A6
100
AcDbEntity
  8
レイヤー 1
 62
   250
420
  2299925
370
    25
100
AcDbLine
 10
89.61229537198212
 20
-146.9886640309506
 30
0.0
 11
90.09807035958898
 21
-146.571151531055
 31
0.0
  0
LINE
  5
C0
330
A6
100
AcDbEntity
  8
レイヤー 1
 62
   250
420
  2299925
370
    25
100
AcDbLine
 10
89.09896844063373
 20
-146.6069584754904
 30
0.0
 11
89.61229537198212
 21
-146.9886640309506
 31
0.0
  0
LINE
  5
C1
330
A6
100
AcDbEntity
  8
レイヤー 1
 62
   250
420
  2299925
370
    25
100
AcDbLine
 10
90.61206756869804
 20
-146.9532098642927
 30
0.0
 11
91.09696061188326
 21
-146.5356620866192
 31
0.0
  0
LINE
  5
C2
330
A6
100
AcDbEntity
  8
レイヤー 1
 62
   250
420
  2299925
370
    25
100
AcDbLine
 10
90.09807035958898
 20
-146.571151531055
 30
0.0
 11
90.61206756869804
 21
-146.9532098642927
 31
0.0
  0
LINE
  5
C3
330
A6
100
AcDbEntity
  8
レイヤー 1
 62
   250
420
  2299925
370
    25
100
AcDbLine
 10
91.09696061188326
 20
-146.5356620866192
 30
0.0
 11
91.61099309876886
 21
-146.9177204198572
 31
0.0
  0
LINE
  5
C4
330
A6
100
AcDbEntity
  8
レイヤー 1
 62
   250
420
  2299925
370
    25
100
AcDbLine
 10
91.61099309876886
 20
-146.9177204198572
 30
0.0
 11
92.09673280859885
 21
-146.4998198644059
 31
0.0
  0
LINE
  5
C5
330
A6
100
AcDbEntity
  8
レイヤー 1
 62
   250
420
  2299925
370
    25
100
AcDbLine
 10
92.09673280859885
 20
-146.4998198644059
 30
0.0
 11
92.61073001770791
 21
-146.8818781976439
 31
0.0
  0
LINE
  5
C6
330
A6
100
AcDbEntity
  8
レイヤー 1
 62
   250
420
  2299925
370
    25
100
AcDbLine
 10
92.61073001770791
 20
-146.8818781976439
 30
0.0
 11
93.0957994497772
 21
-146.4643304199705
 31
0.0
  0
LINE
  5
C7
330
A6
100
AcDbEntity
  8
レイヤー 1
 62
   250
420
  2299925
370
    25
100
AcDbLine
 10
93.0957994497772
 20
-146.4643304199705
 30
0.0
 11
93.60983193666314
 21
-146.8460712532082
 31
0.0
  0
LINE
  5
C8
330
A6
100
AcDbEntity
  8
レイヤー 1
 62
   250
420
  2299925
370
    25
100
AcDbLine
 10
93.60983193666314
 20
-146.8460712532082
 30
0.0
 11
94.09557164649278
 21
-146.4285234755351
 31
0.0
  0
LINE
  5
C9
330
A6
100
AcDbEntity
  8
レイヤー 1
 62
   250
420
  2299925
370
    25
100
AcDbLine
 10
94.09557164649278
 20
-146.4285234755351
 30
0.0
 11
94.60960413337906
 21
-146.810229030995
 31
0.0
  0
LINE
  5
CA
330
A6
100
AcDbEntity
  8
レイヤー 1
 62
   250
420
  2299925
370
    25
100
AcDbLine
 10
94.60960413337906
 20
-146.810229030995
 30
0.0
 11
95.09467356544833
 21
-146.3926812533218
 31
0.0
  0
LINE
  5
CB
330
A6
100
AcDbEntity
  8
レイヤー 1
 62
   250
420
  2299925
370
    25
100
AcDbLine
 10
95.09467356544833
 20
-146.3926812533218
 30
0.0
 11
95.60867077455739
 21
-146.7747395865598
 31
0.0
  0
LINE
  5
CC
330
A6
100
AcDbEntity
  8
レイヤー 1
 62
   250
420
  2299925
370
    25
100
AcDbLine
 10
95.60867077455739
 20
-146.7747395865598
 30
0.0
 11
96.0937402066267
 21
-146.357191808886
 31
0.0
  0
LINE
  5
CD
330
A6
100
AcDbEntity
  8
レイヤー 1
 62
   250
420
  2299925
370
    25
100
AcDbLine
 10
96.0937402066267
 20
-146.357191808886
 30
0.0
 11
96.60773741573576
 21
-146.739250142124
 31
0.0
  0
LINE
  5
CE
330
A6
100
AcDbEntity
  8
レイヤー 1
 62
   250
420
  2299925
370
    25
100
AcDbLine
 10
96.60773741573576
 20
-146.739250142124
 30
0.0
 11
97.0935124033426
 21
-146.3213495866727
 31
0.0
  0
LINE
  5
CF
330
A6
100
AcDbEntity
  8
レイヤー 1
 62
   250
420
  2299925
370
    25
100
AcDbLine
 10
97.0935124033426
 20
-146.3213495866727
 30
0.0
 11
97.60750961245134
 21
-146.7034431976886
 31
0.0
  0
LINE
  5
D0
330
A6
100
AcDbEntity
  8
レイヤー 1
 62
   250
420
  2299925
370
    25
100
AcDbLine
 10
97.60750961245134
 20
-146.7034431976886
 30
0.0
 11
98.09257904452095
 21
-146.2858954200151
 31
0.0
  0
LINE
  5
D1
330
A6
100
AcDbEntity
  8
レイヤー 1
 62
   250
420
  2299925
370
    25
100
AcDbLine
 10
98.09257904452095
 20
-146.2858954200151
 30
0.0
 11
98.60657625363002
 21
-146.6676009754753
 31
0.0
  0
LINE
  5
D2
330
A6
100
AcDbEntity
  8
レイヤー 1
 62
   250
420
  2299925
370
    25
100
AcDbLine
 10
98.60657625363002
 20
-146.6676009754753
 30
0.0
 11
99.09164568569931
 21
-146.2500531978019
 31
0.0
  0
LINE
  5
D3
330
A6
100
AcDbEntity
  8
レイヤー 1
 62
   250
420
  2299925
370
    25
100
AcDbLine
 10
99.09164568569931
 20
-146.2500531978019
 30
0.0
 11
99.60567817258525
 21
-146.6317587532621
 31
0.0
  0
LINE
  5
D4
330
A6
100
AcDbEntity
  8
レイヤー 1
 62
   250
420
  2299925
370
    25
100
AcDbLine
 10
99.60567817258525
 20
-146.6317587532621
 30
0.0
 11
100.0914178824152
 21
-146.2142109755886
 31
0.0
  0
LINE
  5
D5
330
A6
100
AcDbEntity
  8
レイヤー 1
 62
   250
420
  2299925
370
    25
100
AcDbLine
 10
100.1654150916332
 20
-146.1659862533784
 30
0.0
 11
101.105653967651
 21
-146.1659862533784
 31
0.0
  0
LINE
  5
D6
330
A6
100
AcDbEntity
  8
レイヤー 1
 62
   250
420
  2299925
370
    25
100
AcDbLine
 10
101.105653967651
 20
-146.1659862533784
 30
0.0
 11
101.105653967651
 21
-151.4280195853966
 31
0.0
  0
LINE
  5
D7
330
A6
100
AcDbEntity
  8
レイヤー 1
 62
   250
420
  2299925
370
    25
100
AcDbLine
 10
100.1052114931744
 20
-147.4282604197291
 30
0.0
 11
100.1052114931744
 21
-152.4281445851463
 31
0.0
  0
LINE
  5
D8
330
A6
100
AcDbEntity
  8
レイヤー 1
 62
   250
420
  2299925
370
    25
100
AcDbLine
 10
110.105386768342
 20
-151.4280195853966
 30
0.0
 11
101.105653967651
 21
-151.4280195853966
 31
0.0
  0
LINE
  5
D9
330
A6
100
AcDbEntity
  8
レイヤー 1
 62
   250
420
  2299925
370
    25
100
AcDbLine
 10
121.1131467374733
 20
-146.571151531055
 30
0.0
 11
120.5991495283643
 21
-146.9532098642927
 31
0.0
  0
LINE
  5
DA
330
A6
100
AcDbEntity
  8
レイヤー 1
 62
   250
420
  2299925
370
    25
100
AcDbLine
 10
126.1099263322171
 20
-146.7495865310104
 30
0.0
 11
125.595929123108
 21
-147.1316448642484
 31
0.0
  0
LINE
  5
DB
330
A6
100
AcDbEntity
  8
レイヤー 1
 62
   250
420
  2299925
370
    25
100
AcDbLine
 10
121.5982161695426
 20
-146.9886640309506
 30
0.0
 11
121.1131467374733
 21
-146.571151531055
 31
0.0
  0
LINE
  5
DC
330
A6
100
AcDbEntity
  8
レイヤー 1
 62
   250
420
  2299925
370
    25
100
AcDbLine
 10
122.5979883662585
 20
-147.0245062531639
 30
0.0
 11
122.1122486564286
 21
-146.6069584754904
 31
0.0
  0
LINE
  5
DD
330
A6
100
AcDbEntity
  8
レイヤー 1
 62
   250
420
  2299925
370
    25
100
AcDbLine
 10
120.5991495283643
 20
-146.9532098642927
 30
0.0
 11
120.1134098185343
 21
-146.5356620866192
 31
0.0
  0
LINE
  5
DE
330
A6
100
AcDbEntity
  8
レイヤー 1
 62
   250
420
  2299925
370
    25
100
AcDbLine
 10
122.1122486564286
 20
-146.6069584754904
 30
0.0
 11
121.5982161695426
 21
-146.9886640309506
 31
0.0
  0
LINE
  5
DF
330
A6
100
AcDbEntity
  8
レイヤー 1
 62
   250
420
  2299925
370
    25
100
AcDbLine
 10
130.1076040080056
 20
-146.8925673643077
 30
0.0
 11
129.5936067988966
 21
-147.2746256975458
 31
0.0
  0
LINE
  5
E0
330
A6
100
AcDbEntity
  8
レイヤー 1
 62
   250
420
  2299925
370
    25
100
AcDbLine
 10
123.1120208531445
 20
-146.6428006977037
 30
0.0
 11
122.5979883662585
 21
-147.0245062531639
 31
0.0
  0
LINE
  5
E1
330
A6
100
AcDbEntity
  8
レイヤー 1
 62
   250
420
  2299925
370
    25
100
AcDbLine
 10
124.1110874943228
 20
-146.6782901421391
 30
0.0
 11
123.5970902852138
 21
-147.0603484753771
 31
0.0
  0
LINE
  5
E2
330
A6
100
AcDbEntity
  8
レイヤー 1
 62
   250
420
  2299925
370
    25
100
AcDbLine
 10
110.1053867405269
 20
-146.1659862533784
 30
0.0
 11
110.1053867405269
 21
-151.4280195853966
 31
0.0
  0
LINE
  5
E3
330
A6
100
AcDbEntity
  8
レイヤー 1
 62
   250
420
  2299925
370
    25
100
AcDbLine
 10
123.5970902852138
 20
-147.0603484753771
 30
0.0
 11
123.1120208531445
 21
-146.6428006977037
 31
0.0
  0
LINE
  5
E4
330
A6
100
AcDbEntity
  8
レイヤー 1
 62
   250
420
  2299925
370
    25
100
AcDbLine
 10
124.5968272041528
 20
-147.0961554198126
 30
0.0
 11
124.1110874943228
 21
-146.6782901421391
 31
0.0
  0
LINE
  5
E5
330
A6
100
AcDbEntity
  8
レイヤー 1
 62
   250
420
  2299925
370
    25
100
AcDbLine
 10
129.5936067988966
 20
-147.2746256975458
 30
0.0
 11
129.1078670890666
 21
-146.8567251420945
 31
0.0
  0
LINE
  5
E6
330
A6
100
AcDbEntity
  8
レイヤー 1
 62
   250
420
  2299925
370
    25
100
AcDbLine
 10
125.1101541355012
 20
-146.7140970865752
 30
0.0
 11
124.5968272041528
 21
-147.0961554198126
 31
0.0
  0
LINE
  5
E7
330
A6
100
AcDbEntity
  8
レイヤー 1
 62
   250
420
  2299925
370
    25
100
AcDbLine
 10
125.595929123108
 20
-147.1316448642484
 30
0.0
 11
125.1101541355012
 21
-146.7140970865752
 31
0.0
  0
LINE
  5
E8
330
A6
100
AcDbEntity
  8
レイヤー 1
 62
   250
420
  2299925
370
    25
100
AcDbLine
 10
130.5926734400749
 20
-147.3101151419812
 30
0.0
 11
130.1076040080056
 21
-146.8925673643077
 31
0.0
  0
LINE
  5
E9
330
A6
100
AcDbEntity
  8
レイヤー 1
 62
   250
420
  2299925
370
    25
100
AcDbLine
 10
127.1089929733955
 20
-146.7854287532236
 30
0.0
 11
126.5949957642864
 21
-147.1671343086835
 31
0.0
  0
LINE
  5
EA
330
A6
100
AcDbEntity
  8
レイヤー 1
 62
   250
420
  2299925
370
    25
100
AcDbLine
 10
128.1087651701114
 20
-146.821235697659
 30
0.0
 11
127.5947679610023
 21
-147.2029765308974
 31
0.0
  0
LINE
  5
EB
330
A6
100
AcDbEntity
  8
レイヤー 1
 62
   250
420
  2299925
370
    25
100
AcDbLine
 10
127.5947679610023
 20
-147.2029765308974
 30
0.0
 11
127.1089929733955
 21
-146.7854287532236
 31
0.0
  0
LINE
  5
EC
330
A6
100
AcDbEntity
  8
レイヤー 1
 62
   250
420
  2299925
370
    25
100
AcDbLine
 10
131.1067059269608
 20
-146.9280568087436
 30
0.0
 11
130.5926734400749
 21
-147.3101151419812
 31
0.0
  0
LINE
  5
ED
330
A6
100
AcDbEntity
  8
レイヤー 1
 62
   250
420
  2299925
370
    25
100
AcDbLine
 10
126.5949957642864
 20
-147.1671343086835
 30
0.0
 11
126.1099263322171
 21
-146.7495865310104
 31
0.0
  0
LINE
  5
EE
330
A6
100
AcDbEntity
  8
レイヤー 1
 62
   250
420
  2299925
370
    25
100
AcDbLine
 10
129.1078670890666
 20
-146.8567251420945
 30
0.0
 11
128.5938346021807
 21
-147.2387834753325
 31
0.0
  0
LINE
  5
EF
330
A6
100
AcDbEntity
  8
レイヤー 1
 62
   250
420
  2299925
370
    25
100
AcDbLine
 10
128.5938346021807
 20
-147.2387834753325
 30
0.0
 11
128.1087651701114
 21
-146.821235697659
 31
0.0
  0
LINE
  5
F0
330
A6
100
AcDbEntity
  8
レイヤー 1
 62
   250
420
  2299925
370
    25
100
AcDbLine
 10
131.1067059269608
 20
-146.9280568087436
 30
0.0
 11
131.1067059269608
 21
-147.4282604197291
 31
0.0
  0
LINE
  5
F1
330
A6
100
AcDbEntity
  8
レイヤー 1
 62
   250
420
  2299925
370
    25
100
AcDbLine
 10
111.1051589372428
 20
-147.4282604197291
 30
0.0
 11
131.1067059269608
 21
-147.4282604197291
 31
0.0
  0
LINE
  5
F2
330
A6
100
AcDbEntity
  8
レイヤー 1
 62
   250
420
  2299925
370
    25
100
AcDbLine
 10
120.1134098185343
 20
-146.5356620866192
 30
0.0
 11
119.5993773316484
 21
-146.9177204198572
 31
0.0
  0
LINE
  5
F3
330
A6
100
AcDbEntity
  8
レイヤー 1
 62
   250
420
  2299925
370
    25
100
AcDbLine
 10
119.5993773316484
 20
-146.9177204198572
 30
0.0
 11
119.1143078995791
 21
-146.4998198644059
 31
0.0
  0
LINE
  5
F4
330
A6
100
AcDbEntity
  8
レイヤー 1
 62
   250
420
  2299925
370
    25
100
AcDbLine
 10
119.1143078995791
 20
-146.4998198644059
 30
0.0
 11
118.60031069047
 21
-146.8818781976439
 31
0.0
  0
LINE
  5
F5
330
A6
100
AcDbEntity
  8
レイヤー 1
 62
   250
420
  2299925
370
    25
100
AcDbLine
 10
118.60031069047
 20
-146.8818781976439
 30
0.0
 11
118.1152412584007
 21
-146.4643304199705
 31
0.0
  0
LINE
  5
F6
330
A6
100
AcDbEntity
  8
レイヤー 1
 62
   250
420
  2299925
370
    25
100
AcDbLine
 10
118.1152412584007
 20
-146.4643304199705
 30
0.0
 11
117.6012440492917
 21
-146.8460712532082
 31
0.0
  0
LINE
  5
F7
330
A6
100
AcDbEntity
  8
レイヤー 1
 62
   250
420
  2299925
370
    25
100
AcDbLine
 10
117.6012440492917
 20
-146.8460712532082
 30
0.0
 11
117.1154690616848
 21
-146.4285234755351
 31
0.0
  0
LINE
  5
F8
330
A6
100
AcDbEntity
  8
レイヤー 1
 62
   250
420
  2299925
370
    25
100
AcDbLine
 10
117.1154690616848
 20
-146.4285234755351
 30
0.0
 11
116.6014718525758
 21
-146.810229030995
 31
0.0
  0
LINE
  5
F9
330
A6
100
AcDbEntity
  8
レイヤー 1
 62
   250
420
  2299925
370
    25
100
AcDbLine
 10
116.6014718525758
 20
-146.810229030995
 30
0.0
 11
116.1164024205065
 21
-146.3926812533218
 31
0.0
  0
LINE
  5
FA
330
A6
100
AcDbEntity
  8
レイヤー 1
 62
   250
420
  2299925
370
    25
100
AcDbLine
 10
116.1164024205065
 20
-146.3926812533218
 30
0.0
 11
115.6023699336205
 21
-146.7747395865598
 31
0.0
  0
LINE
  5
FB
330
A6
100
AcDbEntity
  8
レイヤー 1
 62
   250
420
  2299925
370
    25
100
AcDbLine
 10
115.6023699336205
 20
-146.7747395865598
 30
0.0
 11
115.1166302237905
 21
-146.357191808886
 31
0.0
  0
LINE
  5
FC
330
A6
100
AcDbEntity
  8
レイヤー 1
 62
   250
420
  2299925
370
    25
100
AcDbLine
 10
115.1166302237905
 20
-146.357191808886
 30
0.0
 11
114.6026330146815
 21
-146.739250142124
 31
0.0
  0
LINE
  5
FD
330
A6
100
AcDbEntity
  8
レイヤー 1
 62
   250
420
  2299925
370
    25
100
AcDbLine
 10
114.6026330146815
 20
-146.739250142124
 30
0.0
 11
114.1175635826122
 21
-146.3213495866727
 31
0.0
  0
LINE
  5
FE
330
A6
100
AcDbEntity
  8
レイヤー 1
 62
   250
420
  2299925
370
    25
100
AcDbLine
 10
114.1175635826122
 20
-146.3213495866727
 30
0.0
 11
113.6035310957263
 21
-146.7034431976886
 31
0.0
  0
LINE
  5
FF
330
A6
100
AcDbEntity
  8
レイヤー 1
 62
   250
420
  2299925
370
    25
100
AcDbLine
 10
113.6035310957263
 20
-146.7034431976886
 30
0.0
 11
113.118461663657
 21
-146.2858954200151
 31
0.0
  0
LINE
  5
100
330
A6
100
AcDbEntity
  8
レイヤー 1
 62
   250
420
  2299925
370
    25
100
AcDbLine
 10
113.118461663657
 20
-146.2858954200151
 30
0.0
 11
112.6044644545479
 21
-146.6676009754753
 31
0.0
  0
LINE
  5
101
330
A6
100
AcDbEntity
  8
レイヤー 1
 62
   250
420
  2299925
370
    25
100
AcDbLine
 10
112.6044644545479
 20
-146.6676009754753
 30
0.0
 11
112.1186894669411
 21
-146.2500531978019
 31
0.0
  0
LINE
  5
102
330
A6
100
AcDbEntity
  8
レイヤー 1
 62
   250
420
  2299925
370
    25
100
AcDbLine
 10
112.1186894669411
 20
-146.2500531978019
 30
0.0
 11
111.604692257832
 21
-146.6317587532621
 31
0.0
  0
LINE
  5
103
330
A6
100
AcDbEntity
  8
レイヤー 1
 62
   250
420
  2299925
370
    25
100
AcDbLine
 10
111.604692257832
 20
-146.6317587532621
 30
0.0
 11
111.1196228257627
 21
-146.2142109755886
 31
0.0
  0
LINE
  5
104
330
A6
100
AcDbEntity
  8
レイヤー 1
 62
   250
420
  2299925
370
    25
100
AcDbLine
 10
111.0456256165447
 20
-146.1659862533784
 30
0.0
 11
110.1053867405269
 21
-146.1659862533784
 31
0.0
  0
LINE
  5
105
330
A6
100
AcDbEntity
  8
レイヤー 1
 62
   250
420
  2299925
370
    25
100
AcDbLine
 10
111.1051589372428
 20
-147.4282604197291
 30
0.0
 11
111.1051589372428
 21
-152.4281445851463
 31
0.0
  0
SPLINE
  5
106
330
A6
100
AcDbEntity
  8
レイヤー 1
 62
   250
420
  2299925
370
     9
100
AcDbSpline
210
0.0
220
0.0
230
1.0
 70
     9
 71
     3
 72
    17
 73
    13
 74
     0
 42
0.0000000001
 43
0.0000000001
 40
0.0
 40
0.0
 40
0.0
 40
0.0
 40
1.0
 40
1.0
 40
1.0
 40
2.0
 40
2.0
 40
2.0
 40
3.0
 40
3.0
 40
3.0
 40
4.0
 40
4.0
 40
4.0
 40
4.0
 10
80.20445311199617
 20
-142.1662270877116
 30
0.0
 10
80.20445311199617
 20
-142.1107704210589
 30
0.0
 10
80.15965033536142
 20
-142.0659676432921
 30
0.0
 10
80.10454644787834
 20
-142.0659676432921
 30
0.0
 10
80.04940728261871
 20
-142.0659676432921
 30
0.0
 10
80.00460450598364
 20
-142.1107704210589
 30
0.0
 10
80.00460450598364
 20
-142.1662270877116
 30
0.0
 10
80.00460450598364
 20
-142.2213662543646
 30
0.0
 10
80.04940728261871
 20
-142.2661337543535
 30
0.0
 10
80.10454644787834
 20
-142.2661337543535
 30
0.0
 10
80.15965033536142
 20
-142.2661337543535
 30
0.0
 10
80.20445311199617
 20
-142.2213662543646
 30
0.0
 10
80.20445311199617
 20
-142.1662270877116
 30
0.0
  0
CIRCLE
  5
107
330
A6
100
AcDbEntity
  8
レイヤー 1
 62
   250
420
  2299925
370
     9
100
AcDbCircle
 10
77.87484983809597
 20
-146.9280568087436
 30
0.0
 40
0.0999066653796162
  0
CIRCLE
  5
108
330
A6
100
AcDbEntity
  8
レイヤー 1
 62
   250
420
  2299925
370
     9
100
AcDbCircle
 10
77.87484983809597
 20
-147.4282604197293
 30
0.0
 40
0.0999066653796563
  0
CIRCLE
  5
109
330
A6
100
AcDbEntity
  8
レイヤー 1
 62
   250
420
  2299925
370
     9
100
AcDbCircle
 10
77.87484983809597
 20
-152.4281445851463
 30
0.0
 40
0.0999066653797365
  0
SPLINE
  5
10A
330
A6
100
AcDbEntity
  8
レイヤー 1
 62
   250
420
  2299925
370
     9
100
AcDbSpline
210
0.0
220
0.0
230
1.0
 70
     9
 71
     3
 72
    17
 73
    13
 74
     0
 42
0.0000000001
 43
0.0000000001
 40
0.0
 40
0.0
 40
0.0
 40
0.0
 40
1.0
 40
1.0
 40
1.0
 40
2.0
 40
2.0
 40
2.0
 40
3.0
 40
3.0
 40
3.0
 40
4.0
 40
4.0
 40
4.0
 40
4.0
 10
101.2055635530145
 20
-142.1662270877116
 30
0.0
 10
101.2055635530145
 20
-142.1107704210589
 30
0.0
 10
101.1607931329109
 20
-142.0659676432921
 30
0.0
 10
101.105653967651
 20
-142.0659676432921
 30
0.0
 10
101.0498445246304
 20
-142.0659676432921
 30
0.0
 10
101.0050770257728
 20
-142.1107704210589
 30
0.0
 10
101.0050770257728
 20
-142.1662270877116
 30
0.0
 10
101.0050770257728
 20
-142.2213662543646
 30
0.0
 10
101.0498445246304
 20
-142.2661337543535
 30
0.0
 10
101.105653967651
 20
-142.2661337543535
 30
0.0
 10
101.1607931329109
 20
-142.2661337543535
 30
0.0
 10
101.2055635530145
 20
-142.2213662543646
 30
0.0
 10
101.2055635530145
 20
-142.1662270877116
 30
0.0
  0
SPLINE
  5
10B
330
A6
100
AcDbEntity
  8
レイヤー 1
 62
   250
420
  2299925
370
     9
100
AcDbSpline
210
0.0
220
0.0
230
1.0
 70
     9
 71
     3
 72
    17
 73
    13
 74
     0
 42
0.0000000001
 43
0.0000000001
 40
0.0
 40
0.0
 40
0.0
 40
0.0
 40
1.0
 40
1.0
 40
1.0
 40
2.0
 40
2.0
 40
2.0
 40
3.0
 40
3.0
 40
3.0
 40
4.0
 40
4.0
 40
4.0
 40
4.0
 10
131.2066162954763
 20
-142.1662270877116
 30
0.0
 10
131.2066162954763
 20
-142.1107704210589
 30
0.0
 10
131.1618135177096
 20
-142.0659676432921
 30
0.0
 10
131.1067059269608
 20
-142.0659676432921
 30
0.0
 10
131.0515667617009
 20
-142.0659676432921
 30
0.0
 10
131.006799262843
 20
-142.1107704210589
 30
0.0
 10
131.006799262843
 20
-142.1662270877116
 30
0.0
 10
131.006799262843
 20
-142.2213662543646
 30
0.0
 10
131.0515667617009
 20
-142.2661337543535
 30
0.0
 10
131.1067059269608
 20
-142.2661337543535
 30
0.0
 10
131.1618135177096
 20
-142.2661337543535
 30
0.0
 10
131.2066162954763
 20
-142.2213662543646
 30
0.0
 10
131.2066162954763
 20
-142.1662270877116
 30
0.0
  0
SPLINE
  5
10C
330
A6
100
AcDbEntity
  8
レイヤー 1
 62
   250
420
  2299925
370
     9
100
AcDbSpline
210
0.0
220
0.0
230
1.0
 70
     9
 71
     3
 72
    17
 73
    13
 74
     0
 42
0.0000000001
 43
0.0000000001
 40
0.0
 40
0.0
 40
0.0
 40
0.0
 40
1.0
 40
1.0
 40
1.0
 40
2.0
 40
2.0
 40
2.0
 40
3.0
 40
3.0
 40
3.0
 40
4.0
 40
4.0
 40
4.0
 40
4.0
 10
110.2052934046447
 20
-142.1662270877116
 30
0.0
 10
110.2052934046447
 20
-142.1107704210589
 30
0.0
 10
110.1605259057869
 20
-142.0659676432921
 30
0.0
 10
110.1053867405269
 20
-142.0659676432921
 30
0.0
 10
110.0502828530439
 20
-142.0659676432921
 30
0.0
 10
110.0054800764091
 20
-142.1107704210589
 30
0.0
 10
110.0054800764091
 20
-142.1662270877116
 30
0.0
 10
110.0054800764091
 20
-142.2213662543646
 30
0.0
 10
110.0502828530439
 20
-142.2661337543535
 30
0.0
 10
110.1053867405269
 20
-142.2661337543535
 30
0.0
 10
110.1605259057869
 20
-142.2661337543535
 30
0.0
 10
110.2052934046447
 20
-142.2213662543646
 30
0.0
 10
110.2052934046447
 20
-142.1662270877116
 30
0.0
  0
LINE
  5
10D
330
A6
100
AcDbEntity
  8
レイヤー 1
 62
   250
420
  2299925
370
     9
100
AcDbLine
 10
77.87484983809597
 20
-146.9280568087436
 30
0.0
 11
77.87484983809597
 21
-141.6705037545024
 31
0.0
  0
LINE
  5
10E
330
A6
100
AcDbEntity
  8
レイヤー 1
 62
   250
420
  2299925
370
     9
100
AcDbLine
 10
77.87484983809597
 20
-146.9280568087436
 30
0.0
 11
77.87484983809597
 21
-147.4282604197291
 31
0.0
  0
LINE
  5
10F
330
A6
100
AcDbEntity
  8
レイヤー 1
 62
   250
420
  2299925
370
     9
100
AcDbLine
 10
79.33489118973611
 20
-146.9280568087436
 30
0.0
 11
76.87511291915694
 21
-146.9280568087436
 31
0.0
  0
LINE
  5
110
330
A6
100
AcDbEntity
  8
レイヤー 1
 62
   250
420
  2299925
370
     9
100
AcDbLine
 10
79.33489118973611
 20
-147.4282604197291
 30
0.0
 11
76.87511291915694
 21
-147.4282604197291
 31
0.0
  0
INSERT
  5
112
330
A6
100
AcDbEntity
  8
レイヤー 1
100
AcDbBlockReference
  2
Block_4
 10
0.0
 20
0.0
 30
0.0
  0
LINE
  5
120
330
A6
100
AcDbEntity
  8
レイヤー 1
 62
   250
420
  2299925
370
     9
100
AcDbLine
 10
80.10454644787834
 20
-142.1662270877116
 30
0.0
 11
101.105653967651
 21
-142.1662270877116
 31
0.0
  0
LINE
  5
121
330
A6
100
AcDbEntity
  8
レイヤー 1
 62
   250
420
  2299925
370
     9
100
AcDbLine
 10
80.10454644787834
 20
-144.3883390316007
 30
0.0
 11
80.10454644787834
 21
-141.1661373657394
 31
0.0
  0
INSERT
  5
123
330
A6
100
AcDbEntity
  8
レイヤー 1
100
AcDbBlockReference
  2
Block_6
 10
0.0
 20
0.0
 30
0.0
  0
LINE
  5
12E
330
A6
100
AcDbEntity
  8
レイヤー 1
 62
   250
420
  2299925
370
     9
100
AcDbLine
 10
77.87484983809597
 20
-147.4282604197291
 30
0.0
 11
77.87484983809597
 21
-152.4281445851463
 31
0.0
  0
LINE
  5
12F
330
A6
100
AcDbEntity
  8
レイヤー 1
 62
   250
420
  2299925
370
     9
100
AcDbLine
 10
99.33626179056973
 20
-152.4281445851463
 30
0.0
 11
76.87511291915694
 21
-152.4281445851463
 31
0.0
  0
INSERT
  5
131
330
A6
100
AcDbEntity
  8
レイヤー 1
100
AcDbBlockReference
  2
Block_8
 10
0.0
 20
0.0
 30
0.0
  0
LINE
  5
136
330
A6
100
AcDbEntity
  8
レイヤー 1
 62
   250
420
  2299925
370
     9
100
AcDbLine
 10
131.1067059269608
 20
-142.1662270877116
 30
0.0
 11
110.1053867405269
 21
-142.1662270877116
 31
0.0
  0
LINE
  5
137
330
A6
100
AcDbEntity
  8
レイヤー 1
 62
   250
420
  2299925
370
     9
100
AcDbLine
 10
131.1067059269608
 20
-144.3883390316007
 30
0.0
 11
131.1067059269608
 21
-141.1661373657394
 31
0.0
  0
INSERT
  5
139
330
A6
100
AcDbEntity
  8
レイヤー 1
100
AcDbBlockReference
  2
Block_9
 10
0.0
 20
0.0
 30
0.0
  0
LINE
  5
144
330
A6
100
AcDbEntity
  8
レイヤー 1
 62
   250
420
  2299925
370
     9
100
AcDbLine
 10
101.105653967651
 20
-142.1662270877116
 30
0.0
 11
110.105386768342
 21
-142.1662270877116
 31
0.0
  0
LINE
  5
145
330
A6
100
AcDbEntity
  8
レイヤー 1
 62
   250
420
  2299925
370
     9
100
AcDbLine
 10
101.105653967651
 20
-143.6262684762356
 30
0.0
 11
101.105653967651
 21
-141.1661373657394
 31
0.0
  0
LINE
  5
146
330
A6
100
AcDbEntity
  8
レイヤー 1
 62
   250
420
  2299925
370
     9
100
AcDbLine
 10
110.1053867405269
 20
-143.6262684762356
 30
0.0
 11
110.1053867405269
 21
-141.1661373657394
 31
0.0
  0
INSERT
  5
148
330
A6
100
AcDbEntity
  8
レイヤー 1
100
AcDbBlockReference
  2
Block_11
 10
0.0
 20
0.0
 30
0.0
  0
SPLINE
  5
14E
330
A6
100
AcDbEntity
  8
レイヤー 1
 62
   250
420
  2299925
370
     9
100
AcDbSpline
210
0.0
220
0.0
230
1.0
 70
     9
 71
     3
 72
    17
 73
    13
 74
     0
 42
0.0000000001
 43
0.0000000001
 40
0.0
 40
0.0
 40
0.0
 40
0.0
 40
1.0
 40
1.0
 40
1.0
 40
2.0
 40
2.0
 40
2.0
 40
3.0
 40
3.0
 40
3.0
 40
4.0
 40
4.0
 40
4.0
 40
4.0
 10
100.3333580176582
 20
-156.5416040285619
 30
0.0
 10
100.3333580176582
 20
-156.4864648619094
 30
0.0
 10
100.288378480218
 20
-156.4416620841427
 30
0.0
 10
100.2329868365657
 20
-156.4416620841427
 30
0.0
 10
100.1783375551478
 20
-156.4416620841427
 30
0.0
 10
100.1333580177076
 20
-156.4864648619094
 30
0.0
 10
100.1333580177076
 20
-156.5416040285619
 30
0.0
 10
100.1333580177076
 20
-156.5967079174374
 30
0.0
 10
100.1783375551478
 20
-156.6415106952041
 30
0.0
 10
100.2329868365657
 20
-156.6415106952041
 30
0.0
 10
100.288378480218
 20
-156.6415106952041
 30
0.0
 10
100.3333580176582
 20
-156.5967079174374
 30
0.0
 10
100.3333580176582
 20
-156.5416040285619
 30
0.0
  0
HATCH
  5
14F
330
A6
100
AcDbEntity
  8
レイヤー 1
 62
   250
420
  2299925
440
 33554687
100
AcDbHatch
 10
0.0
 20
0.0
 30
0.0
210
0.0
220
0.0
230
1.0
  2
SOLID
 70
     1
 71
     1
 91
        1
 92
        1
 93
        1
 72
     4
 94
        3
 73
     0
 74
     0
 95
       17
 96
       13
 40
0.0
 40
0.0
 40
0.0
 40
0.0
 40
1.0
 40
1.0
 40
1.0
 40
2.0
 40
2.0
 40
2.0
 40
3.0
 40
3.0
 40
3.0
 40
4.0
 40
4.0
 40
4.0
 40
4.0
 10
100.3333580176582
 20
-156.5416040285619
 10
100.3333580176582
 20
-156.4864648619094
 10
100.288378480218
 20
-156.4416620841427
 10
100.2329868365657
 20
-156.4416620841427
 10
100.1783375551478
 20
-156.4416620841427
 10
100.1333580177076
 20
-156.4864648619094
 10
100.1333580177076
 20
-156.5416040285619
 10
100.1333580177076
 20
-156.5967079174374
 10
100.1783375551478
 20
-156.6415106952041
 10
100.2329868365657
 20
-156.6415106952041
 10
100.288378480218
 20
-156.6415106952041
 10
100.3333580176582
 20
-156.5967079174374
 10
100.3333580176582
 20
-156.5416040285619
 97
        0
 97
        1
330
14E
 75
     2
 76
     1
 98
        1
 10
0.0
 20
0.0
450
        0
451
        0
460
0.0
461
0.0
452
        0
462
0.0
453
        0
470

  0
SPLINE
  5
150
330
A6
100
AcDbEntity
  8
レイヤー 1
 62
   250
420
  2299925
370
     9
100
AcDbSpline
210
0.0
220
0.0
230
1.0
 70
     9
 71
     3
 72
    17
 73
    13
 74
     0
 42
0.0000000001
 43
0.0000000001
 40
0.0
 40
0.0
 40
0.0
 40
0.0
 40
1.0
 40
1.0
 40
1.0
 40
2.0
 40
2.0
 40
2.0
 40
3.0
 40
3.0
 40
3.0
 40
4.0
 40
4.0
 40
4.0
 40
4.0
 10
111.3760444884134
 20
-156.5416040285619
 30
0.0
 10
111.3760444884134
 20
-156.4864648619094
 30
0.0
 10
111.3314308607124
 20
-156.4416620841427
 30
0.0
 10
111.2764061176731
 20
-156.4416620841427
 30
0.0
 10
111.2206581161651
 20
-156.4416620841427
 30
0.0
 10
111.1760444884628
 20
-156.4864648619094
 30
0.0
 10
111.1760444884628
 20
-156.5416040285619
 30
0.0
 10
111.1760444884628
 20
-156.5967079174374
 30
0.0
 10
111.2206581161651
 20
-156.6415106952041
 30
0.0
 10
111.2764061176731
 20
-156.6415106952041
 30
0.0
 10
111.3314308607124
 20
-156.6415106952041
 30
0.0
 10
111.3760444884134
 20
-156.5967079174374
 30
0.0
 10
111.3760444884134
 20
-156.5416040285619
 30
0.0
  0
HATCH
  5
151
330
A6
100
AcDbEntity
  8
レイヤー 1
 62
   250
420
  2299925
440
 33554687
100
AcDbHatch
 10
0.0
 20
0.0
 30
0.0
210
0.0
220
0.0
230
1.0
  2
SOLID
 70
     1
 71
     1
 91
        1
 92
        1
 93
        1
 72
     4
 94
        3
 73
     0
 74
     0
 95
       17
 96
       13
 40
0.0
 40
0.0
 40
0.0
 40
0.0
 40
1.0
 40
1.0
 40
1.0
 40
2.0
 40
2.0
 40
2.0
 40
3.0
 40
3.0
 40
3.0
 40
4.0
 40
4.0
 40
4.0
 40
4.0
 10
111.3760444884134
 20
-156.5416040285619
 10
111.3760444884134
 20
-156.4864648619094
 10
111.3314308607124
 20
-156.4416620841427
 10
111.2764061176731
 20
-156.4416620841427
 10
111.2206581161651
 20
-156.4416620841427
 10
111.1760444884628
 20
-156.4864648619094
 10
111.1760444884628
 20
-156.5416040285619
 10
111.1760444884628
 20
-156.5967079174374
 10
111.2206581161651
 20
-156.6415106952041
 10
111.2764061176731
 20
-156.6415106952041
 10
111.3314308607124
 20
-156.6415106952041
 10
111.3760444884134
 20
-156.5967079174374
 10
111.3760444884134
 20
-156.5416040285619
 97
        0
 97
        1
330
150
 75
     2
 76
     1
 98
        1
 10
0.0
 20
0.0
450
        0
451
        0
460
0.0
461
0.0
452
        0
462
0.0
453
        0
470

  0
LINE
  5
152
330
A6
100
AcDbEntity
  8
レイヤー 1
 62
   250
420
  2299925
370
     9
100
AcDbLine
 10
111.2767147940145
 20
-156.5416040285619
 30
0.0
 11
100.2326701010338
 21
-156.5416040285619
 31
0.0
  0
LINE
  5
153
330
A6
100
AcDbEntity
  8
レイヤー 1
 62
   250
420
  2299925
370
     9
100
AcDbLine
 10
111.2767147661994
 20
-155.0815626400381
 30
0.0
 11
111.2767147661994
 21
-157.5416937505346
 31
0.0
  0
LINE
  5
154
330
A6
100
AcDbEntity
  8
レイヤー 1
 62
   250
420
  2299925
370
     9
100
AcDbLine
 10
100.2326701010338
 20
-155.0815626400381
 30
0.0
 11
100.2326701010338
 21
-157.5416937505346
 31
0.0
  0
INSERT
  5
156
330
A6
100
AcDbEntity
  8
レイヤー 1
100
AcDbBlockReference
  2
Block_12
 10
0.0
 20
0.0
 30
0.0
  0
LINE
  5
161
330
A6
100
AcDbEntity
  8
レイヤー 1
 62
   250
420
  2299925
370
     9
100
AcDbLine
 10
108.0817476254876
 20
-150.4561873634165
 30
0.0
 11
116.0819360324969
 21
-150.4561873634165
 31
0.0
  0
INSERT
  5
163
330
A6
100
AcDbEntity
  8
レイヤー 1
100
AcDbBlockReference
  2
Block_14
 10
0.0
 20
0.0
 30
0.0
  0
ENDBLK
  5
A9
330
A6
100
AcDbEntity
  8
0
100
AcDbBlockEnd
  0
BLOCK
  5
113
330
111
100
AcDbEntity
  8
0
100
AcDbBlockBegin
  2
Block_4
 70
     0
 10
0.0
 20
0.0
 30
0.0
  3
Block_4
  1

  0
INSERT
  5
116
330
111
100
AcDbEntity
  8
レイヤー 1
100
AcDbBlockReference
  2
Block_5
 10
0.0
 20
0.0
 30
0.0
  0
ENDBLK
  5
114
330
111
100
AcDbEntity
  8
0
100
AcDbBlockEnd
  0
BLOCK
  5
117
330
115
100
AcDbEntity
  8
0
100
AcDbBlockBegin
  2
Block_5
 70
     0
 10
0.0
 20
0.0
 30
0.0
  3
Block_5
  1

  0
SPLINE
  5
119
330
115
100
AcDbEntity
  8
レイヤー 1
100
AcDbSpline
210
0.0
220
0.0
230
1.0
 70
     9
 71
     3
 72
    17
 73
    13
 74
     0
 42
0.0000000001
 43
0.0000000001
 40
0.0
 40
0.0
 40
0.0
 40
0.0
 40
1.0
 40
1.0
 40
1.0
 40
2.0
 40
2.0
 40
2.0
 40
3.0
 40
3.0
 40
3.0
 40
4.0
 40
4.0
 40
4.0
 40
4.0
 10
75.03056231848194
 20
-148.0829508093334
 30
0.0
 10
75.03056231848194
 20
-148.332720232014
 30
0.0
 10
75.31392142214375
 20
-148.3792290210649
 30
0.0
 10
75.65877548021726
 20
-148.3792290210649
 30
0.0
 10
75.97830808647417
 20
-148.3792290210649
 30
0.0
 10
76.28716089672682
 20
-148.3430555184698
 30
0.0
 10
76.28716089672682
 20
-148.0829508093334
 30
0.0
 10
76.28716089672682
 20
-147.8352484439439
 30
0.0
 10
76.00569659558191
 20
-147.7866725976019
 30
0.0
 10
75.65877548021726
 20
-147.7866725976019
 30
0.0
 10
75.3394151287346
 20
-147.7866725976019
 30
0.0
 10
75.03056231848194
 20
-147.8249131574882
 30
0.0
 10
75.03056231848194
 20
-148.0829508093334
 30
0.0
  0
SPLINE
  5
11A
330
115
100
AcDbEntity
  8
レイヤー 1
100
AcDbSpline
210
0.0
220
0.0
230
1.0
 70
     9
 71
     3
 72
    29
 73
    25
 74
     0
 42
0.0000000001
 43
0.0000000001
 40
0.0
 40
0.0
 40
0.0
 40
0.0
 40
1.0
 40
1.0
 40
1.0
 40
2.0
 40
2.0
 40
2.0
 40
3.0
 40
3.0
 40
3.0
 40
4.0
 40
4.0
 40
4.0
 40
5.0
 40
5.0
 40
5.0
 40
6.0
 40
6.0
 40
6.0
 40
7.0
 40
7.0
 40
7.0
 40
8.0
 40
8.0
 40
8.0
 40
8.0
 10
76.25322670619711
 20
-147.6850422807871
 30
0.0
 10
76.46268851170031
 20
-147.7932182790239
 30
0.0
 10
76.48180879164344
 20
-147.966506581932
 30
0.0
 10
76.48180879164344
 20
-148.0829508093334
 30
0.0
 10
76.48180879164344
 20
-148.2438367684946
 30
0.0
 10
76.43530000259257
 20
-148.3854301929383
 30
0.0
 10
76.25322670619711
 20
-148.4805148283313
 30
0.0
 10
76.05875106605475
 20
-148.5842122024373
 30
0.0
 10
75.82172849666957
 20
-148.6035047371547
 30
0.0
 10
75.65877548021726
 20
-148.6035047371547
 30
0.0
 10
75.51494274370807
 20
-148.6035047371547
 30
0.0
 10
75.26327851851057
 20
-148.5862792597284
 30
0.0
 10
75.06432425423739
 20
-148.4805148283313
 30
0.0
 10
74.86123587538192
 20
-148.3726833396429
 30
0.0
 10
74.83798148085648
 20
-148.2117973804817
 30
0.0
 10
74.83798148085648
 20
-148.0829508093334
 30
0.0
 10
74.83798148085648
 20
-147.9241319074634
 30
0.0
 10
74.8824232126162
 20
-147.7804714257285
 30
0.0
 10
75.06432425423739
 20
-147.6850422807871
 30
0.0
 10
75.25690509186286
 20
-147.5858235308119
 30
0.0
 10
75.48531492253492
 20
-147.5623968815122
 30
0.0
 10
75.65877548021726
 20
-147.5623968815122
 30
0.0
 10
75.83016898060844
 20
-147.5623968815122
 30
0.0
 10
76.06081812334591
 20
-147.5837564735207
 30
0.0
 10
76.25322670619711
 20
-147.6850422807871
 30
0.0
  0
HATCH
  5
11B
330
115
100
AcDbEntity
  8
レイヤー 1
 62
   250
420
  2299925
440
 33554687
100
AcDbHatch
 10
0.0
 20
0.0
 30
0.0
210
0.0
220
0.0
230
1.0
  2
SOLID
 70
     1
 71
     1
 91
        2
 92
        1
 93
        1
 72
     4
 94
        3
 73
     0
 74
     0
 95
       17
 96
       13
 40
0.0
 40
0.0
 40
0.0
 40
0.0
 40
1.0
 40
1.0
 40
1.0
 40
2.0
 40
2.0
 40
2.0
 40
3.0
 40
3.0
 40
3.0
 40
4.0
 40
4.0
 40
4.0
 40
4.0
 10
75.03056231848194
 20
-148.0829508093334
 10
75.03056231848194
 20
-148.332720232014
 10
75.31392142214375
 20
-148.3792290210649
 10
75.65877548021726
 20
-148.3792290210649
 10
75.97830808647417
 20
-148.3792290210649
 10
76.28716089672682
 20
-148.3430555184698
 10
76.28716089672682
 20
-148.0829508093334
 10
76.28716089672682
 20
-147.8352484439439
 10
76.00569659558191
 20
-147.7866725976019
 10
75.65877548021726
 20
-147.7866725976019
 10
75.3394151287346
 20
-147.7866725976019
 10
75.03056231848194
 20
-147.8249131574882
 10
75.03056231848194
 20
-148.0829508093334
 97
        0
 97
        1
330
119
 92
        1
 93
        1
 72
     4
 94
        3
 73
     0
 74
     0
 95
       29
 96
       25
 40
0.0
 40
0.0
 40
0.0
 40
0.0
 40
1.0
 40
1.0
 40
1.0
 40
2.0
 40
2.0
 40
2.0
 40
3.0
 40
3.0
 40
3.0
 40
4.0
 40
4.0
 40
4.0
 40
5.0
 40
5.0
 40
5.0
 40
6.0
 40
6.0
 40
6.0
 40
7.0
 40
7.0
 40
7.0
 40
8.0
 40
8.0
 40
8.0
 40
8.0
 10
76.25322670619711
 20
-147.6850422807871
 10
76.46268851170031
 20
-147.7932182790239
 10
76.48180879164344
 20
-147.966506581932
 10
76.48180879164344
 20
-148.0829508093334
 10
76.48180879164344
 20
-148.2438367684946
 10
76.43530000259257
 20
-148.3854301929383
 10
76.25322670619711
 20
-148.4805148283313
 10
76.05875106605475
 20
-148.5842122024373
 10
75.82172849666957
 20
-148.6035047371547
 10
75.65877548021726
 20
-148.6035047371547
 10
75.51494274370807
 20
-148.6035047371547
 10
75.26327851851057
 20
-148.5862792597284
 10
75.06432425423739
 20
-148.4805148283313
 10
74.86123587538192
 20
-148.3726833396429
 10
74.83798148085648
 20
-148.2117973804817
 10
74.83798148085648
 20
-148.0829508093334
 10
74.83798148085648
 20
-147.9241319074634
 10
74.8824232126162
 20
-147.7804714257285
 10
75.06432425423739
 20
-147.6850422807871
 10
75.25690509186286
 20
-147.5858235308119
 10
75.48531492253492
 20
-147.5623968815122
 10
75.65877548021726
 20
-147.5623968815122
 10
75.83016898060844
 20
-147.5623968815122
 10
76.06081812334591
 20
-147.5837564735207
 10
76.25322670619711
 20
-147.6850422807871
 97
        0
 97
        1
330
11A
 75
     2
 76
     1
 98
        1
 10
0.0
 20
0.0
450
        0
451
        0
460
0.0
461
0.0
452
        0
462
0.0
453
        0
470

  0
SPLINE
  5
11C
330
115
100
AcDbEntity
  8
レイヤー 1
100
AcDbSpline
210
0.0
220
0.0
230
1.0
 70
    11
 71
     3
 72
    17
 73
    13
 74
     0
 42
0.0000000001
 43
0.0000000001
 40
0.0
 40
0.0
 40
0.0
 40
0.0
 40
1.0
 40
1.0
 40
1.0
 40
2.0
 40
2.0
 40
2.0
 40
3.0
 40
3.0
 40
3.0
 40
4.0
 40
4.0
 40
4.0
 40
4.0
 10
76.43099363323599
 20
-147.3460448850385
 30
0.0
 10
76.43099363323599
 20
-147.3460448850385
 30
0.0
 10
76.1793294080385
 20
-147.3460448850385
 30
0.0
 10
76.1793294080385
 20
-147.3460448850385
 30
0.0
 10
76.1793294080385
 20
-147.3460448850385
 30
0.0
 10
76.1793294080385
 20
-147.0942084050667
 30
0.0
 10
76.1793294080385
 20
-147.0942084050667
 30
0.0
 10
76.1793294080385
 20
-147.0942084050667
 30
0.0
 10
76.43099363323599
 20
-147.0942084050667
 30
0.0
 10
76.43099363323599
 20
-147.0942084050667
 30
0.0
 10
76.43099363323599
 20
-147.0942084050667
 30
0.0
 10
76.43099363323599
 20
-147.3460448850385
 30
0.0
 10
76.43099363323599
 20
-147.3460448850385
 30
0.0
  0
HATCH
  5
11D
330
115
100
AcDbEntity
  8
レイヤー 1
 62
   250
420
  2299925
440
 33554687
100
AcDbHatch
 10
0.0
 20
0.0
 30
0.0
210
0.0
220
0.0
230
1.0
  2
SOLID
 70
     1
 71
     1
 91
        1
 92
        1
 93
        1
 72
     4
 94
        3
 73
     0
 74
     0
 95
       17
 96
       13
 40
0.0
 40
0.0
 40
0.0
 40
0.0
 40
1.0
 40
1.0
 40
1.0
 40
2.0
 40
2.0
 40
2.0
 40
3.0
 40
3.0
 40
3.0
 40
4.0
 40
4.0
 40
4.0
 40
4.0
 10
76.43099363323599
 20
-147.3460448850385
 10
76.43099363323599
 20
-147.3460448850385
 10
76.1793294080385
 20
-147.3460448850385
 10
76.1793294080385
 20
-147.3460448850385
 10
76.1793294080385
 20
-147.3460448850385
 10
76.1793294080385
 20
-147.0942084050667
 10
76.1793294080385
 20
-147.0942084050667
 10
76.1793294080385
 20
-147.0942084050667
 10
76.43099363323599
 20
-147.0942084050667
 10
76.43099363323599
 20
-147.0942084050667
 10
76.43099363323599
 20
-147.0942084050667
 10
76.43099363323599
 20
-147.3460448850385
 10
76.43099363323599
 20
-147.3460448850385
 97
        0
 97
        1
330
11C
 75
     2
 76
     1
 98
        1
 10
0.0
 20
0.0
450
        0
451
        0
460
0.0
461
0.0
452
        0
462
0.0
453
        0
470

  0
SPLINE
  5
11E
330
115
100
AcDbEntity
  8
レイヤー 1
100
AcDbSpline
210
0.0
220
0.0
230
1.0
 70
     9
 71
     3
 72
    53
 73
    49
 74
     0
 42
0.0000000001
 43
0.0000000001
 40
0.0
 40
0.0
 40
0.0
 40
0.0
 40
1.0
 40
1.0
 40
1.0
 40
2.0
 40
2.0
 40
2.0
 40
3.0
 40
3.0
 40
3.0
 40
4.0
 40
4.0
 40
4.0
 40
5.0
 40
5.0
 40
5.0
 40
6.0
 40
6.0
 40
6.0
 40
7.0
 40
7.0
 40
7.0
 40
8.0
 40
8.0
 40
8.0
 40
9.0
 40
9.0
 40
9.0
 40
10.0
 40
10.0
 40
10.0
 40
11.0
 40
11.0
 40
11.0
 40
12.0
 40
12.0
 40
12.0
 40
13.0
 40
13.0
 40
13.0
 40
14.0
 40
14.0
 40
14.0
 40
15.0
 40
15.0
 40
15.0
 40
16.0
 40
16.0
 40
16.0
 40
16.0
 10
76.48180879164344
 20
-146.3769395250377
 30
0.0
 10
76.48180879164344
 20
-146.4551431925529
 30
0.0
 10
76.46492782376572
 20
-146.5567735093677
 30
0.0
 10
76.40136581206286
 20
-146.6584038261826
 30
0.0
 10
76.29129501130913
 20
-146.8316921290907
 30
0.0
 10
76.16020912809537
 20
-146.8530517210992
 30
0.0
 10
76.05237763940704
 20
-146.8719997462681
 30
0.0
 10
76.05237763940704
 20
-146.8719997462681
 30
0.0
 10
76.05237763940704
 20
-146.6497910874695
 30
0.0
 10
76.05237763940704
 20
-146.6497910874695
 30
0.0
 10
76.25115964890596
 20
-146.595014069254
 30
0.0
 10
76.28078747007911
 20
-146.4678900458483
 30
0.0
 10
76.28078747007911
 20
-146.3748724677465
 30
0.0
 10
76.28078747007911
 20
-146.2353461005939
 30
0.0
 10
76.18139646532966
 20
-146.0830728801459
 30
0.0
 10
75.94868026530102
 20
-146.0830728801459
 30
0.0
 10
75.69270967074697
 20
-146.0830728801459
 30
0.0
 10
75.62294648717065
 20
-146.2629068644759
 30
0.0
 10
75.62294648717065
 20
-146.3834852064596
 30
0.0
 10
75.62294648717065
 20
-146.415180084924
 30
0.0
 10
75.62294648717065
 20
-146.5567735093677
 30
0.0
 10
75.75196531309327
 20
-146.6456569728872
 30
0.0
 10
75.75196531309327
 20
-146.6456569728872
 30
0.0
 10
75.73284503315012
 20
-146.8213568426349
 30
0.0
 10
75.73284503315012
 20
-146.8213568426349
 30
0.0
 10
75.73284503315012
 20
-146.8213568426349
 30
0.0
 10
74.88672958197276
 20
-146.7007785006512
 30
0.0
 10
74.88672958197276
 20
-146.7007785006512
 30
0.0
 10
74.88672958197276
 20
-146.7007785006512
 30
0.0
 10
74.88672958197276
 20
-145.9221869209847
 30
0.0
 10
74.88672958197276
 20
-145.9221869209847
 30
0.0
 10
74.88672958197276
 20
-145.9221869209847
 30
0.0
 10
75.08137747688938
 20
-145.9221869209847
 30
0.0
 10
75.08137747688938
 20
-145.9221869209847
 30
0.0
 10
75.08137747688938
 20
-145.9221869209847
 30
0.0
 10
75.08137747688938
 20
-146.5378254841989
 30
0.0
 10
75.08137747688938
 20
-146.5378254841989
 30
0.0
 10
75.08137747688938
 20
-146.5378254841989
 30
0.0
 10
75.50443520247807
 20
-146.6032822984186
 30
0.0
 10
75.50443520247807
 20
-146.6032822984186
 30
0.0
 10
75.47050101194836
 20
-146.5419595987811
 30
0.0
 10
75.43036564954519
 20
-146.4596218166837
 30
0.0
 10
75.43036564954519
 20
-146.3411105319911
 30
0.0
 10
75.43036564954519
 20
-146.0872069947282
 30
0.0
 10
75.61657306052294
 20
-145.850184425343
 30
0.0
 10
75.92955998535789
 20
-145.850184425343
 30
0.0
 10
76.24702553432367
 20
-145.850184425343
 30
0.0
 10
76.48180879164344
 20
-146.0744601414328
 30
0.0
 10
76.48180879164344
 20
-146.3769395250377
 30
0.0
  0
HATCH
  5
11F
330
115
100
AcDbEntity
  8
レイヤー 1
 62
   250
420
  2299925
440
 33554687
100
AcDbHatch
 10
0.0
 20
0.0
 30
0.0
210
0.0
220
0.0
230
1.0
  2
SOLID
 70
     1
 71
     1
 91
        1
 92
        1
 93
        1
 72
     4
 94
        3
 73
     0
 74
     0
 95
       53
 96
       49
 40
0.0
 40
0.0
 40
0.0
 40
0.0
 40
1.0
 40
1.0
 40
1.0
 40
2.0
 40
2.0
 40
2.0
 40
3.0
 40
3.0
 40
3.0
 40
4.0
 40
4.0
 40
4.0
 40
5.0
 40
5.0
 40
5.0
 40
6.0
 40
6.0
 40
6.0
 40
7.0
 40
7.0
 40
7.0
 40
8.0
 40
8.0
 40
8.0
 40
9.0
 40
9.0
 40
9.0
 40
10.0
 40
10.0
 40
10.0
 40
11.0
 40
11.0
 40
11.0
 40
12.0
 40
12.0
 40
12.0
 40
13.0
 40
13.0
 40
13.0
 40
14.0
 40
14.0
 40
14.0
 40
15.0
 40
15.0
 40
15.0
 40
16.0
 40
16.0
 40
16.0
 40
16.0
 10
76.48180879164344
 20
-146.3769395250377
 10
76.48180879164344
 20
-146.4551431925529
 10
76.46492782376572
 20
-146.5567735093677
 10
76.40136581206286
 20
-146.6584038261826
 10
76.29129501130913
 20
-146.8316921290907
 10
76.16020912809537
 20
-146.8530517210992
 10
76.05237763940704
 20
-146.8719997462681
 10
76.05237763940704
 20
-146.8719997462681
 10
76.05237763940704
 20
-146.6497910874695
 10
76.05237763940704
 20
-146.6497910874695
 10
76.25115964890596
 20
-146.595014069254
 10
76.28078747007911
 20
-146.4678900458483
 10
76.28078747007911
 20
-146.3748724677465
 10
76.28078747007911
 20
-146.2353461005939
 10
76.18139646532966
 20
-146.0830728801459
 10
75.94868026530102
 20
-146.0830728801459
 10
75.69270967074697
 20
-146.0830728801459
 10
75.62294648717065
 20
-146.2629068644759
 10
75.62294648717065
 20
-146.3834852064596
 10
75.62294648717065
 20
-146.415180084924
 10
75.62294648717065
 20
-146.5567735093677
 10
75.75196531309327
 20
-146.6456569728872
 10
75.75196531309327
 20
-146.6456569728872
 10
75.73284503315012
 20
-146.8213568426349
 10
75.73284503315012
 20
-146.8213568426349
 10
75.73284503315012
 20
-146.8213568426349
 10
74.88672958197276
 20
-146.7007785006512
 10
74.88672958197276
 20
-146.7007785006512
 10
74.88672958197276
 20
-146.7007785006512
 10
74.88672958197276
 20
-145.9221869209847
 10
74.88672958197276
 20
-145.9221869209847
 10
74.88672958197276
 20
-145.9221869209847
 10
75.08137747688938
 20
-145.9221869209847
 10
75.08137747688938
 20
-145.9221869209847
 10
75.08137747688938
 20
-145.9221869209847
 10
75.08137747688938
 20
-146.5378254841989
 10
75.08137747688938
 20
-146.5378254841989
 10
75.08137747688938
 20
-146.5378254841989
 10
75.50443520247807
 20
-146.6032822984186
 10
75.50443520247807
 20
-146.6032822984186
 10
75.47050101194836
 20
-146.5419595987811
 10
75.43036564954519
 20
-146.4596218166837
 10
75.43036564954519
 20
-146.3411105319911
 10
75.43036564954519
 20
-146.0872069947282
 10
75.61657306052294
 20
-145.850184425343
 10
75.92955998535789
 20
-145.850184425343
 10
76.24702553432367
 20
-145.850184425343
 10
76.48180879164344
 20
-146.0744601414328
 10
76.48180879164344
 20
-146.3769395250377
 97
        0
 97
        1
330
11E
 75
     2
 76
     1
 98
        1
 10
0.0
 20
0.0
450
        0
451
        0
460
0.0
461
0.0
452
        0
462
0.0
453
        0
470

  0
ENDBLK
  5
118
330
115
100
AcDbEntity
  8
0
100
AcDbBlockEnd
  0
BLOCK
  5
124
330
122
100
AcDbEntity
  8
0
100
AcDbBlockBegin
  2
Block_6
 70
     0
 10
0.0
 20
0.0
 30
0.0
  3
Block_6
  1

  0
INSERT
  5
127
330
122
100
AcDbEntity
  8
レイヤー 1
100
AcDbBlockReference
  2
Block_7
 10
0.0
 20
0.0
 30
0.0
  0
ENDBLK
  5
125
330
122
100
AcDbEntity
  8
0
100
AcDbBlockEnd
  0
BLOCK
  5
128
330
126
100
AcDbEntity
  8
0
100
AcDbBlockBegin
  2
Block_7
 70
     0
 10
0.0
 20
0.0
 30
0.0
  3
Block_7
  1

  0
SPLINE
  5
12A
330
126
100
AcDbEntity
  8
レイヤー 1
100
AcDbSpline
210
0.0
220
0.0
230
1.0
 70
     9
 71
     3
 72
    44
 73
    40
 74
     0
 42
0.0000000001
 43
0.0000000001
 40
0.0
 40
0.0
 40
0.0
 40
0.0
 40
1.0
 40
1.0
 40
1.0
 40
2.0
 40
2.0
 40
2.0
 40
3.0
 40
3.0
 40
3.0
 40
4.0
 40
4.0
 40
4.0
 40
5.0
 40
5.0
 40
5.0
 40
6.0
 40
6.0
 40
6.0
 40
7.0
 40
7.0
 40
7.0
 40
8.0
 40
8.0
 40
8.0
 40
9.0
 40
9.0
 40
9.0
 40
10.0
 40
10.0
 40
10.0
 40
11.0
 40
11.0
 40
11.0
 40
12.0
 40
12.0
 40
12.0
 40
13.0
 40
13.0
 40
13.0
 40
13.0
 10
90.03378090197072
 20
-140.8706434109629
 30
0.0
 10
89.81587861252867
 20
-141.0292900580586
 30
0.0
 10
89.72268877965268
 20
-141.1033596109915
 30
0.0
 10
89.67411293331064
 20
-141.2471923475007
 30
0.0
 10
89.67411293331064
 20
-141.2471923475007
 30
0.0
 10
90.45253225820284
 20
-141.2471923475007
 30
0.0
 10
90.45253225820284
 20
-141.2471923475007
 30
0.0
 10
90.45253225820284
 20
-141.2471923475007
 30
0.0
 10
90.45253225820284
 20
-141.4523477836473
 30
0.0
 10
90.45253225820284
 20
-141.4523477836473
 30
0.0
 10
90.45253225820284
 20
-141.4523477836473
 30
0.0
 10
89.42451576540429
 20
-141.4523477836473
 30
0.0
 10
89.42451576540429
 20
-141.4523477836473
 30
0.0
 10
89.45621064386859
 20
-141.0947468722784
 30
0.0
 10
89.5218397128626
 20
-141.0165432047632
 30
0.0
 10
89.90682913333927
 20
-140.7181979357406
 30
0.0
 10
90.16279972789332
 20
-140.5194159262417
 30
0.0
 10
90.22825654211308
 20
-140.4517197999565
 30
0.0
 10
90.22825654211308
 20
-140.314260490095
 30
0.0
 10
90.22825654211308
 20
-140.1957492054024
 30
0.0
 10
90.15642630124562
 20
-140.0644910674144
 30
0.0
 10
89.95971134903786
 20
-140.0644910674144
 30
0.0
 10
89.69943438512723
 20
-140.0644910674144
 30
0.0
 10
89.69099390118836
 20
-140.2951402101519
 30
0.0
 10
89.6866875318318
 20
-140.4115844375533
 30
0.0
 10
89.6866875318318
 20
-140.4115844375533
 30
0.0
 10
89.4625840705163
 20
-140.4115844375533
 30
0.0
 10
89.4625840705163
 20
-140.4115844375533
 30
0.0
 10
89.47102455445516
 20
-140.2846326689219
 30
0.0
 10
89.48153209568518
 20
-140.172494810877
 30
0.0
 10
89.56197507526576
 20
-140.0539835261844
 30
0.0
 10
89.67187362124523
 20
-139.8932698217975
 30
0.0
 10
89.85808103222298
 20
-139.8593356312678
 30
0.0
 10
89.97452525962442
 20
-139.8593356312678
 30
0.0
 10
90.25168319141277
 20
-139.8593356312678
 30
0.0
 10
90.45890568485054
 20
-140.0434759849544
 30
0.0
 10
90.45890568485054
 20
-140.3163275473862
 30
0.0
 10
90.45890568485054
 20
-140.5447373780583
 30
0.0
 10
90.34263371222337
 20
-140.644300637582
 30
0.0
 10
90.03378090197072
 20
-140.8706434109629
 30
0.0
  0
HATCH
  5
12B
330
126
100
AcDbEntity
  8
レイヤー 1
 62
   250
420
  2299925
440
 33554687
100
AcDbHatch
 10
0.0
 20
0.0
 30
0.0
210
0.0
220
0.0
230
1.0
  2
SOLID
 70
     1
 71
     1
 91
        1
 92
        1
 93
        1
 72
     4
 94
        3
 73
     0
 74
     0
 95
       44
 96
       40
 40
0.0
 40
0.0
 40
0.0
 40
0.0
 40
1.0
 40
1.0
 40
1.0
 40
2.0
 40
2.0
 40
2.0
 40
3.0
 40
3.0
 40
3.0
 40
4.0
 40
4.0
 40
4.0
 40
5.0
 40
5.0
 40
5.0
 40
6.0
 40
6.0
 40
6.0
 40
7.0
 40
7.0
 40
7.0
 40
8.0
 40
8.0
 40
8.0
 40
9.0
 40
9.0
 40
9.0
 40
10.0
 40
10.0
 40
10.0
 40
11.0
 40
11.0
 40
11.0
 40
12.0
 40
12.0
 40
12.0
 40
13.0
 40
13.0
 40
13.0
 40
13.0
 10
90.03378090197072
 20
-140.8706434109629
 10
89.81587861252867
 20
-141.0292900580586
 10
89.72268877965268
 20
-141.1033596109915
 10
89.67411293331064
 20
-141.2471923475007
 10
89.67411293331064
 20
-141.2471923475007
 10
90.45253225820284
 20
-141.2471923475007
 10
90.45253225820284
 20
-141.2471923475007
 10
90.45253225820284
 20
-141.2471923475007
 10
90.45253225820284
 20
-141.4523477836473
 10
90.45253225820284
 20
-141.4523477836473
 10
90.45253225820284
 20
-141.4523477836473
 10
89.42451576540429
 20
-141.4523477836473
 10
89.42451576540429
 20
-141.4523477836473
 10
89.45621064386859
 20
-141.0947468722784
 10
89.5218397128626
 20
-141.0165432047632
 10
89.90682913333927
 20
-140.7181979357406
 10
90.16279972789332
 20
-140.5194159262417
 10
90.22825654211308
 20
-140.4517197999565
 10
90.22825654211308
 20
-140.314260490095
 10
90.22825654211308
 20
-140.1957492054024
 10
90.15642630124562
 20
-140.0644910674144
 10
89.95971134903786
 20
-140.0644910674144
 10
89.69943438512723
 20
-140.0644910674144
 10
89.69099390118836
 20
-140.2951402101519
 10
89.6866875318318
 20
-140.4115844375533
 10
89.6866875318318
 20
-140.4115844375533
 10
89.4625840705163
 20
-140.4115844375533
 10
89.4625840705163
 20
-140.4115844375533
 10
89.47102455445516
 20
-140.2846326689219
 10
89.48153209568518
 20
-140.172494810877
 10
89.56197507526576
 20
-140.0539835261844
 10
89.67187362124523
 20
-139.8932698217975
 10
89.85808103222298
 20
-139.8593356312678
 10
89.97452525962442
 20
-139.8593356312678
 10
90.25168319141277
 20
-139.8593356312678
 10
90.45890568485054
 20
-140.0434759849544
 10
90.45890568485054
 20
-140.3163275473862
 10
90.45890568485054
 20
-140.5447373780583
 10
90.34263371222337
 20
-140.644300637582
 10
90.03378090197072
 20
-140.8706434109629
 97
        0
 97
        1
330
12A
 75
     2
 76
     1
 98
        1
 10
0.0
 20
0.0
450
        0
451
        0
460
0.0
461
0.0
452
        0
462
0.0
453
        0
470

  0
SPLINE
  5
12C
330
126
100
AcDbEntity
  8
レイヤー 1
100
AcDbSpline
210
0.0
220
0.0
230
1.0
 70
    11
 71
     3
 72
    26
 73
    22
 74
     0
 42
0.0000000001
 43
0.0000000001
 40
0.0
 40
0.0
 40
0.0
 40
0.0
 40
1.0
 40
1.0
 40
1.0
 40
2.0
 40
2.0
 40
2.0
 40
3.0
 40
3.0
 40
3.0
 40
4.0
 40
4.0
 40
4.0
 40
5.0
 40
5.0
 40
5.0
 40
6.0
 40
6.0
 40
6.0
 40
7.0
 40
7.0
 40
7.0
 40
7.0
 10
91.06885984051404
 20
-141.4523477836473
 30
0.0
 10
91.06885984051404
 20
-141.4523477836473
 30
0.0
 10
91.06885984051404
 20
-140.3480224258505
 30
0.0
 10
91.06885984051404
 20
-140.3480224258505
 30
0.0
 10
91.06885984051404
 20
-140.3480224258505
 30
0.0
 10
90.73881969302711
 20
-140.3480224258505
 30
0.0
 10
90.73881969302711
 20
-140.3480224258505
 30
0.0
 10
90.73881969302711
 20
-140.3480224258505
 30
0.0
 10
90.73881969302711
 20
-140.1998833199847
 30
0.0
 10
90.73881969302711
 20
-140.1998833199847
 30
0.0
 10
91.0709268978052
 20
-140.1852416641724
 30
0.0
 10
91.11743568685605
 20
-140.0222886477201
 30
0.0
 10
91.1470635080292
 20
-139.9080837323841
 30
0.0
 10
91.1470635080292
 20
-139.9080837323841
 30
0.0
 10
91.29313555660379
 20
-139.9080837323841
 30
0.0
 10
91.29313555660379
 20
-139.9080837323841
 30
0.0
 10
91.29313555660379
 20
-139.9080837323841
 30
0.0
 10
91.29313555660379
 20
-141.4523477836473
 30
0.0
 10
91.29313555660379
 20
-141.4523477836473
 30
0.0
 10
91.29313555660379
 20
-141.4523477836473
 30
0.0
 10
91.06885984051404
 20
-141.4523477836473
 30
0.0
 10
91.06885984051404
 20
-141.4523477836473
 30
0.0
  0
HATCH
  5
12D
330
126
100
AcDbEntity
  8
レイヤー 1
 62
   250
420
  2299925
440
 33554687
100
AcDbHatch
 10
0.0
 20
0.0
 30
0.0
210
0.0
220
0.0
230
1.0
  2
SOLID
 70
     1
 71
     1
 91
        1
 92
        1
 93
        1
 72
     4
 94
        3
 73
     0
 74
     0
 95
       26
 96
       22
 40
0.0
 40
0.0
 40
0.0
 40
0.0
 40
1.0
 40
1.0
 40
1.0
 40
2.0
 40
2.0
 40
2.0
 40
3.0
 40
3.0
 40
3.0
 40
4.0
 40
4.0
 40
4.0
 40
5.0
 40
5.0
 40
5.0
 40
6.0
 40
6.0
 40
6.0
 40
7.0
 40
7.0
 40
7.0
 40
7.0
 10
91.06885984051404
 20
-141.4523477836473
 10
91.06885984051404
 20
-141.4523477836473
 10
91.06885984051404
 20
-140.3480224258505
 10
91.06885984051404
 20
-140.3480224258505
 10
91.06885984051404
 20
-140.3480224258505
 10
90.73881969302711
 20
-140.3480224258505
 10
90.73881969302711
 20
-140.3480224258505
 10
90.73881969302711
 20
-140.3480224258505
 10
90.73881969302711
 20
-140.1998833199847
 10
90.73881969302711
 20
-140.1998833199847
 10
91.0709268978052
 20
-140.1852416641724
 10
91.11743568685605
 20
-140.0222886477201
 10
91.1470635080292
 20
-139.9080837323841
 10
91.1470635080292
 20
-139.9080837323841
 10
91.29313555660379
 20
-139.9080837323841
 10
91.29313555660379
 20
-139.9080837323841
 10
91.29313555660379
 20
-139.9080837323841
 10
91.29313555660379
 20
-141.4523477836473
 10
91.29313555660379
 20
-141.4523477836473
 10
91.29313555660379
 20
-141.4523477836473
 10
91.06885984051404
 20
-141.4523477836473
 10
91.06885984051404
 20
-141.4523477836473
 97
        0
 97
        1
330
12C
 75
     2
 76
     1
 98
        1
 10
0.0
 20
0.0
450
        0
451
        0
460
0.0
461
0.0
452
        0
462
0.0
453
        0
470

  0
ENDBLK
  5
129
330
126
100
AcDbEntity
  8
0
100
AcDbBlockEnd
  0
BLOCK
  5
132
330
130
100
AcDbEntity
  8
0
100
AcDbBlockBegin
  2
Block_8
 70
     0
 10
0.0
 20
0.0
 30
0.0
  3
Block_8
  1

  0
SPLINE
  5
134
330
130
100
AcDbEntity
  8
レイヤー 1
100
AcDbSpline
210
0.0
220
0.0
230
1.0
 70
     9
 71
     3
 72
    53
 73
    49
 74
     0
 42
0.0000000001
 43
0.0000000001
 40
0.0
 40
0.0
 40
0.0
 40
0.0
 40
1.0
 40
1.0
 40
1.0
 40
2.0
 40
2.0
 40
2.0
 40
3.0
 40
3.0
 40
3.0
 40
4.0
 40
4.0
 40
4.0
 40
5.0
 40
5.0
 40
5.0
 40
6.0
 40
6.0
 40
6.0
 40
7.0
 40
7.0
 40
7.0
 40
8.0
 40
8.0
 40
8.0
 40
9.0
 40
9.0
 40
9.0
 40
10.0
 40
10.0
 40
10.0
 40
11.0
 40
11.0
 40
11.0
 40
12.0
 40
12.0
 40
12.0
 40
13.0
 40
13.0
 40
13.0
 40
14.0
 40
14.0
 40
14.0
 40
15.0
 40
15.0
 40
15.0
 40
16.0
 40
16.0
 40
16.0
 40
16.0
 10
77.21285805361346
 20
-150.7976860517103
 30
0.0
 10
77.21285805361346
 20
-150.8758897192255
 30
0.0
 10
77.19597708573573
 20
-150.9775200360403
 30
0.0
 10
77.13241507403288
 20
-151.0791503528552
 30
0.0
 10
77.02234427327915
 20
-151.2524386557633
 30
0.0
 10
76.89125839006539
 20
-151.2737982477718
 30
0.0
 10
76.78342690137707
 20
-151.2927462729407
 30
0.0
 10
76.78342690137707
 20
-151.2927462729407
 30
0.0
 10
76.78342690137707
 20
-151.0705376141421
 30
0.0
 10
76.78342690137707
 20
-151.0705376141421
 30
0.0
 10
76.98220891087598
 20
-151.0157605959266
 30
0.0
 10
77.01183673204913
 20
-150.8886365725209
 30
0.0
 10
77.01183673204913
 20
-150.7956189944191
 30
0.0
 10
77.01183673204913
 20
-150.6560926272665
 30
0.0
 10
76.91244572729967
 20
-150.5038194068185
 30
0.0
 10
76.67972952727104
 20
-150.5038194068185
 30
0.0
 10
76.42375893271697
 20
-150.5038194068185
 30
0.0
 10
76.35399574914067
 20
-150.6836533911485
 30
0.0
 10
76.35399574914067
 20
-150.8042317331322
 30
0.0
 10
76.35399574914067
 20
-150.8359266115966
 30
0.0
 10
76.35399574914067
 20
-150.9775200360403
 30
0.0
 10
76.48301457506327
 20
-151.0664034995597
 30
0.0
 10
76.48301457506327
 20
-151.0664034995597
 30
0.0
 10
76.46389429512014
 20
-151.2421033693075
 30
0.0
 10
76.46389429512014
 20
-151.2421033693075
 30
0.0
 10
76.46389429512014
 20
-151.2421033693075
 30
0.0
 10
75.61777884394278
 20
-151.1215250273238
 30
0.0
 10
75.61777884394278
 20
-151.1215250273238
 30
0.0
 10
75.61777884394278
 20
-151.1215250273238
 30
0.0
 10
75.61777884394278
 20
-150.3429334476573
 30
0.0
 10
75.61777884394278
 20
-150.3429334476573
 30
0.0
 10
75.61777884394278
 20
-150.3429334476573
 30
0.0
 10
75.8124267388594
 20
-150.3429334476573
 30
0.0
 10
75.8124267388594
 20
-150.3429334476573
 30
0.0
 10
75.8124267388594
 20
-150.3429334476573
 30
0.0
 10
75.8124267388594
 20
-150.9585720108715
 30
0.0
 10
75.8124267388594
 20
-150.9585720108715
 30
0.0
 10
75.8124267388594
 20
-150.9585720108715
 30
0.0
 10
76.23548446444807
 20
-151.0240288250912
 30
0.0
 10
76.23548446444807
 20
-151.0240288250912
 30
0.0
 10
76.20155027391837
 20
-150.9627061254537
 30
0.0
 10
76.16141491151521
 20
-150.8803683433563
 30
0.0
 10
76.16141491151521
 20
-150.7618570586637
 30
0.0
 10
76.16141491151521
 20
-150.5079535214008
 30
0.0
 10
76.34762232249295
 20
-150.2709309520156
 30
0.0
 10
76.66060924732791
 20
-150.2709309520156
 30
0.0
 10
76.97807479629368
 20
-150.2709309520156
 30
0.0
 10
77.21285805361346
 20
-150.4952066681053
 30
0.0
 10
77.21285805361346
 20
-150.7976860517103
 30
0.0
  0
HATCH
  5
135
330
130
100
AcDbEntity
  8
レイヤー 1
 62
   250
420
  2299925
440
 33554687
100
AcDbHatch
 10
0.0
 20
0.0
 30
0.0
210
0.0
220
0.0
230
1.0
  2
SOLID
 70
     1
 71
     1
 91
        1
 92
        1
 93
        1
 72
     4
 94
        3
 73
     0
 74
     0
 95
       53
 96
       49
 40
0.0
 40
0.0
 40
0.0
 40
0.0
 40
1.0
 40
1.0
 40
1.0
 40
2.0
 40
2.0
 40
2.0
 40
3.0
 40
3.0
 40
3.0
 40
4.0
 40
4.0
 40
4.0
 40
5.0
 40
5.0
 40
5.0
 40
6.0
 40
6.0
 40
6.0
 40
7.0
 40
7.0
 40
7.0
 40
8.0
 40
8.0
 40
8.0
 40
9.0
 40
9.0
 40
9.0
 40
10.0
 40
10.0
 40
10.0
 40
11.0
 40
11.0
 40
11.0
 40
12.0
 40
12.0
 40
12.0
 40
13.0
 40
13.0
 40
13.0
 40
14.0
 40
14.0
 40
14.0
 40
15.0
 40
15.0
 40
15.0
 40
16.0
 40
16.0
 40
16.0
 40
16.0
 10
77.21285805361346
 20
-150.7976860517103
 10
77.21285805361346
 20
-150.8758897192255
 10
77.19597708573573
 20
-150.9775200360403
 10
77.13241507403288
 20
-151.0791503528552
 10
77.02234427327915
 20
-151.2524386557633
 10
76.89125839006539
 20
-151.2737982477718
 10
76.78342690137707
 20
-151.2927462729407
 10
76.78342690137707
 20
-151.2927462729407
 10
76.78342690137707
 20
-151.0705376141421
 10
76.78342690137707
 20
-151.0705376141421
 10
76.98220891087598
 20
-151.0157605959266
 10
77.01183673204913
 20
-150.8886365725209
 10
77.01183673204913
 20
-150.7956189944191
 10
77.01183673204913
 20
-150.6560926272665
 10
76.91244572729967
 20
-150.5038194068185
 10
76.67972952727104
 20
-150.5038194068185
 10
76.42375893271697
 20
-150.5038194068185
 10
76.35399574914067
 20
-150.6836533911485
 10
76.35399574914067
 20
-150.8042317331322
 10
76.35399574914067
 20
-150.8359266115966
 10
76.35399574914067
 20
-150.9775200360403
 10
76.48301457506327
 20
-151.0664034995597
 10
76.48301457506327
 20
-151.0664034995597
 10
76.46389429512014
 20
-151.2421033693075
 10
76.46389429512014
 20
-151.2421033693075
 10
76.46389429512014
 20
-151.2421033693075
 10
75.61777884394278
 20
-151.1215250273238
 10
75.61777884394278
 20
-151.1215250273238
 10
75.61777884394278
 20
-151.1215250273238
 10
75.61777884394278
 20
-150.3429334476573
 10
75.61777884394278
 20
-150.3429334476573
 10
75.61777884394278
 20
-150.3429334476573
 10
75.8124267388594
 20
-150.3429334476573
 10
75.8124267388594
 20
-150.3429334476573
 10
75.8124267388594
 20
-150.3429334476573
 10
75.8124267388594
 20
-150.9585720108715
 10
75.8124267388594
 20
-150.9585720108715
 10
75.8124267388594
 20
-150.9585720108715
 10
76.23548446444807
 20
-151.0240288250912
 10
76.23548446444807
 20
-151.0240288250912
 10
76.20155027391837
 20
-150.9627061254537
 10
76.16141491151521
 20
-150.8803683433563
 10
76.16141491151521
 20
-150.7618570586637
 10
76.16141491151521
 20
-150.5079535214008
 10
76.34762232249295
 20
-150.2709309520156
 10
76.66060924732791
 20
-150.2709309520156
 10
76.97807479629368
 20
-150.2709309520156
 10
77.21285805361346
 20
-150.4952066681053
 10
77.21285805361346
 20
-150.7976860517103
 97
        0
 97
        1
330
134
 75
     2
 76
     1
 98
        1
 10
0.0
 20
0.0
450
        0
451
        0
460
0.0
461
0.0
452
        0
462
0.0
453
        0
470

  0
ENDBLK
  5
133
330
130
100
AcDbEntity
  8
0
100
AcDbBlockEnd
  0
BLOCK
  5
13A
330
138
100
AcDbEntity
  8
0
100
AcDbBlockBegin
  2
Block_9
 70
     0
 10
0.0
 20
0.0
 30
0.0
  3
Block_9
  1

  0
INSERT
  5
13D
330
138
100
AcDbEntity
  8
レイヤー 1
100
AcDbBlockReference
  2
Block_10
 10
0.0
 20
0.0
 30
0.0
  0
ENDBLK
  5
13B
330
138
100
AcDbEntity
  8
0
100
AcDbBlockEnd
  0
BLOCK
  5
13E
330
13C
100
AcDbEntity
  8
0
100
AcDbBlockBegin
  2
Block_10
 70
     0
 10
0.0
 20
0.0
 30
0.0
  3
Block_10
  1

  0
SPLINE
  5
140
330
13C
100
AcDbEntity
  8
レイヤー 1
100
AcDbSpline
210
0.0
220
0.0
230
1.0
 70
     9
 71
     3
 72
    44
 73
    40
 74
     0
 42
0.0000000001
 43
0.0000000001
 40
0.0
 40
0.0
 40
0.0
 40
0.0
 40
1.0
 40
1.0
 40
1.0
 40
2.0
 40
2.0
 40
2.0
 40
3.0
 40
3.0
 40
3.0
 40
4.0
 40
4.0
 40
4.0
 40
5.0
 40
5.0
 40
5.0
 40
6.0
 40
6.0
 40
6.0
 40
7.0
 40
7.0
 40
7.0
 40
8.0
 40
8.0
 40
8.0
 40
9.0
 40
9.0
 40
9.0
 40
10.0
 40
10.0
 40
10.0
 40
11.0
 40
11.0
 40
11.0
 40
12.0
 40
12.0
 40
12.0
 40
13.0
 40
13.0
 40
13.0
 40
13.0
 10
120.0347059161719
 20
-140.8706434109629
 30
0.0
 10
119.8169758815041
 20
-141.0292900580586
 30
0.0
 10
119.7239583034023
 20
-141.1033596109915
 30
0.0
 10
119.6750379475118
 20
-141.2471923475007
 30
0.0
 10
119.6750379475118
 20
-141.2471923475007
 30
0.0
 10
120.4536295271782
 20
-141.2471923475007
 30
0.0
 10
120.4536295271782
 20
-141.2471923475007
 30
0.0
 10
120.4536295271782
 20
-141.2471923475007
 30
0.0
 10
120.4536295271782
 20
-141.4523477836473
 30
0.0
 10
120.4536295271782
 20
-141.4523477836473
 30
0.0
 10
120.4536295271782
 20
-141.4523477836473
 30
0.0
 10
119.4256130343797
 20
-141.4523477836473
 30
0.0
 10
119.4256130343797
 20
-141.4523477836473
 30
0.0
 10
119.457307912844
 20
-141.0947468722784
 30
0.0
 10
119.5227647270637
 20
-141.0165432047632
 30
0.0
 10
119.9079264023147
 20
-140.7181979357406
 30
0.0
 10
120.1638969968687
 20
-140.5194159262417
 30
0.0
 10
120.2293538110885
 20
-140.4517197999565
 30
0.0
 10
120.2293538110885
 20
-140.314260490095
 30
0.0
 10
120.2293538110885
 20
-140.1957492054024
 30
0.0
 10
120.1573513154468
 20
-140.0644910674144
 30
0.0
 10
119.960636363239
 20
-140.0644910674144
 30
0.0
 10
119.7005316541026
 20
-140.0644910674144
 30
0.0
 10
119.692263424938
 20
-140.2951402101519
 30
0.0
 10
119.6877848008072
 20
-140.4115844375533
 30
0.0
 10
119.6877848008072
 20
-140.4115844375533
 30
0.0
 10
119.4635090847174
 20
-140.4115844375533
 30
0.0
 10
119.4635090847174
 20
-140.4115844375533
 30
0.0
 10
119.4721218234306
 20
-140.2846326689219
 30
0.0
 10
119.4828016194348
 20
-140.172494810877
 30
0.0
 10
119.5630723442411
 20
-140.0539835261844
 30
0.0
 10
119.6729708902206
 20
-139.8932698217975
 30
0.0
 10
119.8593505559726
 20
-139.8593356312678
 30
0.0
 10
119.9754502738256
 20
-139.8593356312678
 30
0.0
 10
120.2527804603882
 20
-139.8593356312678
 30
0.0
 10
120.4601752086002
 20
-140.0434759849544
 30
0.0
 10
120.4601752086002
 20
-140.3163275473862
 30
0.0
 10
120.4601752086002
 20
-140.5447373780583
 30
0.0
 10
120.3437309811988
 20
-140.644300637582
 30
0.0
 10
120.0347059161719
 20
-140.8706434109629
 30
0.0
  0
HATCH
  5
141
330
13C
100
AcDbEntity
  8
レイヤー 1
 62
   250
420
  2299925
440
 33554687
100
AcDbHatch
 10
0.0
 20
0.0
 30
0.0
210
0.0
220
0.0
230
1.0
  2
SOLID
 70
     1
 71
     1
 91
        1
 92
        1
 93
        1
 72
     4
 94
        3
 73
     0
 74
     0
 95
       44
 96
       40
 40
0.0
 40
0.0
 40
0.0
 40
0.0
 40
1.0
 40
1.0
 40
1.0
 40
2.0
 40
2.0
 40
2.0
 40
3.0
 40
3.0
 40
3.0
 40
4.0
 40
4.0
 40
4.0
 40
5.0
 40
5.0
 40
5.0
 40
6.0
 40
6.0
 40
6.0
 40
7.0
 40
7.0
 40
7.0
 40
8.0
 40
8.0
 40
8.0
 40
9.0
 40
9.0
 40
9.0
 40
10.0
 40
10.0
 40
10.0
 40
11.0
 40
11.0
 40
11.0
 40
12.0
 40
12.0
 40
12.0
 40
13.0
 40
13.0
 40
13.0
 40
13.0
 10
120.0347059161719
 20
-140.8706434109629
 10
119.8169758815041
 20
-141.0292900580586
 10
119.7239583034023
 20
-141.1033596109915
 10
119.6750379475118
 20
-141.2471923475007
 10
119.6750379475118
 20
-141.2471923475007
 10
120.4536295271782
 20
-141.2471923475007
 10
120.4536295271782
 20
-141.2471923475007
 10
120.4536295271782
 20
-141.2471923475007
 10
120.4536295271782
 20
-141.4523477836473
 10
120.4536295271782
 20
-141.4523477836473
 10
120.4536295271782
 20
-141.4523477836473
 10
119.4256130343797
 20
-141.4523477836473
 10
119.4256130343797
 20
-141.4523477836473
 10
119.457307912844
 20
-141.0947468722784
 10
119.5227647270637
 20
-141.0165432047632
 10
119.9079264023147
 20
-140.7181979357406
 10
120.1638969968687
 20
-140.5194159262417
 10
120.2293538110885
 20
-140.4517197999565
 10
120.2293538110885
 20
-140.314260490095
 10
120.2293538110885
 20
-140.1957492054024
 10
120.1573513154468
 20
-140.0644910674144
 10
119.960636363239
 20
-140.0644910674144
 10
119.7005316541026
 20
-140.0644910674144
 10
119.692263424938
 20
-140.2951402101519
 10
119.6877848008072
 20
-140.4115844375533
 10
119.6877848008072
 20
-140.4115844375533
 10
119.4635090847174
 20
-140.4115844375533
 10
119.4635090847174
 20
-140.4115844375533
 10
119.4721218234306
 20
-140.2846326689219
 10
119.4828016194348
 20
-140.172494810877
 10
119.5630723442411
 20
-140.0539835261844
 10
119.6729708902206
 20
-139.8932698217975
 10
119.8593505559726
 20
-139.8593356312678
 10
119.9754502738256
 20
-139.8593356312678
 10
120.2527804603882
 20
-139.8593356312678
 10
120.4601752086002
 20
-140.0434759849544
 10
120.4601752086002
 20
-140.3163275473862
 10
120.4601752086002
 20
-140.5447373780583
 10
120.3437309811988
 20
-140.644300637582
 10
120.0347059161719
 20
-140.8706434109629
 97
        0
 97
        1
330
140
 75
     2
 76
     1
 98
        1
 10
0.0
 20
0.0
450
        0
451
        0
460
0.0
461
0.0
452
        0
462
0.0
453
        0
470

  0
SPLINE
  5
142
330
13C
100
AcDbEntity
  8
レイヤー 1
100
AcDbSpline
210
0.0
220
0.0
230
1.0
 70
    11
 71
     3
 72
    26
 73
    22
 74
     0
 42
0.0000000001
 43
0.0000000001
 40
0.0
 40
0.0
 40
0.0
 40
0.0
 40
1.0
 40
1.0
 40
1.0
 40
2.0
 40
2.0
 40
2.0
 40
3.0
 40
3.0
 40
3.0
 40
4.0
 40
4.0
 40
4.0
 40
5.0
 40
5.0
 40
5.0
 40
6.0
 40
6.0
 40
6.0
 40
7.0
 40
7.0
 40
7.0
 40
7.0
 10
121.0699571094894
 20
-141.4523477836473
 30
0.0
 10
121.0699571094894
 20
-141.4523477836473
 30
0.0
 10
121.0699571094894
 20
-140.3480224258505
 30
0.0
 10
121.0699571094894
 20
-140.3480224258505
 30
0.0
 10
121.0699571094894
 20
-140.3480224258505
 30
0.0
 10
120.7399169620025
 20
-140.3480224258505
 30
0.0
 10
120.7399169620025
 20
-140.3480224258505
 30
0.0
 10
120.7399169620025
 20
-140.3480224258505
 30
0.0
 10
120.7399169620025
 20
-140.1998833199847
 30
0.0
 10
120.7399169620025
 20
-140.1998833199847
 30
0.0
 10
121.0720241667806
 20
-140.1852416641724
 30
0.0
 10
121.1185329558315
 20
-140.0222886477201
 30
0.0
 10
121.1481607770046
 20
-139.9080837323841
 30
0.0
 10
121.1481607770046
 20
-139.9080837323841
 30
0.0
 10
121.2942328255792
 20
-139.9080837323841
 30
0.0
 10
121.2942328255792
 20
-139.9080837323841
 30
0.0
 10
121.2942328255792
 20
-139.9080837323841
 30
0.0
 10
121.2942328255792
 20
-141.4523477836473
 30
0.0
 10
121.2942328255792
 20
-141.4523477836473
 30
0.0
 10
121.2942328255792
 20
-141.4523477836473
 30
0.0
 10
121.0699571094894
 20
-141.4523477836473
 30
0.0
 10
121.0699571094894
 20
-141.4523477836473
 30
0.0
  0
HATCH
  5
143
330
13C
100
AcDbEntity
  8
レイヤー 1
 62
   250
420
  2299925
440
 33554687
100
AcDbHatch
 10
0.0
 20
0.0
 30
0.0
210
0.0
220
0.0
230
1.0
  2
SOLID
 70
     1
 71
     1
 91
        1
 92
        1
 93
        1
 72
     4
 94
        3
 73
     0
 74
     0
 95
       26
 96
       22
 40
0.0
 40
0.0
 40
0.0
 40
0.0
 40
1.0
 40
1.0
 40
1.0
 40
2.0
 40
2.0
 40
2.0
 40
3.0
 40
3.0
 40
3.0
 40
4.0
 40
4.0
 40
4.0
 40
5.0
 40
5.0
 40
5.0
 40
6.0
 40
6.0
 40
6.0
 40
7.0
 40
7.0
 40
7.0
 40
7.0
 10
121.0699571094894
 20
-141.4523477836473
 10
121.0699571094894
 20
-141.4523477836473
 10
121.0699571094894
 20
-140.3480224258505
 10
121.0699571094894
 20
-140.3480224258505
 10
121.0699571094894
 20
-140.3480224258505
 10
120.7399169620025
 20
-140.3480224258505
 10
120.7399169620025
 20
-140.3480224258505
 10
120.7399169620025
 20
-140.3480224258505
 10
120.7399169620025
 20
-140.1998833199847
 10
120.7399169620025
 20
-140.1998833199847
 10
121.0720241667806
 20
-140.1852416641724
 10
121.1185329558315
 20
-140.0222886477201
 10
121.1481607770046
 20
-139.9080837323841
 10
121.1481607770046
 20
-139.9080837323841
 10
121.2942328255792
 20
-139.9080837323841
 10
121.2942328255792
 20
-139.9080837323841
 10
121.2942328255792
 20
-139.9080837323841
 10
121.2942328255792
 20
-141.4523477836473
 10
121.2942328255792
 20
-141.4523477836473
 10
121.2942328255792
 20
-141.4523477836473
 10
121.0699571094894
 20
-141.4523477836473
 10
121.0699571094894
 20
-141.4523477836473
 97
        0
 97
        1
330
142
 75
     2
 76
     1
 98
        1
 10
0.0
 20
0.0
450
        0
451
        0
460
0.0
461
0.0
452
        0
462
0.0
453
        0
470

  0
ENDBLK
  5
13F
330
13C
100
AcDbEntity
  8
0
100
AcDbBlockEnd
  0
BLOCK
  5
149
330
147
100
AcDbEntity
  8
0
100
AcDbBlockBegin
  2
Block_11
 70
     0
 10
0.0
 20
0.0
 30
0.0
  3
Block_11
  1

  0
SPLINE
  5
14B
330
147
100
AcDbEntity
  8
レイヤー 1
100
AcDbSpline
210
0.0
220
0.0
230
1.0
 70
     9
 71
     3
 72
    17
 73
    13
 74
     0
 42
0.0000000001
 43
0.0000000001
 40
0.0
 40
0.0
 40
0.0
 40
0.0
 40
1.0
 40
1.0
 40
1.0
 40
2.0
 40
2.0
 40
2.0
 40
3.0
 40
3.0
 40
3.0
 40
4.0
 40
4.0
 40
4.0
 40
4.0
 10
105.5491129293419
 20
-140.0519164688932
 30
0.0
 10
105.4307738994235
 20
-140.0519164688932
 30
0.0
 10
105.2550740296758
 20
-140.1089327991742
 30
0.0
 10
105.2550740296758
 20
-140.3945312149013
 30
0.0
 10
105.2550740296758
 20
-140.6208739882823
 30
0.0
 10
105.3949449063769
 20
-140.7161308784494
 30
0.0
 10
105.530164904173
 20
-140.7161308784494
 30
0.0
 10
105.7923366706005
 20
-140.7161308784494
 30
0.0
 10
105.8305772304868
 20
-140.5066690729462
 30
0.0
 10
105.8305772304868
 20
-140.390397100319
 30
0.0
 10
105.8305772304868
 20
-140.2146972305713
 30
0.0
 10
105.7351480855454
 20
-140.0519164688932
 30
0.0
 10
105.5491129293419
 20
-140.0519164688932
 30
0.0
  0
SPLINE
  5
14C
330
147
100
AcDbEntity
  8
レイヤー 1
100
AcDbSpline
210
0.0
220
0.0
230
1.0
 70
     9
 71
     3
 72
    32
 73
    28
 74
     0
 42
0.0000000001
 43
0.0000000001
 40
0.0
 40
0.0
 40
0.0
 40
0.0
 40
1.0
 40
1.0
 40
1.0
 40
2.0
 40
2.0
 40
2.0
 40
3.0
 40
3.0
 40
3.0
 40
4.0
 40
4.0
 40
4.0
 40
5.0
 40
5.0
 40
5.0
 40
6.0
 40
6.0
 40
6.0
 40
7.0
 40
7.0
 40
7.0
 40
8.0
 40
8.0
 40
8.0
 40
9.0
 40
9.0
 40
9.0
 40
9.0
 10
105.5088053121644
 20
-141.5031629420547
 30
0.0
 10
105.3356892640306
 20
-141.5031629420547
 30
0.0
 10
105.0900539559323
 20
-141.4332275037042
 30
0.0
 10
105.0521579055946
 20
-141.1011202989261
 30
0.0
 10
105.0521579055946
 20
-141.1011202989261
 30
0.0
 10
105.2657538256801
 20
-141.1011202989261
 30
0.0
 10
105.2657538256801
 20
-141.1011202989261
 30
0.0
 10
105.2764336216843
 20
-141.1603759412724
 30
0.0
 10
105.3081285001487
 20
-141.3085150471381
 30
0.0
 10
105.5108723694556
 20
-141.3085150471381
 30
0.0
 10
105.8030164666048
 20
-141.3085150471381
 30
0.0
 10
105.8409125169425
 20
-140.9784748996512
 30
0.0
 10
105.853659370238
 20
-140.7733194635046
 30
0.0
 10
105.7627088494274
 20
-140.8535901883109
 30
0.0
 10
105.6951849779165
 20
-140.9107787733661
 30
0.0
 10
105.5132839362953
 20
-140.9107787733661
 30
0.0
 10
105.3336222067395
 20
-140.9107787733661
 30
0.0
 10
105.030798313586
 20
-140.8050143419689
 30
0.0
 10
105.030798313586
 20
-140.3988375842579
 30
0.0
 10
105.030798313586
 20
-140.079304978001
 30
0.0
 10
105.2299248326335
 20
-139.8593356312678
 30
0.0
 10
105.5470458720507
 20
-139.8593356312678
 30
0.0
 10
106.06105411845
 20
-139.8593356312678
 30
0.0
 10
106.0717339144543
 20
-140.4136514948445
 30
0.0
 10
106.0717339144543
 20
-140.62724741493
 30
0.0
 10
106.0717339144543
 20
-140.8578965576675
 30
0.0
 10
106.0524413797369
 20
-141.5031629420547
 30
0.0
 10
105.5088053121644
 20
-141.5031629420547
 30
0.0
  0
HATCH
  5
14D
330
147
100
AcDbEntity
  8
レイヤー 1
 62
   250
420
  2299925
440
 33554687
100
AcDbHatch
 10
0.0
 20
0.0
 30
0.0
210
0.0
220
0.0
230
1.0
  2
SOLID
 70
     1
 71
     1
 91
        2
 92
        1
 93
        1
 72
     4
 94
        3
 73
     0
 74
     0
 95
       17
 96
       13
 40
0.0
 40
0.0
 40
0.0
 40
0.0
 40
1.0
 40
1.0
 40
1.0
 40
2.0
 40
2.0
 40
2.0
 40
3.0
 40
3.0
 40
3.0
 40
4.0
 40
4.0
 40
4.0
 40
4.0
 10
105.5491129293419
 20
-140.0519164688932
 10
105.4307738994235
 20
-140.0519164688932
 10
105.2550740296758
 20
-140.1089327991742
 10
105.2550740296758
 20
-140.3945312149013
 10
105.2550740296758
 20
-140.6208739882823
 10
105.3949449063769
 20
-140.7161308784494
 10
105.530164904173
 20
-140.7161308784494
 10
105.7923366706005
 20
-140.7161308784494
 10
105.8305772304868
 20
-140.5066690729462
 10
105.8305772304868
 20
-140.390397100319
 10
105.8305772304868
 20
-140.2146972305713
 10
105.7351480855454
 20
-140.0519164688932
 10
105.5491129293419
 20
-140.0519164688932
 97
        0
 97
        1
330
14B
 92
        1
 93
        1
 72
     4
 94
        3
 73
     0
 74
     0
 95
       32
 96
       28
 40
0.0
 40
0.0
 40
0.0
 40
0.0
 40
1.0
 40
1.0
 40
1.0
 40
2.0
 40
2.0
 40
2.0
 40
3.0
 40
3.0
 40
3.0
 40
4.0
 40
4.0
 40
4.0
 40
5.0
 40
5.0
 40
5.0
 40
6.0
 40
6.0
 40
6.0
 40
7.0
 40
7.0
 40
7.0
 40
8.0
 40
8.0
 40
8.0
 40
9.0
 40
9.0
 40
9.0
 40
9.0
 10
105.5088053121644
 20
-141.5031629420547
 10
105.3356892640306
 20
-141.5031629420547
 10
105.0900539559323
 20
-141.4332275037042
 10
105.0521579055946
 20
-141.1011202989261
 10
105.0521579055946
 20
-141.1011202989261
 10
105.2657538256801
 20
-141.1011202989261
 10
105.2657538256801
 20
-141.1011202989261
 10
105.2764336216843
 20
-141.1603759412724
 10
105.3081285001487
 20
-141.3085150471381
 10
105.5108723694556
 20
-141.3085150471381
 10
105.8030164666048
 20
-141.3085150471381
 10
105.8409125169425
 20
-140.9784748996512
 10
105.853659370238
 20
-140.7733194635046
 10
105.7627088494274
 20
-140.8535901883109
 10
105.6951849779165
 20
-140.9107787733661
 10
105.5132839362953
 20
-140.9107787733661
 10
105.3336222067395
 20
-140.9107787733661
 10
105.030798313586
 20
-140.8050143419689
 10
105.030798313586
 20
-140.3988375842579
 10
105.030798313586
 20
-140.079304978001
 10
105.2299248326335
 20
-139.8593356312678
 10
105.5470458720507
 20
-139.8593356312678
 10
106.06105411845
 20
-139.8593356312678
 10
106.0717339144543
 20
-140.4136514948445
 10
106.0717339144543
 20
-140.62724741493
 10
106.0717339144543
 20
-140.8578965576675
 10
106.0524413797369
 20
-141.5031629420547
 10
105.5088053121644
 20
-141.5031629420547
 97
        0
 97
        1
330
14C
 75
     2
 76
     1
 98
        1
 10
0.0
 20
0.0
450
        0
451
        0
460
0.0
461
0.0
452
        0
462
0.0
453
        0
470

  0
ENDBLK
  5
14A
330
147
100
AcDbEntity
  8
0
100
AcDbBlockEnd
  0
BLOCK
  5
157
330
155
100
AcDbEntity
  8
0
100
AcDbBlockBegin
  2
Block_12
 70
     0
 10
0.0
 20
0.0
 30
0.0
  3
Block_12
  1

  0
INSERT
  5
15A
330
155
100
AcDbEntity
  8
レイヤー 1
100
AcDbBlockReference
  2
Block_13
 10
0.0
 20
0.0
 30
0.0
  0
ENDBLK
  5
158
330
155
100
AcDbEntity
  8
0
100
AcDbBlockEnd
  0
BLOCK
  5
15B
330
159
100
AcDbEntity
  8
0
100
AcDbBlockBegin
  2
Block_13
 70
     0
 10
0.0
 20
0.0
 30
0.0
  3
Block_13
  1

  0
SPLINE
  5
15D
330
159
100
AcDbEntity
  8
レイヤー 1
100
AcDbSpline
210
0.0
220
0.0
230
1.0
 70
    11
 71
     3
 72
    26
 73
    22
 74
     0
 42
0.0000000001
 43
0.0000000001
 40
0.0
 40
0.0
 40
0.0
 40
0.0
 40
1.0
 40
1.0
 40
1.0
 40
2.0
 40
2.0
 40
2.0
 40
3.0
 40
3.0
 40
3.0
 40
4.0
 40
4.0
 40
4.0
 40
5.0
 40
5.0
 40
5.0
 40
6.0
 40
6.0
 40
6.0
 40
7.0
 40
7.0
 40
7.0
 40
7.0
 10
105.2097710240448
 20
-155.8278699697236
 30
0.0
 10
105.2097710240448
 20
-155.8278699697236
 30
0.0
 10
105.2097710240448
 20
-154.723716866701
 30
0.0
 10
105.2097710240448
 20
-154.723716866701
 30
0.0
 10
105.2097710240448
 20
-154.723716866701
 30
0.0
 10
104.8797308765578
 20
-154.723716866701
 30
0.0
 10
104.8797308765578
 20
-154.723716866701
 30
0.0
 10
104.8797308765578
 20
-154.723716866701
 30
0.0
 10
104.8797308765578
 20
-154.5755777608353
 30
0.0
 10
104.8797308765578
 20
-154.5755777608353
 30
0.0
 10
105.2118380813359
 20
-154.5607638502487
 30
0.0
 10
105.2583468703868
 20
-154.3978108337964
 30
0.0
 10
105.2879746915599
 20
-154.2834336636861
 30
0.0
 10
105.2879746915599
 20
-154.2834336636861
 30
0.0
 10
105.4340467401345
 20
-154.2834336636861
 30
0.0
 10
105.4340467401345
 20
-154.2834336636861
 30
0.0
 10
105.4340467401345
 20
-154.2834336636861
 30
0.0
 10
105.4340467401345
 20
-155.8278699697236
 30
0.0
 10
105.4340467401345
 20
-155.8278699697236
 30
0.0
 10
105.4340467401345
 20
-155.8278699697236
 30
0.0
 10
105.2097710240448
 20
-155.8278699697236
 30
0.0
 10
105.2097710240448
 20
-155.8278699697236
 30
0.0
  0
HATCH
  5
15E
330
159
100
AcDbEntity
  8
レイヤー 1
 62
   250
420
  2299925
440
 33554687
100
AcDbHatch
 10
0.0
 20
0.0
 30
0.0
210
0.0
220
0.0
230
1.0
  2
SOLID
 70
     1
 71
     1
 91
        1
 92
        1
 93
        1
 72
     4
 94
        3
 73
     0
 74
     0
 95
       26
 96
       22
 40
0.0
 40
0.0
 40
0.0
 40
0.0
 40
1.0
 40
1.0
 40
1.0
 40
2.0
 40
2.0
 40
2.0
 40
3.0
 40
3.0
 40
3.0
 40
4.0
 40
4.0
 40
4.0
 40
5.0
 40
5.0
 40
5.0
 40
6.0
 40
6.0
 40
6.0
 40
7.0
 40
7.0
 40
7.0
 40
7.0
 10
105.2097710240448
 20
-155.8278699697236
 10
105.2097710240448
 20
-155.8278699697236
 10
105.2097710240448
 20
-154.723716866701
 10
105.2097710240448
 20
-154.723716866701
 10
105.2097710240448
 20
-154.723716866701
 10
104.8797308765578
 20
-154.723716866701
 10
104.8797308765578
 20
-154.723716866701
 10
104.8797308765578
 20
-154.723716866701
 10
104.8797308765578
 20
-154.5755777608353
 10
104.8797308765578
 20
-154.5755777608353
 10
105.2118380813359
 20
-154.5607638502487
 10
105.2583468703868
 20
-154.3978108337964
 10
105.2879746915599
 20
-154.2834336636861
 10
105.2879746915599
 20
-154.2834336636861
 10
105.4340467401345
 20
-154.2834336636861
 10
105.4340467401345
 20
-154.2834336636861
 10
105.4340467401345
 20
-154.2834336636861
 10
105.4340467401345
 20
-155.8278699697236
 10
105.4340467401345
 20
-155.8278699697236
 10
105.4340467401345
 20
-155.8278699697236
 10
105.2097710240448
 20
-155.8278699697236
 10
105.2097710240448
 20
-155.8278699697236
 97
        0
 97
        1
330
15D
 75
     2
 76
     1
 98
        1
 10
0.0
 20
0.0
450
        0
451
        0
460
0.0
461
0.0
452
        0
462
0.0
453
        0
470

  0
SPLINE
  5
15F
330
159
100
AcDbEntity
  8
レイヤー 1
100
AcDbSpline
210
0.0
220
0.0
230
1.0
 70
    11
 71
     3
 72
    26
 73
    22
 74
     0
 42
0.0000000001
 43
0.0000000001
 40
0.0
 40
0.0
 40
0.0
 40
0.0
 40
1.0
 40
1.0
 40
1.0
 40
2.0
 40
2.0
 40
2.0
 40
3.0
 40
3.0
 40
3.0
 40
4.0
 40
4.0
 40
4.0
 40
5.0
 40
5.0
 40
5.0
 40
6.0
 40
6.0
 40
6.0
 40
7.0
 40
7.0
 40
7.0
 40
7.0
 10
106.3866156418061
 20
-155.8278699697236
 30
0.0
 10
106.3866156418061
 20
-155.8278699697236
 30
0.0
 10
106.3866156418061
 20
-154.723716866701
 30
0.0
 10
106.3866156418061
 20
-154.723716866701
 30
0.0
 10
106.3866156418061
 20
-154.723716866701
 30
0.0
 10
106.0565754943192
 20
-154.723716866701
 30
0.0
 10
106.0565754943192
 20
-154.723716866701
 30
0.0
 10
106.0565754943192
 20
-154.723716866701
 30
0.0
 10
106.0565754943192
 20
-154.5755777608353
 30
0.0
 10
106.0565754943192
 20
-154.5755777608353
 30
0.0
 10
106.3886826990972
 20
-154.5607638502487
 30
0.0
 10
106.4351914881481
 20
-154.3978108337964
 30
0.0
 10
106.4648193093213
 20
-154.2834336636861
 30
0.0
 10
106.4648193093213
 20
-154.2834336636861
 30
0.0
 10
106.6108913578959
 20
-154.2834336636861
 30
0.0
 10
106.6108913578959
 20
-154.2834336636861
 30
0.0
 10
106.6108913578959
 20
-154.2834336636861
 30
0.0
 10
106.6108913578959
 20
-155.8278699697236
 30
0.0
 10
106.6108913578959
 20
-155.8278699697236
 30
0.0
 10
106.6108913578959
 20
-155.8278699697236
 30
0.0
 10
106.3866156418061
 20
-155.8278699697236
 30
0.0
 10
106.3866156418061
 20
-155.8278699697236
 30
0.0
  0
HATCH
  5
160
330
159
100
AcDbEntity
  8
レイヤー 1
 62
   250
420
  2299925
440
 33554687
100
AcDbHatch
 10
0.0
 20
0.0
 30
0.0
210
0.0
220
0.0
230
1.0
  2
SOLID
 70
     1
 71
     1
 91
        1
 92
        1
 93
        1
 72
     4
 94
        3
 73
     0
 74
     0
 95
       26
 96
       22
 40
0.0
 40
0.0
 40
0.0
 40
0.0
 40
1.0
 40
1.0
 40
1.0
 40
2.0
 40
2.0
 40
2.0
 40
3.0
 40
3.0
 40
3.0
 40
4.0
 40
4.0
 40
4.0
 40
5.0
 40
5.0
 40
5.0
 40
6.0
 40
6.0
 40
6.0
 40
7.0
 40
7.0
 40
7.0
 40
7.0
 10
106.3866156418061
 20
-155.8278699697236
 10
106.3866156418061
 20
-155.8278699697236
 10
106.3866156418061
 20
-154.723716866701
 10
106.3866156418061
 20
-154.723716866701
 10
106.3866156418061
 20
-154.723716866701
 10
106.0565754943192
 20
-154.723716866701
 10
106.0565754943192
 20
-154.723716866701
 10
106.0565754943192
 20
-154.723716866701
 10
106.0565754943192
 20
-154.5755777608353
 10
106.0565754943192
 20
-154.5755777608353
 10
106.3886826990972
 20
-154.5607638502487
 10
106.4351914881481
 20
-154.3978108337964
 10
106.4648193093213
 20
-154.2834336636861
 10
106.4648193093213
 20
-154.2834336636861
 10
106.6108913578959
 20
-154.2834336636861
 10
106.6108913578959
 20
-154.2834336636861
 10
106.6108913578959
 20
-154.2834336636861
 10
106.6108913578959
 20
-155.8278699697236
 10
106.6108913578959
 20
-155.8278699697236
 10
106.6108913578959
 20
-155.8278699697236
 10
106.3866156418061
 20
-155.8278699697236
 10
106.3866156418061
 20
-155.8278699697236
 97
        0
 97
        1
330
15F
 75
     2
 76
     1
 98
        1
 10
0.0
 20
0.0
450
        0
451
        0
460
0.0
461
0.0
452
        0
462
0.0
453
        0
470

  0
ENDBLK
  5
15C
330
159
100
AcDbEntity
  8
0
100
AcDbBlockEnd
  0
BLOCK
  5
164
330
162
100
AcDbEntity
  8
0
100
AcDbBlockBegin
  2
Block_14
 70
     0
 10
0.0
 20
0.0
 30
0.0
  3
Block_14
  1

  0
SPLINE
  5
166
330
162
100
AcDbEntity
  8
レイヤー 1
100
AcDbSpline
210
0.0
220
0.0
230
1.0
 70
    11
 71
     3
 72
    26
 73
    22
 74
     0
 42
0.0000000001
 43
0.0000000001
 40
0.0
 40
0.0
 40
0.0
 40
0.0
 40
1.0
 40
1.0
 40
1.0
 40
2.0
 40
2.0
 40
2.0
 40
3.0
 40
3.0
 40
3.0
 40
4.0
 40
4.0
 40
4.0
 40
5.0
 40
5.0
 40
5.0
 40
6.0
 40
6.0
 40
6.0
 40
7.0
 40
7.0
 40
7.0
 40
7.0
 10
113.0418511002117
 20
-149.6876762863628
 30
0.0
 10
113.0418511002117
 20
-149.6876762863628
 30
0.0
 10
113.0418511002117
 20
-148.5831786737917
 30
0.0
 10
113.0418511002117
 20
-148.5831786737917
 30
0.0
 10
113.0418511002117
 20
-148.5831786737917
 30
0.0
 10
112.7118109527248
 20
-148.5831786737917
 30
0.0
 10
112.7118109527248
 20
-148.5831786737917
 30
0.0
 10
112.7118109527248
 20
-148.5831786737917
 30
0.0
 10
112.7118109527248
 20
-148.4350395679259
 30
0.0
 10
112.7118109527248
 20
-148.4350395679259
 30
0.0
 10
113.0439181575029
 20
-148.4203979121136
 30
0.0
 10
113.0904269465538
 20
-148.2574448956613
 30
0.0
 10
113.1200547677269
 20
-148.1432399803253
 30
0.0
 10
113.1200547677269
 20
-148.1432399803253
 30
0.0
 10
113.2661268163015
 20
-148.1432399803253
 30
0.0
 10
113.2661268163015
 20
-148.1432399803253
 30
0.0
 10
113.2661268163015
 20
-148.1432399803253
 30
0.0
 10
113.2661268163015
 20
-149.6876762863628
 30
0.0
 10
113.2661268163015
 20
-149.6876762863628
 30
0.0
 10
113.2661268163015
 20
-149.6876762863628
 30
0.0
 10
113.0418511002117
 20
-149.6876762863628
 30
0.0
 10
113.0418511002117
 20
-149.6876762863628
 30
0.0
  0
HATCH
  5
167
330
162
100
AcDbEntity
  8
レイヤー 1
 62
   250
420
  2299925
440
 33554687
100
AcDbHatch
 10
0.0
 20
0.0
 30
0.0
210
0.0
220
0.0
230
1.0
  2
SOLID
 70
     1
 71
     1
 91
        1
 92
        1
 93
        1
 72
     4
 94
        3
 73
     0
 74
     0
 95
       26
 96
       22
 40
0.0
 40
0.0
 40
0.0
 40
0.0
 40
1.0
 40
1.0
 40
1.0
 40
2.0
 40
2.0
 40
2.0
 40
3.0
 40
3.0
 40
3.0
 40
4.0
 40
4.0
 40
4.0
 40
5.0
 40
5.0
 40
5.0
 40
6.0
 40
6.0
 40
6.0
 40
7.0
 40
7.0
 40
7.0
 40
7.0
 10
113.0418511002117
 20
-149.6876762863628
 10
113.0418511002117
 20
-149.6876762863628
 10
113.0418511002117
 20
-148.5831786737917
 10
113.0418511002117
 20
-148.5831786737917
 10
113.0418511002117
 20
-148.5831786737917
 10
112.7118109527248
 20
-148.5831786737917
 10
112.7118109527248
 20
-148.5831786737917
 10
112.7118109527248
 20
-148.5831786737917
 10
112.7118109527248
 20
-148.4350395679259
 10
112.7118109527248
 20
-148.4350395679259
 10
113.0439181575029
 20
-148.4203979121136
 10
113.0904269465538
 20
-148.2574448956613
 10
113.1200547677269
 20
-148.1432399803253
 10
113.1200547677269
 20
-148.1432399803253
 10
113.2661268163015
 20
-148.1432399803253
 10
113.2661268163015
 20
-148.1432399803253
 10
113.2661268163015
 20
-148.1432399803253
 10
113.2661268163015
 20
-149.6876762863628
 10
113.2661268163015
 20
-149.6876762863628
 10
113.2661268163015
 20
-149.6876762863628
 10
113.0418511002117
 20
-149.6876762863628
 10
113.0418511002117
 20
-149.6876762863628
 97
        0
 97
        1
330
166
 75
     2
 76
     1
 98
        1
 10
0.0
 20
0.0
450
        0
451
        0
460
0.0
461
0.0
452
        0
462
0.0
453
        0
470

  0
ENDBLK
  5
165
330
162
100
AcDbEntity
  8
0
100
AcDbBlockEnd
  0
ENDSEC
  0
SECTION
  2
ENTITIES
  0
INSERT
  5
7A
330
70
100
AcDbEntity
  8
レイヤー 1
100
AcDbBlockReference
  2
Block_0
 10
0.0
 20
0.0
 30
0.0
  0
ENDSEC
  0
SECTION
  2
OBJECTS
  0
DICTIONARY
  5
C
330
0
100
AcDbDictionary
281
     1
  3
ACAD_COLOR
350
63
  3
ACAD_DETAILVIEWSTYLE
350
6A
  3
ACAD_GROUP
350
D
  3
ACAD_LAYOUT
350
62
  3
ACAD_MATERIAL
350
10
  3
ACAD_MLEADERSTYLE
350
66
  3
ACAD_MLINESTYLE
350
5F
  3
ACAD_PLOTSETTINGS
350
61
  3
ACAD_PLOTSTYLENAME
350
E
  3
ACAD_SCALELIST
350
42
  3
ACAD_SECTIONVIEWSTYLE
350
68
  3
ACAD_TABLESTYLE
350
64
  3
ACAD_VISUALSTYLE
350
29
  3
ACDB_RECOMPOSE_DATA
350
170
  3
AcDbVariableDictionary
350
168
  0
DICTIONARY
  5
63
102
{ACAD_REACTORS
330
C
102
}
330
C
100
AcDbDictionary
281
     1
  0
DICTIONARY
  5
6A
102
{ACAD_REACTORS
330
C
102
}
330
C
100
AcDbDictionary
281
     1
  3
Imperial24
350
6B
  0
DICTIONARY
  5
D
102
{ACAD_REACTORS
330
C
102
}
330
C
100
AcDbDictionary
281
     1
  0
DICTIONARY
  5
62
102
{ACAD_REACTORS
330
C
102
}
330
C
100
AcDbDictionary
281
     1
  3
Layout1
350
6F
  3
Layout2
350
77
  3
Model
350
73
  0
DICTIONARY
  5
10
102
{ACAD_REACTORS
330
C
102
}
330
C
100
AcDbDictionary
281
     1
  3
ByBlock
350
19
  3
ByLayer
350
11
  3
Global
350
21
  0
DICTIONARY
  5
66
102
{ACAD_REACTORS
330
C
102
}
330
C
100
AcDbDictionary
281
     1
  3
Standard
350
67
  0
DICTIONARY
  5
5F
102
{ACAD_REACTORS
330
C
102
}
330
C
100
AcDbDictionary
281
     1
  3
Standard
350
60
  0
DICTIONARY
  5
61
102
{ACAD_REACTORS
330
C
102
}
330
C
100
AcDbDictionary
281
     1
  0
ACDBDICTIONARYWDFLT
  5
E
102
{ACAD_REACTORS
330
C
102
}
330
C
100
AcDbDictionary
281
     1
  3
Normal
350
F
100
AcDbDictionaryWithDefault
340
F
  0
DICTIONARY
  5
42
102
{ACAD_REACTORS
330
C
102
}
330
C
100
AcDbDictionary
281
     1
  3
A0
350
43
  3
A1
350
44
  3
A2
350
45
  3
A3
350
46
  3
A4
350
47
  3
A5
350
48
  3
A6
350
49
  3
A7
350
4A
  3
A8
350
4B
  3
A9
350
4C
  3
B0
350
4D
  3
B1
350
4E
  3
B2
350
4F
  3
B3
350
50
  3
B4
350
51
  3
B5
350
52
  3
B6
350
53
  0
DICTIONARY
  5
68
102
{ACAD_REACTORS
330
C
102
}
330
C
100
AcDbDictionary
281
     1
  3
Imperial24
350
69
  0
DICTIONARY
  5
64
102
{ACAD_REACTORS
330
C
102
}
330
C
100
AcDbDictionary
281
     1
  3
Standard
350
65
  0
DICTIONARY
  5
29
102
{ACAD_REACTORS
330
C
102
}
330
C
100
AcDbDictionary
281
     1
  3
2dWireframe
350
2F
  3
Basic
350
2E
  3
Brighten
350
35
  3
ColorChange
350
39
  3
Conceptual
350
32
  3
Dim
350
34
  3
EdgeColorOff
350
41
  3
Facepattern
350
38
  3
Flat
350
2A
  3
FlatWithEdges
350
2B
  3
Gouraud
350
2C
  3
GouraudWithEdges
350
2D
  3
Hidden
350
31
  3
JitterOff
350
3F
  3
Linepattern
350
37
  3
OverhangOff
350
40
  3
Realistic
350
33
  3
Shaded
350
3E
  3
Shaded with edges
350
3D
  3
Shades of Gray
350
3A
  3
Sketchy
350
3B
  3
Thicken
350
36
  3
Wireframe
350
30
  3
X-Ray
350
3C
  0
XRECORD
  5
170
102
{ACAD_REACTORS
330
C
102
}
330
C
100
AcDbXrecord
280
     1
 90
        1
330
65
  0
DICTIONARY
  5
168
102
{ACAD_REACTORS
330
C
102
}
330
C
100
AcDbDictionary
281
     1
  3
CANNOSCALE
350
16D
  3
CMLEADERSTYLE
350
16A
  3
CTABLESTYLE
350
169
  3
CVIEWDETAILSTYLE
350
16B
  3
CVIEWSECTIONSTYLE
350
16C
  0
ACDBDETAILVIEWSTYLE
  5
6B
102
{ACAD_XDICTIONARY
360
1A5
102
}
102
{ACAD_REACTORS
330
6A
102
}
330
6A
100
AcDbModelDocViewStyle
 70
     0
  3
Imperial24
290
     0
100
AcDbDetailViewStyle
 70
     0
 71
     0
 90
        3
 71
     1
340
55
 62
   256
 40
0.24
340
0
 62
   256
 40
0.24
300

 40
0.36
280
     3
 71
     2
340
5D
 90
       25
 62
   256
 71
     3
340
55
 62
   256
 40
0.24
 90
        1
 40
0.75
 90
        1
300
%<\AcVar ViewType \f "%tc1">% %<\AcVar ViewDetailId>%\PSCALE %<\AcVar ViewScale \f "%sn">%
 71
     4
340
5D
 90
       25
 62
   256
340
5D
 90
       25
 62
   256
280
     0
  0
LAYOUT
  5
6F
102
{ACAD_REACTORS
330
62
102
}
330
62
100
AcDbPlotSettings
  1

  2

  4

  6

 40
0.0
 41
0.0
 42
0.0
 43
0.0
 44
0.0
 45
0.0
 46
0.0
 47
0.0
 48
0.0
 49
0.0
140
0.0
141
0.0
142
1.0
143
1.0
 70
   688
 72
     0
 73
     0
 74
     5
  7

 75
    16
147
1.0
 76
     0
 77
     2
 78
   300
148
0.0
149
0.0
100
AcDbLayout
  1
Layout1
 70
     1
 71
     1
 10
0.0
 20
0.0
 11
12.0
 21
9.0
 12
0.0
 22
0.0
 32
0.0
 14
0.0
 24
0.0
 34
0.0
 15
0.0
 25
0.0
 35
0.0
146
0.0
 13
0.0
 23
0.0
 33
0.0
 16
1.0
 26
0.0
 36
0.0
 17
0.0
 27
1.0
 37
0.0
 76
     0
330
6C
  0
LAYOUT
  5
77
102
{ACAD_REACTORS
330
62
102
}
330
62
100
AcDbPlotSettings
  1

  2

  4

  6

 40
0.0
 41
0.0
 42
0.0
 43
0.0
 44
0.0
 45
0.0
 46
0.0
 47
0.0
 48
0.0
 49
0.0
140
0.0
141
0.0
142
1.0
143
1.0
 70
   688
 72
     0
 73
     0
 74
     5
  7

 75
    16
147
1.0
 76
     0
 77
     2
 78
   300
148
0.0
149
0.0
100
AcDbLayout
  1
Layout2
 70
     1
 71
     2
 10
0.0
 20
0.0
 11
12.0
 21
9.0
 12
0.0
 22
0.0
 32
0.0
 14
0.0
 24
0.0
 34
0.0
 15
0.0
 25
0.0
 35
0.0
146
0.0
 13
0.0
 23
0.0
 33
0.0
 16
1.0
 26
0.0
 36
0.0
 17
0.0
 27
1.0
 37
0.0
 76
     0
330
74
  0
LAYOUT
  5
73
102
{ACAD_REACTORS
330
62
102
}
330
62
100
AcDbPlotSettings
  1

  2

  4

  6

 40
0.0
 41
0.0
 42
0.0
 43
0.0
 44
0.0
 45
0.0
 46
0.0
 47
0.0
 48
0.0
 49
0.0
140
0.0
141
0.0
142
1.0
143
1.0
 70
  1712
 72
     0
 73
     0
 74
     0
  7

 75
     0
147
1.0
 76
     0
 77
     2
 78
   300
148
0.0
149
0.0
100
AcDbLayout
  1
Model
 70
     1
 71
     0
 10
0.0
 20
0.0
 11
12.0
 21
9.0
 12
0.0
 22
0.0
 32
0.0
 14
0.0
 24
0.0
 34
0.0
 15
0.0
 25
0.0
 35
0.0
146
0.0
 13
0.0
 23
0.0
 33
0.0
 16
1.0
 26
0.0
 36
0.0
 17
0.0
 27
1.0
 37
0.0
 76
     0
330
70
  0
MATERIAL
  5
19
102
{ACAD_XDICTIONARY
360
1A
102
}
102
{ACAD_REACTORS
330
10
102
}
330
10
100
AcDbMaterial
  1
ByBlock
 72
     0
 43
0.0208333333333333
 43
0.0
 43
0.0
 43
0.0
 43
0.0
 43
0.0208333333333333
 43
0.0
 43
0.0
 43
0.0
 43
0.0
 43
1.0
 43
0.0
 43
0.0
 43
0.0
 43
0.0
 43
1.0
 77
     0
 47
0.0208333333333333
 47
0.0
 47
0.0
 47
0.0
 47
0.0
 47
0.0208333333333333
 47
0.0
 47
0.0
 47
0.0
 47
0.0
 47
1.0
 47
0.0
 47
0.0
 47
0.0
 47
0.0
 47
1.0
171
     0
 49
0.0208333333333333
 49
0.0
 49
0.0
 49
0.0
 49
0.0
 49
0.0208333333333333
 49
0.0
 49
0.0
 49
0.0
 49
0.0
 49
1.0
 49
0.0
 49
0.0
 49
0.0
 49
0.0
 49
1.0
175
     0
142
0.0208333333333333
142
0.0
142
0.0
142
0.0
142
0.0
142
0.0208333333333333
142
0.0
142
0.0
142
0.0
142
0.0
142
1.0
142
0.0
142
0.0
142
0.0
142
0.0
142
1.0
179
     0
144
0.0208333333333333
144
0.0
144
0.0
144
0.0
144
0.0
144
0.0208333333333333
144
0.0
144
0.0
144
0.0
144
0.0
144
1.0
144
0.0
144
0.0
144
0.0
144
0.0
144
1.0
147
0.0208333333333333
147
0.0
147
0.0
147
0.0
147
0.0
147
0.0208333333333333
147
0.0
147
0.0
147
0.0
147
0.0
147
1.0
147
0.0
147
0.0
147
0.0
147
0.0
147
1.0
  0
MATERIAL
  5
11
102
{ACAD_XDICTIONARY
360
12
102
}
102
{ACAD_REACTORS
330
10
102
}
330
10
100
AcDbMaterial
  1
ByLayer
 72
     0
 43
0.0208333333333333
 43
0.0
 43
0.0
 43
0.0
 43
0.0
 43
0.0208333333333333
 43
0.0
 43
0.0
 43
0.0
 43
0.0
 43
1.0
 43
0.0
 43
0.0
 43
0.0
 43
0.0
 43
1.0
 77
     0
 47
0.0208333333333333
 47
0.0
 47
0.0
 47
0.0
 47
0.0
 47
0.0208333333333333
 47
0.0
 47
0.0
 47
0.0
 47
0.0
 47
1.0
 47
0.0
 47
0.0
 47
0.0
 47
0.0
 47
1.0
171
     0
 49
0.0208333333333333
 49
0.0
 49
0.0
 49
0.0
 49
0.0
 49
0.0208333333333333
 49
0.0
 49
0.0
 49
0.0
 49
0.0
 49
1.0
 49
0.0
 49
0.0
 49
0.0
 49
0.0
 49
1.0
175
     0
142
0.0208333333333333
142
0.0
142
0.0
142
0.0
142
0.0
142
0.0208333333333333
142
0.0
142
0.0
142
0.0
142
0.0
142
1.0
142
0.0
142
0.0
142
0.0
142
0.0
142
1.0
179
     0
144
0.0208333333333333
144
0.0
144
0.0
144
0.0
144
0.0
144
0.0208333333333333
144
0.0
144
0.0
144
0.0
144
0.0
144
1.0
144
0.0
144
0.0
144
0.0
144
0.0
144
1.0
147
0.0208333333333333
147
0.0
147
0.0
147
0.0
147
0.0
147
0.0208333333333333
147
0.0
147
0.0
147
0.0
147
0.0
147
1.0
147
0.0
147
0.0
147
0.0
147
0.0
147
1.0
  0
MATERIAL
  5
21
102
{ACAD_XDICTIONARY
360
22
102
}
102
{ACAD_REACTORS
330
10
102
}
330
10
100
AcDbMaterial
  1
Global
 72
     0
 43
0.0208333333333333
 43
0.0
 43
0.0
 43
0.0
 43
0.0
 43
0.0208333333333333
 43
0.0
 43
0.0
 43
0.0
 43
0.0
 43
1.0
 43
0.0
 43
0.0
 43
0.0
 43
0.0
 43
1.0
 77
     0
 47
0.0208333333333333
 47
0.0
 47
0.0
 47
0.0
 47
0.0
 47
0.0208333333333333
 47
0.0
 47
0.0
 47
0.0
 47
0.0
 47
1.0
 47
0.0
 47
0.0
 47
0.0
 47
0.0
 47
1.0
171
     0
 49
0.0208333333333333
 49
0.0
 49
0.0
 49
0.0
 49
0.0
 49
0.0208333333333333
 49
0.0
 49
0.0
 49
0.0
 49
0.0
 49
1.0
 49
0.0
 49
0.0
 49
0.0
 49
0.0
 49
1.0
175
     0
142
0.0208333333333333
142
0.0
142
0.0
142
0.0
142
0.0
142
0.0208333333333333
142
0.0
142
0.0
142
0.0
142
0.0
142
1.0
142
0.0
142
0.0
142
0.0
142
0.0
142
1.0
179
     0
144
0.0208333333333333
144
0.0
144
0.0
144
0.0
144
0.0
144
0.0208333333333333
144
0.0
144
0.0
144
0.0
144
0.0
144
1.0
144
0.0
144
0.0
144
0.0
144
0.0
144
1.0
147
0.0208333333333333
147
0.0
147
0.0
147
0.0
147
0.0
147
0.0208333333333333
147
0.0
147
0.0
147
0.0
147
0.0
147
1.0
147
0.0
147
0.0
147
0.0
147
0.0
147
1.0
  0
MLEADERSTYLE
  5
67
102
{ACAD_XDICTIONARY
360
1A1
102
}
102
{ACAD_REACTORS
330
66
102
}
330
66
100
AcDbMLeaderStyle
179
     2
170
     2
171
     1
172
     0
 90
        2
 40
0.0
 41
0.0
173
     1
 91
-1056964608
340
5B
 92
       -2
290
     1
 42
0.09
291
     1
 43
0.36
  3
Standard
 44
0.18
300

342
55
174
     1
178
     6
175
     1
176
     0
 93
-1056964608
 45
0.18
292
     0
297
     0
 46
0.18
 94
-1056964608
 47
1.0
 49
1.0
140
1.0
293
     1
141
0.0
294
     1
177
     0
142
1.0
295
     0
296
     0
143
0.125
271
     0
272
     9
273
     9
  0
MLINESTYLE
  5
60
102
{ACAD_REACTORS
330
5F
102
}
330
5F
100
AcDbMlineStyle
  2
STANDARD
 70
     0
  3

 62
   256
 51
90.0
 52
90.0
 71
     2
 49
0.5
 62
   256
  6
BYLAYER
 49
-0.5
 62
   256
  6
BYLAYER
  0
ACDBPLACEHOLDER
  5
F
102
{ACAD_REACTORS
330
E
102
}
330
E
  0
SCALE
  5
43
102
{ACAD_REACTORS
330
42
102
}
330
42
100
AcDbScale
 70
     0
300
1:1
140
1.0
141
1.0
290
     1
  0
SCALE
  5
44
102
{ACAD_REACTORS
330
42
102
}
330
42
100
AcDbScale
 70
     0
300
1/128" = 1'-0"
140
0.0078125
141
12.0
290
     0
  0
SCALE
  5
45
102
{ACAD_REACTORS
330
42
102
}
330
42
100
AcDbScale
 70
     0
300
1/64" = 1'-0"
140
0.015625
141
12.0
290
     0
  0
SCALE
  5
46
102
{ACAD_REACTORS
330
42
102
}
330
42
100
AcDbScale
 70
     0
300
1/32" = 1'-0"
140
0.03125
141
12.0
290
     0
  0
SCALE
  5
47
102
{ACAD_REACTORS
330
42
102
}
330
42
100
AcDbScale
 70
     0
300
1/16" = 1'-0"
140
0.0625
141
12.0
290
     0
  0
SCALE
  5
48
102
{ACAD_REACTORS
330
42
102
}
330
42
100
AcDbScale
 70
     0
300
3/32" = 1'-0"
140
0.09375
141
12.0
290
     0
  0
SCALE
  5
49
102
{ACAD_REACTORS
330
42
102
}
330
42
100
AcDbScale
 70
     0
300
1/8" = 1'-0"
140
0.125
141
12.0
290
     0
  0
SCALE
  5
4A
102
{ACAD_REACTORS
330
42
102
}
330
42
100
AcDbScale
 70
     0
300
3/16" = 1'-0"
140
0.1875
141
12.0
290
     0
  0
SCALE
  5
4B
102
{ACAD_REACTORS
330
42
102
}
330
42
100
AcDbScale
 70
     0
300
1/4" = 1'-0"
140
0.25
141
12.0
290
     0
  0
SCALE
  5
4C
102
{ACAD_REACTORS
330
42
102
}
330
42
100
AcDbScale
 70
     0
300
3/8" = 1'-0"
140
0.375
141
12.0
290
     0
  0
SCALE
  5
4D
102
{ACAD_REACTORS
330
42
102
}
330
42
100
AcDbScale
 70
     0
300
1/2" = 1'-0"
140
0.5
141
12.0
290
     0
  0
SCALE
  5
4E
102
{ACAD_REACTORS
330
42
102
}
330
42
100
AcDbScale
 70
     0
300
3/4" = 1'-0"
140
0.75
141
12.0
290
     0
  0
SCALE
  5
4F
102
{ACAD_REACTORS
330
42
102
}
330
42
100
AcDbScale
 70
     0
300
1" = 1'-0"
140
1.0
141
12.0
290
     0
  0
SCALE
  5
50
102
{ACAD_REACTORS
330
42
102
}
330
42
100
AcDbScale
 70
     0
300
1-1/2" = 1'-0"
140
1.5
141
12.0
290
     0
  0
SCALE
  5
51
102
{ACAD_REACTORS
330
42
102
}
330
42
100
AcDbScale
 70
     0
300
3" = 1'-0"
140
3.0
141
12.0
290
     0
  0
SCALE
  5
52
102
{ACAD_REACTORS
330
42
102
}
330
42
100
AcDbScale
 70
     0
300
6" = 1'-0"
140
6.0
141
12.0
290
     0
  0
SCALE
  5
53
102
{ACAD_REACTORS
330
42
102
}
330
42
100
AcDbScale
 70
     0
300
1'-0" = 1'-0"
140
12.0
141
12.0
290
     0
  0
ACDBSECTIONVIEWSTYLE
  5
69
102
{ACAD_XDICTIONARY
360
1A3
102
}
102
{ACAD_REACTORS
330
68
102
}
330
68
100
AcDbModelDocViewStyle
 70
     0
  3
Imperial24
290
     0
100
AcDbSectionViewStyle
 70
     0
 71
     0
 90
       78
 71
     1
340
55
 62
   256
 40
0.24
340
0
340
0
 62
   256
 40
0.24
300
I, O, Q, S, X, Z
 40
0.48
 90
        3
 40
0.18
 90
        1
 71
     2
340
5D
 90
       25
 62
   256
340
5D
 90
       50
 62
   256
 40
0.24
 40
0.0
 40
0.24
 71
     3
340
55
 62
   256
 40
0.24
 90
        1
 40
0.75
 90
        1
300
%<\AcVar ViewType \f "%tc1">% %<\AcVar ViewSectionStartId>%-%<\AcVar ViewSectionEndId>%\PSCALE %<\AcVar ViewScale \f "%sn">%
 71
     4
 62
   256
 62
   257
300
ANSI31
 40
1.0
 90
        0
290
     0
290
     0
 90
        6
 40
0.0
 40
1.570796326794896
 40
0.2617993877991494
 40
1.308996938995747
 40
-0.2617993877991494
 40
1.832595714594046
  0
TABLESTYLE
  5
65
102
{ACAD_XDICTIONARY
360
16E
102
}
102
{ACAD_REACTORS
330
64
102
}
330
64
100
AcDbTableStyle
280
     0
  3
Standard
 70
     0
 71
     0
 40
0.06
 41
0.06
280
     0
281
     0
  7
Standard
140
0.18
170
     2
 62
     0
 63
     7
283
     0
 90
      512
 91
        0
  1

274
    -2
284
     1
 64
     0
275
    -2
285
     1
 65
     0
276
    -2
286
     1
 66
     0
277
    -2
287
     1
 67
     0
278
    -2
288
     1
 68
     0
279
    -2
289
     1
 69
     0
  7
Standard
140
0.25
170
     5
 62
     0
 63
     7
283
     0
 90
      512
 91
        0
  1

274
    -2
284
     1
 64
     0
275
    -2
285
     1
 65
     0
276
    -2
286
     1
 66
     0
277
    -2
287
     1
 67
     0
278
    -2
288
     1
 68
     0
279
    -2
289
     1
 69
     0
  7
Standard
140
0.18
170
     5
 62
     0
 63
     7
283
     0
 90
      512
 91
        0
  1

274
    -2
284
     1
 64
     0
275
    -2
285
     1
 65
     0
276
    -2
286
     1
 66
     0
277
    -2
287
     1
 67
     0
278
    -2
288
     1
 68
     0
279
    -2
289
     1
 69
     0
  0
VISUALSTYLE
  5
2F
102
{ACAD_XDICTIONARY
360
17B
102
}
102
{ACAD_REACTORS
330
29
102
}
330
29
100
AcDbVisualStyle
  2
2dWireframe
 70
     4
177
     2
291
     0
 71
     0
176
     1
 72
     2
176
     1
 73
     0
176
     1
 90
        0
176
     1
 40
0.6
176
     1
 41
30.0
176
     1
 63
     7
421
 16777215
176
     1
 74
     1
176
     1
 91
        4
176
     1
 64
     7
176
     1
 65
   257
176
     1
 75
     1
176
     1
175
     1
176
     1
 42
1.0
176
     1
 92
        0
176
     1
 66
   257
176
     1
 43
1.0
176
     1
 76
     1
176
     1
 77
     6
176
     1
 78
     2
176
     1
 67
     7
176
     1
 79
     5
176
     1
170
     0
176
     1
171
     0
176
     1
290
     0
176
     1
 93
        1
176
     1
 44
0.0
176
     1
173
     0
176
     1
1001
ACAD
1000
AcDbSavedByObjectVersion
1070
     0
  0
VISUALSTYLE
  5
2E
102
{ACAD_XDICTIONARY
360
179
102
}
102
{ACAD_REACTORS
330
29
102
}
330
29
100
AcDbVisualStyle
  2
Basic
 70
     7
177
     2
291
     1
 71
     1
176
     1
 72
     0
176
     1
 73
     1
176
     1
 90
        0
176
     1
 40
0.6
176
     1
 41
30.0
176
     1
 63
     7
421
 16777215
176
     1
 74
     0
176
     1
 91
        4
176
     1
 64
     7
176
     1
 65
   257
176
     1
 75
     1
176
     1
175
     1
176
     1
 42
1.0
176
     1
 92
        8
176
     1
 66
     7
176
     1
 43
1.0
176
     1
 76
     1
176
     1
 77
     6
176
     1
 78
     2
176
     1
 67
     7
176
     1
 79
     5
176
     1
170
     0
176
     1
171
     0
176
     1
290
     0
176
     1
 93
        1
176
     1
 44
0.0
176
     1
173
     0
176
     1
1001
ACAD
1000
AcDbSavedByObjectVersion
1070
     0
  0
VISUALSTYLE
  5
35
102
{ACAD_XDICTIONARY
360
187
102
}
102
{ACAD_REACTORS
330
29
102
}
330
29
100
AcDbVisualStyle
  2
Brighten
 70
    12
177
     2
291
     1
 71
     2
176
     1
 72
     2
176
     1
 73
     0
176
     1
 90
        0
176
     1
 40
0.6
176
     1
 41
30.0
176
     1
 63
     7
421
 16777215
176
     1
 74
     1
176
     1
 91
        4
176
     1
 64
     7
176
     1
 65
   257
176
     1
 75
     1
176
     1
175
     1
176
     1
 42
1.0
176
     1
 92
        8
176
     1
 66
     7
176
     1
 43
1.0
176
     1
 76
     1
176
     1
 77
     6
176
     1
 78
     2
176
     1
 67
     7
176
     1
 79
     5
176
     1
170
     0
176
     1
171
     0
176
     1
290
     0
176
     1
 93
        1
176
     1
 44
50.0
176
     1
173
     0
176
     1
1001
ACAD
1000
AcDbSavedByObjectVersion
1070
     0
  0
VISUALSTYLE
  5
39
102
{ACAD_XDICTIONARY
360
18F
102
}
102
{ACAD_REACTORS
330
29
102
}
330
29
100
AcDbVisualStyle
  2
ColorChange
 70
    16
177
     2
291
     1
 71
     2
176
     1
 72
     2
176
     1
 73
     3
176
     1
 90
        0
176
     1
 40
0.6
176
     1
 41
30.0
176
     1
 63
     8
421
  8421504
176
     1
 74
     1
176
     1
 91
        4
176
     1
 64
     7
176
     1
 65
   257
176
     1
 75
     1
176
     1
175
     1
176
     1
 42
1.0
176
     1
 92
        8
176
     1
 66
     8
424
  8421504
176
     1
 43
1.0
176
     1
 76
     1
176
     1
 77
     6
176
     1
 78
     2
176
     1
 67
     7
176
     1
 79
     5
176
     1
170
     0
176
     1
171
     0
176
     1
290
     0
176
     1
 93
        1
176
     1
 44
0.0
176
     1
173
     0
176
     1
1001
ACAD
1000
AcDbSavedByObjectVersion
1070
     0
  0
VISUALSTYLE
  5
32
102
{ACAD_XDICTIONARY
360
181
102
}
102
{ACAD_REACTORS
330
29
102
}
330
29
100
AcDbVisualStyle
  2
Conceptual
 70
     9
177
     2
291
     0
 71
     3
176
     1
 72
     2
176
     1
 73
     0
176
     1
 90
        0
176
     1
 40
0.6
176
     1
 41
30.0
176
     1
 63
     7
421
 16777215
176
     1
 74
     2
176
     1
 91
        2
176
     1
 64
     7
176
     1
 65
   257
176
     1
 75
     1
176
     1
175
     1
176
     1
 42
179.0
176
     1
 92
        8
176
     1
 66
     7
176
     1
 43
1.0
176
     1
 76
     1
176
     1
 77
     6
176
     1
 78
     2
176
     1
 67
     7
176
     1
 79
     3
176
     1
170
     0
176
     1
171
     0
176
     1
290
     0
176
     1
 93
        1
176
     1
 44
0.0
176
     1
173
     0
176
     1
1001
ACAD
1000
AcDbSavedByObjectVersion
1070
     0
  0
VISUALSTYLE
  5
34
102
{ACAD_XDICTIONARY
360
185
102
}
102
{ACAD_REACTORS
330
29
102
}
330
29
100
AcDbVisualStyle
  2
Dim
 70
    11
177
     2
291
     1
 71
     2
176
     1
 72
     2
176
     1
 73
     0
176
     1
 90
        0
176
     1
 40
0.6
176
     1
 41
30.0
176
     1
 63
     7
421
 16777215
176
     1
 74
     1
176
     1
 91
        4
176
     1
 64
     7
176
     1
 65
   257
176
     1
 75
     1
176
     1
175
     1
176
     1
 42
1.0
176
     1
 92
        8
176
     1
 66
     7
176
     1
 43
1.0
176
     1
 76
     1
176
     1
 77
     6
176
     1
 78
     2
176
     1
 67
     7
176
     1
 79
     5
176
     1
170
     0
176
     1
171
     0
176
     1
290
     0
176
     1
 93
        1
176
     1
 44
-50.0
176
     1
173
     0
176
     1
1001
ACAD
1000
AcDbSavedByObjectVersion
1070
     0
  0
VISUALSTYLE
  5
41
102
{ACAD_XDICTIONARY
360
19F
102
}
102
{ACAD_REACTORS
330
29
102
}
330
29
100
AcDbVisualStyle
  2
EdgeColorOff
 70
    22
177
     2
291
     1
 71
     2
176
     0
 72
     2
176
     0
 73
     0
176
     0
 90
        0
176
     0
 40
0.6
176
     0
 41
30.0
176
     0
 63
     7
421
 16777215
176
     0
 74
     1
176
     0
 91
        4
176
     0
 64
     7
176
     0
 65
   257
176
     0
 75
     1
176
     0
175
     1
176
     0
 42
1.0
176
     0
 92
        8
176
     2
 66
     7
176
     0
 43
1.0
176
     0
 76
     1
176
     0
 77
     6
176
     0
 78
     2
176
     0
 67
     7
176
     0
 79
     5
176
     0
170
     0
176
     0
171
     0
176
     0
290
     0
176
     0
 93
        1
176
     0
 44
0.0
176
     0
173
     0
176
     0
1001
ACAD
1000
AcDbSavedByObjectVersion
1070
     0
  0
VISUALSTYLE
  5
38
102
{ACAD_XDICTIONARY
360
18D
102
}
102
{ACAD_REACTORS
330
29
102
}
330
29
100
AcDbVisualStyle
  2
Facepattern
 70
    15
177
     2
291
     1
 71
     2
176
     1
 72
     2
176
     1
 73
     0
176
     1
 90
        0
176
     1
 40
0.6
176
     1
 41
30.0
176
     1
 63
     7
421
 16777215
176
     1
 74
     1
176
     1
 91
        4
176
     1
 64
     7
176
     1
 65
   257
176
     1
 75
     1
176
     1
175
     1
176
     1
 42
1.0
176
     1
 92
        8
176
     1
 66
     7
176
     1
 43
1.0
176
     1
 76
     1
176
     1
 77
     6
176
     1
 78
     2
176
     1
 67
     7
176
     1
 79
     5
176
     1
170
     0
176
     1
171
     0
176
     1
290
     0
176
     1
 93
        1
176
     1
 44
0.0
176
     1
173
     0
176
     1
1001
ACAD
1000
AcDbSavedByObjectVersion
1070
     0
  0
VISUALSTYLE
  5
2A
102
{ACAD_XDICTIONARY
360
171
102
}
102
{ACAD_REACTORS
330
29
102
}
330
29
100
AcDbVisualStyle
  2
Flat
 70
     0
177
     2
291
     1
 71
     2
176
     1
 72
     1
176
     1
 73
     1
176
     1
 90
        2
176
     1
 40
0.6
176
     1
 41
30.0
176
     1
 63
     7
421
 16777215
176
     1
 74
     0
176
     1
 91
        0
176
     1
 64
     7
176
     1
 65
   257
176
     1
 75
     1
176
     1
175
     1
176
     1
 42
1.0
176
     1
 92
        8
176
     1
 66
     7
176
     1
 43
1.0
176
     1
 76
     1
176
     1
 77
     6
176
     1
 78
     2
176
     1
 67
     7
176
     1
 79
     5
176
     1
170
     0
176
     1
171
     0
176
     1
290
     0
176
     1
 93
       13
176
     1
 44
0.0
176
     1
173
     0
176
     1
1001
ACAD
1000
AcDbSavedByObjectVersion
1070
     0
  0
VISUALSTYLE
  5
2B
102
{ACAD_XDICTIONARY
360
173
102
}
102
{ACAD_REACTORS
330
29
102
}
330
29
100
AcDbVisualStyle
  2
FlatWithEdges
 70
     1
177
     2
291
     1
 71
     2
176
     1
 72
     1
176
     1
 73
     1
176
     1
 90
        2
176
     1
 40
0.6
176
     1
 41
30.0
176
     1
 63
     7
421
 16777215
176
     1
 74
     1
176
     1
 91
        0
176
     1
 64
     7
176
     1
 65
   257
176
     1
 75
     1
176
     1
175
     1
176
     1
 42
1.0
176
     1
 92
        0
176
     1
 66
   257
176
     1
 43
1.0
176
     1
 76
     1
176
     1
 77
     6
176
     1
 78
     2
176
     1
 67
     7
176
     1
 79
     5
176
     1
170
     0
176
     1
171
     0
176
     1
290
     0
176
     1
 93
       13
176
     1
 44
0.0
176
     1
173
     0
176
     1
1001
ACAD
1000
AcDbSavedByObjectVersion
1070
     0
  0
VISUALSTYLE
  5
2C
102
{ACAD_XDICTIONARY
360
175
102
}
102
{ACAD_REACTORS
330
29
102
}
330
29
100
AcDbVisualStyle
  2
Gouraud
 70
     2
177
     2
291
     1
 71
     2
176
     1
 72
     2
176
     1
 73
     1
176
     1
 90
        2
176
     1
 40
0.6
176
     1
 41
30.0
176
     1
 63
     7
421
 16777215
176
     1
 74
     0
176
     1
 91
        0
176
     1
 64
     7
176
     1
 65
   257
176
     1
 75
     1
176
     1
175
     1
176
     1
 42
1.0
176
     1
 92
        0
176
     1
 66
     7
176
     1
 43
1.0
176
     1
 76
     1
176
     1
 77
     6
176
     1
 78
     2
176
     1
 67
     7
176
     1
 79
     5
176
     1
170
     0
176
     1
171
     0
176
     1
290
     0
176
     1
 93
       13
176
     1
 44
0.0
176
     1
173
     0
176
     1
1001
ACAD
1000
AcDbSavedByObjectVersion
1070
     0
  0
VISUALSTYLE
  5
2D
102
{ACAD_XDICTIONARY
360
177
102
}
102
{ACAD_REACTORS
330
29
102
}
330
29
100
AcDbVisualStyle
  2
GouraudWithEdges
 70
     3
177
     2
291
     1
 71
     2
176
     1
 72
     2
176
     1
 73
     1
176
     1
 90
        2
176
     1
 40
0.6
176
     1
 41
30.0
176
     1
 63
     7
421
 16777215
176
     1
 74
     1
176
     1
 91
        0
176
     1
 64
     7
176
     1
 65
   257
176
     1
 75
     1
176
     1
175
     1
176
     1
 42
1.0
176
     1
 92
        0
176
     1
 66
   257
176
     1
 43
1.0
176
     1
 76
     1
176
     1
 77
     6
176
     1
 78
     2
176
     1
 67
     7
176
     1
 79
     5
176
     1
170
     0
176
     1
171
     0
176
     1
290
     0
176
     1
 93
       13
176
     1
 44
0.0
176
     1
173
     0
176
     1
1001
ACAD
1000
AcDbSavedByObjectVersion
1070
     0
  0
VISUALSTYLE
  5
31
102
{ACAD_XDICTIONARY
360
17F
102
}
102
{ACAD_REACTORS
330
29
102
}
330
29
100
AcDbVisualStyle
  2
Hidden
 70
     6
177
     2
291
     0
 71
     1
176
     1
 72
     2
176
     1
 73
     2
176
     1
 90
        0
176
     1
 40
0.6
176
     1
 41
30.0
176
     1
 63
     7
421
 16777215
176
     1
 74
     2
176
     1
 91
        2
176
     1
 64
     7
176
     1
 65
   257
176
     1
 75
     2
176
     1
175
     1
176
     1
 42
40.0
176
     1
 92
        0
176
     1
 66
   257
176
     1
 43
1.0
176
     1
 76
     1
176
     1
 77
     6
176
     1
 78
     2
176
     1
 67
     7
176
     1
 79
     3
176
     1
170
     0
176
     1
171
     0
176
     1
290
     0
176
     1
 93
        1
176
     1
 44
0.0
176
     1
173
     0
176
     1
1001
ACAD
1000
AcDbSavedByObjectVersion
1070
     0
  0
VISUALSTYLE
  5
3F
102
{ACAD_XDICTIONARY
360
19B
102
}
102
{ACAD_REACTORS
330
29
102
}
330
29
100
AcDbVisualStyle
  2
JitterOff
 70
    20
177
     2
291
     1
 71
     2
176
     0
 72
     2
176
     0
 73
     0
176
     0
 90
        0
176
     0
 40
0.6
176
     0
 41
30.0
176
     0
 63
     7
421
 16777215
176
     0
 74
     1
176
     0
 91
        4
176
     0
 64
     7
176
     0
 65
   257
176
     0
 75
     1
176
     0
175
     1
176
     0
 42
1.0
176
     0
 92
       10
176
     2
 66
     7
176
     0
 43
1.0
176
     0
 76
     1
176
     0
 77
     6
176
     0
 78
     2
176
     0
 67
     7
176
     0
 79
     5
176
     0
170
     0
176
     0
171
     0
176
     0
290
     0
176
     0
 93
        1
176
     0
 44
0.0
176
     0
173
     0
176
     0
1001
ACAD
1000
AcDbSavedByObjectVersion
1070
     0
  0
VISUALSTYLE
  5
37
102
{ACAD_XDICTIONARY
360
18B
102
}
102
{ACAD_REACTORS
330
29
102
}
330
29
100
AcDbVisualStyle
  2
Linepattern
 70
    14
177
     2
291
     1
 71
     2
176
     1
 72
     2
176
     1
 73
     0
176
     1
 90
        0
176
     1
 40
0.6
176
     1
 41
30.0
176
     1
 63
     7
421
 16777215
176
     1
 74
     1
176
     1
 91
        4
176
     1
 64
     7
176
     1
 65
   257
176
     1
 75
     7
176
     1
175
     7
176
     1
 42
1.0
176
     1
 92
        8
176
     1
 66
     7
176
     1
 43
1.0
176
     1
 76
     1
176
     1
 77
     6
176
     1
 78
     2
176
     1
 67
     7
176
     1
 79
     5
176
     1
170
     0
176
     1
171
     0
176
     1
290
     0
176
     1
 93
        1
176
     1
 44
0.0
176
     1
173
     0
176
     1
1001
ACAD
1000
AcDbSavedByObjectVersion
1070
     0
  0
VISUALSTYLE
  5
40
102
{ACAD_XDICTIONARY
360
19D
102
}
102
{ACAD_REACTORS
330
29
102
}
330
29
100
AcDbVisualStyle
  2
OverhangOff
 70
    21
177
     2
291
     1
 71
     2
176
     0
 72
     2
176
     0
 73
     0
176
     0
 90
        0
176
     0
 40
0.6
176
     0
 41
30.0
176
     0
 63
     7
421
 16777215
176
     0
 74
     1
176
     0
 91
        4
176
     0
 64
     7
176
     0
 65
   257
176
     0
 75
     1
176
     0
175
     1
176
     0
 42
1.0
176
     0
 92
        9
176
     2
 66
     7
176
     0
 43
1.0
176
     0
 76
     1
176
     0
 77
     6
176
     0
 78
     2
176
     0
 67
     7
176
     0
 79
     5
176
     0
170
     0
176
     0
171
     0
176
     0
290
     0
176
     0
 93
        1
176
     0
 44
0.0
176
     0
173
     0
176
     0
1001
ACAD
1000
AcDbSavedByObjectVersion
1070
     0
  0
VISUALSTYLE
  5
33
102
{ACAD_XDICTIONARY
360
183
102
}
102
{ACAD_REACTORS
330
29
102
}
330
29
100
AcDbVisualStyle
  2
Realistic
 70
     8
177
     2
291
     0
 71
     2
176
     1
 72
     3
176
     1
 73
     0
176
     1
 90
        2
176
     1
 40
0.6
176
     1
 41
30.0
176
     1
 63
     7
421
 16777215
176
     1
 74
     0
176
     1
 91
        0
176
     1
 64
     7
176
     1
 65
   257
176
     1
 75
     1
176
     1
175
     1
176
     1
 42
1.0
176
     1
 92
        8
176
     1
 66
   257
176
     1
 43
1.0
176
     1
 76
     1
176
     1
 77
     6
176
     1
 78
     2
176
     1
 67
     7
176
     1
 79
     3
176
     1
170
     0
176
     1
171
     0
176
     1
290
     0
176
     1
 93
       13
176
     1
 44
0.0
176
     1
173
     0
176
     1
1001
ACAD
1000
AcDbSavedByObjectVersion
1070
     0
  0
VISUALSTYLE
  5
3E
102
{ACAD_XDICTIONARY
360
199
102
}
102
{ACAD_REACTORS
330
29
102
}
330
29
100
AcDbVisualStyle
  2
Shaded
 70
    27
177
     2
291
     0
 71
     2
176
     1
 72
     2
176
     1
 73
     1
176
     1
 90
        2
176
     1
 40
0.6
176
     1
 41
30.0
176
     1
 63
     7
421
 16777215
176
     1
 74
     0
176
     1
 91
        4
176
     1
 64
     7
176
     1
 65
   257
176
     1
 75
     1
176
     1
175
     1
176
     1
 42
1.0
176
     1
 92
        8
176
     1
 66
   257
176
     1
 43
1.0
176
     1
 76
     1
176
     1
 77
     6
176
     1
 78
     2
176
     1
 67
     8
425
  7895160
176
     1
 79
     3
176
     1
170
     0
176
     1
171
     0
176
     1
290
     0
176
     1
 93
        5
176
     1
 44
0.0
176
     1
173
     0
176
     1
1001
ACAD
1000
AcDbSavedByObjectVersion
1070
     0
  0
VISUALSTYLE
  5
3D
102
{ACAD_XDICTIONARY
360
197
102
}
102
{ACAD_REACTORS
330
29
102
}
330
29
100
AcDbVisualStyle
  2
Shaded with edges
 70
    26
177
     2
291
     0
 71
     2
176
     1
 72
     2
176
     1
 73
     1
176
     1
 90
        2
176
     1
 40
0.6
176
     1
 41
30.0
176
     1
 63
     7
421
 16777215
176
     1
 74
     1
176
     1
 91
        2
176
     1
 64
     7
176
     1
 65
   257
176
     1
 75
     2
176
     1
175
     1
176
     1
 42
1.0
176
     1
 92
        8
176
     1
 66
   257
176
     1
 43
1.0
176
     1
 76
     1
176
     1
 77
     6
176
     1
 78
     2
176
     1
 67
     7
176
     1
 79
     3
176
     1
170
     0
176
     1
171
     0
176
     1
290
     0
176
     1
 93
        5
176
     1
 44
0.0
176
     1
173
     0
176
     1
1001
ACAD
1000
AcDbSavedByObjectVersion
1070
     0
  0
VISUALSTYLE
  5
3A
102
{ACAD_XDICTIONARY
360
191
102
}
102
{ACAD_REACTORS
330
29
102
}
330
29
100
AcDbVisualStyle
  2
Shades of Gray
 70
    23
177
     2
291
     0
 71
     2
176
     1
 72
     2
176
     1
 73
     3
176
     1
 90
        0
176
     1
 40
0.6
176
     1
 41
30.0
176
     1
 63
     7
421
 16777215
176
     1
 74
     2
176
     1
 91
        2
176
     1
 64
     7
176
     1
 65
     7
176
     1
 75
     1
176
     1
175
     1
176
     1
 42
40.0
176
     1
 92
        8
176
     1
 66
     7
176
     1
 43
1.0
176
     1
 76
     1
176
     1
 77
     6
176
     1
 78
     2
176
     1
 67
     7
176
     1
 79
     3
176
     1
170
     0
176
     1
171
     0
176
     1
290
     0
176
     1
 93
        1
176
     1
 44
0.0
176
     1
173
     0
176
     1
1001
ACAD
1000
AcDbSavedByObjectVersion
1070
     0
  0
VISUALSTYLE
  5
3B
102
{ACAD_XDICTIONARY
360
193
102
}
102
{ACAD_REACTORS
330
29
102
}
330
29
100
AcDbVisualStyle
  2
Sketchy
 70
    24
177
     2
291
     0
 71
     1
176
     1
 72
     2
176
     1
 73
     2
176
     1
 90
        0
176
     1
 40
0.6
176
     1
 41
30.0
176
     1
 63
     7
421
 16777215
176
     1
 74
     2
176
     1
 91
        2
176
     1
 64
     7
176
     1
 65
     7
176
     1
 75
     1
176
     1
175
     1
176
     1
 42
40.0
176
     1
 92
       11
176
     1
 66
     7
176
     1
 43
1.0
176
     1
 76
     1
176
     1
 77
     6
176
     1
 78
     2
176
     1
 67
     7
176
     1
 79
     6
176
     1
170
     0
176
     1
171
     0
176
     1
290
     0
176
     1
 93
        1
176
     1
 44
0.0
176
     1
173
     0
176
     1
1001
ACAD
1000
AcDbSavedByObjectVersion
1070
     0
  0
VISUALSTYLE
  5
36
102
{ACAD_XDICTIONARY
360
189
102
}
102
{ACAD_REACTORS
330
29
102
}
330
29
100
AcDbVisualStyle
  2
Thicken
 70
    13
177
     2
291
     1
 71
     2
176
     1
 72
     2
176
     1
 73
     0
176
     1
 90
        0
176
     1
 40
0.6
176
     1
 41
30.0
176
     1
 63
     7
421
 16777215
176
     1
 74
     1
176
     1
 91
        4
176
     1
 64
     7
176
     1
 65
   257
176
     1
 75
     1
176
     1
175
     1
176
     1
 42
1.0
176
     1
 92
       12
176
     1
 66
     7
176
     1
 43
1.0
176
     1
 76
     1
176
     1
 77
     6
176
     1
 78
     2
176
     1
 67
     7
176
     1
 79
     5
176
     1
170
     0
176
     1
171
     0
176
     1
290
     0
176
     1
 93
        1
176
     1
 44
0.0
176
     1
173
     0
176
     1
1001
ACAD
1000
AcDbSavedByObjectVersion
1070
     0
  0
VISUALSTYLE
  5
30
102
{ACAD_XDICTIONARY
360
17D
102
}
102
{ACAD_REACTORS
330
29
102
}
330
29
100
AcDbVisualStyle
  2
Wireframe
 70
     5
177
     2
291
     0
 71
     0
176
     1
 72
     2
176
     1
 73
     0
176
     1
 90
        0
176
     1
 40
0.6
176
     1
 41
30.0
176
     1
 63
     7
421
 16777215
176
     1
 74
     1
176
     1
 91
        4
176
     1
 64
     7
176
     1
 65
   257
176
     1
 75
     1
176
     1
175
     1
176
     1
 42
1.0
176
     1
 92
        0
176
     1
 66
   257
176
     1
 43
1.0
176
     1
 76
     1
176
     1
 77
     6
176
     1
 78
     2
176
     1
 67
     7
176
     1
 79
     3
176
     1
170
     0
176
     1
171
     0
176
     1
290
     0
176
     1
 93
        1
176
     1
 44
0.0
176
     1
173
     0
176
     1
1001
ACAD
1000
AcDbSavedByObjectVersion
1070
     0
  0
VISUALSTYLE
  5
3C
102
{ACAD_XDICTIONARY
360
195
102
}
102
{ACAD_REACTORS
330
29
102
}
330
29
100
AcDbVisualStyle
  2
X-Ray
 70
    25
177
     2
291
     0
 71
     2
176
     1
 72
     2
176
     1
 73
     1
176
     1
 90
        1
176
     1
 40
0.5
176
     1
 41
30.0
176
     1
 63
     7
421
 16777215
176
     1
 74
     1
176
     1
 91
        0
176
     1
 64
     7
176
     1
 65
   257
176
     1
 75
     1
176
     1
175
     1
176
     1
 42
1.0
176
     1
 92
        8
176
     1
 66
     7
176
     1
 43
1.0
176
     1
 76
     1
176
     1
 77
     6
176
     1
 78
     2
176
     1
 67
     7
176
     1
 79
     3
176
     1
170
     0
176
     1
171
     0
176
     1
290
     0
176
     1
 93
       13
176
     1
 44
0.0
176
     1
173
     0
176
     1
1001
ACAD
1000
AcDbSavedByObjectVersion
1070
     0
  0
DICTIONARYVAR
  5
16D
102
{ACAD_REACTORS
330
168
102
}
330
168
100
DictionaryVariables
280
     0
  1
1:1
  0
DICTIONARYVAR
  5
16A
102
{ACAD_REACTORS
330
168
102
}
330
168
100
DictionaryVariables
280
     0
  1
STANDARD
  0
DICTIONARYVAR
  5
169
102
{ACAD_REACTORS
330
168
102
}
330
168
100
DictionaryVariables
280
     0
  1
STANDARD
  0
DICTIONARYVAR
  5
16B
102
{ACAD_REACTORS
330
168
102
}
330
168
100
DictionaryVariables
280
     0
  1
Imperial24
  0
DICTIONARYVAR
  5
16C
102
{ACAD_REACTORS
330
168
102
}
330
168
100
DictionaryVariables
280
     0
  1
Imperial24
  0
DICTIONARY
  5
1A5
330
6B
100
AcDbDictionary
280
     1
281
     1
  3
ACAD_XREC_ROUNDTRIP
360
1A6
  0
DICTIONARY
  5
1A
330
19
100
AcDbDictionary
280
     1
281
     1
  3
BUMPTILE
360
1C
  3
DIFFUSETILE
360
1B
  3
OPACITYTILE
360
1F
  3
REFLECTIONTILE
360
1E
  3
REFRACTIONTILE
360
20
  3
SPECULARTILE
360
1D
  0
DICTIONARY
  5
12
330
11
100
AcDbDictionary
280
     1
281
     1
  3
BUMPTILE
360
14
  3
DIFFUSETILE
360
13
  3
OPACITYTILE
360
17
  3
REFLECTIONTILE
360
16
  3
REFRACTIONTILE
360
18
  3
SPECULARTILE
360
15
  0
DICTIONARY
  5
22
330
21
100
AcDbDictionary
280
     1
281
     1
  3
BUMPTILE
360
24
  3
DIFFUSETILE
360
23
  3
OPACITYTILE
360
27
  3
REFLECTIONTILE
360
26
  3
REFRACTIONTILE
360
28
  3
SPECULARTILE
360
25
  0
DICTIONARY
  5
1A1
330
67
100
AcDbDictionary
280
     1
281
     1
  3
ACAD_XREC_ROUNDTRIP
360
1A2
  0
DICTIONARY
  5
1A3
330
69
100
AcDbDictionary
280
     1
281
     1
  3
ACAD_XREC_ROUNDTRIP
360
1A4
  0
DICTIONARY
  5
16E
330
65
100
AcDbDictionary
280
     1
281
     1
  3
ACAD_ROUNDTRIP_2008_TABLESTYLE_CELLSTYLEMAP
360
16F
  0
DICTIONARY
  5
17B
330
2F
100
AcDbDictionary
280
     1
281
     1
  3
ACAD_XREC_ROUNDTRIP
360
17C
  0
DICTIONARY
  5
179
330
2E
100
AcDbDictionary
280
     1
281
     1
  3
ACAD_XREC_ROUNDTRIP
360
17A
  0
DICTIONARY
  5
187
330
35
100
AcDbDictionary
280
     1
281
     1
  3
ACAD_XREC_ROUNDTRIP
360
188
  0
DICTIONARY
  5
18F
330
39
100
AcDbDictionary
280
     1
281
     1
  3
ACAD_XREC_ROUNDTRIP
360
190
  0
DICTIONARY
  5
181
330
32
100
AcDbDictionary
280
     1
281
     1
  3
ACAD_XREC_ROUNDTRIP
360
182
  0
DICTIONARY
  5
185
330
34
100
AcDbDictionary
280
     1
281
     1
  3
ACAD_XREC_ROUNDTRIP
360
186
  0
DICTIONARY
  5
19F
330
41
100
AcDbDictionary
280
     1
281
     1
  3
ACAD_XREC_ROUNDTRIP
360
1A0
  0
DICTIONARY
  5
18D
330
38
100
AcDbDictionary
280
     1
281
     1
  3
ACAD_XREC_ROUNDTRIP
360
18E
  0
DICTIONARY
  5
171
330
2A
100
AcDbDictionary
280
     1
281
     1
  3
ACAD_XREC_ROUNDTRIP
360
172
  0
DICTIONARY
  5
173
330
2B
100
AcDbDictionary
280
     1
281
     1
  3
ACAD_XREC_ROUNDTRIP
360
174
  0
DICTIONARY
  5
175
330
2C
100
AcDbDictionary
280
     1
281
     1
  3
ACAD_XREC_ROUNDTRIP
360
176
  0
DICTIONARY
  5
177
330
2D
100
AcDbDictionary
280
     1
281
     1
  3
ACAD_XREC_ROUNDTRIP
360
178
  0
DICTIONARY
  5
17F
330
31
100
AcDbDictionary
280
     1
281
     1
  3
ACAD_XREC_ROUNDTRIP
360
180
  0
DICTIONARY
  5
19B
330
3F
100
AcDbDictionary
280
     1
281
     1
  3
ACAD_XREC_ROUNDTRIP
360
19C
  0
DICTIONARY
  5
18B
330
37
100
AcDbDictionary
280
     1
281
     1
  3
ACAD_XREC_ROUNDTRIP
360
18C
  0
DICTIONARY
  5
19D
330
40
100
AcDbDictionary
280
     1
281
     1
  3
ACAD_XREC_ROUNDTRIP
360
19E
  0
DICTIONARY
  5
183
330
33
100
AcDbDictionary
280
     1
281
     1
  3
ACAD_XREC_ROUNDTRIP
360
184
  0
DICTIONARY
  5
199
330
3E
100
AcDbDictionary
280
     1
281
     1
  3
ACAD_XREC_ROUNDTRIP
360
19A
  0
DICTIONARY
  5
197
330
3D
100
AcDbDictionary
280
     1
281
     1
  3
ACAD_XREC_ROUNDTRIP
360
198
  0
DICTIONARY
  5
191
330
3A
100
AcDbDictionary
280
     1
281
     1
  3
ACAD_XREC_ROUNDTRIP
360
192
  0
DICTIONARY
  5
193
330
3B
100
AcDbDictionary
280
     1
281
     1
  3
ACAD_XREC_ROUNDTRIP
360
194
  0
DICTIONARY
  5
189
330
36
100
AcDbDictionary
280
     1
281
     1
  3
ACAD_XREC_ROUNDTRIP
360
18A
  0
DICTIONARY
  5
17D
330
30
100
AcDbDictionary
280
     1
281
     1
  3
ACAD_XREC_ROUNDTRIP
360
17E
  0
DICTIONARY
  5
195
330
3C
100
AcDbDictionary
280
     1
281
     1
  3
ACAD_XREC_ROUNDTRIP
360
196
  0
XRECORD
  5
1A6
102
{ACAD_REACTORS
330
1A5
102
}
330
1A5
100
AcDbXrecord
280
     1
102
DISPLAYNAME
  1
Imperial24
102
FLAGS
 90
        0
  0
XRECORD
  5
1C
102
{ACAD_REACTORS
330
1A
102
}
330
1A
100
AcDbXrecord
280
     1
270
     1
271
     1
  0
XRECORD
  5
1B
102
{ACAD_REACTORS
330
1A
102
}
330
1A
100
AcDbXrecord
280
     1
270
     1
271
     1
  0
XRECORD
  5
1F
102
{ACAD_REACTORS
330
1A
102
}
330
1A
100
AcDbXrecord
280
     1
270
     1
271
     1
  0
XRECORD
  5
1E
102
{ACAD_REACTORS
330
1A
102
}
330
1A
100
AcDbXrecord
280
     1
270
     1
271
     1
  0
XRECORD
  5
20
102
{ACAD_REACTORS
330
1A
102
}
330
1A
100
AcDbXrecord
280
     1
270
     1
271
     1
  0
XRECORD
  5
1D
102
{ACAD_REACTORS
330
1A
102
}
330
1A
100
AcDbXrecord
280
     1
270
     1
271
     1
  0
XRECORD
  5
14
102
{ACAD_REACTORS
330
12
102
}
330
12
100
AcDbXrecord
280
     1
270
     1
271
     1
  0
XRECORD
  5
13
102
{ACAD_REACTORS
330
12
102
}
330
12
100
AcDbXrecord
280
     1
270
     1
271
     1
  0
XRECORD
  5
17
102
{ACAD_REACTORS
330
12
102
}
330
12
100
AcDbXrecord
280
     1
270
     1
271
     1
  0
XRECORD
  5
16
102
{ACAD_REACTORS
330
12
102
}
330
12
100
AcDbXrecord
280
     1
270
     1
271
     1
  0
XRECORD
  5
18
102
{ACAD_REACTORS
330
12
102
}
330
12
100
AcDbXrecord
280
     1
270
     1
271
     1
  0
XRECORD
  5
15
102
{ACAD_REACTORS
330
12
102
}
330
12
100
AcDbXrecord
280
     1
270
     1
271
     1
  0
XRECORD
  5
24
102
{ACAD_REACTORS
330
22
102
}
330
22
100
AcDbXrecord
280
     1
270
     1
271
     1
  0
XRECORD
  5
23
102
{ACAD_REACTORS
330
22
102
}
330
22
100
AcDbXrecord
280
     1
270
     1
271
     1
  0
XRECORD
  5
27
102
{ACAD_REACTORS
330
22
102
}
330
22
100
AcDbXrecord
280
     1
270
     1
271
     1
  0
XRECORD
  5
26
102
{ACAD_REACTORS
330
22
102
}
330
22
100
AcDbXrecord
280
     1
270
     1
271
     1
  0
XRECORD
  5
28
102
{ACAD_REACTORS
330
22
102
}
330
22
100
AcDbXrecord
280
     1
270
     1
271
     1
  0
XRECORD
  5
25
102
{ACAD_REACTORS
330
22
102
}
330
22
100
AcDbXrecord
280
     1
270
     1
271
     1
  0
XRECORD
  5
1A2
102
{ACAD_REACTORS
330
1A1
102
}
330
1A1
100
AcDbXrecord
280
     1
102
ACAD_ROUNDTRIP_2012_MLEADER_STYLE
298
     1
  0
XRECORD
  5
1A4
102
{ACAD_REACTORS
330
1A3
102
}
330
1A3
100
AcDbXrecord
280
     1
102
DISPLAYNAME
  1
Imperial24
102
FLAGS
 90
        0
  0
CELLSTYLEMAP
  5
16F
102
{ACAD_REACTORS
330
16E
102
}
330
16E
100
AcDbCellStyleMap
 90
        3
300
CELLSTYLE
  1
TABLEFORMAT_BEGIN
 90
        5
170
     1
 91
        0
 92
    32768
 62
   257
 93
        1
300
CONTENTFORMAT
  1
CONTENTFORMAT_BEGIN
 90
        0
 91
        0
 92
      512
 93
        0
300

 40
0.0
140
1.0
 94
        5
 62
     0
340
55
144
0.25
309
CONTENTFORMAT_END
171
     0
 94
        0
309
TABLEFORMAT_END
  1
CELLSTYLE_BEGIN
 90
        1
 91
        1
300
_TITLE
309
CELLSTYLE_END
300
CELLSTYLE
  1
TABLEFORMAT_BEGIN
 90
        5
170
     1
 91
        0
 92
        0
 62
   257
 93
        1
300
CONTENTFORMAT
  1
CONTENTFORMAT_BEGIN
 90
        0
 91
        0
 92
      512
 93
        0
300

 40
0.0
140
1.0
 94
        5
 62
     0
340
55
144
0.18
309
CONTENTFORMAT_END
171
     0
 94
        0
309
TABLEFORMAT_END
  1
CELLSTYLE_BEGIN
 90
        2
 91
        1
300
_HEADER
309
CELLSTYLE_END
300
CELLSTYLE
  1
TABLEFORMAT_BEGIN
 90
        5
170
     1
 91
        0
 92
        0
 62
   257
 93
        1
300
CONTENTFORMAT
  1
CONTENTFORMAT_BEGIN
 90
        0
 91
        0
 92
      512
 93
        0
300

 40
0.0
140
1.0
 94
        2
 62
     0
340
55
144
0.18
309
CONTENTFORMAT_END
171
     0
 94
        0
309
TABLEFORMAT_END
  1
CELLSTYLE_BEGIN
 90
        3
 91
        2
300
_DATA
309
CELLSTYLE_END
  0
XRECORD
  5
17C
102
{ACAD_REACTORS
330
17B
102
}
330
17B
100
AcDbXrecord
280
     1
102
RTVSPost2010Prop28
280
     1
102
RTVSPost2010PropOp28
 70
     1
102
RTVSPost2010Prop29
280
     1
102
RTVSPost2010PropOp29
 70
     1
102
RTVSPost2010Prop30
280
     0
102
RTVSPost2010PropOp30
 70
     1
102
RTVSPost2010Prop31
280
     0
102
RTVSPost2010PropOp31
 70
     1
102
RTVSPost2010Prop32
280
     0
102
RTVSPost2010PropOp32
 70
     1
102
RTVSPost2010Prop33
280
     0
102
RTVSPost2010PropOp33
 70
     1
102
RTVSPost2010Prop34
280
     0
102
RTVSPost2010PropOp34
 70
     1
102
RTVSPost2010Prop35
280
     0
102
RTVSPost2010PropOp35
 70
     1
102
RTVSPost2010Prop36
280
     0
102
RTVSPost2010PropOp36
 70
     1
102
RTVSPost2010Prop37
 90
       50
102
RTVSPost2010PropOp37
 70
     1
102
RTVSPost2010Prop38
140
0.0
102
RTVSPost2010PropOp38
 70
     1
102
RTVSPost2010Prop39
140
1.0
102
RTVSPost2010PropOp39
 70
     1
102
RTVSPost2010Prop40
 90
        0
102
RTVSPost2010PropOp40
 70
     1
102
RTVSPost2010Prop41ColorIndex
 90
       18
102
RTVSPost2010Prop41ColorRGB
 90
        0
102
RTVSPost2010PropOp41
 70
     1
102
RTVSPost2010Prop42
 90
       50
102
RTVSPost2010PropOp42
 70
     1
102
RTVSPost2010Prop43
 90
        3
102
RTVSPost2010PropOp43
 70
     1
102
RTVSPost2010Prop44ColorIndex
 90
        5
102
RTVSPost2010Prop44ColorRGB
 90
      255
102
RTVSPost2010PropOp44
 70
     1
102
RTVSPost2010Prop45
280
     0
102
RTVSPost2010PropOp45
 70
     1
102
RTVSPost2010Prop46
 90
       50
102
RTVSPost2010PropOp46
 70
     1
102
RTVSPost2010Prop47
 90
       50
102
RTVSPost2010PropOp47
 70
     1
102
RTVSPost2010Prop48
 90
       50
102
RTVSPost2010PropOp48
 70
     1
102
RTVSPost2010Prop49
280
     0
102
RTVSPost2010PropOp49
 70
     1
102
RTVSPost2010Prop50
 90
       50
102
RTVSPost2010PropOp50
 70
     1
102
RTVSPost2010Prop51ColorIndex
 90
      256
102
RTVSPost2010Prop51ColorRGB
 90
-16777216
102
RTVSPost2010PropOp51
 70
     0
102
RTVSPost2010Prop52
140
1.0
102
RTVSPost2010PropOp52
 70
     0
102
RTVSPost2010Prop53
 90
        2
102
RTVSPost2010PropOp53
 70
     1
102
RTVSPost2010Prop54
  1
strokes_ogs.tif
102
RTVSPost2010PropOp54
 70
     1
102
RTVSPost2010Prop55
280
     0
102
RTVSPost2010PropOp55
 70
     1
102
RTVSPost2010Prop56
140
1.0
102
RTVSPost2010PropOp56
 70
     1
102
RTVSPost2010Prop57
140
1.0
102
RTVSPost2010PropOp57
 70
     1
  0
XRECORD
  5
17A
102
{ACAD_REACTORS
330
179
102
}
330
179
100
AcDbXrecord
280
     1
102
RTVSPost2010Prop28
280
     0
102
RTVSPost2010PropOp28
 70
     1
102
RTVSPost2010Prop29
280
     1
102
RTVSPost2010PropOp29
 70
     1
102
RTVSPost2010Prop30
280
     1
102
RTVSPost2010PropOp30
 70
     1
102
RTVSPost2010Prop31
280
     0
102
RTVSPost2010PropOp31
 70
     1
102
RTVSPost2010Prop32
280
     0
102
RTVSPost2010PropOp32
 70
     1
102
RTVSPost2010Prop33
280
     0
102
RTVSPost2010PropOp33
 70
     1
102
RTVSPost2010Prop34
280
     0
102
RTVSPost2010PropOp34
 70
     1
102
RTVSPost2010Prop35
280
     0
102
RTVSPost2010PropOp35
 70
     1
102
RTVSPost2010Prop36
280
     0
102
RTVSPost2010PropOp36
 70
     1
102
RTVSPost2010Prop37
 90
       50
102
RTVSPost2010PropOp37
 70
     1
102
RTVSPost2010Prop38
140
0.0
102
RTVSPost2010PropOp38
 70
     1
102
RTVSPost2010Prop39
140
1.0
102
RTVSPost2010PropOp39
 70
     1
102
RTVSPost2010Prop40
 90
        0
102
RTVSPost2010PropOp40
 70
     1
102
RTVSPost2010Prop41ColorIndex
 90
       18
102
RTVSPost2010Prop41ColorRGB
 90
        0
102
RTVSPost2010PropOp41
 70
     1
102
RTVSPost2010Prop42
 90
       50
102
RTVSPost2010PropOp42
 70
     1
102
RTVSPost2010Prop43
 90
        3
102
RTVSPost2010PropOp43
 70
     1
102
RTVSPost2010Prop44ColorIndex
 90
        5
102
RTVSPost2010Prop44ColorRGB
 90
      255
102
RTVSPost2010PropOp44
 70
     1
102
RTVSPost2010Prop45
280
     0
102
RTVSPost2010PropOp45
 70
     1
102
RTVSPost2010Prop46
 90
       50
102
RTVSPost2010PropOp46
 70
     1
102
RTVSPost2010Prop47
 90
       50
102
RTVSPost2010PropOp47
 70
     1
102
RTVSPost2010Prop48
 90
       50
102
RTVSPost2010PropOp48
 70
     1
102
RTVSPost2010Prop49
280
     0
102
RTVSPost2010PropOp49
 70
     1
102
RTVSPost2010Prop50
 90
       50
102
RTVSPost2010PropOp50
 70
     1
102
RTVSPost2010Prop51ColorIndex
 90
      256
102
RTVSPost2010Prop51ColorRGB
 90
-16777216
102
RTVSPost2010PropOp51
 70
     0
102
RTVSPost2010Prop52
140
1.0
102
RTVSPost2010PropOp52
 70
     0
102
RTVSPost2010Prop53
 90
        2
102
RTVSPost2010PropOp53
 70
     1
102
RTVSPost2010Prop54
  1
strokes_ogs.tif
102
RTVSPost2010PropOp54
 70
     1
102
RTVSPost2010Prop55
280
     0
102
RTVSPost2010PropOp55
 70
     1
102
RTVSPost2010Prop56
140
1.0
102
RTVSPost2010PropOp56
 70
     1
102
RTVSPost2010Prop57
140
1.0
102
RTVSPost2010PropOp57
 70
     1
  0
XRECORD
  5
188
102
{ACAD_REACTORS
330
187
102
}
330
187
100
AcDbXrecord
280
     1
102
RTVSPost2010Prop28
280
     0
102
RTVSPost2010PropOp28
 70
     1
102
RTVSPost2010Prop29
280
     1
102
RTVSPost2010PropOp29
 70
     1
102
RTVSPost2010Prop30
280
     1
102
RTVSPost2010PropOp30
 70
     1
102
RTVSPost2010Prop31
280
     0
102
RTVSPost2010PropOp31
 70
     1
102
RTVSPost2010Prop32
280
     0
102
RTVSPost2010PropOp32
 70
     1
102
RTVSPost2010Prop33
280
     0
102
RTVSPost2010PropOp33
 70
     1
102
RTVSPost2010Prop34
280
     0
102
RTVSPost2010PropOp34
 70
     1
102
RTVSPost2010Prop35
280
     0
102
RTVSPost2010PropOp35
 70
     1
102
RTVSPost2010Prop36
280
     0
102
RTVSPost2010PropOp36
 70
     1
102
RTVSPost2010Prop37
 90
       50
102
RTVSPost2010PropOp37
 70
     1
102
RTVSPost2010Prop38
140
0.0
102
RTVSPost2010PropOp38
 70
     1
102
RTVSPost2010Prop39
140
1.0
102
RTVSPost2010PropOp39
 70
     1
102
RTVSPost2010Prop40
 90
        0
102
RTVSPost2010PropOp40
 70
     1
102
RTVSPost2010Prop41ColorIndex
 90
       18
102
RTVSPost2010Prop41ColorRGB
 90
        0
102
RTVSPost2010PropOp41
 70
     1
102
RTVSPost2010Prop42
 90
       50
102
RTVSPost2010PropOp42
 70
     1
102
RTVSPost2010Prop43
 90
        3
102
RTVSPost2010PropOp43
 70
     1
102
RTVSPost2010Prop44ColorIndex
 90
        5
102
RTVSPost2010Prop44ColorRGB
 90
      255
102
RTVSPost2010PropOp44
 70
     1
102
RTVSPost2010Prop45
280
     0
102
RTVSPost2010PropOp45
 70
     1
102
RTVSPost2010Prop46
 90
       50
102
RTVSPost2010PropOp46
 70
     1
102
RTVSPost2010Prop47
 90
       50
102
RTVSPost2010PropOp47
 70
     1
102
RTVSPost2010Prop48
 90
       50
102
RTVSPost2010PropOp48
 70
     1
102
RTVSPost2010Prop49
280
     0
102
RTVSPost2010PropOp49
 70
     1
102
RTVSPost2010Prop50
 90
       50
102
RTVSPost2010PropOp50
 70
     1
102
RTVSPost2010Prop51ColorIndex
 90
      256
102
RTVSPost2010Prop51ColorRGB
 90
-16777216
102
RTVSPost2010PropOp51
 70
     0
102
RTVSPost2010Prop52
140
1.0
102
RTVSPost2010PropOp52
 70
     0
102
RTVSPost2010Prop53
 90
        2
102
RTVSPost2010PropOp53
 70
     1
102
RTVSPost2010Prop54
  1
strokes_ogs.tif
102
RTVSPost2010PropOp54
 70
     1
102
RTVSPost2010Prop55
280
     0
102
RTVSPost2010PropOp55
 70
     1
102
RTVSPost2010Prop56
140
1.0
102
RTVSPost2010PropOp56
 70
     1
102
RTVSPost2010Prop57
140
1.0
102
RTVSPost2010PropOp57
 70
     1
  0
XRECORD
  5
190
102
{ACAD_REACTORS
330
18F
102
}
330
18F
100
AcDbXrecord
280
     1
102
RTVSPost2010Prop28
280
     0
102
RTVSPost2010PropOp28
 70
     1
102
RTVSPost2010Prop29
280
     1
102
RTVSPost2010PropOp29
 70
     1
102
RTVSPost2010Prop30
280
     1
102
RTVSPost2010PropOp30
 70
     1
102
RTVSPost2010Prop31
280
     0
102
RTVSPost2010PropOp31
 70
     1
102
RTVSPost2010Prop32
280
     0
102
RTVSPost2010PropOp32
 70
     1
102
RTVSPost2010Prop33
280
     0
102
RTVSPost2010PropOp33
 70
     1
102
RTVSPost2010Prop34
280
     0
102
RTVSPost2010PropOp34
 70
     1
102
RTVSPost2010Prop35
280
     0
102
RTVSPost2010PropOp35
 70
     1
102
RTVSPost2010Prop36
280
     0
102
RTVSPost2010PropOp36
 70
     1
102
RTVSPost2010Prop37
 90
       50
102
RTVSPost2010PropOp37
 70
     1
102
RTVSPost2010Prop38
140
0.0
102
RTVSPost2010PropOp38
 70
     1
102
RTVSPost2010Prop39
140
1.0
102
RTVSPost2010PropOp39
 70
     1
102
RTVSPost2010Prop40
 90
        0
102
RTVSPost2010PropOp40
 70
     1
102
RTVSPost2010Prop41ColorIndex
 90
       18
102
RTVSPost2010Prop41ColorRGB
 90
        0
102
RTVSPost2010PropOp41
 70
     1
102
RTVSPost2010Prop42
 90
       50
102
RTVSPost2010PropOp42
 70
     1
102
RTVSPost2010Prop43
 90
        3
102
RTVSPost2010PropOp43
 70
     1
102
RTVSPost2010Prop44ColorIndex
 90
        5
102
RTVSPost2010Prop44ColorRGB
 90
      255
102
RTVSPost2010PropOp44
 70
     1
102
RTVSPost2010Prop45
280
     0
102
RTVSPost2010PropOp45
 70
     1
102
RTVSPost2010Prop46
 90
       50
102
RTVSPost2010PropOp46
 70
     1
102
RTVSPost2010Prop47
 90
       50
102
RTVSPost2010PropOp47
 70
     1
102
RTVSPost2010Prop48
 90
       50
102
RTVSPost2010PropOp48
 70
     1
102
RTVSPost2010Prop49
280
     0
102
RTVSPost2010PropOp49
 70
     1
102
RTVSPost2010Prop50
 90
       50
102
RTVSPost2010PropOp50
 70
     1
102
RTVSPost2010Prop51ColorIndex
 90
      256
102
RTVSPost2010Prop51ColorRGB
 90
-16777216
102
RTVSPost2010PropOp51
 70
     0
102
RTVSPost2010Prop52
140
1.0
102
RTVSPost2010PropOp52
 70
     0
102
RTVSPost2010Prop53
 90
        2
102
RTVSPost2010PropOp53
 70
     1
102
RTVSPost2010Prop54
  1
strokes_ogs.tif
102
RTVSPost2010PropOp54
 70
     1
102
RTVSPost2010Prop55
280
     0
102
RTVSPost2010PropOp55
 70
     1
102
RTVSPost2010Prop56
140
1.0
102
RTVSPost2010PropOp56
 70
     1
102
RTVSPost2010Prop57
140
1.0
102
RTVSPost2010PropOp57
 70
     1
  0
XRECORD
  5
182
102
{ACAD_REACTORS
330
181
102
}
330
181
100
AcDbXrecord
280
     1
102
RTVSPost2010Prop28
280
     0
102
RTVSPost2010PropOp28
 70
     1
102
RTVSPost2010Prop29
280
     1
102
RTVSPost2010PropOp29
 70
     1
102
RTVSPost2010Prop30
280
     1
102
RTVSPost2010PropOp30
 70
     1
102
RTVSPost2010Prop31
280
     0
102
RTVSPost2010PropOp31
 70
     1
102
RTVSPost2010Prop32
280
     0
102
RTVSPost2010PropOp32
 70
     1
102
RTVSPost2010Prop33
280
     0
102
RTVSPost2010PropOp33
 70
     1
102
RTVSPost2010Prop34
280
     0
102
RTVSPost2010PropOp34
 70
     1
102
RTVSPost2010Prop35
280
     0
102
RTVSPost2010PropOp35
 70
     1
102
RTVSPost2010Prop36
280
     0
102
RTVSPost2010PropOp36
 70
     1
102
RTVSPost2010Prop37
 90
       50
102
RTVSPost2010PropOp37
 70
     1
102
RTVSPost2010Prop38
140
0.0
102
RTVSPost2010PropOp38
 70
     1
102
RTVSPost2010Prop39
140
1.0
102
RTVSPost2010PropOp39
 70
     1
102
RTVSPost2010Prop40
 90
        0
102
RTVSPost2010PropOp40
 70
     1
102
RTVSPost2010Prop41ColorIndex
 90
       18
102
RTVSPost2010Prop41ColorRGB
 90
        0
102
RTVSPost2010PropOp41
 70
     1
102
RTVSPost2010Prop42
 90
       50
102
RTVSPost2010PropOp42
 70
     1
102
RTVSPost2010Prop43
 90
        3
102
RTVSPost2010PropOp43
 70
     1
102
RTVSPost2010Prop44ColorIndex
 90
        5
102
RTVSPost2010Prop44ColorRGB
 90
      255
102
RTVSPost2010PropOp44
 70
     1
102
RTVSPost2010Prop45
280
     0
102
RTVSPost2010PropOp45
 70
     1
102
RTVSPost2010Prop46
 90
       50
102
RTVSPost2010PropOp46
 70
     1
102
RTVSPost2010Prop47
 90
       50
102
RTVSPost2010PropOp47
 70
     1
102
RTVSPost2010Prop48
 90
       50
102
RTVSPost2010PropOp48
 70
     1
102
RTVSPost2010Prop49
280
     0
102
RTVSPost2010PropOp49
 70
     1
102
RTVSPost2010Prop50
 90
       50
102
RTVSPost2010PropOp50
 70
     1
102
RTVSPost2010Prop51ColorIndex
 90
      256
102
RTVSPost2010Prop51ColorRGB
 90
-16777216
102
RTVSPost2010PropOp51
 70
     0
102
RTVSPost2010Prop52
140
1.0
102
RTVSPost2010PropOp52
 70
     0
102
RTVSPost2010Prop53
 90
        2
102
RTVSPost2010PropOp53
 70
     1
102
RTVSPost2010Prop54
  1
strokes_ogs.tif
102
RTVSPost2010PropOp54
 70
     1
102
RTVSPost2010Prop55
280
     0
102
RTVSPost2010PropOp55
 70
     1
102
RTVSPost2010Prop56
140
1.0
102
RTVSPost2010PropOp56
 70
     1
102
RTVSPost2010Prop57
140
1.0
102
RTVSPost2010PropOp57
 70
     1
  0
XRECORD
  5
186
102
{ACAD_REACTORS
330
185
102
}
330
185
100
AcDbXrecord
280
     1
102
RTVSPost2010Prop28
280
     0
102
RTVSPost2010PropOp28
 70
     1
102
RTVSPost2010Prop29
280
     1
102
RTVSPost2010PropOp29
 70
     1
102
RTVSPost2010Prop30
280
     1
102
RTVSPost2010PropOp30
 70
     1
102
RTVSPost2010Prop31
280
     0
102
RTVSPost2010PropOp31
 70
     1
102
RTVSPost2010Prop32
280
     0
102
RTVSPost2010PropOp32
 70
     1
102
RTVSPost2010Prop33
280
     0
102
RTVSPost2010PropOp33
 70
     1
102
RTVSPost2010Prop34
280
     0
102
RTVSPost2010PropOp34
 70
     1
102
RTVSPost2010Prop35
280
     0
102
RTVSPost2010PropOp35
 70
     1
102
RTVSPost2010Prop36
280
     0
102
RTVSPost2010PropOp36
 70
     1
102
RTVSPost2010Prop37
 90
       50
102
RTVSPost2010PropOp37
 70
     1
102
RTVSPost2010Prop38
140
0.0
102
RTVSPost2010PropOp38
 70
     1
102
RTVSPost2010Prop39
140
1.0
102
RTVSPost2010PropOp39
 70
     1
102
RTVSPost2010Prop40
 90
        0
102
RTVSPost2010PropOp40
 70
     1
102
RTVSPost2010Prop41ColorIndex
 90
       18
102
RTVSPost2010Prop41ColorRGB
 90
        0
102
RTVSPost2010PropOp41
 70
     1
102
RTVSPost2010Prop42
 90
       50
102
RTVSPost2010PropOp42
 70
     1
102
RTVSPost2010Prop43
 90
        3
102
RTVSPost2010PropOp43
 70
     1
102
RTVSPost2010Prop44ColorIndex
 90
        5
102
RTVSPost2010Prop44ColorRGB
 90
      255
102
RTVSPost2010PropOp44
 70
     1
102
RTVSPost2010Prop45
280
     0
102
RTVSPost2010PropOp45
 70
     1
102
RTVSPost2010Prop46
 90
       50
102
RTVSPost2010PropOp46
 70
     1
102
RTVSPost2010Prop47
 90
       50
102
RTVSPost2010PropOp47
 70
     1
102
RTVSPost2010Prop48
 90
       50
102
RTVSPost2010PropOp48
 70
     1
102
RTVSPost2010Prop49
280
     0
102
RTVSPost2010PropOp49
 70
     1
102
RTVSPost2010Prop50
 90
       50
102
RTVSPost2010PropOp50
 70
     1
102
RTVSPost2010Prop51ColorIndex
 90
      256
102
RTVSPost2010Prop51ColorRGB
 90
-16777216
102
RTVSPost2010PropOp51
 70
     0
102
RTVSPost2010Prop52
140
1.0
102
RTVSPost2010PropOp52
 70
     0
102
RTVSPost2010Prop53
 90
        2
102
RTVSPost2010PropOp53
 70
     1
102
RTVSPost2010Prop54
  1
strokes_ogs.tif
102
RTVSPost2010PropOp54
 70
     1
102
RTVSPost2010Prop55
280
     0
102
RTVSPost2010PropOp55
 70
     1
102
RTVSPost2010Prop56
140
1.0
102
RTVSPost2010PropOp56
 70
     1
102
RTVSPost2010Prop57
140
1.0
102
RTVSPost2010PropOp57
 70
     1
  0
XRECORD
  5
1A0
102
{ACAD_REACTORS
330
19F
102
}
330
19F
100
AcDbXrecord
280
     1
102
RTVSPost2010Prop28
280
     0
102
RTVSPost2010PropOp28
 70
     0
102
RTVSPost2010Prop29
280
     1
102
RTVSPost2010PropOp29
 70
     0
102
RTVSPost2010Prop30
280
     1
102
RTVSPost2010PropOp30
 70
     0
102
RTVSPost2010Prop31
280
     0
102
RTVSPost2010PropOp31
 70
     0
102
RTVSPost2010Prop32
280
     0
102
RTVSPost2010PropOp32
 70
     0
102
RTVSPost2010Prop33
280
     0
102
RTVSPost2010PropOp33
 70
     0
102
RTVSPost2010Prop34
280
     0
102
RTVSPost2010PropOp34
 70
     0
102
RTVSPost2010Prop35
280
     0
102
RTVSPost2010PropOp35
 70
     0
102
RTVSPost2010Prop36
280
     0
102
RTVSPost2010PropOp36
 70
     0
102
RTVSPost2010Prop37
 90
       50
102
RTVSPost2010PropOp37
 70
     0
102
RTVSPost2010Prop38
140
0.0
102
RTVSPost2010PropOp38
 70
     0
102
RTVSPost2010Prop39
140
1.0
102
RTVSPost2010PropOp39
 70
     0
102
RTVSPost2010Prop40
 90
        0
102
RTVSPost2010PropOp40
 70
     0
102
RTVSPost2010Prop41ColorIndex
 90
       18
102
RTVSPost2010Prop41ColorRGB
 90
        0
102
RTVSPost2010PropOp41
 70
     0
102
RTVSPost2010Prop42
 90
       50
102
RTVSPost2010PropOp42
 70
     0
102
RTVSPost2010Prop43
 90
        3
102
RTVSPost2010PropOp43
 70
     0
102
RTVSPost2010Prop44ColorIndex
 90
        5
102
RTVSPost2010Prop44ColorRGB
 90
      255
102
RTVSPost2010PropOp44
 70
     0
102
RTVSPost2010Prop45
280
     0
102
RTVSPost2010PropOp45
 70
     0
102
RTVSPost2010Prop46
 90
       50
102
RTVSPost2010PropOp46
 70
     0
102
RTVSPost2010Prop47
 90
       50
102
RTVSPost2010PropOp47
 70
     0
102
RTVSPost2010Prop48
 90
       50
102
RTVSPost2010PropOp48
 70
     0
102
RTVSPost2010Prop49
280
     0
102
RTVSPost2010PropOp49
 70
     0
102
RTVSPost2010Prop50
 90
       50
102
RTVSPost2010PropOp50
 70
     0
102
RTVSPost2010Prop51ColorIndex
 90
      256
102
RTVSPost2010Prop51ColorRGB
 90
-16777216
102
RTVSPost2010PropOp51
 70
     0
102
RTVSPost2010Prop52
140
1.0
102
RTVSPost2010PropOp52
 70
     0
102
RTVSPost2010Prop53
 90
        2
102
RTVSPost2010PropOp53
 70
     0
102
RTVSPost2010Prop54
  1
strokes_ogs.tif
102
RTVSPost2010PropOp54
 70
     0
102
RTVSPost2010Prop55
280
     0
102
RTVSPost2010PropOp55
 70
     0
102
RTVSPost2010Prop56
140
1.0
102
RTVSPost2010PropOp56
 70
     0
102
RTVSPost2010Prop57
140
1.0
102
RTVSPost2010PropOp57
 70
     0
  0
XRECORD
  5
18E
102
{ACAD_REACTORS
330
18D
102
}
330
18D
100
AcDbXrecord
280
     1
102
RTVSPost2010Prop28
280
     0
102
RTVSPost2010PropOp28
 70
     1
102
RTVSPost2010Prop29
280
     1
102
RTVSPost2010PropOp29
 70
     1
102
RTVSPost2010Prop30
280
     1
102
RTVSPost2010PropOp30
 70
     1
102
RTVSPost2010Prop31
280
     0
102
RTVSPost2010PropOp31
 70
     1
102
RTVSPost2010Prop32
280
     0
102
RTVSPost2010PropOp32
 70
     1
102
RTVSPost2010Prop33
280
     0
102
RTVSPost2010PropOp33
 70
     1
102
RTVSPost2010Prop34
280
     0
102
RTVSPost2010PropOp34
 70
     1
102
RTVSPost2010Prop35
280
     0
102
RTVSPost2010PropOp35
 70
     1
102
RTVSPost2010Prop36
280
     0
102
RTVSPost2010PropOp36
 70
     1
102
RTVSPost2010Prop37
 90
       50
102
RTVSPost2010PropOp37
 70
     1
102
RTVSPost2010Prop38
140
0.0
102
RTVSPost2010PropOp38
 70
     1
102
RTVSPost2010Prop39
140
1.0
102
RTVSPost2010PropOp39
 70
     1
102
RTVSPost2010Prop40
 90
        0
102
RTVSPost2010PropOp40
 70
     1
102
RTVSPost2010Prop41ColorIndex
 90
       18
102
RTVSPost2010Prop41ColorRGB
 90
        0
102
RTVSPost2010PropOp41
 70
     1
102
RTVSPost2010Prop42
 90
       50
102
RTVSPost2010PropOp42
 70
     1
102
RTVSPost2010Prop43
 90
        3
102
RTVSPost2010PropOp43
 70
     1
102
RTVSPost2010Prop44ColorIndex
 90
        5
102
RTVSPost2010Prop44ColorRGB
 90
      255
102
RTVSPost2010PropOp44
 70
     1
102
RTVSPost2010Prop45
280
     0
102
RTVSPost2010PropOp45
 70
     1
102
RTVSPost2010Prop46
 90
       50
102
RTVSPost2010PropOp46
 70
     1
102
RTVSPost2010Prop47
 90
       50
102
RTVSPost2010PropOp47
 70
     1
102
RTVSPost2010Prop48
 90
       50
102
RTVSPost2010PropOp48
 70
     1
102
RTVSPost2010Prop49
280
     0
102
RTVSPost2010PropOp49
 70
     1
102
RTVSPost2010Prop50
 90
       50
102
RTVSPost2010PropOp50
 70
     1
102
RTVSPost2010Prop51ColorIndex
 90
      256
102
RTVSPost2010Prop51ColorRGB
 90
-16777216
102
RTVSPost2010PropOp51
 70
     0
102
RTVSPost2010Prop52
140
1.0
102
RTVSPost2010PropOp52
 70
     0
102
RTVSPost2010Prop53
 90
        2
102
RTVSPost2010PropOp53
 70
     1
102
RTVSPost2010Prop54
  1
strokes_ogs.tif
102
RTVSPost2010PropOp54
 70
     1
102
RTVSPost2010Prop55
280
     0
102
RTVSPost2010PropOp55
 70
     1
102
RTVSPost2010Prop56
140
1.0
102
RTVSPost2010PropOp56
 70
     1
102
RTVSPost2010Prop57
140
1.0
102
RTVSPost2010PropOp57
 70
     1
  0
XRECORD
  5
172
102
{ACAD_REACTORS
330
171
102
}
330
171
100
AcDbXrecord
280
     1
102
RTVSPost2010Prop28
280
     0
102
RTVSPost2010PropOp28
 70
     1
102
RTVSPost2010Prop29
280
     1
102
RTVSPost2010PropOp29
 70
     1
102
RTVSPost2010Prop30
280
     1
102
RTVSPost2010PropOp30
 70
     1
102
RTVSPost2010Prop31
280
     0
102
RTVSPost2010PropOp31
 70
     1
102
RTVSPost2010Prop32
280
     0
102
RTVSPost2010PropOp32
 70
     1
102
RTVSPost2010Prop33
280
     0
102
RTVSPost2010PropOp33
 70
     1
102
RTVSPost2010Prop34
280
     0
102
RTVSPost2010PropOp34
 70
     1
102
RTVSPost2010Prop35
280
     0
102
RTVSPost2010PropOp35
 70
     1
102
RTVSPost2010Prop36
280
     0
102
RTVSPost2010PropOp36
 70
     1
102
RTVSPost2010Prop37
 90
       50
102
RTVSPost2010PropOp37
 70
     1
102
RTVSPost2010Prop38
140
0.0
102
RTVSPost2010PropOp38
 70
     1
102
RTVSPost2010Prop39
140
1.0
102
RTVSPost2010PropOp39
 70
     1
102
RTVSPost2010Prop40
 90
        0
102
RTVSPost2010PropOp40
 70
     1
102
RTVSPost2010Prop41ColorIndex
 90
       18
102
RTVSPost2010Prop41ColorRGB
 90
        0
102
RTVSPost2010PropOp41
 70
     1
102
RTVSPost2010Prop42
 90
       50
102
RTVSPost2010PropOp42
 70
     1
102
RTVSPost2010Prop43
 90
        3
102
RTVSPost2010PropOp43
 70
     1
102
RTVSPost2010Prop44ColorIndex
 90
        5
102
RTVSPost2010Prop44ColorRGB
 90
      255
102
RTVSPost2010PropOp44
 70
     1
102
RTVSPost2010Prop45
280
     0
102
RTVSPost2010PropOp45
 70
     1
102
RTVSPost2010Prop46
 90
       50
102
RTVSPost2010PropOp46
 70
     1
102
RTVSPost2010Prop47
 90
       50
102
RTVSPost2010PropOp47
 70
     1
102
RTVSPost2010Prop48
 90
       50
102
RTVSPost2010PropOp48
 70
     1
102
RTVSPost2010Prop49
280
     0
102
RTVSPost2010PropOp49
 70
     1
102
RTVSPost2010Prop50
 90
       50
102
RTVSPost2010PropOp50
 70
     1
102
RTVSPost2010Prop51ColorIndex
 90
      256
102
RTVSPost2010Prop51ColorRGB
 90
-16777216
102
RTVSPost2010PropOp51
 70
     0
102
RTVSPost2010Prop52
140
1.0
102
RTVSPost2010PropOp52
 70
     0
102
RTVSPost2010Prop53
 90
        2
102
RTVSPost2010PropOp53
 70
     1
102
RTVSPost2010Prop54
  1
strokes_ogs.tif
102
RTVSPost2010PropOp54
 70
     1
102
RTVSPost2010Prop55
280
     0
102
RTVSPost2010PropOp55
 70
     1
102
RTVSPost2010Prop56
140
1.0
102
RTVSPost2010PropOp56
 70
     1
102
RTVSPost2010Prop57
140
1.0
102
RTVSPost2010PropOp57
 70
     1
  0
XRECORD
  5
174
102
{ACAD_REACTORS
330
173
102
}
330
173
100
AcDbXrecord
280
     1
102
RTVSPost2010Prop28
280
     0
102
RTVSPost2010PropOp28
 70
     1
102
RTVSPost2010Prop29
280
     1
102
RTVSPost2010PropOp29
 70
     1
102
RTVSPost2010Prop30
280
     1
102
RTVSPost2010PropOp30
 70
     1
102
RTVSPost2010Prop31
280
     0
102
RTVSPost2010PropOp31
 70
     1
102
RTVSPost2010Prop32
280
     0
102
RTVSPost2010PropOp32
 70
     1
102
RTVSPost2010Prop33
280
     0
102
RTVSPost2010PropOp33
 70
     1
102
RTVSPost2010Prop34
280
     0
102
RTVSPost2010PropOp34
 70
     1
102
RTVSPost2010Prop35
280
     0
102
RTVSPost2010PropOp35
 70
     1
102
RTVSPost2010Prop36
280
     0
102
RTVSPost2010PropOp36
 70
     1
102
RTVSPost2010Prop37
 90
       50
102
RTVSPost2010PropOp37
 70
     1
102
RTVSPost2010Prop38
140
0.0
102
RTVSPost2010PropOp38
 70
     1
102
RTVSPost2010Prop39
140
1.0
102
RTVSPost2010PropOp39
 70
     1
102
RTVSPost2010Prop40
 90
        0
102
RTVSPost2010PropOp40
 70
     1
102
RTVSPost2010Prop41ColorIndex
 90
       18
102
RTVSPost2010Prop41ColorRGB
 90
        0
102
RTVSPost2010PropOp41
 70
     1
102
RTVSPost2010Prop42
 90
       50
102
RTVSPost2010PropOp42
 70
     1
102
RTVSPost2010Prop43
 90
        3
102
RTVSPost2010PropOp43
 70
     1
102
RTVSPost2010Prop44ColorIndex
 90
        5
102
RTVSPost2010Prop44ColorRGB
 90
      255
102
RTVSPost2010PropOp44
 70
     1
102
RTVSPost2010Prop45
280
     0
102
RTVSPost2010PropOp45
 70
     1
102
RTVSPost2010Prop46
 90
       50
102
RTVSPost2010PropOp46
 70
     1
102
RTVSPost2010Prop47
 90
       50
102
RTVSPost2010PropOp47
 70
     1
102
RTVSPost2010Prop48
 90
       50
102
RTVSPost2010PropOp48
 70
     1
102
RTVSPost2010Prop49
280
     0
102
RTVSPost2010PropOp49
 70
     1
102
RTVSPost2010Prop50
 90
       50
102
RTVSPost2010PropOp50
 70
     1
102
RTVSPost2010Prop51ColorIndex
 90
      256
102
RTVSPost2010Prop51ColorRGB
 90
-16777216
102
RTVSPost2010PropOp51
 70
     0
102
RTVSPost2010Prop52
140
1.0
102
RTVSPost2010PropOp52
 70
     0
102
RTVSPost2010Prop53
 90
        2
102
RTVSPost2010PropOp53
 70
     1
102
RTVSPost2010Prop54
  1
strokes_ogs.tif
102
RTVSPost2010PropOp54
 70
     1
102
RTVSPost2010Prop55
280
     0
102
RTVSPost2010PropOp55
 70
     1
102
RTVSPost2010Prop56
140
1.0
102
RTVSPost2010PropOp56
 70
     1
102
RTVSPost2010Prop57
140
1.0
102
RTVSPost2010PropOp57
 70
     1
  0
XRECORD
  5
176
102
{ACAD_REACTORS
330
175
102
}
330
175
100
AcDbXrecord
280
     1
102
RTVSPost2010Prop28
280
     0
102
RTVSPost2010PropOp28
 70
     1
102
RTVSPost2010Prop29
280
     1
102
RTVSPost2010PropOp29
 70
     1
102
RTVSPost2010Prop30
280
     1
102
RTVSPost2010PropOp30
 70
     1
102
RTVSPost2010Prop31
280
     0
102
RTVSPost2010PropOp31
 70
     1
102
RTVSPost2010Prop32
280
     0
102
RTVSPost2010PropOp32
 70
     1
102
RTVSPost2010Prop33
280
     0
102
RTVSPost2010PropOp33
 70
     1
102
RTVSPost2010Prop34
280
     0
102
RTVSPost2010PropOp34
 70
     1
102
RTVSPost2010Prop35
280
     0
102
RTVSPost2010PropOp35
 70
     1
102
RTVSPost2010Prop36
280
     0
102
RTVSPost2010PropOp36
 70
     1
102
RTVSPost2010Prop37
 90
       50
102
RTVSPost2010PropOp37
 70
     1
102
RTVSPost2010Prop38
140
0.0
102
RTVSPost2010PropOp38
 70
     1
102
RTVSPost2010Prop39
140
1.0
102
RTVSPost2010PropOp39
 70
     1
102
RTVSPost2010Prop40
 90
        0
102
RTVSPost2010PropOp40
 70
     1
102
RTVSPost2010Prop41ColorIndex
 90
       18
102
RTVSPost2010Prop41ColorRGB
 90
        0
102
RTVSPost2010PropOp41
 70
     1
102
RTVSPost2010Prop42
 90
       50
102
RTVSPost2010PropOp42
 70
     1
102
RTVSPost2010Prop43
 90
        3
102
RTVSPost2010PropOp43
 70
     1
102
RTVSPost2010Prop44ColorIndex
 90
        5
102
RTVSPost2010Prop44ColorRGB
 90
      255
102
RTVSPost2010PropOp44
 70
     1
102
RTVSPost2010Prop45
280
     0
102
RTVSPost2010PropOp45
 70
     1
102
RTVSPost2010Prop46
 90
       50
102
RTVSPost2010PropOp46
 70
     1
102
RTVSPost2010Prop47
 90
       50
102
RTVSPost2010PropOp47
 70
     1
102
RTVSPost2010Prop48
 90
       50
102
RTVSPost2010PropOp48
 70
     1
102
RTVSPost2010Prop49
280
     0
102
RTVSPost2010PropOp49
 70
     1
102
RTVSPost2010Prop50
 90
       50
102
RTVSPost2010PropOp50
 70
     1
102
RTVSPost2010Prop51ColorIndex
 90
      256
102
RTVSPost2010Prop51ColorRGB
 90
-16777216
102
RTVSPost2010PropOp51
 70
     0
102
RTVSPost2010Prop52
140
1.0
102
RTVSPost2010PropOp52
 70
     0
102
RTVSPost2010Prop53
 90
        2
102
RTVSPost2010PropOp53
 70
     1
102
RTVSPost2010Prop54
  1
strokes_ogs.tif
102
RTVSPost2010PropOp54
 70
     1
102
RTVSPost2010Prop55
280
     0
102
RTVSPost2010PropOp55
 70
     1
102
RTVSPost2010Prop56
140
1.0
102
RTVSPost2010PropOp56
 70
     1
102
RTVSPost2010Prop57
140
1.0
102
RTVSPost2010PropOp57
 70
     1
  0
XRECORD
  5
178
102
{ACAD_REACTORS
330
177
102
}
330
177
100
AcDbXrecord
280
     1
102
RTVSPost2010Prop28
280
     0
102
RTVSPost2010PropOp28
 70
     1
102
RTVSPost2010Prop29
280
     1
102
RTVSPost2010PropOp29
 70
     1
102
RTVSPost2010Prop30
280
     1
102
RTVSPost2010PropOp30
 70
     1
102
RTVSPost2010Prop31
280
     0
102
RTVSPost2010PropOp31
 70
     1
102
RTVSPost2010Prop32
280
     0
102
RTVSPost2010PropOp32
 70
     1
102
RTVSPost2010Prop33
280
     0
102
RTVSPost2010PropOp33
 70
     1
102
RTVSPost2010Prop34
280
     0
102
RTVSPost2010PropOp34
 70
     1
102
RTVSPost2010Prop35
280
     0
102
RTVSPost2010PropOp35
 70
     1
102
RTVSPost2010Prop36
280
     0
102
RTVSPost2010PropOp36
 70
     1
102
RTVSPost2010Prop37
 90
       50
102
RTVSPost2010PropOp37
 70
     1
102
RTVSPost2010Prop38
140
0.0
102
RTVSPost2010PropOp38
 70
     1
102
RTVSPost2010Prop39
140
1.0
102
RTVSPost2010PropOp39
 70
     1
102
RTVSPost2010Prop40
 90
        0
102
RTVSPost2010PropOp40
 70
     1
102
RTVSPost2010Prop41ColorIndex
 90
       18
102
RTVSPost2010Prop41ColorRGB
 90
        0
102
RTVSPost2010PropOp41
 70
     1
102
RTVSPost2010Prop42
 90
       50
102
RTVSPost2010PropOp42
 70
     1
102
RTVSPost2010Prop43
 90
        3
102
RTVSPost2010PropOp43
 70
     1
102
RTVSPost2010Prop44ColorIndex
 90
        5
102
RTVSPost2010Prop44ColorRGB
 90
      255
102
RTVSPost2010PropOp44
 70
     1
102
RTVSPost2010Prop45
280
     0
102
RTVSPost2010PropOp45
 70
     1
102
RTVSPost2010Prop46
 90
       50
102
RTVSPost2010PropOp46
 70
     1
102
RTVSPost2010Prop47
 90
       50
102
RTVSPost2010PropOp47
 70
     1
102
RTVSPost2010Prop48
 90
       50
102
RTVSPost2010PropOp48
 70
     1
102
RTVSPost2010Prop49
280
     0
102
RTVSPost2010PropOp49
 70
     1
102
RTVSPost2010Prop50
 90
       50
102
RTVSPost2010PropOp50
 70
     1
102
RTVSPost2010Prop51ColorIndex
 90
      256
102
RTVSPost2010Prop51ColorRGB
 90
-16777216
102
RTVSPost2010PropOp51
 70
     0
102
RTVSPost2010Prop52
140
1.0
102
RTVSPost2010PropOp52
 70
     0
102
RTVSPost2010Prop53
 90
        2
102
RTVSPost2010PropOp53
 70
     1
102
RTVSPost2010Prop54
  1
strokes_ogs.tif
102
RTVSPost2010PropOp54
 70
     1
102
RTVSPost2010Prop55
280
     0
102
RTVSPost2010PropOp55
 70
     1
102
RTVSPost2010Prop56
140
1.0
102
RTVSPost2010PropOp56
 70
     1
102
RTVSPost2010Prop57
140
1.0
102
RTVSPost2010PropOp57
 70
     1
  0
XRECORD
  5
180
102
{ACAD_REACTORS
330
17F
102
}
330
17F
100
AcDbXrecord
280
     1
102
RTVSPost2010Prop28
280
     0
102
RTVSPost2010PropOp28
 70
     1
102
RTVSPost2010Prop29
280
     1
102
RTVSPost2010PropOp29
 70
     1
102
RTVSPost2010Prop30
280
     1
102
RTVSPost2010PropOp30
 70
     1
102
RTVSPost2010Prop31
280
     0
102
RTVSPost2010PropOp31
 70
     1
102
RTVSPost2010Prop32
280
     0
102
RTVSPost2010PropOp32
 70
     1
102
RTVSPost2010Prop33
280
     0
102
RTVSPost2010PropOp33
 70
     1
102
RTVSPost2010Prop34
280
     0
102
RTVSPost2010PropOp34
 70
     1
102
RTVSPost2010Prop35
280
     0
102
RTVSPost2010PropOp35
 70
     1
102
RTVSPost2010Prop36
280
     0
102
RTVSPost2010PropOp36
 70
     1
102
RTVSPost2010Prop37
 90
       50
102
RTVSPost2010PropOp37
 70
     1
102
RTVSPost2010Prop38
140
0.0
102
RTVSPost2010PropOp38
 70
     1
102
RTVSPost2010Prop39
140
1.0
102
RTVSPost2010PropOp39
 70
     1
102
RTVSPost2010Prop40
 90
        0
102
RTVSPost2010PropOp40
 70
     1
102
RTVSPost2010Prop41ColorIndex
 90
       18
102
RTVSPost2010Prop41ColorRGB
 90
        0
102
RTVSPost2010PropOp41
 70
     1
102
RTVSPost2010Prop42
 90
       50
102
RTVSPost2010PropOp42
 70
     1
102
RTVSPost2010Prop43
 90
        3
102
RTVSPost2010PropOp43
 70
     1
102
RTVSPost2010Prop44ColorIndex
 90
        5
102
RTVSPost2010Prop44ColorRGB
 90
      255
102
RTVSPost2010PropOp44
 70
     1
102
RTVSPost2010Prop45
280
     0
102
RTVSPost2010PropOp45
 70
     1
102
RTVSPost2010Prop46
 90
       50
102
RTVSPost2010PropOp46
 70
     1
102
RTVSPost2010Prop47
 90
       50
102
RTVSPost2010PropOp47
 70
     1
102
RTVSPost2010Prop48
 90
       50
102
RTVSPost2010PropOp48
 70
     1
102
RTVSPost2010Prop49
280
     0
102
RTVSPost2010PropOp49
 70
     1
102
RTVSPost2010Prop50
 90
       50
102
RTVSPost2010PropOp50
 70
     1
102
RTVSPost2010Prop51ColorIndex
 90
      256
102
RTVSPost2010Prop51ColorRGB
 90
-16777216
102
RTVSPost2010PropOp51
 70
     0
102
RTVSPost2010Prop52
140
1.0
102
RTVSPost2010PropOp52
 70
     0
102
RTVSPost2010Prop53
 90
        2
102
RTVSPost2010PropOp53
 70
     1
102
RTVSPost2010Prop54
  1
strokes_ogs.tif
102
RTVSPost2010PropOp54
 70
     1
102
RTVSPost2010Prop55
280
     0
102
RTVSPost2010PropOp55
 70
     1
102
RTVSPost2010Prop56
140
1.0
102
RTVSPost2010PropOp56
 70
     1
102
RTVSPost2010Prop57
140
1.0
102
RTVSPost2010PropOp57
 70
     1
  0
XRECORD
  5
19C
102
{ACAD_REACTORS
330
19B
102
}
330
19B
100
AcDbXrecord
280
     1
102
RTVSPost2010Prop28
280
     0
102
RTVSPost2010PropOp28
 70
     0
102
RTVSPost2010Prop29
280
     1
102
RTVSPost2010PropOp29
 70
     0
102
RTVSPost2010Prop30
280
     1
102
RTVSPost2010PropOp30
 70
     0
102
RTVSPost2010Prop31
280
     0
102
RTVSPost2010PropOp31
 70
     0
102
RTVSPost2010Prop32
280
     0
102
RTVSPost2010PropOp32
 70
     0
102
RTVSPost2010Prop33
280
     0
102
RTVSPost2010PropOp33
 70
     0
102
RTVSPost2010Prop34
280
     0
102
RTVSPost2010PropOp34
 70
     0
102
RTVSPost2010Prop35
280
     0
102
RTVSPost2010PropOp35
 70
     0
102
RTVSPost2010Prop36
280
     0
102
RTVSPost2010PropOp36
 70
     0
102
RTVSPost2010Prop37
 90
       50
102
RTVSPost2010PropOp37
 70
     0
102
RTVSPost2010Prop38
140
0.0
102
RTVSPost2010PropOp38
 70
     0
102
RTVSPost2010Prop39
140
1.0
102
RTVSPost2010PropOp39
 70
     0
102
RTVSPost2010Prop40
 90
        0
102
RTVSPost2010PropOp40
 70
     0
102
RTVSPost2010Prop41ColorIndex
 90
       18
102
RTVSPost2010Prop41ColorRGB
 90
        0
102
RTVSPost2010PropOp41
 70
     0
102
RTVSPost2010Prop42
 90
       50
102
RTVSPost2010PropOp42
 70
     0
102
RTVSPost2010Prop43
 90
        3
102
RTVSPost2010PropOp43
 70
     0
102
RTVSPost2010Prop44ColorIndex
 90
        5
102
RTVSPost2010Prop44ColorRGB
 90
      255
102
RTVSPost2010PropOp44
 70
     0
102
RTVSPost2010Prop45
280
     0
102
RTVSPost2010PropOp45
 70
     0
102
RTVSPost2010Prop46
 90
       50
102
RTVSPost2010PropOp46
 70
     0
102
RTVSPost2010Prop47
 90
       50
102
RTVSPost2010PropOp47
 70
     0
102
RTVSPost2010Prop48
 90
       50
102
RTVSPost2010PropOp48
 70
     0
102
RTVSPost2010Prop49
280
     0
102
RTVSPost2010PropOp49
 70
     0
102
RTVSPost2010Prop50
 90
       50
102
RTVSPost2010PropOp50
 70
     0
102
RTVSPost2010Prop51ColorIndex
 90
      256
102
RTVSPost2010Prop51ColorRGB
 90
-16777216
102
RTVSPost2010PropOp51
 70
     0
102
RTVSPost2010Prop52
140
1.0
102
RTVSPost2010PropOp52
 70
     0
102
RTVSPost2010Prop53
 90
        2
102
RTVSPost2010PropOp53
 70
     0
102
RTVSPost2010Prop54
  1
strokes_ogs.tif
102
RTVSPost2010PropOp54
 70
     0
102
RTVSPost2010Prop55
280
     0
102
RTVSPost2010PropOp55
 70
     0
102
RTVSPost2010Prop56
140
1.0
102
RTVSPost2010PropOp56
 70
     0
102
RTVSPost2010Prop57
140
1.0
102
RTVSPost2010PropOp57
 70
     0
  0
XRECORD
  5
18C
102
{ACAD_REACTORS
330
18B
102
}
330
18B
100
AcDbXrecord
280
     1
102
RTVSPost2010Prop28
280
     0
102
RTVSPost2010PropOp28
 70
     1
102
RTVSPost2010Prop29
280
     1
102
RTVSPost2010PropOp29
 70
     1
102
RTVSPost2010Prop30
280
     1
102
RTVSPost2010PropOp30
 70
     1
102
RTVSPost2010Prop31
280
     0
102
RTVSPost2010PropOp31
 70
     1
102
RTVSPost2010Prop32
280
     0
102
RTVSPost2010PropOp32
 70
     1
102
RTVSPost2010Prop33
280
     0
102
RTVSPost2010PropOp33
 70
     1
102
RTVSPost2010Prop34
280
     0
102
RTVSPost2010PropOp34
 70
     1
102
RTVSPost2010Prop35
280
     0
102
RTVSPost2010PropOp35
 70
     1
102
RTVSPost2010Prop36
280
     0
102
RTVSPost2010PropOp36
 70
     1
102
RTVSPost2010Prop37
 90
       50
102
RTVSPost2010PropOp37
 70
     1
102
RTVSPost2010Prop38
140
0.0
102
RTVSPost2010PropOp38
 70
     1
102
RTVSPost2010Prop39
140
1.0
102
RTVSPost2010PropOp39
 70
     1
102
RTVSPost2010Prop40
 90
        0
102
RTVSPost2010PropOp40
 70
     1
102
RTVSPost2010Prop41ColorIndex
 90
       18
102
RTVSPost2010Prop41ColorRGB
 90
        0
102
RTVSPost2010PropOp41
 70
     1
102
RTVSPost2010Prop42
 90
       50
102
RTVSPost2010PropOp42
 70
     1
102
RTVSPost2010Prop43
 90
        3
102
RTVSPost2010PropOp43
 70
     1
102
RTVSPost2010Prop44ColorIndex
 90
        5
102
RTVSPost2010Prop44ColorRGB
 90
      255
102
RTVSPost2010PropOp44
 70
     1
102
RTVSPost2010Prop45
280
     0
102
RTVSPost2010PropOp45
 70
     1
102
RTVSPost2010Prop46
 90
       50
102
RTVSPost2010PropOp46
 70
     1
102
RTVSPost2010Prop47
 90
       50
102
RTVSPost2010PropOp47
 70
     1
102
RTVSPost2010Prop48
 90
       50
102
RTVSPost2010PropOp48
 70
     1
102
RTVSPost2010Prop49
280
     0
102
RTVSPost2010PropOp49
 70
     1
102
RTVSPost2010Prop50
 90
       50
102
RTVSPost2010PropOp50
 70
     1
102
RTVSPost2010Prop51ColorIndex
 90
      256
102
RTVSPost2010Prop51ColorRGB
 90
-16777216
102
RTVSPost2010PropOp51
 70
     0
102
RTVSPost2010Prop52
140
1.0
102
RTVSPost2010PropOp52
 70
     0
102
RTVSPost2010Prop53
 90
        2
102
RTVSPost2010PropOp53
 70
     1
102
RTVSPost2010Prop54
  1
strokes_ogs.tif
102
RTVSPost2010PropOp54
 70
     1
102
RTVSPost2010Prop55
280
     0
102
RTVSPost2010PropOp55
 70
     1
102
RTVSPost2010Prop56
140
1.0
102
RTVSPost2010PropOp56
 70
     1
102
RTVSPost2010Prop57
140
1.0
102
RTVSPost2010PropOp57
 70
     1
  0
XRECORD
  5
19E
102
{ACAD_REACTORS
330
19D
102
}
330
19D
100
AcDbXrecord
280
     1
102
RTVSPost2010Prop28
280
     0
102
RTVSPost2010PropOp28
 70
     0
102
RTVSPost2010Prop29
280
     1
102
RTVSPost2010PropOp29
 70
     0
102
RTVSPost2010Prop30
280
     1
102
RTVSPost2010PropOp30
 70
     0
102
RTVSPost2010Prop31
280
     0
102
RTVSPost2010PropOp31
 70
     0
102
RTVSPost2010Prop32
280
     0
102
RTVSPost2010PropOp32
 70
     0
102
RTVSPost2010Prop33
280
     0
102
RTVSPost2010PropOp33
 70
     0
102
RTVSPost2010Prop34
280
     0
102
RTVSPost2010PropOp34
 70
     0
102
RTVSPost2010Prop35
280
     0
102
RTVSPost2010PropOp35
 70
     0
102
RTVSPost2010Prop36
280
     0
102
RTVSPost2010PropOp36
 70
     0
102
RTVSPost2010Prop37
 90
       50
102
RTVSPost2010PropOp37
 70
     0
102
RTVSPost2010Prop38
140
0.0
102
RTVSPost2010PropOp38
 70
     0
102
RTVSPost2010Prop39
140
1.0
102
RTVSPost2010PropOp39
 70
     0
102
RTVSPost2010Prop40
 90
        0
102
RTVSPost2010PropOp40
 70
     0
102
RTVSPost2010Prop41ColorIndex
 90
       18
102
RTVSPost2010Prop41ColorRGB
 90
        0
102
RTVSPost2010PropOp41
 70
     0
102
RTVSPost2010Prop42
 90
       50
102
RTVSPost2010PropOp42
 70
     0
102
RTVSPost2010Prop43
 90
        3
102
RTVSPost2010PropOp43
 70
     0
102
RTVSPost2010Prop44ColorIndex
 90
        5
102
RTVSPost2010Prop44ColorRGB
 90
      255
102
RTVSPost2010PropOp44
 70
     0
102
RTVSPost2010Prop45
280
     0
102
RTVSPost2010PropOp45
 70
     0
102
RTVSPost2010Prop46
 90
       50
102
RTVSPost2010PropOp46
 70
     0
102
RTVSPost2010Prop47
 90
       50
102
RTVSPost2010PropOp47
 70
     0
102
RTVSPost2010Prop48
 90
       50
102
RTVSPost2010PropOp48
 70
     0
102
RTVSPost2010Prop49
280
     0
102
RTVSPost2010PropOp49
 70
     0
102
RTVSPost2010Prop50
 90
       50
102
RTVSPost2010PropOp50
 70
     0
102
RTVSPost2010Prop51ColorIndex
 90
      256
102
RTVSPost2010Prop51ColorRGB
 90
-16777216
102
RTVSPost2010PropOp51
 70
     0
102
RTVSPost2010Prop52
140
1.0
102
RTVSPost2010PropOp52
 70
     0
102
RTVSPost2010Prop53
 90
        2
102
RTVSPost2010PropOp53
 70
     0
102
RTVSPost2010Prop54
  1
strokes_ogs.tif
102
RTVSPost2010PropOp54
 70
     0
102
RTVSPost2010Prop55
280
     0
102
RTVSPost2010PropOp55
 70
     0
102
RTVSPost2010Prop56
140
1.0
102
RTVSPost2010PropOp56
 70
     0
102
RTVSPost2010Prop57
140
1.0
102
RTVSPost2010PropOp57
 70
     0
  0
XRECORD
  5
184
102
{ACAD_REACTORS
330
183
102
}
330
183
100
AcDbXrecord
280
     1
102
RTVSPost2010Prop28
280
     0
102
RTVSPost2010PropOp28
 70
     1
102
RTVSPost2010Prop29
280
     1
102
RTVSPost2010PropOp29
 70
     1
102
RTVSPost2010Prop30
280
     1
102
RTVSPost2010PropOp30
 70
     1
102
RTVSPost2010Prop31
280
     0
102
RTVSPost2010PropOp31
 70
     1
102
RTVSPost2010Prop32
280
     0
102
RTVSPost2010PropOp32
 70
     1
102
RTVSPost2010Prop33
280
     0
102
RTVSPost2010PropOp33
 70
     1
102
RTVSPost2010Prop34
280
     0
102
RTVSPost2010PropOp34
 70
     1
102
RTVSPost2010Prop35
280
     0
102
RTVSPost2010PropOp35
 70
     1
102
RTVSPost2010Prop36
280
     0
102
RTVSPost2010PropOp36
 70
     1
102
RTVSPost2010Prop37
 90
       50
102
RTVSPost2010PropOp37
 70
     1
102
RTVSPost2010Prop38
140
0.0
102
RTVSPost2010PropOp38
 70
     1
102
RTVSPost2010Prop39
140
1.0
102
RTVSPost2010PropOp39
 70
     1
102
RTVSPost2010Prop40
 90
        0
102
RTVSPost2010PropOp40
 70
     1
102
RTVSPost2010Prop41ColorIndex
 90
       18
102
RTVSPost2010Prop41ColorRGB
 90
        0
102
RTVSPost2010PropOp41
 70
     1
102
RTVSPost2010Prop42
 90
       50
102
RTVSPost2010PropOp42
 70
     1
102
RTVSPost2010Prop43
 90
        3
102
RTVSPost2010PropOp43
 70
     1
102
RTVSPost2010Prop44ColorIndex
 90
        5
102
RTVSPost2010Prop44ColorRGB
 90
      255
102
RTVSPost2010PropOp44
 70
     1
102
RTVSPost2010Prop45
280
     0
102
RTVSPost2010PropOp45
 70
     1
102
RTVSPost2010Prop46
 90
       50
102
RTVSPost2010PropOp46
 70
     1
102
RTVSPost2010Prop47
 90
       50
102
RTVSPost2010PropOp47
 70
     1
102
RTVSPost2010Prop48
 90
       50
102
RTVSPost2010PropOp48
 70
     1
102
RTVSPost2010Prop49
280
     0
102
RTVSPost2010PropOp49
 70
     1
102
RTVSPost2010Prop50
 90
       50
102
RTVSPost2010PropOp50
 70
     1
102
RTVSPost2010Prop51ColorIndex
 90
      256
102
RTVSPost2010Prop51ColorRGB
 90
-16777216
102
RTVSPost2010PropOp51
 70
     0
102
RTVSPost2010Prop52
140
1.0
102
RTVSPost2010PropOp52
 70
     0
102
RTVSPost2010Prop53
 90
        2
102
RTVSPost2010PropOp53
 70
     1
102
RTVSPost2010Prop54
  1
strokes_ogs.tif
102
RTVSPost2010PropOp54
 70
     1
102
RTVSPost2010Prop55
280
     0
102
RTVSPost2010PropOp55
 70
     1
102
RTVSPost2010Prop56
140
1.0
102
RTVSPost2010PropOp56
 70
     1
102
RTVSPost2010Prop57
140
1.0
102
RTVSPost2010PropOp57
 70
     1
  0
XRECORD
  5
19A
102
{ACAD_REACTORS
330
199
102
}
330
199
100
AcDbXrecord
280
     1
102
RTVSPost2010Prop28
280
     0
102
RTVSPost2010PropOp28
 70
     1
102
RTVSPost2010Prop29
280
     1
102
RTVSPost2010PropOp29
 70
     1
102
RTVSPost2010Prop30
280
     1
102
RTVSPost2010PropOp30
 70
     1
102
RTVSPost2010Prop31
280
     0
102
RTVSPost2010PropOp31
 70
     1
102
RTVSPost2010Prop32
280
     0
102
RTVSPost2010PropOp32
 70
     1
102
RTVSPost2010Prop33
280
     0
102
RTVSPost2010PropOp33
 70
     1
102
RTVSPost2010Prop34
280
     0
102
RTVSPost2010PropOp34
 70
     1
102
RTVSPost2010Prop35
280
     0
102
RTVSPost2010PropOp35
 70
     1
102
RTVSPost2010Prop36
280
     0
102
RTVSPost2010PropOp36
 70
     1
102
RTVSPost2010Prop37
 90
       50
102
RTVSPost2010PropOp37
 70
     1
102
RTVSPost2010Prop38
140
0.0
102
RTVSPost2010PropOp38
 70
     1
102
RTVSPost2010Prop39
140
1.0
102
RTVSPost2010PropOp39
 70
     1
102
RTVSPost2010Prop40
 90
        0
102
RTVSPost2010PropOp40
 70
     1
102
RTVSPost2010Prop41ColorIndex
 90
       18
102
RTVSPost2010Prop41ColorRGB
 90
        0
102
RTVSPost2010PropOp41
 70
     1
102
RTVSPost2010Prop42
 90
       50
102
RTVSPost2010PropOp42
 70
     1
102
RTVSPost2010Prop43
 90
        3
102
RTVSPost2010PropOp43
 70
     1
102
RTVSPost2010Prop44ColorIndex
 90
        5
102
RTVSPost2010Prop44ColorRGB
 90
      255
102
RTVSPost2010PropOp44
 70
     1
102
RTVSPost2010Prop45
280
     0
102
RTVSPost2010PropOp45
 70
     1
102
RTVSPost2010Prop46
 90
       50
102
RTVSPost2010PropOp46
 70
     1
102
RTVSPost2010Prop47
 90
       50
102
RTVSPost2010PropOp47
 70
     1
102
RTVSPost2010Prop48
 90
       50
102
RTVSPost2010PropOp48
 70
     1
102
RTVSPost2010Prop49
280
     0
102
RTVSPost2010PropOp49
 70
     1
102
RTVSPost2010Prop50
 90
       50
102
RTVSPost2010PropOp50
 70
     1
102
RTVSPost2010Prop51ColorIndex
 90
      256
102
RTVSPost2010Prop51ColorRGB
 90
-16777216
102
RTVSPost2010PropOp51
 70
     0
102
RTVSPost2010Prop52
140
1.0
102
RTVSPost2010PropOp52
 70
     0
102
RTVSPost2010Prop53
 90
        2
102
RTVSPost2010PropOp53
 70
     1
102
RTVSPost2010Prop54
  1
strokes_ogs.tif
102
RTVSPost2010PropOp54
 70
     1
102
RTVSPost2010Prop55
280
     0
102
RTVSPost2010PropOp55
 70
     1
102
RTVSPost2010Prop56
140
1.0
102
RTVSPost2010PropOp56
 70
     1
102
RTVSPost2010Prop57
140
1.0
102
RTVSPost2010PropOp57
 70
     1
  0
XRECORD
  5
198
102
{ACAD_REACTORS
330
197
102
}
330
197
100
AcDbXrecord
280
     1
102
RTVSPost2010Prop28
280
     0
102
RTVSPost2010PropOp28
 70
     1
102
RTVSPost2010Prop29
280
     1
102
RTVSPost2010PropOp29
 70
     1
102
RTVSPost2010Prop30
280
     1
102
RTVSPost2010PropOp30
 70
     1
102
RTVSPost2010Prop31
280
     0
102
RTVSPost2010PropOp31
 70
     1
102
RTVSPost2010Prop32
280
     0
102
RTVSPost2010PropOp32
 70
     1
102
RTVSPost2010Prop33
280
     0
102
RTVSPost2010PropOp33
 70
     1
102
RTVSPost2010Prop34
280
     0
102
RTVSPost2010PropOp34
 70
     1
102
RTVSPost2010Prop35
280
     0
102
RTVSPost2010PropOp35
 70
     1
102
RTVSPost2010Prop36
280
     0
102
RTVSPost2010PropOp36
 70
     1
102
RTVSPost2010Prop37
 90
       50
102
RTVSPost2010PropOp37
 70
     1
102
RTVSPost2010Prop38
140
0.0
102
RTVSPost2010PropOp38
 70
     1
102
RTVSPost2010Prop39
140
1.0
102
RTVSPost2010PropOp39
 70
     1
102
RTVSPost2010Prop40
 90
        0
102
RTVSPost2010PropOp40
 70
     1
102
RTVSPost2010Prop41ColorIndex
 90
       18
102
RTVSPost2010Prop41ColorRGB
 90
        0
102
RTVSPost2010PropOp41
 70
     1
102
RTVSPost2010Prop42
 90
       50
102
RTVSPost2010PropOp42
 70
     1
102
RTVSPost2010Prop43
 90
        3
102
RTVSPost2010PropOp43
 70
     1
102
RTVSPost2010Prop44ColorIndex
 90
        5
102
RTVSPost2010Prop44ColorRGB
 90
      255
102
RTVSPost2010PropOp44
 70
     1
102
RTVSPost2010Prop45
280
     0
102
RTVSPost2010PropOp45
 70
     1
102
RTVSPost2010Prop46
 90
       50
102
RTVSPost2010PropOp46
 70
     1
102
RTVSPost2010Prop47
 90
       50
102
RTVSPost2010PropOp47
 70
     1
102
RTVSPost2010Prop48
 90
       50
102
RTVSPost2010PropOp48
 70
     1
102
RTVSPost2010Prop49
280
     0
102
RTVSPost2010PropOp49
 70
     1
102
RTVSPost2010Prop50
 90
       50
102
RTVSPost2010PropOp50
 70
     1
102
RTVSPost2010Prop51ColorIndex
 90
      256
102
RTVSPost2010Prop51ColorRGB
 90
-16777216
102
RTVSPost2010PropOp51
 70
     0
102
RTVSPost2010Prop52
140
1.0
102
RTVSPost2010PropOp52
 70
     0
102
RTVSPost2010Prop53
 90
        2
102
RTVSPost2010PropOp53
 70
     1
102
RTVSPost2010Prop54
  1
strokes_ogs.tif
102
RTVSPost2010PropOp54
 70
     1
102
RTVSPost2010Prop55
280
     0
102
RTVSPost2010PropOp55
 70
     1
102
RTVSPost2010Prop56
140
1.0
102
RTVSPost2010PropOp56
 70
     1
102
RTVSPost2010Prop57
140
1.0
102
RTVSPost2010PropOp57
 70
     1
  0
XRECORD
  5
192
102
{ACAD_REACTORS
330
191
102
}
330
191
100
AcDbXrecord
280
     1
102
RTVSPost2010Prop28
280
     0
102
RTVSPost2010PropOp28
 70
     1
102
RTVSPost2010Prop29
280
     1
102
RTVSPost2010PropOp29
 70
     1
102
RTVSPost2010Prop30
280
     1
102
RTVSPost2010PropOp30
 70
     1
102
RTVSPost2010Prop31
280
     0
102
RTVSPost2010PropOp31
 70
     1
102
RTVSPost2010Prop32
280
     0
102
RTVSPost2010PropOp32
 70
     1
102
RTVSPost2010Prop33
280
     0
102
RTVSPost2010PropOp33
 70
     1
102
RTVSPost2010Prop34
280
     0
102
RTVSPost2010PropOp34
 70
     1
102
RTVSPost2010Prop35
280
     0
102
RTVSPost2010PropOp35
 70
     1
102
RTVSPost2010Prop36
280
     0
102
RTVSPost2010PropOp36
 70
     1
102
RTVSPost2010Prop37
 90
       50
102
RTVSPost2010PropOp37
 70
     1
102
RTVSPost2010Prop38
140
0.0
102
RTVSPost2010PropOp38
 70
     1
102
RTVSPost2010Prop39
140
1.0
102
RTVSPost2010PropOp39
 70
     1
102
RTVSPost2010Prop40
 90
        0
102
RTVSPost2010PropOp40
 70
     1
102
RTVSPost2010Prop41ColorIndex
 90
       18
102
RTVSPost2010Prop41ColorRGB
 90
        0
102
RTVSPost2010PropOp41
 70
     1
102
RTVSPost2010Prop42
 90
       50
102
RTVSPost2010PropOp42
 70
     1
102
RTVSPost2010Prop43
 90
        3
102
RTVSPost2010PropOp43
 70
     1
102
RTVSPost2010Prop44ColorIndex
 90
        5
102
RTVSPost2010Prop44ColorRGB
 90
      255
102
RTVSPost2010PropOp44
 70
     1
102
RTVSPost2010Prop45
280
     0
102
RTVSPost2010PropOp45
 70
     1
102
RTVSPost2010Prop46
 90
       50
102
RTVSPost2010PropOp46
 70
     1
102
RTVSPost2010Prop47
 90
       50
102
RTVSPost2010PropOp47
 70
     1
102
RTVSPost2010Prop48
 90
       50
102
RTVSPost2010PropOp48
 70
     1
102
RTVSPost2010Prop49
280
     0
102
RTVSPost2010PropOp49
 70
     1
102
RTVSPost2010Prop50
 90
       50
102
RTVSPost2010PropOp50
 70
     1
102
RTVSPost2010Prop51ColorIndex
 90
      256
102
RTVSPost2010Prop51ColorRGB
 90
-16777216
102
RTVSPost2010PropOp51
 70
     0
102
RTVSPost2010Prop52
140
1.0
102
RTVSPost2010PropOp52
 70
     0
102
RTVSPost2010Prop53
 90
        2
102
RTVSPost2010PropOp53
 70
     1
102
RTVSPost2010Prop54
  1
strokes_ogs.tif
102
RTVSPost2010PropOp54
 70
     1
102
RTVSPost2010Prop55
280
     0
102
RTVSPost2010PropOp55
 70
     1
102
RTVSPost2010Prop56
140
1.0
102
RTVSPost2010PropOp56
 70
     1
102
RTVSPost2010Prop57
140
1.0
102
RTVSPost2010PropOp57
 70
     1
  0
XRECORD
  5
194
102
{ACAD_REACTORS
330
193
102
}
330
193
100
AcDbXrecord
280
     1
102
RTVSPost2010Prop28
280
     0
102
RTVSPost2010PropOp28
 70
     1
102
RTVSPost2010Prop29
280
     1
102
RTVSPost2010PropOp29
 70
     1
102
RTVSPost2010Prop30
280
     1
102
RTVSPost2010PropOp30
 70
     1
102
RTVSPost2010Prop31
280
     0
102
RTVSPost2010PropOp31
 70
     1
102
RTVSPost2010Prop32
280
     0
102
RTVSPost2010PropOp32
 70
     1
102
RTVSPost2010Prop33
280
     0
102
RTVSPost2010PropOp33
 70
     1
102
RTVSPost2010Prop34
280
     0
102
RTVSPost2010PropOp34
 70
     1
102
RTVSPost2010Prop35
280
     0
102
RTVSPost2010PropOp35
 70
     1
102
RTVSPost2010Prop36
280
     0
102
RTVSPost2010PropOp36
 70
     1
102
RTVSPost2010Prop37
 90
       50
102
RTVSPost2010PropOp37
 70
     1
102
RTVSPost2010Prop38
140
0.0
102
RTVSPost2010PropOp38
 70
     1
102
RTVSPost2010Prop39
140
1.0
102
RTVSPost2010PropOp39
 70
     1
102
RTVSPost2010Prop40
 90
        0
102
RTVSPost2010PropOp40
 70
     1
102
RTVSPost2010Prop41ColorIndex
 90
       18
102
RTVSPost2010Prop41ColorRGB
 90
        0
102
RTVSPost2010PropOp41
 70
     1
102
RTVSPost2010Prop42
 90
       50
102
RTVSPost2010PropOp42
 70
     1
102
RTVSPost2010Prop43
 90
        3
102
RTVSPost2010PropOp43
 70
     1
102
RTVSPost2010Prop44ColorIndex
 90
        5
102
RTVSPost2010Prop44ColorRGB
 90
      255
102
RTVSPost2010PropOp44
 70
     1
102
RTVSPost2010Prop45
280
     0
102
RTVSPost2010PropOp45
 70
     1
102
RTVSPost2010Prop46
 90
       50
102
RTVSPost2010PropOp46
 70
     1
102
RTVSPost2010Prop47
 90
       50
102
RTVSPost2010PropOp47
 70
     1
102
RTVSPost2010Prop48
 90
       50
102
RTVSPost2010PropOp48
 70
     1
102
RTVSPost2010Prop49
280
     0
102
RTVSPost2010PropOp49
 70
     1
102
RTVSPost2010Prop50
 90
       50
102
RTVSPost2010PropOp50
 70
     1
102
RTVSPost2010Prop51ColorIndex
 90
      256
102
RTVSPost2010Prop51ColorRGB
 90
-16777216
102
RTVSPost2010PropOp51
 70
     0
102
RTVSPost2010Prop52
140
1.0
102
RTVSPost2010PropOp52
 70
     0
102
RTVSPost2010Prop53
 90
        2
102
RTVSPost2010PropOp53
 70
     1
102
RTVSPost2010Prop54
  1
strokes_ogs.tif
102
RTVSPost2010PropOp54
 70
     1
102
RTVSPost2010Prop55
280
     0
102
RTVSPost2010PropOp55
 70
     1
102
RTVSPost2010Prop56
140
1.0
102
RTVSPost2010PropOp56
 70
     1
102
RTVSPost2010Prop57
140
1.0
102
RTVSPost2010PropOp57
 70
     1
  0
XRECORD
  5
18A
102
{ACAD_REACTORS
330
189
102
}
330
189
100
AcDbXrecord
280
     1
102
RTVSPost2010Prop28
280
     0
102
RTVSPost2010PropOp28
 70
     1
102
RTVSPost2010Prop29
280
     1
102
RTVSPost2010PropOp29
 70
     1
102
RTVSPost2010Prop30
280
     1
102
RTVSPost2010PropOp30
 70
     1
102
RTVSPost2010Prop31
280
     0
102
RTVSPost2010PropOp31
 70
     1
102
RTVSPost2010Prop32
280
     0
102
RTVSPost2010PropOp32
 70
     1
102
RTVSPost2010Prop33
280
     0
102
RTVSPost2010PropOp33
 70
     1
102
RTVSPost2010Prop34
280
     0
102
RTVSPost2010PropOp34
 70
     1
102
RTVSPost2010Prop35
280
     0
102
RTVSPost2010PropOp35
 70
     1
102
RTVSPost2010Prop36
280
     0
102
RTVSPost2010PropOp36
 70
     1
102
RTVSPost2010Prop37
 90
       50
102
RTVSPost2010PropOp37
 70
     1
102
RTVSPost2010Prop38
140
0.0
102
RTVSPost2010PropOp38
 70
     1
102
RTVSPost2010Prop39
140
1.0
102
RTVSPost2010PropOp39
 70
     1
102
RTVSPost2010Prop40
 90
        0
102
RTVSPost2010PropOp40
 70
     1
102
RTVSPost2010Prop41ColorIndex
 90
       18
102
RTVSPost2010Prop41ColorRGB
 90
        0
102
RTVSPost2010PropOp41
 70
     1
102
RTVSPost2010Prop42
 90
       50
102
RTVSPost2010PropOp42
 70
     1
102
RTVSPost2010Prop43
 90
        3
102
RTVSPost2010PropOp43
 70
     1
102
RTVSPost2010Prop44ColorIndex
 90
        5
102
RTVSPost2010Prop44ColorRGB
 90
      255
102
RTVSPost2010PropOp44
 70
     1
102
RTVSPost2010Prop45
280
     0
102
RTVSPost2010PropOp45
 70
     1
102
RTVSPost2010Prop46
 90
       50
102
RTVSPost2010PropOp46
 70
     1
102
RTVSPost2010Prop47
 90
       50
102
RTVSPost2010PropOp47
 70
     1
102
RTVSPost2010Prop48
 90
       50
102
RTVSPost2010PropOp48
 70
     1
102
RTVSPost2010Prop49
280
     0
102
RTVSPost2010PropOp49
 70
     1
102
RTVSPost2010Prop50
 90
       50
102
RTVSPost2010PropOp50
 70
     1
102
RTVSPost2010Prop51ColorIndex
 90
      256
102
RTVSPost2010Prop51ColorRGB
 90
-16777216
102
RTVSPost2010PropOp51
 70
     0
102
RTVSPost2010Prop52
140
1.0
102
RTVSPost2010PropOp52
 70
     0
102
RTVSPost2010Prop53
 90
        2
102
RTVSPost2010PropOp53
 70
     1
102
RTVSPost2010Prop54
  1
strokes_ogs.tif
102
RTVSPost2010PropOp54
 70
     1
102
RTVSPost2010Prop55
280
     0
102
RTVSPost2010PropOp55
 70
     1
102
RTVSPost2010Prop56
140
1.0
102
RTVSPost2010PropOp56
 70
     1
102
RTVSPost2010Prop57
140
1.0
102
RTVSPost2010PropOp57
 70
     1
  0
XRECORD
  5
17E
102
{ACAD_REACTORS
330
17D
102
}
330
17D
100
AcDbXrecord
280
     1
102
RTVSPost2010Prop28
280
     0
102
RTVSPost2010PropOp28
 70
     1
102
RTVSPost2010Prop29
280
     1
102
RTVSPost2010PropOp29
 70
     1
102
RTVSPost2010Prop30
280
     1
102
RTVSPost2010PropOp30
 70
     1
102
RTVSPost2010Prop31
280
     0
102
RTVSPost2010PropOp31
 70
     1
102
RTVSPost2010Prop32
280
     0
102
RTVSPost2010PropOp32
 70
     1
102
RTVSPost2010Prop33
280
     0
102
RTVSPost2010PropOp33
 70
     1
102
RTVSPost2010Prop34
280
     0
102
RTVSPost2010PropOp34
 70
     1
102
RTVSPost2010Prop35
280
     0
102
RTVSPost2010PropOp35
 70
     1
102
RTVSPost2010Prop36
280
     0
102
RTVSPost2010PropOp36
 70
     1
102
RTVSPost2010Prop37
 90
       50
102
RTVSPost2010PropOp37
 70
     1
102
RTVSPost2010Prop38
140
0.0
102
RTVSPost2010PropOp38
 70
     1
102
RTVSPost2010Prop39
140
1.0
102
RTVSPost2010PropOp39
 70
     1
102
RTVSPost2010Prop40
 90
        0
102
RTVSPost2010PropOp40
 70
     1
102
RTVSPost2010Prop41ColorIndex
 90
       18
102
RTVSPost2010Prop41ColorRGB
 90
        0
102
RTVSPost2010PropOp41
 70
     1
102
RTVSPost2010Prop42
 90
       50
102
RTVSPost2010PropOp42
 70
     1
102
RTVSPost2010Prop43
 90
        3
102
RTVSPost2010PropOp43
 70
     1
102
RTVSPost2010Prop44ColorIndex
 90
        5
102
RTVSPost2010Prop44ColorRGB
 90
      255
102
RTVSPost2010PropOp44
 70
     1
102
RTVSPost2010Prop45
280
     0
102
RTVSPost2010PropOp45
 70
     1
102
RTVSPost2010Prop46
 90
       50
102
RTVSPost2010PropOp46
 70
     1
102
RTVSPost2010Prop47
 90
       50
102
RTVSPost2010PropOp47
 70
     1
102
RTVSPost2010Prop48
 90
       50
102
RTVSPost2010PropOp48
 70
     1
102
RTVSPost2010Prop49
280
     0
102
RTVSPost2010PropOp49
 70
     1
102
RTVSPost2010Prop50
 90
       50
102
RTVSPost2010PropOp50
 70
     1
102
RTVSPost2010Prop51ColorIndex
 90
      256
102
RTVSPost2010Prop51ColorRGB
 90
-16777216
102
RTVSPost2010PropOp51
 70
     0
102
RTVSPost2010Prop52
140
1.0
102
RTVSPost2010PropOp52
 70
     0
102
RTVSPost2010Prop53
 90
        2
102
RTVSPost2010PropOp53
 70
     1
102
RTVSPost2010Prop54
  1
strokes_ogs.tif
102
RTVSPost2010PropOp54
 70
     1
102
RTVSPost2010Prop55
280
     0
102
RTVSPost2010PropOp55
 70
     1
102
RTVSPost2010Prop56
140
1.0
102
RTVSPost2010PropOp56
 70
     1
102
RTVSPost2010Prop57
140
1.0
102
RTVSPost2010PropOp57
 70
     1
  0
XRECORD
  5
196
102
{ACAD_REACTORS
330
195
102
}
330
195
100
AcDbXrecord
280
     1
102
RTVSPost2010Prop28
280
     0
102
RTVSPost2010PropOp28
 70
     1
102
RTVSPost2010Prop29
280
     1
102
RTVSPost2010PropOp29
 70
     1
102
RTVSPost2010Prop30
280
     1
102
RTVSPost2010PropOp30
 70
     1
102
RTVSPost2010Prop31
280
     0
102
RTVSPost2010PropOp31
 70
     1
102
RTVSPost2010Prop32
280
     0
102
RTVSPost2010PropOp32
 70
     1
102
RTVSPost2010Prop33
280
     0
102
RTVSPost2010PropOp33
 70
     1
102
RTVSPost2010Prop34
280
     0
102
RTVSPost2010PropOp34
 70
     1
102
RTVSPost2010Prop35
280
     0
102
RTVSPost2010PropOp35
 70
     1
102
RTVSPost2010Prop36
280
     0
102
RTVSPost2010PropOp36
 70
     1
102
RTVSPost2010Prop37
 90
       50
102
RTVSPost2010PropOp37
 70
     1
102
RTVSPost2010Prop38
140
0.0
102
RTVSPost2010PropOp38
 70
     1
102
RTVSPost2010Prop39
140
1.0
102
RTVSPost2010PropOp39
 70
     1
102
RTVSPost2010Prop40
 90
        0
102
RTVSPost2010PropOp40
 70
     1
102
RTVSPost2010Prop41ColorIndex
 90
       18
102
RTVSPost2010Prop41ColorRGB
 90
        0
102
RTVSPost2010PropOp41
 70
     1
102
RTVSPost2010Prop42
 90
       50
102
RTVSPost2010PropOp42
 70
     1
102
RTVSPost2010Prop43
 90
        3
102
RTVSPost2010PropOp43
 70
     1
102
RTVSPost2010Prop44ColorIndex
 90
        5
102
RTVSPost2010Prop44ColorRGB
 90
      255
102
RTVSPost2010PropOp44
 70
     1
102
RTVSPost2010Prop45
280
     0
102
RTVSPost2010PropOp45
 70
     1
102
RTVSPost2010Prop46
 90
       50
102
RTVSPost2010PropOp46
 70
     1
102
RTVSPost2010Prop47
 90
       50
102
RTVSPost2010PropOp47
 70
     1
102
RTVSPost2010Prop48
 90
       50
102
RTVSPost2010PropOp48
 70
     1
102
RTVSPost2010Prop49
280
     0
102
RTVSPost2010PropOp49
 70
     1
102
RTVSPost2010Prop50
 90
       50
102
RTVSPost2010PropOp50
 70
     1
102
RTVSPost2010Prop51ColorIndex
 90
      256
102
RTVSPost2010Prop51ColorRGB
 90
-16777216
102
RTVSPost2010PropOp51
 70
     0
102
RTVSPost2010Prop52
140
1.0
102
RTVSPost2010PropOp52
 70
     0
102
RTVSPost2010Prop53
 90
        2
102
RTVSPost2010PropOp53
 70
     1
102
RTVSPost2010Prop54
  1
strokes_ogs.tif
102
RTVSPost2010PropOp54
 70
     1
102
RTVSPost2010Prop55
280
     0
102
RTVSPost2010PropOp55
 70
     1
102
RTVSPost2010Prop56
140
1.0
102
RTVSPost2010PropOp56
 70
     1
102
RTVSPost2010Prop57
140
1.0
102
RTVSPost2010PropOp57
 70
     1
  0
ENDSEC
  0
EOF
