  0
SECTION
  2
HEADER
  9
$ACADVER
  1
AC1024
  9
$ACADMAINTVER
 70
   226
  9
$DWGCODEPAGE
  3
ANSI_932
  9
$INSBASE
 10
0.0
 20
0.0
 30
0.0
  9
$EXTMIN
 10
1.000000000000000E+20
 20
1.000000000000000E+20
 30
1.000000000000000E+20
  9
$EXTMAX
 10
-1.000000000000000E+20
 20
-1.000000000000000E+20
 30
-1.000000000000000E+20
  9
$LIMMIN
 10
0.0
 20
0.0
  9
$LIMMAX
 10
12.0
 20
9.0
  9
$ORTHOMODE
 70
     0
  9
$REGENMODE
 70
     1
  9
$FILLMODE
 70
     1
  9
$QTEXTMODE
 70
     0
  9
$MIRRTEXT
 70
     0
  9
$LTSCALE
 40
1.0
  9
$ATTMODE
 70
     1
  9
$TEXTSIZE
 40
0.2
  9
$TRACEWID
 40
0.05
  9
$TEXTSTYLE
  7
Standard
  9
$CLAYER
  8
0
  9
$CELTYPE
  6
ByLayer
  9
$CECOLOR
 62
   256
  9
$CELTSCALE
 40
1.0
  9
$DISPSILH
 70
     0
  9
$DIMSCALE
 40
1.0
  9
$DIMASZ
 40
0.18
  9
$DIMEXO
 40
0.0625
  9
$DIMDLI
 40
0.38
  9
$DIMRND
 40
0.0
  9
$DIMDLE
 40
0.0
  9
$DIMEXE
 40
0.18
  9
$DIMTP
 40
0.0
  9
$DIMTM
 40
0.0
  9
$DIMTXT
 40
0.18
  9
$DIMCEN
 40
0.09
  9
$DIMTSZ
 40
0.0
  9
$DIMTOL
 70
     0
  9
$DIMLIM
 70
     0
  9
$DIMTIH
 70
     1
  9
$DIMTOH
 70
     1
  9
$DIMSE1
 70
     0
  9
$DIMSE2
 70
     0
  9
$DIMTAD
 70
     0
  9
$DIMZIN
 70
     0
  9
$DIMBLK
  1

  9
$DIMASO
 70
     1
  9
$DIMSHO
 70
     1
  9
$DIMPOST
  1

  9
$DIMAPOST
  1

  9
$DIMALT
 70
     0
  9
$DIMALTD
 70
     2
  9
$DIMALTF
 40
25.4
  9
$DIMLFAC
 40
1.0
  9
$DIMTOFL
 70
     0
  9
$DIMTVP
 40
0.0
  9
$DIMTIX
 70
     0
  9
$DIMSOXD
 70
     0
  9
$DIMSAH
 70
     0
  9
$DIMBLK1
  1

  9
$DIMBLK2
  1

  9
$DIMSTYLE
  2
Standard
  9
$DIMCLRD
 70
     0
  9
$DIMCLRE
 70
     0
  9
$DIMCLRT
 70
     0
  9
$DIMTFAC
 40
1.0
  9
$DIMGAP
 40
0.09
  9
$DIMJUST
 70
     0
  9
$DIMSD1
 70
     0
  9
$DIMSD2
 70
     0
  9
$DIMTOLJ
 70
     1
  9
$DIMTZIN
 70
     0
  9
$DIMALTZ
 70
     0
  9
$DIMALTTZ
 70
     0
  9
$DIMUPT
 70
     0
  9
$DIMDEC
 70
     4
  9
$DIMTDEC
 70
     4
  9
$DIMALTU
 70
     2
  9
$DIMALTTD
 70
     2
  9
$DIMTXSTY
  7
Standard
  9
$DIMAUNIT
 70
     0
  9
$DIMADEC
 70
     0
  9
$DIMALTRND
 40
0.0
  9
$DIMAZIN
 70
     0
  9
$DIMDSEP
 70
    46
  9
$DIMATFIT
 70
     3
  9
$DIMFRAC
 70
     0
  9
$DIMLDRBLK
  1

  9
$DIMLUNIT
 70
     2
  9
$DIMLWD
 70
    -2
  9
$DIMLWE
 70
    -2
  9
$DIMTMOVE
 70
     0
  9
$DIMFXL
 40
1.0
  9
$DIMFXLON
 70
     0
  9
$DIMJOGANG
 40
0.7853981633974483
  9
$DIMTFILL
 70
     0
  9
$DIMTFILLCLR
 70
     0
  9
$DIMARCSYM
 70
     0
  9
$DIMLTYPE
  6

  9
$DIMLTEX1
  6

  9
$DIMLTEX2
  6

  9
$DIMTXTDIRECTION
 70
     0
  9
$LUNITS
 70
     2
  9
$LUPREC
 70
     4
  9
$SKETCHINC
 40
0.1
  9
$FILLETRAD
 40
0.0
  9
$AUNITS
 70
     0
  9
$AUPREC
 70
     0
  9
$MENU
  1
.
  9
$ELEVATION
 40
0.0
  9
$PELEVATION
 40
0.0
  9
$THICKNESS
 40
0.0
  9
$LIMCHECK
 70
     0
  9
$CHAMFERA
 40
0.0
  9
$CHAMFERB
 40
0.0
  9
$CHAMFERC
 40
0.0
  9
$CHAMFERD
 40
0.0
  9
$SKPOLY
 70
     0
  9
$TDCREATE
 40
2459569.489143519
  9
$TDUCREATE
 40
2459569.114143519
  9
$TDUPDATE
 40
2459569.489143519
  9
$TDUUPDATE
 40
2459569.114143519
  9
$TDINDWG
 40
0.0000115741
  9
$TDUSRTIMER
 40
0.0000115741
  9
$USRTIMER
 70
     1
  9
$ANGBASE
 50
0.0
  9
$ANGDIR
 70
     0
  9
$PDMODE
 70
     0
  9
$PDSIZE
 40
0.0
  9
$PLINEWID
 40
0.0
  9
$SPLFRAME
 70
     0
  9
$SPLINETYPE
 70
     6
  9
$SPLINESEGS
 70
     8
  9
$HANDSEED
  5
1AF
  9
$SURFTAB1
 70
     6
  9
$SURFTAB2
 70
     6
  9
$SURFTYPE
 70
     6
  9
$SURFU
 70
     6
  9
$SURFV
 70
     6
  9
$UCSBASE
  2

  9
$UCSNAME
  2

  9
$UCSORG
 10
0.0
 20
0.0
 30
0.0
  9
$UCSXDIR
 10
1.0
 20
0.0
 30
0.0
  9
$UCSYDIR
 10
0.0
 20
1.0
 30
0.0
  9
$UCSORTHOREF
  2

  9
$UCSORTHOVIEW
 70
     0
  9
$UCSORGTOP
 10
0.0
 20
0.0
 30
0.0
  9
$UCSORGBOTTOM
 10
0.0
 20
0.0
 30
0.0
  9
$UCSORGLEFT
 10
0.0
 20
0.0
 30
0.0
  9
$UCSORGRIGHT
 10
0.0
 20
0.0
 30
0.0
  9
$UCSORGFRONT
 10
0.0
 20
0.0
 30
0.0
  9
$UCSORGBACK
 10
0.0
 20
0.0
 30
0.0
  9
$PUCSBASE
  2

  9
$PUCSNAME
  2

  9
$PUCSORG
 10
0.0
 20
0.0
 30
0.0
  9
$PUCSXDIR
 10
1.0
 20
0.0
 30
0.0
  9
$PUCSYDIR
 10
0.0
 20
1.0
 30
0.0
  9
$PUCSORTHOREF
  2

  9
$PUCSORTHOVIEW
 70
     0
  9
$PUCSORGTOP
 10
0.0
 20
0.0
 30
0.0
  9
$PUCSORGBOTTOM
 10
0.0
 20
0.0
 30
0.0
  9
$PUCSORGLEFT
 10
0.0
 20
0.0
 30
0.0
  9
$PUCSORGRIGHT
 10
0.0
 20
0.0
 30
0.0
  9
$PUCSORGFRONT
 10
0.0
 20
0.0
 30
0.0
  9
$PUCSORGBACK
 10
0.0
 20
0.0
 30
0.0
  9
$USERI1
 70
     0
  9
$USERI2
 70
     0
  9
$USERI3
 70
     0
  9
$USERI4
 70
     0
  9
$USERI5
 70
     0
  9
$USERR1
 40
0.0
  9
$USERR2
 40
0.0
  9
$USERR3
 40
0.0
  9
$USERR4
 40
0.0
  9
$USERR5
 40
0.0
  9
$WORLDVIEW
 70
     1
  9
$SHADEDGE
 70
     3
  9
$SHADEDIF
 70
    70
  9
$TILEMODE
 70
     1
  9
$MAXACTVP
 70
    64
  9
$PINSBASE
 10
0.0
 20
0.0
 30
0.0
  9
$PLIMCHECK
 70
     0
  9
$PEXTMIN
 10
1.000000000000000E+20
 20
1.000000000000000E+20
 30
1.000000000000000E+20
  9
$PEXTMAX
 10
-1.000000000000000E+20
 20
-1.000000000000000E+20
 30
-1.000000000000000E+20
  9
$PLIMMIN
 10
0.0
 20
0.0
  9
$PLIMMAX
 10
12.0
 20
9.0
  9
$UNITMODE
 70
     0
  9
$VISRETAIN
 70
     1
  9
$PLINEGEN
 70
     0
  9
$PSLTSCALE
 70
     1
  9
$TREEDEPTH
 70
  3020
  9
$CMLSTYLE
  2
Standard
  9
$CMLJUST
 70
     0
  9
$CMLSCALE
 40
1.0
  9
$PROXYGRAPHICS
 70
     1
  9
$MEASUREMENT
 70
     0
  9
$CELWEIGHT
370
    -1
  9
$ENDCAPS
280
     0
  9
$JOINSTYLE
280
     0
  9
$LWDISPLAY
290
     1
  9
$INSUNITS
 70
     4
  9
$HYPERLINKBASE
  1

  9
$STYLESHEET
  1

  9
$XEDIT
290
     1
  9
$CEPSNTYPE
380
     0
  9
$PSTYLEMODE
290
     1
  9
$FINGERPRINTGUID
  2
{B7F37BA8-1F46-8949-AC77-FC400A39F10C}
  9
$VERSIONGUID
  2
{3642B638-B47E-CF46-B9A5-F228DA49547F}
  9
$EXTNAMES
290
     1
  9
$PSVPSCALE
 40
0.0
  9
$OLESTARTUP
290
     0
  9
$SORTENTS
280
   127
  9
$INDEXCTL
280
     0
  9
$HIDETEXT
280
     1
  9
$XCLIPFRAME
280
     2
  9
$HALOGAP
280
     0
  9
$OBSCOLOR
 70
   257
  9
$OBSLTYPE
280
     0
  9
$INTERSECTIONDISPLAY
280
     0
  9
$INTERSECTIONCOLOR
 70
   257
  9
$DIMASSOC
280
     2
  9
$PROJECTNAME
  1

  9
$CAMERADISPLAY
290
     0
  9
$LENSLENGTH
 40
50.0
  9
$CAMERAHEIGHT
 40
0.0
  9
$STEPSPERSEC
 40
2.0
  9
$STEPSIZE
 40
6.0
  9
$3DDWFPREC
 40
2.0
  9
$PSOLWIDTH
 40
0.25
  9
$PSOLHEIGHT
 40
4.0
  9
$LOFTANG1
 40
1.570796326794896
  9
$LOFTANG2
 40
1.570796326794896
  9
$LOFTMAG1
 40
0.0
  9
$LOFTMAG2
 40
0.0
  9
$LOFTPARAM
 70
     7
  9
$LOFTNORMALS
280
     1
  9
$LATITUDE
 40
37.795
  9
$LONGITUDE
 40
-122.394
  9
$NORTHDIRECTION
 40
0.0
  9
$TIMEZONE
 70
 -8000
  9
$LIGHTGLYPHDISPLAY
280
     1
  9
$TILEMODELIGHTSYNCH
280
     1
  9
$CMATERIAL
347
11
  9
$SOLIDHIST
280
     0
  9
$SHOWHIST
280
     1
  9
$DWFFRAME
280
     2
  9
$DGNFRAME
280
     0
  9
$REALWORLDSCALE
290
     1
  9
$INTERFERECOLOR
 62
     1
  9
$INTERFEREOBJVS
345
33
  9
$INTERFEREVPVS
346
30
  9
$CSHADOW
280
     0
  9
$SHADOWPLANELOCATION
 40
0.0
  0
ENDSEC
  0
SECTION
  2
CLASSES
  0
CLASS
  1
ACDBDICTIONARYWDFLT
  2
AcDbDictionaryWithDefault
  3
ObjectDBX Classes
 90
        0
 91
        1
280
     0
281
     0
  0
CLASS
  1
MATERIAL
  2
AcDbMaterial
  3
ObjectDBX Classes
 90
     1153
 91
        3
280
     0
281
     0
  0
CLASS
  1
VISUALSTYLE
  2
AcDbVisualStyle
  3
ObjectDBX Classes
 90
     4095
 91
       24
280
     0
281
     0
  0
CLASS
  1
SCALE
  2
AcDbScale
  3
ObjectDBX Classes
 90
     1153
 91
       17
280
     0
281
     0
  0
CLASS
  1
TABLESTYLE
  2
AcDbTableStyle
  3
ObjectDBX Classes
 90
     4095
 91
        1
280
     0
281
     0
  0
CLASS
  1
MLEADERSTYLE
  2
AcDbMLeaderStyle
  3
ACDB_MLEADERSTYLE_CLASS
 90
     4095
 91
        1
280
     0
281
     0
  0
CLASS
  1
ACDBSECTIONVIEWSTYLE
  2
AcDbSectionViewStyle
  3
ObjectDBX Classes
 90
     1025
 91
        1
280
     0
281
     0
  0
CLASS
  1
ACDBDETAILVIEWSTYLE
  2
AcDbDetailViewStyle
  3
ObjectDBX Classes
 90
     1025
 91
        1
280
     0
281
     0
  0
CLASS
  1
DICTIONARYVAR
  2
AcDbDictionaryVar
  3
ObjectDBX Classes
 90
        0
 91
        5
280
     0
281
     0
  0
CLASS
  1
CELLSTYLEMAP
  2
AcDbCellStyleMap
  3
ObjectDBX Classes
 90
     1152
 91
        1
280
     0
281
     0
  0
ENDSEC
  0
SECTION
  2
TABLES
  0
TABLE
  2
VPORT
  5
8
330
0
100
AcDbSymbolTable
 70
     1
  0
VPORT
  5
57
330
8
100
AcDbSymbolTableRecord
100
AcDbViewportTableRecord
  2
*Active
 70
     0
 10
0.0
 20
0.0
 11
1.0
 21
1.0
 12
0.0
 22
0.0
 13
0.0
 23
0.0
 14
1.0
 24
1.0
 15
0.0
 25
0.0
 16
0.0
 26
0.0
 36
1.0
 17
104.9999999737534
 27
-148.4999999628701
 37
0.0
 40
302.939999924255
 41
0.7070707070707534
 42
50.0
 43
0.0
 44
0.0
 50
0.0
 51
0.0
 71
     0
 72
   100
 73
     1
 74
     0
 75
     1
 76
     0
 77
     0
 78
     0
281
     0
 65
     1
110
0.0
120
0.0
130
0.0
111
1.0
121
0.0
131
0.0
112
0.0
122
1.0
132
0.0
 79
     0
146
0.0
 60
     3
 61
     5
292
     1
282
     1
141
0.0
142
0.0
 63
   250
421
  3355443
  0
ENDTAB
  0
TABLE
  2
LTYPE
  5
5
330
0
100
AcDbSymbolTable
 70
     2
  0
LTYPE
  5
5B
330
5
100
AcDbSymbolTableRecord
100
AcDbLinetypeTableRecord
  2
ByBlock
 70
     0
  3

 72
    65
 73
     0
 40
0.0
  0
LTYPE
  5
5C
330
5
100
AcDbSymbolTableRecord
100
AcDbLinetypeTableRecord
  2
ByLayer
 70
     0
  3

 72
    65
 73
     0
 40
0.0
  0
LTYPE
  5
5D
330
5
100
AcDbSymbolTableRecord
100
AcDbLinetypeTableRecord
  2
Continuous
 70
     0
  3
Solid line
 72
    65
 73
     0
 40
0.0
  0
LTYPE
  5
AD
330
5
100
AcDbSymbolTableRecord
100
AcDbLinetypeTableRecord
  2
AI-Linetype-0
 70
     0
  3
Adobe Illustrator Linetype No. 0
 72
    65
 73
     2
 40
1.411111110758333
 49
0.7055555553791667
 74
     0
 49
-0.7055555553791667
 74
     0
  0
ENDTAB
  0
TABLE
  2
LAYER
  5
2
330
0
100
AcDbSymbolTable
 70
     2
  0
LAYER
  5
54
330
2
100
AcDbSymbolTableRecord
100
AcDbLayerTableRecord
  2
0
 70
     0
 62
     7
  6
Continuous
370
    -3
390
F
347
21
  0
LAYER
  5
78
330
2
100
AcDbSymbolTableRecord
100
AcDbLayerTableRecord
  2
レイヤー 1
 70
     0
 62
     7
  6
Continuous
370
     0
390
F
347
21
  0
ENDTAB
  0
TABLE
  2
STYLE
  5
3
330
0
100
AcDbSymbolTable
 70
     2
  0
STYLE
  5
55
330
3
100
AcDbSymbolTableRecord
100
AcDbTextStyleTableRecord
  2
Standard
 70
     0
 40
0.0
 41
1.0
 50
0.0
 71
     0
 42
0.2
  3
txt
  4

  0
STYLE
  5
5A
330
3
100
AcDbSymbolTableRecord
100
AcDbTextStyleTableRecord
  2
Annotative
 70
     0
 40
0.0
 41
1.0
 50
0.0
 71
     0
 42
0.2
  3
txt
  4

1001
AcadAnnotative
1000
AnnotativeData
1002
{
1070
     1
1070
     1
1002
}
  0
ENDTAB
  0
TABLE
  2
VIEW
  5
6
330
0
100
AcDbSymbolTable
 70
     0
  0
ENDTAB
  0
TABLE
  2
UCS
  5
7
330
0
100
AcDbSymbolTable
 70
     0
  0
ENDTAB
  0
TABLE
  2
APPID
  5
9
330
0
100
AcDbSymbolTable
 70
     2
  0
APPID
  5
56
330
9
100
AcDbSymbolTableRecord
100
AcDbRegAppTableRecord
  2
ACAD
 70
     0
  0
APPID
  5
5E
330
9
100
AcDbSymbolTableRecord
100
AcDbRegAppTableRecord
  2
AcadAnnotative
 70
     0
  0
ENDTAB
  0
TABLE
  2
DIMSTYLE
  5
A
330
0
100
AcDbSymbolTable
 70
     2
100
AcDbDimStyleTable
 71
     0
  0
DIMSTYLE
105
58
330
A
100
AcDbSymbolTableRecord
100
AcDbDimStyleTableRecord
  2
Standard
 70
     0
340
55
  0
DIMSTYLE
105
59
330
A
100
AcDbSymbolTableRecord
100
AcDbDimStyleTableRecord
  2
Annotative
 70
     0
340
55
1001
AcadAnnotative
1000
AnnotativeData
1002
{
1070
     1
1070
     1
1002
}
  0
ENDTAB
  0
TABLE
  2
BLOCK_RECORD
  5
1
330
0
100
AcDbSymbolTable
 70
    16
  0
BLOCK_RECORD
  5
70
330
1
100
AcDbSymbolTableRecord
100
AcDbBlockTableRecord
  2
*Model_Space
340
73
 70
     0
280
     1
281
     0
  0
BLOCK_RECORD
  5
6C
330
1
100
AcDbSymbolTableRecord
100
AcDbBlockTableRecord
  2
*Paper_Space
340
6F
 70
     0
280
     1
281
     0
  0
BLOCK_RECORD
  5
74
330
1
100
AcDbSymbolTableRecord
100
AcDbBlockTableRecord
  2
*Paper_Space0
340
77
 70
     0
280
     1
281
     0
  0
BLOCK_RECORD
  5
79
330
1
100
AcDbSymbolTableRecord
100
AcDbBlockTableRecord
  2
Block_0
340
0
102
{BLKREFS
331
7A
102
}
 70
     0
280
     1
281
     0
  0
BLOCK_RECORD
  5
7D
330
1
100
AcDbSymbolTableRecord
100
AcDbBlockTableRecord
  2
Block_1
340
0
102
{BLKREFS
331
7E
102
}
 70
     0
280
     1
281
     0
  0
BLOCK_RECORD
  5
81
330
1
100
AcDbSymbolTableRecord
100
AcDbBlockTableRecord
  2
Block_2
340
0
102
{BLKREFS
331
82
102
}
 70
     0
280
     1
281
     0
  0
BLOCK_RECORD
  5
AE
330
1
100
AcDbSymbolTableRecord
100
AcDbBlockTableRecord
  2
Block_3
340
0
102
{BLKREFS
331
AF
102
}
 70
     0
280
     1
281
     0
  0
BLOCK_RECORD
  5
119
330
1
100
AcDbSymbolTableRecord
100
AcDbBlockTableRecord
  2
Block_4
340
0
102
{BLKREFS
331
11A
102
}
 70
     0
280
     1
281
     0
  0
BLOCK_RECORD
  5
11D
330
1
100
AcDbSymbolTableRecord
100
AcDbBlockTableRecord
  2
Block_5
340
0
102
{BLKREFS
331
11E
102
}
 70
     0
280
     1
281
     0
  0
BLOCK_RECORD
  5
12A
330
1
100
AcDbSymbolTableRecord
100
AcDbBlockTableRecord
  2
Block_6
340
0
102
{BLKREFS
331
12B
102
}
 70
     0
280
     1
281
     0
  0
BLOCK_RECORD
  5
12E
330
1
100
AcDbSymbolTableRecord
100
AcDbBlockTableRecord
  2
Block_7
340
0
102
{BLKREFS
331
12F
102
}
 70
     0
280
     1
281
     0
  0
BLOCK_RECORD
  5
138
330
1
100
AcDbSymbolTableRecord
100
AcDbBlockTableRecord
  2
Block_8
340
0
102
{BLKREFS
331
139
102
}
 70
     0
280
     1
281
     0
  0
BLOCK_RECORD
  5
140
330
1
100
AcDbSymbolTableRecord
100
AcDbBlockTableRecord
  2
Block_9
340
0
102
{BLKREFS
331
141
102
}
 70
     0
280
     1
281
     0
  0
BLOCK_RECORD
  5
144
330
1
100
AcDbSymbolTableRecord
100
AcDbBlockTableRecord
  2
Block_10
340
0
102
{BLKREFS
331
145
102
}
 70
     0
280
     1
281
     0
  0
BLOCK_RECORD
  5
14F
330
1
100
AcDbSymbolTableRecord
100
AcDbBlockTableRecord
  2
Block_11
340
0
102
{BLKREFS
331
150
102
}
 70
     0
280
     1
281
     0
  0
BLOCK_RECORD
  5
157
330
1
100
AcDbSymbolTableRecord
100
AcDbBlockTableRecord
  2
Block_12
340
0
102
{BLKREFS
331
158
102
}
 70
     0
280
     1
281
     0
  0
BLOCK_RECORD
  5
164
330
1
100
AcDbSymbolTableRecord
100
AcDbBlockTableRecord
  2
Block_13
340
0
102
{BLKREFS
331
165
102
}
 70
     0
280
     1
281
     0
  0
BLOCK_RECORD
  5
168
330
1
100
AcDbSymbolTableRecord
100
AcDbBlockTableRecord
  2
Block_14
340
0
102
{BLKREFS
331
169
102
}
 70
     0
280
     1
281
     0
  0
ENDTAB
  0
ENDSEC
  0
SECTION
  2
BLOCKS
  0
BLOCK
  5
71
330
70
100
AcDbEntity
  8
0
100
AcDbBlockBegin
  2
*Model_Space
 70
     0
 10
0.0
 20
0.0
 30
0.0
  3
*Model_Space
  1

  0
ENDBLK
  5
72
330
70
100
AcDbEntity
  8
0
100
AcDbBlockEnd
  0
BLOCK
  5
6D
330
6C
100
AcDbEntity
 67
     1
  8
0
100
AcDbBlockBegin
  2
*Paper_Space
 70
     0
 10
0.0
 20
0.0
 30
0.0
  3
*Paper_Space
  1

  0
ENDBLK
  5
6E
330
6C
100
AcDbEntity
 67
     1
  8
0
100
AcDbBlockEnd
  0
BLOCK
  5
75
330
74
100
AcDbEntity
 67
     1
  8
0
100
AcDbBlockBegin
  2
*Paper_Space0
 70
     0
 10
0.0
 20
0.0
 30
0.0
  3
*Paper_Space0
  1

  0
ENDBLK
  5
76
330
74
100
AcDbEntity
 67
     1
  8
0
100
AcDbBlockEnd
  0
BLOCK
  5
7B
330
79
100
AcDbEntity
  8
0
100
AcDbBlockBegin
  2
Block_0
 70
     0
 10
0.0
 20
0.0
 30
0.0
  3
Block_0
  1

  0
INSERT
  5
7E
330
79
100
AcDbEntity
  8
レイヤー 1
100
AcDbBlockReference
  2
Block_1
 10
0.0
 20
0.0
 30
0.0
  0
LWPOLYLINE
  5
AB
330
79
100
AcDbEntity
  8
レイヤー 1
 62
   250
420
  2299925
370
     9
100
AcDbPolyline
 90
        3
 70
     0
 43
0.0
 10
117.9935569460922
 20
-145.840442928369
 10
124.1673090108089
 20
-153.9541554263406
 10
134.8092384615329
 20
-153.9541554263406
  0
LWPOLYLINE
  5
AC
330
79
100
AcDbEntity
  8
レイヤー 1
  6
AI-Linetype-0
 62
   154
420
    23468
370
    25
100
AcDbPolyline
 90
        6
 70
     0
 43
0.0
 10
80.07035157804681
 20
-146.5459984837482
 10
101.7074463035517
 20
-145.5464026506648
 10
101.7074463035517
 20
-150.8380693160089
 10
109.5856280217448
 20
-150.8380693160089
 10
109.5856280217448
 20
-145.4289276506943
 10
131.1639858045683
 20
-146.4283470948888
  0
INSERT
  5
AF
330
79
100
AcDbEntity
  8
レイヤー 1
100
AcDbBlockReference
  2
Block_3
 10
0.0
 20
0.0
 30
0.0
  0
ENDBLK
  5
7C
330
79
100
AcDbEntity
  8
0
100
AcDbBlockEnd
  0
BLOCK
  5
7F
330
7D
100
AcDbEntity
  8
0
100
AcDbBlockBegin
  2
Block_1
 70
     0
 10
0.0
 20
0.0
 30
0.0
  3
Block_1
  1

  0
INSERT
  5
82
330
7D
100
AcDbEntity
  8
レイヤー 1
100
AcDbBlockReference
  2
Block_2
 10
0.0
 20
0.0
 30
0.0
  0
ENDBLK
  5
80
330
7D
100
AcDbEntity
  8
0
100
AcDbBlockEnd
  0
BLOCK
  5
83
330
81
100
AcDbEntity
  8
0
100
AcDbBlockBegin
  2
Block_2
 70
     0
 10
0.0
 20
0.0
 30
0.0
  3
Block_2
  1

  0
SPLINE
  5
85
330
81
100
AcDbEntity
  8
レイヤー 1
100
AcDbSpline
210
0.0
220
0.0
230
1.0
 70
     9
 71
     3
 72
    17
 73
    13
 74
     0
 42
0.0000000001
 43
0.0000000001
 40
0.0
 40
0.0
 40
0.0
 40
0.0
 40
1.0
 40
1.0
 40
1.0
 40
2.0
 40
2.0
 40
2.0
 40
3.0
 40
3.0
 40
3.0
 40
4.0
 40
4.0
 40
4.0
 40
4.0
 10
125.765622255885
 20
-150.2819552575684
 30
0.0
 10
125.6471109711924
 20
-150.1699896542977
 30
0.0
 10
125.5547824121877
 20
-150.1062553878206
 30
0.0
 10
125.4510850380816
 20
-150.042865630892
 30
0.0
 10
125.4510850380816
 20
-150.042865630892
 30
0.0
 10
125.5620171127067
 20
-149.9309000276214
 30
0.0
 10
125.5620171127067
 20
-149.9309000276214
 30
0.0
 10
125.6767387923655
 20
-149.9774088166723
 30
0.0
 10
125.7732014659525
 20
-150.0345974017274
 30
0.0
 10
125.8824109928349
 20
-150.1358832089938
 30
0.0
 10
125.8824109928349
 20
-150.1358832089938
 30
0.0
 10
125.765622255885
 20
-150.2819552575684
 30
0.0
 10
125.765622255885
 20
-150.2819552575684
 30
0.0
  0
SPLINE
  5
86
330
81
100
AcDbEntity
  8
レイヤー 1
100
AcDbSpline
210
0.0
220
0.0
230
1.0
 70
     9
 71
     3
 72
    20
 73
    16
 74
     0
 42
0.0000000001
 43
0.0000000001
 40
0.0
 40
0.0
 40
0.0
 40
0.0
 40
1.0
 40
1.0
 40
1.0
 40
2.0
 40
2.0
 40
2.0
 40
3.0
 40
3.0
 40
3.0
 40
4.0
 40
4.0
 40
4.0
 40
5.0
 40
5.0
 40
5.0
 40
5.0
 10
125.2750406587854
 20
-149.2263780008878
 30
0.0
 10
125.2416232325785
 20
-149.2749538472299
 30
0.0
 10
125.1882242525571
 20
-149.353157514745
 30
0.0
 10
125.0659233628307
 20
-149.463400570273
 30
0.0
 10
125.1362033107298
 20
-149.4675346848553
 30
0.0
 10
125.1620415268692
 20
-149.4675346848553
 30
0.0
 10
125.1823675902322
 20
-149.4675346848553
 30
0.0
 10
125.1823675902322
 20
-149.4675346848553
 30
0.0
 10
125.3825276379252
 20
-149.4675346848553
 30
0.0
 10
125.3825276379252
 20
-149.4675346848553
 30
0.0
 10
125.4100884018072
 20
-149.4675346848553
 30
0.0
 10
125.4528075858243
 20
-149.4654676275642
 30
0.0
 10
125.517575380947
 20
-149.463400570273
 30
0.0
 10
125.4193901596174
 20
-149.3893310173401
 30
0.0
 10
125.3770154851488
 20
-149.3428222282893
 30
0.0
 10
125.2750406587854
 20
-149.2263780008878
 30
0.0
  0
SPLINE
  5
87
330
81
100
AcDbEntity
  8
レイヤー 1
100
AcDbSpline
210
0.0
220
0.0
230
1.0
 70
     9
 71
     3
 72
    23
 73
    19
 74
     0
 42
0.0000000001
 43
0.0000000001
 40
0.0
 40
0.0
 40
0.0
 40
0.0
 40
1.0
 40
1.0
 40
1.0
 40
2.0
 40
2.0
 40
2.0
 40
3.0
 40
3.0
 40
3.0
 40
4.0
 40
4.0
 40
4.0
 40
5.0
 40
5.0
 40
5.0
 40
6.0
 40
6.0
 40
6.0
 40
6.0
 10
125.0139024210034
 20
-150.0683593374829
 30
0.0
 10
124.9952989053831
 20
-150.0914414772341
 30
0.0
 10
124.9102050468974
 20
-150.2037515900532
 30
0.0
 10
124.7879041571711
 20
-150.2840223148595
 30
0.0
 10
124.7879041571711
 20
-150.2840223148595
 30
0.0
 10
124.6418321085965
 20
-150.1634439728758
 30
0.0
 10
124.6418321085965
 20
-150.1634439728758
 30
0.0
 10
124.773434756133
 20
-150.0873073626518
 30
0.0
 10
124.8602511623613
 20
-149.9922227272589
 30
0.0
 10
124.9029703463784
 20
-149.939168256786
 30
0.0
 10
124.9029703463784
 20
-149.939168256786
 30
0.0
 10
125.0545545477294
 20
-150.021850548432
 30
0.0
 10
125.0545545477294
 20
-150.021850548432
 30
0.0
 10
125.062133757797
 20
-150.0259846630143
 30
0.0
 10
125.0697129678645
 20
-150.0321858348878
 30
0.0
 10
125.0697129678645
 20
-150.042865630892
 30
0.0
 10
125.0697129678645
 20
-150.0683593374829
 30
0.0
 10
125.0380180894002
 20
-150.0683593374829
 30
0.0
 10
125.0139024210034
 20
-150.0683593374829
 30
0.0
  0
SPLINE
  5
88
330
81
100
AcDbEntity
  8
レイヤー 1
100
AcDbSpline
210
0.0
220
0.0
230
1.0
 70
     9
 71
     3
 72
    17
 73
    13
 74
     0
 42
0.0000000001
 43
0.0000000001
 40
0.0
 40
0.0
 40
0.0
 40
0.0
 40
1.0
 40
1.0
 40
1.0
 40
2.0
 40
2.0
 40
2.0
 40
3.0
 40
3.0
 40
3.0
 40
4.0
 40
4.0
 40
4.0
 40
4.0
 10
124.6177164401997
 20
-149.3638373107493
 30
0.0
 10
124.5639729506298
 20
-149.2877007005253
 30
0.0
 10
124.4509738187136
 20
-149.2115640903013
 30
0.0
 10
124.3603678074516
 20
-149.1819362691281
 30
0.0
 10
124.3603678074516
 20
-149.1819362691281
 30
0.0
 10
124.4437391181946
 20
-149.0169161953846
 30
0.0
 10
124.4437391181946
 20
-149.0169161953846
 30
0.0
 10
124.532622581714
 20
-149.0527451884312
 30
0.0
 10
124.6252956502673
 20
-149.1099337734864
 30
0.0
 10
124.7028102986854
 20
-149.1902044982927
 30
0.0
 10
124.7028102986854
 20
-149.1902044982927
 30
0.0
 10
124.6177164401997
 20
-149.3638373107493
 30
0.0
 10
124.6177164401997
 20
-149.3638373107493
 30
0.0
  0
SPLINE
  5
89
330
81
100
AcDbEntity
  8
レイヤー 1
100
AcDbSpline
210
0.0
220
0.0
230
1.0
 70
     9
 71
     3
 72
    23
 73
    19
 74
     0
 42
0.0000000001
 43
0.0000000001
 40
0.0
 40
0.0
 40
0.0
 40
0.0
 40
1.0
 40
1.0
 40
1.0
 40
2.0
 40
2.0
 40
2.0
 40
3.0
 40
3.0
 40
3.0
 40
4.0
 40
4.0
 40
4.0
 40
5.0
 40
5.0
 40
5.0
 40
6.0
 40
6.0
 40
6.0
 40
6.0
 10
124.3955077814011
 20
-150.2585286082687
 30
0.0
 10
124.3955077814011
 20
-150.2798882002772
 30
0.0
 10
124.3972303291437
 20
-150.317784250615
 30
0.0
 10
124.3751817180381
 20
-150.317784250615
 30
0.0
 10
124.365879960228
 20
-150.317784250615
 30
0.0
 10
124.3586452597089
 20
-150.3115830787415
 30
0.0
 10
124.3493435018988
 20
-150.2947021108638
 30
0.0
 10
124.3493435018988
 20
-150.2947021108638
 30
0.0
 10
124.2583929810882
 20
-150.1128010692426
 30
0.0
 10
124.2583929810882
 20
-150.1128010692426
 30
0.0
 10
124.4475287232284
 20
-149.9836099885457
 30
0.0
 10
124.6194389879423
 20
-149.7066243115317
 30
0.0
 10
124.6604356242168
 20
-149.6346218158899
 30
0.0
 10
124.6604356242168
 20
-149.6346218158899
 30
0.0
 10
124.7231363620484
 20
-149.81445580022
 30
0.0
 10
124.7231363620484
 20
-149.81445580022
 30
0.0
 10
124.6066921346469
 20
-150.0111707524277
 30
0.0
 10
124.4530408760048
 20
-150.1951388513401
 30
0.0
 10
124.3955077814011
 20
-150.2585286082687
 30
0.0
  0
SPLINE
  5
8A
330
81
100
AcDbEntity
  8
レイヤー 1
100
AcDbSpline
210
0.0
220
0.0
230
1.0
 70
     9
 71
     3
 72
   182
 73
   178
 74
     0
 42
0.0000000001
 43
0.0000000001
 40
0.0
 40
0.0
 40
0.0
 40
0.0
 40
1.0
 40
1.0
 40
1.0
 40
2.0
 40
2.0
 40
2.0
 40
3.0
 40
3.0
 40
3.0
 40
4.0
 40
4.0
 40
4.0
 40
5.0
 40
5.0
 40
5.0
 40
6.0
 40
6.0
 40
6.0
 40
7.0
 40
7.0
 40
7.0
 40
8.0
 40
8.0
 40
8.0
 40
9.0
 40
9.0
 40
9.0
 40
10.0
 40
10.0
 40
10.0
 40
11.0
 40
11.0
 40
11.0
 40
12.0
 40
12.0
 40
12.0
 40
13.0
 40
13.0
 40
13.0
 40
14.0
 40
14.0
 40
14.0
 40
15.0
 40
15.0
 40
15.0
 40
16.0
 40
16.0
 40
16.0
 40
17.0
 40
17.0
 40
17.0
 40
18.0
 40
18.0
 40
18.0
 40
19.0
 40
19.0
 40
19.0
 40
20.0
 40
20.0
 40
20.0
 40
21.0
 40
21.0
 40
21.0
 40
22.0
 40
22.0
 40
22.0
 40
23.0
 40
23.0
 40
23.0
 40
24.0
 40
24.0
 40
24.0
 40
25.0
 40
25.0
 40
25.0
 40
26.0
 40
26.0
 40
26.0
 40
27.0
 40
27.0
 40
27.0
 40
28.0
 40
28.0
 40
28.0
 40
29.0
 40
29.0
 40
29.0
 40
30.0
 40
30.0
 40
30.0
 40
31.0
 40
31.0
 40
31.0
 40
32.0
 40
32.0
 40
32.0
 40
33.0
 40
33.0
 40
33.0
 40
34.0
 40
34.0
 40
34.0
 40
35.0
 40
35.0
 40
35.0
 40
36.0
 40
36.0
 40
36.0
 40
37.0
 40
37.0
 40
37.0
 40
38.0
 40
38.0
 40
38.0
 40
39.0
 40
39.0
 40
39.0
 40
40.0
 40
40.0
 40
40.0
 40
41.0
 40
41.0
 40
41.0
 40
42.0
 40
42.0
 40
42.0
 40
43.0
 40
43.0
 40
43.0
 40
44.0
 40
44.0
 40
44.0
 40
45.0
 40
45.0
 40
45.0
 40
46.0
 40
46.0
 40
46.0
 40
47.0
 40
47.0
 40
47.0
 40
48.0
 40
48.0
 40
48.0
 40
49.0
 40
49.0
 40
49.0
 40
50.0
 40
50.0
 40
50.0
 40
51.0
 40
51.0
 40
51.0
 40
52.0
 40
52.0
 40
52.0
 40
53.0
 40
53.0
 40
53.0
 40
54.0
 40
54.0
 40
54.0
 40
55.0
 40
55.0
 40
55.0
 40
56.0
 40
56.0
 40
56.0
 40
57.0
 40
57.0
 40
57.0
 40
58.0
 40
58.0
 40
58.0
 40
59.0
 40
59.0
 40
59.0
 40
59.0
 10
125.3749484278576
 20
-150.8869140247783
 30
0.0
 10
125.3749484278576
 20
-150.8869140247783
 30
0.0
 10
124.8175319783442
 20
-150.8869140247783
 30
0.0
 10
124.8175319783442
 20
-150.8869140247783
 30
0.0
 10
124.6308078030437
 20
-150.8869140247783
 30
0.0
 10
124.4416720609034
 20
-150.8913926489091
 30
0.0
 10
124.2546033760544
 20
-150.903794992656
 30
0.0
 10
124.2546033760544
 20
-150.903794992656
 30
0.0
 10
124.2546033760544
 20
-150.6967447539925
 30
0.0
 10
124.2546033760544
 20
-150.6967447539925
 30
0.0
 10
124.449251270971
 20
-150.7091470977394
 30
0.0
 10
124.7324381198585
 20
-150.7136257218702
 30
0.0
 10
124.8175319783442
 20
-150.7136257218702
 30
0.0
 10
124.8175319783442
 20
-150.7136257218702
 30
0.0
 10
125.0104573255182
 20
-150.7136257218702
 30
0.0
 10
125.0104573255182
 20
-150.7136257218702
 30
0.0
 10
125.0104573255182
 20
-150.7136257218702
 30
0.0
 10
125.0104573255182
 20
-150.5716877878779
 30
0.0
 10
125.0104573255182
 20
-150.5716877878779
 30
0.0
 10
125.0104573255182
 20
-150.5716877878779
 30
0.0
 10
124.8695529201715
 20
-150.5716877878779
 30
0.0
 10
124.8695529201715
 20
-150.5716877878779
 30
0.0
 10
124.7252034193395
 20
-150.5716877878779
 30
0.0
 10
124.580509408959
 20
-150.5761664120087
 30
0.0
 10
124.4361599081271
 20
-150.5909803225953
 30
0.0
 10
124.4361599081271
 20
-150.5909803225953
 30
0.0
 10
124.4361599081271
 20
-150.3815185170921
 30
0.0
 10
124.4361599081271
 20
-150.3815185170921
 30
0.0
 10
124.5863660712839
 20
-150.3963324276787
 30
0.0
 10
124.8030625773062
 20
-150.400466542261
 30
0.0
 10
124.8695529201715
 20
-150.400466542261
 30
0.0
 10
124.8695529201715
 20
-150.400466542261
 30
0.0
 10
125.0104573255182
 20
-150.400466542261
 30
0.0
 10
125.0104573255182
 20
-150.400466542261
 30
0.0
 10
125.0066677204844
 20
-150.3284640466192
 30
0.0
 10
125.0066677204844
 20
-150.3222628747458
 30
0.0
 10
125.001155567708
 20
-150.2692084042729
 30
0.0
 10
125.001155567708
 20
-150.2692084042729
 30
0.0
 10
125.1231119478859
 20
-150.2840223148595
 30
0.0
 10
125.1231119478859
 20
-150.2840223148595
 30
0.0
 10
125.1231119478859
 20
-150.2840223148595
 30
0.0
 10
125.0362955416576
 20
-150.1128010692426
 30
0.0
 10
125.0362955416576
 20
-150.1128010692426
 30
0.0
 10
125.0769476683835
 20
-150.119002241116
 30
0.0
 10
125.1417154635062
 20
-150.1276149798292
 30
0.0
 10
125.1565293740928
 20
-150.1276149798292
 30
0.0
 10
125.2009711058525
 20
-150.1276149798292
 30
0.0
 10
125.2157850164391
 20
-150.1062553878206
 30
0.0
 10
125.2157850164391
 20
-150.049411312314
 30
0.0
 10
125.2157850164391
 20
-150.049411312314
 30
0.0
 10
125.2157850164391
 20
-149.911607492904
 30
0.0
 10
125.2157850164391
 20
-149.911607492904
 30
0.0
 10
125.2157850164391
 20
-149.911607492904
 30
0.0
 10
125.1231119478859
 20
-149.911607492904
 30
0.0
 10
125.1231119478859
 20
-149.911607492904
 30
0.0
 10
125.0066677204844
 20
-149.911607492904
 30
0.0
 10
124.8695529201715
 20
-149.911607492904
 30
0.0
 10
124.7620659410317
 20
-149.9243543461994
 30
0.0
 10
124.7620659410317
 20
-149.9243543461994
 30
0.0
 10
124.7620659410317
 20
-149.7341850754136
 30
0.0
 10
124.7620659410317
 20
-149.7341850754136
 30
0.0
 10
124.9084824991548
 20
-149.7510660432914
 30
0.0
 10
125.1103650945904
 20
-149.7531331005825
 30
0.0
 10
125.1231119478859
 20
-149.7531331005825
 30
0.0
 10
125.1231119478859
 20
-149.7531331005825
 30
0.0
 10
125.2157850164391
 20
-149.7531331005825
 30
0.0
 10
125.2157850164391
 20
-149.7531331005825
 30
0.0
 10
125.2157850164391
 20
-149.7531331005825
 30
0.0
 10
125.2157850164391
 20
-149.6218749625945
 30
0.0
 10
125.2157850164391
 20
-149.6218749625945
 30
0.0
 10
125.2157850164391
 20
-149.6218749625945
 30
0.0
 10
125.1823675902322
 20
-149.6218749625945
 30
0.0
 10
125.1823675902322
 20
-149.6218749625945
 30
0.0
 10
125.1434380112488
 20
-149.6218749625945
 30
0.0
 10
125.0342284843664
 20
-149.6260090771768
 30
0.0
 10
124.9567138359483
 20
-149.6346218158899
 30
0.0
 10
124.9567138359483
 20
-149.6346218158899
 30
0.0
 10
124.9567138359483
 20
-149.5543510910836
 30
0.0
 10
124.9567138359483
 20
-149.5543510910836
 30
0.0
 10
124.9102050468974
 20
-149.5922471414214
 30
0.0
 10
124.8881564357918
 20
-149.6070610520079
 30
0.0
 10
124.8509494045511
 20
-149.6304877013076
 30
0.0
 10
124.8509494045511
 20
-149.6304877013076
 30
0.0
 10
124.6862738403562
 20
-149.5012966206108
 30
0.0
 10
124.6862738403562
 20
-149.5012966206108
 30
0.0
 10
124.7548312405127
 20
-149.4675346848553
 30
0.0
 10
124.8919460408256
 20
-149.4041449279267
 30
0.0
 10
125.02871633159
 20
-149.2601399366433
 30
0.0
 10
125.1010633367803
 20
-149.1819362691281
 30
0.0
 10
125.1696207369367
 20
-149.097186920191
 30
0.0
 10
125.2157850164391
 20
-148.9959011129246
 30
0.0
 10
125.2157850164391
 20
-148.9959011129246
 30
0.0
 10
125.4011311535455
 20
-149.057223812562
 30
0.0
 10
125.4011311535455
 20
-149.057223812562
 30
0.0
 10
125.4176676118747
 20
-149.0634249844355
 30
0.0
 10
125.4269693696849
 20
-149.0720377231486
 30
0.0
 10
125.4269693696849
 20
-149.0844400668955
 30
0.0
 10
125.4269693696849
 20
-149.1016655443218
 30
0.0
 10
125.4159450641321
 20
-149.1078667161952
 30
0.0
 10
125.393551943478
 20
-149.1206135694907
 30
0.0
 10
125.4638318913771
 20
-149.2177652621747
 30
0.0
 10
125.6064588444664
 20
-149.3152614644073
 30
0.0
 10
125.6360866656396
 20
-149.3342094895762
 30
0.0
 10
125.7676893131761
 20
-149.4230929530956
 30
0.0
 10
125.8675970822483
 20
-149.4506537169776
 30
0.0
 10
125.9361544824048
 20
-149.4696017421465
 30
0.0
 10
125.9361544824048
 20
-149.4696017421465
 30
0.0
 10
125.8324571082988
 20
-149.6387559304722
 30
0.0
 10
125.8324571082988
 20
-149.6387559304722
 30
0.0
 10
125.7583875553659
 20
-149.6091281092991
 30
0.0
 10
125.7139458236062
 20
-149.5901800841302
 30
0.0
 10
125.6102484495002
 20
-149.5247232699105
 30
0.0
 10
125.6102484495002
 20
-149.5247232699105
 30
0.0
 10
125.6102484495002
 20
-149.6346218158899
 30
0.0
 10
125.6102484495002
 20
-149.6346218158899
 30
0.0
 10
125.53790144431
 20
-149.6260090771768
 30
0.0
 10
125.4269693696849
 20
-149.6218749625945
 30
0.0
 10
125.380460580634
 20
-149.6218749625945
 30
0.0
 10
125.380460580634
 20
-149.6218749625945
 30
0.0
 10
125.380460580634
 20
-149.7531331005825
 30
0.0
 10
125.380460580634
 20
-149.7531331005825
 30
0.0
 10
125.380460580634
 20
-149.7531331005825
 30
0.0
 10
125.4862250120312
 20
-149.7531331005825
 30
0.0
 10
125.4862250120312
 20
-149.7531331005825
 30
0.0
 10
125.4879475597738
 20
-149.7531331005825
 30
0.0
 10
125.6918972125006
 20
-149.7510660432914
 30
0.0
 10
125.8472710188854
 20
-149.7341850754136
 30
0.0
 10
125.8472710188854
 20
-149.7341850754136
 30
0.0
 10
125.8472710188854
 20
-149.9243543461994
 30
0.0
 10
125.8472710188854
 20
-149.9243543461994
 30
0.0
 10
125.7342718869692
 20
-149.911607492904
 30
0.0
 10
125.5971570866562
 20
-149.911607492904
 30
0.0
 10
125.4862250120312
 20
-149.911607492904
 30
0.0
 10
125.4862250120312
 20
-149.911607492904
 30
0.0
 10
125.380460580634
 20
-149.911607492904
 30
0.0
 10
125.380460580634
 20
-149.911607492904
 30
0.0
 10
125.380460580634
 20
-149.911607492904
 30
0.0
 10
125.380460580634
 20
-150.137950266285
 30
0.0
 10
125.380460580634
 20
-150.137950266285
 30
0.0
 10
125.380460580634
 20
-150.2564615509775
 30
0.0
 10
125.3584119695284
 20
-150.2926350535727
 30
0.0
 10
125.2178520737302
 20
-150.3074489641592
 30
0.0
 10
125.2212971692155
 20
-150.3263969893281
 30
0.0
 10
125.2157850164391
 20
-150.3370767853324
 30
0.0
 10
125.1823675902322
 20
-150.3601589250835
 30
0.0
 10
125.1806450424896
 20
-150.3791069502524
 30
0.0
 10
125.1806450424896
 20
-150.3856526316744
 30
0.0
 10
125.1789224947469
 20
-150.400466542261
 30
0.0
 10
125.1789224947469
 20
-150.400466542261
 30
0.0
 10
125.2991563271821
 20
-150.400466542261
 30
0.0
 10
125.2991563271821
 20
-150.400466542261
 30
0.0
 10
125.4435058280141
 20
-150.400466542261
 30
0.0
 10
125.5899223861372
 20
-150.3963324276787
 30
0.0
 10
125.7359944347118
 20
-150.3815185170921
 30
0.0
 10
125.7359944347118
 20
-150.3815185170921
 30
0.0
 10
125.7359944347118
 20
-150.5885687557556
 30
0.0
 10
125.7359944347118
 20
-150.5885687557556
 30
0.0
 10
125.5472032021201
 20
-150.5716877878779
 30
0.0
 10
125.3156927855113
 20
-150.5716877878779
 30
0.0
 10
125.2991563271821
 20
-150.5716877878779
 30
0.0
 10
125.2991563271821
 20
-150.5716877878779
 30
0.0
 10
125.1768554374558
 20
-150.5716877878779
 30
0.0
 10
125.1768554374558
 20
-150.5716877878779
 30
0.0
 10
125.1768554374558
 20
-150.5716877878779
 30
0.0
 10
125.1768554374558
 20
-150.7136257218702
 30
0.0
 10
125.1768554374558
 20
-150.7136257218702
 30
0.0
 10
125.1768554374558
 20
-150.7136257218702
 30
0.0
 10
125.3749484278576
 20
-150.7136257218702
 30
0.0
 10
125.3749484278576
 20
-150.7136257218702
 30
0.0
 10
125.5640841699978
 20
-150.7136257218702
 30
0.0
 10
125.7545979503322
 20
-150.7091470977394
 30
0.0
 10
125.9433891829239
 20
-150.6967447539925
 30
0.0
 10
125.9433891829239
 20
-150.6967447539925
 30
0.0
 10
125.9433891829239
 20
-150.903794992656
 30
0.0
 10
125.9433891829239
 20
-150.903794992656
 30
0.0
 10
125.697409365277
 20
-150.8869140247783
 30
0.0
 10
125.3956190007691
 20
-150.8869140247783
 30
0.0
 10
125.3749484278576
 20
-150.8869140247783
 30
0.0
  0
SPLINE
  5
8B
330
81
100
AcDbEntity
  8
レイヤー 1
100
AcDbSpline
210
0.0
220
0.0
230
1.0
 70
     9
 71
     3
 72
    17
 73
    13
 74
     0
 42
0.0000000001
 43
0.0000000001
 40
0.0
 40
0.0
 40
0.0
 40
0.0
 40
1.0
 40
1.0
 40
1.0
 40
2.0
 40
2.0
 40
2.0
 40
3.0
 40
3.0
 40
3.0
 40
4.0
 40
4.0
 40
4.0
 40
4.0
 10
124.4602755765238
 20
-149.7086913688228
 30
0.0
 10
124.3676025079706
 20
-149.6029269374256
 30
0.0
 10
124.2973225600715
 20
-149.5646863775394
 30
0.0
 10
124.2160183066196
 20
-149.5329914990751
 30
0.0
 10
124.2160183066196
 20
-149.5329914990751
 30
0.0
 10
124.3121364706581
 20
-149.3679714253316
 30
0.0
 10
124.3121364706581
 20
-149.3679714253316
 30
0.0
 10
124.3972303291437
 20
-149.4103460998002
 30
0.0
 10
124.5029947605409
 20
-149.4885497673153
 30
0.0
 10
124.5491590400433
 20
-149.5436712950793
 30
0.0
 10
124.5491590400433
 20
-149.5436712950793
 30
0.0
 10
124.4602755765238
 20
-149.7086913688228
 30
0.0
 10
124.4602755765238
 20
-149.7086913688228
 30
0.0
  0
HATCH
  5
8C
330
81
100
AcDbEntity
  8
レイヤー 1
 62
   250
420
  2299925
440
 33554687
100
AcDbHatch
 10
0.0
 20
0.0
 30
0.0
210
0.0
220
0.0
230
1.0
  2
SOLID
 70
     1
 71
     1
 91
        7
 92
        1
 93
        1
 72
     4
 94
        3
 73
     0
 74
     0
 95
       17
 96
       13
 40
0.0
 40
0.0
 40
0.0
 40
0.0
 40
1.0
 40
1.0
 40
1.0
 40
2.0
 40
2.0
 40
2.0
 40
3.0
 40
3.0
 40
3.0
 40
4.0
 40
4.0
 40
4.0
 40
4.0
 10
125.765622255885
 20
-150.2819552575684
 10
125.6471109711924
 20
-150.1699896542977
 10
125.5547824121877
 20
-150.1062553878206
 10
125.4510850380816
 20
-150.042865630892
 10
125.4510850380816
 20
-150.042865630892
 10
125.5620171127067
 20
-149.9309000276214
 10
125.5620171127067
 20
-149.9309000276214
 10
125.6767387923655
 20
-149.9774088166723
 10
125.7732014659525
 20
-150.0345974017274
 10
125.8824109928349
 20
-150.1358832089938
 10
125.8824109928349
 20
-150.1358832089938
 10
125.765622255885
 20
-150.2819552575684
 10
125.765622255885
 20
-150.2819552575684
 97
        0
 97
        1
330
85
 92
        1
 93
        1
 72
     4
 94
        3
 73
     0
 74
     0
 95
       20
 96
       16
 40
0.0
 40
0.0
 40
0.0
 40
0.0
 40
1.0
 40
1.0
 40
1.0
 40
2.0
 40
2.0
 40
2.0
 40
3.0
 40
3.0
 40
3.0
 40
4.0
 40
4.0
 40
4.0
 40
5.0
 40
5.0
 40
5.0
 40
5.0
 10
125.2750406587854
 20
-149.2263780008878
 10
125.2416232325785
 20
-149.2749538472299
 10
125.1882242525571
 20
-149.353157514745
 10
125.0659233628307
 20
-149.463400570273
 10
125.1362033107298
 20
-149.4675346848553
 10
125.1620415268692
 20
-149.4675346848553
 10
125.1823675902322
 20
-149.4675346848553
 10
125.1823675902322
 20
-149.4675346848553
 10
125.3825276379252
 20
-149.4675346848553
 10
125.3825276379252
 20
-149.4675346848553
 10
125.4100884018072
 20
-149.4675346848553
 10
125.4528075858243
 20
-149.4654676275642
 10
125.517575380947
 20
-149.463400570273
 10
125.4193901596174
 20
-149.3893310173401
 10
125.3770154851488
 20
-149.3428222282893
 10
125.2750406587854
 20
-149.2263780008878
 97
        0
 97
        1
330
86
 92
        1
 93
        1
 72
     4
 94
        3
 73
     0
 74
     0
 95
       23
 96
       19
 40
0.0
 40
0.0
 40
0.0
 40
0.0
 40
1.0
 40
1.0
 40
1.0
 40
2.0
 40
2.0
 40
2.0
 40
3.0
 40
3.0
 40
3.0
 40
4.0
 40
4.0
 40
4.0
 40
5.0
 40
5.0
 40
5.0
 40
6.0
 40
6.0
 40
6.0
 40
6.0
 10
125.0139024210034
 20
-150.0683593374829
 10
124.9952989053831
 20
-150.0914414772341
 10
124.9102050468974
 20
-150.2037515900532
 10
124.7879041571711
 20
-150.2840223148595
 10
124.7879041571711
 20
-150.2840223148595
 10
124.6418321085965
 20
-150.1634439728758
 10
124.6418321085965
 20
-150.1634439728758
 10
124.773434756133
 20
-150.0873073626518
 10
124.8602511623613
 20
-149.9922227272589
 10
124.9029703463784
 20
-149.939168256786
 10
124.9029703463784
 20
-149.939168256786
 10
125.0545545477294
 20
-150.021850548432
 10
125.0545545477294
 20
-150.021850548432
 10
125.062133757797
 20
-150.0259846630143
 10
125.0697129678645
 20
-150.0321858348878
 10
125.0697129678645
 20
-150.042865630892
 10
125.0697129678645
 20
-150.0683593374829
 10
125.0380180894002
 20
-150.0683593374829
 10
125.0139024210034
 20
-150.0683593374829
 97
        0
 97
        1
330
87
 92
        1
 93
        1
 72
     4
 94
        3
 73
     0
 74
     0
 95
       17
 96
       13
 40
0.0
 40
0.0
 40
0.0
 40
0.0
 40
1.0
 40
1.0
 40
1.0
 40
2.0
 40
2.0
 40
2.0
 40
3.0
 40
3.0
 40
3.0
 40
4.0
 40
4.0
 40
4.0
 40
4.0
 10
124.6177164401997
 20
-149.3638373107493
 10
124.5639729506298
 20
-149.2877007005253
 10
124.4509738187136
 20
-149.2115640903013
 10
124.3603678074516
 20
-149.1819362691281
 10
124.3603678074516
 20
-149.1819362691281
 10
124.4437391181946
 20
-149.0169161953846
 10
124.4437391181946
 20
-149.0169161953846
 10
124.532622581714
 20
-149.0527451884312
 10
124.6252956502673
 20
-149.1099337734864
 10
124.7028102986854
 20
-149.1902044982927
 10
124.7028102986854
 20
-149.1902044982927
 10
124.6177164401997
 20
-149.3638373107493
 10
124.6177164401997
 20
-149.3638373107493
 97
        0
 97
        1
330
88
 92
        1
 93
        1
 72
     4
 94
        3
 73
     0
 74
     0
 95
       23
 96
       19
 40
0.0
 40
0.0
 40
0.0
 40
0.0
 40
1.0
 40
1.0
 40
1.0
 40
2.0
 40
2.0
 40
2.0
 40
3.0
 40
3.0
 40
3.0
 40
4.0
 40
4.0
 40
4.0
 40
5.0
 40
5.0
 40
5.0
 40
6.0
 40
6.0
 40
6.0
 40
6.0
 10
124.3955077814011
 20
-150.2585286082687
 10
124.3955077814011
 20
-150.2798882002772
 10
124.3972303291437
 20
-150.317784250615
 10
124.3751817180381
 20
-150.317784250615
 10
124.365879960228
 20
-150.317784250615
 10
124.3586452597089
 20
-150.3115830787415
 10
124.3493435018988
 20
-150.2947021108638
 10
124.3493435018988
 20
-150.2947021108638
 10
124.2583929810882
 20
-150.1128010692426
 10
124.2583929810882
 20
-150.1128010692426
 10
124.4475287232284
 20
-149.9836099885457
 10
124.6194389879423
 20
-149.7066243115317
 10
124.6604356242168
 20
-149.6346218158899
 10
124.6604356242168
 20
-149.6346218158899
 10
124.7231363620484
 20
-149.81445580022
 10
124.7231363620484
 20
-149.81445580022
 10
124.6066921346469
 20
-150.0111707524277
 10
124.4530408760048
 20
-150.1951388513401
 10
124.3955077814011
 20
-150.2585286082687
 97
        0
 97
        1
330
89
 92
        1
 93
        1
 72
     4
 94
        3
 73
     0
 74
     0
 95
      182
 96
      178
 40
0.0
 40
0.0
 40
0.0
 40
0.0
 40
1.0
 40
1.0
 40
1.0
 40
2.0
 40
2.0
 40
2.0
 40
3.0
 40
3.0
 40
3.0
 40
4.0
 40
4.0
 40
4.0
 40
5.0
 40
5.0
 40
5.0
 40
6.0
 40
6.0
 40
6.0
 40
7.0
 40
7.0
 40
7.0
 40
8.0
 40
8.0
 40
8.0
 40
9.0
 40
9.0
 40
9.0
 40
10.0
 40
10.0
 40
10.0
 40
11.0
 40
11.0
 40
11.0
 40
12.0
 40
12.0
 40
12.0
 40
13.0
 40
13.0
 40
13.0
 40
14.0
 40
14.0
 40
14.0
 40
15.0
 40
15.0
 40
15.0
 40
16.0
 40
16.0
 40
16.0
 40
17.0
 40
17.0
 40
17.0
 40
18.0
 40
18.0
 40
18.0
 40
19.0
 40
19.0
 40
19.0
 40
20.0
 40
20.0
 40
20.0
 40
21.0
 40
21.0
 40
21.0
 40
22.0
 40
22.0
 40
22.0
 40
23.0
 40
23.0
 40
23.0
 40
24.0
 40
24.0
 40
24.0
 40
25.0
 40
25.0
 40
25.0
 40
26.0
 40
26.0
 40
26.0
 40
27.0
 40
27.0
 40
27.0
 40
28.0
 40
28.0
 40
28.0
 40
29.0
 40
29.0
 40
29.0
 40
30.0
 40
30.0
 40
30.0
 40
31.0
 40
31.0
 40
31.0
 40
32.0
 40
32.0
 40
32.0
 40
33.0
 40
33.0
 40
33.0
 40
34.0
 40
34.0
 40
34.0
 40
35.0
 40
35.0
 40
35.0
 40
36.0
 40
36.0
 40
36.0
 40
37.0
 40
37.0
 40
37.0
 40
38.0
 40
38.0
 40
38.0
 40
39.0
 40
39.0
 40
39.0
 40
40.0
 40
40.0
 40
40.0
 40
41.0
 40
41.0
 40
41.0
 40
42.0
 40
42.0
 40
42.0
 40
43.0
 40
43.0
 40
43.0
 40
44.0
 40
44.0
 40
44.0
 40
45.0
 40
45.0
 40
45.0
 40
46.0
 40
46.0
 40
46.0
 40
47.0
 40
47.0
 40
47.0
 40
48.0
 40
48.0
 40
48.0
 40
49.0
 40
49.0
 40
49.0
 40
50.0
 40
50.0
 40
50.0
 40
51.0
 40
51.0
 40
51.0
 40
52.0
 40
52.0
 40
52.0
 40
53.0
 40
53.0
 40
53.0
 40
54.0
 40
54.0
 40
54.0
 40
55.0
 40
55.0
 40
55.0
 40
56.0
 40
56.0
 40
56.0
 40
57.0
 40
57.0
 40
57.0
 40
58.0
 40
58.0
 40
58.0
 40
59.0
 40
59.0
 40
59.0
 40
59.0
 10
125.3749484278576
 20
-150.8869140247783
 10
125.3749484278576
 20
-150.8869140247783
 10
124.8175319783442
 20
-150.8869140247783
 10
124.8175319783442
 20
-150.8869140247783
 10
124.6308078030437
 20
-150.8869140247783
 10
124.4416720609034
 20
-150.8913926489091
 10
124.2546033760544
 20
-150.903794992656
 10
124.2546033760544
 20
-150.903794992656
 10
124.2546033760544
 20
-150.6967447539925
 10
124.2546033760544
 20
-150.6967447539925
 10
124.449251270971
 20
-150.7091470977394
 10
124.7324381198585
 20
-150.7136257218702
 10
124.8175319783442
 20
-150.7136257218702
 10
124.8175319783442
 20
-150.7136257218702
 10
125.0104573255182
 20
-150.7136257218702
 10
125.0104573255182
 20
-150.7136257218702
 10
125.0104573255182
 20
-150.7136257218702
 10
125.0104573255182
 20
-150.5716877878779
 10
125.0104573255182
 20
-150.5716877878779
 10
125.0104573255182
 20
-150.5716877878779
 10
124.8695529201715
 20
-150.5716877878779
 10
124.8695529201715
 20
-150.5716877878779
 10
124.7252034193395
 20
-150.5716877878779
 10
124.580509408959
 20
-150.5761664120087
 10
124.4361599081271
 20
-150.5909803225953
 10
124.4361599081271
 20
-150.5909803225953
 10
124.4361599081271
 20
-150.3815185170921
 10
124.4361599081271
 20
-150.3815185170921
 10
124.5863660712839
 20
-150.3963324276787
 10
124.8030625773062
 20
-150.400466542261
 10
124.8695529201715
 20
-150.400466542261
 10
124.8695529201715
 20
-150.400466542261
 10
125.0104573255182
 20
-150.400466542261
 10
125.0104573255182
 20
-150.400466542261
 10
125.0066677204844
 20
-150.3284640466192
 10
125.0066677204844
 20
-150.3222628747458
 10
125.001155567708
 20
-150.2692084042729
 10
125.001155567708
 20
-150.2692084042729
 10
125.1231119478859
 20
-150.2840223148595
 10
125.1231119478859
 20
-150.2840223148595
 10
125.1231119478859
 20
-150.2840223148595
 10
125.0362955416576
 20
-150.1128010692426
 10
125.0362955416576
 20
-150.1128010692426
 10
125.0769476683835
 20
-150.119002241116
 10
125.1417154635062
 20
-150.1276149798292
 10
125.1565293740928
 20
-150.1276149798292
 10
125.2009711058525
 20
-150.1276149798292
 10
125.2157850164391
 20
-150.1062553878206
 10
125.2157850164391
 20
-150.049411312314
 10
125.2157850164391
 20
-150.049411312314
 10
125.2157850164391
 20
-149.911607492904
 10
125.2157850164391
 20
-149.911607492904
 10
125.2157850164391
 20
-149.911607492904
 10
125.1231119478859
 20
-149.911607492904
 10
125.1231119478859
 20
-149.911607492904
 10
125.0066677204844
 20
-149.911607492904
 10
124.8695529201715
 20
-149.911607492904
 10
124.7620659410317
 20
-149.9243543461994
 10
124.7620659410317
 20
-149.9243543461994
 10
124.7620659410317
 20
-149.7341850754136
 10
124.7620659410317
 20
-149.7341850754136
 10
124.9084824991548
 20
-149.7510660432914
 10
125.1103650945904
 20
-149.7531331005825
 10
125.1231119478859
 20
-149.7531331005825
 10
125.1231119478859
 20
-149.7531331005825
 10
125.2157850164391
 20
-149.7531331005825
 10
125.2157850164391
 20
-149.7531331005825
 10
125.2157850164391
 20
-149.7531331005825
 10
125.2157850164391
 20
-149.6218749625945
 10
125.2157850164391
 20
-149.6218749625945
 10
125.2157850164391
 20
-149.6218749625945
 10
125.1823675902322
 20
-149.6218749625945
 10
125.1823675902322
 20
-149.6218749625945
 10
125.1434380112488
 20
-149.6218749625945
 10
125.0342284843664
 20
-149.6260090771768
 10
124.9567138359483
 20
-149.6346218158899
 10
124.9567138359483
 20
-149.6346218158899
 10
124.9567138359483
 20
-149.5543510910836
 10
124.9567138359483
 20
-149.5543510910836
 10
124.9102050468974
 20
-149.5922471414214
 10
124.8881564357918
 20
-149.6070610520079
 10
124.8509494045511
 20
-149.6304877013076
 10
124.8509494045511
 20
-149.6304877013076
 10
124.6862738403562
 20
-149.5012966206108
 10
124.6862738403562
 20
-149.5012966206108
 10
124.7548312405127
 20
-149.4675346848553
 10
124.8919460408256
 20
-149.4041449279267
 10
125.02871633159
 20
-149.2601399366433
 10
125.1010633367803
 20
-149.1819362691281
 10
125.1696207369367
 20
-149.097186920191
 10
125.2157850164391
 20
-148.9959011129246
 10
125.2157850164391
 20
-148.9959011129246
 10
125.4011311535455
 20
-149.057223812562
 10
125.4011311535455
 20
-149.057223812562
 10
125.4176676118747
 20
-149.0634249844355
 10
125.4269693696849
 20
-149.0720377231486
 10
125.4269693696849
 20
-149.0844400668955
 10
125.4269693696849
 20
-149.1016655443218
 10
125.4159450641321
 20
-149.1078667161952
 10
125.393551943478
 20
-149.1206135694907
 10
125.4638318913771
 20
-149.2177652621747
 10
125.6064588444664
 20
-149.3152614644073
 10
125.6360866656396
 20
-149.3342094895762
 10
125.7676893131761
 20
-149.4230929530956
 10
125.8675970822483
 20
-149.4506537169776
 10
125.9361544824048
 20
-149.4696017421465
 10
125.9361544824048
 20
-149.4696017421465
 10
125.8324571082988
 20
-149.6387559304722
 10
125.8324571082988
 20
-149.6387559304722
 10
125.7583875553659
 20
-149.6091281092991
 10
125.7139458236062
 20
-149.5901800841302
 10
125.6102484495002
 20
-149.5247232699105
 10
125.6102484495002
 20
-149.5247232699105
 10
125.6102484495002
 20
-149.6346218158899
 10
125.6102484495002
 20
-149.6346218158899
 10
125.53790144431
 20
-149.6260090771768
 10
125.4269693696849
 20
-149.6218749625945
 10
125.380460580634
 20
-149.6218749625945
 10
125.380460580634
 20
-149.6218749625945
 10
125.380460580634
 20
-149.7531331005825
 10
125.380460580634
 20
-149.7531331005825
 10
125.380460580634
 20
-149.7531331005825
 10
125.4862250120312
 20
-149.7531331005825
 10
125.4862250120312
 20
-149.7531331005825
 10
125.4879475597738
 20
-149.7531331005825
 10
125.6918972125006
 20
-149.7510660432914
 10
125.8472710188854
 20
-149.7341850754136
 10
125.8472710188854
 20
-149.7341850754136
 10
125.8472710188854
 20
-149.9243543461994
 10
125.8472710188854
 20
-149.9243543461994
 10
125.7342718869692
 20
-149.911607492904
 10
125.5971570866562
 20
-149.911607492904
 10
125.4862250120312
 20
-149.911607492904
 10
125.4862250120312
 20
-149.911607492904
 10
125.380460580634
 20
-149.911607492904
 10
125.380460580634
 20
-149.911607492904
 10
125.380460580634
 20
-149.911607492904
 10
125.380460580634
 20
-150.137950266285
 10
125.380460580634
 20
-150.137950266285
 10
125.380460580634
 20
-150.2564615509775
 10
125.3584119695284
 20
-150.2926350535727
 10
125.2178520737302
 20
-150.3074489641592
 10
125.2212971692155
 20
-150.3263969893281
 10
125.2157850164391
 20
-150.3370767853324
 10
125.1823675902322
 20
-150.3601589250835
 10
125.1806450424896
 20
-150.3791069502524
 10
125.1806450424896
 20
-150.3856526316744
 10
125.1789224947469
 20
-150.400466542261
 10
125.1789224947469
 20
-150.400466542261
 10
125.2991563271821
 20
-150.400466542261
 10
125.2991563271821
 20
-150.400466542261
 10
125.4435058280141
 20
-150.400466542261
 10
125.5899223861372
 20
-150.3963324276787
 10
125.7359944347118
 20
-150.3815185170921
 10
125.7359944347118
 20
-150.3815185170921
 10
125.7359944347118
 20
-150.5885687557556
 10
125.7359944347118
 20
-150.5885687557556
 10
125.5472032021201
 20
-150.5716877878779
 10
125.3156927855113
 20
-150.5716877878779
 10
125.2991563271821
 20
-150.5716877878779
 10
125.2991563271821
 20
-150.5716877878779
 10
125.1768554374558
 20
-150.5716877878779
 10
125.1768554374558
 20
-150.5716877878779
 10
125.1768554374558
 20
-150.5716877878779
 10
125.1768554374558
 20
-150.7136257218702
 10
125.1768554374558
 20
-150.7136257218702
 10
125.1768554374558
 20
-150.7136257218702
 10
125.3749484278576
 20
-150.7136257218702
 10
125.3749484278576
 20
-150.7136257218702
 10
125.5640841699978
 20
-150.7136257218702
 10
125.7545979503322
 20
-150.7091470977394
 10
125.9433891829239
 20
-150.6967447539925
 10
125.9433891829239
 20
-150.6967447539925
 10
125.9433891829239
 20
-150.903794992656
 10
125.9433891829239
 20
-150.903794992656
 10
125.697409365277
 20
-150.8869140247783
 10
125.3956190007691
 20
-150.8869140247783
 10
125.3749484278576
 20
-150.8869140247783
 97
        0
 97
        1
330
8A
 92
        1
 93
        1
 72
     4
 94
        3
 73
     0
 74
     0
 95
       17
 96
       13
 40
0.0
 40
0.0
 40
0.0
 40
0.0
 40
1.0
 40
1.0
 40
1.0
 40
2.0
 40
2.0
 40
2.0
 40
3.0
 40
3.0
 40
3.0
 40
4.0
 40
4.0
 40
4.0
 40
4.0
 10
124.4602755765238
 20
-149.7086913688228
 10
124.3676025079706
 20
-149.6029269374256
 10
124.2973225600715
 20
-149.5646863775394
 10
124.2160183066196
 20
-149.5329914990751
 10
124.2160183066196
 20
-149.5329914990751
 10
124.3121364706581
 20
-149.3679714253316
 10
124.3121364706581
 20
-149.3679714253316
 10
124.3972303291437
 20
-149.4103460998002
 10
124.5029947605409
 20
-149.4885497673153
 10
124.5491590400433
 20
-149.5436712950793
 10
124.5491590400433
 20
-149.5436712950793
 10
124.4602755765238
 20
-149.7086913688228
 10
124.4602755765238
 20
-149.7086913688228
 97
        0
 97
        1
330
8B
 75
     2
 76
     1
 98
        1
 10
0.0
 20
0.0
450
        0
451
        0
460
0.0
461
0.0
452
        0
462
0.0
453
        0
470

  0
SPLINE
  5
8D
330
81
100
AcDbEntity
  8
レイヤー 1
100
AcDbSpline
210
0.0
220
0.0
230
1.0
 70
    11
 71
     3
 72
    17
 73
    13
 74
     0
 42
0.0000000001
 43
0.0000000001
 40
0.0
 40
0.0
 40
0.0
 40
0.0
 40
1.0
 40
1.0
 40
1.0
 40
2.0
 40
2.0
 40
2.0
 40
3.0
 40
3.0
 40
3.0
 40
4.0
 40
4.0
 40
4.0
 40
4.0
 10
127.2311658753102
 20
-150.2564615509775
 30
0.0
 10
127.2311658753102
 20
-150.2564615509775
 30
0.0
 10
127.0533989482714
 20
-150.2564615509775
 30
0.0
 10
127.0533989482714
 20
-150.2564615509775
 30
0.0
 10
127.0775146166681
 20
-150.3157171933238
 30
0.0
 10
127.1254014439131
 20
-150.3877196889655
 30
0.0
 10
127.1495171123098
 20
-150.4173475101387
 30
0.0
 10
127.1736327807066
 20
-150.4025335995521
 30
0.0
 10
127.2735405497788
 20
-150.3391438426235
 30
0.0
 10
127.3531222554881
 20
-150.2564615509775
 30
0.0
 10
127.3531222554881
 20
-150.2564615509775
 30
0.0
 10
127.2311658753102
 20
-150.2564615509775
 30
0.0
 10
127.2311658753102
 20
-150.2564615509775
 30
0.0
  0
SPLINE
  5
8E
330
81
100
AcDbEntity
  8
レイヤー 1
100
AcDbSpline
210
0.0
220
0.0
230
1.0
 70
     9
 71
     3
 72
    83
 73
    79
 74
     0
 42
0.0000000001
 43
0.0000000001
 40
0.0
 40
0.0
 40
0.0
 40
0.0
 40
1.0
 40
1.0
 40
1.0
 40
2.0
 40
2.0
 40
2.0
 40
3.0
 40
3.0
 40
3.0
 40
4.0
 40
4.0
 40
4.0
 40
5.0
 40
5.0
 40
5.0
 40
6.0
 40
6.0
 40
6.0
 40
7.0
 40
7.0
 40
7.0
 40
8.0
 40
8.0
 40
8.0
 40
9.0
 40
9.0
 40
9.0
 40
10.0
 40
10.0
 40
10.0
 40
11.0
 40
11.0
 40
11.0
 40
12.0
 40
12.0
 40
12.0
 40
13.0
 40
13.0
 40
13.0
 40
14.0
 40
14.0
 40
14.0
 40
15.0
 40
15.0
 40
15.0
 40
16.0
 40
16.0
 40
16.0
 40
17.0
 40
17.0
 40
17.0
 40
18.0
 40
18.0
 40
18.0
 40
19.0
 40
19.0
 40
19.0
 40
20.0
 40
20.0
 40
20.0
 40
21.0
 40
21.0
 40
21.0
 40
22.0
 40
22.0
 40
22.0
 40
23.0
 40
23.0
 40
23.0
 40
24.0
 40
24.0
 40
24.0
 40
25.0
 40
25.0
 40
25.0
 40
26.0
 40
26.0
 40
26.0
 40
26.0
 10
127.4457953240413
 20
-149.4589219461422
 30
0.0
 10
127.4457953240413
 20
-149.4589219461422
 30
0.0
 10
127.3607014655556
 20
-149.4589219461422
 30
0.0
 10
127.3607014655556
 20
-149.4589219461422
 30
0.0
 10
127.3607014655556
 20
-149.4589219461422
 30
0.0
 10
127.3607014655556
 20
-149.7066243115317
 30
0.0
 10
127.3607014655556
 20
-149.7066243115317
 30
0.0
 10
127.3607014655556
 20
-149.7066243115317
 30
0.0
 10
127.4330484707459
 20
-149.7066243115317
 30
0.0
 10
127.4330484707459
 20
-149.7066243115317
 30
0.0
 10
127.490237055801
 20
-149.7066243115317
 30
0.0
 10
127.6125379455274
 20
-149.7021456874009
 30
0.0
 10
127.6996988613042
 20
-149.6938774582362
 30
0.0
 10
127.6996988613042
 20
-149.6938774582362
 30
0.0
 10
127.6996988613042
 20
-149.8737114425663
 30
0.0
 10
127.6996988613042
 20
-149.8737114425663
 30
0.0
 10
127.6180500983038
 20
-149.8650987038531
 30
0.0
 10
127.4867919603158
 20
-149.8609645892708
 30
0.0
 10
127.4330484707459
 20
-149.8609645892708
 30
0.0
 10
127.4330484707459
 20
-149.8609645892708
 30
0.0
 10
127.1663980801875
 20
-149.8609645892708
 30
0.0
 10
127.1663980801875
 20
-149.8609645892708
 30
0.0
 10
127.1198892911367
 20
-149.8609645892708
 30
0.0
 10
126.9920762486339
 20
-149.8650987038531
 30
0.0
 10
126.8997476896292
 20
-149.8737114425663
 30
0.0
 10
126.8997476896292
 20
-149.8737114425663
 30
0.0
 10
126.8997476896292
 20
-149.6938774582362
 30
0.0
 10
126.8997476896292
 20
-149.6938774582362
 30
0.0
 10
126.9865640958575
 20
-149.7021456874009
 30
0.0
 10
127.1088649855839
 20
-149.7066243115317
 30
0.0
 10
127.1663980801875
 20
-149.7066243115317
 30
0.0
 10
127.1663980801875
 20
-149.7066243115317
 30
0.0
 10
127.2049831496223
 20
-149.7066243115317
 30
0.0
 10
127.2049831496223
 20
-149.7066243115317
 30
0.0
 10
127.2049831496223
 20
-149.7066243115317
 30
0.0
 10
127.2049831496223
 20
-149.4589219461422
 30
0.0
 10
127.2049831496223
 20
-149.4589219461422
 30
0.0
 10
127.2049831496223
 20
-149.4589219461422
 30
0.0
 10
127.1402153544997
 20
-149.4589219461422
 30
0.0
 10
127.1402153544997
 20
-149.4589219461422
 30
0.0
 10
127.0864718649298
 20
-149.4589219461422
 30
0.0
 10
126.9403998163552
 20
-149.463400570273
 30
0.0
 10
126.8349798945065
 20
-149.4716687994376
 30
0.0
 10
126.8349798945065
 20
-149.4716687994376
 30
0.0
 10
126.8349798945065
 20
-149.2939018723987
 30
0.0
 10
126.8349798945065
 20
-149.2939018723987
 30
0.0
 10
126.9348876635788
 20
-149.3004475538207
 30
0.0
 10
127.0737250116343
 20
-149.304581668403
 30
0.0
 10
127.1402153544997
 20
-149.304581668403
 30
0.0
 10
127.1402153544997
 20
-149.304581668403
 30
0.0
 10
127.2032606018797
 20
-149.304581668403
 30
0.0
 10
127.2032606018797
 20
-149.304581668403
 30
0.0
 10
127.199470996846
 20
-149.152308447955
 30
0.0
 10
127.1977484491033
 20
-149.1185465121995
 30
0.0
 10
127.1922362963269
 20
-149.0251844245492
 30
0.0
 10
127.1922362963269
 20
-149.0251844245492
 30
0.0
 10
127.3772379238848
 20
-149.0486110738489
 30
0.0
 10
127.3772379238848
 20
-149.0486110738489
 30
0.0
 10
127.399631044539
 20
-149.0506781311401
 30
0.0
 10
127.4199571079019
 20
-149.0548122457224
 30
0.0
 10
127.4199571079019
 20
-149.0782388950221
 30
0.0
 10
127.4199571079019
 20
-149.1099337734864
 30
0.0
 10
127.3810275289186
 20
-149.1268147413641
 30
0.0
 10
127.3607014655556
 20
-149.1354274800772
 30
0.0
 10
127.3607014655556
 20
-149.1354274800772
 30
0.0
 10
127.3607014655556
 20
-149.304581668403
 30
0.0
 10
127.3607014655556
 20
-149.304581668403
 30
0.0
 10
127.3607014655556
 20
-149.304581668403
 30
0.0
 10
127.4457953240413
 20
-149.304581668403
 30
0.0
 10
127.4457953240413
 20
-149.304581668403
 30
0.0
 10
127.5126301764551
 20
-149.304581668403
 30
0.0
 10
127.6514675245107
 20
-149.3004475538207
 30
0.0
 10
127.7534423508741
 20
-149.2939018723987
 30
0.0
 10
127.7534423508741
 20
-149.2939018723987
 30
0.0
 10
127.7534423508741
 20
-149.4716687994376
 30
0.0
 10
127.7534423508741
 20
-149.4716687994376
 30
0.0
 10
127.6587022250297
 20
-149.4654676275642
 30
0.0
 10
127.5071180236788
 20
-149.4589219461422
 30
0.0
 10
127.4457953240413
 20
-149.4589219461422
 30
0.0
  0
SPLINE
  5
8F
330
81
100
AcDbEntity
  8
レイヤー 1
100
AcDbSpline
210
0.0
220
0.0
230
1.0
 70
     9
 71
     3
 72
    38
 73
    34
 74
     0
 42
0.0000000001
 43
0.0000000001
 40
0.0
 40
0.0
 40
0.0
 40
0.0
 40
1.0
 40
1.0
 40
1.0
 40
2.0
 40
2.0
 40
2.0
 40
3.0
 40
3.0
 40
3.0
 40
4.0
 40
4.0
 40
4.0
 40
5.0
 40
5.0
 40
5.0
 40
6.0
 40
6.0
 40
6.0
 40
7.0
 40
7.0
 40
7.0
 40
8.0
 40
8.0
 40
8.0
 40
9.0
 40
9.0
 40
9.0
 40
10.0
 40
10.0
 40
10.0
 40
11.0
 40
11.0
 40
11.0
 40
11.0
 10
126.7440293736959
 20
-149.1374945373684
 30
0.0
 10
126.7423068259533
 20
-149.1840033264193
 30
0.0
 10
126.7402397686621
 20
-149.3004475538207
 30
0.0
 10
126.7402397686621
 20
-149.3448892855804
 30
0.0
 10
126.7402397686621
 20
-149.3448892855804
 30
0.0
 10
126.7402397686621
 20
-149.6918104009451
 30
0.0
 10
126.7402397686621
 20
-149.6918104009451
 30
0.0
 10
126.7402397686621
 20
-149.7786268071734
 30
0.0
 10
126.7423068259533
 20
-149.9202202316172
 30
0.0
 10
126.7516085837635
 20
-150.0407985736009
 30
0.0
 10
126.7516085837635
 20
-150.0407985736009
 30
0.0
 10
126.5848659622774
 20
-150.0407985736009
 30
0.0
 10
126.5848659622774
 20
-150.0407985736009
 30
0.0
 10
126.5886555673112
 20
-149.9774088166723
 30
0.0
 10
126.5921006627964
 20
-149.9243543461994
 30
0.0
 10
126.5941677200876
 20
-149.869577327984
 30
0.0
 10
126.5958902678302
 20
-149.7465874191606
 30
0.0
 10
126.5979573251213
 20
-149.731773508574
 30
0.0
 10
126.5979573251213
 20
-149.6873317768143
 30
0.0
 10
126.5979573251213
 20
-149.6873317768143
 30
0.0
 10
126.5979573251213
 20
-149.3659043680404
 30
0.0
 10
126.5979573251213
 20
-149.3659043680404
 30
0.0
 10
126.5979573251213
 20
-149.3107828402765
 30
0.0
 10
126.58658851002
 20
-149.0720377231486
 30
0.0
 10
126.5848659622774
 20
-149.0210503099669
 30
0.0
 10
126.5848659622774
 20
-149.0210503099669
 30
0.0
 10
126.7605658320251
 20
-149.0486110738489
 30
0.0
 10
126.7605658320251
 20
-149.0486110738489
 30
0.0
 10
126.7791693476455
 20
-149.0506781311401
 30
0.0
 10
126.807074621076
 20
-149.0548122457224
 30
0.0
 10
126.807074621076
 20
-149.0803059523132
 30
0.0
 10
126.807074621076
 20
-149.1078667161952
 30
0.0
 10
126.7626328893163
 20
-149.1288817986553
 30
0.0
 10
126.7440293736959
 20
-149.1374945373684
 30
0.0
  0
SPLINE
  5
90
330
81
100
AcDbEntity
  8
レイヤー 1
100
AcDbSpline
210
0.0
220
0.0
230
1.0
 70
     9
 71
     3
 72
    17
 73
    13
 74
     0
 42
0.0000000001
 43
0.0000000001
 40
0.0
 40
0.0
 40
0.0
 40
0.0
 40
1.0
 40
1.0
 40
1.0
 40
2.0
 40
2.0
 40
2.0
 40
3.0
 40
3.0
 40
3.0
 40
4.0
 40
4.0
 40
4.0
 40
4.0
 10
126.421912945825
 20
-149.4420409782645
 30
0.0
 10
126.3960747296857
 20
-149.4020778706356
 30
0.0
 10
126.3368190873394
 20
-149.304581668403
 30
0.0
 10
126.1773111663723
 20
-149.1946831224235
 30
0.0
 10
126.1773111663723
 20
-149.1946831224235
 30
0.0
 10
126.2885877505459
 20
-149.0613579271444
 30
0.0
 10
126.2885877505459
 20
-149.0613579271444
 30
0.0
 10
126.4515407669982
 20
-149.1629882439592
 30
0.0
 10
126.5014946515343
 20
-149.2518717074787
 30
0.0
 10
126.5256103199311
 20
-149.2939018723987
 30
0.0
 10
126.5256103199311
 20
-149.2939018723987
 30
0.0
 10
126.421912945825
 20
-149.4420409782645
 30
0.0
 10
126.421912945825
 20
-149.4420409782645
 30
0.0
  0
SPLINE
  5
91
330
81
100
AcDbEntity
  8
レイヤー 1
100
AcDbSpline
210
0.0
220
0.0
230
1.0
 70
     9
 71
     3
 72
    23
 73
    19
 74
     0
 42
0.0000000001
 43
0.0000000001
 40
0.0
 40
0.0
 40
0.0
 40
0.0
 40
1.0
 40
1.0
 40
1.0
 40
2.0
 40
2.0
 40
2.0
 40
3.0
 40
3.0
 40
3.0
 40
4.0
 40
4.0
 40
4.0
 40
5.0
 40
5.0
 40
5.0
 40
6.0
 40
6.0
 40
6.0
 40
6.0
 10
126.2885877505459
 20
-149.9074733783217
 30
0.0
 10
126.2737738399593
 20
-149.9477809954991
 30
0.0
 10
126.2682616871829
 20
-149.9646619633769
 30
0.0
 10
126.2496581715626
 20
-149.9646619633769
 30
0.0
 10
126.2365668087186
 20
-149.9646619633769
 30
0.0
 10
126.2272650509084
 20
-149.9477809954991
 30
0.0
 10
126.221752898132
 20
-149.9350341422037
 30
0.0
 10
126.221752898132
 20
-149.9350341422037
 30
0.0
 10
126.1349364919037
 20
-149.7700140684603
 30
0.0
 10
126.1349364919037
 20
-149.7700140684603
 30
0.0
 10
126.2238199554232
 20
-149.738319189996
 30
0.0
 10
126.3550780934112
 20
-149.6831976622319
 30
0.0
 10
126.5293999249649
 20
-149.5202446457796
 30
0.0
 10
126.5293999249649
 20
-149.5202446457796
 30
0.0
 10
126.579353809501
 20
-149.6938774582362
 30
0.0
 10
126.579353809501
 20
-149.6938774582362
 30
0.0
 10
126.4977050465006
 20
-149.7762152403337
 30
0.0
 10
126.4201903980824
 20
-149.8334038253888
 30
0.0
 10
126.2885877505459
 20
-149.9074733783217
 30
0.0
  0
SPLINE
  5
92
330
81
100
AcDbEntity
  8
レイヤー 1
100
AcDbSpline
210
0.0
220
0.0
230
1.0
 70
     9
 71
     3
 72
   113
 73
   109
 74
     0
 42
0.0000000001
 43
0.0000000001
 40
0.0
 40
0.0
 40
0.0
 40
0.0
 40
1.0
 40
1.0
 40
1.0
 40
2.0
 40
2.0
 40
2.0
 40
3.0
 40
3.0
 40
3.0
 40
4.0
 40
4.0
 40
4.0
 40
5.0
 40
5.0
 40
5.0
 40
6.0
 40
6.0
 40
6.0
 40
7.0
 40
7.0
 40
7.0
 40
8.0
 40
8.0
 40
8.0
 40
9.0
 40
9.0
 40
9.0
 40
10.0
 40
10.0
 40
10.0
 40
11.0
 40
11.0
 40
11.0
 40
12.0
 40
12.0
 40
12.0
 40
13.0
 40
13.0
 40
13.0
 40
14.0
 40
14.0
 40
14.0
 40
15.0
 40
15.0
 40
15.0
 40
16.0
 40
16.0
 40
16.0
 40
17.0
 40
17.0
 40
17.0
 40
18.0
 40
18.0
 40
18.0
 40
19.0
 40
19.0
 40
19.0
 40
20.0
 40
20.0
 40
20.0
 40
21.0
 40
21.0
 40
21.0
 40
22.0
 40
22.0
 40
22.0
 40
23.0
 40
23.0
 40
23.0
 40
24.0
 40
24.0
 40
24.0
 40
25.0
 40
25.0
 40
25.0
 40
26.0
 40
26.0
 40
26.0
 40
27.0
 40
27.0
 40
27.0
 40
28.0
 40
28.0
 40
28.0
 40
29.0
 40
29.0
 40
29.0
 40
30.0
 40
30.0
 40
30.0
 40
31.0
 40
31.0
 40
31.0
 40
32.0
 40
32.0
 40
32.0
 40
33.0
 40
33.0
 40
33.0
 40
34.0
 40
34.0
 40
34.0
 40
35.0
 40
35.0
 40
35.0
 40
36.0
 40
36.0
 40
36.0
 40
36.0
 10
127.4123778978344
 20
-150.2585286082687
 30
0.0
 10
127.4123778978344
 20
-150.2585286082687
 30
0.0
 10
127.4995388136112
 20
-150.3580918677924
 30
0.0
 10
127.4995388136112
 20
-150.3580918677924
 30
0.0
 10
127.5088405714214
 20
-150.3687716637967
 30
0.0
 10
127.5181423292315
 20
-150.3815185170921
 30
0.0
 10
127.5181423292315
 20
-150.3963324276787
 30
0.0
 10
127.5181423292315
 20
-150.3983994849698
 30
0.0
 10
127.5181423292315
 20
-150.428027306143
 30
0.0
 10
127.4847249030246
 20
-150.428027306143
 30
0.0
 10
127.4774902025056
 20
-150.428027306143
 30
0.0
 10
127.4420057190075
 20
-150.4235486820121
 30
0.0
 10
127.4364935662311
 20
-150.4235486820121
 30
0.0
 10
127.4013535922816
 20
-150.455588070025
 30
0.0
 10
127.3607014655556
 20
-150.4893500057804
 30
0.0
 10
127.2735405497788
 20
-150.5465385908355
 30
0.0
 10
127.4013535922816
 20
-150.6543700795239
 30
0.0
 10
127.5401909403372
 20
-150.711558664579
 30
0.0
 10
127.7792805670135
 20
-150.7494547149168
 30
0.0
 10
127.7792805670135
 20
-150.7494547149168
 30
0.0
 10
127.6476779194769
 20
-150.9251545846645
 30
0.0
 10
127.6476779194769
 20
-150.9251545846645
 30
0.0
 10
127.4182345601593
 20
-150.8531520890228
 30
0.0
 10
127.2811197598464
 20
-150.7642686255034
 30
0.0
 10
127.2142849074325
 20
-150.711558664579
 30
0.0
 10
127.0830267694445
 20
-150.6099283477642
 30
0.0
 10
126.9569362746844
 20
-150.4469753313119
 30
0.0
 10
126.890445931819
 20
-150.2819552575684
 30
0.0
 10
126.8311902894727
 20
-150.3474120717881
 30
0.0
 10
126.76642249435
 20
-150.400466542261
 30
0.0
 10
126.6978650941936
 20
-150.449042388603
 30
0.0
 10
126.6978650941936
 20
-150.449042388603
 30
0.0
 10
126.6978650941936
 20
-150.7008788685748
 30
0.0
 10
126.6978650941936
 20
-150.7008788685748
 30
0.0
 10
126.8404920472829
 20
-150.6753851619839
 30
0.0
 10
127.0034450637352
 20
-150.6309434302242
 30
0.0
 10
127.0589111010478
 20
-150.6161295196376
 30
0.0
 10
127.0589111010478
 20
-150.6161295196376
 30
0.0
 10
127.0330728849084
 20
-150.7852837079634
 30
0.0
 10
127.0330728849084
 20
-150.7852837079634
 30
0.0
 10
127.0310058276172
 20
-150.7852837079634
 30
0.0
 10
127.014469369288
 20
-150.7918293893854
 30
0.0
 10
127.0127468215454
 20
-150.7918293893854
 30
0.0
 10
126.8384249899918
 20
-150.8297254397231
 30
0.0
 10
126.5607502938806
 20
-150.8955267634914
 30
0.0
 10
126.3884955196181
 20
-150.931355756538
 30
0.0
 10
126.379193761808
 20
-150.9482367244157
 30
0.0
 10
126.358867698445
 20
-150.97993160288
 30
0.0
 10
126.338541635082
 20
-150.97993160288
 30
0.0
 10
126.3144259666853
 20
-150.97993160288
 30
0.0
 10
126.3106363616515
 20
-150.9609835777111
 30
0.0
 10
126.3089138139089
 20
-150.9420355525423
 30
0.0
 10
126.3089138139089
 20
-150.9420355525423
 30
0.0
 10
126.2865206932547
 20
-150.7684027400857
 30
0.0
 10
126.2865206932547
 20
-150.7684027400857
 30
0.0
 10
126.351632997926
 20
-150.7601345109211
 30
0.0
 10
126.4460286142218
 20
-150.7473876576256
 30
0.0
 10
126.5404242305177
 20
-150.7263725751656
 30
0.0
 10
126.5404242305177
 20
-150.7263725751656
 30
0.0
 10
126.5404242305177
 20
-150.5486056481267
 30
0.0
 10
126.5404242305177
 20
-150.5486056481267
 30
0.0
 10
126.4143337357575
 20
-150.6206081437684
 30
0.0
 10
126.331306934563
 20
-150.6498914553931
 30
0.0
 10
126.1866129241825
 20
-150.6795192765662
 30
0.0
 10
126.1866129241825
 20
-150.6795192765662
 30
0.0
 10
126.0811930023338
 20
-150.5103650882404
 30
0.0
 10
126.0811930023338
 20
-150.5103650882404
 30
0.0
 10
126.358867698445
 20
-150.4828043243584
 30
0.0
 10
126.5273328676737
 20
-150.3897867462567
 30
0.0
 10
126.683051183607
 20
-150.2564615509775
 30
0.0
 10
126.5552381411042
 20
-150.2564615509775
 30
0.0
 10
126.2923773555797
 20
-150.2609401751084
 30
0.0
 10
126.1201225813172
 20
-150.2671413469818
 30
0.0
 10
126.1201225813172
 20
-150.2671413469818
 30
0.0
 10
126.1201225813172
 20
-150.0893744199429
 30
0.0
 10
126.1201225813172
 20
-150.0893744199429
 30
0.0
 10
126.255170324339
 20
-150.0959201013649
 30
0.0
 10
126.5145860143783
 20
-150.1021212732383
 30
0.0
 10
126.6754719735394
 20
-150.1021212732383
 30
0.0
 10
126.6754719735394
 20
-150.1021212732383
 30
0.0
 10
126.8608181106459
 20
-150.1021212732383
 30
0.0
 10
126.8608181106459
 20
-150.1021212732383
 30
0.0
 10
126.8608181106459
 20
-150.0070366378454
 30
0.0
 10
126.8587510533548
 20
-149.9560492246638
 30
0.0
 10
126.8532389005783
 20
-149.9095404356129
 30
0.0
 10
126.8532389005783
 20
-149.9095404356129
 30
0.0
 10
127.0423746427186
 20
-149.9264214034906
 30
0.0
 10
127.0423746427186
 20
-149.9264214034906
 30
0.0
 10
127.0847493171871
 20
-149.9309000276214
 30
0.0
 10
127.0923285272547
 20
-149.945713938208
 30
0.0
 10
127.0923285272547
 20
-149.9605278487946
 30
0.0
 10
127.0923285272547
 20
-149.9856770458369
 30
0.0
 10
127.0775146166681
 20
-149.99428978455
 30
0.0
 10
127.0330728849084
 20
-150.0197834911409
 30
0.0
 10
127.0310058276172
 20
-150.0449326881832
 30
0.0
 10
127.0310058276172
 20
-150.0514783696052
 30
0.0
 10
127.0292832798746
 20
-150.1021212732383
 30
0.0
 10
127.0292832798746
 20
-150.1021212732383
 30
0.0
 10
127.2311658753102
 20
-150.1021212732383
 30
0.0
 10
127.2311658753102
 20
-150.1021212732383
 30
0.0
 10
127.3755153761422
 20
-150.1021212732383
 30
0.0
 10
127.6311414611478
 20
-150.0959201013649
 30
0.0
 10
127.7885823248237
 20
-150.0893744199429
 30
0.0
 10
127.7885823248237
 20
-150.0893744199429
 30
0.0
 10
127.7885823248237
 20
-150.2671413469818
 30
0.0
 10
127.7885823248237
 20
-150.2671413469818
 30
0.0
 10
127.6755831929075
 20
-150.2630072323995
 30
0.0
 10
127.6552571295445
 20
-150.2630072323995
 30
0.0
 10
127.4123778978344
 20
-150.2585286082687
 30
0.0
  0
HATCH
  5
93
330
81
100
AcDbEntity
  8
レイヤー 1
 62
   250
420
  2299925
440
 33554687
100
AcDbHatch
 10
0.0
 20
0.0
 30
0.0
210
0.0
220
0.0
230
1.0
  2
SOLID
 70
     1
 71
     1
 91
        6
 92
        1
 93
        1
 72
     4
 94
        3
 73
     0
 74
     0
 95
       17
 96
       13
 40
0.0
 40
0.0
 40
0.0
 40
0.0
 40
1.0
 40
1.0
 40
1.0
 40
2.0
 40
2.0
 40
2.0
 40
3.0
 40
3.0
 40
3.0
 40
4.0
 40
4.0
 40
4.0
 40
4.0
 10
127.2311658753102
 20
-150.2564615509775
 10
127.2311658753102
 20
-150.2564615509775
 10
127.0533989482714
 20
-150.2564615509775
 10
127.0533989482714
 20
-150.2564615509775
 10
127.0775146166681
 20
-150.3157171933238
 10
127.1254014439131
 20
-150.3877196889655
 10
127.1495171123098
 20
-150.4173475101387
 10
127.1736327807066
 20
-150.4025335995521
 10
127.2735405497788
 20
-150.3391438426235
 10
127.3531222554881
 20
-150.2564615509775
 10
127.3531222554881
 20
-150.2564615509775
 10
127.2311658753102
 20
-150.2564615509775
 10
127.2311658753102
 20
-150.2564615509775
 97
        0
 97
        1
330
8D
 92
        1
 93
        1
 72
     4
 94
        3
 73
     0
 74
     0
 95
       83
 96
       79
 40
0.0
 40
0.0
 40
0.0
 40
0.0
 40
1.0
 40
1.0
 40
1.0
 40
2.0
 40
2.0
 40
2.0
 40
3.0
 40
3.0
 40
3.0
 40
4.0
 40
4.0
 40
4.0
 40
5.0
 40
5.0
 40
5.0
 40
6.0
 40
6.0
 40
6.0
 40
7.0
 40
7.0
 40
7.0
 40
8.0
 40
8.0
 40
8.0
 40
9.0
 40
9.0
 40
9.0
 40
10.0
 40
10.0
 40
10.0
 40
11.0
 40
11.0
 40
11.0
 40
12.0
 40
12.0
 40
12.0
 40
13.0
 40
13.0
 40
13.0
 40
14.0
 40
14.0
 40
14.0
 40
15.0
 40
15.0
 40
15.0
 40
16.0
 40
16.0
 40
16.0
 40
17.0
 40
17.0
 40
17.0
 40
18.0
 40
18.0
 40
18.0
 40
19.0
 40
19.0
 40
19.0
 40
20.0
 40
20.0
 40
20.0
 40
21.0
 40
21.0
 40
21.0
 40
22.0
 40
22.0
 40
22.0
 40
23.0
 40
23.0
 40
23.0
 40
24.0
 40
24.0
 40
24.0
 40
25.0
 40
25.0
 40
25.0
 40
26.0
 40
26.0
 40
26.0
 40
26.0
 10
127.4457953240413
 20
-149.4589219461422
 10
127.4457953240413
 20
-149.4589219461422
 10
127.3607014655556
 20
-149.4589219461422
 10
127.3607014655556
 20
-149.4589219461422
 10
127.3607014655556
 20
-149.4589219461422
 10
127.3607014655556
 20
-149.7066243115317
 10
127.3607014655556
 20
-149.7066243115317
 10
127.3607014655556
 20
-149.7066243115317
 10
127.4330484707459
 20
-149.7066243115317
 10
127.4330484707459
 20
-149.7066243115317
 10
127.490237055801
 20
-149.7066243115317
 10
127.6125379455274
 20
-149.7021456874009
 10
127.6996988613042
 20
-149.6938774582362
 10
127.6996988613042
 20
-149.6938774582362
 10
127.6996988613042
 20
-149.8737114425663
 10
127.6996988613042
 20
-149.8737114425663
 10
127.6180500983038
 20
-149.8650987038531
 10
127.4867919603158
 20
-149.8609645892708
 10
127.4330484707459
 20
-149.8609645892708
 10
127.4330484707459
 20
-149.8609645892708
 10
127.1663980801875
 20
-149.8609645892708
 10
127.1663980801875
 20
-149.8609645892708
 10
127.1198892911367
 20
-149.8609645892708
 10
126.9920762486339
 20
-149.8650987038531
 10
126.8997476896292
 20
-149.8737114425663
 10
126.8997476896292
 20
-149.8737114425663
 10
126.8997476896292
 20
-149.6938774582362
 10
126.8997476896292
 20
-149.6938774582362
 10
126.9865640958575
 20
-149.7021456874009
 10
127.1088649855839
 20
-149.7066243115317
 10
127.1663980801875
 20
-149.7066243115317
 10
127.1663980801875
 20
-149.7066243115317
 10
127.2049831496223
 20
-149.7066243115317
 10
127.2049831496223
 20
-149.7066243115317
 10
127.2049831496223
 20
-149.7066243115317
 10
127.2049831496223
 20
-149.4589219461422
 10
127.2049831496223
 20
-149.4589219461422
 10
127.2049831496223
 20
-149.4589219461422
 10
127.1402153544997
 20
-149.4589219461422
 10
127.1402153544997
 20
-149.4589219461422
 10
127.0864718649298
 20
-149.4589219461422
 10
126.9403998163552
 20
-149.463400570273
 10
126.8349798945065
 20
-149.4716687994376
 10
126.8349798945065
 20
-149.4716687994376
 10
126.8349798945065
 20
-149.2939018723987
 10
126.8349798945065
 20
-149.2939018723987
 10
126.9348876635788
 20
-149.3004475538207
 10
127.0737250116343
 20
-149.304581668403
 10
127.1402153544997
 20
-149.304581668403
 10
127.1402153544997
 20
-149.304581668403
 10
127.2032606018797
 20
-149.304581668403
 10
127.2032606018797
 20
-149.304581668403
 10
127.199470996846
 20
-149.152308447955
 10
127.1977484491033
 20
-149.1185465121995
 10
127.1922362963269
 20
-149.0251844245492
 10
127.1922362963269
 20
-149.0251844245492
 10
127.3772379238848
 20
-149.0486110738489
 10
127.3772379238848
 20
-149.0486110738489
 10
127.399631044539
 20
-149.0506781311401
 10
127.4199571079019
 20
-149.0548122457224
 10
127.4199571079019
 20
-149.0782388950221
 10
127.4199571079019
 20
-149.1099337734864
 10
127.3810275289186
 20
-149.1268147413641
 10
127.3607014655556
 20
-149.1354274800772
 10
127.3607014655556
 20
-149.1354274800772
 10
127.3607014655556
 20
-149.304581668403
 10
127.3607014655556
 20
-149.304581668403
 10
127.3607014655556
 20
-149.304581668403
 10
127.4457953240413
 20
-149.304581668403
 10
127.4457953240413
 20
-149.304581668403
 10
127.5126301764551
 20
-149.304581668403
 10
127.6514675245107
 20
-149.3004475538207
 10
127.7534423508741
 20
-149.2939018723987
 10
127.7534423508741
 20
-149.2939018723987
 10
127.7534423508741
 20
-149.4716687994376
 10
127.7534423508741
 20
-149.4716687994376
 10
127.6587022250297
 20
-149.4654676275642
 10
127.5071180236788
 20
-149.4589219461422
 10
127.4457953240413
 20
-149.4589219461422
 97
        0
 97
        1
330
8E
 92
        1
 93
        1
 72
     4
 94
        3
 73
     0
 74
     0
 95
       38
 96
       34
 40
0.0
 40
0.0
 40
0.0
 40
0.0
 40
1.0
 40
1.0
 40
1.0
 40
2.0
 40
2.0
 40
2.0
 40
3.0
 40
3.0
 40
3.0
 40
4.0
 40
4.0
 40
4.0
 40
5.0
 40
5.0
 40
5.0
 40
6.0
 40
6.0
 40
6.0
 40
7.0
 40
7.0
 40
7.0
 40
8.0
 40
8.0
 40
8.0
 40
9.0
 40
9.0
 40
9.0
 40
10.0
 40
10.0
 40
10.0
 40
11.0
 40
11.0
 40
11.0
 40
11.0
 10
126.7440293736959
 20
-149.1374945373684
 10
126.7423068259533
 20
-149.1840033264193
 10
126.7402397686621
 20
-149.3004475538207
 10
126.7402397686621
 20
-149.3448892855804
 10
126.7402397686621
 20
-149.3448892855804
 10
126.7402397686621
 20
-149.6918104009451
 10
126.7402397686621
 20
-149.6918104009451
 10
126.7402397686621
 20
-149.7786268071734
 10
126.7423068259533
 20
-149.9202202316172
 10
126.7516085837635
 20
-150.0407985736009
 10
126.7516085837635
 20
-150.0407985736009
 10
126.5848659622774
 20
-150.0407985736009
 10
126.5848659622774
 20
-150.0407985736009
 10
126.5886555673112
 20
-149.9774088166723
 10
126.5921006627964
 20
-149.9243543461994
 10
126.5941677200876
 20
-149.869577327984
 10
126.5958902678302
 20
-149.7465874191606
 10
126.5979573251213
 20
-149.731773508574
 10
126.5979573251213
 20
-149.6873317768143
 10
126.5979573251213
 20
-149.6873317768143
 10
126.5979573251213
 20
-149.3659043680404
 10
126.5979573251213
 20
-149.3659043680404
 10
126.5979573251213
 20
-149.3107828402765
 10
126.58658851002
 20
-149.0720377231486
 10
126.5848659622774
 20
-149.0210503099669
 10
126.5848659622774
 20
-149.0210503099669
 10
126.7605658320251
 20
-149.0486110738489
 10
126.7605658320251
 20
-149.0486110738489
 10
126.7791693476455
 20
-149.0506781311401
 10
126.807074621076
 20
-149.0548122457224
 10
126.807074621076
 20
-149.0803059523132
 10
126.807074621076
 20
-149.1078667161952
 10
126.7626328893163
 20
-149.1288817986553
 10
126.7440293736959
 20
-149.1374945373684
 97
        0
 97
        1
330
8F
 92
        1
 93
        1
 72
     4
 94
        3
 73
     0
 74
     0
 95
       17
 96
       13
 40
0.0
 40
0.0
 40
0.0
 40
0.0
 40
1.0
 40
1.0
 40
1.0
 40
2.0
 40
2.0
 40
2.0
 40
3.0
 40
3.0
 40
3.0
 40
4.0
 40
4.0
 40
4.0
 40
4.0
 10
126.421912945825
 20
-149.4420409782645
 10
126.3960747296857
 20
-149.4020778706356
 10
126.3368190873394
 20
-149.304581668403
 10
126.1773111663723
 20
-149.1946831224235
 10
126.1773111663723
 20
-149.1946831224235
 10
126.2885877505459
 20
-149.0613579271444
 10
126.2885877505459
 20
-149.0613579271444
 10
126.4515407669982
 20
-149.1629882439592
 10
126.5014946515343
 20
-149.2518717074787
 10
126.5256103199311
 20
-149.2939018723987
 10
126.5256103199311
 20
-149.2939018723987
 10
126.421912945825
 20
-149.4420409782645
 10
126.421912945825
 20
-149.4420409782645
 97
        0
 97
        1
330
90
 92
        1
 93
        1
 72
     4
 94
        3
 73
     0
 74
     0
 95
       23
 96
       19
 40
0.0
 40
0.0
 40
0.0
 40
0.0
 40
1.0
 40
1.0
 40
1.0
 40
2.0
 40
2.0
 40
2.0
 40
3.0
 40
3.0
 40
3.0
 40
4.0
 40
4.0
 40
4.0
 40
5.0
 40
5.0
 40
5.0
 40
6.0
 40
6.0
 40
6.0
 40
6.0
 10
126.2885877505459
 20
-149.9074733783217
 10
126.2737738399593
 20
-149.9477809954991
 10
126.2682616871829
 20
-149.9646619633769
 10
126.2496581715626
 20
-149.9646619633769
 10
126.2365668087186
 20
-149.9646619633769
 10
126.2272650509084
 20
-149.9477809954991
 10
126.221752898132
 20
-149.9350341422037
 10
126.221752898132
 20
-149.9350341422037
 10
126.1349364919037
 20
-149.7700140684603
 10
126.1349364919037
 20
-149.7700140684603
 10
126.2238199554232
 20
-149.738319189996
 10
126.3550780934112
 20
-149.6831976622319
 10
126.5293999249649
 20
-149.5202446457796
 10
126.5293999249649
 20
-149.5202446457796
 10
126.579353809501
 20
-149.6938774582362
 10
126.579353809501
 20
-149.6938774582362
 10
126.4977050465006
 20
-149.7762152403337
 10
126.4201903980824
 20
-149.8334038253888
 10
126.2885877505459
 20
-149.9074733783217
 97
        0
 97
        1
330
91
 92
        1
 93
        1
 72
     4
 94
        3
 73
     0
 74
     0
 95
      113
 96
      109
 40
0.0
 40
0.0
 40
0.0
 40
0.0
 40
1.0
 40
1.0
 40
1.0
 40
2.0
 40
2.0
 40
2.0
 40
3.0
 40
3.0
 40
3.0
 40
4.0
 40
4.0
 40
4.0
 40
5.0
 40
5.0
 40
5.0
 40
6.0
 40
6.0
 40
6.0
 40
7.0
 40
7.0
 40
7.0
 40
8.0
 40
8.0
 40
8.0
 40
9.0
 40
9.0
 40
9.0
 40
10.0
 40
10.0
 40
10.0
 40
11.0
 40
11.0
 40
11.0
 40
12.0
 40
12.0
 40
12.0
 40
13.0
 40
13.0
 40
13.0
 40
14.0
 40
14.0
 40
14.0
 40
15.0
 40
15.0
 40
15.0
 40
16.0
 40
16.0
 40
16.0
 40
17.0
 40
17.0
 40
17.0
 40
18.0
 40
18.0
 40
18.0
 40
19.0
 40
19.0
 40
19.0
 40
20.0
 40
20.0
 40
20.0
 40
21.0
 40
21.0
 40
21.0
 40
22.0
 40
22.0
 40
22.0
 40
23.0
 40
23.0
 40
23.0
 40
24.0
 40
24.0
 40
24.0
 40
25.0
 40
25.0
 40
25.0
 40
26.0
 40
26.0
 40
26.0
 40
27.0
 40
27.0
 40
27.0
 40
28.0
 40
28.0
 40
28.0
 40
29.0
 40
29.0
 40
29.0
 40
30.0
 40
30.0
 40
30.0
 40
31.0
 40
31.0
 40
31.0
 40
32.0
 40
32.0
 40
32.0
 40
33.0
 40
33.0
 40
33.0
 40
34.0
 40
34.0
 40
34.0
 40
35.0
 40
35.0
 40
35.0
 40
36.0
 40
36.0
 40
36.0
 40
36.0
 10
127.4123778978344
 20
-150.2585286082687
 10
127.4123778978344
 20
-150.2585286082687
 10
127.4995388136112
 20
-150.3580918677924
 10
127.4995388136112
 20
-150.3580918677924
 10
127.5088405714214
 20
-150.3687716637967
 10
127.5181423292315
 20
-150.3815185170921
 10
127.5181423292315
 20
-150.3963324276787
 10
127.5181423292315
 20
-150.3983994849698
 10
127.5181423292315
 20
-150.428027306143
 10
127.4847249030246
 20
-150.428027306143
 10
127.4774902025056
 20
-150.428027306143
 10
127.4420057190075
 20
-150.4235486820121
 10
127.4364935662311
 20
-150.4235486820121
 10
127.4013535922816
 20
-150.455588070025
 10
127.3607014655556
 20
-150.4893500057804
 10
127.2735405497788
 20
-150.5465385908355
 10
127.4013535922816
 20
-150.6543700795239
 10
127.5401909403372
 20
-150.711558664579
 10
127.7792805670135
 20
-150.7494547149168
 10
127.7792805670135
 20
-150.7494547149168
 10
127.6476779194769
 20
-150.9251545846645
 10
127.6476779194769
 20
-150.9251545846645
 10
127.4182345601593
 20
-150.8531520890228
 10
127.2811197598464
 20
-150.7642686255034
 10
127.2142849074325
 20
-150.711558664579
 10
127.0830267694445
 20
-150.6099283477642
 10
126.9569362746844
 20
-150.4469753313119
 10
126.890445931819
 20
-150.2819552575684
 10
126.8311902894727
 20
-150.3474120717881
 10
126.76642249435
 20
-150.400466542261
 10
126.6978650941936
 20
-150.449042388603
 10
126.6978650941936
 20
-150.449042388603
 10
126.6978650941936
 20
-150.7008788685748
 10
126.6978650941936
 20
-150.7008788685748
 10
126.8404920472829
 20
-150.6753851619839
 10
127.0034450637352
 20
-150.6309434302242
 10
127.0589111010478
 20
-150.6161295196376
 10
127.0589111010478
 20
-150.6161295196376
 10
127.0330728849084
 20
-150.7852837079634
 10
127.0330728849084
 20
-150.7852837079634
 10
127.0310058276172
 20
-150.7852837079634
 10
127.014469369288
 20
-150.7918293893854
 10
127.0127468215454
 20
-150.7918293893854
 10
126.8384249899918
 20
-150.8297254397231
 10
126.5607502938806
 20
-150.8955267634914
 10
126.3884955196181
 20
-150.931355756538
 10
126.379193761808
 20
-150.9482367244157
 10
126.358867698445
 20
-150.97993160288
 10
126.338541635082
 20
-150.97993160288
 10
126.3144259666853
 20
-150.97993160288
 10
126.3106363616515
 20
-150.9609835777111
 10
126.3089138139089
 20
-150.9420355525423
 10
126.3089138139089
 20
-150.9420355525423
 10
126.2865206932547
 20
-150.7684027400857
 10
126.2865206932547
 20
-150.7684027400857
 10
126.351632997926
 20
-150.7601345109211
 10
126.4460286142218
 20
-150.7473876576256
 10
126.5404242305177
 20
-150.7263725751656
 10
126.5404242305177
 20
-150.7263725751656
 10
126.5404242305177
 20
-150.5486056481267
 10
126.5404242305177
 20
-150.5486056481267
 10
126.4143337357575
 20
-150.6206081437684
 10
126.331306934563
 20
-150.6498914553931
 10
126.1866129241825
 20
-150.6795192765662
 10
126.1866129241825
 20
-150.6795192765662
 10
126.0811930023338
 20
-150.5103650882404
 10
126.0811930023338
 20
-150.5103650882404
 10
126.358867698445
 20
-150.4828043243584
 10
126.5273328676737
 20
-150.3897867462567
 10
126.683051183607
 20
-150.2564615509775
 10
126.5552381411042
 20
-150.2564615509775
 10
126.2923773555797
 20
-150.2609401751084
 10
126.1201225813172
 20
-150.2671413469818
 10
126.1201225813172
 20
-150.2671413469818
 10
126.1201225813172
 20
-150.0893744199429
 10
126.1201225813172
 20
-150.0893744199429
 10
126.255170324339
 20
-150.0959201013649
 10
126.5145860143783
 20
-150.1021212732383
 10
126.6754719735394
 20
-150.1021212732383
 10
126.6754719735394
 20
-150.1021212732383
 10
126.8608181106459
 20
-150.1021212732383
 10
126.8608181106459
 20
-150.1021212732383
 10
126.8608181106459
 20
-150.0070366378454
 10
126.8587510533548
 20
-149.9560492246638
 10
126.8532389005783
 20
-149.9095404356129
 10
126.8532389005783
 20
-149.9095404356129
 10
127.0423746427186
 20
-149.9264214034906
 10
127.0423746427186
 20
-149.9264214034906
 10
127.0847493171871
 20
-149.9309000276214
 10
127.0923285272547
 20
-149.945713938208
 10
127.0923285272547
 20
-149.9605278487946
 10
127.0923285272547
 20
-149.9856770458369
 10
127.0775146166681
 20
-149.99428978455
 10
127.0330728849084
 20
-150.0197834911409
 10
127.0310058276172
 20
-150.0449326881832
 10
127.0310058276172
 20
-150.0514783696052
 10
127.0292832798746
 20
-150.1021212732383
 10
127.0292832798746
 20
-150.1021212732383
 10
127.2311658753102
 20
-150.1021212732383
 10
127.2311658753102
 20
-150.1021212732383
 10
127.3755153761422
 20
-150.1021212732383
 10
127.6311414611478
 20
-150.0959201013649
 10
127.7885823248237
 20
-150.0893744199429
 10
127.7885823248237
 20
-150.0893744199429
 10
127.7885823248237
 20
-150.2671413469818
 10
127.7885823248237
 20
-150.2671413469818
 10
127.6755831929075
 20
-150.2630072323995
 10
127.6552571295445
 20
-150.2630072323995
 10
127.4123778978344
 20
-150.2585286082687
 97
        0
 97
        1
330
92
 75
     2
 76
     1
 98
        1
 10
0.0
 20
0.0
450
        0
451
        0
460
0.0
461
0.0
452
        0
462
0.0
453
        0
470

  0
SPLINE
  5
94
330
81
100
AcDbEntity
  8
レイヤー 1
100
AcDbSpline
210
0.0
220
0.0
230
1.0
 70
    11
 71
     3
 72
    17
 73
    13
 74
     0
 42
0.0000000001
 43
0.0000000001
 40
0.0
 40
0.0
 40
0.0
 40
0.0
 40
1.0
 40
1.0
 40
1.0
 40
2.0
 40
2.0
 40
2.0
 40
3.0
 40
3.0
 40
3.0
 40
4.0
 40
4.0
 40
4.0
 40
4.0
 10
129.2940890518778
 20
-149.7720811257514
 30
0.0
 10
129.2940890518778
 20
-149.7720811257514
 30
0.0
 10
128.8923909182977
 20
-149.7720811257514
 30
0.0
 10
128.8923909182977
 20
-149.7720811257514
 30
0.0
 10
128.8923909182977
 20
-149.7720811257514
 30
0.0
 10
128.8923909182977
 20
-150.0811061907783
 30
0.0
 10
128.8923909182977
 20
-150.0811061907783
 30
0.0
 10
128.8923909182977
 20
-150.0811061907783
 30
0.0
 10
129.2940890518778
 20
-150.0811061907783
 30
0.0
 10
129.2940890518778
 20
-150.0811061907783
 30
0.0
 10
129.2940890518778
 20
-150.0811061907783
 30
0.0
 10
129.2940890518778
 20
-149.7720811257514
 30
0.0
 10
129.2940890518778
 20
-149.7720811257514
 30
0.0
  0
SPLINE
  5
95
330
81
100
AcDbEntity
  8
レイヤー 1
100
AcDbSpline
210
0.0
220
0.0
230
1.0
 70
    11
 71
     3
 72
    17
 73
    13
 74
     0
 42
0.0000000001
 43
0.0000000001
 40
0.0
 40
0.0
 40
0.0
 40
0.0
 40
1.0
 40
1.0
 40
1.0
 40
2.0
 40
2.0
 40
2.0
 40
3.0
 40
3.0
 40
3.0
 40
4.0
 40
4.0
 40
4.0
 40
4.0
 10
129.2940890518778
 20
-149.3004475538207
 30
0.0
 10
129.2940890518778
 20
-149.3004475538207
 30
0.0
 10
128.8923909182977
 20
-149.3004475538207
 30
0.0
 10
128.8923909182977
 20
-149.3004475538207
 30
0.0
 10
128.8923909182977
 20
-149.3004475538207
 30
0.0
 10
128.8923909182977
 20
-149.6049939947168
 30
0.0
 10
128.8923909182977
 20
-149.6049939947168
 30
0.0
 10
128.8923909182977
 20
-149.6049939947168
 30
0.0
 10
129.2940890518778
 20
-149.6049939947168
 30
0.0
 10
129.2940890518778
 20
-149.6049939947168
 30
0.0
 10
129.2940890518778
 20
-149.6049939947168
 30
0.0
 10
129.2940890518778
 20
-149.3004475538207
 30
0.0
 10
129.2940890518778
 20
-149.3004475538207
 30
0.0
  0
SPLINE
  5
96
330
81
100
AcDbEntity
  8
レイヤー 1
100
AcDbSpline
210
0.0
220
0.0
230
1.0
 70
    11
 71
     3
 72
    17
 73
    13
 74
     0
 42
0.0000000001
 43
0.0000000001
 40
0.0
 40
0.0
 40
0.0
 40
0.0
 40
1.0
 40
1.0
 40
1.0
 40
2.0
 40
2.0
 40
2.0
 40
3.0
 40
3.0
 40
3.0
 40
4.0
 40
4.0
 40
4.0
 40
4.0
 10
128.7256482968116
 20
-149.7720811257514
 30
0.0
 10
128.7256482968116
 20
-149.7720811257514
 30
0.0
 10
128.3422091693033
 20
-149.7720811257514
 30
0.0
 10
128.3422091693033
 20
-149.7720811257514
 30
0.0
 10
128.3422091693033
 20
-149.7720811257514
 30
0.0
 10
128.3422091693033
 20
-150.0811061907783
 30
0.0
 10
128.3422091693033
 20
-150.0811061907783
 30
0.0
 10
128.3422091693033
 20
-150.0811061907783
 30
0.0
 10
128.7256482968116
 20
-150.0811061907783
 30
0.0
 10
128.7256482968116
 20
-150.0811061907783
 30
0.0
 10
128.7256482968116
 20
-150.0811061907783
 30
0.0
 10
128.7256482968116
 20
-149.7720811257514
 30
0.0
 10
128.7256482968116
 20
-149.7720811257514
 30
0.0
  0
SPLINE
  5
97
330
81
100
AcDbEntity
  8
レイヤー 1
100
AcDbSpline
210
0.0
220
0.0
230
1.0
 70
    11
 71
     3
 72
    17
 73
    13
 74
     0
 42
0.0000000001
 43
0.0000000001
 40
0.0
 40
0.0
 40
0.0
 40
0.0
 40
1.0
 40
1.0
 40
1.0
 40
2.0
 40
2.0
 40
2.0
 40
3.0
 40
3.0
 40
3.0
 40
4.0
 40
4.0
 40
4.0
 40
4.0
 10
128.7256482968116
 20
-149.3004475538207
 30
0.0
 10
128.7256482968116
 20
-149.3004475538207
 30
0.0
 10
128.3422091693033
 20
-149.3004475538207
 30
0.0
 10
128.3422091693033
 20
-149.3004475538207
 30
0.0
 10
128.3422091693033
 20
-149.3004475538207
 30
0.0
 10
128.3422091693033
 20
-149.6049939947168
 30
0.0
 10
128.3422091693033
 20
-149.6049939947168
 30
0.0
 10
128.3422091693033
 20
-149.6049939947168
 30
0.0
 10
128.7256482968116
 20
-149.6049939947168
 30
0.0
 10
128.7256482968116
 20
-149.6049939947168
 30
0.0
 10
128.7256482968116
 20
-149.6049939947168
 30
0.0
 10
128.7256482968116
 20
-149.3004475538207
 30
0.0
 10
128.7256482968116
 20
-149.3004475538207
 30
0.0
  0
SPLINE
  5
98
330
81
100
AcDbEntity
  8
レイヤー 1
100
AcDbSpline
210
0.0
220
0.0
230
1.0
 70
     9
 71
     3
 72
    77
 73
    73
 74
     0
 42
0.0000000001
 43
0.0000000001
 40
0.0
 40
0.0
 40
0.0
 40
0.0
 40
1.0
 40
1.0
 40
1.0
 40
2.0
 40
2.0
 40
2.0
 40
3.0
 40
3.0
 40
3.0
 40
4.0
 40
4.0
 40
4.0
 40
5.0
 40
5.0
 40
5.0
 40
6.0
 40
6.0
 40
6.0
 40
7.0
 40
7.0
 40
7.0
 40
8.0
 40
8.0
 40
8.0
 40
9.0
 40
9.0
 40
9.0
 40
10.0
 40
10.0
 40
10.0
 40
11.0
 40
11.0
 40
11.0
 40
12.0
 40
12.0
 40
12.0
 40
13.0
 40
13.0
 40
13.0
 40
14.0
 40
14.0
 40
14.0
 40
15.0
 40
15.0
 40
15.0
 40
16.0
 40
16.0
 40
16.0
 40
17.0
 40
17.0
 40
17.0
 40
18.0
 40
18.0
 40
18.0
 40
19.0
 40
19.0
 40
19.0
 40
20.0
 40
20.0
 40
20.0
 40
21.0
 40
21.0
 40
21.0
 40
22.0
 40
22.0
 40
22.0
 40
23.0
 40
23.0
 40
23.0
 40
24.0
 40
24.0
 40
24.0
 40
24.0
 10
129.4126003365704
 20
-150.8869140247783
 30
0.0
 10
129.3719482098445
 20
-150.9124077313691
 30
0.0
 10
129.2627386829621
 20
-150.9251545846645
 30
0.0
 10
129.1941812828056
 20
-150.9251545846645
 30
0.0
 10
129.1831569772528
 20
-150.9251545846645
 30
0.0
 10
129.1607638565987
 20
-150.9251545846645
 30
0.0
 10
129.1311360354255
 20
-150.9206759605337
 30
0.0
 10
129.1311360354255
 20
-150.9206759605337
 30
0.0
 10
129.0460421769399
 20
-150.6943331871528
 30
0.0
 10
129.0460421769399
 20
-150.6943331871528
 30
0.0
 10
129.0718803930792
 20
-150.7008788685748
 30
0.0
 10
129.1218342776154
 20
-150.7091470977394
 30
0.0
 10
129.2238091039787
 20
-150.7091470977394
 30
0.0
 10
129.2923665041352
 20
-150.7091470977394
 30
0.0
 10
129.2940890518778
 20
-150.6671169328193
 30
0.0
 10
129.2940890518778
 20
-150.6099283477642
 30
0.0
 10
129.2940890518778
 20
-150.6099283477642
 30
0.0
 10
129.2940890518778
 20
-150.2609401751084
 30
0.0
 10
129.2940890518778
 20
-150.2609401751084
 30
0.0
 10
129.2940890518778
 20
-150.2609401751084
 30
0.0
 10
128.8923909182977
 20
-150.2609401751084
 30
0.0
 10
128.8923909182977
 20
-150.2609401751084
 30
0.0
 10
128.8941134660404
 20
-150.3983994849698
 30
0.0
 10
128.895836013783
 20
-150.5971814944687
 30
0.0
 10
128.9013481665594
 20
-150.7305066897479
 30
0.0
 10
128.9034152238505
 20
-150.7580674536299
 30
0.0
 10
128.9034152238505
 20
-150.8025091853896
 30
0.0
 10
128.9144395294033
 20
-150.8638318850271
 30
0.0
 10
128.9144395294033
 20
-150.8638318850271
 30
0.0
 10
128.7032551761575
 20
-150.8638318850271
 30
0.0
 10
128.7032551761575
 20
-150.8638318850271
 30
0.0
 10
128.7256482968116
 20
-150.7387749189125
 30
0.0
 10
128.7256482968116
 20
-150.3983994849698
 30
0.0
 10
128.7256482968116
 20
-150.2609401751084
 30
0.0
 10
128.7256482968116
 20
-150.2609401751084
 30
0.0
 10
128.3384195642695
 20
-150.2609401751084
 30
0.0
 10
128.3384195642695
 20
-150.2609401751084
 30
0.0
 10
128.3180935009066
 20
-150.4679904137719
 30
0.0
 10
128.2609049158514
 20
-150.7367078616214
 30
0.0
 10
128.0886501415889
 20
-150.9206759605337
 30
0.0
 10
128.0886501415889
 20
-150.9206759605337
 30
0.0
 10
127.9236300678455
 20
-150.7980305612588
 30
0.0
 10
127.9236300678455
 20
-150.7980305612588
 30
0.0
 10
128.1461832361926
 20
-150.5782334692999
 30
0.0
 10
128.1737440000746
 20
-150.2461262645218
 30
0.0
 10
128.1737440000746
 20
-149.9140190597437
 30
0.0
 10
128.1737440000746
 20
-149.9140190597437
 30
0.0
 10
128.1737440000746
 20
-149.4782144808596
 30
0.0
 10
128.1737440000746
 20
-149.4782144808596
 30
0.0
 10
128.1737440000746
 20
-149.4420409782645
 30
0.0
 10
128.172021452332
 20
-149.2094970330101
 30
0.0
 10
128.1644422422644
 20
-149.1078667161952
 30
0.0
 10
128.2867431319908
 20
-149.1185465121995
 30
0.0
 10
128.4979274852366
 20
-149.1185465121995
 30
0.0
 10
128.6236734704482
 20
-149.1185465121995
 30
0.0
 10
128.6236734704482
 20
-149.1185465121995
 30
0.0
 10
129.0257161135769
 20
-149.1185465121995
 30
0.0
 10
129.0257161135769
 20
-149.1185465121995
 30
0.0
 10
129.0384629668723
 20
-149.1185465121995
 30
0.0
 10
129.344042936414
 20
-149.1185465121995
 30
0.0
 10
129.4828802844695
 20
-149.1078667161952
 30
0.0
 10
129.4811577367269
 20
-149.1605766771196
 30
0.0
 10
129.4756455839505
 20
-149.3214626362807
 30
0.0
 10
129.4756455839505
 20
-149.3724500494624
 30
0.0
 10
129.4756455839505
 20
-149.3724500494624
 30
0.0
 10
129.4756455839505
 20
-149.9794758739635
 30
0.0
 10
129.4756455839505
 20
-149.9794758739635
 30
0.0
 10
129.4756455839505
 20
-149.9984238991323
 30
0.0
 10
129.4849473417607
 20
-150.5696207305867
 30
0.0
 10
129.4849473417607
 20
-150.6819308434059
 30
0.0
 10
129.4849473417607
 20
-150.7387749189125
 30
0.0
 10
129.4849473417607
 20
-150.8404052357274
 30
0.0
 10
129.4126003365704
 20
-150.8869140247783
 30
0.0
  0
HATCH
  5
99
330
81
100
AcDbEntity
  8
レイヤー 1
 62
   250
420
  2299925
440
 33554687
100
AcDbHatch
 10
0.0
 20
0.0
 30
0.0
210
0.0
220
0.0
230
1.0
  2
SOLID
 70
     1
 71
     1
 91
        5
 92
        1
 93
        1
 72
     4
 94
        3
 73
     0
 74
     0
 95
       17
 96
       13
 40
0.0
 40
0.0
 40
0.0
 40
0.0
 40
1.0
 40
1.0
 40
1.0
 40
2.0
 40
2.0
 40
2.0
 40
3.0
 40
3.0
 40
3.0
 40
4.0
 40
4.0
 40
4.0
 40
4.0
 10
129.2940890518778
 20
-149.7720811257514
 10
129.2940890518778
 20
-149.7720811257514
 10
128.8923909182977
 20
-149.7720811257514
 10
128.8923909182977
 20
-149.7720811257514
 10
128.8923909182977
 20
-149.7720811257514
 10
128.8923909182977
 20
-150.0811061907783
 10
128.8923909182977
 20
-150.0811061907783
 10
128.8923909182977
 20
-150.0811061907783
 10
129.2940890518778
 20
-150.0811061907783
 10
129.2940890518778
 20
-150.0811061907783
 10
129.2940890518778
 20
-150.0811061907783
 10
129.2940890518778
 20
-149.7720811257514
 10
129.2940890518778
 20
-149.7720811257514
 97
        0
 97
        1
330
94
 92
        1
 93
        1
 72
     4
 94
        3
 73
     0
 74
     0
 95
       17
 96
       13
 40
0.0
 40
0.0
 40
0.0
 40
0.0
 40
1.0
 40
1.0
 40
1.0
 40
2.0
 40
2.0
 40
2.0
 40
3.0
 40
3.0
 40
3.0
 40
4.0
 40
4.0
 40
4.0
 40
4.0
 10
129.2940890518778
 20
-149.3004475538207
 10
129.2940890518778
 20
-149.3004475538207
 10
128.8923909182977
 20
-149.3004475538207
 10
128.8923909182977
 20
-149.3004475538207
 10
128.8923909182977
 20
-149.3004475538207
 10
128.8923909182977
 20
-149.6049939947168
 10
128.8923909182977
 20
-149.6049939947168
 10
128.8923909182977
 20
-149.6049939947168
 10
129.2940890518778
 20
-149.6049939947168
 10
129.2940890518778
 20
-149.6049939947168
 10
129.2940890518778
 20
-149.6049939947168
 10
129.2940890518778
 20
-149.3004475538207
 10
129.2940890518778
 20
-149.3004475538207
 97
        0
 97
        1
330
95
 92
        1
 93
        1
 72
     4
 94
        3
 73
     0
 74
     0
 95
       17
 96
       13
 40
0.0
 40
0.0
 40
0.0
 40
0.0
 40
1.0
 40
1.0
 40
1.0
 40
2.0
 40
2.0
 40
2.0
 40
3.0
 40
3.0
 40
3.0
 40
4.0
 40
4.0
 40
4.0
 40
4.0
 10
128.7256482968116
 20
-149.7720811257514
 10
128.7256482968116
 20
-149.7720811257514
 10
128.3422091693033
 20
-149.7720811257514
 10
128.3422091693033
 20
-149.7720811257514
 10
128.3422091693033
 20
-149.7720811257514
 10
128.3422091693033
 20
-150.0811061907783
 10
128.3422091693033
 20
-150.0811061907783
 10
128.3422091693033
 20
-150.0811061907783
 10
128.7256482968116
 20
-150.0811061907783
 10
128.7256482968116
 20
-150.0811061907783
 10
128.7256482968116
 20
-150.0811061907783
 10
128.7256482968116
 20
-149.7720811257514
 10
128.7256482968116
 20
-149.7720811257514
 97
        0
 97
        1
330
96
 92
        1
 93
        1
 72
     4
 94
        3
 73
     0
 74
     0
 95
       17
 96
       13
 40
0.0
 40
0.0
 40
0.0
 40
0.0
 40
1.0
 40
1.0
 40
1.0
 40
2.0
 40
2.0
 40
2.0
 40
3.0
 40
3.0
 40
3.0
 40
4.0
 40
4.0
 40
4.0
 40
4.0
 10
128.7256482968116
 20
-149.3004475538207
 10
128.7256482968116
 20
-149.3004475538207
 10
128.3422091693033
 20
-149.3004475538207
 10
128.3422091693033
 20
-149.3004475538207
 10
128.3422091693033
 20
-149.3004475538207
 10
128.3422091693033
 20
-149.6049939947168
 10
128.3422091693033
 20
-149.6049939947168
 10
128.3422091693033
 20
-149.6049939947168
 10
128.7256482968116
 20
-149.6049939947168
 10
128.7256482968116
 20
-149.6049939947168
 10
128.7256482968116
 20
-149.6049939947168
 10
128.7256482968116
 20
-149.3004475538207
 10
128.7256482968116
 20
-149.3004475538207
 97
        0
 97
        1
330
97
 92
        1
 93
        1
 72
     4
 94
        3
 73
     0
 74
     0
 95
       77
 96
       73
 40
0.0
 40
0.0
 40
0.0
 40
0.0
 40
1.0
 40
1.0
 40
1.0
 40
2.0
 40
2.0
 40
2.0
 40
3.0
 40
3.0
 40
3.0
 40
4.0
 40
4.0
 40
4.0
 40
5.0
 40
5.0
 40
5.0
 40
6.0
 40
6.0
 40
6.0
 40
7.0
 40
7.0
 40
7.0
 40
8.0
 40
8.0
 40
8.0
 40
9.0
 40
9.0
 40
9.0
 40
10.0
 40
10.0
 40
10.0
 40
11.0
 40
11.0
 40
11.0
 40
12.0
 40
12.0
 40
12.0
 40
13.0
 40
13.0
 40
13.0
 40
14.0
 40
14.0
 40
14.0
 40
15.0
 40
15.0
 40
15.0
 40
16.0
 40
16.0
 40
16.0
 40
17.0
 40
17.0
 40
17.0
 40
18.0
 40
18.0
 40
18.0
 40
19.0
 40
19.0
 40
19.0
 40
20.0
 40
20.0
 40
20.0
 40
21.0
 40
21.0
 40
21.0
 40
22.0
 40
22.0
 40
22.0
 40
23.0
 40
23.0
 40
23.0
 40
24.0
 40
24.0
 40
24.0
 40
24.0
 10
129.4126003365704
 20
-150.8869140247783
 10
129.3719482098445
 20
-150.9124077313691
 10
129.2627386829621
 20
-150.9251545846645
 10
129.1941812828056
 20
-150.9251545846645
 10
129.1831569772528
 20
-150.9251545846645
 10
129.1607638565987
 20
-150.9251545846645
 10
129.1311360354255
 20
-150.9206759605337
 10
129.1311360354255
 20
-150.9206759605337
 10
129.0460421769399
 20
-150.6943331871528
 10
129.0460421769399
 20
-150.6943331871528
 10
129.0718803930792
 20
-150.7008788685748
 10
129.1218342776154
 20
-150.7091470977394
 10
129.2238091039787
 20
-150.7091470977394
 10
129.2923665041352
 20
-150.7091470977394
 10
129.2940890518778
 20
-150.6671169328193
 10
129.2940890518778
 20
-150.6099283477642
 10
129.2940890518778
 20
-150.6099283477642
 10
129.2940890518778
 20
-150.2609401751084
 10
129.2940890518778
 20
-150.2609401751084
 10
129.2940890518778
 20
-150.2609401751084
 10
128.8923909182977
 20
-150.2609401751084
 10
128.8923909182977
 20
-150.2609401751084
 10
128.8941134660404
 20
-150.3983994849698
 10
128.895836013783
 20
-150.5971814944687
 10
128.9013481665594
 20
-150.7305066897479
 10
128.9034152238505
 20
-150.7580674536299
 10
128.9034152238505
 20
-150.8025091853896
 10
128.9144395294033
 20
-150.8638318850271
 10
128.9144395294033
 20
-150.8638318850271
 10
128.7032551761575
 20
-150.8638318850271
 10
128.7032551761575
 20
-150.8638318850271
 10
128.7256482968116
 20
-150.7387749189125
 10
128.7256482968116
 20
-150.3983994849698
 10
128.7256482968116
 20
-150.2609401751084
 10
128.7256482968116
 20
-150.2609401751084
 10
128.3384195642695
 20
-150.2609401751084
 10
128.3384195642695
 20
-150.2609401751084
 10
128.3180935009066
 20
-150.4679904137719
 10
128.2609049158514
 20
-150.7367078616214
 10
128.0886501415889
 20
-150.9206759605337
 10
128.0886501415889
 20
-150.9206759605337
 10
127.9236300678455
 20
-150.7980305612588
 10
127.9236300678455
 20
-150.7980305612588
 10
128.1461832361926
 20
-150.5782334692999
 10
128.1737440000746
 20
-150.2461262645218
 10
128.1737440000746
 20
-149.9140190597437
 10
128.1737440000746
 20
-149.9140190597437
 10
128.1737440000746
 20
-149.4782144808596
 10
128.1737440000746
 20
-149.4782144808596
 10
128.1737440000746
 20
-149.4420409782645
 10
128.172021452332
 20
-149.2094970330101
 10
128.1644422422644
 20
-149.1078667161952
 10
128.2867431319908
 20
-149.1185465121995
 10
128.4979274852366
 20
-149.1185465121995
 10
128.6236734704482
 20
-149.1185465121995
 10
128.6236734704482
 20
-149.1185465121995
 10
129.0257161135769
 20
-149.1185465121995
 10
129.0257161135769
 20
-149.1185465121995
 10
129.0384629668723
 20
-149.1185465121995
 10
129.344042936414
 20
-149.1185465121995
 10
129.4828802844695
 20
-149.1078667161952
 10
129.4811577367269
 20
-149.1605766771196
 10
129.4756455839505
 20
-149.3214626362807
 10
129.4756455839505
 20
-149.3724500494624
 10
129.4756455839505
 20
-149.3724500494624
 10
129.4756455839505
 20
-149.9794758739635
 10
129.4756455839505
 20
-149.9794758739635
 10
129.4756455839505
 20
-149.9984238991323
 10
129.4849473417607
 20
-150.5696207305867
 10
129.4849473417607
 20
-150.6819308434059
 10
129.4849473417607
 20
-150.7387749189125
 10
129.4849473417607
 20
-150.8404052357274
 10
129.4126003365704
 20
-150.8869140247783
 97
        0
 97
        1
330
98
 75
     2
 76
     1
 98
        1
 10
0.0
 20
0.0
450
        0
451
        0
460
0.0
461
0.0
452
        0
462
0.0
453
        0
470

  0
SPLINE
  5
9A
330
81
100
AcDbEntity
  8
レイヤー 1
100
AcDbSpline
210
0.0
220
0.0
230
1.0
 70
     9
 71
     3
 72
    17
 73
    13
 74
     0
 42
0.0000000001
 43
0.0000000001
 40
0.0
 40
0.0
 40
0.0
 40
0.0
 40
1.0
 40
1.0
 40
1.0
 40
2.0
 40
2.0
 40
2.0
 40
3.0
 40
3.0
 40
3.0
 40
4.0
 40
4.0
 40
4.0
 40
4.0
 10
125.6953423079859
 20
-151.6479356174699
 30
0.0
 10
125.6471109711924
 20
-151.6479356174699
 30
0.0
 10
125.6081813922091
 20
-151.6923773492297
 30
0.0
 10
125.6081813922091
 20
-151.7474988769937
 30
0.0
 10
125.6081813922091
 20
-151.8043429525003
 30
0.0
 10
125.6471109711924
 20
-151.8532633083908
 30
0.0
 10
125.6991319130196
 20
-151.8532633083908
 30
0.0
 10
125.7508083452984
 20
-151.8532633083908
 30
0.0
 10
125.7859483192479
 20
-151.8022758952091
 30
0.0
 10
125.7859483192479
 20
-151.7495659342848
 30
0.0
 10
125.7859483192479
 20
-151.6923773492297
 30
0.0
 10
125.745296192522
 20
-151.6479356174699
 30
0.0
 10
125.6953423079859
 20
-151.6479356174699
 30
0.0
  0
SPLINE
  5
9B
330
81
100
AcDbEntity
  8
レイヤー 1
100
AcDbSpline
210
0.0
220
0.0
230
1.0
 70
     9
 71
     3
 72
    17
 73
    13
 74
     0
 42
0.0000000001
 43
0.0000000001
 40
0.0
 40
0.0
 40
0.0
 40
0.0
 40
1.0
 40
1.0
 40
1.0
 40
2.0
 40
2.0
 40
2.0
 40
3.0
 40
3.0
 40
3.0
 40
4.0
 40
4.0
 40
4.0
 40
4.0
 10
125.6970648557285
 20
-151.9779757649569
 30
0.0
 10
125.5861327811034
 20
-151.9779757649569
 30
0.0
 10
125.497249317584
 20
-151.876345448142
 30
0.0
 10
125.497249317584
 20
-151.7495659342848
 30
0.0
 10
125.497249317584
 20
-151.6224419108791
 30
0.0
 10
125.5861327811034
 20
-151.5187445367731
 30
0.0
 10
125.6970648557285
 20
-151.5187445367731
 30
0.0
 10
125.8083414399021
 20
-151.5187445367731
 30
0.0
 10
125.8989474511641
 20
-151.6224419108791
 30
0.0
 10
125.8989474511641
 20
-151.7495659342848
 30
0.0
 10
125.8989474511641
 20
-151.876345448142
 30
0.0
 10
125.8083414399021
 20
-151.9779757649569
 30
0.0
 10
125.6970648557285
 20
-151.9779757649569
 30
0.0
  0
SPLINE
  5
9C
330
81
100
AcDbEntity
  8
レイヤー 1
100
AcDbSpline
210
0.0
220
0.0
230
1.0
 70
     9
 71
     3
 72
    44
 73
    40
 74
     0
 42
0.0000000001
 43
0.0000000001
 40
0.0
 40
0.0
 40
0.0
 40
0.0
 40
1.0
 40
1.0
 40
1.0
 40
2.0
 40
2.0
 40
2.0
 40
3.0
 40
3.0
 40
3.0
 40
4.0
 40
4.0
 40
4.0
 40
5.0
 40
5.0
 40
5.0
 40
6.0
 40
6.0
 40
6.0
 40
7.0
 40
7.0
 40
7.0
 40
8.0
 40
8.0
 40
8.0
 40
9.0
 40
9.0
 40
9.0
 40
10.0
 40
10.0
 40
10.0
 40
11.0
 40
11.0
 40
11.0
 40
12.0
 40
12.0
 40
12.0
 40
13.0
 40
13.0
 40
13.0
 40
13.0
 10
125.5137857759132
 20
-152.1767577744558
 30
0.0
 10
125.4156005545836
 20
-152.545038481829
 30
0.0
 10
125.3711588228239
 20
-152.7035128741505
 30
0.0
 10
125.1989040485614
 20
-152.9532822968311
 30
0.0
 10
125.0380180894002
 20
-153.1837591847943
 30
0.0
 10
124.8306233411882
 20
-153.3697943409978
 30
0.0
 10
124.5860215617354
 20
-153.4631564286481
 30
0.0
 10
124.5860215617354
 20
-153.4631564286481
 30
0.0
 10
124.4175563925067
 20
-153.283322444318
 30
0.0
 10
124.4175563925067
 20
-153.283322444318
 30
0.0
 10
124.9787624470539
 20
-153.13104922387
 30
0.0
 10
125.2674614487178
 20
-152.5746663030021
 30
0.0
 10
125.3232719955789
 20
-152.1343830999872
 30
0.0
 10
125.3232719955789
 20
-152.1343830999872
 30
0.0
 10
124.6528564141493
 20
-152.1343830999872
 30
0.0
 10
124.6528564141493
 20
-152.1343830999872
 30
0.0
 10
124.5712076511488
 20
-152.1343830999872
 30
0.0
 10
124.4103216919877
 20
-152.138861724118
 30
0.0
 10
124.2732068916747
 20
-152.1578097492869
 30
0.0
 10
124.2732068916747
 20
-152.1578097492869
 30
0.0
 10
124.2732068916747
 20
-151.9376681477794
 30
0.0
 10
124.2732068916747
 20
-151.9376681477794
 30
0.0
 10
124.3489989923502
 20
-151.959027739788
 30
0.0
 10
124.5694851034062
 20
-151.959027739788
 30
0.0
 10
124.6563015096345
 20
-151.959027739788
 30
0.0
 10
124.6563015096345
 20
-151.959027739788
 30
0.0
 10
125.0342284843664
 20
-151.959027739788
 30
0.0
 10
125.0342284843664
 20
-151.959027739788
 30
0.0
 10
125.0710910060586
 20
-151.959027739788
 30
0.0
 10
125.276763206528
 20
-151.9566161729483
 30
0.0
 10
125.3101806327349
 20
-151.9504150010749
 30
0.0
 10
125.3470431544271
 20
-151.9442138292014
 30
0.0
 10
125.3491102117183
 20
-151.9421467719103
 30
0.0
 10
125.4028537012882
 20
-151.9018391547328
 30
0.0
 10
125.4028537012882
 20
-151.9018391547328
 30
0.0
 10
125.5675292654831
 20
-152.056179432472
 30
0.0
 10
125.5675292654831
 20
-152.056179432472
 30
0.0
 10
125.5416910493437
 20
-152.0858072536452
 30
0.0
 10
125.5285996864998
 20
-152.1175021321095
 30
0.0
 10
125.5137857759132
 20
-152.1767577744558
 30
0.0
  0
HATCH
  5
9D
330
81
100
AcDbEntity
  8
レイヤー 1
 62
   250
420
  2299925
440
 33554687
100
AcDbHatch
 10
0.0
 20
0.0
 30
0.0
210
0.0
220
0.0
230
1.0
  2
SOLID
 70
     1
 71
     1
 91
        3
 92
        1
 93
        1
 72
     4
 94
        3
 73
     0
 74
     0
 95
       17
 96
       13
 40
0.0
 40
0.0
 40
0.0
 40
0.0
 40
1.0
 40
1.0
 40
1.0
 40
2.0
 40
2.0
 40
2.0
 40
3.0
 40
3.0
 40
3.0
 40
4.0
 40
4.0
 40
4.0
 40
4.0
 10
125.6953423079859
 20
-151.6479356174699
 10
125.6471109711924
 20
-151.6479356174699
 10
125.6081813922091
 20
-151.6923773492297
 10
125.6081813922091
 20
-151.7474988769937
 10
125.6081813922091
 20
-151.8043429525003
 10
125.6471109711924
 20
-151.8532633083908
 10
125.6991319130196
 20
-151.8532633083908
 10
125.7508083452984
 20
-151.8532633083908
 10
125.7859483192479
 20
-151.8022758952091
 10
125.7859483192479
 20
-151.7495659342848
 10
125.7859483192479
 20
-151.6923773492297
 10
125.745296192522
 20
-151.6479356174699
 10
125.6953423079859
 20
-151.6479356174699
 97
        0
 97
        1
330
9A
 92
        1
 93
        1
 72
     4
 94
        3
 73
     0
 74
     0
 95
       17
 96
       13
 40
0.0
 40
0.0
 40
0.0
 40
0.0
 40
1.0
 40
1.0
 40
1.0
 40
2.0
 40
2.0
 40
2.0
 40
3.0
 40
3.0
 40
3.0
 40
4.0
 40
4.0
 40
4.0
 40
4.0
 10
125.6970648557285
 20
-151.9779757649569
 10
125.5861327811034
 20
-151.9779757649569
 10
125.497249317584
 20
-151.876345448142
 10
125.497249317584
 20
-151.7495659342848
 10
125.497249317584
 20
-151.6224419108791
 10
125.5861327811034
 20
-151.5187445367731
 10
125.6970648557285
 20
-151.5187445367731
 10
125.8083414399021
 20
-151.5187445367731
 10
125.8989474511641
 20
-151.6224419108791
 10
125.8989474511641
 20
-151.7495659342848
 10
125.8989474511641
 20
-151.876345448142
 10
125.8083414399021
 20
-151.9779757649569
 10
125.6970648557285
 20
-151.9779757649569
 97
        0
 97
        1
330
9B
 92
        1
 93
        1
 72
     4
 94
        3
 73
     0
 74
     0
 95
       44
 96
       40
 40
0.0
 40
0.0
 40
0.0
 40
0.0
 40
1.0
 40
1.0
 40
1.0
 40
2.0
 40
2.0
 40
2.0
 40
3.0
 40
3.0
 40
3.0
 40
4.0
 40
4.0
 40
4.0
 40
5.0
 40
5.0
 40
5.0
 40
6.0
 40
6.0
 40
6.0
 40
7.0
 40
7.0
 40
7.0
 40
8.0
 40
8.0
 40
8.0
 40
9.0
 40
9.0
 40
9.0
 40
10.0
 40
10.0
 40
10.0
 40
11.0
 40
11.0
 40
11.0
 40
12.0
 40
12.0
 40
12.0
 40
13.0
 40
13.0
 40
13.0
 40
13.0
 10
125.5137857759132
 20
-152.1767577744558
 10
125.4156005545836
 20
-152.545038481829
 10
125.3711588228239
 20
-152.7035128741505
 10
125.1989040485614
 20
-152.9532822968311
 10
125.0380180894002
 20
-153.1837591847943
 10
124.8306233411882
 20
-153.3697943409978
 10
124.5860215617354
 20
-153.4631564286481
 10
124.5860215617354
 20
-153.4631564286481
 10
124.4175563925067
 20
-153.283322444318
 10
124.4175563925067
 20
-153.283322444318
 10
124.9787624470539
 20
-153.13104922387
 10
125.2674614487178
 20
-152.5746663030021
 10
125.3232719955789
 20
-152.1343830999872
 10
125.3232719955789
 20
-152.1343830999872
 10
124.6528564141493
 20
-152.1343830999872
 10
124.6528564141493
 20
-152.1343830999872
 10
124.5712076511488
 20
-152.1343830999872
 10
124.4103216919877
 20
-152.138861724118
 10
124.2732068916747
 20
-152.1578097492869
 10
124.2732068916747
 20
-152.1578097492869
 10
124.2732068916747
 20
-151.9376681477794
 10
124.2732068916747
 20
-151.9376681477794
 10
124.3489989923502
 20
-151.959027739788
 10
124.5694851034062
 20
-151.959027739788
 10
124.6563015096345
 20
-151.959027739788
 10
124.6563015096345
 20
-151.959027739788
 10
125.0342284843664
 20
-151.959027739788
 10
125.0342284843664
 20
-151.959027739788
 10
125.0710910060586
 20
-151.959027739788
 10
125.276763206528
 20
-151.9566161729483
 10
125.3101806327349
 20
-151.9504150010749
 10
125.3470431544271
 20
-151.9442138292014
 10
125.3491102117183
 20
-151.9421467719103
 10
125.4028537012882
 20
-151.9018391547328
 10
125.4028537012882
 20
-151.9018391547328
 10
125.5675292654831
 20
-152.056179432472
 10
125.5675292654831
 20
-152.056179432472
 10
125.5416910493437
 20
-152.0858072536452
 10
125.5285996864998
 20
-152.1175021321095
 10
125.5137857759132
 20
-152.1767577744558
 97
        0
 97
        1
330
9C
 75
     2
 76
     1
 98
        1
 10
0.0
 20
0.0
450
        0
451
        0
460
0.0
461
0.0
452
        0
462
0.0
453
        0
470

  0
SPLINE
  5
9E
330
81
100
AcDbEntity
  8
レイヤー 1
100
AcDbSpline
210
0.0
220
0.0
230
1.0
 70
     9
 71
     3
 72
    29
 73
    25
 74
     0
 42
0.0000000001
 43
0.0000000001
 40
0.0
 40
0.0
 40
0.0
 40
0.0
 40
1.0
 40
1.0
 40
1.0
 40
2.0
 40
2.0
 40
2.0
 40
3.0
 40
3.0
 40
3.0
 40
4.0
 40
4.0
 40
4.0
 40
5.0
 40
5.0
 40
5.0
 40
6.0
 40
6.0
 40
6.0
 40
7.0
 40
7.0
 40
7.0
 40
8.0
 40
8.0
 40
8.0
 40
8.0
 10
126.8380804804432
 20
-151.8594644802643
 30
0.0
 10
126.8380804804432
 20
-151.8594644802643
 30
0.0
 10
126.5400797209691
 20
-151.8594644802643
 30
0.0
 10
126.5400797209691
 20
-151.8594644802643
 30
0.0
 10
126.4401719518969
 20
-151.8594644802643
 30
0.0
 10
126.3381971255335
 20
-151.8635985948466
 30
0.0
 10
126.2382893564612
 20
-151.8784125054331
 30
0.0
 10
126.2382893564612
 20
-151.8784125054331
 30
0.0
 10
126.2382893564612
 20
-151.66895069993
 30
0.0
 10
126.2382893564612
 20
-151.66895069993
 30
0.0
 10
126.3419867305673
 20
-151.6837646105165
 30
0.0
 10
126.4939154414668
 20
-151.6882432346474
 30
0.0
 10
126.5400797209691
 20
-151.6882432346474
 30
0.0
 10
126.5400797209691
 20
-151.6882432346474
 30
0.0
 10
126.8380804804432
 20
-151.6882432346474
 30
0.0
 10
126.8380804804432
 20
-151.6882432346474
 30
0.0
 10
126.9400553068066
 20
-151.6882432346474
 30
0.0
 10
127.0416856236215
 20
-151.6837646105165
 30
0.0
 10
127.1436604499849
 20
-151.66895069993
 30
0.0
 10
127.1436604499849
 20
-151.66895069993
 30
0.0
 10
127.1436604499849
 20
-151.8784125054331
 30
0.0
 10
127.1436604499849
 20
-151.8784125054331
 30
0.0
 10
127.0120578024483
 20
-151.8594644802643
 30
0.0
 10
126.8511718432872
 20
-151.8594644802643
 30
0.0
 10
126.8380804804432
 20
-151.8594644802643
 30
0.0
  0
SPLINE
  5
9F
330
81
100
AcDbEntity
  8
レイヤー 1
100
AcDbSpline
210
0.0
220
0.0
230
1.0
 70
     9
 71
     3
 72
    50
 73
    46
 74
     0
 42
0.0000000001
 43
0.0000000001
 40
0.0
 40
0.0
 40
0.0
 40
0.0
 40
1.0
 40
1.0
 40
1.0
 40
2.0
 40
2.0
 40
2.0
 40
3.0
 40
3.0
 40
3.0
 40
4.0
 40
4.0
 40
4.0
 40
5.0
 40
5.0
 40
5.0
 40
6.0
 40
6.0
 40
6.0
 40
7.0
 40
7.0
 40
7.0
 40
8.0
 40
8.0
 40
8.0
 40
9.0
 40
9.0
 40
9.0
 40
10.0
 40
10.0
 40
10.0
 40
11.0
 40
11.0
 40
11.0
 40
12.0
 40
12.0
 40
12.0
 40
13.0
 40
13.0
 40
13.0
 40
14.0
 40
14.0
 40
14.0
 40
15.0
 40
15.0
 40
15.0
 40
15.0
 10
127.269750944745
 20
-152.4857828394827
 30
0.0
 10
127.2011935445886
 20
-152.6632052569731
 30
0.0
 10
127.082682259896
 20
-152.8706000051851
 30
0.0
 10
126.9621039179122
 20
-153.0104708818863
 30
0.0
 10
126.8139648120465
 20
-153.1816921275032
 30
0.0
 10
126.6716823685057
 20
-153.2705755910226
 30
0.0
 10
126.3919406151034
 20
-153.4121690154664
 30
0.0
 10
126.3919406151034
 20
-153.4121690154664
 30
0.0
 10
126.2438015092376
 20
-153.2240668019717
 30
0.0
 10
126.2438015092376
 20
-153.2240668019717
 30
0.0
 10
126.40675452569
 20
-153.2006401526721
 30
0.0
 10
126.5566161792983
 20
-153.1138237464437
 30
0.0
 10
126.6899413745775
 20
-153.0080593150466
 30
0.0
 10
126.9197292434437
 20
-152.8261582734254
 30
0.0
 10
127.0864718649298
 20
-152.5129990938162
 30
0.0
 10
127.1288465393983
 20
-152.331098052195
 30
0.0
 10
127.1288465393983
 20
-152.331098052195
 30
0.0
 10
126.5418022687118
 20
-152.331098052195
 30
0.0
 10
126.5418022687118
 20
-152.331098052195
 30
0.0
 10
126.4029649206562
 20
-152.331098052195
 30
0.0
 10
126.1473388356507
 20
-152.3397107909081
 30
0.0
 10
126.0140136403715
 20
-152.3565917587858
 30
0.0
 10
126.0140136403715
 20
-152.3565917587858
 30
0.0
 10
126.0140136403715
 20
-152.1281819281138
 30
0.0
 10
126.0140136403715
 20
-152.1281819281138
 30
0.0
 10
126.0436414615446
 20
-152.1343830999872
 30
0.0
 10
126.0660345821988
 20
-152.1409287814092
 30
0.0
 10
126.1121988617011
 20
-152.1450628959915
 30
0.0
 10
126.2010823252206
 20
-152.1512640678649
 30
0.0
 10
126.373337099483
 20
-152.1536756347046
 30
0.0
 10
126.4474066524159
 20
-152.1536756347046
 30
0.0
 10
126.4474066524159
 20
-152.1536756347046
 30
0.0
 10
126.8901014222705
 20
-152.1536756347046
 30
0.0
 10
126.8901014222705
 20
-152.1536756347046
 30
0.0
 10
126.9493570646168
 20
-152.1536756347046
 30
0.0
 10
127.0771701071196
 20
-152.1491970105738
 30
0.0
 10
127.1305690871409
 20
-152.1429958387003
 30
0.0
 10
127.193614334521
 20
-152.1343830999872
 30
0.0
 10
127.2177300029178
 20
-152.1195691894006
 30
0.0
 10
127.2473578240909
 20
-152.0964870496495
 30
0.0
 10
127.2473578240909
 20
-152.0964870496495
 30
0.0
 10
127.3917073249229
 20
-152.2635741806841
 30
0.0
 10
127.3917073249229
 20
-152.2635741806841
 30
0.0
 10
127.330729134834
 20
-152.331098052195
 30
0.0
 10
127.290077008108
 20
-152.434795426301
 30
0.0
 10
127.269750944745
 20
-152.4857828394827
 30
0.0
  0
HATCH
  5
A0
330
81
100
AcDbEntity
  8
レイヤー 1
 62
   250
420
  2299925
440
 33554687
100
AcDbHatch
 10
0.0
 20
0.0
 30
0.0
210
0.0
220
0.0
230
1.0
  2
SOLID
 70
     1
 71
     1
 91
        2
 92
        1
 93
        1
 72
     4
 94
        3
 73
     0
 74
     0
 95
       29
 96
       25
 40
0.0
 40
0.0
 40
0.0
 40
0.0
 40
1.0
 40
1.0
 40
1.0
 40
2.0
 40
2.0
 40
2.0
 40
3.0
 40
3.0
 40
3.0
 40
4.0
 40
4.0
 40
4.0
 40
5.0
 40
5.0
 40
5.0
 40
6.0
 40
6.0
 40
6.0
 40
7.0
 40
7.0
 40
7.0
 40
8.0
 40
8.0
 40
8.0
 40
8.0
 10
126.8380804804432
 20
-151.8594644802643
 10
126.8380804804432
 20
-151.8594644802643
 10
126.5400797209691
 20
-151.8594644802643
 10
126.5400797209691
 20
-151.8594644802643
 10
126.4401719518969
 20
-151.8594644802643
 10
126.3381971255335
 20
-151.8635985948466
 10
126.2382893564612
 20
-151.8784125054331
 10
126.2382893564612
 20
-151.8784125054331
 10
126.2382893564612
 20
-151.66895069993
 10
126.2382893564612
 20
-151.66895069993
 10
126.3419867305673
 20
-151.6837646105165
 10
126.4939154414668
 20
-151.6882432346474
 10
126.5400797209691
 20
-151.6882432346474
 10
126.5400797209691
 20
-151.6882432346474
 10
126.8380804804432
 20
-151.6882432346474
 10
126.8380804804432
 20
-151.6882432346474
 10
126.9400553068066
 20
-151.6882432346474
 10
127.0416856236215
 20
-151.6837646105165
 10
127.1436604499849
 20
-151.66895069993
 10
127.1436604499849
 20
-151.66895069993
 10
127.1436604499849
 20
-151.8784125054331
 10
127.1436604499849
 20
-151.8784125054331
 10
127.0120578024483
 20
-151.8594644802643
 10
126.8511718432872
 20
-151.8594644802643
 10
126.8380804804432
 20
-151.8594644802643
 97
        0
 97
        1
330
9E
 92
        1
 93
        1
 72
     4
 94
        3
 73
     0
 74
     0
 95
       50
 96
       46
 40
0.0
 40
0.0
 40
0.0
 40
0.0
 40
1.0
 40
1.0
 40
1.0
 40
2.0
 40
2.0
 40
2.0
 40
3.0
 40
3.0
 40
3.0
 40
4.0
 40
4.0
 40
4.0
 40
5.0
 40
5.0
 40
5.0
 40
6.0
 40
6.0
 40
6.0
 40
7.0
 40
7.0
 40
7.0
 40
8.0
 40
8.0
 40
8.0
 40
9.0
 40
9.0
 40
9.0
 40
10.0
 40
10.0
 40
10.0
 40
11.0
 40
11.0
 40
11.0
 40
12.0
 40
12.0
 40
12.0
 40
13.0
 40
13.0
 40
13.0
 40
14.0
 40
14.0
 40
14.0
 40
15.0
 40
15.0
 40
15.0
 40
15.0
 10
127.269750944745
 20
-152.4857828394827
 10
127.2011935445886
 20
-152.6632052569731
 10
127.082682259896
 20
-152.8706000051851
 10
126.9621039179122
 20
-153.0104708818863
 10
126.8139648120465
 20
-153.1816921275032
 10
126.6716823685057
 20
-153.2705755910226
 10
126.3919406151034
 20
-153.4121690154664
 10
126.3919406151034
 20
-153.4121690154664
 10
126.2438015092376
 20
-153.2240668019717
 10
126.2438015092376
 20
-153.2240668019717
 10
126.40675452569
 20
-153.2006401526721
 10
126.5566161792983
 20
-153.1138237464437
 10
126.6899413745775
 20
-153.0080593150466
 10
126.9197292434437
 20
-152.8261582734254
 10
127.0864718649298
 20
-152.5129990938162
 10
127.1288465393983
 20
-152.331098052195
 10
127.1288465393983
 20
-152.331098052195
 10
126.5418022687118
 20
-152.331098052195
 10
126.5418022687118
 20
-152.331098052195
 10
126.4029649206562
 20
-152.331098052195
 10
126.1473388356507
 20
-152.3397107909081
 10
126.0140136403715
 20
-152.3565917587858
 10
126.0140136403715
 20
-152.3565917587858
 10
126.0140136403715
 20
-152.1281819281138
 10
126.0140136403715
 20
-152.1281819281138
 10
126.0436414615446
 20
-152.1343830999872
 10
126.0660345821988
 20
-152.1409287814092
 10
126.1121988617011
 20
-152.1450628959915
 10
126.2010823252206
 20
-152.1512640678649
 10
126.373337099483
 20
-152.1536756347046
 10
126.4474066524159
 20
-152.1536756347046
 10
126.4474066524159
 20
-152.1536756347046
 10
126.8901014222705
 20
-152.1536756347046
 10
126.8901014222705
 20
-152.1536756347046
 10
126.9493570646168
 20
-152.1536756347046
 10
127.0771701071196
 20
-152.1491970105738
 10
127.1305690871409
 20
-152.1429958387003
 10
127.193614334521
 20
-152.1343830999872
 10
127.2177300029178
 20
-152.1195691894006
 10
127.2473578240909
 20
-152.0964870496495
 10
127.2473578240909
 20
-152.0964870496495
 10
127.3917073249229
 20
-152.2635741806841
 10
127.3917073249229
 20
-152.2635741806841
 10
127.330729134834
 20
-152.331098052195
 10
127.290077008108
 20
-152.434795426301
 10
127.269750944745
 20
-152.4857828394827
 97
        0
 97
        1
330
9F
 75
     2
 76
     1
 98
        1
 10
0.0
 20
0.0
450
        0
451
        0
460
0.0
461
0.0
452
        0
462
0.0
453
        0
470

  0
SPLINE
  5
A1
330
81
100
AcDbEntity
  8
レイヤー 1
100
AcDbSpline
210
0.0
220
0.0
230
1.0
 70
     9
 71
     3
 72
    50
 73
    46
 74
     0
 42
0.0000000001
 43
0.0000000001
 40
0.0
 40
0.0
 40
0.0
 40
0.0
 40
1.0
 40
1.0
 40
1.0
 40
2.0
 40
2.0
 40
2.0
 40
3.0
 40
3.0
 40
3.0
 40
4.0
 40
4.0
 40
4.0
 40
5.0
 40
5.0
 40
5.0
 40
6.0
 40
6.0
 40
6.0
 40
7.0
 40
7.0
 40
7.0
 40
8.0
 40
8.0
 40
8.0
 40
9.0
 40
9.0
 40
9.0
 40
10.0
 40
10.0
 40
10.0
 40
11.0
 40
11.0
 40
11.0
 40
12.0
 40
12.0
 40
12.0
 40
13.0
 40
13.0
 40
13.0
 40
14.0
 40
14.0
 40
14.0
 40
15.0
 40
15.0
 40
15.0
 40
15.0
 10
128.7676784617317
 20
-151.8446505696777
 30
0.0
 10
128.5843993819164
 20
-152.0582464897632
 30
0.0
 10
128.5216986440848
 20
-152.1302489854049
 30
0.0
 10
128.3973306970673
 20
-152.2487602700975
 30
0.0
 10
128.3973306970673
 20
-152.2487602700975
 30
0.0
 10
128.3973306970673
 20
-152.8158229869696
 30
0.0
 10
128.3973306970673
 20
-152.8158229869696
 30
0.0
 10
128.3973306970673
 20
-152.9660291501265
 30
0.0
 10
128.4031873593922
 20
-152.9849771752954
 30
0.0
 10
128.4066324548775
 20
-153.1627441023343
 30
0.0
 10
128.4086995121686
 20
-153.2936577307738
 30
0.0
 10
128.414211664945
 20
-153.3425780866643
 30
0.0
 10
128.4197238177214
 20
-153.4018337290106
 30
0.0
 10
128.4197238177214
 20
-153.4018337290106
 30
0.0
 10
128.2216308273196
 20
-153.4018337290106
 30
0.0
 10
128.2216308273196
 20
-153.4018337290106
 30
0.0
 10
128.2254204323533
 20
-153.3573919972509
 30
0.0
 10
128.2288655278386
 20
-153.3105386986515
 30
0.0
 10
128.2288655278386
 20
-153.3022704694869
 30
0.0
 10
128.2288655278386
 20
-153.2219997446806
 30
0.0
 10
128.2326551328724
 20
-152.8706000051851
 30
0.0
 10
128.2326551328724
 20
-152.7985975095434
 30
0.0
 10
128.2326551328724
 20
-152.7985975095434
 30
0.0
 10
128.2326551328724
 20
-152.3924207518324
 30
0.0
 10
128.2326551328724
 20
-152.3924207518324
 30
0.0
 10
128.0734917214538
 20
-152.517477717947
 30
0.0
 10
127.902959494934
 20
-152.6273762639265
 30
0.0
 10
127.7251925678951
 20
-152.7141926701548
 30
0.0
 10
127.7251925678951
 20
-152.7141926701548
 30
0.0
 10
127.5474256408562
 20
-152.5512396537024
 30
0.0
 10
127.5474256408562
 20
-152.5512396537024
 30
0.0
 10
127.654912619996
 20
-152.5154106606558
 30
0.0
 10
127.8788438265372
 20
-152.441341107723
 30
0.0
 10
128.1806341910451
 20
-152.1853705131689
 30
0.0
 10
128.3697699331853
 20
-152.0265516112989
 30
0.0
 10
128.538235102414
 20
-151.8384493978043
 30
0.0
 10
128.6715602976932
 20
-151.6183077962968
 30
0.0
 10
128.6715602976932
 20
-151.6183077962968
 30
0.0
 10
128.8400254669219
 20
-151.7623127875802
 30
0.0
 10
128.8400254669219
 20
-151.7623127875802
 30
0.0
 10
128.8510497724747
 20
-151.772648074036
 30
0.0
 10
128.8586289825422
 20
-151.7874619846226
 30
0.0
 10
128.8586289825422
 20
-151.800208837918
 30
0.0
 10
128.8586289825422
 20
-151.8405164550954
 30
0.0
 10
128.8252115563353
 20
-151.8405164550954
 30
0.0
 10
128.7676784617317
 20
-151.8446505696777
 30
0.0
  0
HATCH
  5
A2
330
81
100
AcDbEntity
  8
レイヤー 1
 62
   250
420
  2299925
440
 33554687
100
AcDbHatch
 10
0.0
 20
0.0
 30
0.0
210
0.0
220
0.0
230
1.0
  2
SOLID
 70
     1
 71
     1
 91
        1
 92
        1
 93
        1
 72
     4
 94
        3
 73
     0
 74
     0
 95
       50
 96
       46
 40
0.0
 40
0.0
 40
0.0
 40
0.0
 40
1.0
 40
1.0
 40
1.0
 40
2.0
 40
2.0
 40
2.0
 40
3.0
 40
3.0
 40
3.0
 40
4.0
 40
4.0
 40
4.0
 40
5.0
 40
5.0
 40
5.0
 40
6.0
 40
6.0
 40
6.0
 40
7.0
 40
7.0
 40
7.0
 40
8.0
 40
8.0
 40
8.0
 40
9.0
 40
9.0
 40
9.0
 40
10.0
 40
10.0
 40
10.0
 40
11.0
 40
11.0
 40
11.0
 40
12.0
 40
12.0
 40
12.0
 40
13.0
 40
13.0
 40
13.0
 40
14.0
 40
14.0
 40
14.0
 40
15.0
 40
15.0
 40
15.0
 40
15.0
 10
128.7676784617317
 20
-151.8446505696777
 10
128.5843993819164
 20
-152.0582464897632
 10
128.5216986440848
 20
-152.1302489854049
 10
128.3973306970673
 20
-152.2487602700975
 10
128.3973306970673
 20
-152.2487602700975
 10
128.3973306970673
 20
-152.8158229869696
 10
128.3973306970673
 20
-152.8158229869696
 10
128.3973306970673
 20
-152.9660291501265
 10
128.4031873593922
 20
-152.9849771752954
 10
128.4066324548775
 20
-153.1627441023343
 10
128.4086995121686
 20
-153.2936577307738
 10
128.414211664945
 20
-153.3425780866643
 10
128.4197238177214
 20
-153.4018337290106
 10
128.4197238177214
 20
-153.4018337290106
 10
128.2216308273196
 20
-153.4018337290106
 10
128.2216308273196
 20
-153.4018337290106
 10
128.2254204323533
 20
-153.3573919972509
 10
128.2288655278386
 20
-153.3105386986515
 10
128.2288655278386
 20
-153.3022704694869
 10
128.2288655278386
 20
-153.2219997446806
 10
128.2326551328724
 20
-152.8706000051851
 10
128.2326551328724
 20
-152.7985975095434
 10
128.2326551328724
 20
-152.7985975095434
 10
128.2326551328724
 20
-152.3924207518324
 10
128.2326551328724
 20
-152.3924207518324
 10
128.0734917214538
 20
-152.517477717947
 10
127.902959494934
 20
-152.6273762639265
 10
127.7251925678951
 20
-152.7141926701548
 10
127.7251925678951
 20
-152.7141926701548
 10
127.5474256408562
 20
-152.5512396537024
 10
127.5474256408562
 20
-152.5512396537024
 10
127.654912619996
 20
-152.5154106606558
 10
127.8788438265372
 20
-152.441341107723
 10
128.1806341910451
 20
-152.1853705131689
 10
128.3697699331853
 20
-152.0265516112989
 10
128.538235102414
 20
-151.8384493978043
 10
128.6715602976932
 20
-151.6183077962968
 10
128.6715602976932
 20
-151.6183077962968
 10
128.8400254669219
 20
-151.7623127875802
 10
128.8400254669219
 20
-151.7623127875802
 10
128.8510497724747
 20
-151.772648074036
 10
128.8586289825422
 20
-151.7874619846226
 10
128.8586289825422
 20
-151.800208837918
 10
128.8586289825422
 20
-151.8405164550954
 10
128.8252115563353
 20
-151.8405164550954
 10
128.7676784617317
 20
-151.8446505696777
 97
        0
 97
        1
330
A1
 75
     2
 76
     1
 98
        1
 10
0.0
 20
0.0
450
        0
451
        0
460
0.0
461
0.0
452
        0
462
0.0
453
        0
470

  0
SPLINE
  5
A3
330
81
100
AcDbEntity
  8
レイヤー 1
100
AcDbSpline
210
0.0
220
0.0
230
1.0
 70
     9
 71
     3
 72
    50
 73
    46
 74
     0
 42
0.0000000001
 43
0.0000000001
 40
0.0
 40
0.0
 40
0.0
 40
0.0
 40
1.0
 40
1.0
 40
1.0
 40
2.0
 40
2.0
 40
2.0
 40
3.0
 40
3.0
 40
3.0
 40
4.0
 40
4.0
 40
4.0
 40
5.0
 40
5.0
 40
5.0
 40
6.0
 40
6.0
 40
6.0
 40
7.0
 40
7.0
 40
7.0
 40
8.0
 40
8.0
 40
8.0
 40
9.0
 40
9.0
 40
9.0
 40
10.0
 40
10.0
 40
10.0
 40
11.0
 40
11.0
 40
11.0
 40
12.0
 40
12.0
 40
12.0
 40
13.0
 40
13.0
 40
13.0
 40
14.0
 40
14.0
 40
14.0
 40
15.0
 40
15.0
 40
15.0
 40
15.0
 10
130.2638834309757
 20
-152.3714056693724
 30
0.0
 10
130.2104844509543
 20
-152.4434081650141
 30
0.0
 10
129.9824191298308
 20
-152.7607014592057
 30
0.0
 10
129.9324652452947
 20
-152.8240912161342
 30
0.0
 10
130.0065347982275
 20
-152.9215874183668
 30
0.0
 10
130.0509765299872
 20
-152.9849771752954
 30
0.0
 10
130.1085096245909
 20
-153.075927696106
 30
0.0
 10
130.1085096245909
 20
-153.075927696106
 30
0.0
 10
129.9472791558812
 20
-153.2133870059675
 30
0.0
 10
129.9472791558812
 20
-153.2133870059675
 30
0.0
 10
129.8287678711886
 20
-153.0018581431732
 30
0.0
 10
129.6789062175802
 20
-152.7775824270834
 30
0.0
 10
129.4215575848321
 20
-152.5788004175844
 30
0.0
 10
129.4215575848321
 20
-152.5788004175844
 30
0.0
 10
129.5510931750775
 20
-152.4244601398453
 30
0.0
 10
129.5510931750775
 20
-152.4244601398453
 30
0.0
 10
129.6475558486645
 20
-152.5047308646516
 30
0.0
 10
129.7381618599265
 20
-152.593614328171
 30
0.0
 10
129.8232557184122
 20
-152.6886989635639
 30
0.0
 10
129.8825113607585
 20
-152.6125623533399
 30
0.0
 10
130.0602782877974
 20
-152.3693386120813
 30
0.0
 10
130.1770670247474
 20
-152.1409287814092
 30
0.0
 10
130.1770670247474
 20
-152.1409287814092
 30
0.0
 10
129.5883002063182
 20
-152.1409287814092
 30
0.0
 10
129.5883002063182
 20
-152.1409287814092
 30
0.0
 10
129.4787461698873
 20
-152.1409287814092
 30
0.0
 10
129.2586045683798
 20
-152.1491970105738
 30
0.0
 10
129.0753254885645
 20
-152.1598768065781
 30
0.0
 10
129.0753254885645
 20
-152.1598768065781
 30
0.0
 10
129.0753254885645
 20
-151.9397352050706
 30
0.0
 10
129.0753254885645
 20
-151.9397352050706
 30
0.0
 10
129.2362114477257
 20
-151.959027739788
 30
0.0
 10
129.4160454320557
 20
-151.9631618543703
 30
0.0
 10
129.5807209962506
 20
-151.9631618543703
 30
0.0
 10
129.5807209962506
 20
-151.9631618543703
 30
0.0
 10
130.0213487088141
 20
-151.9631618543703
 30
0.0
 10
130.0213487088141
 20
-151.9631618543703
 30
0.0
 10
130.3176269205456
 20
-151.9631618543703
 30
0.0
 10
130.3565564995289
 20
-151.9483479437837
 30
0.0
 10
130.4289035047191
 20
-151.9080403266063
 30
0.0
 10
130.4289035047191
 20
-151.9080403266063
 30
0.0
 10
130.5749755532938
 20
-152.0668592284763
 30
0.0
 10
130.5749755532938
 20
-152.0668592284763
 30
0.0
 10
130.4416503580146
 20
-152.138861724118
 30
0.0
 10
130.315904372803
 20
-152.3014702310218
 30
0.0
 10
130.2638834309757
 20
-152.3714056693724
 30
0.0
  0
HATCH
  5
A4
330
81
100
AcDbEntity
  8
レイヤー 1
 62
   250
420
  2299925
440
 33554687
100
AcDbHatch
 10
0.0
 20
0.0
 30
0.0
210
0.0
220
0.0
230
1.0
  2
SOLID
 70
     1
 71
     1
 91
        1
 92
        1
 93
        1
 72
     4
 94
        3
 73
     0
 74
     0
 95
       50
 96
       46
 40
0.0
 40
0.0
 40
0.0
 40
0.0
 40
1.0
 40
1.0
 40
1.0
 40
2.0
 40
2.0
 40
2.0
 40
3.0
 40
3.0
 40
3.0
 40
4.0
 40
4.0
 40
4.0
 40
5.0
 40
5.0
 40
5.0
 40
6.0
 40
6.0
 40
6.0
 40
7.0
 40
7.0
 40
7.0
 40
8.0
 40
8.0
 40
8.0
 40
9.0
 40
9.0
 40
9.0
 40
10.0
 40
10.0
 40
10.0
 40
11.0
 40
11.0
 40
11.0
 40
12.0
 40
12.0
 40
12.0
 40
13.0
 40
13.0
 40
13.0
 40
14.0
 40
14.0
 40
14.0
 40
15.0
 40
15.0
 40
15.0
 40
15.0
 10
130.2638834309757
 20
-152.3714056693724
 10
130.2104844509543
 20
-152.4434081650141
 10
129.9824191298308
 20
-152.7607014592057
 10
129.9324652452947
 20
-152.8240912161342
 10
130.0065347982275
 20
-152.9215874183668
 10
130.0509765299872
 20
-152.9849771752954
 10
130.1085096245909
 20
-153.075927696106
 10
130.1085096245909
 20
-153.075927696106
 10
129.9472791558812
 20
-153.2133870059675
 10
129.9472791558812
 20
-153.2133870059675
 10
129.8287678711886
 20
-153.0018581431732
 10
129.6789062175802
 20
-152.7775824270834
 10
129.4215575848321
 20
-152.5788004175844
 10
129.4215575848321
 20
-152.5788004175844
 10
129.5510931750775
 20
-152.4244601398453
 10
129.5510931750775
 20
-152.4244601398453
 10
129.6475558486645
 20
-152.5047308646516
 10
129.7381618599265
 20
-152.593614328171
 10
129.8232557184122
 20
-152.6886989635639
 10
129.8825113607585
 20
-152.6125623533399
 10
130.0602782877974
 20
-152.3693386120813
 10
130.1770670247474
 20
-152.1409287814092
 10
130.1770670247474
 20
-152.1409287814092
 10
129.5883002063182
 20
-152.1409287814092
 10
129.5883002063182
 20
-152.1409287814092
 10
129.4787461698873
 20
-152.1409287814092
 10
129.2586045683798
 20
-152.1491970105738
 10
129.0753254885645
 20
-152.1598768065781
 10
129.0753254885645
 20
-152.1598768065781
 10
129.0753254885645
 20
-151.9397352050706
 10
129.0753254885645
 20
-151.9397352050706
 10
129.2362114477257
 20
-151.959027739788
 10
129.4160454320557
 20
-151.9631618543703
 10
129.5807209962506
 20
-151.9631618543703
 10
129.5807209962506
 20
-151.9631618543703
 10
130.0213487088141
 20
-151.9631618543703
 10
130.0213487088141
 20
-151.9631618543703
 10
130.3176269205456
 20
-151.9631618543703
 10
130.3565564995289
 20
-151.9483479437837
 10
130.4289035047191
 20
-151.9080403266063
 10
130.4289035047191
 20
-151.9080403266063
 10
130.5749755532938
 20
-152.0668592284763
 10
130.5749755532938
 20
-152.0668592284763
 10
130.4416503580146
 20
-152.138861724118
 10
130.315904372803
 20
-152.3014702310218
 10
130.2638834309757
 20
-152.3714056693724
 97
        0
 97
        1
330
A3
 75
     2
 76
     1
 98
        1
 10
0.0
 20
0.0
450
        0
451
        0
460
0.0
461
0.0
452
        0
462
0.0
453
        0
470

  0
SPLINE
  5
A5
330
81
100
AcDbEntity
  8
レイヤー 1
100
AcDbSpline
210
0.0
220
0.0
230
1.0
 70
     9
 71
     3
 72
    29
 73
    25
 74
     0
 42
0.0000000001
 43
0.0000000001
 40
0.0
 40
0.0
 40
0.0
 40
0.0
 40
1.0
 40
1.0
 40
1.0
 40
2.0
 40
2.0
 40
2.0
 40
3.0
 40
3.0
 40
3.0
 40
4.0
 40
4.0
 40
4.0
 40
5.0
 40
5.0
 40
5.0
 40
6.0
 40
6.0
 40
6.0
 40
7.0
 40
7.0
 40
7.0
 40
8.0
 40
8.0
 40
8.0
 40
8.0
 10
131.6863633568353
 20
-152.614629410631
 30
0.0
 10
131.6863633568353
 20
-152.614629410631
 30
0.0
 10
131.2622721026011
 20
-152.614629410631
 30
0.0
 10
131.2622721026011
 20
-152.614629410631
 30
0.0
 10
131.2381564342043
 20
-152.614629410631
 30
0.0
 10
130.9601372285447
 20
-152.614629410631
 30
0.0
 10
130.7751356009867
 20
-152.6401231172219
 30
0.0
 10
130.7751356009867
 20
-152.6401231172219
 30
0.0
 10
130.7751356009867
 20
-152.4096462292587
 30
0.0
 10
130.7751356009867
 20
-152.4096462292587
 30
0.0
 10
130.9139729490423
 20
-152.4327283690098
 30
0.0
 10
131.0807155705284
 20
-152.434795426301
 30
0.0
 10
131.2622721026011
 20
-152.434795426301
 30
0.0
 10
131.2622721026011
 20
-152.434795426301
 30
0.0
 10
131.6863633568353
 20
-152.434795426301
 30
0.0
 10
131.6863633568353
 20
-152.434795426301
 30
0.0
 10
131.8489718637391
 20
-152.434795426301
 30
0.0
 10
132.01226938974
 20
-152.4327283690098
 30
0.0
 10
132.1731553489011
 20
-152.4096462292587
 30
0.0
 10
132.1731553489011
 20
-152.4096462292587
 30
0.0
 10
132.1731553489011
 20
-152.6401231172219
 30
0.0
 10
132.1731553489011
 20
-152.6401231172219
 30
0.0
 10
132.01226938974
 20
-152.6166964679222
 30
0.0
 10
131.7955728837177
 20
-152.614629410631
 30
0.0
 10
131.6863633568353
 20
-152.614629410631
 30
0.0
  0
HATCH
  5
A6
330
81
100
AcDbEntity
  8
レイヤー 1
 62
   250
420
  2299925
440
 33554687
100
AcDbHatch
 10
0.0
 20
0.0
 30
0.0
210
0.0
220
0.0
230
1.0
  2
SOLID
 70
     1
 71
     1
 91
        1
 92
        1
 93
        1
 72
     4
 94
        3
 73
     0
 74
     0
 95
       29
 96
       25
 40
0.0
 40
0.0
 40
0.0
 40
0.0
 40
1.0
 40
1.0
 40
1.0
 40
2.0
 40
2.0
 40
2.0
 40
3.0
 40
3.0
 40
3.0
 40
4.0
 40
4.0
 40
4.0
 40
5.0
 40
5.0
 40
5.0
 40
6.0
 40
6.0
 40
6.0
 40
7.0
 40
7.0
 40
7.0
 40
8.0
 40
8.0
 40
8.0
 40
8.0
 10
131.6863633568353
 20
-152.614629410631
 10
131.6863633568353
 20
-152.614629410631
 10
131.2622721026011
 20
-152.614629410631
 10
131.2622721026011
 20
-152.614629410631
 10
131.2381564342043
 20
-152.614629410631
 10
130.9601372285447
 20
-152.614629410631
 10
130.7751356009867
 20
-152.6401231172219
 10
130.7751356009867
 20
-152.6401231172219
 10
130.7751356009867
 20
-152.4096462292587
 10
130.7751356009867
 20
-152.4096462292587
 10
130.9139729490423
 20
-152.4327283690098
 10
131.0807155705284
 20
-152.434795426301
 10
131.2622721026011
 20
-152.434795426301
 10
131.2622721026011
 20
-152.434795426301
 10
131.6863633568353
 20
-152.434795426301
 10
131.6863633568353
 20
-152.434795426301
 10
131.8489718637391
 20
-152.434795426301
 10
132.01226938974
 20
-152.4327283690098
 10
132.1731553489011
 20
-152.4096462292587
 10
132.1731553489011
 20
-152.4096462292587
 10
132.1731553489011
 20
-152.6401231172219
 10
132.1731553489011
 20
-152.6401231172219
 10
132.01226938974
 20
-152.6166964679222
 10
131.7955728837177
 20
-152.614629410631
 10
131.6863633568353
 20
-152.614629410631
 97
        0
 97
        1
330
A5
 75
     2
 76
     1
 98
        1
 10
0.0
 20
0.0
450
        0
451
        0
460
0.0
461
0.0
452
        0
462
0.0
453
        0
470

  0
SPLINE
  5
A7
330
81
100
AcDbEntity
  8
レイヤー 1
100
AcDbSpline
210
0.0
220
0.0
230
1.0
 70
     9
 71
     3
 72
    20
 73
    16
 74
     0
 42
0.0000000001
 43
0.0000000001
 40
0.0
 40
0.0
 40
0.0
 40
0.0
 40
1.0
 40
1.0
 40
1.0
 40
2.0
 40
2.0
 40
2.0
 40
3.0
 40
3.0
 40
3.0
 40
4.0
 40
4.0
 40
4.0
 40
5.0
 40
5.0
 40
5.0
 40
5.0
 10
133.2621500317886
 20
-152.9660291501265
 30
0.0
 10
133.2214979050627
 20
-152.7882622230876
 30
0.0
 10
133.136404046577
 20
-152.6463242890953
 30
0.0
 10
133.0141031568506
 20
-152.5364257431159
 30
0.0
 10
133.0141031568506
 20
-152.5364257431159
 30
0.0
 10
133.1550075621974
 20
-152.4220485730056
 30
0.0
 10
133.1550075621974
 20
-152.4220485730056
 30
0.0
 10
133.2084065422187
 20
-152.4644232474742
 30
0.0
 10
133.2438910257168
 20
-152.4981851832296
 30
0.0
 10
133.3103813685821
 20
-152.6063611814664
 30
0.0
 10
133.3806613164812
 20
-152.7224608993194
 30
0.0
 10
133.3992648321016
 20
-152.7755153697922
 30
0.0
 10
133.4216579527557
 20
-152.840972184012
 30
0.0
 10
133.4216579527557
 20
-152.840972184012
 30
0.0
 10
133.2621500317886
 20
-152.9660291501265
 30
0.0
 10
133.2621500317886
 20
-152.9660291501265
 30
0.0
  0
SPLINE
  5
A8
330
81
100
AcDbEntity
  8
レイヤー 1
100
AcDbSpline
210
0.0
220
0.0
230
1.0
 70
     9
 71
     3
 72
    77
 73
    73
 74
     0
 42
0.0000000001
 43
0.0000000001
 40
0.0
 40
0.0
 40
0.0
 40
0.0
 40
1.0
 40
1.0
 40
1.0
 40
2.0
 40
2.0
 40
2.0
 40
3.0
 40
3.0
 40
3.0
 40
4.0
 40
4.0
 40
4.0
 40
5.0
 40
5.0
 40
5.0
 40
6.0
 40
6.0
 40
6.0
 40
7.0
 40
7.0
 40
7.0
 40
8.0
 40
8.0
 40
8.0
 40
9.0
 40
9.0
 40
9.0
 40
10.0
 40
10.0
 40
10.0
 40
11.0
 40
11.0
 40
11.0
 40
12.0
 40
12.0
 40
12.0
 40
13.0
 40
13.0
 40
13.0
 40
14.0
 40
14.0
 40
14.0
 40
15.0
 40
15.0
 40
15.0
 40
16.0
 40
16.0
 40
16.0
 40
17.0
 40
17.0
 40
17.0
 40
18.0
 40
18.0
 40
18.0
 40
19.0
 40
19.0
 40
19.0
 40
20.0
 40
20.0
 40
20.0
 40
21.0
 40
21.0
 40
21.0
 40
22.0
 40
22.0
 40
22.0
 40
23.0
 40
23.0
 40
23.0
 40
24.0
 40
24.0
 40
24.0
 40
24.0
 10
133.936355218252
 20
-152.2401475313844
 30
0.0
 10
133.8753770281631
 20
-152.2360134168021
 30
0.0
 10
133.8161213858168
 20
-152.2360134168021
 30
0.0
 10
133.7568657434705
 20
-152.2360134168021
 30
0.0
 10
133.7568657434705
 20
-152.2360134168021
 30
0.0
 10
133.7568657434705
 20
-153.0104708818863
 30
0.0
 10
133.7568657434705
 20
-153.0104708818863
 30
0.0
 10
133.7568657434705
 20
-153.2747097056049
 30
0.0
 10
133.7547986861793
 20
-153.3043375267781
 30
0.0
 10
133.7492865334029
 20
-153.3339653479512
 30
0.0
 10
133.7196587122298
 20
-153.4672905432304
 30
0.0
 10
133.6307752487103
 20
-153.475558772395
 30
0.0
 10
133.4771239900682
 20
-153.475558772395
 30
0.0
 10
133.4419840161187
 20
-153.475558772395
 30
0.0
 10
133.4271701055321
 20
-153.475558772395
 30
0.0
 10
133.3920301315825
 20
-153.4714246578127
 30
0.0
 10
133.3920301315825
 20
-153.4714246578127
 30
0.0
 10
133.2828206047001
 20
-153.2302679738452
 30
0.0
 10
133.2828206047001
 20
-153.2302679738452
 30
0.0
 10
133.384450921515
 20
-153.2619628523095
 30
0.0
 10
133.4567979267052
 20
-153.2619628523095
 30
0.0
 10
133.4771239900682
 20
-153.2619628523095
 30
0.0
 10
133.5381021801571
 20
-153.2619628523095
 30
0.0
 10
133.5677300013303
 20
-153.2450818844317
 30
0.0
 10
133.571519606364
 20
-153.1878932993766
 30
0.0
 10
133.571519606364
 20
-153.1751464460812
 30
0.0
 10
133.5732421541067
 20
-153.0779947533972
 30
0.0
 10
133.5732421541067
 20
-153.020806168342
 30
0.0
 10
133.5732421541067
 20
-153.020806168342
 30
0.0
 10
133.5732421541067
 20
-152.2339463595109
 30
0.0
 10
133.5732421541067
 20
-152.2339463595109
 30
0.0
 10
133.5732421541067
 20
-152.2339463595109
 30
0.0
 10
133.3158935213585
 20
-152.2339463595109
 30
0.0
 10
133.3158935213585
 20
-152.2339463595109
 30
0.0
 10
133.1880804788557
 20
-152.2339463595109
 30
0.0
 10
133.060267436353
 20
-152.2401475313844
 30
0.0
 10
132.9345214511413
 20
-152.2528943846798
 30
0.0
 10
132.9345214511413
 20
-152.2528943846798
 30
0.0
 10
132.9345214511413
 20
-152.0454996364678
 30
0.0
 10
132.9345214511413
 20
-152.0454996364678
 30
0.0
 10
133.0661240986779
 20
-152.0582464897632
 30
0.0
 10
133.2566378790122
 20
-152.062725113894
 30
0.0
 10
133.3158935213585
 20
-152.062725113894
 30
0.0
 10
133.3158935213585
 20
-152.062725113894
 30
0.0
 10
133.5732421541067
 20
-152.062725113894
 30
0.0
 10
133.5732421541067
 20
-152.062725113894
 30
0.0
 10
133.571519606364
 20
-151.7940076660445
 30
0.0
 10
133.571519606364
 20
-151.7178710558205
 30
0.0
 10
133.5639403962965
 20
-151.5697319499548
 30
0.0
 10
133.5639403962965
 20
-151.5697319499548
 30
0.0
 10
133.7899386601289
 20
-151.6076280002925
 30
0.0
 10
133.7899386601289
 20
-151.6076280002925
 30
0.0
 10
133.8030300229728
 20
-151.6096950575837
 30
0.0
 10
133.8161213858168
 20
-151.6162407390056
 30
0.0
 10
133.8161213858168
 20
-151.6372558214657
 30
0.0
 10
133.8161213858168
 20
-151.6565483561831
 30
0.0
 10
133.8102647234919
 20
-151.6586154134742
 30
0.0
 10
133.7603108389558
 20
-151.6923773492297
 30
0.0
 10
133.7568657434705
 20
-151.7705810167448
 30
0.0
 10
133.7568657434705
 20
-151.7853949273314
 30
0.0
 10
133.7568657434705
 20
-152.062725113894
 30
0.0
 10
133.9122395498553
 20
-152.0582464897632
 30
0.0
 10
133.9287760081845
 20
-152.0582464897632
 30
0.0
 10
133.9584038293576
 20
-152.0541123751809
 30
0.0
 10
134.0028455611173
 20
-152.0499782605986
 30
0.0
 10
134.0066351661511
 20
-152.0479112033074
 30
0.0
 10
134.0455647451344
 20
-152.0454996364678
 30
0.0
 10
134.0455647451344
 20
-152.0454996364678
 30
0.0
 10
134.0455647451344
 20
-152.2528943846798
 30
0.0
 10
134.0455647451344
 20
-152.2528943846798
 30
0.0
 10
134.019726528995
 20
-152.2508273273887
 30
0.0
 10
133.9714951922016
 20
-152.2422145886755
 30
0.0
 10
133.936355218252
 20
-152.2401475313844
 30
0.0
  0
SPLINE
  5
A9
330
81
100
AcDbEntity
  8
レイヤー 1
100
AcDbSpline
210
0.0
220
0.0
230
1.0
 70
     9
 71
     3
 72
    53
 73
    49
 74
     0
 42
0.0000000001
 43
0.0000000001
 40
0.0
 40
0.0
 40
0.0
 40
0.0
 40
1.0
 40
1.0
 40
1.0
 40
2.0
 40
2.0
 40
2.0
 40
3.0
 40
3.0
 40
3.0
 40
4.0
 40
4.0
 40
4.0
 40
5.0
 40
5.0
 40
5.0
 40
6.0
 40
6.0
 40
6.0
 40
7.0
 40
7.0
 40
7.0
 40
8.0
 40
8.0
 40
8.0
 40
9.0
 40
9.0
 40
9.0
 40
10.0
 40
10.0
 40
10.0
 40
11.0
 40
11.0
 40
11.0
 40
12.0
 40
12.0
 40
12.0
 40
13.0
 40
13.0
 40
13.0
 40
14.0
 40
14.0
 40
14.0
 40
15.0
 40
15.0
 40
15.0
 40
16.0
 40
16.0
 40
16.0
 40
16.0
 10
132.9290092983649
 20
-151.7409531955717
 30
0.0
 10
132.8697536560186
 20
-151.8932264160197
 30
0.0
 10
132.832546624778
 20
-151.9714300835349
 30
0.0
 10
132.7994737081196
 20
-152.0392984645943
 30
0.0
 10
132.8363362298117
 20
-152.0603135470543
 30
0.0
 10
132.8401258348455
 20
-152.062725113894
 30
0.0
 10
132.8401258348455
 20
-152.0775390244806
 30
0.0
 10
132.8401258348455
 20
-152.0899413682275
 30
0.0
 10
132.8104980136723
 20
-152.1240478135315
 30
0.0
 10
132.8011962558622
 20
-152.1323160426961
 30
0.0
 10
132.7994737081196
 20
-152.3290309949038
 30
0.0
 10
132.7994737081196
 20
-152.3503905869124
 30
0.0
 10
132.7994737081196
 20
-152.4837157821916
 30
0.0
 10
132.7974066508284
 20
-152.4961181259384
 30
0.0
 10
132.7974066508284
 20
-152.510932036525
 30
0.0
 10
132.7974066508284
 20
-152.5257459471116
 30
0.0
 10
132.7974066508284
 20
-152.5257459471116
 30
0.0
 10
132.7974066508284
 20
-153.0611137855194
 30
0.0
 10
132.7974066508284
 20
-153.0611137855194
 30
0.0
 10
132.7974066508284
 20
-153.1331162811611
 30
0.0
 10
132.8011962558622
 20
-153.3677272837067
 30
0.0
 10
132.8087754659297
 20
-153.4779703392346
 30
0.0
 10
132.8087754659297
 20
-153.4779703392346
 30
0.0
 10
132.5955240553928
 20
-153.4779703392346
 30
0.0
 10
132.5955240553928
 20
-153.4779703392346
 30
0.0
 10
132.6158501187557
 20
-153.3191514373647
 30
0.0
 10
132.6217067810807
 20
-153.0779947533972
 30
0.0
 10
132.6217067810807
 20
-153.0569796709371
 30
0.0
 10
132.6217067810807
 20
-153.0569796709371
 30
0.0
 10
132.6217067810807
 20
-152.3397107909081
 30
0.0
 10
132.6217067810807
 20
-152.3397107909081
 30
0.0
 10
132.5421250753714
 20
-152.4540879610184
 30
0.0
 10
132.4883815858015
 20
-152.5129990938162
 30
0.0
 10
132.4511745545608
 20
-152.5553737682847
 30
0.0
 10
132.4511745545608
 20
-152.5553737682847
 30
0.0
 10
132.2844319330747
 20
-152.4179144584233
 30
0.0
 10
132.2844319330747
 20
-152.4179144584233
 30
0.0
 10
132.5307562602701
 20
-152.2022514810466
 30
0.0
 10
132.6992214294988
 20
-151.8932264160197
 30
0.0
 10
132.7974066508284
 20
-151.5569850966593
 30
0.0
 10
132.7974066508284
 20
-151.5569850966593
 30
0.0
 10
132.9899874884539
 20
-151.6713622667696
 30
0.0
 10
132.9899874884539
 20
-151.6713622667696
 30
0.0
 10
133.0010117940067
 20
-151.6775634386431
 30
0.0
 10
133.0085910040742
 20
-151.6816975532254
 30
0.0
 10
133.0085910040742
 20
-151.696511463812
 30
0.0
 10
133.0085910040742
 20
-151.7220051704028
 30
0.0
 10
132.9937770934876
 20
-151.7261392849851
 30
0.0
 10
132.9290092983649
 20
-151.7409531955717
 30
0.0
  0
HATCH
  5
AA
330
81
100
AcDbEntity
  8
レイヤー 1
 62
   250
420
  2299925
440
 33554687
100
AcDbHatch
 10
0.0
 20
0.0
 30
0.0
210
0.0
220
0.0
230
1.0
  2
SOLID
 70
     1
 71
     1
 91
        3
 92
        1
 93
        1
 72
     4
 94
        3
 73
     0
 74
     0
 95
       20
 96
       16
 40
0.0
 40
0.0
 40
0.0
 40
0.0
 40
1.0
 40
1.0
 40
1.0
 40
2.0
 40
2.0
 40
2.0
 40
3.0
 40
3.0
 40
3.0
 40
4.0
 40
4.0
 40
4.0
 40
5.0
 40
5.0
 40
5.0
 40
5.0
 10
133.2621500317886
 20
-152.9660291501265
 10
133.2214979050627
 20
-152.7882622230876
 10
133.136404046577
 20
-152.6463242890953
 10
133.0141031568506
 20
-152.5364257431159
 10
133.0141031568506
 20
-152.5364257431159
 10
133.1550075621974
 20
-152.4220485730056
 10
133.1550075621974
 20
-152.4220485730056
 10
133.2084065422187
 20
-152.4644232474742
 10
133.2438910257168
 20
-152.4981851832296
 10
133.3103813685821
 20
-152.6063611814664
 10
133.3806613164812
 20
-152.7224608993194
 10
133.3992648321016
 20
-152.7755153697922
 10
133.4216579527557
 20
-152.840972184012
 10
133.4216579527557
 20
-152.840972184012
 10
133.2621500317886
 20
-152.9660291501265
 10
133.2621500317886
 20
-152.9660291501265
 97
        0
 97
        1
330
A7
 92
        1
 93
        1
 72
     4
 94
        3
 73
     0
 74
     0
 95
       77
 96
       73
 40
0.0
 40
0.0
 40
0.0
 40
0.0
 40
1.0
 40
1.0
 40
1.0
 40
2.0
 40
2.0
 40
2.0
 40
3.0
 40
3.0
 40
3.0
 40
4.0
 40
4.0
 40
4.0
 40
5.0
 40
5.0
 40
5.0
 40
6.0
 40
6.0
 40
6.0
 40
7.0
 40
7.0
 40
7.0
 40
8.0
 40
8.0
 40
8.0
 40
9.0
 40
9.0
 40
9.0
 40
10.0
 40
10.0
 40
10.0
 40
11.0
 40
11.0
 40
11.0
 40
12.0
 40
12.0
 40
12.0
 40
13.0
 40
13.0
 40
13.0
 40
14.0
 40
14.0
 40
14.0
 40
15.0
 40
15.0
 40
15.0
 40
16.0
 40
16.0
 40
16.0
 40
17.0
 40
17.0
 40
17.0
 40
18.0
 40
18.0
 40
18.0
 40
19.0
 40
19.0
 40
19.0
 40
20.0
 40
20.0
 40
20.0
 40
21.0
 40
21.0
 40
21.0
 40
22.0
 40
22.0
 40
22.0
 40
23.0
 40
23.0
 40
23.0
 40
24.0
 40
24.0
 40
24.0
 40
24.0
 10
133.936355218252
 20
-152.2401475313844
 10
133.8753770281631
 20
-152.2360134168021
 10
133.8161213858168
 20
-152.2360134168021
 10
133.7568657434705
 20
-152.2360134168021
 10
133.7568657434705
 20
-152.2360134168021
 10
133.7568657434705
 20
-153.0104708818863
 10
133.7568657434705
 20
-153.0104708818863
 10
133.7568657434705
 20
-153.2747097056049
 10
133.7547986861793
 20
-153.3043375267781
 10
133.7492865334029
 20
-153.3339653479512
 10
133.7196587122298
 20
-153.4672905432304
 10
133.6307752487103
 20
-153.475558772395
 10
133.4771239900682
 20
-153.475558772395
 10
133.4419840161187
 20
-153.475558772395
 10
133.4271701055321
 20
-153.475558772395
 10
133.3920301315825
 20
-153.4714246578127
 10
133.3920301315825
 20
-153.4714246578127
 10
133.2828206047001
 20
-153.2302679738452
 10
133.2828206047001
 20
-153.2302679738452
 10
133.384450921515
 20
-153.2619628523095
 10
133.4567979267052
 20
-153.2619628523095
 10
133.4771239900682
 20
-153.2619628523095
 10
133.5381021801571
 20
-153.2619628523095
 10
133.5677300013303
 20
-153.2450818844317
 10
133.571519606364
 20
-153.1878932993766
 10
133.571519606364
 20
-153.1751464460812
 10
133.5732421541067
 20
-153.0779947533972
 10
133.5732421541067
 20
-153.020806168342
 10
133.5732421541067
 20
-153.020806168342
 10
133.5732421541067
 20
-152.2339463595109
 10
133.5732421541067
 20
-152.2339463595109
 10
133.5732421541067
 20
-152.2339463595109
 10
133.3158935213585
 20
-152.2339463595109
 10
133.3158935213585
 20
-152.2339463595109
 10
133.1880804788557
 20
-152.2339463595109
 10
133.060267436353
 20
-152.2401475313844
 10
132.9345214511413
 20
-152.2528943846798
 10
132.9345214511413
 20
-152.2528943846798
 10
132.9345214511413
 20
-152.0454996364678
 10
132.9345214511413
 20
-152.0454996364678
 10
133.0661240986779
 20
-152.0582464897632
 10
133.2566378790122
 20
-152.062725113894
 10
133.3158935213585
 20
-152.062725113894
 10
133.3158935213585
 20
-152.062725113894
 10
133.5732421541067
 20
-152.062725113894
 10
133.5732421541067
 20
-152.062725113894
 10
133.571519606364
 20
-151.7940076660445
 10
133.571519606364
 20
-151.7178710558205
 10
133.5639403962965
 20
-151.5697319499548
 10
133.5639403962965
 20
-151.5697319499548
 10
133.7899386601289
 20
-151.6076280002925
 10
133.7899386601289
 20
-151.6076280002925
 10
133.8030300229728
 20
-151.6096950575837
 10
133.8161213858168
 20
-151.6162407390056
 10
133.8161213858168
 20
-151.6372558214657
 10
133.8161213858168
 20
-151.6565483561831
 10
133.8102647234919
 20
-151.6586154134742
 10
133.7603108389558
 20
-151.6923773492297
 10
133.7568657434705
 20
-151.7705810167448
 10
133.7568657434705
 20
-151.7853949273314
 10
133.7568657434705
 20
-152.062725113894
 10
133.9122395498553
 20
-152.0582464897632
 10
133.9287760081845
 20
-152.0582464897632
 10
133.9584038293576
 20
-152.0541123751809
 10
134.0028455611173
 20
-152.0499782605986
 10
134.0066351661511
 20
-152.0479112033074
 10
134.0455647451344
 20
-152.0454996364678
 10
134.0455647451344
 20
-152.0454996364678
 10
134.0455647451344
 20
-152.2528943846798
 10
134.0455647451344
 20
-152.2528943846798
 10
134.019726528995
 20
-152.2508273273887
 10
133.9714951922016
 20
-152.2422145886755
 10
133.936355218252
 20
-152.2401475313844
 97
        0
 97
        1
330
A8
 92
        1
 93
        1
 72
     4
 94
        3
 73
     0
 74
     0
 95
       53
 96
       49
 40
0.0
 40
0.0
 40
0.0
 40
0.0
 40
1.0
 40
1.0
 40
1.0
 40
2.0
 40
2.0
 40
2.0
 40
3.0
 40
3.0
 40
3.0
 40
4.0
 40
4.0
 40
4.0
 40
5.0
 40
5.0
 40
5.0
 40
6.0
 40
6.0
 40
6.0
 40
7.0
 40
7.0
 40
7.0
 40
8.0
 40
8.0
 40
8.0
 40
9.0
 40
9.0
 40
9.0
 40
10.0
 40
10.0
 40
10.0
 40
11.0
 40
11.0
 40
11.0
 40
12.0
 40
12.0
 40
12.0
 40
13.0
 40
13.0
 40
13.0
 40
14.0
 40
14.0
 40
14.0
 40
15.0
 40
15.0
 40
15.0
 40
16.0
 40
16.0
 40
16.0
 40
16.0
 10
132.9290092983649
 20
-151.7409531955717
 10
132.8697536560186
 20
-151.8932264160197
 10
132.832546624778
 20
-151.9714300835349
 10
132.7994737081196
 20
-152.0392984645943
 10
132.8363362298117
 20
-152.0603135470543
 10
132.8401258348455
 20
-152.062725113894
 10
132.8401258348455
 20
-152.0775390244806
 10
132.8401258348455
 20
-152.0899413682275
 10
132.8104980136723
 20
-152.1240478135315
 10
132.8011962558622
 20
-152.1323160426961
 10
132.7994737081196
 20
-152.3290309949038
 10
132.7994737081196
 20
-152.3503905869124
 10
132.7994737081196
 20
-152.4837157821916
 10
132.7974066508284
 20
-152.4961181259384
 10
132.7974066508284
 20
-152.510932036525
 10
132.7974066508284
 20
-152.5257459471116
 10
132.7974066508284
 20
-152.5257459471116
 10
132.7974066508284
 20
-153.0611137855194
 10
132.7974066508284
 20
-153.0611137855194
 10
132.7974066508284
 20
-153.1331162811611
 10
132.8011962558622
 20
-153.3677272837067
 10
132.8087754659297
 20
-153.4779703392346
 10
132.8087754659297
 20
-153.4779703392346
 10
132.5955240553928
 20
-153.4779703392346
 10
132.5955240553928
 20
-153.4779703392346
 10
132.6158501187557
 20
-153.3191514373647
 10
132.6217067810807
 20
-153.0779947533972
 10
132.6217067810807
 20
-153.0569796709371
 10
132.6217067810807
 20
-153.0569796709371
 10
132.6217067810807
 20
-152.3397107909081
 10
132.6217067810807
 20
-152.3397107909081
 10
132.5421250753714
 20
-152.4540879610184
 10
132.4883815858015
 20
-152.5129990938162
 10
132.4511745545608
 20
-152.5553737682847
 10
132.4511745545608
 20
-152.5553737682847
 10
132.2844319330747
 20
-152.4179144584233
 10
132.2844319330747
 20
-152.4179144584233
 10
132.5307562602701
 20
-152.2022514810466
 10
132.6992214294988
 20
-151.8932264160197
 10
132.7974066508284
 20
-151.5569850966593
 10
132.7974066508284
 20
-151.5569850966593
 10
132.9899874884539
 20
-151.6713622667696
 10
132.9899874884539
 20
-151.6713622667696
 10
133.0010117940067
 20
-151.6775634386431
 10
133.0085910040742
 20
-151.6816975532254
 10
133.0085910040742
 20
-151.696511463812
 10
133.0085910040742
 20
-151.7220051704028
 10
132.9937770934876
 20
-151.7261392849851
 10
132.9290092983649
 20
-151.7409531955717
 97
        0
 97
        1
330
A9
 75
     2
 76
     1
 98
        1
 10
0.0
 20
0.0
450
        0
451
        0
460
0.0
461
0.0
452
        0
462
0.0
453
        0
470

  0
ENDBLK
  5
84
330
81
100
AcDbEntity
  8
0
100
AcDbBlockEnd
  0
BLOCK
  5
B0
330
AE
100
AcDbEntity
  8
0
100
AcDbBlockBegin
  2
Block_3
 70
     0
 10
0.0
 20
0.0
 30
0.0
  3
Block_3
  1

  0
LINE
  5
B2
330
AE
100
AcDbEntity
  8
レイヤー 1
 62
   250
420
  2299925
370
    25
100
AcDbLine
 10
111.1052535385314
 20
-152.4283209822778
 30
0.0
 11
100.1053060666479
 21
-152.4283209822778
 31
0.0
  0
LINE
  5
B3
330
AE
100
AcDbEntity
  8
レイヤー 1
 62
   250
420
  2299925
370
    25
100
AcDbLine
 10
80.10442991137157
 20
-146.9280568169862
 30
0.0
 11
80.10442991137157
 21
-147.4282957057499
 31
0.0
  0
LINE
  5
B4
330
AE
100
AcDbEntity
  8
レイヤー 1
 62
   250
420
  2299925
370
    25
100
AcDbLine
 10
100.1053060666479
 20
-147.4282957057499
 30
0.0
 11
80.10442991137157
 21
-147.4282957057499
 31
0.0
  0
LINE
  5
B5
330
AE
100
AcDbEntity
  8
レイヤー 1
 62
   250
420
  2299925
370
    25
100
AcDbLine
 10
80.10442991137157
 20
-146.9280568169862
 30
0.0
 11
80.61846241124326
 21
-147.3101151502242
 31
0.0
  0
LINE
  5
B6
330
AE
100
AcDbEntity
  8
レイヤー 1
 62
   250
420
  2299925
370
    25
100
AcDbLine
 10
80.61846241124326
 20
-147.3101151502242
 30
0.0
 11
81.10353185556643
 21
-146.892567372551
 31
0.0
  0
LINE
  5
B7
330
AE
100
AcDbEntity
  8
レイヤー 1
 62
   250
420
  2299925
370
    25
100
AcDbLine
 10
81.61752907765995
 20
-147.2746257057884
 30
0.0
 11
82.10330407753865
 21
-146.8567251503371
 31
0.0
  0
LINE
  5
B8
330
AE
100
AcDbEntity
  8
レイヤー 1
 62
   250
420
  2299925
370
    25
100
AcDbLine
 10
81.10353185556643
 20
-146.892567372551
 30
0.0
 11
81.61752907765995
 21
-147.2746257057884
 31
0.0
  0
LINE
  5
B9
330
AE
100
AcDbEntity
  8
レイヤー 1
 62
   250
420
  2299925
370
    25
100
AcDbLine
 10
82.10330407753865
 20
-146.8567251503371
 30
0.0
 11
82.61730129963249
 21
-147.2387834835751
 31
0.0
  0
LINE
  5
BA
330
AE
100
AcDbEntity
  8
レイヤー 1
 62
   250
420
  2299925
370
    25
100
AcDbLine
 10
82.61730129963249
 20
-147.2387834835751
 30
0.0
 11
83.10237074395567
 21
-146.8212709836795
 31
0.0
  0
LINE
  5
BB
330
AE
100
AcDbEntity
  8
レイヤー 1
 62
   250
420
  2299925
370
    25
100
AcDbLine
 10
83.10237074395567
 20
-146.8212709836795
 30
0.0
 11
83.61636796604919
 21
-147.2029765391397
 31
0.0
  0
LINE
  5
BC
330
AE
100
AcDbEntity
  8
レイヤー 1
 62
   250
420
  2299925
370
    25
100
AcDbLine
 10
83.61636796604919
 20
-147.2029765391397
 30
0.0
 11
84.10143741037236
 21
-146.7854287614662
 31
0.0
  0
LINE
  5
BD
330
AE
100
AcDbEntity
  8
レイヤー 1
 62
   250
420
  2299925
370
    25
100
AcDbLine
 10
84.10143741037236
 20
-146.7854287614662
 30
0.0
 11
84.61546991024404
 21
-147.1671343169265
 31
0.0
  0
LINE
  5
BE
330
AE
100
AcDbEntity
  8
レイヤー 1
 62
   250
420
  2299925
370
    25
100
AcDbLine
 10
84.61546991024404
 20
-147.1671343169265
 30
0.0
 11
85.10120963234459
 21
-146.749586539253
 31
0.0
  0
LINE
  5
BF
330
AE
100
AcDbEntity
  8
レイヤー 1
 62
   250
420
  2299925
370
    25
100
AcDbLine
 10
85.10120963234459
 20
-146.749586539253
 30
0.0
 11
85.61520685443843
 21
-147.1316448724904
 31
0.0
  0
LINE
  5
C0
330
AE
100
AcDbEntity
  8
レイヤー 1
 62
   250
420
  2299925
370
    25
100
AcDbLine
 10
85.61520685443843
 20
-147.1316448724904
 30
0.0
 11
86.10027629876162
 21
-146.7140970948175
 31
0.0
  0
LINE
  5
C1
330
AE
100
AcDbEntity
  8
レイヤー 1
 62
   250
420
  2299925
370
    25
100
AcDbLine
 10
86.10027629876162
 20
-146.7140970948175
 30
0.0
 11
86.61430879863296
 21
-147.0961554280552
 31
0.0
  0
LINE
  5
C2
330
AE
100
AcDbEntity
  8
レイヤー 1
 62
   250
420
  2299925
370
    25
100
AcDbLine
 10
86.61430879863296
 20
-147.0961554280552
 30
0.0
 11
87.10004852073382
 21
-146.6782901503818
 31
0.0
  0
LINE
  5
C3
330
AE
100
AcDbEntity
  8
レイヤー 1
 62
   250
420
  2299925
370
    25
100
AcDbLine
 10
87.61408102060551
 20
-147.0603484836198
 30
0.0
 11
88.09915046492868
 21
-146.6428007059463
 31
0.0
  0
LINE
  5
C4
330
AE
100
AcDbEntity
  8
レイヤー 1
 62
   250
420
  2299925
370
    25
100
AcDbLine
 10
87.10004852073382
 20
-146.6782901503818
 30
0.0
 11
87.61408102060551
 21
-147.0603484836198
 31
0.0
  0
LINE
  5
C5
330
AE
100
AcDbEntity
  8
レイヤー 1
 62
   250
420
  2299925
370
    25
100
AcDbLine
 10
88.09915046492868
 20
-146.6428007059463
 30
0.0
 11
88.6131476870222
 21
-147.0245062614065
 31
0.0
  0
LINE
  5
C6
330
AE
100
AcDbEntity
  8
レイヤー 1
 62
   250
420
  2299925
370
    25
100
AcDbLine
 10
88.6131476870222
 20
-147.0245062614065
 30
0.0
 11
89.09888740912306
 21
-146.606958483733
 31
0.0
  0
LINE
  5
C7
330
AE
100
AcDbEntity
  8
レイヤー 1
 62
   250
420
  2299925
370
    25
100
AcDbLine
 10
89.61221435343922
 20
-146.9886993169708
 30
0.0
 11
90.0979893533176
 21
-146.5711515392976
 31
0.0
  0
LINE
  5
C8
330
AE
100
AcDbEntity
  8
レイヤー 1
 62
   250
420
  2299925
370
    25
100
AcDbLine
 10
89.09888740912306
 20
-146.606958483733
 30
0.0
 11
89.61221435343922
 21
-146.9886993169708
 31
0.0
  0
LINE
  5
C9
330
AE
100
AcDbEntity
  8
レイヤー 1
 62
   250
420
  2299925
370
    25
100
AcDbLine
 10
90.61198657541146
 20
-146.9532098725353
 30
0.0
 11
91.09705601973463
 21
-146.5356620948618
 31
0.0
  0
LINE
  5
CA
330
AE
100
AcDbEntity
  8
レイヤー 1
 62
   250
420
  2299925
370
    25
100
AcDbLine
 10
90.0979893533176
 20
-146.5711515392976
 30
0.0
 11
90.61198657541146
 21
-146.9532098725353
 31
0.0
  0
LINE
  5
CB
330
AE
100
AcDbEntity
  8
レイヤー 1
 62
   250
420
  2299925
370
    25
100
AcDbLine
 10
91.09705601973463
 20
-146.5356620948618
 30
0.0
 11
91.61105324182878
 21
-146.9177204280998
 31
0.0
  0
LINE
  5
CC
330
AE
100
AcDbEntity
  8
レイヤー 1
 62
   250
420
  2299925
370
    25
100
AcDbLine
 10
91.61105324182878
 20
-146.9177204280998
 30
0.0
 11
92.09682824170684
 21
-146.4998198726486
 31
0.0
  0
LINE
  5
CD
330
AE
100
AcDbEntity
  8
レイヤー 1
 62
   250
420
  2299925
370
    25
100
AcDbLine
 10
92.09682824170684
 20
-146.4998198726486
 30
0.0
 11
92.61082546380068
 21
-146.8818782058866
 31
0.0
  0
LINE
  5
CE
330
AE
100
AcDbEntity
  8
レイヤー 1
 62
   250
420
  2299925
370
    25
100
AcDbLine
 10
92.61082546380068
 20
-146.8818782058866
 30
0.0
 11
93.09589490812385
 21
-146.4643304282134
 31
0.0
  0
LINE
  5
CF
330
AE
100
AcDbEntity
  8
レイヤー 1
 62
   250
420
  2299925
370
    25
100
AcDbLine
 10
93.09589490812385
 20
-146.4643304282134
 30
0.0
 11
93.60989213021737
 21
-146.8460712614512
 31
0.0
  0
LINE
  5
D0
330
AE
100
AcDbEntity
  8
レイヤー 1
 62
   250
420
  2299925
370
    25
100
AcDbLine
 10
93.60989213021737
 20
-146.8460712614512
 30
0.0
 11
94.09566713009608
 21
-146.4285234837777
 31
0.0
  0
LINE
  5
D1
330
AE
100
AcDbEntity
  8
レイヤー 1
 62
   250
420
  2299925
370
    25
100
AcDbLine
 10
94.09566713009608
 20
-146.4285234837777
 30
0.0
 11
94.60966435219024
 21
-146.8102290392379
 31
0.0
  0
LINE
  5
D2
330
AE
100
AcDbEntity
  8
レイヤー 1
 62
   250
420
  2299925
370
    25
100
AcDbLine
 10
94.60966435219024
 20
-146.8102290392379
 30
0.0
 11
95.09473379651343
 21
-146.3926812615644
 31
0.0
  0
LINE
  5
D3
330
AE
100
AcDbEntity
  8
レイヤー 1
 62
   250
420
  2299925
370
    25
100
AcDbLine
 10
95.09473379651343
 20
-146.3926812615644
 30
0.0
 11
95.60876534803092
 21
-146.7747395948021
 31
0.0
  0
LINE
  5
D4
330
AE
100
AcDbEntity
  8
レイヤー 1
 62
   250
420
  2299925
370
    25
100
AcDbLine
 10
95.60876534803092
 20
-146.7747395948021
 30
0.0
 11
96.0938347800999
 21
-146.357191817129
 31
0.0
  0
LINE
  5
D5
330
AE
100
AcDbEntity
  8
レイヤー 1
 62
   250
420
  2299925
370
    25
100
AcDbLine
 10
96.0938347800999
 20
-146.357191817129
 30
0.0
 11
96.6078319892096
 21
-146.7392501503666
 31
0.0
  0
LINE
  5
D6
330
AE
100
AcDbEntity
  8
レイヤー 1
 62
   250
420
  2299925
370
    25
100
AcDbLine
 10
96.6078319892096
 20
-146.7392501503666
 30
0.0
 11
97.09357268490201
 21
-146.3213848726932
 31
0.0
  0
LINE
  5
D7
330
AE
100
AcDbEntity
  8
レイヤー 1
 62
   250
420
  2299925
370
    25
100
AcDbLine
 10
97.09357268490201
 20
-146.3213848726932
 30
0.0
 11
97.60760418592552
 21
-146.7034432059312
 31
0.0
  0
LINE
  5
D8
330
AE
100
AcDbEntity
  8
レイヤー 1
 62
   250
420
  2299925
370
    25
100
AcDbLine
 10
97.60760418592552
 20
-146.7034432059312
 30
0.0
 11
98.09267361799449
 21
-146.2858954282577
 31
0.0
  0
LINE
  5
D9
330
AE
100
AcDbEntity
  8
レイヤー 1
 62
   250
420
  2299925
370
    25
100
AcDbLine
 10
98.09267361799449
 20
-146.2858954282577
 30
0.0
 11
98.60667082710355
 21
-146.667600983718
 31
0.0
  0
LINE
  5
DA
330
AE
100
AcDbEntity
  8
レイヤー 1
 62
   250
420
  2299925
370
    25
100
AcDbLine
 10
98.60667082710355
 20
-146.667600983718
 30
0.0
 11
99.09174025917282
 21
-146.2500532060445
 31
0.0
  0
LINE
  5
DB
330
AE
100
AcDbEntity
  8
レイヤー 1
 62
   250
420
  2299925
370
    25
100
AcDbLine
 10
99.09174025917282
 20
-146.2500532060445
 30
0.0
 11
99.60573746828188
 21
-146.6317587615047
 31
0.0
  0
LINE
  5
DC
330
AE
100
AcDbEntity
  8
レイヤー 1
 62
   250
420
  2299925
370
    25
100
AcDbLine
 10
99.60573746828188
 20
-146.6317587615047
 30
0.0
 11
100.0915124558887
 21
-146.2142109838312
 31
0.0
  0
LINE
  5
DD
330
AE
100
AcDbEntity
  8
レイヤー 1
 62
   250
420
  2299925
370
    25
100
AcDbLine
 10
100.165509665108
 20
-146.165986261621
 30
0.0
 11
101.1057485411242
 21
-146.165986261621
 31
0.0
  0
LINE
  5
DE
330
AE
100
AcDbEntity
  8
レイヤー 1
 62
   250
420
  2299925
370
    25
100
AcDbLine
 10
101.1057485411242
 20
-146.165986261621
 30
0.0
 11
101.1057485411242
 21
-151.4278784825279
 31
0.0
  0
LINE
  5
DF
330
AE
100
AcDbEntity
  8
レイヤー 1
 62
   250
420
  2299925
370
    25
100
AcDbLine
 10
100.1053060666479
 20
-147.4282957057499
 30
0.0
 11
100.1053060666479
 21
-152.4283209822778
 31
0.0
  0
LINE
  5
E0
330
AE
100
AcDbEntity
  8
レイヤー 1
 62
   250
420
  2299925
370
    25
100
AcDbLine
 10
110.1054813418155
 20
-151.4278784825279
 30
0.0
 11
101.1057485411242
 21
-151.4278784825279
 31
0.0
  0
LINE
  5
E1
330
AE
100
AcDbEntity
  8
レイヤー 1
 62
   250
420
  2299925
370
    25
100
AcDbLine
 10
121.1132413109469
 20
-146.5711515392976
 30
0.0
 11
120.5992441018378
 21
-146.9532098725353
 31
0.0
  0
LINE
  5
E2
330
AE
100
AcDbEntity
  8
レイヤー 1
 62
   250
420
  2299925
370
    25
100
AcDbLine
 10
126.1100226498325
 20
-146.749586539253
 30
0.0
 11
125.5960254277393
 21
-147.1316448724904
 31
0.0
  0
LINE
  5
E3
330
AE
100
AcDbEntity
  8
レイヤー 1
 62
   250
420
  2299925
370
    25
100
AcDbLine
 10
121.5983107430162
 20
-146.9886993169708
 30
0.0
 11
121.1132413109469
 21
-146.5711515392976
 31
0.0
  0
LINE
  5
E4
330
AE
100
AcDbEntity
  8
レイヤー 1
 62
   250
420
  2299925
370
    25
100
AcDbLine
 10
122.5980829397321
 20
-147.0245062614065
 30
0.0
 11
122.1123448730546
 21
-146.606958483733
 31
0.0
  0
LINE
  5
E5
330
AE
100
AcDbEntity
  8
レイヤー 1
 62
   250
420
  2299925
370
    25
100
AcDbLine
 10
120.5992441018378
 20
-146.9532098725353
 30
0.0
 11
120.1134691142309
 21
-146.5356620948618
 31
0.0
  0
LINE
  5
E6
330
AE
100
AcDbEntity
  8
レイヤー 1
 62
   250
420
  2299925
370
    25
100
AcDbLine
 10
122.1123448730546
 20
-146.606958483733
 30
0.0
 11
121.5983107430162
 21
-146.9886993169708
 31
0.0
  0
LINE
  5
E7
330
AE
100
AcDbEntity
  8
レイヤー 1
 62
   250
420
  2299925
370
    25
100
AcDbLine
 10
130.1077004266109
 20
-146.892567372551
 30
0.0
 11
129.5937032045171
 21
-147.2746257057884
 31
0.0
  0
LINE
  5
E8
330
AE
100
AcDbEntity
  8
レイヤー 1
 62
   250
420
  2299925
370
    25
100
AcDbLine
 10
123.1120801488411
 20
-146.6428007059463
 30
0.0
 11
122.5980829397321
 21
-147.0245062614065
 31
0.0
  0
LINE
  5
E9
330
AE
100
AcDbEntity
  8
レイヤー 1
 62
   250
420
  2299925
370
    25
100
AcDbLine
 10
124.1111837614429
 20
-146.6782901503818
 30
0.0
 11
123.5971495809104
 21
-147.0603484836198
 31
0.0
  0
LINE
  5
EA
330
AE
100
AcDbEntity
  8
レイヤー 1
 62
   250
420
  2299925
370
    25
100
AcDbLine
 10
110.1054813140004
 20
-146.165986261621
 30
0.0
 11
110.1054813140004
 21
-151.4278784825279
 31
0.0
  0
LINE
  5
EB
330
AE
100
AcDbEntity
  8
レイヤー 1
 62
   250
420
  2299925
370
    25
100
AcDbLine
 10
123.5971495809104
 20
-147.0603484836198
 30
0.0
 11
123.1120801488411
 21
-146.6428007059463
 31
0.0
  0
LINE
  5
EC
330
AE
100
AcDbEntity
  8
レイヤー 1
 62
   250
420
  2299925
370
    25
100
AcDbLine
 10
124.5969217776263
 20
-147.0961554280552
 30
0.0
 11
124.1111837614429
 21
-146.6782901503818
 31
0.0
  0
LINE
  5
ED
330
AE
100
AcDbEntity
  8
レイヤー 1
 62
   250
420
  2299925
370
    25
100
AcDbLine
 10
129.5937032045171
 20
-147.2746257057884
 30
0.0
 11
129.1079282046384
 21
-146.8567251503371
 31
0.0
  0
LINE
  5
EE
330
AE
100
AcDbEntity
  8
レイヤー 1
 62
   250
420
  2299925
370
    25
100
AcDbLine
 10
125.1102504278606
 20
-146.7140970948175
 30
0.0
 11
124.5969217776263
 21
-147.0961554280552
 31
0.0
  0
LINE
  5
EF
330
AE
100
AcDbEntity
  8
レイヤー 1
 62
   250
420
  2299925
370
    25
100
AcDbLine
 10
125.5960254277393
 20
-147.1316448724904
 30
0.0
 11
125.1102504278606
 21
-146.7140970948175
 31
0.0
  0
LINE
  5
F0
330
AE
100
AcDbEntity
  8
レイヤー 1
 62
   250
420
  2299925
370
    25
100
AcDbLine
 10
130.5927698709341
 20
-147.3101151502242
 30
0.0
 11
130.1077004266109
 21
-146.892567372551
 31
0.0
  0
LINE
  5
F1
330
AE
100
AcDbEntity
  8
レイヤー 1
 62
   250
420
  2299925
370
    25
100
AcDbLine
 10
127.1090893162495
 20
-146.7854287614662
 30
0.0
 11
126.5950920941556
 21
-147.1671343169265
 31
0.0
  0
LINE
  5
F2
330
AE
100
AcDbEntity
  8
レイヤー 1
 62
   250
420
  2299925
370
    25
100
AcDbLine
 10
128.108861538222
 20
-146.8212709836795
 30
0.0
 11
127.5948643161275
 21
-147.2029765391397
 31
0.0
  0
LINE
  5
F3
330
AE
100
AcDbEntity
  8
レイヤー 1
 62
   250
420
  2299925
370
    25
100
AcDbLine
 10
127.5948643161275
 20
-147.2029765391397
 30
0.0
 11
127.1090893162495
 21
-146.7854287614662
 31
0.0
  0
LINE
  5
F4
330
AE
100
AcDbEntity
  8
レイヤー 1
 62
   250
420
  2299925
370
    25
100
AcDbLine
 10
131.1067670930279
 20
-146.9280568169862
 30
0.0
 11
130.5927698709341
 21
-147.3101151502242
 31
0.0
  0
LINE
  5
F5
330
AE
100
AcDbEntity
  8
レイヤー 1
 62
   250
420
  2299925
370
    25
100
AcDbLine
 10
126.5950920941556
 20
-147.1671343169265
 30
0.0
 11
126.1100226498325
 21
-146.749586539253
 31
0.0
  0
LINE
  5
F6
330
AE
100
AcDbEntity
  8
レイヤー 1
 62
   250
420
  2299925
370
    25
100
AcDbLine
 10
129.1079282046384
 20
-146.8567251503371
 30
0.0
 11
128.5939309825452
 21
-147.2387834835751
 31
0.0
  0
LINE
  5
F7
330
AE
100
AcDbEntity
  8
レイヤー 1
 62
   250
420
  2299925
370
    25
100
AcDbLine
 10
128.5939309825452
 20
-147.2387834835751
 30
0.0
 11
128.108861538222
 21
-146.8212709836795
 31
0.0
  0
LINE
  5
F8
330
AE
100
AcDbEntity
  8
レイヤー 1
 62
   250
420
  2299925
370
    25
100
AcDbLine
 10
131.1067670930279
 20
-146.9280568169862
 30
0.0
 11
131.1067670930279
 21
-147.4282957057499
 31
0.0
  0
LINE
  5
F9
330
AE
100
AcDbEntity
  8
レイヤー 1
 62
   250
420
  2299925
370
    25
100
AcDbLine
 10
111.1052535107164
 20
-147.4282957057499
 30
0.0
 11
131.1067670930279
 21
-147.4282957057499
 31
0.0
  0
LINE
  5
FA
330
AE
100
AcDbEntity
  8
レイヤー 1
 62
   250
420
  2299925
370
    25
100
AcDbLine
 10
120.1134691142309
 20
-146.5356620948618
 30
0.0
 11
119.5994719051219
 21
-146.9177204280998
 31
0.0
  0
LINE
  5
FB
330
AE
100
AcDbEntity
  8
レイヤー 1
 62
   250
420
  2299925
370
    25
100
AcDbLine
 10
119.5994719051219
 20
-146.9177204280998
 30
0.0
 11
119.1144024730526
 21
-146.4998198726486
 31
0.0
  0
LINE
  5
FC
330
AE
100
AcDbEntity
  8
レイヤー 1
 62
   250
420
  2299925
370
    25
100
AcDbLine
 10
119.1144024730526
 20
-146.4998198726486
 30
0.0
 11
118.6004052639435
 21
-146.8818782058866
 31
0.0
  0
LINE
  5
FD
330
AE
100
AcDbEntity
  8
レイヤー 1
 62
   250
420
  2299925
370
    25
100
AcDbLine
 10
118.6004052639435
 20
-146.8818782058866
 30
0.0
 11
118.1153358318743
 21
-146.4643304282134
 31
0.0
  0
LINE
  5
FE
330
AE
100
AcDbEntity
  8
レイヤー 1
 62
   250
420
  2299925
370
    25
100
AcDbLine
 10
118.1153358318743
 20
-146.4643304282134
 30
0.0
 11
117.6013033449883
 21
-146.8460712614512
 31
0.0
  0
LINE
  5
FF
330
AE
100
AcDbEntity
  8
レイヤー 1
 62
   250
420
  2299925
370
    25
100
AcDbLine
 10
117.6013033449883
 20
-146.8460712614512
 30
0.0
 11
117.1155636351577
 21
-146.4285234837777
 31
0.0
  0
LINE
  5
100
330
AE
100
AcDbEntity
  8
レイヤー 1
 62
   250
420
  2299925
370
    25
100
AcDbLine
 10
117.1155636351577
 20
-146.4285234837777
 30
0.0
 11
116.6015664260493
 21
-146.8102290392379
 31
0.0
  0
LINE
  5
101
330
AE
100
AcDbEntity
  8
レイヤー 1
 62
   250
420
  2299925
370
    25
100
AcDbLine
 10
116.6015664260493
 20
-146.8102290392379
 30
0.0
 11
116.11649699398
 21
-146.3926812615644
 31
0.0
  0
LINE
  5
102
330
AE
100
AcDbEntity
  8
レイヤー 1
 62
   250
420
  2299925
370
    25
100
AcDbLine
 10
116.11649699398
 20
-146.3926812615644
 30
0.0
 11
115.6024645070941
 21
-146.7747395948021
 31
0.0
  0
LINE
  5
103
330
AE
100
AcDbEntity
  8
レイヤー 1
 62
   250
420
  2299925
370
    25
100
AcDbLine
 10
115.6024645070941
 20
-146.7747395948021
 30
0.0
 11
115.1167247972641
 21
-146.357191817129
 31
0.0
  0
LINE
  5
104
330
AE
100
AcDbEntity
  8
レイヤー 1
 62
   250
420
  2299925
370
    25
100
AcDbLine
 10
115.1167247972641
 20
-146.357191817129
 30
0.0
 11
114.6026923103782
 21
-146.7392501503666
 31
0.0
  0
LINE
  5
105
330
AE
100
AcDbEntity
  8
レイヤー 1
 62
   250
420
  2299925
370
    25
100
AcDbLine
 10
114.6026923103782
 20
-146.7392501503666
 30
0.0
 11
114.1176228783089
 21
-146.3213848726932
 31
0.0
  0
LINE
  5
106
330
AE
100
AcDbEntity
  8
レイヤー 1
 62
   250
420
  2299925
370
    25
100
AcDbLine
 10
114.1176228783089
 20
-146.3213848726932
 30
0.0
 11
113.6036256691998
 21
-146.7034432059312
 31
0.0
  0
LINE
  5
107
330
AE
100
AcDbEntity
  8
レイヤー 1
 62
   250
420
  2299925
370
    25
100
AcDbLine
 10
113.6036256691998
 20
-146.7034432059312
 30
0.0
 11
113.1185562371305
 21
-146.2858954282577
 31
0.0
  0
LINE
  5
108
330
AE
100
AcDbEntity
  8
レイヤー 1
 62
   250
420
  2299925
370
    25
100
AcDbLine
 10
113.1185562371305
 20
-146.2858954282577
 30
0.0
 11
112.6045590280214
 21
-146.667600983718
 31
0.0
  0
LINE
  5
109
330
AE
100
AcDbEntity
  8
レイヤー 1
 62
   250
420
  2299925
370
    25
100
AcDbLine
 10
112.6045590280214
 20
-146.667600983718
 30
0.0
 11
112.1187840404146
 21
-146.2500532060445
 31
0.0
  0
LINE
  5
10A
330
AE
100
AcDbEntity
  8
レイヤー 1
 62
   250
420
  2299925
370
    25
100
AcDbLine
 10
112.1187840404146
 20
-146.2500532060445
 30
0.0
 11
111.6047868313055
 21
-146.6317587615047
 31
0.0
  0
LINE
  5
10B
330
AE
100
AcDbEntity
  8
レイヤー 1
 62
   250
420
  2299925
370
    25
100
AcDbLine
 10
111.6047868313055
 20
-146.6317587615047
 30
0.0
 11
111.1197173992362
 21
-146.2142109838312
 31
0.0
  0
LINE
  5
10C
330
AE
100
AcDbEntity
  8
レイヤー 1
 62
   250
420
  2299925
370
    25
100
AcDbLine
 10
111.0457201900169
 20
-146.165986261621
 30
0.0
 11
110.1054813140004
 21
-146.165986261621
 31
0.0
  0
LINE
  5
10D
330
AE
100
AcDbEntity
  8
レイヤー 1
 62
   250
420
  2299925
370
    25
100
AcDbLine
 10
111.1052535107164
 20
-147.4282957057499
 30
0.0
 11
111.1052535107164
 21
-152.4283209822778
 31
0.0
  0
SPLINE
  5
10E
330
AE
100
AcDbEntity
  8
レイヤー 1
 62
   250
420
  2299925
370
     9
100
AcDbSpline
210
0.0
220
0.0
230
1.0
 70
     9
 71
     3
 72
    17
 73
    13
 74
     0
 42
0.0000000001
 43
0.0000000001
 40
0.0
 40
0.0
 40
0.0
 40
0.0
 40
1.0
 40
1.0
 40
1.0
 40
2.0
 40
2.0
 40
2.0
 40
3.0
 40
3.0
 40
3.0
 40
4.0
 40
4.0
 40
4.0
 40
4.0
 10
80.20433657801321
 20
-142.1662270959542
 30
0.0
 10
80.20433657801321
 20
-142.1107704293015
 30
0.0
 10
80.15956907802433
 20
-142.0660029293126
 30
0.0
 10
80.10442991137157
 20
-142.0660029293126
 30
0.0
 10
80.04932602249633
 20
-142.0660029293126
 30
0.0
 10
80.00452324472993
 20
-142.1107704293015
 30
0.0
 10
80.00452324472993
 20
-142.1662270959542
 30
0.0
 10
80.00452324472993
 20
-142.2213662626072
 30
0.0
 10
80.04932602249633
 20
-142.2661337625961
 30
0.0
 10
80.10442991137157
 20
-142.2661337625961
 30
0.0
 10
80.15956907802433
 20
-142.2661337625961
 30
0.0
 10
80.20433657801321
 20
-142.2213662626072
 30
0.0
 10
80.20433657801321
 20
-142.1662270959542
 30
0.0
  0
CIRCLE
  5
10F
330
AE
100
AcDbEntity
  8
レイヤー 1
 62
   250
420
  2299925
370
     9
100
AcDbCircle
 10
77.87476852304038
 20
-146.9280568169862
 30
0.0
 40
0.0999066666418382
  0
CIRCLE
  5
110
330
AE
100
AcDbEntity
  8
レイヤー 1
 62
   250
420
  2299925
370
     9
100
AcDbCircle
 10
77.87476852304038
 20
-147.4282957057499
 30
0.0
 40
0.0999066666418382
  0
CIRCLE
  5
111
330
AE
100
AcDbEntity
  8
レイヤー 1
 62
   250
420
  2299925
370
     9
100
AcDbCircle
 10
77.87476852304038
 20
-152.4283209822778
 30
0.0
 40
0.0999066666418382
  0
SPLINE
  5
112
330
AE
100
AcDbEntity
  8
レイヤー 1
 62
   250
420
  2299925
370
     9
100
AcDbSpline
210
0.0
220
0.0
230
1.0
 70
     9
 71
     3
 72
    17
 73
    13
 74
     0
 42
0.0000000001
 43
0.0000000001
 40
0.0
 40
0.0
 40
0.0
 40
0.0
 40
1.0
 40
1.0
 40
1.0
 40
2.0
 40
2.0
 40
2.0
 40
3.0
 40
3.0
 40
3.0
 40
4.0
 40
4.0
 40
4.0
 40
4.0
 10
101.2056552052423
 20
-142.1662270959542
 30
0.0
 10
101.2056552052423
 20
-142.1107704293015
 30
0.0
 10
101.1608524286079
 20
-142.0660029293126
 30
0.0
 10
101.1057485411242
 20
-142.0660029293126
 30
0.0
 10
101.0499390981039
 20
-142.0660029293126
 30
0.0
 10
101.0051363214691
 20
-142.1107704293015
 30
0.0
 10
101.0051363214691
 20
-142.1662270959542
 30
0.0
 10
101.0051363214691
 20
-142.2213662626072
 30
0.0
 10
101.0499390981039
 20
-142.2661337625961
 30
0.0
 10
101.1057485411242
 20
-142.2661337625961
 30
0.0
 10
101.1608524286079
 20
-142.2661337625961
 30
0.0
 10
101.2056552052423
 20
-142.2213662626072
 30
0.0
 10
101.2056552052423
 20
-142.1662270959542
 30
0.0
  0
SPLINE
  5
113
330
AE
100
AcDbEntity
  8
レイヤー 1
 62
   250
420
  2299925
370
     9
100
AcDbSpline
210
0.0
220
0.0
230
1.0
 70
     9
 71
     3
 72
    17
 73
    13
 74
     0
 42
0.0000000001
 43
0.0000000001
 40
0.0
 40
0.0
 40
0.0
 40
0.0
 40
1.0
 40
1.0
 40
1.0
 40
2.0
 40
2.0
 40
2.0
 40
3.0
 40
3.0
 40
3.0
 40
4.0
 40
4.0
 40
4.0
 40
4.0
 10
131.2067071645522
 20
-142.1662270959542
 30
0.0
 10
131.2067071645522
 20
-142.1107704293015
 30
0.0
 10
131.1619043879175
 20
-142.0660029293126
 30
0.0
 10
131.1067670930279
 20
-142.0660029293126
 30
0.0
 10
131.0516613351744
 20
-142.0660029293126
 30
0.0
 10
131.0068585585397
 20
-142.1107704293015
 30
0.0
 10
131.0068585585397
 20
-142.1662270959542
 30
0.0
 10
131.0068585585397
 20
-142.2213662626072
 30
0.0
 10
131.0516613351744
 20
-142.2661337625961
 30
0.0
 10
131.1067670930279
 20
-142.2661337625961
 30
0.0
 10
131.1619043879175
 20
-142.2661337625961
 30
0.0
 10
131.2067071645522
 20
-142.2213662626072
 30
0.0
 10
131.2067071645522
 20
-142.1662270959542
 30
0.0
  0
SPLINE
  5
114
330
AE
100
AcDbEntity
  8
レイヤー 1
 62
   250
420
  2299925
370
     9
100
AcDbSpline
210
0.0
220
0.0
230
1.0
 70
     9
 71
     3
 72
    17
 73
    13
 74
     0
 42
0.0000000001
 43
0.0000000001
 40
0.0
 40
0.0
 40
0.0
 40
0.0
 40
1.0
 40
1.0
 40
1.0
 40
2.0
 40
2.0
 40
2.0
 40
3.0
 40
3.0
 40
3.0
 40
4.0
 40
4.0
 40
4.0
 40
4.0
 10
110.2053893204757
 20
-142.1662270959542
 30
0.0
 10
110.2053893204757
 20
-142.1107704293015
 30
0.0
 10
110.1605865427089
 20
-142.0660029293126
 30
0.0
 10
110.1054813140004
 20
-142.0660029293126
 30
0.0
 10
110.0503421487405
 20
-142.0660029293126
 30
0.0
 10
110.0055746498826
 20
-142.1107704293015
 30
0.0
 10
110.0055746498826
 20
-142.1662270959542
 30
0.0
 10
110.0055746498826
 20
-142.2213662626072
 30
0.0
 10
110.0503421487405
 20
-142.2661337625961
 30
0.0
 10
110.1054813140004
 20
-142.2661337625961
 30
0.0
 10
110.1605865427089
 20
-142.2661337625961
 30
0.0
 10
110.2053893204757
 20
-142.2213662626072
 30
0.0
 10
110.2053893204757
 20
-142.1662270959542
 30
0.0
  0
LINE
  5
115
330
AE
100
AcDbEntity
  8
レイヤー 1
 62
   250
420
  2299925
370
     9
100
AcDbLine
 10
77.87476852304063
 20
-146.9280568169862
 30
0.0
 11
77.87476852304063
 21
-141.670503762745
 31
0.0
  0
LINE
  5
116
330
AE
100
AcDbEntity
  8
レイヤー 1
 62
   250
420
  2299925
370
     9
100
AcDbLine
 10
77.87476852304063
 20
-146.9280568169862
 30
0.0
 11
77.87476852304063
 21
-147.4282957057499
 31
0.0
  0
LINE
  5
117
330
AE
100
AcDbEntity
  8
レイヤー 1
 62
   250
420
  2299925
370
     9
100
AcDbLine
 10
79.33480991156402
 20
-146.9280568169862
 30
0.0
 11
76.87499630106777
 21
-146.9280568169862
 31
0.0
  0
LINE
  5
118
330
AE
100
AcDbEntity
  8
レイヤー 1
 62
   250
420
  2299925
370
     9
100
AcDbLine
 10
79.33480991156402
 20
-147.4282957057499
 30
0.0
 11
76.87499630106777
 21
-147.4282957057499
 31
0.0
  0
INSERT
  5
11A
330
AE
100
AcDbEntity
  8
レイヤー 1
100
AcDbBlockReference
  2
Block_4
 10
0.0
 20
0.0
 30
0.0
  0
LINE
  5
128
330
AE
100
AcDbEntity
  8
レイヤー 1
 62
   250
420
  2299925
370
     9
100
AcDbLine
 10
80.10442991137157
 20
-142.1662270959542
 30
0.0
 11
101.1057485411242
 21
-142.1662270959542
 31
0.0
  0
LINE
  5
129
330
AE
100
AcDbEntity
  8
レイヤー 1
 62
   250
420
  2299925
370
     9
100
AcDbLine
 10
80.10442991137157
 20
-144.3883390398433
 30
0.0
 11
80.10442991137157
 21
-141.166137373982
 31
0.0
  0
INSERT
  5
12B
330
AE
100
AcDbEntity
  8
レイヤー 1
100
AcDbBlockReference
  2
Block_6
 10
0.0
 20
0.0
 30
0.0
  0
LINE
  5
136
330
AE
100
AcDbEntity
  8
レイヤー 1
 62
   250
420
  2299925
370
     9
100
AcDbLine
 10
77.87476852304063
 20
-147.4282957057499
 30
0.0
 11
77.87476852304063
 21
-152.4283209822778
 31
0.0
  0
LINE
  5
137
330
AE
100
AcDbEntity
  8
レイヤー 1
 62
   250
420
  2299925
370
     9
100
AcDbLine
 10
99.33635636404327
 20
-152.4283209822778
 30
0.0
 11
76.87499630106777
 21
-152.4283209822778
 31
0.0
  0
INSERT
  5
139
330
AE
100
AcDbEntity
  8
レイヤー 1
100
AcDbBlockReference
  2
Block_8
 10
0.0
 20
0.0
 30
0.0
  0
LINE
  5
13E
330
AE
100
AcDbEntity
  8
レイヤー 1
 62
   250
420
  2299925
370
     9
100
AcDbLine
 10
131.1067670930279
 20
-142.1662270959542
 30
0.0
 11
110.1054813140004
 21
-142.1662270959542
 31
0.0
  0
LINE
  5
13F
330
AE
100
AcDbEntity
  8
レイヤー 1
 62
   250
420
  2299925
370
     9
100
AcDbLine
 10
131.1067670930279
 20
-144.3883390398433
 30
0.0
 11
131.1067670930279
 21
-141.166137373982
 31
0.0
  0
INSERT
  5
141
330
AE
100
AcDbEntity
  8
レイヤー 1
100
AcDbBlockReference
  2
Block_9
 10
0.0
 20
0.0
 30
0.0
  0
LINE
  5
14C
330
AE
100
AcDbEntity
  8
レイヤー 1
 62
   250
420
  2299925
370
     9
100
AcDbLine
 10
101.1057485411242
 20
-142.1662270959542
 30
0.0
 11
110.1054813418155
 21
-142.1662270959542
 31
0.0
  0
LINE
  5
14D
330
AE
100
AcDbEntity
  8
レイヤー 1
 62
   250
420
  2299925
370
     9
100
AcDbLine
 10
101.1057485411242
 20
-143.6262684844782
 30
0.0
 11
101.1057485411242
 21
-141.166137373982
 31
0.0
  0
LINE
  5
14E
330
AE
100
AcDbEntity
  8
レイヤー 1
 62
   250
420
  2299925
370
     9
100
AcDbLine
 10
110.1054813140004
 20
-143.6262684844782
 30
0.0
 11
110.1054813140004
 21
-141.166137373982
 31
0.0
  0
INSERT
  5
150
330
AE
100
AcDbEntity
  8
レイヤー 1
100
AcDbBlockReference
  2
Block_11
 10
0.0
 20
0.0
 30
0.0
  0
LINE
  5
156
330
AE
100
AcDbEntity
  8
レイヤー 1
 62
   250
420
  2299925
370
     9
100
AcDbLine
 10
108.0818421989611
 20
-150.4561873716598
 30
0.0
 11
116.0820306059704
 21
-150.4561873716598
 31
0.0
  0
INSERT
  5
158
330
AE
100
AcDbEntity
  8
レイヤー 1
100
AcDbBlockReference
  2
Block_12
 10
0.0
 20
0.0
 30
0.0
  0
ENDBLK
  5
B1
330
AE
100
AcDbEntity
  8
0
100
AcDbBlockEnd
  0
BLOCK
  5
11B
330
119
100
AcDbEntity
  8
0
100
AcDbBlockBegin
  2
Block_4
 70
     0
 10
0.0
 20
0.0
 30
0.0
  3
Block_4
  1

  0
INSERT
  5
11E
330
119
100
AcDbEntity
  8
レイヤー 1
100
AcDbBlockReference
  2
Block_5
 10
0.0
 20
0.0
 30
0.0
  0
ENDBLK
  5
11C
330
119
100
AcDbEntity
  8
0
100
AcDbBlockEnd
  0
BLOCK
  5
11F
330
11D
100
AcDbEntity
  8
0
100
AcDbBlockBegin
  2
Block_5
 70
     0
 10
0.0
 20
0.0
 30
0.0
  3
Block_5
  1

  0
SPLINE
  5
121
330
11D
100
AcDbEntity
  8
レイヤー 1
100
AcDbSpline
210
0.0
220
0.0
230
1.0
 70
     9
 71
     3
 72
    17
 73
    13
 74
     0
 42
0.0000000001
 43
0.0000000001
 40
0.0
 40
0.0
 40
0.0
 40
0.0
 40
1.0
 40
1.0
 40
1.0
 40
2.0
 40
2.0
 40
2.0
 40
3.0
 40
3.0
 40
3.0
 40
4.0
 40
4.0
 40
4.0
 40
4.0
 10
75.03056231848194
 20
-148.0831230641077
 30
0.0
 10
75.03056231848194
 20
-148.3328924867883
 30
0.0
 10
75.31392142214375
 20
-148.3794012758392
 30
0.0
 10
75.65877548021726
 20
-148.3794012758392
 30
0.0
 10
75.97830808647417
 20
-148.3794012758392
 30
0.0
 10
76.28716089672682
 20
-148.343227773244
 30
0.0
 10
76.28716089672682
 20
-148.0831230641077
 30
0.0
 10
76.28716089672682
 20
-147.8354206987182
 30
0.0
 10
76.00569659558191
 20
-147.7868448523762
 30
0.0
 10
75.65877548021726
 20
-147.7868448523762
 30
0.0
 10
75.3394151287346
 20
-147.7868448523762
 30
0.0
 10
75.03056231848194
 20
-147.8250854122625
 30
0.0
 10
75.03056231848194
 20
-148.0831230641077
 30
0.0
  0
SPLINE
  5
122
330
11D
100
AcDbEntity
  8
レイヤー 1
100
AcDbSpline
210
0.0
220
0.0
230
1.0
 70
     9
 71
     3
 72
    29
 73
    25
 74
     0
 42
0.0000000001
 43
0.0000000001
 40
0.0
 40
0.0
 40
0.0
 40
0.0
 40
1.0
 40
1.0
 40
1.0
 40
2.0
 40
2.0
 40
2.0
 40
3.0
 40
3.0
 40
3.0
 40
4.0
 40
4.0
 40
4.0
 40
5.0
 40
5.0
 40
5.0
 40
6.0
 40
6.0
 40
6.0
 40
7.0
 40
7.0
 40
7.0
 40
8.0
 40
8.0
 40
8.0
 40
8.0
 10
76.25322670619711
 20
-147.6852145355613
 30
0.0
 10
76.46268851170031
 20
-147.7933905337982
 30
0.0
 10
76.48180879164344
 20
-147.9666788367062
 30
0.0
 10
76.48180879164344
 20
-148.0831230641077
 30
0.0
 10
76.48180879164344
 20
-148.2440090232688
 30
0.0
 10
76.43530000259257
 20
-148.3856024477126
 30
0.0
 10
76.25322670619711
 20
-148.4806870831055
 30
0.0
 10
76.05875106605475
 20
-148.5843844572115
 30
0.0
 10
75.82172849666957
 20
-148.6036769919289
 30
0.0
 10
75.65877548021726
 20
-148.6036769919289
 30
0.0
 10
75.51494274370807
 20
-148.6036769919289
 30
0.0
 10
75.26327851851057
 20
-148.5864515145027
 30
0.0
 10
75.06432425423739
 20
-148.4806870831055
 30
0.0
 10
74.86123587538192
 20
-148.3728555944172
 30
0.0
 10
74.83798148085648
 20
-148.211969635256
 30
0.0
 10
74.83798148085648
 20
-148.0831230641077
 30
0.0
 10
74.83798148085648
 20
-147.9243041622377
 30
0.0
 10
74.8824232126162
 20
-147.7806436805027
 30
0.0
 10
75.06432425423739
 20
-147.6852145355613
 30
0.0
 10
75.25690509186286
 20
-147.5859957855861
 30
0.0
 10
75.48531492253492
 20
-147.5625691362864
 30
0.0
 10
75.65877548021726
 20
-147.5625691362864
 30
0.0
 10
75.83016898060844
 20
-147.5625691362864
 30
0.0
 10
76.06081812334591
 20
-147.583928728295
 30
0.0
 10
76.25322670619711
 20
-147.6852145355613
 30
0.0
  0
HATCH
  5
123
330
11D
100
AcDbEntity
  8
レイヤー 1
 62
   250
420
  2299925
440
 33554687
100
AcDbHatch
 10
0.0
 20
0.0
 30
0.0
210
0.0
220
0.0
230
1.0
  2
SOLID
 70
     1
 71
     1
 91
        2
 92
        1
 93
        1
 72
     4
 94
        3
 73
     0
 74
     0
 95
       17
 96
       13
 40
0.0
 40
0.0
 40
0.0
 40
0.0
 40
1.0
 40
1.0
 40
1.0
 40
2.0
 40
2.0
 40
2.0
 40
3.0
 40
3.0
 40
3.0
 40
4.0
 40
4.0
 40
4.0
 40
4.0
 10
75.03056231848194
 20
-148.0831230641077
 10
75.03056231848194
 20
-148.3328924867883
 10
75.31392142214375
 20
-148.3794012758392
 10
75.65877548021726
 20
-148.3794012758392
 10
75.97830808647417
 20
-148.3794012758392
 10
76.28716089672682
 20
-148.343227773244
 10
76.28716089672682
 20
-148.0831230641077
 10
76.28716089672682
 20
-147.8354206987182
 10
76.00569659558191
 20
-147.7868448523762
 10
75.65877548021726
 20
-147.7868448523762
 10
75.3394151287346
 20
-147.7868448523762
 10
75.03056231848194
 20
-147.8250854122625
 10
75.03056231848194
 20
-148.0831230641077
 97
        0
 97
        1
330
121
 92
        1
 93
        1
 72
     4
 94
        3
 73
     0
 74
     0
 95
       29
 96
       25
 40
0.0
 40
0.0
 40
0.0
 40
0.0
 40
1.0
 40
1.0
 40
1.0
 40
2.0
 40
2.0
 40
2.0
 40
3.0
 40
3.0
 40
3.0
 40
4.0
 40
4.0
 40
4.0
 40
5.0
 40
5.0
 40
5.0
 40
6.0
 40
6.0
 40
6.0
 40
7.0
 40
7.0
 40
7.0
 40
8.0
 40
8.0
 40
8.0
 40
8.0
 10
76.25322670619711
 20
-147.6852145355613
 10
76.46268851170031
 20
-147.7933905337982
 10
76.48180879164344
 20
-147.9666788367062
 10
76.48180879164344
 20
-148.0831230641077
 10
76.48180879164344
 20
-148.2440090232688
 10
76.43530000259257
 20
-148.3856024477126
 10
76.25322670619711
 20
-148.4806870831055
 10
76.05875106605475
 20
-148.5843844572115
 10
75.82172849666957
 20
-148.6036769919289
 10
75.65877548021726
 20
-148.6036769919289
 10
75.51494274370807
 20
-148.6036769919289
 10
75.26327851851057
 20
-148.5864515145027
 10
75.06432425423739
 20
-148.4806870831055
 10
74.86123587538192
 20
-148.3728555944172
 10
74.83798148085648
 20
-148.211969635256
 10
74.83798148085648
 20
-148.0831230641077
 10
74.83798148085648
 20
-147.9243041622377
 10
74.8824232126162
 20
-147.7806436805027
 10
75.06432425423739
 20
-147.6852145355613
 10
75.25690509186286
 20
-147.5859957855861
 10
75.48531492253492
 20
-147.5625691362864
 10
75.65877548021726
 20
-147.5625691362864
 10
75.83016898060844
 20
-147.5625691362864
 10
76.06081812334591
 20
-147.583928728295
 10
76.25322670619711
 20
-147.6852145355613
 97
        0
 97
        1
330
122
 75
     2
 76
     1
 98
        1
 10
0.0
 20
0.0
450
        0
451
        0
460
0.0
461
0.0
452
        0
462
0.0
453
        0
470

  0
SPLINE
  5
124
330
11D
100
AcDbEntity
  8
レイヤー 1
100
AcDbSpline
210
0.0
220
0.0
230
1.0
 70
    11
 71
     3
 72
    17
 73
    13
 74
     0
 42
0.0000000001
 43
0.0000000001
 40
0.0
 40
0.0
 40
0.0
 40
0.0
 40
1.0
 40
1.0
 40
1.0
 40
2.0
 40
2.0
 40
2.0
 40
3.0
 40
3.0
 40
3.0
 40
4.0
 40
4.0
 40
4.0
 40
4.0
 10
76.43099363323599
 20
-147.3462171398127
 30
0.0
 10
76.43099363323599
 20
-147.3462171398127
 30
0.0
 10
76.1793294080385
 20
-147.3462171398127
 30
0.0
 10
76.1793294080385
 20
-147.3462171398127
 30
0.0
 10
76.1793294080385
 20
-147.3462171398127
 30
0.0
 10
76.1793294080385
 20
-147.094380659841
 30
0.0
 10
76.1793294080385
 20
-147.094380659841
 30
0.0
 10
76.1793294080385
 20
-147.094380659841
 30
0.0
 10
76.43099363323599
 20
-147.094380659841
 30
0.0
 10
76.43099363323599
 20
-147.094380659841
 30
0.0
 10
76.43099363323599
 20
-147.094380659841
 30
0.0
 10
76.43099363323599
 20
-147.3462171398127
 30
0.0
 10
76.43099363323599
 20
-147.3462171398127
 30
0.0
  0
HATCH
  5
125
330
11D
100
AcDbEntity
  8
レイヤー 1
 62
   250
420
  2299925
440
 33554687
100
AcDbHatch
 10
0.0
 20
0.0
 30
0.0
210
0.0
220
0.0
230
1.0
  2
SOLID
 70
     1
 71
     1
 91
        1
 92
        1
 93
        1
 72
     4
 94
        3
 73
     0
 74
     0
 95
       17
 96
       13
 40
0.0
 40
0.0
 40
0.0
 40
0.0
 40
1.0
 40
1.0
 40
1.0
 40
2.0
 40
2.0
 40
2.0
 40
3.0
 40
3.0
 40
3.0
 40
4.0
 40
4.0
 40
4.0
 40
4.0
 10
76.43099363323599
 20
-147.3462171398127
 10
76.43099363323599
 20
-147.3462171398127
 10
76.1793294080385
 20
-147.3462171398127
 10
76.1793294080385
 20
-147.3462171398127
 10
76.1793294080385
 20
-147.3462171398127
 10
76.1793294080385
 20
-147.094380659841
 10
76.1793294080385
 20
-147.094380659841
 10
76.1793294080385
 20
-147.094380659841
 10
76.43099363323599
 20
-147.094380659841
 10
76.43099363323599
 20
-147.094380659841
 10
76.43099363323599
 20
-147.094380659841
 10
76.43099363323599
 20
-147.3462171398127
 10
76.43099363323599
 20
-147.3462171398127
 97
        0
 97
        1
330
124
 75
     2
 76
     1
 98
        1
 10
0.0
 20
0.0
450
        0
451
        0
460
0.0
461
0.0
452
        0
462
0.0
453
        0
470

  0
SPLINE
  5
126
330
11D
100
AcDbEntity
  8
レイヤー 1
100
AcDbSpline
210
0.0
220
0.0
230
1.0
 70
     9
 71
     3
 72
    53
 73
    49
 74
     0
 42
0.0000000001
 43
0.0000000001
 40
0.0
 40
0.0
 40
0.0
 40
0.0
 40
1.0
 40
1.0
 40
1.0
 40
2.0
 40
2.0
 40
2.0
 40
3.0
 40
3.0
 40
3.0
 40
4.0
 40
4.0
 40
4.0
 40
5.0
 40
5.0
 40
5.0
 40
6.0
 40
6.0
 40
6.0
 40
7.0
 40
7.0
 40
7.0
 40
8.0
 40
8.0
 40
8.0
 40
9.0
 40
9.0
 40
9.0
 40
10.0
 40
10.0
 40
10.0
 40
11.0
 40
11.0
 40
11.0
 40
12.0
 40
12.0
 40
12.0
 40
13.0
 40
13.0
 40
13.0
 40
14.0
 40
14.0
 40
14.0
 40
15.0
 40
15.0
 40
15.0
 40
16.0
 40
16.0
 40
16.0
 40
16.0
 10
76.48180879164344
 20
-146.3771117798119
 30
0.0
 10
76.48180879164344
 20
-146.4553154473271
 30
0.0
 10
76.46492782376572
 20
-146.556945764142
 30
0.0
 10
76.40136581206286
 20
-146.6585760809569
 30
0.0
 10
76.29129501130913
 20
-146.8318643838649
 30
0.0
 10
76.16020912809537
 20
-146.8532239758735
 30
0.0
 10
76.05237763940704
 20
-146.8721720010423
 30
0.0
 10
76.05237763940704
 20
-146.8721720010423
 30
0.0
 10
76.05237763940704
 20
-146.6499633422438
 30
0.0
 10
76.05237763940704
 20
-146.6499633422438
 30
0.0
 10
76.25115964890596
 20
-146.5951863240283
 30
0.0
 10
76.28078747007911
 20
-146.4680623006225
 30
0.0
 10
76.28078747007911
 20
-146.3750447225208
 30
0.0
 10
76.28078747007911
 20
-146.2355183553682
 30
0.0
 10
76.18139646532966
 20
-146.0832451349201
 30
0.0
 10
75.94868026530102
 20
-146.0832451349201
 30
0.0
 10
75.69270967074697
 20
-146.0832451349201
 30
0.0
 10
75.62294648717065
 20
-146.2630791192502
 30
0.0
 10
75.62294648717065
 20
-146.3836574612339
 30
0.0
 10
75.62294648717065
 20
-146.4153523396982
 30
0.0
 10
75.62294648717065
 20
-146.556945764142
 30
0.0
 10
75.75196531309327
 20
-146.6458292276614
 30
0.0
 10
75.75196531309327
 20
-146.6458292276614
 30
0.0
 10
75.73284503315012
 20
-146.8215290974092
 30
0.0
 10
75.73284503315012
 20
-146.8215290974092
 30
0.0
 10
75.73284503315012
 20
-146.8215290974092
 30
0.0
 10
74.88672958197276
 20
-146.7009507554254
 30
0.0
 10
74.88672958197276
 20
-146.7009507554254
 30
0.0
 10
74.88672958197276
 20
-146.7009507554254
 30
0.0
 10
74.88672958197276
 20
-145.922359175759
 30
0.0
 10
74.88672958197276
 20
-145.922359175759
 30
0.0
 10
74.88672958197276
 20
-145.922359175759
 30
0.0
 10
75.08137747688938
 20
-145.922359175759
 30
0.0
 10
75.08137747688938
 20
-145.922359175759
 30
0.0
 10
75.08137747688938
 20
-145.922359175759
 30
0.0
 10
75.08137747688938
 20
-146.5379977389731
 30
0.0
 10
75.08137747688938
 20
-146.5379977389731
 30
0.0
 10
75.08137747688938
 20
-146.5379977389731
 30
0.0
 10
75.50443520247807
 20
-146.6034545531929
 30
0.0
 10
75.50443520247807
 20
-146.6034545531929
 30
0.0
 10
75.47050101194836
 20
-146.5421318535554
 30
0.0
 10
75.43036564954519
 20
-146.4597940714579
 30
0.0
 10
75.43036564954519
 20
-146.3412827867654
 30
0.0
 10
75.43036564954519
 20
-146.0873792495025
 30
0.0
 10
75.61657306052294
 20
-145.8503566801172
 30
0.0
 10
75.92955998535789
 20
-145.8503566801172
 30
0.0
 10
76.24702553432367
 20
-145.8503566801172
 30
0.0
 10
76.48180879164344
 20
-146.074632396207
 30
0.0
 10
76.48180879164344
 20
-146.3771117798119
 30
0.0
  0
HATCH
  5
127
330
11D
100
AcDbEntity
  8
レイヤー 1
 62
   250
420
  2299925
440
 33554687
100
AcDbHatch
 10
0.0
 20
0.0
 30
0.0
210
0.0
220
0.0
230
1.0
  2
SOLID
 70
     1
 71
     1
 91
        1
 92
        1
 93
        1
 72
     4
 94
        3
 73
     0
 74
     0
 95
       53
 96
       49
 40
0.0
 40
0.0
 40
0.0
 40
0.0
 40
1.0
 40
1.0
 40
1.0
 40
2.0
 40
2.0
 40
2.0
 40
3.0
 40
3.0
 40
3.0
 40
4.0
 40
4.0
 40
4.0
 40
5.0
 40
5.0
 40
5.0
 40
6.0
 40
6.0
 40
6.0
 40
7.0
 40
7.0
 40
7.0
 40
8.0
 40
8.0
 40
8.0
 40
9.0
 40
9.0
 40
9.0
 40
10.0
 40
10.0
 40
10.0
 40
11.0
 40
11.0
 40
11.0
 40
12.0
 40
12.0
 40
12.0
 40
13.0
 40
13.0
 40
13.0
 40
14.0
 40
14.0
 40
14.0
 40
15.0
 40
15.0
 40
15.0
 40
16.0
 40
16.0
 40
16.0
 40
16.0
 10
76.48180879164344
 20
-146.3771117798119
 10
76.48180879164344
 20
-146.4553154473271
 10
76.46492782376572
 20
-146.556945764142
 10
76.40136581206286
 20
-146.6585760809569
 10
76.29129501130913
 20
-146.8318643838649
 10
76.16020912809537
 20
-146.8532239758735
 10
76.05237763940704
 20
-146.8721720010423
 10
76.05237763940704
 20
-146.8721720010423
 10
76.05237763940704
 20
-146.6499633422438
 10
76.05237763940704
 20
-146.6499633422438
 10
76.25115964890596
 20
-146.5951863240283
 10
76.28078747007911
 20
-146.4680623006225
 10
76.28078747007911
 20
-146.3750447225208
 10
76.28078747007911
 20
-146.2355183553682
 10
76.18139646532966
 20
-146.0832451349201
 10
75.94868026530102
 20
-146.0832451349201
 10
75.69270967074697
 20
-146.0832451349201
 10
75.62294648717065
 20
-146.2630791192502
 10
75.62294648717065
 20
-146.3836574612339
 10
75.62294648717065
 20
-146.4153523396982
 10
75.62294648717065
 20
-146.556945764142
 10
75.75196531309327
 20
-146.6458292276614
 10
75.75196531309327
 20
-146.6458292276614
 10
75.73284503315012
 20
-146.8215290974092
 10
75.73284503315012
 20
-146.8215290974092
 10
75.73284503315012
 20
-146.8215290974092
 10
74.88672958197276
 20
-146.7009507554254
 10
74.88672958197276
 20
-146.7009507554254
 10
74.88672958197276
 20
-146.7009507554254
 10
74.88672958197276
 20
-145.922359175759
 10
74.88672958197276
 20
-145.922359175759
 10
74.88672958197276
 20
-145.922359175759
 10
75.08137747688938
 20
-145.922359175759
 10
75.08137747688938
 20
-145.922359175759
 10
75.08137747688938
 20
-145.922359175759
 10
75.08137747688938
 20
-146.5379977389731
 10
75.08137747688938
 20
-146.5379977389731
 10
75.08137747688938
 20
-146.5379977389731
 10
75.50443520247807
 20
-146.6034545531929
 10
75.50443520247807
 20
-146.6034545531929
 10
75.47050101194836
 20
-146.5421318535554
 10
75.43036564954519
 20
-146.4597940714579
 10
75.43036564954519
 20
-146.3412827867654
 10
75.43036564954519
 20
-146.0873792495025
 10
75.61657306052294
 20
-145.8503566801172
 10
75.92955998535789
 20
-145.8503566801172
 10
76.24702553432367
 20
-145.8503566801172
 10
76.48180879164344
 20
-146.074632396207
 10
76.48180879164344
 20
-146.3771117798119
 97
        0
 97
        1
330
126
 75
     2
 76
     1
 98
        1
 10
0.0
 20
0.0
450
        0
451
        0
460
0.0
461
0.0
452
        0
462
0.0
453
        0
470

  0
ENDBLK
  5
120
330
11D
100
AcDbEntity
  8
0
100
AcDbBlockEnd
  0
BLOCK
  5
12C
330
12A
100
AcDbEntity
  8
0
100
AcDbBlockBegin
  2
Block_6
 70
     0
 10
0.0
 20
0.0
 30
0.0
  3
Block_6
  1

  0
INSERT
  5
12F
330
12A
100
AcDbEntity
  8
レイヤー 1
100
AcDbBlockReference
  2
Block_7
 10
0.0
 20
0.0
 30
0.0
  0
ENDBLK
  5
12D
330
12A
100
AcDbEntity
  8
0
100
AcDbBlockEnd
  0
BLOCK
  5
130
330
12E
100
AcDbEntity
  8
0
100
AcDbBlockBegin
  2
Block_7
 70
     0
 10
0.0
 20
0.0
 30
0.0
  3
Block_7
  1

  0
SPLINE
  5
132
330
12E
100
AcDbEntity
  8
レイヤー 1
100
AcDbSpline
210
0.0
220
0.0
230
1.0
 70
     9
 71
     3
 72
    44
 73
    40
 74
     0
 42
0.0000000001
 43
0.0000000001
 40
0.0
 40
0.0
 40
0.0
 40
0.0
 40
1.0
 40
1.0
 40
1.0
 40
2.0
 40
2.0
 40
2.0
 40
3.0
 40
3.0
 40
3.0
 40
4.0
 40
4.0
 40
4.0
 40
5.0
 40
5.0
 40
5.0
 40
6.0
 40
6.0
 40
6.0
 40
7.0
 40
7.0
 40
7.0
 40
8.0
 40
8.0
 40
8.0
 40
9.0
 40
9.0
 40
9.0
 40
10.0
 40
10.0
 40
10.0
 40
11.0
 40
11.0
 40
11.0
 40
12.0
 40
12.0
 40
12.0
 40
13.0
 40
13.0
 40
13.0
 40
13.0
 10
90.03378090197072
 20
-140.8708156657371
 30
0.0
 10
89.81587861252867
 20
-141.0294623128329
 30
0.0
 10
89.72268877965268
 20
-141.1035318657658
 30
0.0
 10
89.67411293331064
 20
-141.247364602275
 30
0.0
 10
89.67411293331064
 20
-141.247364602275
 30
0.0
 10
90.45253225820284
 20
-141.247364602275
 30
0.0
 10
90.45253225820284
 20
-141.247364602275
 30
0.0
 10
90.45253225820284
 20
-141.247364602275
 30
0.0
 10
90.45253225820284
 20
-141.4525200384216
 30
0.0
 10
90.45253225820284
 20
-141.4525200384216
 30
0.0
 10
90.45253225820284
 20
-141.4525200384216
 30
0.0
 10
89.42451576540429
 20
-141.4525200384216
 30
0.0
 10
89.42451576540429
 20
-141.4525200384216
 30
0.0
 10
89.45621064386859
 20
-141.0949191270526
 30
0.0
 10
89.5218397128626
 20
-141.0167154595375
 30
0.0
 10
89.90682913333927
 20
-140.7183701905148
 30
0.0
 10
90.16279972789332
 20
-140.5195881810159
 30
0.0
 10
90.22825654211308
 20
-140.4518920547308
 30
0.0
 10
90.22825654211308
 20
-140.3144327448693
 30
0.0
 10
90.22825654211308
 20
-140.1959214601767
 30
0.0
 10
90.15642630124562
 20
-140.0646633221887
 30
0.0
 10
89.95971134903786
 20
-140.0646633221887
 30
0.0
 10
89.69943438512723
 20
-140.0646633221887
 30
0.0
 10
89.69099390118836
 20
-140.2953124649262
 30
0.0
 10
89.6866875318318
 20
-140.4117566923276
 30
0.0
 10
89.6866875318318
 20
-140.4117566923276
 30
0.0
 10
89.4625840705163
 20
-140.4117566923276
 30
0.0
 10
89.4625840705163
 20
-140.4117566923276
 30
0.0
 10
89.47102455445516
 20
-140.2848049236961
 30
0.0
 10
89.48153209568518
 20
-140.1726670656513
 30
0.0
 10
89.56197507526576
 20
-140.0541557809587
 30
0.0
 10
89.67187362124523
 20
-139.8934420765717
 30
0.0
 10
89.85808103222298
 20
-139.8595078860421
 30
0.0
 10
89.97452525962442
 20
-139.8595078860421
 30
0.0
 10
90.25168319141277
 20
-139.8595078860421
 30
0.0
 10
90.45890568485054
 20
-140.0436482397287
 30
0.0
 10
90.45890568485054
 20
-140.3164998021605
 30
0.0
 10
90.45890568485054
 20
-140.5449096328325
 30
0.0
 10
90.34263371222337
 20
-140.6444728923562
 30
0.0
 10
90.03378090197072
 20
-140.8708156657371
 30
0.0
  0
HATCH
  5
133
330
12E
100
AcDbEntity
  8
レイヤー 1
 62
   250
420
  2299925
440
 33554687
100
AcDbHatch
 10
0.0
 20
0.0
 30
0.0
210
0.0
220
0.0
230
1.0
  2
SOLID
 70
     1
 71
     1
 91
        1
 92
        1
 93
        1
 72
     4
 94
        3
 73
     0
 74
     0
 95
       44
 96
       40
 40
0.0
 40
0.0
 40
0.0
 40
0.0
 40
1.0
 40
1.0
 40
1.0
 40
2.0
 40
2.0
 40
2.0
 40
3.0
 40
3.0
 40
3.0
 40
4.0
 40
4.0
 40
4.0
 40
5.0
 40
5.0
 40
5.0
 40
6.0
 40
6.0
 40
6.0
 40
7.0
 40
7.0
 40
7.0
 40
8.0
 40
8.0
 40
8.0
 40
9.0
 40
9.0
 40
9.0
 40
10.0
 40
10.0
 40
10.0
 40
11.0
 40
11.0
 40
11.0
 40
12.0
 40
12.0
 40
12.0
 40
13.0
 40
13.0
 40
13.0
 40
13.0
 10
90.03378090197072
 20
-140.8708156657371
 10
89.81587861252867
 20
-141.0294623128329
 10
89.72268877965268
 20
-141.1035318657658
 10
89.67411293331064
 20
-141.247364602275
 10
89.67411293331064
 20
-141.247364602275
 10
90.45253225820284
 20
-141.247364602275
 10
90.45253225820284
 20
-141.247364602275
 10
90.45253225820284
 20
-141.247364602275
 10
90.45253225820284
 20
-141.4525200384216
 10
90.45253225820284
 20
-141.4525200384216
 10
90.45253225820284
 20
-141.4525200384216
 10
89.42451576540429
 20
-141.4525200384216
 10
89.42451576540429
 20
-141.4525200384216
 10
89.45621064386859
 20
-141.0949191270526
 10
89.5218397128626
 20
-141.0167154595375
 10
89.90682913333927
 20
-140.7183701905148
 10
90.16279972789332
 20
-140.5195881810159
 10
90.22825654211308
 20
-140.4518920547308
 10
90.22825654211308
 20
-140.3144327448693
 10
90.22825654211308
 20
-140.1959214601767
 10
90.15642630124562
 20
-140.0646633221887
 10
89.95971134903786
 20
-140.0646633221887
 10
89.69943438512723
 20
-140.0646633221887
 10
89.69099390118836
 20
-140.2953124649262
 10
89.6866875318318
 20
-140.4117566923276
 10
89.6866875318318
 20
-140.4117566923276
 10
89.4625840705163
 20
-140.4117566923276
 10
89.4625840705163
 20
-140.4117566923276
 10
89.47102455445516
 20
-140.2848049236961
 10
89.48153209568518
 20
-140.1726670656513
 10
89.56197507526576
 20
-140.0541557809587
 10
89.67187362124523
 20
-139.8934420765717
 10
89.85808103222298
 20
-139.8595078860421
 10
89.97452525962442
 20
-139.8595078860421
 10
90.25168319141277
 20
-139.8595078860421
 10
90.45890568485054
 20
-140.0436482397287
 10
90.45890568485054
 20
-140.3164998021605
 10
90.45890568485054
 20
-140.5449096328325
 10
90.34263371222337
 20
-140.6444728923562
 10
90.03378090197072
 20
-140.8708156657371
 97
        0
 97
        1
330
132
 75
     2
 76
     1
 98
        1
 10
0.0
 20
0.0
450
        0
451
        0
460
0.0
461
0.0
452
        0
462
0.0
453
        0
470

  0
SPLINE
  5
134
330
12E
100
AcDbEntity
  8
レイヤー 1
100
AcDbSpline
210
0.0
220
0.0
230
1.0
 70
    11
 71
     3
 72
    26
 73
    22
 74
     0
 42
0.0000000001
 43
0.0000000001
 40
0.0
 40
0.0
 40
0.0
 40
0.0
 40
1.0
 40
1.0
 40
1.0
 40
2.0
 40
2.0
 40
2.0
 40
3.0
 40
3.0
 40
3.0
 40
4.0
 40
4.0
 40
4.0
 40
5.0
 40
5.0
 40
5.0
 40
6.0
 40
6.0
 40
6.0
 40
7.0
 40
7.0
 40
7.0
 40
7.0
 10
91.06885984051404
 20
-141.4525200384216
 30
0.0
 10
91.06885984051404
 20
-141.4525200384216
 30
0.0
 10
91.06885984051404
 20
-140.3481946806248
 30
0.0
 10
91.06885984051404
 20
-140.3481946806248
 30
0.0
 10
91.06885984051404
 20
-140.3481946806248
 30
0.0
 10
90.73881969302711
 20
-140.3481946806248
 30
0.0
 10
90.73881969302711
 20
-140.3481946806248
 30
0.0
 10
90.73881969302711
 20
-140.3481946806248
 30
0.0
 10
90.73881969302711
 20
-140.200055574759
 30
0.0
 10
90.73881969302711
 20
-140.200055574759
 30
0.0
 10
91.0709268978052
 20
-140.1854139189467
 30
0.0
 10
91.11743568685605
 20
-140.0224609024944
 30
0.0
 10
91.1470635080292
 20
-139.9082559871583
 30
0.0
 10
91.1470635080292
 20
-139.9082559871583
 30
0.0
 10
91.29313555660379
 20
-139.9082559871583
 30
0.0
 10
91.29313555660379
 20
-139.9082559871583
 30
0.0
 10
91.29313555660379
 20
-139.9082559871583
 30
0.0
 10
91.29313555660379
 20
-141.4525200384216
 30
0.0
 10
91.29313555660379
 20
-141.4525200384216
 30
0.0
 10
91.29313555660379
 20
-141.4525200384216
 30
0.0
 10
91.06885984051404
 20
-141.4525200384216
 30
0.0
 10
91.06885984051404
 20
-141.4525200384216
 30
0.0
  0
HATCH
  5
135
330
12E
100
AcDbEntity
  8
レイヤー 1
 62
   250
420
  2299925
440
 33554687
100
AcDbHatch
 10
0.0
 20
0.0
 30
0.0
210
0.0
220
0.0
230
1.0
  2
SOLID
 70
     1
 71
     1
 91
        1
 92
        1
 93
        1
 72
     4
 94
        3
 73
     0
 74
     0
 95
       26
 96
       22
 40
0.0
 40
0.0
 40
0.0
 40
0.0
 40
1.0
 40
1.0
 40
1.0
 40
2.0
 40
2.0
 40
2.0
 40
3.0
 40
3.0
 40
3.0
 40
4.0
 40
4.0
 40
4.0
 40
5.0
 40
5.0
 40
5.0
 40
6.0
 40
6.0
 40
6.0
 40
7.0
 40
7.0
 40
7.0
 40
7.0
 10
91.06885984051404
 20
-141.4525200384216
 10
91.06885984051404
 20
-141.4525200384216
 10
91.06885984051404
 20
-140.3481946806248
 10
91.06885984051404
 20
-140.3481946806248
 10
91.06885984051404
 20
-140.3481946806248
 10
90.73881969302711
 20
-140.3481946806248
 10
90.73881969302711
 20
-140.3481946806248
 10
90.73881969302711
 20
-140.3481946806248
 10
90.73881969302711
 20
-140.200055574759
 10
90.73881969302711
 20
-140.200055574759
 10
91.0709268978052
 20
-140.1854139189467
 10
91.11743568685605
 20
-140.0224609024944
 10
91.1470635080292
 20
-139.9082559871583
 10
91.1470635080292
 20
-139.9082559871583
 10
91.29313555660379
 20
-139.9082559871583
 10
91.29313555660379
 20
-139.9082559871583
 10
91.29313555660379
 20
-139.9082559871583
 10
91.29313555660379
 20
-141.4525200384216
 10
91.29313555660379
 20
-141.4525200384216
 10
91.29313555660379
 20
-141.4525200384216
 10
91.06885984051404
 20
-141.4525200384216
 10
91.06885984051404
 20
-141.4525200384216
 97
        0
 97
        1
330
134
 75
     2
 76
     1
 98
        1
 10
0.0
 20
0.0
450
        0
451
        0
460
0.0
461
0.0
452
        0
462
0.0
453
        0
470

  0
ENDBLK
  5
131
330
12E
100
AcDbEntity
  8
0
100
AcDbBlockEnd
  0
BLOCK
  5
13A
330
138
100
AcDbEntity
  8
0
100
AcDbBlockBegin
  2
Block_8
 70
     0
 10
0.0
 20
0.0
 30
0.0
  3
Block_8
  1

  0
SPLINE
  5
13C
330
138
100
AcDbEntity
  8
レイヤー 1
100
AcDbSpline
210
0.0
220
0.0
230
1.0
 70
     9
 71
     3
 72
    53
 73
    49
 74
     0
 42
0.0000000001
 43
0.0000000001
 40
0.0
 40
0.0
 40
0.0
 40
0.0
 40
1.0
 40
1.0
 40
1.0
 40
2.0
 40
2.0
 40
2.0
 40
3.0
 40
3.0
 40
3.0
 40
4.0
 40
4.0
 40
4.0
 40
5.0
 40
5.0
 40
5.0
 40
6.0
 40
6.0
 40
6.0
 40
7.0
 40
7.0
 40
7.0
 40
8.0
 40
8.0
 40
8.0
 40
9.0
 40
9.0
 40
9.0
 40
10.0
 40
10.0
 40
10.0
 40
11.0
 40
11.0
 40
11.0
 40
12.0
 40
12.0
 40
12.0
 40
13.0
 40
13.0
 40
13.0
 40
14.0
 40
14.0
 40
14.0
 40
15.0
 40
15.0
 40
15.0
 40
16.0
 40
16.0
 40
16.0
 40
16.0
 10
77.21285805361346
 20
-150.7976860517103
 30
0.0
 10
77.21285805361346
 20
-150.8758897192255
 30
0.0
 10
77.19597708573573
 20
-150.9775200360403
 30
0.0
 10
77.13241507403288
 20
-151.0791503528552
 30
0.0
 10
77.02234427327915
 20
-151.2524386557633
 30
0.0
 10
76.89125839006539
 20
-151.2737982477718
 30
0.0
 10
76.78342690137707
 20
-151.2927462729407
 30
0.0
 10
76.78342690137707
 20
-151.2927462729407
 30
0.0
 10
76.78342690137707
 20
-151.0705376141421
 30
0.0
 10
76.78342690137707
 20
-151.0705376141421
 30
0.0
 10
76.98220891087598
 20
-151.0157605959266
 30
0.0
 10
77.01183673204913
 20
-150.8886365725209
 30
0.0
 10
77.01183673204913
 20
-150.7956189944191
 30
0.0
 10
77.01183673204913
 20
-150.6560926272665
 30
0.0
 10
76.91244572729967
 20
-150.5038194068185
 30
0.0
 10
76.67972952727104
 20
-150.5038194068185
 30
0.0
 10
76.42375893271697
 20
-150.5038194068185
 30
0.0
 10
76.35399574914067
 20
-150.6836533911485
 30
0.0
 10
76.35399574914067
 20
-150.8042317331322
 30
0.0
 10
76.35399574914067
 20
-150.8359266115966
 30
0.0
 10
76.35399574914067
 20
-150.9775200360403
 30
0.0
 10
76.48301457506327
 20
-151.0664034995597
 30
0.0
 10
76.48301457506327
 20
-151.0664034995597
 30
0.0
 10
76.46389429512014
 20
-151.2421033693075
 30
0.0
 10
76.46389429512014
 20
-151.2421033693075
 30
0.0
 10
76.46389429512014
 20
-151.2421033693075
 30
0.0
 10
75.61777884394278
 20
-151.1215250273238
 30
0.0
 10
75.61777884394278
 20
-151.1215250273238
 30
0.0
 10
75.61777884394278
 20
-151.1215250273238
 30
0.0
 10
75.61777884394278
 20
-150.3429334476573
 30
0.0
 10
75.61777884394278
 20
-150.3429334476573
 30
0.0
 10
75.61777884394278
 20
-150.3429334476573
 30
0.0
 10
75.8124267388594
 20
-150.3429334476573
 30
0.0
 10
75.8124267388594
 20
-150.3429334476573
 30
0.0
 10
75.8124267388594
 20
-150.3429334476573
 30
0.0
 10
75.8124267388594
 20
-150.9585720108715
 30
0.0
 10
75.8124267388594
 20
-150.9585720108715
 30
0.0
 10
75.8124267388594
 20
-150.9585720108715
 30
0.0
 10
76.23548446444807
 20
-151.0240288250912
 30
0.0
 10
76.23548446444807
 20
-151.0240288250912
 30
0.0
 10
76.20155027391837
 20
-150.9627061254537
 30
0.0
 10
76.16141491151521
 20
-150.8803683433563
 30
0.0
 10
76.16141491151521
 20
-150.7618570586637
 30
0.0
 10
76.16141491151521
 20
-150.5079535214008
 30
0.0
 10
76.34762232249295
 20
-150.2709309520156
 30
0.0
 10
76.66060924732791
 20
-150.2709309520156
 30
0.0
 10
76.97807479629368
 20
-150.2709309520156
 30
0.0
 10
77.21285805361346
 20
-150.4952066681053
 30
0.0
 10
77.21285805361346
 20
-150.7976860517103
 30
0.0
  0
HATCH
  5
13D
330
138
100
AcDbEntity
  8
レイヤー 1
 62
   250
420
  2299925
440
 33554687
100
AcDbHatch
 10
0.0
 20
0.0
 30
0.0
210
0.0
220
0.0
230
1.0
  2
SOLID
 70
     1
 71
     1
 91
        1
 92
        1
 93
        1
 72
     4
 94
        3
 73
     0
 74
     0
 95
       53
 96
       49
 40
0.0
 40
0.0
 40
0.0
 40
0.0
 40
1.0
 40
1.0
 40
1.0
 40
2.0
 40
2.0
 40
2.0
 40
3.0
 40
3.0
 40
3.0
 40
4.0
 40
4.0
 40
4.0
 40
5.0
 40
5.0
 40
5.0
 40
6.0
 40
6.0
 40
6.0
 40
7.0
 40
7.0
 40
7.0
 40
8.0
 40
8.0
 40
8.0
 40
9.0
 40
9.0
 40
9.0
 40
10.0
 40
10.0
 40
10.0
 40
11.0
 40
11.0
 40
11.0
 40
12.0
 40
12.0
 40
12.0
 40
13.0
 40
13.0
 40
13.0
 40
14.0
 40
14.0
 40
14.0
 40
15.0
 40
15.0
 40
15.0
 40
16.0
 40
16.0
 40
16.0
 40
16.0
 10
77.21285805361346
 20
-150.7976860517103
 10
77.21285805361346
 20
-150.8758897192255
 10
77.19597708573573
 20
-150.9775200360403
 10
77.13241507403288
 20
-151.0791503528552
 10
77.02234427327915
 20
-151.2524386557633
 10
76.89125839006539
 20
-151.2737982477718
 10
76.78342690137707
 20
-151.2927462729407
 10
76.78342690137707
 20
-151.2927462729407
 10
76.78342690137707
 20
-151.0705376141421
 10
76.78342690137707
 20
-151.0705376141421
 10
76.98220891087598
 20
-151.0157605959266
 10
77.01183673204913
 20
-150.8886365725209
 10
77.01183673204913
 20
-150.7956189944191
 10
77.01183673204913
 20
-150.6560926272665
 10
76.91244572729967
 20
-150.5038194068185
 10
76.67972952727104
 20
-150.5038194068185
 10
76.42375893271697
 20
-150.5038194068185
 10
76.35399574914067
 20
-150.6836533911485
 10
76.35399574914067
 20
-150.8042317331322
 10
76.35399574914067
 20
-150.8359266115966
 10
76.35399574914067
 20
-150.9775200360403
 10
76.48301457506327
 20
-151.0664034995597
 10
76.48301457506327
 20
-151.0664034995597
 10
76.46389429512014
 20
-151.2421033693075
 10
76.46389429512014
 20
-151.2421033693075
 10
76.46389429512014
 20
-151.2421033693075
 10
75.61777884394278
 20
-151.1215250273238
 10
75.61777884394278
 20
-151.1215250273238
 10
75.61777884394278
 20
-151.1215250273238
 10
75.61777884394278
 20
-150.3429334476573
 10
75.61777884394278
 20
-150.3429334476573
 10
75.61777884394278
 20
-150.3429334476573
 10
75.8124267388594
 20
-150.3429334476573
 10
75.8124267388594
 20
-150.3429334476573
 10
75.8124267388594
 20
-150.3429334476573
 10
75.8124267388594
 20
-150.9585720108715
 10
75.8124267388594
 20
-150.9585720108715
 10
75.8124267388594
 20
-150.9585720108715
 10
76.23548446444807
 20
-151.0240288250912
 10
76.23548446444807
 20
-151.0240288250912
 10
76.20155027391837
 20
-150.9627061254537
 10
76.16141491151521
 20
-150.8803683433563
 10
76.16141491151521
 20
-150.7618570586637
 10
76.16141491151521
 20
-150.5079535214008
 10
76.34762232249295
 20
-150.2709309520156
 10
76.66060924732791
 20
-150.2709309520156
 10
76.97807479629368
 20
-150.2709309520156
 10
77.21285805361346
 20
-150.4952066681053
 10
77.21285805361346
 20
-150.7976860517103
 97
        0
 97
        1
330
13C
 75
     2
 76
     1
 98
        1
 10
0.0
 20
0.0
450
        0
451
        0
460
0.0
461
0.0
452
        0
462
0.0
453
        0
470

  0
ENDBLK
  5
13B
330
138
100
AcDbEntity
  8
0
100
AcDbBlockEnd
  0
BLOCK
  5
142
330
140
100
AcDbEntity
  8
0
100
AcDbBlockBegin
  2
Block_9
 70
     0
 10
0.0
 20
0.0
 30
0.0
  3
Block_9
  1

  0
INSERT
  5
145
330
140
100
AcDbEntity
  8
レイヤー 1
100
AcDbBlockReference
  2
Block_10
 10
0.0
 20
0.0
 30
0.0
  0
ENDBLK
  5
143
330
140
100
AcDbEntity
  8
0
100
AcDbBlockEnd
  0
BLOCK
  5
146
330
144
100
AcDbEntity
  8
0
100
AcDbBlockBegin
  2
Block_10
 70
     0
 10
0.0
 20
0.0
 30
0.0
  3
Block_10
  1

  0
SPLINE
  5
148
330
144
100
AcDbEntity
  8
レイヤー 1
100
AcDbSpline
210
0.0
220
0.0
230
1.0
 70
     9
 71
     3
 72
    44
 73
    40
 74
     0
 42
0.0000000001
 43
0.0000000001
 40
0.0
 40
0.0
 40
0.0
 40
0.0
 40
1.0
 40
1.0
 40
1.0
 40
2.0
 40
2.0
 40
2.0
 40
3.0
 40
3.0
 40
3.0
 40
4.0
 40
4.0
 40
4.0
 40
5.0
 40
5.0
 40
5.0
 40
6.0
 40
6.0
 40
6.0
 40
7.0
 40
7.0
 40
7.0
 40
8.0
 40
8.0
 40
8.0
 40
9.0
 40
9.0
 40
9.0
 40
10.0
 40
10.0
 40
10.0
 40
11.0
 40
11.0
 40
11.0
 40
12.0
 40
12.0
 40
12.0
 40
13.0
 40
13.0
 40
13.0
 40
13.0
 10
120.0347059161719
 20
-140.8708156657371
 30
0.0
 10
119.8169758815041
 20
-141.0294623128329
 30
0.0
 10
119.7239583034023
 20
-141.1035318657658
 30
0.0
 10
119.6750379475118
 20
-141.247364602275
 30
0.0
 10
119.6750379475118
 20
-141.247364602275
 30
0.0
 10
120.4536295271782
 20
-141.247364602275
 30
0.0
 10
120.4536295271782
 20
-141.247364602275
 30
0.0
 10
120.4536295271782
 20
-141.247364602275
 30
0.0
 10
120.4536295271782
 20
-141.4525200384216
 30
0.0
 10
120.4536295271782
 20
-141.4525200384216
 30
0.0
 10
120.4536295271782
 20
-141.4525200384216
 30
0.0
 10
119.4256130343797
 20
-141.4525200384216
 30
0.0
 10
119.4256130343797
 20
-141.4525200384216
 30
0.0
 10
119.457307912844
 20
-141.0949191270526
 30
0.0
 10
119.5227647270637
 20
-141.0167154595375
 30
0.0
 10
119.9079264023147
 20
-140.7183701905148
 30
0.0
 10
120.1638969968687
 20
-140.5195881810159
 30
0.0
 10
120.2293538110885
 20
-140.4518920547308
 30
0.0
 10
120.2293538110885
 20
-140.3144327448693
 30
0.0
 10
120.2293538110885
 20
-140.1959214601767
 30
0.0
 10
120.1573513154468
 20
-140.0646633221887
 30
0.0
 10
119.960636363239
 20
-140.0646633221887
 30
0.0
 10
119.7005316541026
 20
-140.0646633221887
 30
0.0
 10
119.692263424938
 20
-140.2953124649262
 30
0.0
 10
119.6877848008072
 20
-140.4117566923276
 30
0.0
 10
119.6877848008072
 20
-140.4117566923276
 30
0.0
 10
119.4635090847174
 20
-140.4117566923276
 30
0.0
 10
119.4635090847174
 20
-140.4117566923276
 30
0.0
 10
119.4721218234306
 20
-140.2848049236961
 30
0.0
 10
119.4828016194348
 20
-140.1726670656513
 30
0.0
 10
119.5630723442411
 20
-140.0541557809587
 30
0.0
 10
119.6729708902206
 20
-139.8934420765717
 30
0.0
 10
119.8593505559726
 20
-139.8595078860421
 30
0.0
 10
119.9754502738256
 20
-139.8595078860421
 30
0.0
 10
120.2527804603882
 20
-139.8595078860421
 30
0.0
 10
120.4601752086002
 20
-140.0436482397287
 30
0.0
 10
120.4601752086002
 20
-140.3164998021605
 30
0.0
 10
120.4601752086002
 20
-140.5449096328325
 30
0.0
 10
120.3437309811988
 20
-140.6444728923562
 30
0.0
 10
120.0347059161719
 20
-140.8708156657371
 30
0.0
  0
HATCH
  5
149
330
144
100
AcDbEntity
  8
レイヤー 1
 62
   250
420
  2299925
440
 33554687
100
AcDbHatch
 10
0.0
 20
0.0
 30
0.0
210
0.0
220
0.0
230
1.0
  2
SOLID
 70
     1
 71
     1
 91
        1
 92
        1
 93
        1
 72
     4
 94
        3
 73
     0
 74
     0
 95
       44
 96
       40
 40
0.0
 40
0.0
 40
0.0
 40
0.0
 40
1.0
 40
1.0
 40
1.0
 40
2.0
 40
2.0
 40
2.0
 40
3.0
 40
3.0
 40
3.0
 40
4.0
 40
4.0
 40
4.0
 40
5.0
 40
5.0
 40
5.0
 40
6.0
 40
6.0
 40
6.0
 40
7.0
 40
7.0
 40
7.0
 40
8.0
 40
8.0
 40
8.0
 40
9.0
 40
9.0
 40
9.0
 40
10.0
 40
10.0
 40
10.0
 40
11.0
 40
11.0
 40
11.0
 40
12.0
 40
12.0
 40
12.0
 40
13.0
 40
13.0
 40
13.0
 40
13.0
 10
120.0347059161719
 20
-140.8708156657371
 10
119.8169758815041
 20
-141.0294623128329
 10
119.7239583034023
 20
-141.1035318657658
 10
119.6750379475118
 20
-141.247364602275
 10
119.6750379475118
 20
-141.247364602275
 10
120.4536295271782
 20
-141.247364602275
 10
120.4536295271782
 20
-141.247364602275
 10
120.4536295271782
 20
-141.247364602275
 10
120.4536295271782
 20
-141.4525200384216
 10
120.4536295271782
 20
-141.4525200384216
 10
120.4536295271782
 20
-141.4525200384216
 10
119.4256130343797
 20
-141.4525200384216
 10
119.4256130343797
 20
-141.4525200384216
 10
119.457307912844
 20
-141.0949191270526
 10
119.5227647270637
 20
-141.0167154595375
 10
119.9079264023147
 20
-140.7183701905148
 10
120.1638969968687
 20
-140.5195881810159
 10
120.2293538110885
 20
-140.4518920547308
 10
120.2293538110885
 20
-140.3144327448693
 10
120.2293538110885
 20
-140.1959214601767
 10
120.1573513154468
 20
-140.0646633221887
 10
119.960636363239
 20
-140.0646633221887
 10
119.7005316541026
 20
-140.0646633221887
 10
119.692263424938
 20
-140.2953124649262
 10
119.6877848008072
 20
-140.4117566923276
 10
119.6877848008072
 20
-140.4117566923276
 10
119.4635090847174
 20
-140.4117566923276
 10
119.4635090847174
 20
-140.4117566923276
 10
119.4721218234306
 20
-140.2848049236961
 10
119.4828016194348
 20
-140.1726670656513
 10
119.5630723442411
 20
-140.0541557809587
 10
119.6729708902206
 20
-139.8934420765717
 10
119.8593505559726
 20
-139.8595078860421
 10
119.9754502738256
 20
-139.8595078860421
 10
120.2527804603882
 20
-139.8595078860421
 10
120.4601752086002
 20
-140.0436482397287
 10
120.4601752086002
 20
-140.3164998021605
 10
120.4601752086002
 20
-140.5449096328325
 10
120.3437309811988
 20
-140.6444728923562
 10
120.0347059161719
 20
-140.8708156657371
 97
        0
 97
        1
330
148
 75
     2
 76
     1
 98
        1
 10
0.0
 20
0.0
450
        0
451
        0
460
0.0
461
0.0
452
        0
462
0.0
453
        0
470

  0
SPLINE
  5
14A
330
144
100
AcDbEntity
  8
レイヤー 1
100
AcDbSpline
210
0.0
220
0.0
230
1.0
 70
    11
 71
     3
 72
    26
 73
    22
 74
     0
 42
0.0000000001
 43
0.0000000001
 40
0.0
 40
0.0
 40
0.0
 40
0.0
 40
1.0
 40
1.0
 40
1.0
 40
2.0
 40
2.0
 40
2.0
 40
3.0
 40
3.0
 40
3.0
 40
4.0
 40
4.0
 40
4.0
 40
5.0
 40
5.0
 40
5.0
 40
6.0
 40
6.0
 40
6.0
 40
7.0
 40
7.0
 40
7.0
 40
7.0
 10
121.0699571094894
 20
-141.4525200384216
 30
0.0
 10
121.0699571094894
 20
-141.4525200384216
 30
0.0
 10
121.0699571094894
 20
-140.3481946806248
 30
0.0
 10
121.0699571094894
 20
-140.3481946806248
 30
0.0
 10
121.0699571094894
 20
-140.3481946806248
 30
0.0
 10
120.7399169620025
 20
-140.3481946806248
 30
0.0
 10
120.7399169620025
 20
-140.3481946806248
 30
0.0
 10
120.7399169620025
 20
-140.3481946806248
 30
0.0
 10
120.7399169620025
 20
-140.200055574759
 30
0.0
 10
120.7399169620025
 20
-140.200055574759
 30
0.0
 10
121.0720241667806
 20
-140.1854139189467
 30
0.0
 10
121.1185329558315
 20
-140.0224609024944
 30
0.0
 10
121.1481607770046
 20
-139.9082559871583
 30
0.0
 10
121.1481607770046
 20
-139.9082559871583
 30
0.0
 10
121.2942328255792
 20
-139.9082559871583
 30
0.0
 10
121.2942328255792
 20
-139.9082559871583
 30
0.0
 10
121.2942328255792
 20
-139.9082559871583
 30
0.0
 10
121.2942328255792
 20
-141.4525200384216
 30
0.0
 10
121.2942328255792
 20
-141.4525200384216
 30
0.0
 10
121.2942328255792
 20
-141.4525200384216
 30
0.0
 10
121.0699571094894
 20
-141.4525200384216
 30
0.0
 10
121.0699571094894
 20
-141.4525200384216
 30
0.0
  0
HATCH
  5
14B
330
144
100
AcDbEntity
  8
レイヤー 1
 62
   250
420
  2299925
440
 33554687
100
AcDbHatch
 10
0.0
 20
0.0
 30
0.0
210
0.0
220
0.0
230
1.0
  2
SOLID
 70
     1
 71
     1
 91
        1
 92
        1
 93
        1
 72
     4
 94
        3
 73
     0
 74
     0
 95
       26
 96
       22
 40
0.0
 40
0.0
 40
0.0
 40
0.0
 40
1.0
 40
1.0
 40
1.0
 40
2.0
 40
2.0
 40
2.0
 40
3.0
 40
3.0
 40
3.0
 40
4.0
 40
4.0
 40
4.0
 40
5.0
 40
5.0
 40
5.0
 40
6.0
 40
6.0
 40
6.0
 40
7.0
 40
7.0
 40
7.0
 40
7.0
 10
121.0699571094894
 20
-141.4525200384216
 10
121.0699571094894
 20
-141.4525200384216
 10
121.0699571094894
 20
-140.3481946806248
 10
121.0699571094894
 20
-140.3481946806248
 10
121.0699571094894
 20
-140.3481946806248
 10
120.7399169620025
 20
-140.3481946806248
 10
120.7399169620025
 20
-140.3481946806248
 10
120.7399169620025
 20
-140.3481946806248
 10
120.7399169620025
 20
-140.200055574759
 10
120.7399169620025
 20
-140.200055574759
 10
121.0720241667806
 20
-140.1854139189467
 10
121.1185329558315
 20
-140.0224609024944
 10
121.1481607770046
 20
-139.9082559871583
 10
121.1481607770046
 20
-139.9082559871583
 10
121.2942328255792
 20
-139.9082559871583
 10
121.2942328255792
 20
-139.9082559871583
 10
121.2942328255792
 20
-139.9082559871583
 10
121.2942328255792
 20
-141.4525200384216
 10
121.2942328255792
 20
-141.4525200384216
 10
121.2942328255792
 20
-141.4525200384216
 10
121.0699571094894
 20
-141.4525200384216
 10
121.0699571094894
 20
-141.4525200384216
 97
        0
 97
        1
330
14A
 75
     2
 76
     1
 98
        1
 10
0.0
 20
0.0
450
        0
451
        0
460
0.0
461
0.0
452
        0
462
0.0
453
        0
470

  0
ENDBLK
  5
147
330
144
100
AcDbEntity
  8
0
100
AcDbBlockEnd
  0
BLOCK
  5
151
330
14F
100
AcDbEntity
  8
0
100
AcDbBlockBegin
  2
Block_11
 70
     0
 10
0.0
 20
0.0
 30
0.0
  3
Block_11
  1

  0
SPLINE
  5
153
330
14F
100
AcDbEntity
  8
レイヤー 1
100
AcDbSpline
210
0.0
220
0.0
230
1.0
 70
     9
 71
     3
 72
    17
 73
    13
 74
     0
 42
0.0000000001
 43
0.0000000001
 40
0.0
 40
0.0
 40
0.0
 40
0.0
 40
1.0
 40
1.0
 40
1.0
 40
2.0
 40
2.0
 40
2.0
 40
3.0
 40
3.0
 40
3.0
 40
4.0
 40
4.0
 40
4.0
 40
4.0
 10
105.5491129293419
 20
-140.0520887236675
 30
0.0
 10
105.4306016446493
 20
-140.0520887236675
 30
0.0
 10
105.2549017749015
 20
-140.1091050539484
 30
0.0
 10
105.2549017749015
 20
-140.3947034696756
 30
0.0
 10
105.2549017749015
 20
-140.6210462430565
 30
0.0
 10
105.3947726516027
 20
-140.7163031332237
 30
0.0
 10
105.530164904173
 20
-140.7163031332237
 30
0.0
 10
105.7923366706005
 20
-140.7163031332237
 30
0.0
 10
105.8305772304868
 20
-140.5068413277205
 30
0.0
 10
105.8305772304868
 20
-140.3905693550933
 30
0.0
 10
105.8305772304868
 20
-140.2148694853456
 30
0.0
 10
105.7351480855454
 20
-140.0520887236675
 30
0.0
 10
105.5491129293419
 20
-140.0520887236675
 30
0.0
  0
SPLINE
  5
154
330
14F
100
AcDbEntity
  8
レイヤー 1
100
AcDbSpline
210
0.0
220
0.0
230
1.0
 70
     9
 71
     3
 72
    32
 73
    28
 74
     0
 42
0.0000000001
 43
0.0000000001
 40
0.0
 40
0.0
 40
0.0
 40
0.0
 40
1.0
 40
1.0
 40
1.0
 40
2.0
 40
2.0
 40
2.0
 40
3.0
 40
3.0
 40
3.0
 40
4.0
 40
4.0
 40
4.0
 40
5.0
 40
5.0
 40
5.0
 40
6.0
 40
6.0
 40
6.0
 40
7.0
 40
7.0
 40
7.0
 40
8.0
 40
8.0
 40
8.0
 40
9.0
 40
9.0
 40
9.0
 40
9.0
 10
105.5088053121644
 20
-141.503335196829
 30
0.0
 10
105.3355170092564
 20
-141.503335196829
 30
0.0
 10
105.0898817011581
 20
-141.4333997584784
 30
0.0
 10
105.0519856508203
 20
-141.1012925537004
 30
0.0
 10
105.0519856508203
 20
-141.1012925537004
 30
0.0
 10
105.2655815709058
 20
-141.1012925537004
 30
0.0
 10
105.2655815709058
 20
-141.1012925537004
 30
0.0
 10
105.2762613669101
 20
-141.1605481960467
 30
0.0
 10
105.3079562453744
 20
-141.3086873019124
 30
0.0
 10
105.5108723694556
 20
-141.3086873019124
 30
0.0
 10
105.8030164666048
 20
-141.3086873019124
 30
0.0
 10
105.8409125169425
 20
-140.9786471544255
 30
0.0
 10
105.853659370238
 20
-140.7734917182788
 30
0.0
 10
105.7627088494274
 20
-140.8537624430852
 30
0.0
 10
105.6951849779165
 20
-140.9109510281403
 30
0.0
 10
105.5132839362953
 20
-140.9109510281403
 30
0.0
 10
105.3334499519652
 20
-140.9109510281403
 30
0.0
 10
105.0306260588118
 20
-140.8051865967431
 30
0.0
 10
105.0306260588118
 20
-140.3990098390322
 30
0.0
 10
105.0306260588118
 20
-140.0794772327753
 30
0.0
 10
105.2297525778592
 20
-139.8595078860421
 30
0.0
 10
105.5470458720507
 20
-139.8595078860421
 30
0.0
 10
106.06105411845
 20
-139.8595078860421
 30
0.0
 10
106.0717339144543
 20
-140.4138237496188
 30
0.0
 10
106.0717339144543
 20
-140.6274196697042
 30
0.0
 10
106.0717339144543
 20
-140.8580688124417
 30
0.0
 10
106.0524413797369
 20
-141.503335196829
 30
0.0
 10
105.5088053121644
 20
-141.503335196829
 30
0.0
  0
HATCH
  5
155
330
14F
100
AcDbEntity
  8
レイヤー 1
 62
   250
420
  2299925
440
 33554687
100
AcDbHatch
 10
0.0
 20
0.0
 30
0.0
210
0.0
220
0.0
230
1.0
  2
SOLID
 70
     1
 71
     1
 91
        2
 92
        1
 93
        1
 72
     4
 94
        3
 73
     0
 74
     0
 95
       17
 96
       13
 40
0.0
 40
0.0
 40
0.0
 40
0.0
 40
1.0
 40
1.0
 40
1.0
 40
2.0
 40
2.0
 40
2.0
 40
3.0
 40
3.0
 40
3.0
 40
4.0
 40
4.0
 40
4.0
 40
4.0
 10
105.5491129293419
 20
-140.0520887236675
 10
105.4306016446493
 20
-140.0520887236675
 10
105.2549017749015
 20
-140.1091050539484
 10
105.2549017749015
 20
-140.3947034696756
 10
105.2549017749015
 20
-140.6210462430565
 10
105.3947726516027
 20
-140.7163031332237
 10
105.530164904173
 20
-140.7163031332237
 10
105.7923366706005
 20
-140.7163031332237
 10
105.8305772304868
 20
-140.5068413277205
 10
105.8305772304868
 20
-140.3905693550933
 10
105.8305772304868
 20
-140.2148694853456
 10
105.7351480855454
 20
-140.0520887236675
 10
105.5491129293419
 20
-140.0520887236675
 97
        0
 97
        1
330
153
 92
        1
 93
        1
 72
     4
 94
        3
 73
     0
 74
     0
 95
       32
 96
       28
 40
0.0
 40
0.0
 40
0.0
 40
0.0
 40
1.0
 40
1.0
 40
1.0
 40
2.0
 40
2.0
 40
2.0
 40
3.0
 40
3.0
 40
3.0
 40
4.0
 40
4.0
 40
4.0
 40
5.0
 40
5.0
 40
5.0
 40
6.0
 40
6.0
 40
6.0
 40
7.0
 40
7.0
 40
7.0
 40
8.0
 40
8.0
 40
8.0
 40
9.0
 40
9.0
 40
9.0
 40
9.0
 10
105.5088053121644
 20
-141.503335196829
 10
105.3355170092564
 20
-141.503335196829
 10
105.0898817011581
 20
-141.4333997584784
 10
105.0519856508203
 20
-141.1012925537004
 10
105.0519856508203
 20
-141.1012925537004
 10
105.2655815709058
 20
-141.1012925537004
 10
105.2655815709058
 20
-141.1012925537004
 10
105.2762613669101
 20
-141.1605481960467
 10
105.3079562453744
 20
-141.3086873019124
 10
105.5108723694556
 20
-141.3086873019124
 10
105.8030164666048
 20
-141.3086873019124
 10
105.8409125169425
 20
-140.9786471544255
 10
105.853659370238
 20
-140.7734917182788
 10
105.7627088494274
 20
-140.8537624430852
 10
105.6951849779165
 20
-140.9109510281403
 10
105.5132839362953
 20
-140.9109510281403
 10
105.3334499519652
 20
-140.9109510281403
 10
105.0306260588118
 20
-140.8051865967431
 10
105.0306260588118
 20
-140.3990098390322
 10
105.0306260588118
 20
-140.0794772327753
 10
105.2297525778592
 20
-139.8595078860421
 10
105.5470458720507
 20
-139.8595078860421
 10
106.06105411845
 20
-139.8595078860421
 10
106.0717339144543
 20
-140.4138237496188
 10
106.0717339144543
 20
-140.6274196697042
 10
106.0717339144543
 20
-140.8580688124417
 10
106.0524413797369
 20
-141.503335196829
 10
105.5088053121644
 20
-141.503335196829
 97
        0
 97
        1
330
154
 75
     2
 76
     1
 98
        1
 10
0.0
 20
0.0
450
        0
451
        0
460
0.0
461
0.0
452
        0
462
0.0
453
        0
470

  0
ENDBLK
  5
152
330
14F
100
AcDbEntity
  8
0
100
AcDbBlockEnd
  0
BLOCK
  5
159
330
157
100
AcDbEntity
  8
0
100
AcDbBlockBegin
  2
Block_12
 70
     0
 10
0.0
 20
0.0
 30
0.0
  3
Block_12
  1

  0
SPLINE
  5
15B
330
157
100
AcDbEntity
  8
レイヤー 1
100
AcDbSpline
210
0.0
220
0.0
230
1.0
 70
    11
 71
     3
 72
    26
 73
    22
 74
     0
 42
0.0000000001
 43
0.0000000001
 40
0.0
 40
0.0
 40
0.0
 40
0.0
 40
1.0
 40
1.0
 40
1.0
 40
2.0
 40
2.0
 40
2.0
 40
3.0
 40
3.0
 40
3.0
 40
4.0
 40
4.0
 40
4.0
 40
5.0
 40
5.0
 40
5.0
 40
6.0
 40
6.0
 40
6.0
 40
7.0
 40
7.0
 40
7.0
 40
7.0
 10
113.0418511002117
 20
-149.6876762863628
 30
0.0
 10
113.0418511002117
 20
-149.6876762863628
 30
0.0
 10
113.0418511002117
 20
-148.583350928566
 30
0.0
 10
113.0418511002117
 20
-148.583350928566
 30
0.0
 10
113.0418511002117
 20
-148.583350928566
 30
0.0
 10
112.7118109527248
 20
-148.583350928566
 30
0.0
 10
112.7118109527248
 20
-148.583350928566
 30
0.0
 10
112.7118109527248
 20
-148.583350928566
 30
0.0
 10
112.7118109527248
 20
-148.4352118227002
 30
0.0
 10
112.7118109527248
 20
-148.4352118227002
 30
0.0
 10
113.0439181575029
 20
-148.4205701668879
 30
0.0
 10
113.0904269465538
 20
-148.2576171504356
 30
0.0
 10
113.1200547677269
 20
-148.1434122350995
 30
0.0
 10
113.1200547677269
 20
-148.1434122350995
 30
0.0
 10
113.2661268163015
 20
-148.1434122350995
 30
0.0
 10
113.2661268163015
 20
-148.1434122350995
 30
0.0
 10
113.2661268163015
 20
-148.1434122350995
 30
0.0
 10
113.2661268163015
 20
-149.6876762863628
 30
0.0
 10
113.2661268163015
 20
-149.6876762863628
 30
0.0
 10
113.2661268163015
 20
-149.6876762863628
 30
0.0
 10
113.0418511002117
 20
-149.6876762863628
 30
0.0
 10
113.0418511002117
 20
-149.6876762863628
 30
0.0
  0
HATCH
  5
15C
330
157
100
AcDbEntity
  8
レイヤー 1
 62
   250
420
  2299925
440
 33554687
100
AcDbHatch
 10
0.0
 20
0.0
 30
0.0
210
0.0
220
0.0
230
1.0
  2
SOLID
 70
     1
 71
     1
 91
        1
 92
        1
 93
        1
 72
     4
 94
        3
 73
     0
 74
     0
 95
       26
 96
       22
 40
0.0
 40
0.0
 40
0.0
 40
0.0
 40
1.0
 40
1.0
 40
1.0
 40
2.0
 40
2.0
 40
2.0
 40
3.0
 40
3.0
 40
3.0
 40
4.0
 40
4.0
 40
4.0
 40
5.0
 40
5.0
 40
5.0
 40
6.0
 40
6.0
 40
6.0
 40
7.0
 40
7.0
 40
7.0
 40
7.0
 10
113.0418511002117
 20
-149.6876762863628
 10
113.0418511002117
 20
-149.6876762863628
 10
113.0418511002117
 20
-148.583350928566
 10
113.0418511002117
 20
-148.583350928566
 10
113.0418511002117
 20
-148.583350928566
 10
112.7118109527248
 20
-148.583350928566
 10
112.7118109527248
 20
-148.583350928566
 10
112.7118109527248
 20
-148.583350928566
 10
112.7118109527248
 20
-148.4352118227002
 10
112.7118109527248
 20
-148.4352118227002
 10
113.0439181575029
 20
-148.4205701668879
 10
113.0904269465538
 20
-148.2576171504356
 10
113.1200547677269
 20
-148.1434122350995
 10
113.1200547677269
 20
-148.1434122350995
 10
113.2661268163015
 20
-148.1434122350995
 10
113.2661268163015
 20
-148.1434122350995
 10
113.2661268163015
 20
-148.1434122350995
 10
113.2661268163015
 20
-149.6876762863628
 10
113.2661268163015
 20
-149.6876762863628
 10
113.2661268163015
 20
-149.6876762863628
 10
113.0418511002117
 20
-149.6876762863628
 10
113.0418511002117
 20
-149.6876762863628
 97
        0
 97
        1
330
15B
 75
     2
 76
     1
 98
        1
 10
0.0
 20
0.0
450
        0
451
        0
460
0.0
461
0.0
452
        0
462
0.0
453
        0
470

  0
ENDBLK
  5
15A
330
157
100
AcDbEntity
  8
0
100
AcDbBlockEnd
  0
BLOCK
  5
166
330
164
100
AcDbEntity
  8
0
100
AcDbBlockBegin
  2
Block_13
 70
     0
 10
0.0
 20
0.0
 30
0.0
  3
Block_13
  1

  0
INSERT
  5
169
330
164
100
AcDbEntity
  8
レイヤー 1
100
AcDbBlockReference
  2
Block_14
 10
0.0
 20
0.0
 30
0.0
  0
ENDBLK
  5
167
330
164
100
AcDbEntity
  8
0
100
AcDbBlockEnd
  0
BLOCK
  5
16A
330
168
100
AcDbEntity
  8
0
100
AcDbBlockBegin
  2
Block_14
 70
     0
 10
0.0
 20
0.0
 30
0.0
  3
Block_14
  1

  0
SPLINE
  5
16C
330
168
100
AcDbEntity
  8
レイヤー 1
100
AcDbSpline
210
0.0
220
0.0
230
1.0
 70
    11
 71
     3
 72
    26
 73
    22
 74
     0
 42
0.0000000001
 43
0.0000000001
 40
0.0
 40
0.0
 40
0.0
 40
0.0
 40
1.0
 40
1.0
 40
1.0
 40
2.0
 40
2.0
 40
2.0
 40
3.0
 40
3.0
 40
3.0
 40
4.0
 40
4.0
 40
4.0
 40
5.0
 40
5.0
 40
5.0
 40
6.0
 40
6.0
 40
6.0
 40
7.0
 40
7.0
 40
7.0
 40
7.0
 10
105.2097710240448
 20
-155.8278699697236
 30
0.0
 10
105.2097710240448
 20
-155.8278699697236
 30
0.0
 10
105.2097710240448
 20
-154.723716866701
 30
0.0
 10
105.2097710240448
 20
-154.723716866701
 30
0.0
 10
105.2097710240448
 20
-154.723716866701
 30
0.0
 10
104.8797308765578
 20
-154.723716866701
 30
0.0
 10
104.8797308765578
 20
-154.723716866701
 30
0.0
 10
104.8797308765578
 20
-154.723716866701
 30
0.0
 10
104.8797308765578
 20
-154.5755777608353
 30
0.0
 10
104.8797308765578
 20
-154.5755777608353
 30
0.0
 10
105.2118380813359
 20
-154.5607638502487
 30
0.0
 10
105.2583468703868
 20
-154.3978108337964
 30
0.0
 10
105.2879746915599
 20
-154.2834336636861
 30
0.0
 10
105.2879746915599
 20
-154.2834336636861
 30
0.0
 10
105.4340467401345
 20
-154.2834336636861
 30
0.0
 10
105.4340467401345
 20
-154.2834336636861
 30
0.0
 10
105.4340467401345
 20
-154.2834336636861
 30
0.0
 10
105.4340467401345
 20
-155.8278699697236
 30
0.0
 10
105.4340467401345
 20
-155.8278699697236
 30
0.0
 10
105.4340467401345
 20
-155.8278699697236
 30
0.0
 10
105.2097710240448
 20
-155.8278699697236
 30
0.0
 10
105.2097710240448
 20
-155.8278699697236
 30
0.0
  0
HATCH
  5
16D
330
168
100
AcDbEntity
  8
レイヤー 1
 62
   250
420
  2299925
440
 33554687
100
AcDbHatch
 10
0.0
 20
0.0
 30
0.0
210
0.0
220
0.0
230
1.0
  2
SOLID
 70
     1
 71
     1
 91
        1
 92
        1
 93
        1
 72
     4
 94
        3
 73
     0
 74
     0
 95
       26
 96
       22
 40
0.0
 40
0.0
 40
0.0
 40
0.0
 40
1.0
 40
1.0
 40
1.0
 40
2.0
 40
2.0
 40
2.0
 40
3.0
 40
3.0
 40
3.0
 40
4.0
 40
4.0
 40
4.0
 40
5.0
 40
5.0
 40
5.0
 40
6.0
 40
6.0
 40
6.0
 40
7.0
 40
7.0
 40
7.0
 40
7.0
 10
105.2097710240448
 20
-155.8278699697236
 10
105.2097710240448
 20
-155.8278699697236
 10
105.2097710240448
 20
-154.723716866701
 10
105.2097710240448
 20
-154.723716866701
 10
105.2097710240448
 20
-154.723716866701
 10
104.8797308765578
 20
-154.723716866701
 10
104.8797308765578
 20
-154.723716866701
 10
104.8797308765578
 20
-154.723716866701
 10
104.8797308765578
 20
-154.5755777608353
 10
104.8797308765578
 20
-154.5755777608353
 10
105.2118380813359
 20
-154.5607638502487
 10
105.2583468703868
 20
-154.3978108337964
 10
105.2879746915599
 20
-154.2834336636861
 10
105.2879746915599
 20
-154.2834336636861
 10
105.4340467401345
 20
-154.2834336636861
 10
105.4340467401345
 20
-154.2834336636861
 10
105.4340467401345
 20
-154.2834336636861
 10
105.4340467401345
 20
-155.8278699697236
 10
105.4340467401345
 20
-155.8278699697236
 10
105.4340467401345
 20
-155.8278699697236
 10
105.2097710240448
 20
-155.8278699697236
 10
105.2097710240448
 20
-155.8278699697236
 97
        0
 97
        1
330
16C
 75
     2
 76
     1
 98
        1
 10
0.0
 20
0.0
450
        0
451
        0
460
0.0
461
0.0
452
        0
462
0.0
453
        0
470

  0
SPLINE
  5
16E
330
168
100
AcDbEntity
  8
レイヤー 1
100
AcDbSpline
210
0.0
220
0.0
230
1.0
 70
    11
 71
     3
 72
    26
 73
    22
 74
     0
 42
0.0000000001
 43
0.0000000001
 40
0.0
 40
0.0
 40
0.0
 40
0.0
 40
1.0
 40
1.0
 40
1.0
 40
2.0
 40
2.0
 40
2.0
 40
3.0
 40
3.0
 40
3.0
 40
4.0
 40
4.0
 40
4.0
 40
5.0
 40
5.0
 40
5.0
 40
6.0
 40
6.0
 40
6.0
 40
7.0
 40
7.0
 40
7.0
 40
7.0
 10
106.3866156418061
 20
-155.8278699697236
 30
0.0
 10
106.3866156418061
 20
-155.8278699697236
 30
0.0
 10
106.3866156418061
 20
-154.723716866701
 30
0.0
 10
106.3866156418061
 20
-154.723716866701
 30
0.0
 10
106.3866156418061
 20
-154.723716866701
 30
0.0
 10
106.0565754943192
 20
-154.723716866701
 30
0.0
 10
106.0565754943192
 20
-154.723716866701
 30
0.0
 10
106.0565754943192
 20
-154.723716866701
 30
0.0
 10
106.0565754943192
 20
-154.5755777608353
 30
0.0
 10
106.0565754943192
 20
-154.5755777608353
 30
0.0
 10
106.3886826990972
 20
-154.5607638502487
 30
0.0
 10
106.4351914881481
 20
-154.3978108337964
 30
0.0
 10
106.4648193093213
 20
-154.2834336636861
 30
0.0
 10
106.4648193093213
 20
-154.2834336636861
 30
0.0
 10
106.6108913578959
 20
-154.2834336636861
 30
0.0
 10
106.6108913578959
 20
-154.2834336636861
 30
0.0
 10
106.6108913578959
 20
-154.2834336636861
 30
0.0
 10
106.6108913578959
 20
-155.8278699697236
 30
0.0
 10
106.6108913578959
 20
-155.8278699697236
 30
0.0
 10
106.6108913578959
 20
-155.8278699697236
 30
0.0
 10
106.3866156418061
 20
-155.8278699697236
 30
0.0
 10
106.3866156418061
 20
-155.8278699697236
 30
0.0
  0
HATCH
  5
16F
330
168
100
AcDbEntity
  8
レイヤー 1
 62
   250
420
  2299925
440
 33554687
100
AcDbHatch
 10
0.0
 20
0.0
 30
0.0
210
0.0
220
0.0
230
1.0
  2
SOLID
 70
     1
 71
     1
 91
        1
 92
        1
 93
        1
 72
     4
 94
        3
 73
     0
 74
     0
 95
       26
 96
       22
 40
0.0
 40
0.0
 40
0.0
 40
0.0
 40
1.0
 40
1.0
 40
1.0
 40
2.0
 40
2.0
 40
2.0
 40
3.0
 40
3.0
 40
3.0
 40
4.0
 40
4.0
 40
4.0
 40
5.0
 40
5.0
 40
5.0
 40
6.0
 40
6.0
 40
6.0
 40
7.0
 40
7.0
 40
7.0
 40
7.0
 10
106.3866156418061
 20
-155.8278699697236
 10
106.3866156418061
 20
-155.8278699697236
 10
106.3866156418061
 20
-154.723716866701
 10
106.3866156418061
 20
-154.723716866701
 10
106.3866156418061
 20
-154.723716866701
 10
106.0565754943192
 20
-154.723716866701
 10
106.0565754943192
 20
-154.723716866701
 10
106.0565754943192
 20
-154.723716866701
 10
106.0565754943192
 20
-154.5755777608353
 10
106.0565754943192
 20
-154.5755777608353
 10
106.3886826990972
 20
-154.5607638502487
 10
106.4351914881481
 20
-154.3978108337964
 10
106.4648193093213
 20
-154.2834336636861
 10
106.4648193093213
 20
-154.2834336636861
 10
106.6108913578959
 20
-154.2834336636861
 10
106.6108913578959
 20
-154.2834336636861
 10
106.6108913578959
 20
-154.2834336636861
 10
106.6108913578959
 20
-155.8278699697236
 10
106.6108913578959
 20
-155.8278699697236
 10
106.6108913578959
 20
-155.8278699697236
 10
106.3866156418061
 20
-155.8278699697236
 10
106.3866156418061
 20
-155.8278699697236
 97
        0
 97
        1
330
16E
 75
     2
 76
     1
 98
        1
 10
0.0
 20
0.0
450
        0
451
        0
460
0.0
461
0.0
452
        0
462
0.0
453
        0
470

  0
ENDBLK
  5
16B
330
168
100
AcDbEntity
  8
0
100
AcDbBlockEnd
  0
ENDSEC
  0
SECTION
  2
ENTITIES
  0
INSERT
  5
7A
330
70
100
AcDbEntity
  8
レイヤー 1
100
AcDbBlockReference
  2
Block_0
 10
0.0
 20
0.0
 30
0.0
  0
SPLINE
  5
15D
330
70
100
AcDbEntity
  8
レイヤー 1
 62
   250
420
  2299925
370
     9
100
AcDbSpline
210
0.0
220
0.0
230
1.0
 70
     9
 71
     3
 72
    17
 73
    13
 74
     0
 42
0.0000000001
 43
0.0000000001
 40
0.0
 40
0.0
 40
0.0
 40
0.0
 40
1.0
 40
1.0
 40
1.0
 40
2.0
 40
2.0
 40
2.0
 40
3.0
 40
3.0
 40
3.0
 40
4.0
 40
4.0
 40
4.0
 40
4.0
 10
100.3334525559233
 20
-156.5414276314303
 30
0.0
 10
100.3334525559233
 20
-156.4862884647779
 30
0.0
 10
100.2884730184828
 20
-156.4414856870112
 30
0.0
 10
100.2330813748305
 20
-156.4414856870112
 30
0.0
 10
100.1784320934126
 20
-156.4414856870112
 30
0.0
 10
100.1334525559727
 20
-156.4862884647779
 30
0.0
 10
100.1334525559727
 20
-156.5414276314303
 30
0.0
 10
100.1334525559727
 20
-156.5965315203059
 30
0.0
 10
100.1784320934126
 20
-156.6413342980726
 30
0.0
 10
100.2330813748305
 20
-156.6413342980726
 30
0.0
 10
100.2884730184828
 20
-156.6413342980726
 30
0.0
 10
100.3334525559233
 20
-156.5965315203059
 30
0.0
 10
100.3334525559233
 20
-156.5414276314303
 30
0.0
  0
HATCH
  5
15E
330
70
100
AcDbEntity
  8
レイヤー 1
 62
   250
420
  2299925
440
 33554687
100
AcDbHatch
 10
0.0
 20
0.0
 30
0.0
210
0.0
220
0.0
230
1.0
  2
SOLID
 70
     1
 71
     1
 91
        1
 92
        1
 93
        1
 72
     4
 94
        3
 73
     0
 74
     0
 95
       17
 96
       13
 40
0.0
 40
0.0
 40
0.0
 40
0.0
 40
1.0
 40
1.0
 40
1.0
 40
2.0
 40
2.0
 40
2.0
 40
3.0
 40
3.0
 40
3.0
 40
4.0
 40
4.0
 40
4.0
 40
4.0
 10
100.3334525559233
 20
-156.5414276314303
 10
100.3334525559233
 20
-156.4862884647779
 10
100.2884730184828
 20
-156.4414856870112
 10
100.2330813748305
 20
-156.4414856870112
 10
100.1784320934126
 20
-156.4414856870112
 10
100.1334525559727
 20
-156.4862884647779
 10
100.1334525559727
 20
-156.5414276314303
 10
100.1334525559727
 20
-156.5965315203059
 10
100.1784320934126
 20
-156.6413342980726
 10
100.2330813748305
 20
-156.6413342980726
 10
100.2884730184828
 20
-156.6413342980726
 10
100.3334525559233
 20
-156.5965315203059
 10
100.3334525559233
 20
-156.5414276314303
 97
        0
 97
        1
330
15D
 75
     2
 76
     1
 98
        1
 10
0.0
 20
0.0
450
        0
451
        0
460
0.0
461
0.0
452
        0
462
0.0
453
        0
470

  0
SPLINE
  5
15F
330
70
100
AcDbEntity
  8
レイヤー 1
 62
   250
420
  2299925
370
     9
100
AcDbSpline
210
0.0
220
0.0
230
1.0
 70
     9
 71
     3
 72
    17
 73
    13
 74
     0
 42
0.0000000001
 43
0.0000000001
 40
0.0
 40
0.0
 40
0.0
 40
0.0
 40
1.0
 40
1.0
 40
1.0
 40
2.0
 40
2.0
 40
2.0
 40
3.0
 40
3.0
 40
3.0
 40
4.0
 40
4.0
 40
4.0
 40
4.0
 10
111.3761390266782
 20
-156.5414276314303
 30
0.0
 10
111.3761390266782
 20
-156.4862884647779
 30
0.0
 10
111.3315253989771
 20
-156.4414856870112
 30
0.0
 10
111.2765006559379
 20
-156.4414856870112
 30
0.0
 10
111.2207526544299
 20
-156.4414856870112
 30
0.0
 10
111.1761390267276
 20
-156.4862884647779
 30
0.0
 10
111.1761390267276
 20
-156.5414276314303
 30
0.0
 10
111.1761390267276
 20
-156.5965315203059
 30
0.0
 10
111.2207526544299
 20
-156.6413342980726
 30
0.0
 10
111.2765006559379
 20
-156.6413342980726
 30
0.0
 10
111.3315253989771
 20
-156.6413342980726
 30
0.0
 10
111.3761390266782
 20
-156.5965315203059
 30
0.0
 10
111.3761390266782
 20
-156.5414276314303
 30
0.0
  0
HATCH
  5
160
330
70
100
AcDbEntity
  8
レイヤー 1
 62
   250
420
  2299925
440
 33554687
100
AcDbHatch
 10
0.0
 20
0.0
 30
0.0
210
0.0
220
0.0
230
1.0
  2
SOLID
 70
     1
 71
     1
 91
        1
 92
        1
 93
        1
 72
     4
 94
        3
 73
     0
 74
     0
 95
       17
 96
       13
 40
0.0
 40
0.0
 40
0.0
 40
0.0
 40
1.0
 40
1.0
 40
1.0
 40
2.0
 40
2.0
 40
2.0
 40
3.0
 40
3.0
 40
3.0
 40
4.0
 40
4.0
 40
4.0
 40
4.0
 10
111.3761390266782
 20
-156.5414276314303
 10
111.3761390266782
 20
-156.4862884647779
 10
111.3315253989771
 20
-156.4414856870112
 10
111.2765006559379
 20
-156.4414856870112
 10
111.2207526544299
 20
-156.4414856870112
 10
111.1761390267276
 20
-156.4862884647779
 10
111.1761390267276
 20
-156.5414276314303
 10
111.1761390267276
 20
-156.5965315203059
 10
111.2207526544299
 20
-156.6413342980726
 10
111.2765006559379
 20
-156.6413342980726
 10
111.3315253989771
 20
-156.6413342980726
 10
111.3761390266782
 20
-156.5965315203059
 10
111.3761390266782
 20
-156.5414276314303
 97
        0
 97
        1
330
15F
 75
     2
 76
     1
 98
        1
 10
0.0
 20
0.0
450
        0
451
        0
460
0.0
461
0.0
452
        0
462
0.0
453
        0
470

  0
LINE
  5
161
330
70
100
AcDbEntity
  8
レイヤー 1
 62
   250
420
  2299925
370
     9
100
AcDbLine
 10
111.2768093322793
 20
-156.5414276314303
 30
0.0
 11
100.2327646392985
 21
-156.5414276314303
 31
0.0
  0
LINE
  5
162
330
70
100
AcDbEntity
  8
レイヤー 1
 62
   250
420
  2299925
370
     9
100
AcDbLine
 10
111.2768093044642
 20
-155.0813862429066
 30
0.0
 11
111.2768093044642
 21
-157.5415173534031
 31
0.0
  0
LINE
  5
163
330
70
100
AcDbEntity
  8
レイヤー 1
 62
   250
420
  2299925
370
     9
100
AcDbLine
 10
100.2327646392985
 20
-155.0813862429066
 30
0.0
 11
100.2327646392985
 21
-157.5415173534031
 31
0.0
  0
INSERT
  5
165
330
70
100
AcDbEntity
  8
レイヤー 1
100
AcDbBlockReference
  2
Block_13
 10
0.0
 20
0.0
 30
0.0
  0
ENDSEC
  0
SECTION
  2
OBJECTS
  0
DICTIONARY
  5
C
330
0
100
AcDbDictionary
281
     1
  3
ACAD_COLOR
350
63
  3
ACAD_DETAILVIEWSTYLE
350
6A
  3
ACAD_GROUP
350
D
  3
ACAD_LAYOUT
350
62
  3
ACAD_MATERIAL
350
10
  3
ACAD_MLEADERSTYLE
350
66
  3
ACAD_MLINESTYLE
350
5F
  3
ACAD_PLOTSETTINGS
350
61
  3
ACAD_PLOTSTYLENAME
350
E
  3
ACAD_SCALELIST
350
42
  3
ACAD_SECTIONVIEWSTYLE
350
68
  3
ACAD_TABLESTYLE
350
64
  3
ACAD_VISUALSTYLE
350
29
  3
ACDB_RECOMPOSE_DATA
350
178
  3
AcDbVariableDictionary
350
170
  0
DICTIONARY
  5
63
102
{ACAD_REACTORS
330
C
102
}
330
C
100
AcDbDictionary
281
     1
  0
DICTIONARY
  5
6A
102
{ACAD_REACTORS
330
C
102
}
330
C
100
AcDbDictionary
281
     1
  3
Imperial24
350
6B
  0
DICTIONARY
  5
D
102
{ACAD_REACTORS
330
C
102
}
330
C
100
AcDbDictionary
281
     1
  0
DICTIONARY
  5
62
102
{ACAD_REACTORS
330
C
102
}
330
C
100
AcDbDictionary
281
     1
  3
Layout1
350
6F
  3
Layout2
350
77
  3
Model
350
73
  0
DICTIONARY
  5
10
102
{ACAD_REACTORS
330
C
102
}
330
C
100
AcDbDictionary
281
     1
  3
ByBlock
350
19
  3
ByLayer
350
11
  3
Global
350
21
  0
DICTIONARY
  5
66
102
{ACAD_REACTORS
330
C
102
}
330
C
100
AcDbDictionary
281
     1
  3
Standard
350
67
  0
DICTIONARY
  5
5F
102
{ACAD_REACTORS
330
C
102
}
330
C
100
AcDbDictionary
281
     1
  3
Standard
350
60
  0
DICTIONARY
  5
61
102
{ACAD_REACTORS
330
C
102
}
330
C
100
AcDbDictionary
281
     1
  0
ACDBDICTIONARYWDFLT
  5
E
102
{ACAD_REACTORS
330
C
102
}
330
C
100
AcDbDictionary
281
     1
  3
Normal
350
F
100
AcDbDictionaryWithDefault
340
F
  0
DICTIONARY
  5
42
102
{ACAD_REACTORS
330
C
102
}
330
C
100
AcDbDictionary
281
     1
  3
A0
350
43
  3
A1
350
44
  3
A2
350
45
  3
A3
350
46
  3
A4
350
47
  3
A5
350
48
  3
A6
350
49
  3
A7
350
4A
  3
A8
350
4B
  3
A9
350
4C
  3
B0
350
4D
  3
B1
350
4E
  3
B2
350
4F
  3
B3
350
50
  3
B4
350
51
  3
B5
350
52
  3
B6
350
53
  0
DICTIONARY
  5
68
102
{ACAD_REACTORS
330
C
102
}
330
C
100
AcDbDictionary
281
     1
  3
Imperial24
350
69
  0
DICTIONARY
  5
64
102
{ACAD_REACTORS
330
C
102
}
330
C
100
AcDbDictionary
281
     1
  3
Standard
350
65
  0
DICTIONARY
  5
29
102
{ACAD_REACTORS
330
C
102
}
330
C
100
AcDbDictionary
281
     1
  3
2dWireframe
350
2F
  3
Basic
350
2E
  3
Brighten
350
35
  3
ColorChange
350
39
  3
Conceptual
350
32
  3
Dim
350
34
  3
EdgeColorOff
350
41
  3
Facepattern
350
38
  3
Flat
350
2A
  3
FlatWithEdges
350
2B
  3
Gouraud
350
2C
  3
GouraudWithEdges
350
2D
  3
Hidden
350
31
  3
JitterOff
350
3F
  3
Linepattern
350
37
  3
OverhangOff
350
40
  3
Realistic
350
33
  3
Shaded
350
3E
  3
Shaded with edges
350
3D
  3
Shades of Gray
350
3A
  3
Sketchy
350
3B
  3
Thicken
350
36
  3
Wireframe
350
30
  3
X-Ray
350
3C
  0
XRECORD
  5
178
102
{ACAD_REACTORS
330
C
102
}
330
C
100
AcDbXrecord
280
     1
 90
        1
330
65
  0
DICTIONARY
  5
170
102
{ACAD_REACTORS
330
C
102
}
330
C
100
AcDbDictionary
281
     1
  3
CANNOSCALE
350
175
  3
CMLEADERSTYLE
350
172
  3
CTABLESTYLE
350
171
  3
CVIEWDETAILSTYLE
350
173
  3
CVIEWSECTIONSTYLE
350
174
  0
ACDBDETAILVIEWSTYLE
  5
6B
102
{ACAD_XDICTIONARY
360
1AD
102
}
102
{ACAD_REACTORS
330
6A
102
}
330
6A
100
AcDbModelDocViewStyle
 70
     0
  3
Imperial24
290
     0
100
AcDbDetailViewStyle
 70
     0
 71
     0
 90
        3
 71
     1
340
55
 62
   256
 40
0.24
340
0
 62
   256
 40
0.24
300

 40
0.36
280
     3
 71
     2
340
5D
 90
       25
 62
   256
 71
     3
340
55
 62
   256
 40
0.24
 90
        1
 40
0.75
 90
        1
300
%<\AcVar ViewType \f "%tc1">% %<\AcVar ViewDetailId>%\PSCALE %<\AcVar ViewScale \f "%sn">%
 71
     4
340
5D
 90
       25
 62
   256
340
5D
 90
       25
 62
   256
280
     0
  0
LAYOUT
  5
6F
102
{ACAD_REACTORS
330
62
102
}
330
62
100
AcDbPlotSettings
  1

  2

  4

  6

 40
0.0
 41
0.0
 42
0.0
 43
0.0
 44
0.0
 45
0.0
 46
0.0
 47
0.0
 48
0.0
 49
0.0
140
0.0
141
0.0
142
1.0
143
1.0
 70
   688
 72
     0
 73
     0
 74
     5
  7

 75
    16
147
1.0
 76
     0
 77
     2
 78
   300
148
0.0
149
0.0
100
AcDbLayout
  1
Layout1
 70
     1
 71
     1
 10
0.0
 20
0.0
 11
12.0
 21
9.0
 12
0.0
 22
0.0
 32
0.0
 14
0.0
 24
0.0
 34
0.0
 15
0.0
 25
0.0
 35
0.0
146
0.0
 13
0.0
 23
0.0
 33
0.0
 16
1.0
 26
0.0
 36
0.0
 17
0.0
 27
1.0
 37
0.0
 76
     0
330
6C
  0
LAYOUT
  5
77
102
{ACAD_REACTORS
330
62
102
}
330
62
100
AcDbPlotSettings
  1

  2

  4

  6

 40
0.0
 41
0.0
 42
0.0
 43
0.0
 44
0.0
 45
0.0
 46
0.0
 47
0.0
 48
0.0
 49
0.0
140
0.0
141
0.0
142
1.0
143
1.0
 70
   688
 72
     0
 73
     0
 74
     5
  7

 75
    16
147
1.0
 76
     0
 77
     2
 78
   300
148
0.0
149
0.0
100
AcDbLayout
  1
Layout2
 70
     1
 71
     2
 10
0.0
 20
0.0
 11
12.0
 21
9.0
 12
0.0
 22
0.0
 32
0.0
 14
0.0
 24
0.0
 34
0.0
 15
0.0
 25
0.0
 35
0.0
146
0.0
 13
0.0
 23
0.0
 33
0.0
 16
1.0
 26
0.0
 36
0.0
 17
0.0
 27
1.0
 37
0.0
 76
     0
330
74
  0
LAYOUT
  5
73
102
{ACAD_REACTORS
330
62
102
}
330
62
100
AcDbPlotSettings
  1

  2

  4

  6

 40
0.0
 41
0.0
 42
0.0
 43
0.0
 44
0.0
 45
0.0
 46
0.0
 47
0.0
 48
0.0
 49
0.0
140
0.0
141
0.0
142
1.0
143
1.0
 70
  1712
 72
     0
 73
     0
 74
     0
  7

 75
     0
147
1.0
 76
     0
 77
     2
 78
   300
148
0.0
149
0.0
100
AcDbLayout
  1
Model
 70
     1
 71
     0
 10
0.0
 20
0.0
 11
12.0
 21
9.0
 12
0.0
 22
0.0
 32
0.0
 14
0.0
 24
0.0
 34
0.0
 15
0.0
 25
0.0
 35
0.0
146
0.0
 13
0.0
 23
0.0
 33
0.0
 16
1.0
 26
0.0
 36
0.0
 17
0.0
 27
1.0
 37
0.0
 76
     0
330
70
  0
MATERIAL
  5
19
102
{ACAD_XDICTIONARY
360
1A
102
}
102
{ACAD_REACTORS
330
10
102
}
330
10
100
AcDbMaterial
  1
ByBlock
 72
     0
 43
0.0208333333333333
 43
0.0
 43
0.0
 43
0.0
 43
0.0
 43
0.0208333333333333
 43
0.0
 43
0.0
 43
0.0
 43
0.0
 43
1.0
 43
0.0
 43
0.0
 43
0.0
 43
0.0
 43
1.0
 77
     0
 47
0.0208333333333333
 47
0.0
 47
0.0
 47
0.0
 47
0.0
 47
0.0208333333333333
 47
0.0
 47
0.0
 47
0.0
 47
0.0
 47
1.0
 47
0.0
 47
0.0
 47
0.0
 47
0.0
 47
1.0
171
     0
 49
0.0208333333333333
 49
0.0
 49
0.0
 49
0.0
 49
0.0
 49
0.0208333333333333
 49
0.0
 49
0.0
 49
0.0
 49
0.0
 49
1.0
 49
0.0
 49
0.0
 49
0.0
 49
0.0
 49
1.0
175
     0
142
0.0208333333333333
142
0.0
142
0.0
142
0.0
142
0.0
142
0.0208333333333333
142
0.0
142
0.0
142
0.0
142
0.0
142
1.0
142
0.0
142
0.0
142
0.0
142
0.0
142
1.0
179
     0
144
0.0208333333333333
144
0.0
144
0.0
144
0.0
144
0.0
144
0.0208333333333333
144
0.0
144
0.0
144
0.0
144
0.0
144
1.0
144
0.0
144
0.0
144
0.0
144
0.0
144
1.0
147
0.0208333333333333
147
0.0
147
0.0
147
0.0
147
0.0
147
0.0208333333333333
147
0.0
147
0.0
147
0.0
147
0.0
147
1.0
147
0.0
147
0.0
147
0.0
147
0.0
147
1.0
  0
MATERIAL
  5
11
102
{ACAD_XDICTIONARY
360
12
102
}
102
{ACAD_REACTORS
330
10
102
}
330
10
100
AcDbMaterial
  1
ByLayer
 72
     0
 43
0.0208333333333333
 43
0.0
 43
0.0
 43
0.0
 43
0.0
 43
0.0208333333333333
 43
0.0
 43
0.0
 43
0.0
 43
0.0
 43
1.0
 43
0.0
 43
0.0
 43
0.0
 43
0.0
 43
1.0
 77
     0
 47
0.0208333333333333
 47
0.0
 47
0.0
 47
0.0
 47
0.0
 47
0.0208333333333333
 47
0.0
 47
0.0
 47
0.0
 47
0.0
 47
1.0
 47
0.0
 47
0.0
 47
0.0
 47
0.0
 47
1.0
171
     0
 49
0.0208333333333333
 49
0.0
 49
0.0
 49
0.0
 49
0.0
 49
0.0208333333333333
 49
0.0
 49
0.0
 49
0.0
 49
0.0
 49
1.0
 49
0.0
 49
0.0
 49
0.0
 49
0.0
 49
1.0
175
     0
142
0.0208333333333333
142
0.0
142
0.0
142
0.0
142
0.0
142
0.0208333333333333
142
0.0
142
0.0
142
0.0
142
0.0
142
1.0
142
0.0
142
0.0
142
0.0
142
0.0
142
1.0
179
     0
144
0.0208333333333333
144
0.0
144
0.0
144
0.0
144
0.0
144
0.0208333333333333
144
0.0
144
0.0
144
0.0
144
0.0
144
1.0
144
0.0
144
0.0
144
0.0
144
0.0
144
1.0
147
0.0208333333333333
147
0.0
147
0.0
147
0.0
147
0.0
147
0.0208333333333333
147
0.0
147
0.0
147
0.0
147
0.0
147
1.0
147
0.0
147
0.0
147
0.0
147
0.0
147
1.0
  0
MATERIAL
  5
21
102
{ACAD_XDICTIONARY
360
22
102
}
102
{ACAD_REACTORS
330
10
102
}
330
10
100
AcDbMaterial
  1
Global
 72
     0
 43
0.0208333333333333
 43
0.0
 43
0.0
 43
0.0
 43
0.0
 43
0.0208333333333333
 43
0.0
 43
0.0
 43
0.0
 43
0.0
 43
1.0
 43
0.0
 43
0.0
 43
0.0
 43
0.0
 43
1.0
 77
     0
 47
0.0208333333333333
 47
0.0
 47
0.0
 47
0.0
 47
0.0
 47
0.0208333333333333
 47
0.0
 47
0.0
 47
0.0
 47
0.0
 47
1.0
 47
0.0
 47
0.0
 47
0.0
 47
0.0
 47
1.0
171
     0
 49
0.0208333333333333
 49
0.0
 49
0.0
 49
0.0
 49
0.0
 49
0.0208333333333333
 49
0.0
 49
0.0
 49
0.0
 49
0.0
 49
1.0
 49
0.0
 49
0.0
 49
0.0
 49
0.0
 49
1.0
175
     0
142
0.0208333333333333
142
0.0
142
0.0
142
0.0
142
0.0
142
0.0208333333333333
142
0.0
142
0.0
142
0.0
142
0.0
142
1.0
142
0.0
142
0.0
142
0.0
142
0.0
142
1.0
179
     0
144
0.0208333333333333
144
0.0
144
0.0
144
0.0
144
0.0
144
0.0208333333333333
144
0.0
144
0.0
144
0.0
144
0.0
144
1.0
144
0.0
144
0.0
144
0.0
144
0.0
144
1.0
147
0.0208333333333333
147
0.0
147
0.0
147
0.0
147
0.0
147
0.0208333333333333
147
0.0
147
0.0
147
0.0
147
0.0
147
1.0
147
0.0
147
0.0
147
0.0
147
0.0
147
1.0
  0
MLEADERSTYLE
  5
67
102
{ACAD_XDICTIONARY
360
1A9
102
}
102
{ACAD_REACTORS
330
66
102
}
330
66
100
AcDbMLeaderStyle
179
     2
170
     2
171
     1
172
     0
 90
        2
 40
0.0
 41
0.0
173
     1
 91
-1056964608
340
5B
 92
       -2
290
     1
 42
0.09
291
     1
 43
0.36
  3
Standard
 44
0.18
300

342
55
174
     1
178
     6
175
     1
176
     0
 93
-1056964608
 45
0.18
292
     0
297
     0
 46
0.18
 94
-1056964608
 47
1.0
 49
1.0
140
1.0
293
     1
141
0.0
294
     1
177
     0
142
1.0
295
     0
296
     0
143
0.125
271
     0
272
     9
273
     9
  0
MLINESTYLE
  5
60
102
{ACAD_REACTORS
330
5F
102
}
330
5F
100
AcDbMlineStyle
  2
STANDARD
 70
     0
  3

 62
   256
 51
90.0
 52
90.0
 71
     2
 49
0.5
 62
   256
  6
BYLAYER
 49
-0.5
 62
   256
  6
BYLAYER
  0
ACDBPLACEHOLDER
  5
F
102
{ACAD_REACTORS
330
E
102
}
330
E
  0
SCALE
  5
43
102
{ACAD_REACTORS
330
42
102
}
330
42
100
AcDbScale
 70
     0
300
1:1
140
1.0
141
1.0
290
     1
  0
SCALE
  5
44
102
{ACAD_REACTORS
330
42
102
}
330
42
100
AcDbScale
 70
     0
300
1/128" = 1'-0"
140
0.0078125
141
12.0
290
     0
  0
SCALE
  5
45
102
{ACAD_REACTORS
330
42
102
}
330
42
100
AcDbScale
 70
     0
300
1/64" = 1'-0"
140
0.015625
141
12.0
290
     0
  0
SCALE
  5
46
102
{ACAD_REACTORS
330
42
102
}
330
42
100
AcDbScale
 70
     0
300
1/32" = 1'-0"
140
0.03125
141
12.0
290
     0
  0
SCALE
  5
47
102
{ACAD_REACTORS
330
42
102
}
330
42
100
AcDbScale
 70
     0
300
1/16" = 1'-0"
140
0.0625
141
12.0
290
     0
  0
SCALE
  5
48
102
{ACAD_REACTORS
330
42
102
}
330
42
100
AcDbScale
 70
     0
300
3/32" = 1'-0"
140
0.09375
141
12.0
290
     0
  0
SCALE
  5
49
102
{ACAD_REACTORS
330
42
102
}
330
42
100
AcDbScale
 70
     0
300
1/8" = 1'-0"
140
0.125
141
12.0
290
     0
  0
SCALE
  5
4A
102
{ACAD_REACTORS
330
42
102
}
330
42
100
AcDbScale
 70
     0
300
3/16" = 1'-0"
140
0.1875
141
12.0
290
     0
  0
SCALE
  5
4B
102
{ACAD_REACTORS
330
42
102
}
330
42
100
AcDbScale
 70
     0
300
1/4" = 1'-0"
140
0.25
141
12.0
290
     0
  0
SCALE
  5
4C
102
{ACAD_REACTORS
330
42
102
}
330
42
100
AcDbScale
 70
     0
300
3/8" = 1'-0"
140
0.375
141
12.0
290
     0
  0
SCALE
  5
4D
102
{ACAD_REACTORS
330
42
102
}
330
42
100
AcDbScale
 70
     0
300
1/2" = 1'-0"
140
0.5
141
12.0
290
     0
  0
SCALE
  5
4E
102
{ACAD_REACTORS
330
42
102
}
330
42
100
AcDbScale
 70
     0
300
3/4" = 1'-0"
140
0.75
141
12.0
290
     0
  0
SCALE
  5
4F
102
{ACAD_REACTORS
330
42
102
}
330
42
100
AcDbScale
 70
     0
300
1" = 1'-0"
140
1.0
141
12.0
290
     0
  0
SCALE
  5
50
102
{ACAD_REACTORS
330
42
102
}
330
42
100
AcDbScale
 70
     0
300
1-1/2" = 1'-0"
140
1.5
141
12.0
290
     0
  0
SCALE
  5
51
102
{ACAD_REACTORS
330
42
102
}
330
42
100
AcDbScale
 70
     0
300
3" = 1'-0"
140
3.0
141
12.0
290
     0
  0
SCALE
  5
52
102
{ACAD_REACTORS
330
42
102
}
330
42
100
AcDbScale
 70
     0
300
6" = 1'-0"
140
6.0
141
12.0
290
     0
  0
SCALE
  5
53
102
{ACAD_REACTORS
330
42
102
}
330
42
100
AcDbScale
 70
     0
300
1'-0" = 1'-0"
140
12.0
141
12.0
290
     0
  0
ACDBSECTIONVIEWSTYLE
  5
69
102
{ACAD_XDICTIONARY
360
1AB
102
}
102
{ACAD_REACTORS
330
68
102
}
330
68
100
AcDbModelDocViewStyle
 70
     0
  3
Imperial24
290
     0
100
AcDbSectionViewStyle
 70
     0
 71
     0
 90
       78
 71
     1
340
55
 62
   256
 40
0.24
340
0
340
0
 62
   256
 40
0.24
300
I, O, Q, S, X, Z
 40
0.48
 90
        3
 40
0.18
 90
        1
 71
     2
340
5D
 90
       25
 62
   256
340
5D
 90
       50
 62
   256
 40
0.24
 40
0.0
 40
0.24
 71
     3
340
55
 62
   256
 40
0.24
 90
        1
 40
0.75
 90
        1
300
%<\AcVar ViewType \f "%tc1">% %<\AcVar ViewSectionStartId>%-%<\AcVar ViewSectionEndId>%\PSCALE %<\AcVar ViewScale \f "%sn">%
 71
     4
 62
   256
 62
   257
300
ANSI31
 40
1.0
 90
        0
290
     0
290
     0
 90
        6
 40
0.0
 40
1.570796326794896
 40
0.2617993877991494
 40
1.308996938995747
 40
-0.2617993877991494
 40
1.832595714594046
  0
TABLESTYLE
  5
65
102
{ACAD_XDICTIONARY
360
176
102
}
102
{ACAD_REACTORS
330
64
102
}
330
64
100
AcDbTableStyle
280
     0
  3
Standard
 70
     0
 71
     0
 40
0.06
 41
0.06
280
     0
281
     0
  7
Standard
140
0.18
170
     2
 62
     0
 63
     7
283
     0
 90
      512
 91
        0
  1

274
    -2
284
     1
 64
     0
275
    -2
285
     1
 65
     0
276
    -2
286
     1
 66
     0
277
    -2
287
     1
 67
     0
278
    -2
288
     1
 68
     0
279
    -2
289
     1
 69
     0
  7
Standard
140
0.25
170
     5
 62
     0
 63
     7
283
     0
 90
      512
 91
        0
  1

274
    -2
284
     1
 64
     0
275
    -2
285
     1
 65
     0
276
    -2
286
     1
 66
     0
277
    -2
287
     1
 67
     0
278
    -2
288
     1
 68
     0
279
    -2
289
     1
 69
     0
  7
Standard
140
0.18
170
     5
 62
     0
 63
     7
283
     0
 90
      512
 91
        0
  1

274
    -2
284
     1
 64
     0
275
    -2
285
     1
 65
     0
276
    -2
286
     1
 66
     0
277
    -2
287
     1
 67
     0
278
    -2
288
     1
 68
     0
279
    -2
289
     1
 69
     0
  0
VISUALSTYLE
  5
2F
102
{ACAD_XDICTIONARY
360
183
102
}
102
{ACAD_REACTORS
330
29
102
}
330
29
100
AcDbVisualStyle
  2
2dWireframe
 70
     4
177
     2
291
     0
 71
     0
176
     1
 72
     2
176
     1
 73
     0
176
     1
 90
        0
176
     1
 40
0.6
176
     1
 41
30.0
176
     1
 63
     7
421
 16777215
176
     1
 74
     1
176
     1
 91
        4
176
     1
 64
     7
176
     1
 65
   257
176
     1
 75
     1
176
     1
175
     1
176
     1
 42
1.0
176
     1
 92
        0
176
     1
 66
   257
176
     1
 43
1.0
176
     1
 76
     1
176
     1
 77
     6
176
     1
 78
     2
176
     1
 67
     7
176
     1
 79
     5
176
     1
170
     0
176
     1
171
     0
176
     1
290
     0
176
     1
 93
        1
176
     1
 44
0.0
176
     1
173
     0
176
     1
1001
ACAD
1000
AcDbSavedByObjectVersion
1070
     0
  0
VISUALSTYLE
  5
2E
102
{ACAD_XDICTIONARY
360
181
102
}
102
{ACAD_REACTORS
330
29
102
}
330
29
100
AcDbVisualStyle
  2
Basic
 70
     7
177
     2
291
     1
 71
     1
176
     1
 72
     0
176
     1
 73
     1
176
     1
 90
        0
176
     1
 40
0.6
176
     1
 41
30.0
176
     1
 63
     7
421
 16777215
176
     1
 74
     0
176
     1
 91
        4
176
     1
 64
     7
176
     1
 65
   257
176
     1
 75
     1
176
     1
175
     1
176
     1
 42
1.0
176
     1
 92
        8
176
     1
 66
     7
176
     1
 43
1.0
176
     1
 76
     1
176
     1
 77
     6
176
     1
 78
     2
176
     1
 67
     7
176
     1
 79
     5
176
     1
170
     0
176
     1
171
     0
176
     1
290
     0
176
     1
 93
        1
176
     1
 44
0.0
176
     1
173
     0
176
     1
1001
ACAD
1000
AcDbSavedByObjectVersion
1070
     0
  0
VISUALSTYLE
  5
35
102
{ACAD_XDICTIONARY
360
18F
102
}
102
{ACAD_REACTORS
330
29
102
}
330
29
100
AcDbVisualStyle
  2
Brighten
 70
    12
177
     2
291
     1
 71
     2
176
     1
 72
     2
176
     1
 73
     0
176
     1
 90
        0
176
     1
 40
0.6
176
     1
 41
30.0
176
     1
 63
     7
421
 16777215
176
     1
 74
     1
176
     1
 91
        4
176
     1
 64
     7
176
     1
 65
   257
176
     1
 75
     1
176
     1
175
     1
176
     1
 42
1.0
176
     1
 92
        8
176
     1
 66
     7
176
     1
 43
1.0
176
     1
 76
     1
176
     1
 77
     6
176
     1
 78
     2
176
     1
 67
     7
176
     1
 79
     5
176
     1
170
     0
176
     1
171
     0
176
     1
290
     0
176
     1
 93
        1
176
     1
 44
50.0
176
     1
173
     0
176
     1
1001
ACAD
1000
AcDbSavedByObjectVersion
1070
     0
  0
VISUALSTYLE
  5
39
102
{ACAD_XDICTIONARY
360
197
102
}
102
{ACAD_REACTORS
330
29
102
}
330
29
100
AcDbVisualStyle
  2
ColorChange
 70
    16
177
     2
291
     1
 71
     2
176
     1
 72
     2
176
     1
 73
     3
176
     1
 90
        0
176
     1
 40
0.6
176
     1
 41
30.0
176
     1
 63
     8
421
  8421504
176
     1
 74
     1
176
     1
 91
        4
176
     1
 64
     7
176
     1
 65
   257
176
     1
 75
     1
176
     1
175
     1
176
     1
 42
1.0
176
     1
 92
        8
176
     1
 66
     8
424
  8421504
176
     1
 43
1.0
176
     1
 76
     1
176
     1
 77
     6
176
     1
 78
     2
176
     1
 67
     7
176
     1
 79
     5
176
     1
170
     0
176
     1
171
     0
176
     1
290
     0
176
     1
 93
        1
176
     1
 44
0.0
176
     1
173
     0
176
     1
1001
ACAD
1000
AcDbSavedByObjectVersion
1070
     0
  0
VISUALSTYLE
  5
32
102
{ACAD_XDICTIONARY
360
189
102
}
102
{ACAD_REACTORS
330
29
102
}
330
29
100
AcDbVisualStyle
  2
Conceptual
 70
     9
177
     2
291
     0
 71
     3
176
     1
 72
     2
176
     1
 73
     0
176
     1
 90
        0
176
     1
 40
0.6
176
     1
 41
30.0
176
     1
 63
     7
421
 16777215
176
     1
 74
     2
176
     1
 91
        2
176
     1
 64
     7
176
     1
 65
   257
176
     1
 75
     1
176
     1
175
     1
176
     1
 42
179.0
176
     1
 92
        8
176
     1
 66
     7
176
     1
 43
1.0
176
     1
 76
     1
176
     1
 77
     6
176
     1
 78
     2
176
     1
 67
     7
176
     1
 79
     3
176
     1
170
     0
176
     1
171
     0
176
     1
290
     0
176
     1
 93
        1
176
     1
 44
0.0
176
     1
173
     0
176
     1
1001
ACAD
1000
AcDbSavedByObjectVersion
1070
     0
  0
VISUALSTYLE
  5
34
102
{ACAD_XDICTIONARY
360
18D
102
}
102
{ACAD_REACTORS
330
29
102
}
330
29
100
AcDbVisualStyle
  2
Dim
 70
    11
177
     2
291
     1
 71
     2
176
     1
 72
     2
176
     1
 73
     0
176
     1
 90
        0
176
     1
 40
0.6
176
     1
 41
30.0
176
     1
 63
     7
421
 16777215
176
     1
 74
     1
176
     1
 91
        4
176
     1
 64
     7
176
     1
 65
   257
176
     1
 75
     1
176
     1
175
     1
176
     1
 42
1.0
176
     1
 92
        8
176
     1
 66
     7
176
     1
 43
1.0
176
     1
 76
     1
176
     1
 77
     6
176
     1
 78
     2
176
     1
 67
     7
176
     1
 79
     5
176
     1
170
     0
176
     1
171
     0
176
     1
290
     0
176
     1
 93
        1
176
     1
 44
-50.0
176
     1
173
     0
176
     1
1001
ACAD
1000
AcDbSavedByObjectVersion
1070
     0
  0
VISUALSTYLE
  5
41
102
{ACAD_XDICTIONARY
360
1A7
102
}
102
{ACAD_REACTORS
330
29
102
}
330
29
100
AcDbVisualStyle
  2
EdgeColorOff
 70
    22
177
     2
291
     1
 71
     2
176
     0
 72
     2
176
     0
 73
     0
176
     0
 90
        0
176
     0
 40
0.6
176
     0
 41
30.0
176
     0
 63
     7
421
 16777215
176
     0
 74
     1
176
     0
 91
        4
176
     0
 64
     7
176
     0
 65
   257
176
     0
 75
     1
176
     0
175
     1
176
     0
 42
1.0
176
     0
 92
        8
176
     2
 66
     7
176
     0
 43
1.0
176
     0
 76
     1
176
     0
 77
     6
176
     0
 78
     2
176
     0
 67
     7
176
     0
 79
     5
176
     0
170
     0
176
     0
171
     0
176
     0
290
     0
176
     0
 93
        1
176
     0
 44
0.0
176
     0
173
     0
176
     0
1001
ACAD
1000
AcDbSavedByObjectVersion
1070
     0
  0
VISUALSTYLE
  5
38
102
{ACAD_XDICTIONARY
360
195
102
}
102
{ACAD_REACTORS
330
29
102
}
330
29
100
AcDbVisualStyle
  2
Facepattern
 70
    15
177
     2
291
     1
 71
     2
176
     1
 72
     2
176
     1
 73
     0
176
     1
 90
        0
176
     1
 40
0.6
176
     1
 41
30.0
176
     1
 63
     7
421
 16777215
176
     1
 74
     1
176
     1
 91
        4
176
     1
 64
     7
176
     1
 65
   257
176
     1
 75
     1
176
     1
175
     1
176
     1
 42
1.0
176
     1
 92
        8
176
     1
 66
     7
176
     1
 43
1.0
176
     1
 76
     1
176
     1
 77
     6
176
     1
 78
     2
176
     1
 67
     7
176
     1
 79
     5
176
     1
170
     0
176
     1
171
     0
176
     1
290
     0
176
     1
 93
        1
176
     1
 44
0.0
176
     1
173
     0
176
     1
1001
ACAD
1000
AcDbSavedByObjectVersion
1070
     0
  0
VISUALSTYLE
  5
2A
102
{ACAD_XDICTIONARY
360
179
102
}
102
{ACAD_REACTORS
330
29
102
}
330
29
100
AcDbVisualStyle
  2
Flat
 70
     0
177
     2
291
     1
 71
     2
176
     1
 72
     1
176
     1
 73
     1
176
     1
 90
        2
176
     1
 40
0.6
176
     1
 41
30.0
176
     1
 63
     7
421
 16777215
176
     1
 74
     0
176
     1
 91
        0
176
     1
 64
     7
176
     1
 65
   257
176
     1
 75
     1
176
     1
175
     1
176
     1
 42
1.0
176
     1
 92
        8
176
     1
 66
     7
176
     1
 43
1.0
176
     1
 76
     1
176
     1
 77
     6
176
     1
 78
     2
176
     1
 67
     7
176
     1
 79
     5
176
     1
170
     0
176
     1
171
     0
176
     1
290
     0
176
     1
 93
       13
176
     1
 44
0.0
176
     1
173
     0
176
     1
1001
ACAD
1000
AcDbSavedByObjectVersion
1070
     0
  0
VISUALSTYLE
  5
2B
102
{ACAD_XDICTIONARY
360
17B
102
}
102
{ACAD_REACTORS
330
29
102
}
330
29
100
AcDbVisualStyle
  2
FlatWithEdges
 70
     1
177
     2
291
     1
 71
     2
176
     1
 72
     1
176
     1
 73
     1
176
     1
 90
        2
176
     1
 40
0.6
176
     1
 41
30.0
176
     1
 63
     7
421
 16777215
176
     1
 74
     1
176
     1
 91
        0
176
     1
 64
     7
176
     1
 65
   257
176
     1
 75
     1
176
     1
175
     1
176
     1
 42
1.0
176
     1
 92
        0
176
     1
 66
   257
176
     1
 43
1.0
176
     1
 76
     1
176
     1
 77
     6
176
     1
 78
     2
176
     1
 67
     7
176
     1
 79
     5
176
     1
170
     0
176
     1
171
     0
176
     1
290
     0
176
     1
 93
       13
176
     1
 44
0.0
176
     1
173
     0
176
     1
1001
ACAD
1000
AcDbSavedByObjectVersion
1070
     0
  0
VISUALSTYLE
  5
2C
102
{ACAD_XDICTIONARY
360
17D
102
}
102
{ACAD_REACTORS
330
29
102
}
330
29
100
AcDbVisualStyle
  2
Gouraud
 70
     2
177
     2
291
     1
 71
     2
176
     1
 72
     2
176
     1
 73
     1
176
     1
 90
        2
176
     1
 40
0.6
176
     1
 41
30.0
176
     1
 63
     7
421
 16777215
176
     1
 74
     0
176
     1
 91
        0
176
     1
 64
     7
176
     1
 65
   257
176
     1
 75
     1
176
     1
175
     1
176
     1
 42
1.0
176
     1
 92
        0
176
     1
 66
     7
176
     1
 43
1.0
176
     1
 76
     1
176
     1
 77
     6
176
     1
 78
     2
176
     1
 67
     7
176
     1
 79
     5
176
     1
170
     0
176
     1
171
     0
176
     1
290
     0
176
     1
 93
       13
176
     1
 44
0.0
176
     1
173
     0
176
     1
1001
ACAD
1000
AcDbSavedByObjectVersion
1070
     0
  0
VISUALSTYLE
  5
2D
102
{ACAD_XDICTIONARY
360
17F
102
}
102
{ACAD_REACTORS
330
29
102
}
330
29
100
AcDbVisualStyle
  2
GouraudWithEdges
 70
     3
177
     2
291
     1
 71
     2
176
     1
 72
     2
176
     1
 73
     1
176
     1
 90
        2
176
     1
 40
0.6
176
     1
 41
30.0
176
     1
 63
     7
421
 16777215
176
     1
 74
     1
176
     1
 91
        0
176
     1
 64
     7
176
     1
 65
   257
176
     1
 75
     1
176
     1
175
     1
176
     1
 42
1.0
176
     1
 92
        0
176
     1
 66
   257
176
     1
 43
1.0
176
     1
 76
     1
176
     1
 77
     6
176
     1
 78
     2
176
     1
 67
     7
176
     1
 79
     5
176
     1
170
     0
176
     1
171
     0
176
     1
290
     0
176
     1
 93
       13
176
     1
 44
0.0
176
     1
173
     0
176
     1
1001
ACAD
1000
AcDbSavedByObjectVersion
1070
     0
  0
VISUALSTYLE
  5
31
102
{ACAD_XDICTIONARY
360
187
102
}
102
{ACAD_REACTORS
330
29
102
}
330
29
100
AcDbVisualStyle
  2
Hidden
 70
     6
177
     2
291
     0
 71
     1
176
     1
 72
     2
176
     1
 73
     2
176
     1
 90
        0
176
     1
 40
0.6
176
     1
 41
30.0
176
     1
 63
     7
421
 16777215
176
     1
 74
     2
176
     1
 91
        2
176
     1
 64
     7
176
     1
 65
   257
176
     1
 75
     2
176
     1
175
     1
176
     1
 42
40.0
176
     1
 92
        0
176
     1
 66
   257
176
     1
 43
1.0
176
     1
 76
     1
176
     1
 77
     6
176
     1
 78
     2
176
     1
 67
     7
176
     1
 79
     3
176
     1
170
     0
176
     1
171
     0
176
     1
290
     0
176
     1
 93
        1
176
     1
 44
0.0
176
     1
173
     0
176
     1
1001
ACAD
1000
AcDbSavedByObjectVersion
1070
     0
  0
VISUALSTYLE
  5
3F
102
{ACAD_XDICTIONARY
360
1A3
102
}
102
{ACAD_REACTORS
330
29
102
}
330
29
100
AcDbVisualStyle
  2
JitterOff
 70
    20
177
     2
291
     1
 71
     2
176
     0
 72
     2
176
     0
 73
     0
176
     0
 90
        0
176
     0
 40
0.6
176
     0
 41
30.0
176
     0
 63
     7
421
 16777215
176
     0
 74
     1
176
     0
 91
        4
176
     0
 64
     7
176
     0
 65
   257
176
     0
 75
     1
176
     0
175
     1
176
     0
 42
1.0
176
     0
 92
       10
176
     2
 66
     7
176
     0
 43
1.0
176
     0
 76
     1
176
     0
 77
     6
176
     0
 78
     2
176
     0
 67
     7
176
     0
 79
     5
176
     0
170
     0
176
     0
171
     0
176
     0
290
     0
176
     0
 93
        1
176
     0
 44
0.0
176
     0
173
     0
176
     0
1001
ACAD
1000
AcDbSavedByObjectVersion
1070
     0
  0
VISUALSTYLE
  5
37
102
{ACAD_XDICTIONARY
360
193
102
}
102
{ACAD_REACTORS
330
29
102
}
330
29
100
AcDbVisualStyle
  2
Linepattern
 70
    14
177
     2
291
     1
 71
     2
176
     1
 72
     2
176
     1
 73
     0
176
     1
 90
        0
176
     1
 40
0.6
176
     1
 41
30.0
176
     1
 63
     7
421
 16777215
176
     1
 74
     1
176
     1
 91
        4
176
     1
 64
     7
176
     1
 65
   257
176
     1
 75
     7
176
     1
175
     7
176
     1
 42
1.0
176
     1
 92
        8
176
     1
 66
     7
176
     1
 43
1.0
176
     1
 76
     1
176
     1
 77
     6
176
     1
 78
     2
176
     1
 67
     7
176
     1
 79
     5
176
     1
170
     0
176
     1
171
     0
176
     1
290
     0
176
     1
 93
        1
176
     1
 44
0.0
176
     1
173
     0
176
     1
1001
ACAD
1000
AcDbSavedByObjectVersion
1070
     0
  0
VISUALSTYLE
  5
40
102
{ACAD_XDICTIONARY
360
1A5
102
}
102
{ACAD_REACTORS
330
29
102
}
330
29
100
AcDbVisualStyle
  2
OverhangOff
 70
    21
177
     2
291
     1
 71
     2
176
     0
 72
     2
176
     0
 73
     0
176
     0
 90
        0
176
     0
 40
0.6
176
     0
 41
30.0
176
     0
 63
     7
421
 16777215
176
     0
 74
     1
176
     0
 91
        4
176
     0
 64
     7
176
     0
 65
   257
176
     0
 75
     1
176
     0
175
     1
176
     0
 42
1.0
176
     0
 92
        9
176
     2
 66
     7
176
     0
 43
1.0
176
     0
 76
     1
176
     0
 77
     6
176
     0
 78
     2
176
     0
 67
     7
176
     0
 79
     5
176
     0
170
     0
176
     0
171
     0
176
     0
290
     0
176
     0
 93
        1
176
     0
 44
0.0
176
     0
173
     0
176
     0
1001
ACAD
1000
AcDbSavedByObjectVersion
1070
     0
  0
VISUALSTYLE
  5
33
102
{ACAD_XDICTIONARY
360
18B
102
}
102
{ACAD_REACTORS
330
29
102
}
330
29
100
AcDbVisualStyle
  2
Realistic
 70
     8
177
     2
291
     0
 71
     2
176
     1
 72
     3
176
     1
 73
     0
176
     1
 90
        2
176
     1
 40
0.6
176
     1
 41
30.0
176
     1
 63
     7
421
 16777215
176
     1
 74
     0
176
     1
 91
        0
176
     1
 64
     7
176
     1
 65
   257
176
     1
 75
     1
176
     1
175
     1
176
     1
 42
1.0
176
     1
 92
        8
176
     1
 66
   257
176
     1
 43
1.0
176
     1
 76
     1
176
     1
 77
     6
176
     1
 78
     2
176
     1
 67
     7
176
     1
 79
     3
176
     1
170
     0
176
     1
171
     0
176
     1
290
     0
176
     1
 93
       13
176
     1
 44
0.0
176
     1
173
     0
176
     1
1001
ACAD
1000
AcDbSavedByObjectVersion
1070
     0
  0
VISUALSTYLE
  5
3E
102
{ACAD_XDICTIONARY
360
1A1
102
}
102
{ACAD_REACTORS
330
29
102
}
330
29
100
AcDbVisualStyle
  2
Shaded
 70
    27
177
     2
291
     0
 71
     2
176
     1
 72
     2
176
     1
 73
     1
176
     1
 90
        2
176
     1
 40
0.6
176
     1
 41
30.0
176
     1
 63
     7
421
 16777215
176
     1
 74
     0
176
     1
 91
        4
176
     1
 64
     7
176
     1
 65
   257
176
     1
 75
     1
176
     1
175
     1
176
     1
 42
1.0
176
     1
 92
        8
176
     1
 66
   257
176
     1
 43
1.0
176
     1
 76
     1
176
     1
 77
     6
176
     1
 78
     2
176
     1
 67
     8
425
  7895160
176
     1
 79
     3
176
     1
170
     0
176
     1
171
     0
176
     1
290
     0
176
     1
 93
        5
176
     1
 44
0.0
176
     1
173
     0
176
     1
1001
ACAD
1000
AcDbSavedByObjectVersion
1070
     0
  0
VISUALSTYLE
  5
3D
102
{ACAD_XDICTIONARY
360
19F
102
}
102
{ACAD_REACTORS
330
29
102
}
330
29
100
AcDbVisualStyle
  2
Shaded with edges
 70
    26
177
     2
291
     0
 71
     2
176
     1
 72
     2
176
     1
 73
     1
176
     1
 90
        2
176
     1
 40
0.6
176
     1
 41
30.0
176
     1
 63
     7
421
 16777215
176
     1
 74
     1
176
     1
 91
        2
176
     1
 64
     7
176
     1
 65
   257
176
     1
 75
     2
176
     1
175
     1
176
     1
 42
1.0
176
     1
 92
        8
176
     1
 66
   257
176
     1
 43
1.0
176
     1
 76
     1
176
     1
 77
     6
176
     1
 78
     2
176
     1
 67
     7
176
     1
 79
     3
176
     1
170
     0
176
     1
171
     0
176
     1
290
     0
176
     1
 93
        5
176
     1
 44
0.0
176
     1
173
     0
176
     1
1001
ACAD
1000
AcDbSavedByObjectVersion
1070
     0
  0
VISUALSTYLE
  5
3A
102
{ACAD_XDICTIONARY
360
199
102
}
102
{ACAD_REACTORS
330
29
102
}
330
29
100
AcDbVisualStyle
  2
Shades of Gray
 70
    23
177
     2
291
     0
 71
     2
176
     1
 72
     2
176
     1
 73
     3
176
     1
 90
        0
176
     1
 40
0.6
176
     1
 41
30.0
176
     1
 63
     7
421
 16777215
176
     1
 74
     2
176
     1
 91
        2
176
     1
 64
     7
176
     1
 65
     7
176
     1
 75
     1
176
     1
175
     1
176
     1
 42
40.0
176
     1
 92
        8
176
     1
 66
     7
176
     1
 43
1.0
176
     1
 76
     1
176
     1
 77
     6
176
     1
 78
     2
176
     1
 67
     7
176
     1
 79
     3
176
     1
170
     0
176
     1
171
     0
176
     1
290
     0
176
     1
 93
        1
176
     1
 44
0.0
176
     1
173
     0
176
     1
1001
ACAD
1000
AcDbSavedByObjectVersion
1070
     0
  0
VISUALSTYLE
  5
3B
102
{ACAD_XDICTIONARY
360
19B
102
}
102
{ACAD_REACTORS
330
29
102
}
330
29
100
AcDbVisualStyle
  2
Sketchy
 70
    24
177
     2
291
     0
 71
     1
176
     1
 72
     2
176
     1
 73
     2
176
     1
 90
        0
176
     1
 40
0.6
176
     1
 41
30.0
176
     1
 63
     7
421
 16777215
176
     1
 74
     2
176
     1
 91
        2
176
     1
 64
     7
176
     1
 65
     7
176
     1
 75
     1
176
     1
175
     1
176
     1
 42
40.0
176
     1
 92
       11
176
     1
 66
     7
176
     1
 43
1.0
176
     1
 76
     1
176
     1
 77
     6
176
     1
 78
     2
176
     1
 67
     7
176
     1
 79
     6
176
     1
170
     0
176
     1
171
     0
176
     1
290
     0
176
     1
 93
        1
176
     1
 44
0.0
176
     1
173
     0
176
     1
1001
ACAD
1000
AcDbSavedByObjectVersion
1070
     0
  0
VISUALSTYLE
  5
36
102
{ACAD_XDICTIONARY
360
191
102
}
102
{ACAD_REACTORS
330
29
102
}
330
29
100
AcDbVisualStyle
  2
Thicken
 70
    13
177
     2
291
     1
 71
     2
176
     1
 72
     2
176
     1
 73
     0
176
     1
 90
        0
176
     1
 40
0.6
176
     1
 41
30.0
176
     1
 63
     7
421
 16777215
176
     1
 74
     1
176
     1
 91
        4
176
     1
 64
     7
176
     1
 65
   257
176
     1
 75
     1
176
     1
175
     1
176
     1
 42
1.0
176
     1
 92
       12
176
     1
 66
     7
176
     1
 43
1.0
176
     1
 76
     1
176
     1
 77
     6
176
     1
 78
     2
176
     1
 67
     7
176
     1
 79
     5
176
     1
170
     0
176
     1
171
     0
176
     1
290
     0
176
     1
 93
        1
176
     1
 44
0.0
176
     1
173
     0
176
     1
1001
ACAD
1000
AcDbSavedByObjectVersion
1070
     0
  0
VISUALSTYLE
  5
30
102
{ACAD_XDICTIONARY
360
185
102
}
102
{ACAD_REACTORS
330
29
102
}
330
29
100
AcDbVisualStyle
  2
Wireframe
 70
     5
177
     2
291
     0
 71
     0
176
     1
 72
     2
176
     1
 73
     0
176
     1
 90
        0
176
     1
 40
0.6
176
     1
 41
30.0
176
     1
 63
     7
421
 16777215
176
     1
 74
     1
176
     1
 91
        4
176
     1
 64
     7
176
     1
 65
   257
176
     1
 75
     1
176
     1
175
     1
176
     1
 42
1.0
176
     1
 92
        0
176
     1
 66
   257
176
     1
 43
1.0
176
     1
 76
     1
176
     1
 77
     6
176
     1
 78
     2
176
     1
 67
     7
176
     1
 79
     3
176
     1
170
     0
176
     1
171
     0
176
     1
290
     0
176
     1
 93
        1
176
     1
 44
0.0
176
     1
173
     0
176
     1
1001
ACAD
1000
AcDbSavedByObjectVersion
1070
     0
  0
VISUALSTYLE
  5
3C
102
{ACAD_XDICTIONARY
360
19D
102
}
102
{ACAD_REACTORS
330
29
102
}
330
29
100
AcDbVisualStyle
  2
X-Ray
 70
    25
177
     2
291
     0
 71
     2
176
     1
 72
     2
176
     1
 73
     1
176
     1
 90
        1
176
     1
 40
0.5
176
     1
 41
30.0
176
     1
 63
     7
421
 16777215
176
     1
 74
     1
176
     1
 91
        0
176
     1
 64
     7
176
     1
 65
   257
176
     1
 75
     1
176
     1
175
     1
176
     1
 42
1.0
176
     1
 92
        8
176
     1
 66
     7
176
     1
 43
1.0
176
     1
 76
     1
176
     1
 77
     6
176
     1
 78
     2
176
     1
 67
     7
176
     1
 79
     3
176
     1
170
     0
176
     1
171
     0
176
     1
290
     0
176
     1
 93
       13
176
     1
 44
0.0
176
     1
173
     0
176
     1
1001
ACAD
1000
AcDbSavedByObjectVersion
1070
     0
  0
DICTIONARYVAR
  5
175
102
{ACAD_REACTORS
330
170
102
}
330
170
100
DictionaryVariables
280
     0
  1
1:1
  0
DICTIONARYVAR
  5
172
102
{ACAD_REACTORS
330
170
102
}
330
170
100
DictionaryVariables
280
     0
  1
STANDARD
  0
DICTIONARYVAR
  5
171
102
{ACAD_REACTORS
330
170
102
}
330
170
100
DictionaryVariables
280
     0
  1
STANDARD
  0
DICTIONARYVAR
  5
173
102
{ACAD_REACTORS
330
170
102
}
330
170
100
DictionaryVariables
280
     0
  1
Imperial24
  0
DICTIONARYVAR
  5
174
102
{ACAD_REACTORS
330
170
102
}
330
170
100
DictionaryVariables
280
     0
  1
Imperial24
  0
DICTIONARY
  5
1AD
330
6B
100
AcDbDictionary
280
     1
281
     1
  3
ACAD_XREC_ROUNDTRIP
360
1AE
  0
DICTIONARY
  5
1A
330
19
100
AcDbDictionary
280
     1
281
     1
  3
BUMPTILE
360
1C
  3
DIFFUSETILE
360
1B
  3
OPACITYTILE
360
1F
  3
REFLECTIONTILE
360
1E
  3
REFRACTIONTILE
360
20
  3
SPECULARTILE
360
1D
  0
DICTIONARY
  5
12
330
11
100
AcDbDictionary
280
     1
281
     1
  3
BUMPTILE
360
14
  3
DIFFUSETILE
360
13
  3
OPACITYTILE
360
17
  3
REFLECTIONTILE
360
16
  3
REFRACTIONTILE
360
18
  3
SPECULARTILE
360
15
  0
DICTIONARY
  5
22
330
21
100
AcDbDictionary
280
     1
281
     1
  3
BUMPTILE
360
24
  3
DIFFUSETILE
360
23
  3
OPACITYTILE
360
27
  3
REFLECTIONTILE
360
26
  3
REFRACTIONTILE
360
28
  3
SPECULARTILE
360
25
  0
DICTIONARY
  5
1A9
330
67
100
AcDbDictionary
280
     1
281
     1
  3
ACAD_XREC_ROUNDTRIP
360
1AA
  0
DICTIONARY
  5
1AB
330
69
100
AcDbDictionary
280
     1
281
     1
  3
ACAD_XREC_ROUNDTRIP
360
1AC
  0
DICTIONARY
  5
176
330
65
100
AcDbDictionary
280
     1
281
     1
  3
ACAD_ROUNDTRIP_2008_TABLESTYLE_CELLSTYLEMAP
360
177
  0
DICTIONARY
  5
183
330
2F
100
AcDbDictionary
280
     1
281
     1
  3
ACAD_XREC_ROUNDTRIP
360
184
  0
DICTIONARY
  5
181
330
2E
100
AcDbDictionary
280
     1
281
     1
  3
ACAD_XREC_ROUNDTRIP
360
182
  0
DICTIONARY
  5
18F
330
35
100
AcDbDictionary
280
     1
281
     1
  3
ACAD_XREC_ROUNDTRIP
360
190
  0
DICTIONARY
  5
197
330
39
100
AcDbDictionary
280
     1
281
     1
  3
ACAD_XREC_ROUNDTRIP
360
198
  0
DICTIONARY
  5
189
330
32
100
AcDbDictionary
280
     1
281
     1
  3
ACAD_XREC_ROUNDTRIP
360
18A
  0
DICTIONARY
  5
18D
330
34
100
AcDbDictionary
280
     1
281
     1
  3
ACAD_XREC_ROUNDTRIP
360
18E
  0
DICTIONARY
  5
1A7
330
41
100
AcDbDictionary
280
     1
281
     1
  3
ACAD_XREC_ROUNDTRIP
360
1A8
  0
DICTIONARY
  5
195
330
38
100
AcDbDictionary
280
     1
281
     1
  3
ACAD_XREC_ROUNDTRIP
360
196
  0
DICTIONARY
  5
179
330
2A
100
AcDbDictionary
280
     1
281
     1
  3
ACAD_XREC_ROUNDTRIP
360
17A
  0
DICTIONARY
  5
17B
330
2B
100
AcDbDictionary
280
     1
281
     1
  3
ACAD_XREC_ROUNDTRIP
360
17C
  0
DICTIONARY
  5
17D
330
2C
100
AcDbDictionary
280
     1
281
     1
  3
ACAD_XREC_ROUNDTRIP
360
17E
  0
DICTIONARY
  5
17F
330
2D
100
AcDbDictionary
280
     1
281
     1
  3
ACAD_XREC_ROUNDTRIP
360
180
  0
DICTIONARY
  5
187
330
31
100
AcDbDictionary
280
     1
281
     1
  3
ACAD_XREC_ROUNDTRIP
360
188
  0
DICTIONARY
  5
1A3
330
3F
100
AcDbDictionary
280
     1
281
     1
  3
ACAD_XREC_ROUNDTRIP
360
1A4
  0
DICTIONARY
  5
193
330
37
100
AcDbDictionary
280
     1
281
     1
  3
ACAD_XREC_ROUNDTRIP
360
194
  0
DICTIONARY
  5
1A5
330
40
100
AcDbDictionary
280
     1
281
     1
  3
ACAD_XREC_ROUNDTRIP
360
1A6
  0
DICTIONARY
  5
18B
330
33
100
AcDbDictionary
280
     1
281
     1
  3
ACAD_XREC_ROUNDTRIP
360
18C
  0
DICTIONARY
  5
1A1
330
3E
100
AcDbDictionary
280
     1
281
     1
  3
ACAD_XREC_ROUNDTRIP
360
1A2
  0
DICTIONARY
  5
19F
330
3D
100
AcDbDictionary
280
     1
281
     1
  3
ACAD_XREC_ROUNDTRIP
360
1A0
  0
DICTIONARY
  5
199
330
3A
100
AcDbDictionary
280
     1
281
     1
  3
ACAD_XREC_ROUNDTRIP
360
19A
  0
DICTIONARY
  5
19B
330
3B
100
AcDbDictionary
280
     1
281
     1
  3
ACAD_XREC_ROUNDTRIP
360
19C
  0
DICTIONARY
  5
191
330
36
100
AcDbDictionary
280
     1
281
     1
  3
ACAD_XREC_ROUNDTRIP
360
192
  0
DICTIONARY
  5
185
330
30
100
AcDbDictionary
280
     1
281
     1
  3
ACAD_XREC_ROUNDTRIP
360
186
  0
DICTIONARY
  5
19D
330
3C
100
AcDbDictionary
280
     1
281
     1
  3
ACAD_XREC_ROUNDTRIP
360
19E
  0
XRECORD
  5
1AE
102
{ACAD_REACTORS
330
1AD
102
}
330
1AD
100
AcDbXrecord
280
     1
102
DISPLAYNAME
  1
Imperial24
102
FLAGS
 90
        0
  0
XRECORD
  5
1C
102
{ACAD_REACTORS
330
1A
102
}
330
1A
100
AcDbXrecord
280
     1
270
     1
271
     1
  0
XRECORD
  5
1B
102
{ACAD_REACTORS
330
1A
102
}
330
1A
100
AcDbXrecord
280
     1
270
     1
271
     1
  0
XRECORD
  5
1F
102
{ACAD_REACTORS
330
1A
102
}
330
1A
100
AcDbXrecord
280
     1
270
     1
271
     1
  0
XRECORD
  5
1E
102
{ACAD_REACTORS
330
1A
102
}
330
1A
100
AcDbXrecord
280
     1
270
     1
271
     1
  0
XRECORD
  5
20
102
{ACAD_REACTORS
330
1A
102
}
330
1A
100
AcDbXrecord
280
     1
270
     1
271
     1
  0
XRECORD
  5
1D
102
{ACAD_REACTORS
330
1A
102
}
330
1A
100
AcDbXrecord
280
     1
270
     1
271
     1
  0
XRECORD
  5
14
102
{ACAD_REACTORS
330
12
102
}
330
12
100
AcDbXrecord
280
     1
270
     1
271
     1
  0
XRECORD
  5
13
102
{ACAD_REACTORS
330
12
102
}
330
12
100
AcDbXrecord
280
     1
270
     1
271
     1
  0
XRECORD
  5
17
102
{ACAD_REACTORS
330
12
102
}
330
12
100
AcDbXrecord
280
     1
270
     1
271
     1
  0
XRECORD
  5
16
102
{ACAD_REACTORS
330
12
102
}
330
12
100
AcDbXrecord
280
     1
270
     1
271
     1
  0
XRECORD
  5
18
102
{ACAD_REACTORS
330
12
102
}
330
12
100
AcDbXrecord
280
     1
270
     1
271
     1
  0
XRECORD
  5
15
102
{ACAD_REACTORS
330
12
102
}
330
12
100
AcDbXrecord
280
     1
270
     1
271
     1
  0
XRECORD
  5
24
102
{ACAD_REACTORS
330
22
102
}
330
22
100
AcDbXrecord
280
     1
270
     1
271
     1
  0
XRECORD
  5
23
102
{ACAD_REACTORS
330
22
102
}
330
22
100
AcDbXrecord
280
     1
270
     1
271
     1
  0
XRECORD
  5
27
102
{ACAD_REACTORS
330
22
102
}
330
22
100
AcDbXrecord
280
     1
270
     1
271
     1
  0
XRECORD
  5
26
102
{ACAD_REACTORS
330
22
102
}
330
22
100
AcDbXrecord
280
     1
270
     1
271
     1
  0
XRECORD
  5
28
102
{ACAD_REACTORS
330
22
102
}
330
22
100
AcDbXrecord
280
     1
270
     1
271
     1
  0
XRECORD
  5
25
102
{ACAD_REACTORS
330
22
102
}
330
22
100
AcDbXrecord
280
     1
270
     1
271
     1
  0
XRECORD
  5
1AA
102
{ACAD_REACTORS
330
1A9
102
}
330
1A9
100
AcDbXrecord
280
     1
102
ACAD_ROUNDTRIP_2012_MLEADER_STYLE
298
     1
  0
XRECORD
  5
1AC
102
{ACAD_REACTORS
330
1AB
102
}
330
1AB
100
AcDbXrecord
280
     1
102
DISPLAYNAME
  1
Imperial24
102
FLAGS
 90
        0
  0
CELLSTYLEMAP
  5
177
102
{ACAD_REACTORS
330
176
102
}
330
176
100
AcDbCellStyleMap
 90
        3
300
CELLSTYLE
  1
TABLEFORMAT_BEGIN
 90
        5
170
     1
 91
        0
 92
    32768
 62
   257
 93
        1
300
CONTENTFORMAT
  1
CONTENTFORMAT_BEGIN
 90
        0
 91
        0
 92
      512
 93
        0
300

 40
0.0
140
1.0
 94
        5
 62
     0
340
55
144
0.25
309
CONTENTFORMAT_END
171
     0
 94
        0
309
TABLEFORMAT_END
  1
CELLSTYLE_BEGIN
 90
        1
 91
        1
300
_TITLE
309
CELLSTYLE_END
300
CELLSTYLE
  1
TABLEFORMAT_BEGIN
 90
        5
170
     1
 91
        0
 92
        0
 62
   257
 93
        1
300
CONTENTFORMAT
  1
CONTENTFORMAT_BEGIN
 90
        0
 91
        0
 92
      512
 93
        0
300

 40
0.0
140
1.0
 94
        5
 62
     0
340
55
144
0.18
309
CONTENTFORMAT_END
171
     0
 94
        0
309
TABLEFORMAT_END
  1
CELLSTYLE_BEGIN
 90
        2
 91
        1
300
_HEADER
309
CELLSTYLE_END
300
CELLSTYLE
  1
TABLEFORMAT_BEGIN
 90
        5
170
     1
 91
        0
 92
        0
 62
   257
 93
        1
300
CONTENTFORMAT
  1
CONTENTFORMAT_BEGIN
 90
        0
 91
        0
 92
      512
 93
        0
300

 40
0.0
140
1.0
 94
        2
 62
     0
340
55
144
0.18
309
CONTENTFORMAT_END
171
     0
 94
        0
309
TABLEFORMAT_END
  1
CELLSTYLE_BEGIN
 90
        3
 91
        2
300
_DATA
309
CELLSTYLE_END
  0
XRECORD
  5
184
102
{ACAD_REACTORS
330
183
102
}
330
183
100
AcDbXrecord
280
     1
102
RTVSPost2010Prop28
280
     1
102
RTVSPost2010PropOp28
 70
     1
102
RTVSPost2010Prop29
280
     1
102
RTVSPost2010PropOp29
 70
     1
102
RTVSPost2010Prop30
280
     0
102
RTVSPost2010PropOp30
 70
     1
102
RTVSPost2010Prop31
280
     0
102
RTVSPost2010PropOp31
 70
     1
102
RTVSPost2010Prop32
280
     0
102
RTVSPost2010PropOp32
 70
     1
102
RTVSPost2010Prop33
280
     0
102
RTVSPost2010PropOp33
 70
     1
102
RTVSPost2010Prop34
280
     0
102
RTVSPost2010PropOp34
 70
     1
102
RTVSPost2010Prop35
280
     0
102
RTVSPost2010PropOp35
 70
     1
102
RTVSPost2010Prop36
280
     0
102
RTVSPost2010PropOp36
 70
     1
102
RTVSPost2010Prop37
 90
       50
102
RTVSPost2010PropOp37
 70
     1
102
RTVSPost2010Prop38
140
0.0
102
RTVSPost2010PropOp38
 70
     1
102
RTVSPost2010Prop39
140
1.0
102
RTVSPost2010PropOp39
 70
     1
102
RTVSPost2010Prop40
 90
        0
102
RTVSPost2010PropOp40
 70
     1
102
RTVSPost2010Prop41ColorIndex
 90
       18
102
RTVSPost2010Prop41ColorRGB
 90
        0
102
RTVSPost2010PropOp41
 70
     1
102
RTVSPost2010Prop42
 90
       50
102
RTVSPost2010PropOp42
 70
     1
102
RTVSPost2010Prop43
 90
        3
102
RTVSPost2010PropOp43
 70
     1
102
RTVSPost2010Prop44ColorIndex
 90
        5
102
RTVSPost2010Prop44ColorRGB
 90
      255
102
RTVSPost2010PropOp44
 70
     1
102
RTVSPost2010Prop45
280
     0
102
RTVSPost2010PropOp45
 70
     1
102
RTVSPost2010Prop46
 90
       50
102
RTVSPost2010PropOp46
 70
     1
102
RTVSPost2010Prop47
 90
       50
102
RTVSPost2010PropOp47
 70
     1
102
RTVSPost2010Prop48
 90
       50
102
RTVSPost2010PropOp48
 70
     1
102
RTVSPost2010Prop49
280
     0
102
RTVSPost2010PropOp49
 70
     1
102
RTVSPost2010Prop50
 90
       50
102
RTVSPost2010PropOp50
 70
     1
102
RTVSPost2010Prop51ColorIndex
 90
      256
102
RTVSPost2010Prop51ColorRGB
 90
-16777216
102
RTVSPost2010PropOp51
 70
     0
102
RTVSPost2010Prop52
140
1.0
102
RTVSPost2010PropOp52
 70
     0
102
RTVSPost2010Prop53
 90
        2
102
RTVSPost2010PropOp53
 70
     1
102
RTVSPost2010Prop54
  1
strokes_ogs.tif
102
RTVSPost2010PropOp54
 70
     1
102
RTVSPost2010Prop55
280
     0
102
RTVSPost2010PropOp55
 70
     1
102
RTVSPost2010Prop56
140
1.0
102
RTVSPost2010PropOp56
 70
     1
102
RTVSPost2010Prop57
140
1.0
102
RTVSPost2010PropOp57
 70
     1
  0
XRECORD
  5
182
102
{ACAD_REACTORS
330
181
102
}
330
181
100
AcDbXrecord
280
     1
102
RTVSPost2010Prop28
280
     0
102
RTVSPost2010PropOp28
 70
     1
102
RTVSPost2010Prop29
280
     1
102
RTVSPost2010PropOp29
 70
     1
102
RTVSPost2010Prop30
280
     1
102
RTVSPost2010PropOp30
 70
     1
102
RTVSPost2010Prop31
280
     0
102
RTVSPost2010PropOp31
 70
     1
102
RTVSPost2010Prop32
280
     0
102
RTVSPost2010PropOp32
 70
     1
102
RTVSPost2010Prop33
280
     0
102
RTVSPost2010PropOp33
 70
     1
102
RTVSPost2010Prop34
280
     0
102
RTVSPost2010PropOp34
 70
     1
102
RTVSPost2010Prop35
280
     0
102
RTVSPost2010PropOp35
 70
     1
102
RTVSPost2010Prop36
280
     0
102
RTVSPost2010PropOp36
 70
     1
102
RTVSPost2010Prop37
 90
       50
102
RTVSPost2010PropOp37
 70
     1
102
RTVSPost2010Prop38
140
0.0
102
RTVSPost2010PropOp38
 70
     1
102
RTVSPost2010Prop39
140
1.0
102
RTVSPost2010PropOp39
 70
     1
102
RTVSPost2010Prop40
 90
        0
102
RTVSPost2010PropOp40
 70
     1
102
RTVSPost2010Prop41ColorIndex
 90
       18
102
RTVSPost2010Prop41ColorRGB
 90
        0
102
RTVSPost2010PropOp41
 70
     1
102
RTVSPost2010Prop42
 90
       50
102
RTVSPost2010PropOp42
 70
     1
102
RTVSPost2010Prop43
 90
        3
102
RTVSPost2010PropOp43
 70
     1
102
RTVSPost2010Prop44ColorIndex
 90
        5
102
RTVSPost2010Prop44ColorRGB
 90
      255
102
RTVSPost2010PropOp44
 70
     1
102
RTVSPost2010Prop45
280
     0
102
RTVSPost2010PropOp45
 70
     1
102
RTVSPost2010Prop46
 90
       50
102
RTVSPost2010PropOp46
 70
     1
102
RTVSPost2010Prop47
 90
       50
102
RTVSPost2010PropOp47
 70
     1
102
RTVSPost2010Prop48
 90
       50
102
RTVSPost2010PropOp48
 70
     1
102
RTVSPost2010Prop49
280
     0
102
RTVSPost2010PropOp49
 70
     1
102
RTVSPost2010Prop50
 90
       50
102
RTVSPost2010PropOp50
 70
     1
102
RTVSPost2010Prop51ColorIndex
 90
      256
102
RTVSPost2010Prop51ColorRGB
 90
-16777216
102
RTVSPost2010PropOp51
 70
     0
102
RTVSPost2010Prop52
140
1.0
102
RTVSPost2010PropOp52
 70
     0
102
RTVSPost2010Prop53
 90
        2
102
RTVSPost2010PropOp53
 70
     1
102
RTVSPost2010Prop54
  1
strokes_ogs.tif
102
RTVSPost2010PropOp54
 70
     1
102
RTVSPost2010Prop55
280
     0
102
RTVSPost2010PropOp55
 70
     1
102
RTVSPost2010Prop56
140
1.0
102
RTVSPost2010PropOp56
 70
     1
102
RTVSPost2010Prop57
140
1.0
102
RTVSPost2010PropOp57
 70
     1
  0
XRECORD
  5
190
102
{ACAD_REACTORS
330
18F
102
}
330
18F
100
AcDbXrecord
280
     1
102
RTVSPost2010Prop28
280
     0
102
RTVSPost2010PropOp28
 70
     1
102
RTVSPost2010Prop29
280
     1
102
RTVSPost2010PropOp29
 70
     1
102
RTVSPost2010Prop30
280
     1
102
RTVSPost2010PropOp30
 70
     1
102
RTVSPost2010Prop31
280
     0
102
RTVSPost2010PropOp31
 70
     1
102
RTVSPost2010Prop32
280
     0
102
RTVSPost2010PropOp32
 70
     1
102
RTVSPost2010Prop33
280
     0
102
RTVSPost2010PropOp33
 70
     1
102
RTVSPost2010Prop34
280
     0
102
RTVSPost2010PropOp34
 70
     1
102
RTVSPost2010Prop35
280
     0
102
RTVSPost2010PropOp35
 70
     1
102
RTVSPost2010Prop36
280
     0
102
RTVSPost2010PropOp36
 70
     1
102
RTVSPost2010Prop37
 90
       50
102
RTVSPost2010PropOp37
 70
     1
102
RTVSPost2010Prop38
140
0.0
102
RTVSPost2010PropOp38
 70
     1
102
RTVSPost2010Prop39
140
1.0
102
RTVSPost2010PropOp39
 70
     1
102
RTVSPost2010Prop40
 90
        0
102
RTVSPost2010PropOp40
 70
     1
102
RTVSPost2010Prop41ColorIndex
 90
       18
102
RTVSPost2010Prop41ColorRGB
 90
        0
102
RTVSPost2010PropOp41
 70
     1
102
RTVSPost2010Prop42
 90
       50
102
RTVSPost2010PropOp42
 70
     1
102
RTVSPost2010Prop43
 90
        3
102
RTVSPost2010PropOp43
 70
     1
102
RTVSPost2010Prop44ColorIndex
 90
        5
102
RTVSPost2010Prop44ColorRGB
 90
      255
102
RTVSPost2010PropOp44
 70
     1
102
RTVSPost2010Prop45
280
     0
102
RTVSPost2010PropOp45
 70
     1
102
RTVSPost2010Prop46
 90
       50
102
RTVSPost2010PropOp46
 70
     1
102
RTVSPost2010Prop47
 90
       50
102
RTVSPost2010PropOp47
 70
     1
102
RTVSPost2010Prop48
 90
       50
102
RTVSPost2010PropOp48
 70
     1
102
RTVSPost2010Prop49
280
     0
102
RTVSPost2010PropOp49
 70
     1
102
RTVSPost2010Prop50
 90
       50
102
RTVSPost2010PropOp50
 70
     1
102
RTVSPost2010Prop51ColorIndex
 90
      256
102
RTVSPost2010Prop51ColorRGB
 90
-16777216
102
RTVSPost2010PropOp51
 70
     0
102
RTVSPost2010Prop52
140
1.0
102
RTVSPost2010PropOp52
 70
     0
102
RTVSPost2010Prop53
 90
        2
102
RTVSPost2010PropOp53
 70
     1
102
RTVSPost2010Prop54
  1
strokes_ogs.tif
102
RTVSPost2010PropOp54
 70
     1
102
RTVSPost2010Prop55
280
     0
102
RTVSPost2010PropOp55
 70
     1
102
RTVSPost2010Prop56
140
1.0
102
RTVSPost2010PropOp56
 70
     1
102
RTVSPost2010Prop57
140
1.0
102
RTVSPost2010PropOp57
 70
     1
  0
XRECORD
  5
198
102
{ACAD_REACTORS
330
197
102
}
330
197
100
AcDbXrecord
280
     1
102
RTVSPost2010Prop28
280
     0
102
RTVSPost2010PropOp28
 70
     1
102
RTVSPost2010Prop29
280
     1
102
RTVSPost2010PropOp29
 70
     1
102
RTVSPost2010Prop30
280
     1
102
RTVSPost2010PropOp30
 70
     1
102
RTVSPost2010Prop31
280
     0
102
RTVSPost2010PropOp31
 70
     1
102
RTVSPost2010Prop32
280
     0
102
RTVSPost2010PropOp32
 70
     1
102
RTVSPost2010Prop33
280
     0
102
RTVSPost2010PropOp33
 70
     1
102
RTVSPost2010Prop34
280
     0
102
RTVSPost2010PropOp34
 70
     1
102
RTVSPost2010Prop35
280
     0
102
RTVSPost2010PropOp35
 70
     1
102
RTVSPost2010Prop36
280
     0
102
RTVSPost2010PropOp36
 70
     1
102
RTVSPost2010Prop37
 90
       50
102
RTVSPost2010PropOp37
 70
     1
102
RTVSPost2010Prop38
140
0.0
102
RTVSPost2010PropOp38
 70
     1
102
RTVSPost2010Prop39
140
1.0
102
RTVSPost2010PropOp39
 70
     1
102
RTVSPost2010Prop40
 90
        0
102
RTVSPost2010PropOp40
 70
     1
102
RTVSPost2010Prop41ColorIndex
 90
       18
102
RTVSPost2010Prop41ColorRGB
 90
        0
102
RTVSPost2010PropOp41
 70
     1
102
RTVSPost2010Prop42
 90
       50
102
RTVSPost2010PropOp42
 70
     1
102
RTVSPost2010Prop43
 90
        3
102
RTVSPost2010PropOp43
 70
     1
102
RTVSPost2010Prop44ColorIndex
 90
        5
102
RTVSPost2010Prop44ColorRGB
 90
      255
102
RTVSPost2010PropOp44
 70
     1
102
RTVSPost2010Prop45
280
     0
102
RTVSPost2010PropOp45
 70
     1
102
RTVSPost2010Prop46
 90
       50
102
RTVSPost2010PropOp46
 70
     1
102
RTVSPost2010Prop47
 90
       50
102
RTVSPost2010PropOp47
 70
     1
102
RTVSPost2010Prop48
 90
       50
102
RTVSPost2010PropOp48
 70
     1
102
RTVSPost2010Prop49
280
     0
102
RTVSPost2010PropOp49
 70
     1
102
RTVSPost2010Prop50
 90
       50
102
RTVSPost2010PropOp50
 70
     1
102
RTVSPost2010Prop51ColorIndex
 90
      256
102
RTVSPost2010Prop51ColorRGB
 90
-16777216
102
RTVSPost2010PropOp51
 70
     0
102
RTVSPost2010Prop52
140
1.0
102
RTVSPost2010PropOp52
 70
     0
102
RTVSPost2010Prop53
 90
        2
102
RTVSPost2010PropOp53
 70
     1
102
RTVSPost2010Prop54
  1
strokes_ogs.tif
102
RTVSPost2010PropOp54
 70
     1
102
RTVSPost2010Prop55
280
     0
102
RTVSPost2010PropOp55
 70
     1
102
RTVSPost2010Prop56
140
1.0
102
RTVSPost2010PropOp56
 70
     1
102
RTVSPost2010Prop57
140
1.0
102
RTVSPost2010PropOp57
 70
     1
  0
XRECORD
  5
18A
102
{ACAD_REACTORS
330
189
102
}
330
189
100
AcDbXrecord
280
     1
102
RTVSPost2010Prop28
280
     0
102
RTVSPost2010PropOp28
 70
     1
102
RTVSPost2010Prop29
280
     1
102
RTVSPost2010PropOp29
 70
     1
102
RTVSPost2010Prop30
280
     1
102
RTVSPost2010PropOp30
 70
     1
102
RTVSPost2010Prop31
280
     0
102
RTVSPost2010PropOp31
 70
     1
102
RTVSPost2010Prop32
280
     0
102
RTVSPost2010PropOp32
 70
     1
102
RTVSPost2010Prop33
280
     0
102
RTVSPost2010PropOp33
 70
     1
102
RTVSPost2010Prop34
280
     0
102
RTVSPost2010PropOp34
 70
     1
102
RTVSPost2010Prop35
280
     0
102
RTVSPost2010PropOp35
 70
     1
102
RTVSPost2010Prop36
280
     0
102
RTVSPost2010PropOp36
 70
     1
102
RTVSPost2010Prop37
 90
       50
102
RTVSPost2010PropOp37
 70
     1
102
RTVSPost2010Prop38
140
0.0
102
RTVSPost2010PropOp38
 70
     1
102
RTVSPost2010Prop39
140
1.0
102
RTVSPost2010PropOp39
 70
     1
102
RTVSPost2010Prop40
 90
        0
102
RTVSPost2010PropOp40
 70
     1
102
RTVSPost2010Prop41ColorIndex
 90
       18
102
RTVSPost2010Prop41ColorRGB
 90
        0
102
RTVSPost2010PropOp41
 70
     1
102
RTVSPost2010Prop42
 90
       50
102
RTVSPost2010PropOp42
 70
     1
102
RTVSPost2010Prop43
 90
        3
102
RTVSPost2010PropOp43
 70
     1
102
RTVSPost2010Prop44ColorIndex
 90
        5
102
RTVSPost2010Prop44ColorRGB
 90
      255
102
RTVSPost2010PropOp44
 70
     1
102
RTVSPost2010Prop45
280
     0
102
RTVSPost2010PropOp45
 70
     1
102
RTVSPost2010Prop46
 90
       50
102
RTVSPost2010PropOp46
 70
     1
102
RTVSPost2010Prop47
 90
       50
102
RTVSPost2010PropOp47
 70
     1
102
RTVSPost2010Prop48
 90
       50
102
RTVSPost2010PropOp48
 70
     1
102
RTVSPost2010Prop49
280
     0
102
RTVSPost2010PropOp49
 70
     1
102
RTVSPost2010Prop50
 90
       50
102
RTVSPost2010PropOp50
 70
     1
102
RTVSPost2010Prop51ColorIndex
 90
      256
102
RTVSPost2010Prop51ColorRGB
 90
-16777216
102
RTVSPost2010PropOp51
 70
     0
102
RTVSPost2010Prop52
140
1.0
102
RTVSPost2010PropOp52
 70
     0
102
RTVSPost2010Prop53
 90
        2
102
RTVSPost2010PropOp53
 70
     1
102
RTVSPost2010Prop54
  1
strokes_ogs.tif
102
RTVSPost2010PropOp54
 70
     1
102
RTVSPost2010Prop55
280
     0
102
RTVSPost2010PropOp55
 70
     1
102
RTVSPost2010Prop56
140
1.0
102
RTVSPost2010PropOp56
 70
     1
102
RTVSPost2010Prop57
140
1.0
102
RTVSPost2010PropOp57
 70
     1
  0
XRECORD
  5
18E
102
{ACAD_REACTORS
330
18D
102
}
330
18D
100
AcDbXrecord
280
     1
102
RTVSPost2010Prop28
280
     0
102
RTVSPost2010PropOp28
 70
     1
102
RTVSPost2010Prop29
280
     1
102
RTVSPost2010PropOp29
 70
     1
102
RTVSPost2010Prop30
280
     1
102
RTVSPost2010PropOp30
 70
     1
102
RTVSPost2010Prop31
280
     0
102
RTVSPost2010PropOp31
 70
     1
102
RTVSPost2010Prop32
280
     0
102
RTVSPost2010PropOp32
 70
     1
102
RTVSPost2010Prop33
280
     0
102
RTVSPost2010PropOp33
 70
     1
102
RTVSPost2010Prop34
280
     0
102
RTVSPost2010PropOp34
 70
     1
102
RTVSPost2010Prop35
280
     0
102
RTVSPost2010PropOp35
 70
     1
102
RTVSPost2010Prop36
280
     0
102
RTVSPost2010PropOp36
 70
     1
102
RTVSPost2010Prop37
 90
       50
102
RTVSPost2010PropOp37
 70
     1
102
RTVSPost2010Prop38
140
0.0
102
RTVSPost2010PropOp38
 70
     1
102
RTVSPost2010Prop39
140
1.0
102
RTVSPost2010PropOp39
 70
     1
102
RTVSPost2010Prop40
 90
        0
102
RTVSPost2010PropOp40
 70
     1
102
RTVSPost2010Prop41ColorIndex
 90
       18
102
RTVSPost2010Prop41ColorRGB
 90
        0
102
RTVSPost2010PropOp41
 70
     1
102
RTVSPost2010Prop42
 90
       50
102
RTVSPost2010PropOp42
 70
     1
102
RTVSPost2010Prop43
 90
        3
102
RTVSPost2010PropOp43
 70
     1
102
RTVSPost2010Prop44ColorIndex
 90
        5
102
RTVSPost2010Prop44ColorRGB
 90
      255
102
RTVSPost2010PropOp44
 70
     1
102
RTVSPost2010Prop45
280
     0
102
RTVSPost2010PropOp45
 70
     1
102
RTVSPost2010Prop46
 90
       50
102
RTVSPost2010PropOp46
 70
     1
102
RTVSPost2010Prop47
 90
       50
102
RTVSPost2010PropOp47
 70
     1
102
RTVSPost2010Prop48
 90
       50
102
RTVSPost2010PropOp48
 70
     1
102
RTVSPost2010Prop49
280
     0
102
RTVSPost2010PropOp49
 70
     1
102
RTVSPost2010Prop50
 90
       50
102
RTVSPost2010PropOp50
 70
     1
102
RTVSPost2010Prop51ColorIndex
 90
      256
102
RTVSPost2010Prop51ColorRGB
 90
-16777216
102
RTVSPost2010PropOp51
 70
     0
102
RTVSPost2010Prop52
140
1.0
102
RTVSPost2010PropOp52
 70
     0
102
RTVSPost2010Prop53
 90
        2
102
RTVSPost2010PropOp53
 70
     1
102
RTVSPost2010Prop54
  1
strokes_ogs.tif
102
RTVSPost2010PropOp54
 70
     1
102
RTVSPost2010Prop55
280
     0
102
RTVSPost2010PropOp55
 70
     1
102
RTVSPost2010Prop56
140
1.0
102
RTVSPost2010PropOp56
 70
     1
102
RTVSPost2010Prop57
140
1.0
102
RTVSPost2010PropOp57
 70
     1
  0
XRECORD
  5
1A8
102
{ACAD_REACTORS
330
1A7
102
}
330
1A7
100
AcDbXrecord
280
     1
102
RTVSPost2010Prop28
280
     0
102
RTVSPost2010PropOp28
 70
     0
102
RTVSPost2010Prop29
280
     1
102
RTVSPost2010PropOp29
 70
     0
102
RTVSPost2010Prop30
280
     1
102
RTVSPost2010PropOp30
 70
     0
102
RTVSPost2010Prop31
280
     0
102
RTVSPost2010PropOp31
 70
     0
102
RTVSPost2010Prop32
280
     0
102
RTVSPost2010PropOp32
 70
     0
102
RTVSPost2010Prop33
280
     0
102
RTVSPost2010PropOp33
 70
     0
102
RTVSPost2010Prop34
280
     0
102
RTVSPost2010PropOp34
 70
     0
102
RTVSPost2010Prop35
280
     0
102
RTVSPost2010PropOp35
 70
     0
102
RTVSPost2010Prop36
280
     0
102
RTVSPost2010PropOp36
 70
     0
102
RTVSPost2010Prop37
 90
       50
102
RTVSPost2010PropOp37
 70
     0
102
RTVSPost2010Prop38
140
0.0
102
RTVSPost2010PropOp38
 70
     0
102
RTVSPost2010Prop39
140
1.0
102
RTVSPost2010PropOp39
 70
     0
102
RTVSPost2010Prop40
 90
        0
102
RTVSPost2010PropOp40
 70
     0
102
RTVSPost2010Prop41ColorIndex
 90
       18
102
RTVSPost2010Prop41ColorRGB
 90
        0
102
RTVSPost2010PropOp41
 70
     0
102
RTVSPost2010Prop42
 90
       50
102
RTVSPost2010PropOp42
 70
     0
102
RTVSPost2010Prop43
 90
        3
102
RTVSPost2010PropOp43
 70
     0
102
RTVSPost2010Prop44ColorIndex
 90
        5
102
RTVSPost2010Prop44ColorRGB
 90
      255
102
RTVSPost2010PropOp44
 70
     0
102
RTVSPost2010Prop45
280
     0
102
RTVSPost2010PropOp45
 70
     0
102
RTVSPost2010Prop46
 90
       50
102
RTVSPost2010PropOp46
 70
     0
102
RTVSPost2010Prop47
 90
       50
102
RTVSPost2010PropOp47
 70
     0
102
RTVSPost2010Prop48
 90
       50
102
RTVSPost2010PropOp48
 70
     0
102
RTVSPost2010Prop49
280
     0
102
RTVSPost2010PropOp49
 70
     0
102
RTVSPost2010Prop50
 90
       50
102
RTVSPost2010PropOp50
 70
     0
102
RTVSPost2010Prop51ColorIndex
 90
      256
102
RTVSPost2010Prop51ColorRGB
 90
-16777216
102
RTVSPost2010PropOp51
 70
     0
102
RTVSPost2010Prop52
140
1.0
102
RTVSPost2010PropOp52
 70
     0
102
RTVSPost2010Prop53
 90
        2
102
RTVSPost2010PropOp53
 70
     0
102
RTVSPost2010Prop54
  1
strokes_ogs.tif
102
RTVSPost2010PropOp54
 70
     0
102
RTVSPost2010Prop55
280
     0
102
RTVSPost2010PropOp55
 70
     0
102
RTVSPost2010Prop56
140
1.0
102
RTVSPost2010PropOp56
 70
     0
102
RTVSPost2010Prop57
140
1.0
102
RTVSPost2010PropOp57
 70
     0
  0
XRECORD
  5
196
102
{ACAD_REACTORS
330
195
102
}
330
195
100
AcDbXrecord
280
     1
102
RTVSPost2010Prop28
280
     0
102
RTVSPost2010PropOp28
 70
     1
102
RTVSPost2010Prop29
280
     1
102
RTVSPost2010PropOp29
 70
     1
102
RTVSPost2010Prop30
280
     1
102
RTVSPost2010PropOp30
 70
     1
102
RTVSPost2010Prop31
280
     0
102
RTVSPost2010PropOp31
 70
     1
102
RTVSPost2010Prop32
280
     0
102
RTVSPost2010PropOp32
 70
     1
102
RTVSPost2010Prop33
280
     0
102
RTVSPost2010PropOp33
 70
     1
102
RTVSPost2010Prop34
280
     0
102
RTVSPost2010PropOp34
 70
     1
102
RTVSPost2010Prop35
280
     0
102
RTVSPost2010PropOp35
 70
     1
102
RTVSPost2010Prop36
280
     0
102
RTVSPost2010PropOp36
 70
     1
102
RTVSPost2010Prop37
 90
       50
102
RTVSPost2010PropOp37
 70
     1
102
RTVSPost2010Prop38
140
0.0
102
RTVSPost2010PropOp38
 70
     1
102
RTVSPost2010Prop39
140
1.0
102
RTVSPost2010PropOp39
 70
     1
102
RTVSPost2010Prop40
 90
        0
102
RTVSPost2010PropOp40
 70
     1
102
RTVSPost2010Prop41ColorIndex
 90
       18
102
RTVSPost2010Prop41ColorRGB
 90
        0
102
RTVSPost2010PropOp41
 70
     1
102
RTVSPost2010Prop42
 90
       50
102
RTVSPost2010PropOp42
 70
     1
102
RTVSPost2010Prop43
 90
        3
102
RTVSPost2010PropOp43
 70
     1
102
RTVSPost2010Prop44ColorIndex
 90
        5
102
RTVSPost2010Prop44ColorRGB
 90
      255
102
RTVSPost2010PropOp44
 70
     1
102
RTVSPost2010Prop45
280
     0
102
RTVSPost2010PropOp45
 70
     1
102
RTVSPost2010Prop46
 90
       50
102
RTVSPost2010PropOp46
 70
     1
102
RTVSPost2010Prop47
 90
       50
102
RTVSPost2010PropOp47
 70
     1
102
RTVSPost2010Prop48
 90
       50
102
RTVSPost2010PropOp48
 70
     1
102
RTVSPost2010Prop49
280
     0
102
RTVSPost2010PropOp49
 70
     1
102
RTVSPost2010Prop50
 90
       50
102
RTVSPost2010PropOp50
 70
     1
102
RTVSPost2010Prop51ColorIndex
 90
      256
102
RTVSPost2010Prop51ColorRGB
 90
-16777216
102
RTVSPost2010PropOp51
 70
     0
102
RTVSPost2010Prop52
140
1.0
102
RTVSPost2010PropOp52
 70
     0
102
RTVSPost2010Prop53
 90
        2
102
RTVSPost2010PropOp53
 70
     1
102
RTVSPost2010Prop54
  1
strokes_ogs.tif
102
RTVSPost2010PropOp54
 70
     1
102
RTVSPost2010Prop55
280
     0
102
RTVSPost2010PropOp55
 70
     1
102
RTVSPost2010Prop56
140
1.0
102
RTVSPost2010PropOp56
 70
     1
102
RTVSPost2010Prop57
140
1.0
102
RTVSPost2010PropOp57
 70
     1
  0
XRECORD
  5
17A
102
{ACAD_REACTORS
330
179
102
}
330
179
100
AcDbXrecord
280
     1
102
RTVSPost2010Prop28
280
     0
102
RTVSPost2010PropOp28
 70
     1
102
RTVSPost2010Prop29
280
     1
102
RTVSPost2010PropOp29
 70
     1
102
RTVSPost2010Prop30
280
     1
102
RTVSPost2010PropOp30
 70
     1
102
RTVSPost2010Prop31
280
     0
102
RTVSPost2010PropOp31
 70
     1
102
RTVSPost2010Prop32
280
     0
102
RTVSPost2010PropOp32
 70
     1
102
RTVSPost2010Prop33
280
     0
102
RTVSPost2010PropOp33
 70
     1
102
RTVSPost2010Prop34
280
     0
102
RTVSPost2010PropOp34
 70
     1
102
RTVSPost2010Prop35
280
     0
102
RTVSPost2010PropOp35
 70
     1
102
RTVSPost2010Prop36
280
     0
102
RTVSPost2010PropOp36
 70
     1
102
RTVSPost2010Prop37
 90
       50
102
RTVSPost2010PropOp37
 70
     1
102
RTVSPost2010Prop38
140
0.0
102
RTVSPost2010PropOp38
 70
     1
102
RTVSPost2010Prop39
140
1.0
102
RTVSPost2010PropOp39
 70
     1
102
RTVSPost2010Prop40
 90
        0
102
RTVSPost2010PropOp40
 70
     1
102
RTVSPost2010Prop41ColorIndex
 90
       18
102
RTVSPost2010Prop41ColorRGB
 90
        0
102
RTVSPost2010PropOp41
 70
     1
102
RTVSPost2010Prop42
 90
       50
102
RTVSPost2010PropOp42
 70
     1
102
RTVSPost2010Prop43
 90
        3
102
RTVSPost2010PropOp43
 70
     1
102
RTVSPost2010Prop44ColorIndex
 90
        5
102
RTVSPost2010Prop44ColorRGB
 90
      255
102
RTVSPost2010PropOp44
 70
     1
102
RTVSPost2010Prop45
280
     0
102
RTVSPost2010PropOp45
 70
     1
102
RTVSPost2010Prop46
 90
       50
102
RTVSPost2010PropOp46
 70
     1
102
RTVSPost2010Prop47
 90
       50
102
RTVSPost2010PropOp47
 70
     1
102
RTVSPost2010Prop48
 90
       50
102
RTVSPost2010PropOp48
 70
     1
102
RTVSPost2010Prop49
280
     0
102
RTVSPost2010PropOp49
 70
     1
102
RTVSPost2010Prop50
 90
       50
102
RTVSPost2010PropOp50
 70
     1
102
RTVSPost2010Prop51ColorIndex
 90
      256
102
RTVSPost2010Prop51ColorRGB
 90
-16777216
102
RTVSPost2010PropOp51
 70
     0
102
RTVSPost2010Prop52
140
1.0
102
RTVSPost2010PropOp52
 70
     0
102
RTVSPost2010Prop53
 90
        2
102
RTVSPost2010PropOp53
 70
     1
102
RTVSPost2010Prop54
  1
strokes_ogs.tif
102
RTVSPost2010PropOp54
 70
     1
102
RTVSPost2010Prop55
280
     0
102
RTVSPost2010PropOp55
 70
     1
102
RTVSPost2010Prop56
140
1.0
102
RTVSPost2010PropOp56
 70
     1
102
RTVSPost2010Prop57
140
1.0
102
RTVSPost2010PropOp57
 70
     1
  0
XRECORD
  5
17C
102
{ACAD_REACTORS
330
17B
102
}
330
17B
100
AcDbXrecord
280
     1
102
RTVSPost2010Prop28
280
     0
102
RTVSPost2010PropOp28
 70
     1
102
RTVSPost2010Prop29
280
     1
102
RTVSPost2010PropOp29
 70
     1
102
RTVSPost2010Prop30
280
     1
102
RTVSPost2010PropOp30
 70
     1
102
RTVSPost2010Prop31
280
     0
102
RTVSPost2010PropOp31
 70
     1
102
RTVSPost2010Prop32
280
     0
102
RTVSPost2010PropOp32
 70
     1
102
RTVSPost2010Prop33
280
     0
102
RTVSPost2010PropOp33
 70
     1
102
RTVSPost2010Prop34
280
     0
102
RTVSPost2010PropOp34
 70
     1
102
RTVSPost2010Prop35
280
     0
102
RTVSPost2010PropOp35
 70
     1
102
RTVSPost2010Prop36
280
     0
102
RTVSPost2010PropOp36
 70
     1
102
RTVSPost2010Prop37
 90
       50
102
RTVSPost2010PropOp37
 70
     1
102
RTVSPost2010Prop38
140
0.0
102
RTVSPost2010PropOp38
 70
     1
102
RTVSPost2010Prop39
140
1.0
102
RTVSPost2010PropOp39
 70
     1
102
RTVSPost2010Prop40
 90
        0
102
RTVSPost2010PropOp40
 70
     1
102
RTVSPost2010Prop41ColorIndex
 90
       18
102
RTVSPost2010Prop41ColorRGB
 90
        0
102
RTVSPost2010PropOp41
 70
     1
102
RTVSPost2010Prop42
 90
       50
102
RTVSPost2010PropOp42
 70
     1
102
RTVSPost2010Prop43
 90
        3
102
RTVSPost2010PropOp43
 70
     1
102
RTVSPost2010Prop44ColorIndex
 90
        5
102
RTVSPost2010Prop44ColorRGB
 90
      255
102
RTVSPost2010PropOp44
 70
     1
102
RTVSPost2010Prop45
280
     0
102
RTVSPost2010PropOp45
 70
     1
102
RTVSPost2010Prop46
 90
       50
102
RTVSPost2010PropOp46
 70
     1
102
RTVSPost2010Prop47
 90
       50
102
RTVSPost2010PropOp47
 70
     1
102
RTVSPost2010Prop48
 90
       50
102
RTVSPost2010PropOp48
 70
     1
102
RTVSPost2010Prop49
280
     0
102
RTVSPost2010PropOp49
 70
     1
102
RTVSPost2010Prop50
 90
       50
102
RTVSPost2010PropOp50
 70
     1
102
RTVSPost2010Prop51ColorIndex
 90
      256
102
RTVSPost2010Prop51ColorRGB
 90
-16777216
102
RTVSPost2010PropOp51
 70
     0
102
RTVSPost2010Prop52
140
1.0
102
RTVSPost2010PropOp52
 70
     0
102
RTVSPost2010Prop53
 90
        2
102
RTVSPost2010PropOp53
 70
     1
102
RTVSPost2010Prop54
  1
strokes_ogs.tif
102
RTVSPost2010PropOp54
 70
     1
102
RTVSPost2010Prop55
280
     0
102
RTVSPost2010PropOp55
 70
     1
102
RTVSPost2010Prop56
140
1.0
102
RTVSPost2010PropOp56
 70
     1
102
RTVSPost2010Prop57
140
1.0
102
RTVSPost2010PropOp57
 70
     1
  0
XRECORD
  5
17E
102
{ACAD_REACTORS
330
17D
102
}
330
17D
100
AcDbXrecord
280
     1
102
RTVSPost2010Prop28
280
     0
102
RTVSPost2010PropOp28
 70
     1
102
RTVSPost2010Prop29
280
     1
102
RTVSPost2010PropOp29
 70
     1
102
RTVSPost2010Prop30
280
     1
102
RTVSPost2010PropOp30
 70
     1
102
RTVSPost2010Prop31
280
     0
102
RTVSPost2010PropOp31
 70
     1
102
RTVSPost2010Prop32
280
     0
102
RTVSPost2010PropOp32
 70
     1
102
RTVSPost2010Prop33
280
     0
102
RTVSPost2010PropOp33
 70
     1
102
RTVSPost2010Prop34
280
     0
102
RTVSPost2010PropOp34
 70
     1
102
RTVSPost2010Prop35
280
     0
102
RTVSPost2010PropOp35
 70
     1
102
RTVSPost2010Prop36
280
     0
102
RTVSPost2010PropOp36
 70
     1
102
RTVSPost2010Prop37
 90
       50
102
RTVSPost2010PropOp37
 70
     1
102
RTVSPost2010Prop38
140
0.0
102
RTVSPost2010PropOp38
 70
     1
102
RTVSPost2010Prop39
140
1.0
102
RTVSPost2010PropOp39
 70
     1
102
RTVSPost2010Prop40
 90
        0
102
RTVSPost2010PropOp40
 70
     1
102
RTVSPost2010Prop41ColorIndex
 90
       18
102
RTVSPost2010Prop41ColorRGB
 90
        0
102
RTVSPost2010PropOp41
 70
     1
102
RTVSPost2010Prop42
 90
       50
102
RTVSPost2010PropOp42
 70
     1
102
RTVSPost2010Prop43
 90
        3
102
RTVSPost2010PropOp43
 70
     1
102
RTVSPost2010Prop44ColorIndex
 90
        5
102
RTVSPost2010Prop44ColorRGB
 90
      255
102
RTVSPost2010PropOp44
 70
     1
102
RTVSPost2010Prop45
280
     0
102
RTVSPost2010PropOp45
 70
     1
102
RTVSPost2010Prop46
 90
       50
102
RTVSPost2010PropOp46
 70
     1
102
RTVSPost2010Prop47
 90
       50
102
RTVSPost2010PropOp47
 70
     1
102
RTVSPost2010Prop48
 90
       50
102
RTVSPost2010PropOp48
 70
     1
102
RTVSPost2010Prop49
280
     0
102
RTVSPost2010PropOp49
 70
     1
102
RTVSPost2010Prop50
 90
       50
102
RTVSPost2010PropOp50
 70
     1
102
RTVSPost2010Prop51ColorIndex
 90
      256
102
RTVSPost2010Prop51ColorRGB
 90
-16777216
102
RTVSPost2010PropOp51
 70
     0
102
RTVSPost2010Prop52
140
1.0
102
RTVSPost2010PropOp52
 70
     0
102
RTVSPost2010Prop53
 90
        2
102
RTVSPost2010PropOp53
 70
     1
102
RTVSPost2010Prop54
  1
strokes_ogs.tif
102
RTVSPost2010PropOp54
 70
     1
102
RTVSPost2010Prop55
280
     0
102
RTVSPost2010PropOp55
 70
     1
102
RTVSPost2010Prop56
140
1.0
102
RTVSPost2010PropOp56
 70
     1
102
RTVSPost2010Prop57
140
1.0
102
RTVSPost2010PropOp57
 70
     1
  0
XRECORD
  5
180
102
{ACAD_REACTORS
330
17F
102
}
330
17F
100
AcDbXrecord
280
     1
102
RTVSPost2010Prop28
280
     0
102
RTVSPost2010PropOp28
 70
     1
102
RTVSPost2010Prop29
280
     1
102
RTVSPost2010PropOp29
 70
     1
102
RTVSPost2010Prop30
280
     1
102
RTVSPost2010PropOp30
 70
     1
102
RTVSPost2010Prop31
280
     0
102
RTVSPost2010PropOp31
 70
     1
102
RTVSPost2010Prop32
280
     0
102
RTVSPost2010PropOp32
 70
     1
102
RTVSPost2010Prop33
280
     0
102
RTVSPost2010PropOp33
 70
     1
102
RTVSPost2010Prop34
280
     0
102
RTVSPost2010PropOp34
 70
     1
102
RTVSPost2010Prop35
280
     0
102
RTVSPost2010PropOp35
 70
     1
102
RTVSPost2010Prop36
280
     0
102
RTVSPost2010PropOp36
 70
     1
102
RTVSPost2010Prop37
 90
       50
102
RTVSPost2010PropOp37
 70
     1
102
RTVSPost2010Prop38
140
0.0
102
RTVSPost2010PropOp38
 70
     1
102
RTVSPost2010Prop39
140
1.0
102
RTVSPost2010PropOp39
 70
     1
102
RTVSPost2010Prop40
 90
        0
102
RTVSPost2010PropOp40
 70
     1
102
RTVSPost2010Prop41ColorIndex
 90
       18
102
RTVSPost2010Prop41ColorRGB
 90
        0
102
RTVSPost2010PropOp41
 70
     1
102
RTVSPost2010Prop42
 90
       50
102
RTVSPost2010PropOp42
 70
     1
102
RTVSPost2010Prop43
 90
        3
102
RTVSPost2010PropOp43
 70
     1
102
RTVSPost2010Prop44ColorIndex
 90
        5
102
RTVSPost2010Prop44ColorRGB
 90
      255
102
RTVSPost2010PropOp44
 70
     1
102
RTVSPost2010Prop45
280
     0
102
RTVSPost2010PropOp45
 70
     1
102
RTVSPost2010Prop46
 90
       50
102
RTVSPost2010PropOp46
 70
     1
102
RTVSPost2010Prop47
 90
       50
102
RTVSPost2010PropOp47
 70
     1
102
RTVSPost2010Prop48
 90
       50
102
RTVSPost2010PropOp48
 70
     1
102
RTVSPost2010Prop49
280
     0
102
RTVSPost2010PropOp49
 70
     1
102
RTVSPost2010Prop50
 90
       50
102
RTVSPost2010PropOp50
 70
     1
102
RTVSPost2010Prop51ColorIndex
 90
      256
102
RTVSPost2010Prop51ColorRGB
 90
-16777216
102
RTVSPost2010PropOp51
 70
     0
102
RTVSPost2010Prop52
140
1.0
102
RTVSPost2010PropOp52
 70
     0
102
RTVSPost2010Prop53
 90
        2
102
RTVSPost2010PropOp53
 70
     1
102
RTVSPost2010Prop54
  1
strokes_ogs.tif
102
RTVSPost2010PropOp54
 70
     1
102
RTVSPost2010Prop55
280
     0
102
RTVSPost2010PropOp55
 70
     1
102
RTVSPost2010Prop56
140
1.0
102
RTVSPost2010PropOp56
 70
     1
102
RTVSPost2010Prop57
140
1.0
102
RTVSPost2010PropOp57
 70
     1
  0
XRECORD
  5
188
102
{ACAD_REACTORS
330
187
102
}
330
187
100
AcDbXrecord
280
     1
102
RTVSPost2010Prop28
280
     0
102
RTVSPost2010PropOp28
 70
     1
102
RTVSPost2010Prop29
280
     1
102
RTVSPost2010PropOp29
 70
     1
102
RTVSPost2010Prop30
280
     1
102
RTVSPost2010PropOp30
 70
     1
102
RTVSPost2010Prop31
280
     0
102
RTVSPost2010PropOp31
 70
     1
102
RTVSPost2010Prop32
280
     0
102
RTVSPost2010PropOp32
 70
     1
102
RTVSPost2010Prop33
280
     0
102
RTVSPost2010PropOp33
 70
     1
102
RTVSPost2010Prop34
280
     0
102
RTVSPost2010PropOp34
 70
     1
102
RTVSPost2010Prop35
280
     0
102
RTVSPost2010PropOp35
 70
     1
102
RTVSPost2010Prop36
280
     0
102
RTVSPost2010PropOp36
 70
     1
102
RTVSPost2010Prop37
 90
       50
102
RTVSPost2010PropOp37
 70
     1
102
RTVSPost2010Prop38
140
0.0
102
RTVSPost2010PropOp38
 70
     1
102
RTVSPost2010Prop39
140
1.0
102
RTVSPost2010PropOp39
 70
     1
102
RTVSPost2010Prop40
 90
        0
102
RTVSPost2010PropOp40
 70
     1
102
RTVSPost2010Prop41ColorIndex
 90
       18
102
RTVSPost2010Prop41ColorRGB
 90
        0
102
RTVSPost2010PropOp41
 70
     1
102
RTVSPost2010Prop42
 90
       50
102
RTVSPost2010PropOp42
 70
     1
102
RTVSPost2010Prop43
 90
        3
102
RTVSPost2010PropOp43
 70
     1
102
RTVSPost2010Prop44ColorIndex
 90
        5
102
RTVSPost2010Prop44ColorRGB
 90
      255
102
RTVSPost2010PropOp44
 70
     1
102
RTVSPost2010Prop45
280
     0
102
RTVSPost2010PropOp45
 70
     1
102
RTVSPost2010Prop46
 90
       50
102
RTVSPost2010PropOp46
 70
     1
102
RTVSPost2010Prop47
 90
       50
102
RTVSPost2010PropOp47
 70
     1
102
RTVSPost2010Prop48
 90
       50
102
RTVSPost2010PropOp48
 70
     1
102
RTVSPost2010Prop49
280
     0
102
RTVSPost2010PropOp49
 70
     1
102
RTVSPost2010Prop50
 90
       50
102
RTVSPost2010PropOp50
 70
     1
102
RTVSPost2010Prop51ColorIndex
 90
      256
102
RTVSPost2010Prop51ColorRGB
 90
-16777216
102
RTVSPost2010PropOp51
 70
     0
102
RTVSPost2010Prop52
140
1.0
102
RTVSPost2010PropOp52
 70
     0
102
RTVSPost2010Prop53
 90
        2
102
RTVSPost2010PropOp53
 70
     1
102
RTVSPost2010Prop54
  1
strokes_ogs.tif
102
RTVSPost2010PropOp54
 70
     1
102
RTVSPost2010Prop55
280
     0
102
RTVSPost2010PropOp55
 70
     1
102
RTVSPost2010Prop56
140
1.0
102
RTVSPost2010PropOp56
 70
     1
102
RTVSPost2010Prop57
140
1.0
102
RTVSPost2010PropOp57
 70
     1
  0
XRECORD
  5
1A4
102
{ACAD_REACTORS
330
1A3
102
}
330
1A3
100
AcDbXrecord
280
     1
102
RTVSPost2010Prop28
280
     0
102
RTVSPost2010PropOp28
 70
     0
102
RTVSPost2010Prop29
280
     1
102
RTVSPost2010PropOp29
 70
     0
102
RTVSPost2010Prop30
280
     1
102
RTVSPost2010PropOp30
 70
     0
102
RTVSPost2010Prop31
280
     0
102
RTVSPost2010PropOp31
 70
     0
102
RTVSPost2010Prop32
280
     0
102
RTVSPost2010PropOp32
 70
     0
102
RTVSPost2010Prop33
280
     0
102
RTVSPost2010PropOp33
 70
     0
102
RTVSPost2010Prop34
280
     0
102
RTVSPost2010PropOp34
 70
     0
102
RTVSPost2010Prop35
280
     0
102
RTVSPost2010PropOp35
 70
     0
102
RTVSPost2010Prop36
280
     0
102
RTVSPost2010PropOp36
 70
     0
102
RTVSPost2010Prop37
 90
       50
102
RTVSPost2010PropOp37
 70
     0
102
RTVSPost2010Prop38
140
0.0
102
RTVSPost2010PropOp38
 70
     0
102
RTVSPost2010Prop39
140
1.0
102
RTVSPost2010PropOp39
 70
     0
102
RTVSPost2010Prop40
 90
        0
102
RTVSPost2010PropOp40
 70
     0
102
RTVSPost2010Prop41ColorIndex
 90
       18
102
RTVSPost2010Prop41ColorRGB
 90
        0
102
RTVSPost2010PropOp41
 70
     0
102
RTVSPost2010Prop42
 90
       50
102
RTVSPost2010PropOp42
 70
     0
102
RTVSPost2010Prop43
 90
        3
102
RTVSPost2010PropOp43
 70
     0
102
RTVSPost2010Prop44ColorIndex
 90
        5
102
RTVSPost2010Prop44ColorRGB
 90
      255
102
RTVSPost2010PropOp44
 70
     0
102
RTVSPost2010Prop45
280
     0
102
RTVSPost2010PropOp45
 70
     0
102
RTVSPost2010Prop46
 90
       50
102
RTVSPost2010PropOp46
 70
     0
102
RTVSPost2010Prop47
 90
       50
102
RTVSPost2010PropOp47
 70
     0
102
RTVSPost2010Prop48
 90
       50
102
RTVSPost2010PropOp48
 70
     0
102
RTVSPost2010Prop49
280
     0
102
RTVSPost2010PropOp49
 70
     0
102
RTVSPost2010Prop50
 90
       50
102
RTVSPost2010PropOp50
 70
     0
102
RTVSPost2010Prop51ColorIndex
 90
      256
102
RTVSPost2010Prop51ColorRGB
 90
-16777216
102
RTVSPost2010PropOp51
 70
     0
102
RTVSPost2010Prop52
140
1.0
102
RTVSPost2010PropOp52
 70
     0
102
RTVSPost2010Prop53
 90
        2
102
RTVSPost2010PropOp53
 70
     0
102
RTVSPost2010Prop54
  1
strokes_ogs.tif
102
RTVSPost2010PropOp54
 70
     0
102
RTVSPost2010Prop55
280
     0
102
RTVSPost2010PropOp55
 70
     0
102
RTVSPost2010Prop56
140
1.0
102
RTVSPost2010PropOp56
 70
     0
102
RTVSPost2010Prop57
140
1.0
102
RTVSPost2010PropOp57
 70
     0
  0
XRECORD
  5
194
102
{ACAD_REACTORS
330
193
102
}
330
193
100
AcDbXrecord
280
     1
102
RTVSPost2010Prop28
280
     0
102
RTVSPost2010PropOp28
 70
     1
102
RTVSPost2010Prop29
280
     1
102
RTVSPost2010PropOp29
 70
     1
102
RTVSPost2010Prop30
280
     1
102
RTVSPost2010PropOp30
 70
     1
102
RTVSPost2010Prop31
280
     0
102
RTVSPost2010PropOp31
 70
     1
102
RTVSPost2010Prop32
280
     0
102
RTVSPost2010PropOp32
 70
     1
102
RTVSPost2010Prop33
280
     0
102
RTVSPost2010PropOp33
 70
     1
102
RTVSPost2010Prop34
280
     0
102
RTVSPost2010PropOp34
 70
     1
102
RTVSPost2010Prop35
280
     0
102
RTVSPost2010PropOp35
 70
     1
102
RTVSPost2010Prop36
280
     0
102
RTVSPost2010PropOp36
 70
     1
102
RTVSPost2010Prop37
 90
       50
102
RTVSPost2010PropOp37
 70
     1
102
RTVSPost2010Prop38
140
0.0
102
RTVSPost2010PropOp38
 70
     1
102
RTVSPost2010Prop39
140
1.0
102
RTVSPost2010PropOp39
 70
     1
102
RTVSPost2010Prop40
 90
        0
102
RTVSPost2010PropOp40
 70
     1
102
RTVSPost2010Prop41ColorIndex
 90
       18
102
RTVSPost2010Prop41ColorRGB
 90
        0
102
RTVSPost2010PropOp41
 70
     1
102
RTVSPost2010Prop42
 90
       50
102
RTVSPost2010PropOp42
 70
     1
102
RTVSPost2010Prop43
 90
        3
102
RTVSPost2010PropOp43
 70
     1
102
RTVSPost2010Prop44ColorIndex
 90
        5
102
RTVSPost2010Prop44ColorRGB
 90
      255
102
RTVSPost2010PropOp44
 70
     1
102
RTVSPost2010Prop45
280
     0
102
RTVSPost2010PropOp45
 70
     1
102
RTVSPost2010Prop46
 90
       50
102
RTVSPost2010PropOp46
 70
     1
102
RTVSPost2010Prop47
 90
       50
102
RTVSPost2010PropOp47
 70
     1
102
RTVSPost2010Prop48
 90
       50
102
RTVSPost2010PropOp48
 70
     1
102
RTVSPost2010Prop49
280
     0
102
RTVSPost2010PropOp49
 70
     1
102
RTVSPost2010Prop50
 90
       50
102
RTVSPost2010PropOp50
 70
     1
102
RTVSPost2010Prop51ColorIndex
 90
      256
102
RTVSPost2010Prop51ColorRGB
 90
-16777216
102
RTVSPost2010PropOp51
 70
     0
102
RTVSPost2010Prop52
140
1.0
102
RTVSPost2010PropOp52
 70
     0
102
RTVSPost2010Prop53
 90
        2
102
RTVSPost2010PropOp53
 70
     1
102
RTVSPost2010Prop54
  1
strokes_ogs.tif
102
RTVSPost2010PropOp54
 70
     1
102
RTVSPost2010Prop55
280
     0
102
RTVSPost2010PropOp55
 70
     1
102
RTVSPost2010Prop56
140
1.0
102
RTVSPost2010PropOp56
 70
     1
102
RTVSPost2010Prop57
140
1.0
102
RTVSPost2010PropOp57
 70
     1
  0
XRECORD
  5
1A6
102
{ACAD_REACTORS
330
1A5
102
}
330
1A5
100
AcDbXrecord
280
     1
102
RTVSPost2010Prop28
280
     0
102
RTVSPost2010PropOp28
 70
     0
102
RTVSPost2010Prop29
280
     1
102
RTVSPost2010PropOp29
 70
     0
102
RTVSPost2010Prop30
280
     1
102
RTVSPost2010PropOp30
 70
     0
102
RTVSPost2010Prop31
280
     0
102
RTVSPost2010PropOp31
 70
     0
102
RTVSPost2010Prop32
280
     0
102
RTVSPost2010PropOp32
 70
     0
102
RTVSPost2010Prop33
280
     0
102
RTVSPost2010PropOp33
 70
     0
102
RTVSPost2010Prop34
280
     0
102
RTVSPost2010PropOp34
 70
     0
102
RTVSPost2010Prop35
280
     0
102
RTVSPost2010PropOp35
 70
     0
102
RTVSPost2010Prop36
280
     0
102
RTVSPost2010PropOp36
 70
     0
102
RTVSPost2010Prop37
 90
       50
102
RTVSPost2010PropOp37
 70
     0
102
RTVSPost2010Prop38
140
0.0
102
RTVSPost2010PropOp38
 70
     0
102
RTVSPost2010Prop39
140
1.0
102
RTVSPost2010PropOp39
 70
     0
102
RTVSPost2010Prop40
 90
        0
102
RTVSPost2010PropOp40
 70
     0
102
RTVSPost2010Prop41ColorIndex
 90
       18
102
RTVSPost2010Prop41ColorRGB
 90
        0
102
RTVSPost2010PropOp41
 70
     0
102
RTVSPost2010Prop42
 90
       50
102
RTVSPost2010PropOp42
 70
     0
102
RTVSPost2010Prop43
 90
        3
102
RTVSPost2010PropOp43
 70
     0
102
RTVSPost2010Prop44ColorIndex
 90
        5
102
RTVSPost2010Prop44ColorRGB
 90
      255
102
RTVSPost2010PropOp44
 70
     0
102
RTVSPost2010Prop45
280
     0
102
RTVSPost2010PropOp45
 70
     0
102
RTVSPost2010Prop46
 90
       50
102
RTVSPost2010PropOp46
 70
     0
102
RTVSPost2010Prop47
 90
       50
102
RTVSPost2010PropOp47
 70
     0
102
RTVSPost2010Prop48
 90
       50
102
RTVSPost2010PropOp48
 70
     0
102
RTVSPost2010Prop49
280
     0
102
RTVSPost2010PropOp49
 70
     0
102
RTVSPost2010Prop50
 90
       50
102
RTVSPost2010PropOp50
 70
     0
102
RTVSPost2010Prop51ColorIndex
 90
      256
102
RTVSPost2010Prop51ColorRGB
 90
-16777216
102
RTVSPost2010PropOp51
 70
     0
102
RTVSPost2010Prop52
140
1.0
102
RTVSPost2010PropOp52
 70
     0
102
RTVSPost2010Prop53
 90
        2
102
RTVSPost2010PropOp53
 70
     0
102
RTVSPost2010Prop54
  1
strokes_ogs.tif
102
RTVSPost2010PropOp54
 70
     0
102
RTVSPost2010Prop55
280
     0
102
RTVSPost2010PropOp55
 70
     0
102
RTVSPost2010Prop56
140
1.0
102
RTVSPost2010PropOp56
 70
     0
102
RTVSPost2010Prop57
140
1.0
102
RTVSPost2010PropOp57
 70
     0
  0
XRECORD
  5
18C
102
{ACAD_REACTORS
330
18B
102
}
330
18B
100
AcDbXrecord
280
     1
102
RTVSPost2010Prop28
280
     0
102
RTVSPost2010PropOp28
 70
     1
102
RTVSPost2010Prop29
280
     1
102
RTVSPost2010PropOp29
 70
     1
102
RTVSPost2010Prop30
280
     1
102
RTVSPost2010PropOp30
 70
     1
102
RTVSPost2010Prop31
280
     0
102
RTVSPost2010PropOp31
 70
     1
102
RTVSPost2010Prop32
280
     0
102
RTVSPost2010PropOp32
 70
     1
102
RTVSPost2010Prop33
280
     0
102
RTVSPost2010PropOp33
 70
     1
102
RTVSPost2010Prop34
280
     0
102
RTVSPost2010PropOp34
 70
     1
102
RTVSPost2010Prop35
280
     0
102
RTVSPost2010PropOp35
 70
     1
102
RTVSPost2010Prop36
280
     0
102
RTVSPost2010PropOp36
 70
     1
102
RTVSPost2010Prop37
 90
       50
102
RTVSPost2010PropOp37
 70
     1
102
RTVSPost2010Prop38
140
0.0
102
RTVSPost2010PropOp38
 70
     1
102
RTVSPost2010Prop39
140
1.0
102
RTVSPost2010PropOp39
 70
     1
102
RTVSPost2010Prop40
 90
        0
102
RTVSPost2010PropOp40
 70
     1
102
RTVSPost2010Prop41ColorIndex
 90
       18
102
RTVSPost2010Prop41ColorRGB
 90
        0
102
RTVSPost2010PropOp41
 70
     1
102
RTVSPost2010Prop42
 90
       50
102
RTVSPost2010PropOp42
 70
     1
102
RTVSPost2010Prop43
 90
        3
102
RTVSPost2010PropOp43
 70
     1
102
RTVSPost2010Prop44ColorIndex
 90
        5
102
RTVSPost2010Prop44ColorRGB
 90
      255
102
RTVSPost2010PropOp44
 70
     1
102
RTVSPost2010Prop45
280
     0
102
RTVSPost2010PropOp45
 70
     1
102
RTVSPost2010Prop46
 90
       50
102
RTVSPost2010PropOp46
 70
     1
102
RTVSPost2010Prop47
 90
       50
102
RTVSPost2010PropOp47
 70
     1
102
RTVSPost2010Prop48
 90
       50
102
RTVSPost2010PropOp48
 70
     1
102
RTVSPost2010Prop49
280
     0
102
RTVSPost2010PropOp49
 70
     1
102
RTVSPost2010Prop50
 90
       50
102
RTVSPost2010PropOp50
 70
     1
102
RTVSPost2010Prop51ColorIndex
 90
      256
102
RTVSPost2010Prop51ColorRGB
 90
-16777216
102
RTVSPost2010PropOp51
 70
     0
102
RTVSPost2010Prop52
140
1.0
102
RTVSPost2010PropOp52
 70
     0
102
RTVSPost2010Prop53
 90
        2
102
RTVSPost2010PropOp53
 70
     1
102
RTVSPost2010Prop54
  1
strokes_ogs.tif
102
RTVSPost2010PropOp54
 70
     1
102
RTVSPost2010Prop55
280
     0
102
RTVSPost2010PropOp55
 70
     1
102
RTVSPost2010Prop56
140
1.0
102
RTVSPost2010PropOp56
 70
     1
102
RTVSPost2010Prop57
140
1.0
102
RTVSPost2010PropOp57
 70
     1
  0
XRECORD
  5
1A2
102
{ACAD_REACTORS
330
1A1
102
}
330
1A1
100
AcDbXrecord
280
     1
102
RTVSPost2010Prop28
280
     0
102
RTVSPost2010PropOp28
 70
     1
102
RTVSPost2010Prop29
280
     1
102
RTVSPost2010PropOp29
 70
     1
102
RTVSPost2010Prop30
280
     1
102
RTVSPost2010PropOp30
 70
     1
102
RTVSPost2010Prop31
280
     0
102
RTVSPost2010PropOp31
 70
     1
102
RTVSPost2010Prop32
280
     0
102
RTVSPost2010PropOp32
 70
     1
102
RTVSPost2010Prop33
280
     0
102
RTVSPost2010PropOp33
 70
     1
102
RTVSPost2010Prop34
280
     0
102
RTVSPost2010PropOp34
 70
     1
102
RTVSPost2010Prop35
280
     0
102
RTVSPost2010PropOp35
 70
     1
102
RTVSPost2010Prop36
280
     0
102
RTVSPost2010PropOp36
 70
     1
102
RTVSPost2010Prop37
 90
       50
102
RTVSPost2010PropOp37
 70
     1
102
RTVSPost2010Prop38
140
0.0
102
RTVSPost2010PropOp38
 70
     1
102
RTVSPost2010Prop39
140
1.0
102
RTVSPost2010PropOp39
 70
     1
102
RTVSPost2010Prop40
 90
        0
102
RTVSPost2010PropOp40
 70
     1
102
RTVSPost2010Prop41ColorIndex
 90
       18
102
RTVSPost2010Prop41ColorRGB
 90
        0
102
RTVSPost2010PropOp41
 70
     1
102
RTVSPost2010Prop42
 90
       50
102
RTVSPost2010PropOp42
 70
     1
102
RTVSPost2010Prop43
 90
        3
102
RTVSPost2010PropOp43
 70
     1
102
RTVSPost2010Prop44ColorIndex
 90
        5
102
RTVSPost2010Prop44ColorRGB
 90
      255
102
RTVSPost2010PropOp44
 70
     1
102
RTVSPost2010Prop45
280
     0
102
RTVSPost2010PropOp45
 70
     1
102
RTVSPost2010Prop46
 90
       50
102
RTVSPost2010PropOp46
 70
     1
102
RTVSPost2010Prop47
 90
       50
102
RTVSPost2010PropOp47
 70
     1
102
RTVSPost2010Prop48
 90
       50
102
RTVSPost2010PropOp48
 70
     1
102
RTVSPost2010Prop49
280
     0
102
RTVSPost2010PropOp49
 70
     1
102
RTVSPost2010Prop50
 90
       50
102
RTVSPost2010PropOp50
 70
     1
102
RTVSPost2010Prop51ColorIndex
 90
      256
102
RTVSPost2010Prop51ColorRGB
 90
-16777216
102
RTVSPost2010PropOp51
 70
     0
102
RTVSPost2010Prop52
140
1.0
102
RTVSPost2010PropOp52
 70
     0
102
RTVSPost2010Prop53
 90
        2
102
RTVSPost2010PropOp53
 70
     1
102
RTVSPost2010Prop54
  1
strokes_ogs.tif
102
RTVSPost2010PropOp54
 70
     1
102
RTVSPost2010Prop55
280
     0
102
RTVSPost2010PropOp55
 70
     1
102
RTVSPost2010Prop56
140
1.0
102
RTVSPost2010PropOp56
 70
     1
102
RTVSPost2010Prop57
140
1.0
102
RTVSPost2010PropOp57
 70
     1
  0
XRECORD
  5
1A0
102
{ACAD_REACTORS
330
19F
102
}
330
19F
100
AcDbXrecord
280
     1
102
RTVSPost2010Prop28
280
     0
102
RTVSPost2010PropOp28
 70
     1
102
RTVSPost2010Prop29
280
     1
102
RTVSPost2010PropOp29
 70
     1
102
RTVSPost2010Prop30
280
     1
102
RTVSPost2010PropOp30
 70
     1
102
RTVSPost2010Prop31
280
     0
102
RTVSPost2010PropOp31
 70
     1
102
RTVSPost2010Prop32
280
     0
102
RTVSPost2010PropOp32
 70
     1
102
RTVSPost2010Prop33
280
     0
102
RTVSPost2010PropOp33
 70
     1
102
RTVSPost2010Prop34
280
     0
102
RTVSPost2010PropOp34
 70
     1
102
RTVSPost2010Prop35
280
     0
102
RTVSPost2010PropOp35
 70
     1
102
RTVSPost2010Prop36
280
     0
102
RTVSPost2010PropOp36
 70
     1
102
RTVSPost2010Prop37
 90
       50
102
RTVSPost2010PropOp37
 70
     1
102
RTVSPost2010Prop38
140
0.0
102
RTVSPost2010PropOp38
 70
     1
102
RTVSPost2010Prop39
140
1.0
102
RTVSPost2010PropOp39
 70
     1
102
RTVSPost2010Prop40
 90
        0
102
RTVSPost2010PropOp40
 70
     1
102
RTVSPost2010Prop41ColorIndex
 90
       18
102
RTVSPost2010Prop41ColorRGB
 90
        0
102
RTVSPost2010PropOp41
 70
     1
102
RTVSPost2010Prop42
 90
       50
102
RTVSPost2010PropOp42
 70
     1
102
RTVSPost2010Prop43
 90
        3
102
RTVSPost2010PropOp43
 70
     1
102
RTVSPost2010Prop44ColorIndex
 90
        5
102
RTVSPost2010Prop44ColorRGB
 90
      255
102
RTVSPost2010PropOp44
 70
     1
102
RTVSPost2010Prop45
280
     0
102
RTVSPost2010PropOp45
 70
     1
102
RTVSPost2010Prop46
 90
       50
102
RTVSPost2010PropOp46
 70
     1
102
RTVSPost2010Prop47
 90
       50
102
RTVSPost2010PropOp47
 70
     1
102
RTVSPost2010Prop48
 90
       50
102
RTVSPost2010PropOp48
 70
     1
102
RTVSPost2010Prop49
280
     0
102
RTVSPost2010PropOp49
 70
     1
102
RTVSPost2010Prop50
 90
       50
102
RTVSPost2010PropOp50
 70
     1
102
RTVSPost2010Prop51ColorIndex
 90
      256
102
RTVSPost2010Prop51ColorRGB
 90
-16777216
102
RTVSPost2010PropOp51
 70
     0
102
RTVSPost2010Prop52
140
1.0
102
RTVSPost2010PropOp52
 70
     0
102
RTVSPost2010Prop53
 90
        2
102
RTVSPost2010PropOp53
 70
     1
102
RTVSPost2010Prop54
  1
strokes_ogs.tif
102
RTVSPost2010PropOp54
 70
     1
102
RTVSPost2010Prop55
280
     0
102
RTVSPost2010PropOp55
 70
     1
102
RTVSPost2010Prop56
140
1.0
102
RTVSPost2010PropOp56
 70
     1
102
RTVSPost2010Prop57
140
1.0
102
RTVSPost2010PropOp57
 70
     1
  0
XRECORD
  5
19A
102
{ACAD_REACTORS
330
199
102
}
330
199
100
AcDbXrecord
280
     1
102
RTVSPost2010Prop28
280
     0
102
RTVSPost2010PropOp28
 70
     1
102
RTVSPost2010Prop29
280
     1
102
RTVSPost2010PropOp29
 70
     1
102
RTVSPost2010Prop30
280
     1
102
RTVSPost2010PropOp30
 70
     1
102
RTVSPost2010Prop31
280
     0
102
RTVSPost2010PropOp31
 70
     1
102
RTVSPost2010Prop32
280
     0
102
RTVSPost2010PropOp32
 70
     1
102
RTVSPost2010Prop33
280
     0
102
RTVSPost2010PropOp33
 70
     1
102
RTVSPost2010Prop34
280
     0
102
RTVSPost2010PropOp34
 70
     1
102
RTVSPost2010Prop35
280
     0
102
RTVSPost2010PropOp35
 70
     1
102
RTVSPost2010Prop36
280
     0
102
RTVSPost2010PropOp36
 70
     1
102
RTVSPost2010Prop37
 90
       50
102
RTVSPost2010PropOp37
 70
     1
102
RTVSPost2010Prop38
140
0.0
102
RTVSPost2010PropOp38
 70
     1
102
RTVSPost2010Prop39
140
1.0
102
RTVSPost2010PropOp39
 70
     1
102
RTVSPost2010Prop40
 90
        0
102
RTVSPost2010PropOp40
 70
     1
102
RTVSPost2010Prop41ColorIndex
 90
       18
102
RTVSPost2010Prop41ColorRGB
 90
        0
102
RTVSPost2010PropOp41
 70
     1
102
RTVSPost2010Prop42
 90
       50
102
RTVSPost2010PropOp42
 70
     1
102
RTVSPost2010Prop43
 90
        3
102
RTVSPost2010PropOp43
 70
     1
102
RTVSPost2010Prop44ColorIndex
 90
        5
102
RTVSPost2010Prop44ColorRGB
 90
      255
102
RTVSPost2010PropOp44
 70
     1
102
RTVSPost2010Prop45
280
     0
102
RTVSPost2010PropOp45
 70
     1
102
RTVSPost2010Prop46
 90
       50
102
RTVSPost2010PropOp46
 70
     1
102
RTVSPost2010Prop47
 90
       50
102
RTVSPost2010PropOp47
 70
     1
102
RTVSPost2010Prop48
 90
       50
102
RTVSPost2010PropOp48
 70
     1
102
RTVSPost2010Prop49
280
     0
102
RTVSPost2010PropOp49
 70
     1
102
RTVSPost2010Prop50
 90
       50
102
RTVSPost2010PropOp50
 70
     1
102
RTVSPost2010Prop51ColorIndex
 90
      256
102
RTVSPost2010Prop51ColorRGB
 90
-16777216
102
RTVSPost2010PropOp51
 70
     0
102
RTVSPost2010Prop52
140
1.0
102
RTVSPost2010PropOp52
 70
     0
102
RTVSPost2010Prop53
 90
        2
102
RTVSPost2010PropOp53
 70
     1
102
RTVSPost2010Prop54
  1
strokes_ogs.tif
102
RTVSPost2010PropOp54
 70
     1
102
RTVSPost2010Prop55
280
     0
102
RTVSPost2010PropOp55
 70
     1
102
RTVSPost2010Prop56
140
1.0
102
RTVSPost2010PropOp56
 70
     1
102
RTVSPost2010Prop57
140
1.0
102
RTVSPost2010PropOp57
 70
     1
  0
XRECORD
  5
19C
102
{ACAD_REACTORS
330
19B
102
}
330
19B
100
AcDbXrecord
280
     1
102
RTVSPost2010Prop28
280
     0
102
RTVSPost2010PropOp28
 70
     1
102
RTVSPost2010Prop29
280
     1
102
RTVSPost2010PropOp29
 70
     1
102
RTVSPost2010Prop30
280
     1
102
RTVSPost2010PropOp30
 70
     1
102
RTVSPost2010Prop31
280
     0
102
RTVSPost2010PropOp31
 70
     1
102
RTVSPost2010Prop32
280
     0
102
RTVSPost2010PropOp32
 70
     1
102
RTVSPost2010Prop33
280
     0
102
RTVSPost2010PropOp33
 70
     1
102
RTVSPost2010Prop34
280
     0
102
RTVSPost2010PropOp34
 70
     1
102
RTVSPost2010Prop35
280
     0
102
RTVSPost2010PropOp35
 70
     1
102
RTVSPost2010Prop36
280
     0
102
RTVSPost2010PropOp36
 70
     1
102
RTVSPost2010Prop37
 90
       50
102
RTVSPost2010PropOp37
 70
     1
102
RTVSPost2010Prop38
140
0.0
102
RTVSPost2010PropOp38
 70
     1
102
RTVSPost2010Prop39
140
1.0
102
RTVSPost2010PropOp39
 70
     1
102
RTVSPost2010Prop40
 90
        0
102
RTVSPost2010PropOp40
 70
     1
102
RTVSPost2010Prop41ColorIndex
 90
       18
102
RTVSPost2010Prop41ColorRGB
 90
        0
102
RTVSPost2010PropOp41
 70
     1
102
RTVSPost2010Prop42
 90
       50
102
RTVSPost2010PropOp42
 70
     1
102
RTVSPost2010Prop43
 90
        3
102
RTVSPost2010PropOp43
 70
     1
102
RTVSPost2010Prop44ColorIndex
 90
        5
102
RTVSPost2010Prop44ColorRGB
 90
      255
102
RTVSPost2010PropOp44
 70
     1
102
RTVSPost2010Prop45
280
     0
102
RTVSPost2010PropOp45
 70
     1
102
RTVSPost2010Prop46
 90
       50
102
RTVSPost2010PropOp46
 70
     1
102
RTVSPost2010Prop47
 90
       50
102
RTVSPost2010PropOp47
 70
     1
102
RTVSPost2010Prop48
 90
       50
102
RTVSPost2010PropOp48
 70
     1
102
RTVSPost2010Prop49
280
     0
102
RTVSPost2010PropOp49
 70
     1
102
RTVSPost2010Prop50
 90
       50
102
RTVSPost2010PropOp50
 70
     1
102
RTVSPost2010Prop51ColorIndex
 90
      256
102
RTVSPost2010Prop51ColorRGB
 90
-16777216
102
RTVSPost2010PropOp51
 70
     0
102
RTVSPost2010Prop52
140
1.0
102
RTVSPost2010PropOp52
 70
     0
102
RTVSPost2010Prop53
 90
        2
102
RTVSPost2010PropOp53
 70
     1
102
RTVSPost2010Prop54
  1
strokes_ogs.tif
102
RTVSPost2010PropOp54
 70
     1
102
RTVSPost2010Prop55
280
     0
102
RTVSPost2010PropOp55
 70
     1
102
RTVSPost2010Prop56
140
1.0
102
RTVSPost2010PropOp56
 70
     1
102
RTVSPost2010Prop57
140
1.0
102
RTVSPost2010PropOp57
 70
     1
  0
XRECORD
  5
192
102
{ACAD_REACTORS
330
191
102
}
330
191
100
AcDbXrecord
280
     1
102
RTVSPost2010Prop28
280
     0
102
RTVSPost2010PropOp28
 70
     1
102
RTVSPost2010Prop29
280
     1
102
RTVSPost2010PropOp29
 70
     1
102
RTVSPost2010Prop30
280
     1
102
RTVSPost2010PropOp30
 70
     1
102
RTVSPost2010Prop31
280
     0
102
RTVSPost2010PropOp31
 70
     1
102
RTVSPost2010Prop32
280
     0
102
RTVSPost2010PropOp32
 70
     1
102
RTVSPost2010Prop33
280
     0
102
RTVSPost2010PropOp33
 70
     1
102
RTVSPost2010Prop34
280
     0
102
RTVSPost2010PropOp34
 70
     1
102
RTVSPost2010Prop35
280
     0
102
RTVSPost2010PropOp35
 70
     1
102
RTVSPost2010Prop36
280
     0
102
RTVSPost2010PropOp36
 70
     1
102
RTVSPost2010Prop37
 90
       50
102
RTVSPost2010PropOp37
 70
     1
102
RTVSPost2010Prop38
140
0.0
102
RTVSPost2010PropOp38
 70
     1
102
RTVSPost2010Prop39
140
1.0
102
RTVSPost2010PropOp39
 70
     1
102
RTVSPost2010Prop40
 90
        0
102
RTVSPost2010PropOp40
 70
     1
102
RTVSPost2010Prop41ColorIndex
 90
       18
102
RTVSPost2010Prop41ColorRGB
 90
        0
102
RTVSPost2010PropOp41
 70
     1
102
RTVSPost2010Prop42
 90
       50
102
RTVSPost2010PropOp42
 70
     1
102
RTVSPost2010Prop43
 90
        3
102
RTVSPost2010PropOp43
 70
     1
102
RTVSPost2010Prop44ColorIndex
 90
        5
102
RTVSPost2010Prop44ColorRGB
 90
      255
102
RTVSPost2010PropOp44
 70
     1
102
RTVSPost2010Prop45
280
     0
102
RTVSPost2010PropOp45
 70
     1
102
RTVSPost2010Prop46
 90
       50
102
RTVSPost2010PropOp46
 70
     1
102
RTVSPost2010Prop47
 90
       50
102
RTVSPost2010PropOp47
 70
     1
102
RTVSPost2010Prop48
 90
       50
102
RTVSPost2010PropOp48
 70
     1
102
RTVSPost2010Prop49
280
     0
102
RTVSPost2010PropOp49
 70
     1
102
RTVSPost2010Prop50
 90
       50
102
RTVSPost2010PropOp50
 70
     1
102
RTVSPost2010Prop51ColorIndex
 90
      256
102
RTVSPost2010Prop51ColorRGB
 90
-16777216
102
RTVSPost2010PropOp51
 70
     0
102
RTVSPost2010Prop52
140
1.0
102
RTVSPost2010PropOp52
 70
     0
102
RTVSPost2010Prop53
 90
        2
102
RTVSPost2010PropOp53
 70
     1
102
RTVSPost2010Prop54
  1
strokes_ogs.tif
102
RTVSPost2010PropOp54
 70
     1
102
RTVSPost2010Prop55
280
     0
102
RTVSPost2010PropOp55
 70
     1
102
RTVSPost2010Prop56
140
1.0
102
RTVSPost2010PropOp56
 70
     1
102
RTVSPost2010Prop57
140
1.0
102
RTVSPost2010PropOp57
 70
     1
  0
XRECORD
  5
186
102
{ACAD_REACTORS
330
185
102
}
330
185
100
AcDbXrecord
280
     1
102
RTVSPost2010Prop28
280
     0
102
RTVSPost2010PropOp28
 70
     1
102
RTVSPost2010Prop29
280
     1
102
RTVSPost2010PropOp29
 70
     1
102
RTVSPost2010Prop30
280
     1
102
RTVSPost2010PropOp30
 70
     1
102
RTVSPost2010Prop31
280
     0
102
RTVSPost2010PropOp31
 70
     1
102
RTVSPost2010Prop32
280
     0
102
RTVSPost2010PropOp32
 70
     1
102
RTVSPost2010Prop33
280
     0
102
RTVSPost2010PropOp33
 70
     1
102
RTVSPost2010Prop34
280
     0
102
RTVSPost2010PropOp34
 70
     1
102
RTVSPost2010Prop35
280
     0
102
RTVSPost2010PropOp35
 70
     1
102
RTVSPost2010Prop36
280
     0
102
RTVSPost2010PropOp36
 70
     1
102
RTVSPost2010Prop37
 90
       50
102
RTVSPost2010PropOp37
 70
     1
102
RTVSPost2010Prop38
140
0.0
102
RTVSPost2010PropOp38
 70
     1
102
RTVSPost2010Prop39
140
1.0
102
RTVSPost2010PropOp39
 70
     1
102
RTVSPost2010Prop40
 90
        0
102
RTVSPost2010PropOp40
 70
     1
102
RTVSPost2010Prop41ColorIndex
 90
       18
102
RTVSPost2010Prop41ColorRGB
 90
        0
102
RTVSPost2010PropOp41
 70
     1
102
RTVSPost2010Prop42
 90
       50
102
RTVSPost2010PropOp42
 70
     1
102
RTVSPost2010Prop43
 90
        3
102
RTVSPost2010PropOp43
 70
     1
102
RTVSPost2010Prop44ColorIndex
 90
        5
102
RTVSPost2010Prop44ColorRGB
 90
      255
102
RTVSPost2010PropOp44
 70
     1
102
RTVSPost2010Prop45
280
     0
102
RTVSPost2010PropOp45
 70
     1
102
RTVSPost2010Prop46
 90
       50
102
RTVSPost2010PropOp46
 70
     1
102
RTVSPost2010Prop47
 90
       50
102
RTVSPost2010PropOp47
 70
     1
102
RTVSPost2010Prop48
 90
       50
102
RTVSPost2010PropOp48
 70
     1
102
RTVSPost2010Prop49
280
     0
102
RTVSPost2010PropOp49
 70
     1
102
RTVSPost2010Prop50
 90
       50
102
RTVSPost2010PropOp50
 70
     1
102
RTVSPost2010Prop51ColorIndex
 90
      256
102
RTVSPost2010Prop51ColorRGB
 90
-16777216
102
RTVSPost2010PropOp51
 70
     0
102
RTVSPost2010Prop52
140
1.0
102
RTVSPost2010PropOp52
 70
     0
102
RTVSPost2010Prop53
 90
        2
102
RTVSPost2010PropOp53
 70
     1
102
RTVSPost2010Prop54
  1
strokes_ogs.tif
102
RTVSPost2010PropOp54
 70
     1
102
RTVSPost2010Prop55
280
     0
102
RTVSPost2010PropOp55
 70
     1
102
RTVSPost2010Prop56
140
1.0
102
RTVSPost2010PropOp56
 70
     1
102
RTVSPost2010Prop57
140
1.0
102
RTVSPost2010PropOp57
 70
     1
  0
XRECORD
  5
19E
102
{ACAD_REACTORS
330
19D
102
}
330
19D
100
AcDbXrecord
280
     1
102
RTVSPost2010Prop28
280
     0
102
RTVSPost2010PropOp28
 70
     1
102
RTVSPost2010Prop29
280
     1
102
RTVSPost2010PropOp29
 70
     1
102
RTVSPost2010Prop30
280
     1
102
RTVSPost2010PropOp30
 70
     1
102
RTVSPost2010Prop31
280
     0
102
RTVSPost2010PropOp31
 70
     1
102
RTVSPost2010Prop32
280
     0
102
RTVSPost2010PropOp32
 70
     1
102
RTVSPost2010Prop33
280
     0
102
RTVSPost2010PropOp33
 70
     1
102
RTVSPost2010Prop34
280
     0
102
RTVSPost2010PropOp34
 70
     1
102
RTVSPost2010Prop35
280
     0
102
RTVSPost2010PropOp35
 70
     1
102
RTVSPost2010Prop36
280
     0
102
RTVSPost2010PropOp36
 70
     1
102
RTVSPost2010Prop37
 90
       50
102
RTVSPost2010PropOp37
 70
     1
102
RTVSPost2010Prop38
140
0.0
102
RTVSPost2010PropOp38
 70
     1
102
RTVSPost2010Prop39
140
1.0
102
RTVSPost2010PropOp39
 70
     1
102
RTVSPost2010Prop40
 90
        0
102
RTVSPost2010PropOp40
 70
     1
102
RTVSPost2010Prop41ColorIndex
 90
       18
102
RTVSPost2010Prop41ColorRGB
 90
        0
102
RTVSPost2010PropOp41
 70
     1
102
RTVSPost2010Prop42
 90
       50
102
RTVSPost2010PropOp42
 70
     1
102
RTVSPost2010Prop43
 90
        3
102
RTVSPost2010PropOp43
 70
     1
102
RTVSPost2010Prop44ColorIndex
 90
        5
102
RTVSPost2010Prop44ColorRGB
 90
      255
102
RTVSPost2010PropOp44
 70
     1
102
RTVSPost2010Prop45
280
     0
102
RTVSPost2010PropOp45
 70
     1
102
RTVSPost2010Prop46
 90
       50
102
RTVSPost2010PropOp46
 70
     1
102
RTVSPost2010Prop47
 90
       50
102
RTVSPost2010PropOp47
 70
     1
102
RTVSPost2010Prop48
 90
       50
102
RTVSPost2010PropOp48
 70
     1
102
RTVSPost2010Prop49
280
     0
102
RTVSPost2010PropOp49
 70
     1
102
RTVSPost2010Prop50
 90
       50
102
RTVSPost2010PropOp50
 70
     1
102
RTVSPost2010Prop51ColorIndex
 90
      256
102
RTVSPost2010Prop51ColorRGB
 90
-16777216
102
RTVSPost2010PropOp51
 70
     0
102
RTVSPost2010Prop52
140
1.0
102
RTVSPost2010PropOp52
 70
     0
102
RTVSPost2010Prop53
 90
        2
102
RTVSPost2010PropOp53
 70
     1
102
RTVSPost2010Prop54
  1
strokes_ogs.tif
102
RTVSPost2010PropOp54
 70
     1
102
RTVSPost2010Prop55
280
     0
102
RTVSPost2010PropOp55
 70
     1
102
RTVSPost2010Prop56
140
1.0
102
RTVSPost2010PropOp56
 70
     1
102
RTVSPost2010Prop57
140
1.0
102
RTVSPost2010PropOp57
 70
     1
  0
ENDSEC
  0
EOF
