  0
SECTION
  2
HEADER
  9
$ACADVER
  1
AC1024
  9
$ACADMAINTVER
 70
   226
  9
$DWGCODEPAGE
  3
ANSI_932
  9
$INSBASE
 10
0.0
 20
0.0
 30
0.0
  9
$EXTMIN
 10
1.000000000000000E+20
 20
1.000000000000000E+20
 30
1.000000000000000E+20
  9
$EXTMAX
 10
-1.000000000000000E+20
 20
-1.000000000000000E+20
 30
-1.000000000000000E+20
  9
$LIMMIN
 10
0.0
 20
0.0
  9
$LIMMAX
 10
12.0
 20
9.0
  9
$ORTHOMODE
 70
     0
  9
$REGENMODE
 70
     1
  9
$FILLMODE
 70
     1
  9
$QTEXTMODE
 70
     0
  9
$MIRRTEXT
 70
     0
  9
$LTSCALE
 40
1.0
  9
$ATTMODE
 70
     1
  9
$TEXTSIZE
 40
0.2
  9
$TRACEWID
 40
0.05
  9
$TEXTSTYLE
  7
Standard
  9
$CLAYER
  8
0
  9
$CELTYPE
  6
ByLayer
  9
$CECOLOR
 62
   256
  9
$CELTSCALE
 40
1.0
  9
$DISPSILH
 70
     0
  9
$DIMSCALE
 40
1.0
  9
$DIMASZ
 40
0.18
  9
$DIMEXO
 40
0.0625
  9
$DIMDLI
 40
0.38
  9
$DIMRND
 40
0.0
  9
$DIMDLE
 40
0.0
  9
$DIMEXE
 40
0.18
  9
$DIMTP
 40
0.0
  9
$DIMTM
 40
0.0
  9
$DIMTXT
 40
0.18
  9
$DIMCEN
 40
0.09
  9
$DIMTSZ
 40
0.0
  9
$DIMTOL
 70
     0
  9
$DIMLIM
 70
     0
  9
$DIMTIH
 70
     1
  9
$DIMTOH
 70
     1
  9
$DIMSE1
 70
     0
  9
$DIMSE2
 70
     0
  9
$DIMTAD
 70
     0
  9
$DIMZIN
 70
     0
  9
$DIMBLK
  1

  9
$DIMASO
 70
     1
  9
$DIMSHO
 70
     1
  9
$DIMPOST
  1

  9
$DIMAPOST
  1

  9
$DIMALT
 70
     0
  9
$DIMALTD
 70
     2
  9
$DIMALTF
 40
25.4
  9
$DIMLFAC
 40
1.0
  9
$DIMTOFL
 70
     0
  9
$DIMTVP
 40
0.0
  9
$DIMTIX
 70
     0
  9
$DIMSOXD
 70
     0
  9
$DIMSAH
 70
     0
  9
$DIMBLK1
  1

  9
$DIMBLK2
  1

  9
$DIMSTYLE
  2
Standard
  9
$DIMCLRD
 70
     0
  9
$DIMCLRE
 70
     0
  9
$DIMCLRT
 70
     0
  9
$DIMTFAC
 40
1.0
  9
$DIMGAP
 40
0.09
  9
$DIMJUST
 70
     0
  9
$DIMSD1
 70
     0
  9
$DIMSD2
 70
     0
  9
$DIMTOLJ
 70
     1
  9
$DIMTZIN
 70
     0
  9
$DIMALTZ
 70
     0
  9
$DIMALTTZ
 70
     0
  9
$DIMUPT
 70
     0
  9
$DIMDEC
 70
     4
  9
$DIMTDEC
 70
     4
  9
$DIMALTU
 70
     2
  9
$DIMALTTD
 70
     2
  9
$DIMTXSTY
  7
Standard
  9
$DIMAUNIT
 70
     0
  9
$DIMADEC
 70
     0
  9
$DIMALTRND
 40
0.0
  9
$DIMAZIN
 70
     0
  9
$DIMDSEP
 70
    46
  9
$DIMATFIT
 70
     3
  9
$DIMFRAC
 70
     0
  9
$DIMLDRBLK
  1

  9
$DIMLUNIT
 70
     2
  9
$DIMLWD
 70
    -2
  9
$DIMLWE
 70
    -2
  9
$DIMTMOVE
 70
     0
  9
$DIMFXL
 40
1.0
  9
$DIMFXLON
 70
     0
  9
$DIMJOGANG
 40
0.7853981633974483
  9
$DIMTFILL
 70
     0
  9
$DIMTFILLCLR
 70
     0
  9
$DIMARCSYM
 70
     0
  9
$DIMLTYPE
  6

  9
$DIMLTEX1
  6

  9
$DIMLTEX2
  6

  9
$DIMTXTDIRECTION
 70
     0
  9
$LUNITS
 70
     2
  9
$LUPREC
 70
     4
  9
$SKETCHINC
 40
0.1
  9
$FILLETRAD
 40
0.0
  9
$AUNITS
 70
     0
  9
$AUPREC
 70
     0
  9
$MENU
  1
.
  9
$ELEVATION
 40
0.0
  9
$PELEVATION
 40
0.0
  9
$THICKNESS
 40
0.0
  9
$LIMCHECK
 70
     0
  9
$CHAMFERA
 40
0.0
  9
$CHAMFERB
 40
0.0
  9
$CHAMFERC
 40
0.0
  9
$CHAMFERD
 40
0.0
  9
$SKPOLY
 70
     0
  9
$TDCREATE
 40
2459569.489143519
  9
$TDUCREATE
 40
2459569.114143519
  9
$TDUPDATE
 40
2459569.489143519
  9
$TDUUPDATE
 40
2459569.114143519
  9
$TDINDWG
 40
0.0000000000
  9
$TDUSRTIMER
 40
0.0000000000
  9
$USRTIMER
 70
     1
  9
$ANGBASE
 50
0.0
  9
$ANGDIR
 70
     0
  9
$PDMODE
 70
     0
  9
$PDSIZE
 40
0.0
  9
$PLINEWID
 40
0.0
  9
$SPLFRAME
 70
     0
  9
$SPLINETYPE
 70
     6
  9
$SPLINESEGS
 70
     8
  9
$HANDSEED
  5
1DE
  9
$SURFTAB1
 70
     6
  9
$SURFTAB2
 70
     6
  9
$SURFTYPE
 70
     6
  9
$SURFU
 70
     6
  9
$SURFV
 70
     6
  9
$UCSBASE
  2

  9
$UCSNAME
  2

  9
$UCSORG
 10
0.0
 20
0.0
 30
0.0
  9
$UCSXDIR
 10
1.0
 20
0.0
 30
0.0
  9
$UCSYDIR
 10
0.0
 20
1.0
 30
0.0
  9
$UCSORTHOREF
  2

  9
$UCSORTHOVIEW
 70
     0
  9
$UCSORGTOP
 10
0.0
 20
0.0
 30
0.0
  9
$UCSORGBOTTOM
 10
0.0
 20
0.0
 30
0.0
  9
$UCSORGLEFT
 10
0.0
 20
0.0
 30
0.0
  9
$UCSORGRIGHT
 10
0.0
 20
0.0
 30
0.0
  9
$UCSORGFRONT
 10
0.0
 20
0.0
 30
0.0
  9
$UCSORGBACK
 10
0.0
 20
0.0
 30
0.0
  9
$PUCSBASE
  2

  9
$PUCSNAME
  2

  9
$PUCSORG
 10
0.0
 20
0.0
 30
0.0
  9
$PUCSXDIR
 10
1.0
 20
0.0
 30
0.0
  9
$PUCSYDIR
 10
0.0
 20
1.0
 30
0.0
  9
$PUCSORTHOREF
  2

  9
$PUCSORTHOVIEW
 70
     0
  9
$PUCSORGTOP
 10
0.0
 20
0.0
 30
0.0
  9
$PUCSORGBOTTOM
 10
0.0
 20
0.0
 30
0.0
  9
$PUCSORGLEFT
 10
0.0
 20
0.0
 30
0.0
  9
$PUCSORGRIGHT
 10
0.0
 20
0.0
 30
0.0
  9
$PUCSORGFRONT
 10
0.0
 20
0.0
 30
0.0
  9
$PUCSORGBACK
 10
0.0
 20
0.0
 30
0.0
  9
$USERI1
 70
     0
  9
$USERI2
 70
     0
  9
$USERI3
 70
     0
  9
$USERI4
 70
     0
  9
$USERI5
 70
     0
  9
$USERR1
 40
0.0
  9
$USERR2
 40
0.0
  9
$USERR3
 40
0.0
  9
$USERR4
 40
0.0
  9
$USERR5
 40
0.0
  9
$WORLDVIEW
 70
     1
  9
$SHADEDGE
 70
     3
  9
$SHADEDIF
 70
    70
  9
$TILEMODE
 70
     1
  9
$MAXACTVP
 70
    64
  9
$PINSBASE
 10
0.0
 20
0.0
 30
0.0
  9
$PLIMCHECK
 70
     0
  9
$PEXTMIN
 10
1.000000000000000E+20
 20
1.000000000000000E+20
 30
1.000000000000000E+20
  9
$PEXTMAX
 10
-1.000000000000000E+20
 20
-1.000000000000000E+20
 30
-1.000000000000000E+20
  9
$PLIMMIN
 10
0.0
 20
0.0
  9
$PLIMMAX
 10
12.0
 20
9.0
  9
$UNITMODE
 70
     0
  9
$VISRETAIN
 70
     1
  9
$PLINEGEN
 70
     0
  9
$PSLTSCALE
 70
     1
  9
$TREEDEPTH
 70
  3020
  9
$CMLSTYLE
  2
Standard
  9
$CMLJUST
 70
     0
  9
$CMLSCALE
 40
1.0
  9
$PROXYGRAPHICS
 70
     1
  9
$MEASUREMENT
 70
     0
  9
$CELWEIGHT
370
    -1
  9
$ENDCAPS
280
     0
  9
$JOINSTYLE
280
     0
  9
$LWDISPLAY
290
     1
  9
$INSUNITS
 70
     4
  9
$HYPERLINKBASE
  1

  9
$STYLESHEET
  1

  9
$XEDIT
290
     1
  9
$CEPSNTYPE
380
     0
  9
$PSTYLEMODE
290
     1
  9
$FINGERPRINTGUID
  2
{181D1EFF-6476-F24A-98C5-1093D6725345}
  9
$VERSIONGUID
  2
{8EEFA143-814B-074A-BB15-79D7A4328FC8}
  9
$EXTNAMES
290
     1
  9
$PSVPSCALE
 40
0.0
  9
$OLESTARTUP
290
     0
  9
$SORTENTS
280
   127
  9
$INDEXCTL
280
     0
  9
$HIDETEXT
280
     1
  9
$XCLIPFRAME
280
     2
  9
$HALOGAP
280
     0
  9
$OBSCOLOR
 70
   257
  9
$OBSLTYPE
280
     0
  9
$INTERSECTIONDISPLAY
280
     0
  9
$INTERSECTIONCOLOR
 70
   257
  9
$DIMASSOC
280
     2
  9
$PROJECTNAME
  1

  9
$CAMERADISPLAY
290
     0
  9
$LENSLENGTH
 40
50.0
  9
$CAMERAHEIGHT
 40
0.0
  9
$STEPSPERSEC
 40
2.0
  9
$STEPSIZE
 40
6.0
  9
$3DDWFPREC
 40
2.0
  9
$PSOLWIDTH
 40
0.25
  9
$PSOLHEIGHT
 40
4.0
  9
$LOFTANG1
 40
1.570796326794896
  9
$LOFTANG2
 40
1.570796326794896
  9
$LOFTMAG1
 40
0.0
  9
$LOFTMAG2
 40
0.0
  9
$LOFTPARAM
 70
     7
  9
$LOFTNORMALS
280
     1
  9
$LATITUDE
 40
37.795
  9
$LONGITUDE
 40
-122.394
  9
$NORTHDIRECTION
 40
0.0
  9
$TIMEZONE
 70
 -8000
  9
$LIGHTGLYPHDISPLAY
280
     1
  9
$TILEMODELIGHTSYNCH
280
     1
  9
$CMATERIAL
347
11
  9
$SOLIDHIST
280
     0
  9
$SHOWHIST
280
     1
  9
$DWFFRAME
280
     2
  9
$DGNFRAME
280
     0
  9
$REALWORLDSCALE
290
     1
  9
$INTERFERECOLOR
 62
     1
  9
$INTERFEREOBJVS
345
33
  9
$INTERFEREVPVS
346
30
  9
$CSHADOW
280
     0
  9
$SHADOWPLANELOCATION
 40
0.0
  0
ENDSEC
  0
SECTION
  2
CLASSES
  0
CLASS
  1
ACDBDICTIONARYWDFLT
  2
AcDbDictionaryWithDefault
  3
ObjectDBX Classes
 90
        0
 91
        1
280
     0
281
     0
  0
CLASS
  1
MATERIAL
  2
AcDbMaterial
  3
ObjectDBX Classes
 90
     1153
 91
        3
280
     0
281
     0
  0
CLASS
  1
VISUALSTYLE
  2
AcDbVisualStyle
  3
ObjectDBX Classes
 90
     4095
 91
       24
280
     0
281
     0
  0
CLASS
  1
SCALE
  2
AcDbScale
  3
ObjectDBX Classes
 90
     1153
 91
       17
280
     0
281
     0
  0
CLASS
  1
TABLESTYLE
  2
AcDbTableStyle
  3
ObjectDBX Classes
 90
     4095
 91
        1
280
     0
281
     0
  0
CLASS
  1
MLEADERSTYLE
  2
AcDbMLeaderStyle
  3
ACDB_MLEADERSTYLE_CLASS
 90
     4095
 91
        1
280
     0
281
     0
  0
CLASS
  1
ACDBSECTIONVIEWSTYLE
  2
AcDbSectionViewStyle
  3
ObjectDBX Classes
 90
     1025
 91
        1
280
     0
281
     0
  0
CLASS
  1
ACDBDETAILVIEWSTYLE
  2
AcDbDetailViewStyle
  3
ObjectDBX Classes
 90
     1025
 91
        1
280
     0
281
     0
  0
CLASS
  1
DICTIONARYVAR
  2
AcDbDictionaryVar
  3
ObjectDBX Classes
 90
        0
 91
        5
280
     0
281
     0
  0
CLASS
  1
CELLSTYLEMAP
  2
AcDbCellStyleMap
  3
ObjectDBX Classes
 90
     1152
 91
        1
280
     0
281
     0
  0
ENDSEC
  0
SECTION
  2
TABLES
  0
TABLE
  2
VPORT
  5
8
330
0
100
AcDbSymbolTable
 70
     1
  0
VPORT
  5
57
330
8
100
AcDbSymbolTableRecord
100
AcDbViewportTableRecord
  2
*Active
 70
     0
 10
0.0
 20
0.0
 11
1.0
 21
1.0
 12
0.0
 22
0.0
 13
0.0
 23
0.0
 14
1.0
 24
1.0
 15
0.0
 25
0.0
 16
0.0
 26
0.0
 36
1.0
 17
104.9999999737534
 27
-148.4999999628701
 37
0.0
 40
302.939999924255
 41
0.7070707070707534
 42
50.0
 43
0.0
 44
0.0
 50
0.0
 51
0.0
 71
     0
 72
   100
 73
     1
 74
     0
 75
     1
 76
     0
 77
     0
 78
     0
281
     0
 65
     1
110
0.0
120
0.0
130
0.0
111
1.0
121
0.0
131
0.0
112
0.0
122
1.0
132
0.0
 79
     0
146
0.0
 60
     3
 61
     5
292
     1
282
     1
141
0.0
142
0.0
 63
   250
421
  3355443
  0
ENDTAB
  0
TABLE
  2
LTYPE
  5
5
330
0
100
AcDbSymbolTable
 70
     3
  0
LTYPE
  5
5B
330
5
100
AcDbSymbolTableRecord
100
AcDbLinetypeTableRecord
  2
ByBlock
 70
     0
  3

 72
    65
 73
     0
 40
0.0
  0
LTYPE
  5
5C
330
5
100
AcDbSymbolTableRecord
100
AcDbLinetypeTableRecord
  2
ByLayer
 70
     0
  3

 72
    65
 73
     0
 40
0.0
  0
LTYPE
  5
5D
330
5
100
AcDbSymbolTableRecord
100
AcDbLinetypeTableRecord
  2
Continuous
 70
     0
  3
Solid line
 72
    65
 73
     0
 40
0.0
  0
LTYPE
  5
B8
330
5
100
AcDbSymbolTableRecord
100
AcDbLinetypeTableRecord
  2
AI-Linetype-0
 70
     0
  3
Adobe Illustrator Linetype No. 0
 72
    65
 73
     2
 40
1.411111110758333
 49
0.7055555553791667
 74
     0
 49
-0.7055555553791667
 74
     0
  0
LTYPE
  5
BA
330
5
100
AcDbSymbolTableRecord
100
AcDbLinetypeTableRecord
  2
AI-Linetype-1
 70
     0
  3
Adobe Illustrator Linetype No. 1
 72
    65
 73
     2
 40
1.411111110758333
 49
0.7055555553791667
 74
     0
 49
-0.7055555553791667
 74
     0
  0
ENDTAB
  0
TABLE
  2
LAYER
  5
2
330
0
100
AcDbSymbolTable
 70
     2
  0
LAYER
  5
54
330
2
100
AcDbSymbolTableRecord
100
AcDbLayerTableRecord
  2
0
 70
     0
 62
     7
  6
Continuous
370
    -3
390
F
347
21
  0
LAYER
  5
78
330
2
100
AcDbSymbolTableRecord
100
AcDbLayerTableRecord
  2
レイヤー 1
 70
     0
 62
     7
  6
Continuous
370
     0
390
F
347
21
  0
ENDTAB
  0
TABLE
  2
STYLE
  5
3
330
0
100
AcDbSymbolTable
 70
     2
  0
STYLE
  5
55
330
3
100
AcDbSymbolTableRecord
100
AcDbTextStyleTableRecord
  2
Standard
 70
     0
 40
0.0
 41
1.0
 50
0.0
 71
     0
 42
0.2
  3
txt
  4

  0
STYLE
  5
5A
330
3
100
AcDbSymbolTableRecord
100
AcDbTextStyleTableRecord
  2
Annotative
 70
     0
 40
0.0
 41
1.0
 50
0.0
 71
     0
 42
0.2
  3
txt
  4

1001
AcadAnnotative
1000
AnnotativeData
1002
{
1070
     1
1070
     1
1002
}
  0
ENDTAB
  0
TABLE
  2
VIEW
  5
6
330
0
100
AcDbSymbolTable
 70
     0
  0
ENDTAB
  0
TABLE
  2
UCS
  5
7
330
0
100
AcDbSymbolTable
 70
     0
  0
ENDTAB
  0
TABLE
  2
APPID
  5
9
330
0
100
AcDbSymbolTable
 70
     2
  0
APPID
  5
56
330
9
100
AcDbSymbolTableRecord
100
AcDbRegAppTableRecord
  2
ACAD
 70
     0
  0
APPID
  5
5E
330
9
100
AcDbSymbolTableRecord
100
AcDbRegAppTableRecord
  2
AcadAnnotative
 70
     0
  0
ENDTAB
  0
TABLE
  2
DIMSTYLE
  5
A
330
0
100
AcDbSymbolTable
 70
     2
100
AcDbDimStyleTable
 71
     0
  0
DIMSTYLE
105
58
330
A
100
AcDbSymbolTableRecord
100
AcDbDimStyleTableRecord
  2
Standard
 70
     0
340
55
  0
DIMSTYLE
105
59
330
A
100
AcDbSymbolTableRecord
100
AcDbDimStyleTableRecord
  2
Annotative
 70
     0
340
55
1001
AcadAnnotative
1000
AnnotativeData
1002
{
1070
     1
1070
     1
1002
}
  0
ENDTAB
  0
TABLE
  2
BLOCK_RECORD
  5
1
330
0
100
AcDbSymbolTable
 70
    18
  0
BLOCK_RECORD
  5
70
330
1
100
AcDbSymbolTableRecord
100
AcDbBlockTableRecord
  2
*Model_Space
340
73
 70
     0
280
     1
281
     0
  0
BLOCK_RECORD
  5
6C
330
1
100
AcDbSymbolTableRecord
100
AcDbBlockTableRecord
  2
*Paper_Space
340
6F
 70
     0
280
     1
281
     0
  0
BLOCK_RECORD
  5
74
330
1
100
AcDbSymbolTableRecord
100
AcDbBlockTableRecord
  2
*Paper_Space0
340
77
 70
     0
280
     1
281
     0
  0
BLOCK_RECORD
  5
79
330
1
100
AcDbSymbolTableRecord
100
AcDbBlockTableRecord
  2
Block_0
340
0
102
{BLKREFS
331
7A
102
}
 70
     0
280
     1
281
     0
  0
BLOCK_RECORD
  5
B3
330
1
100
AcDbSymbolTableRecord
100
AcDbBlockTableRecord
  2
Block_1
340
0
102
{BLKREFS
331
B4
102
}
 70
     0
280
     1
281
     0
  0
BLOCK_RECORD
  5
122
330
1
100
AcDbSymbolTableRecord
100
AcDbBlockTableRecord
  2
Block_2
340
0
102
{BLKREFS
331
123
102
}
 70
     0
280
     1
281
     0
  0
BLOCK_RECORD
  5
126
330
1
100
AcDbSymbolTableRecord
100
AcDbBlockTableRecord
  2
Block_3
340
0
102
{BLKREFS
331
127
102
}
 70
     0
280
     1
281
     0
  0
BLOCK_RECORD
  5
133
330
1
100
AcDbSymbolTableRecord
100
AcDbBlockTableRecord
  2
Block_4
340
0
102
{BLKREFS
331
134
102
}
 70
     0
280
     1
281
     0
  0
BLOCK_RECORD
  5
137
330
1
100
AcDbSymbolTableRecord
100
AcDbBlockTableRecord
  2
Block_5
340
0
102
{BLKREFS
331
138
102
}
 70
     0
280
     1
281
     0
  0
BLOCK_RECORD
  5
141
330
1
100
AcDbSymbolTableRecord
100
AcDbBlockTableRecord
  2
Block_6
340
0
102
{BLKREFS
331
142
102
}
 70
     0
280
     1
281
     0
  0
BLOCK_RECORD
  5
149
330
1
100
AcDbSymbolTableRecord
100
AcDbBlockTableRecord
  2
Block_7
340
0
102
{BLKREFS
331
14A
102
}
 70
     0
280
     1
281
     0
  0
BLOCK_RECORD
  5
14D
330
1
100
AcDbSymbolTableRecord
100
AcDbBlockTableRecord
  2
Block_8
340
0
102
{BLKREFS
331
14E
102
}
 70
     0
280
     1
281
     0
  0
BLOCK_RECORD
  5
158
330
1
100
AcDbSymbolTableRecord
100
AcDbBlockTableRecord
  2
Block_9
340
0
102
{BLKREFS
331
159
102
}
 70
     0
280
     1
281
     0
  0
BLOCK_RECORD
  5
160
330
1
100
AcDbSymbolTableRecord
100
AcDbBlockTableRecord
  2
Block_10
340
0
102
{BLKREFS
331
161
102
}
 70
     0
280
     1
281
     0
  0
BLOCK_RECORD
  5
166
330
1
100
AcDbSymbolTableRecord
100
AcDbBlockTableRecord
  2
Block_11
340
0
102
{BLKREFS
331
167
102
}
 70
     0
280
     1
281
     0
  0
BLOCK_RECORD
  5
16A
330
1
100
AcDbSymbolTableRecord
100
AcDbBlockTableRecord
  2
Block_12
340
0
102
{BLKREFS
331
16B
102
}
 70
     0
280
     1
281
     0
  0
BLOCK_RECORD
  5
171
330
1
100
AcDbSymbolTableRecord
100
AcDbBlockTableRecord
  2
Block_13
340
0
102
{BLKREFS
331
172
102
}
 70
     0
280
     1
281
     0
  0
BLOCK_RECORD
  5
175
330
1
100
AcDbSymbolTableRecord
100
AcDbBlockTableRecord
  2
Block_14
340
0
102
{BLKREFS
331
176
102
}
 70
     0
280
     1
281
     0
  0
BLOCK_RECORD
  5
193
330
1
100
AcDbSymbolTableRecord
100
AcDbBlockTableRecord
  2
Block_15
340
0
102
{BLKREFS
331
194
102
}
 70
     0
280
     1
281
     0
  0
BLOCK_RECORD
  5
197
330
1
100
AcDbSymbolTableRecord
100
AcDbBlockTableRecord
  2
Block_16
340
0
102
{BLKREFS
331
198
102
}
 70
     0
280
     1
281
     0
  0
ENDTAB
  0
ENDSEC
  0
SECTION
  2
BLOCKS
  0
BLOCK
  5
71
330
70
100
AcDbEntity
  8
0
100
AcDbBlockBegin
  2
*Model_Space
 70
     0
 10
0.0
 20
0.0
 30
0.0
  3
*Model_Space
  1

  0
ENDBLK
  5
72
330
70
100
AcDbEntity
  8
0
100
AcDbBlockEnd
  0
BLOCK
  5
6D
330
6C
100
AcDbEntity
 67
     1
  8
0
100
AcDbBlockBegin
  2
*Paper_Space
 70
     0
 10
0.0
 20
0.0
 30
0.0
  3
*Paper_Space
  1

  0
ENDBLK
  5
6E
330
6C
100
AcDbEntity
 67
     1
  8
0
100
AcDbBlockEnd
  0
BLOCK
  5
75
330
74
100
AcDbEntity
 67
     1
  8
0
100
AcDbBlockBegin
  2
*Paper_Space0
 70
     0
 10
0.0
 20
0.0
 30
0.0
  3
*Paper_Space0
  1

  0
ENDBLK
  5
76
330
74
100
AcDbEntity
 67
     1
  8
0
100
AcDbBlockEnd
  0
BLOCK
  5
7B
330
79
100
AcDbEntity
  8
0
100
AcDbBlockBegin
  2
Block_0
 70
     0
 10
0.0
 20
0.0
 30
0.0
  3
Block_0
  1

  0
SPLINE
  5
7D
330
79
100
AcDbEntity
  8
レイヤー 1
 62
   250
420
  2299925
370
     9
100
AcDbSpline
210
0.0
220
0.0
230
1.0
 70
     8
 71
     3
 72
     8
 73
     4
 74
     0
 42
0.0000000001
 43
0.0000000001
 40
0.0
 40
0.0
 40
0.0
 40
0.0
 40
1.0
 40
1.0
 40
1.0
 40
1.0
 10
133.70795301348
 20
-152.9650470069125
 30
0.0
 10
133.70795301348
 20
-152.9650470069125
 30
0.0
 10
133.0020758838924
 20
-152.487915062587
 30
0.0
 10
132.8869997757171
 20
-152.9075089513708
 30
0.0
  0
SPLINE
  5
7E
330
79
100
AcDbEntity
  8
レイヤー 1
 62
   250
420
  2299925
370
     9
100
AcDbSpline
210
0.0
220
0.0
230
1.0
 70
     8
 71
     3
 72
    26
 73
    22
 74
     0
 42
0.0000000001
 43
0.0000000001
 40
0.0
 40
0.0
 40
0.0
 40
0.0
 40
1.0
 40
1.0
 40
1.0
 40
2.0
 40
2.0
 40
2.0
 40
3.0
 40
3.0
 40
3.0
 40
4.0
 40
4.0
 40
4.0
 40
5.0
 40
5.0
 40
5.0
 40
6.0
 40
6.0
 40
6.0
 40
7.0
 40
7.0
 40
7.0
 40
7.0
 10
134.2433244633367
 20
-145.9176053420074
 30
0.0
 10
134.2433244633367
 20
-145.9176053420074
 30
0.0
 10
125.610605516909
 20
-148.9544575634701
 30
0.0
 10
125.610605516909
 20
-148.9544575634701
 30
0.0
 10
125.610605516909
 20
-148.9544575634701
 30
0.0
 10
124.2360069408668
 20
-149.2219689522926
 30
0.0
 10
124.751415261051
 20
-149.680156729956
 30
0.0
 10
124.751415261051
 20
-149.680156729956
 30
0.0
 10
125.0569913643662
 20
-149.8711858965747
 30
0.0
 10
125.5916613507256
 20
-150.0813356187443
 30
0.0
 10
125.5916613507256
 20
-150.0813356187443
 30
0.0
 10
130.6525053882794
 20
-152.1248008960111
 30
0.0
 10
130.6525053882794
 20
-152.1248008960111
 30
0.0
 10
130.6525053882794
 20
-152.1248008960111
 30
0.0
 10
130.6139115003751
 20
-155.1991886730202
 30
0.0
 10
130.6139115003751
 20
-155.1991886730202
 30
0.0
 10
130.6139115003751
 20
-155.1991886730202
 30
0.0
 10
133.2690580993034
 20
-156.4790664504782
 30
0.0
 10
133.2690580993034
 20
-156.4790664504782
 30
0.0
 10
133.2690580993034
 20
-156.4790664504782
 30
0.0
 10
136.9935446709505
 20
-154.8937889508748
 30
0.0
 10
136.9935446709505
 20
-154.8937889508748
 30
0.0
  0
LINE
  5
7F
330
79
100
AcDbEntity
  8
レイヤー 1
 62
   250
420
  2299925
370
     9
100
AcDbLine
 10
132.9634819959881
 20
-152.7738414514043
 30
0.0
 11
142.3021092577399
 21
-148.7636047857403
 31
0.0
  0
SPLINE
  5
80
330
79
100
AcDbEntity
  8
レイヤー 1
 62
   250
420
  2299925
370
     9
100
AcDbSpline
210
0.0
220
0.0
230
1.0
 70
     8
 71
     3
 72
    26
 73
    22
 74
     0
 42
0.0000000001
 43
0.0000000001
 40
0.0
 40
0.0
 40
0.0
 40
0.0
 40
1.0
 40
1.0
 40
1.0
 40
2.0
 40
2.0
 40
2.0
 40
3.0
 40
3.0
 40
3.0
 40
4.0
 40
4.0
 40
4.0
 40
5.0
 40
5.0
 40
5.0
 40
6.0
 40
6.0
 40
6.0
 40
7.0
 40
7.0
 40
7.0
 40
7.0
 10
134.3383980720222
 20
-146.0898667308532
 30
0.0
 10
134.3383980720222
 20
-146.0898667308532
 30
0.0
 10
125.4004558000481
 20
-149.2219689522926
 30
0.0
 10
125.4004558000481
 20
-149.2219689522926
 30
0.0
 10
125.4004558000481
 20
-149.2219689522926
 30
0.0
 10
124.9236413677682
 20
-149.298098396718
 30
0.0
 10
124.9612122001431
 20
-149.4701833966752
 30
0.0
 10
124.9612122001431
 20
-149.4701833966752
 30
0.0
 10
124.9419152561909
 20
-149.5464892299895
 30
0.0
 10
125.2481969150437
 20
-149.6415628410763
 30
0.0
 10
125.2481969150437
 20
-149.6415628410763
 30
0.0
 10
130.9577287138258
 20
-151.8957070071794
 30
0.0
 10
130.9577287138258
 20
-151.8957070071794
 30
0.0
 10
130.9577287138258
 20
-151.8957070071794
 30
0.0
 10
130.9577287138258
 20
-154.8748447842127
 30
0.0
 10
130.9577287138258
 20
-154.8748447842127
 30
0.0
 10
130.9577287138258
 20
-154.8748447842127
 30
0.0
 10
132.7726292230794
 20
-155.7342114506645
 30
0.0
 10
132.7726292230794
 20
-155.7342114506645
 30
0.0
 10
132.7726292230794
 20
-155.7342114506645
 30
0.0
 10
132.9055911641317
 20
-152.9075089513708
 30
0.0
 10
132.9055911641317
 20
-152.9075089513708
 30
0.0
  0
LINE
  5
81
330
79
100
AcDbEntity
  8
レイヤー 1
 62
   250
420
  2299925
370
     9
100
AcDbLine
 10
140.3163584750673
 20
-148.1522408970042
 30
0.0
 11
130.9577287138258
 21
-151.9528922849433
 31
0.0
  0
SPLINE
  5
82
330
79
100
AcDbEntity
  8
レイヤー 1
 62
   250
420
  2299925
370
     9
100
AcDbSpline
210
0.0
220
0.0
230
1.0
 70
     8
 71
     3
 72
    20
 73
    16
 74
     0
 42
0.0000000001
 43
0.0000000001
 40
0.0
 40
0.0
 40
0.0
 40
0.0
 40
1.0
 40
1.0
 40
1.0
 40
2.0
 40
2.0
 40
2.0
 40
3.0
 40
3.0
 40
3.0
 40
4.0
 40
4.0
 40
4.0
 40
5.0
 40
5.0
 40
5.0
 40
5.0
 10
133.2690580993034
 20
-156.4790664504782
 30
0.0
 10
133.2690580993034
 20
-156.4790664504782
 30
0.0
 10
133.2690580993034
 20
-153.5379581178803
 30
0.0
 10
133.2690580993034
 20
-153.5379581178803
 30
0.0
 10
133.2690580993034
 20
-153.5379581178803
 30
0.0
 10
133.2690580993034
 20
-153.1943172846331
 30
0.0
 10
133.4981519823476
 20
-153.3279847845995
 30
0.0
 10
133.4981519823476
 20
-153.3279847845995
 30
0.0
 10
138.7884426807143
 20
-155.6387850617992
 30
0.0
 10
138.7884426807143
 20
-155.6387850617992
 30
0.0
 10
138.7884426807143
 20
-155.6387850617992
 30
0.0
 10
139.5332623839346
 20
-156.0970081172402
 30
0.0
 10
140.2395234770275
 20
-155.8869995061819
 30
0.0
 10
140.2395234770275
 20
-155.8869995061819
 30
0.0
 10
149.8272118435363
 20
-151.8188720071991
 30
0.0
 10
149.8272118435363
 20
-151.8188720071991
 30
0.0
  0
SPLINE
  5
83
330
79
100
AcDbEntity
  8
レイヤー 1
 62
   250
420
  2299925
370
     9
100
AcDbSpline
210
0.0
220
0.0
230
1.0
 70
     8
 71
     3
 72
    20
 73
    16
 74
     0
 42
0.0000000001
 43
0.0000000001
 40
0.0
 40
0.0
 40
0.0
 40
0.0
 40
1.0
 40
1.0
 40
1.0
 40
2.0
 40
2.0
 40
2.0
 40
3.0
 40
3.0
 40
3.0
 40
4.0
 40
4.0
 40
4.0
 40
5.0
 40
5.0
 40
5.0
 40
5.0
 10
133.4413194837975
 20
-152.831379506946
 30
0.0
 10
133.4413194837975
 20
-152.831379506946
 30
0.0
 10
136.9739302270064
 20
-154.4547217287617
 30
0.0
 10
137.1461563337237
 20
-154.5499717287381
 30
0.0
 10
137.1461563337237
 20
-154.5499717287381
 30
0.0
 10
139.3038157231216
 20
-155.5623028395961
 30
0.0
 10
139.3038157231216
 20
-155.5623028395961
 30
0.0
 10
139.3038157231216
 20
-155.5623028395961
 30
0.0
 10
139.7244679346121
 20
-155.9062964506217
 30
0.0
 10
140.6405259667971
 20
-155.4479322840688
 30
0.0
 10
140.6405259667971
 20
-155.4479322840688
 30
0.0
 10
147.9747757796848
 20
-152.2584683959782
 30
0.0
 10
147.9747757796848
 20
-152.2584683959782
 30
0.0
 10
147.9747757796848
 20
-152.2584683959782
 30
0.0
 10
149.6360062928588
 20
-151.5517133961544
 30
0.0
 10
149.6360062928588
 20
-151.5517133961544
 30
0.0
  0
LINE
  5
84
330
79
100
AcDbEntity
  8
レイヤー 1
 62
   250
420
  2299925
370
     9
100
AcDbLine
 10
130.9577287138258
 20
-154.8748447842127
 30
0.0
 11
132.8108703332149
 21
-154.2063308954908
 31
0.0
  0
SPLINE
  5
85
330
79
100
AcDbEntity
  8
レイヤー 1
 62
   250
420
  2299925
370
     9
100
AcDbSpline
210
0.0
220
0.0
230
1.0
 70
     9
 71
     3
 72
    17
 73
    13
 74
     0
 42
0.0000000001
 43
0.0000000001
 40
0.0
 40
0.0
 40
0.0
 40
0.0
 40
1.0
 40
1.0
 40
1.0
 40
2.0
 40
2.0
 40
2.0
 40
3.0
 40
3.0
 40
3.0
 40
4.0
 40
4.0
 40
4.0
 40
4.0
 10
137.5833538225698
 20
-147.9324603415037
 30
0.0
 10
137.5833538225698
 20
-148.1682922858891
 30
0.0
 10
137.2529774421096
 20
-148.360168119175
 30
0.0
 10
136.8467891191389
 20
-148.360168119175
 30
0.0
 10
136.4389074628782
 20
-148.360168119175
 30
0.0
 10
136.1092013601786
 20
-148.1682922858891
 30
0.0
 10
136.1092013601786
 20
-147.9324603415037
 30
0.0
 10
136.1092013601786
 20
-147.6961345082292
 30
0.0
 10
136.4389074628782
 20
-147.5047525638328
 30
0.0
 10
136.8467891191389
 20
-147.5047525638328
 30
0.0
 10
137.2529774421096
 20
-147.5047525638328
 30
0.0
 10
137.5833538225698
 20
-147.6961345082292
 30
0.0
 10
137.5833538225698
 20
-147.9324603415037
 30
0.0
  0
SPLINE
  5
86
330
79
100
AcDbEntity
  8
レイヤー 1
 62
   250
420
  2299925
370
     9
100
AcDbSpline
210
0.0
220
0.0
230
1.0
 70
     8
 71
     3
 72
    11
 73
     7
 74
     0
 42
0.0000000001
 43
0.0000000001
 40
0.0
 40
0.0
 40
0.0
 40
0.0
 40
1.0
 40
1.0
 40
1.0
 40
2.0
 40
2.0
 40
2.0
 40
2.0
 10
136.2373696795137
 20
-148.1672339525562
 30
0.0
 10
136.2373696795137
 20
-148.1672339525562
 30
0.0
 10
136.2156344130188
 20
-147.6540833971289
 30
0.0
 10
137.0493541139711
 20
-147.6976867304513
 30
0.0
 10
137.0493541139711
 20
-147.6976867304513
 30
0.0
 10
137.5402796570021
 20
-147.761080897102
 30
0.0
 10
137.4555424369417
 20
-148.1462436747835
 30
0.0
  0
SPLINE
  5
87
330
79
100
AcDbEntity
  8
レイヤー 1
 62
   250
420
  2299925
370
     9
100
AcDbSpline
210
0.0
220
0.0
230
1.0
 70
     9
 71
     3
 72
    17
 73
    13
 74
     0
 42
0.0000000001
 43
0.0000000001
 40
0.0
 40
0.0
 40
0.0
 40
0.0
 40
1.0
 40
1.0
 40
1.0
 40
2.0
 40
2.0
 40
2.0
 40
3.0
 40
3.0
 40
3.0
 40
4.0
 40
4.0
 40
4.0
 40
4.0
 10
137.3463224397281
 20
-146.8467514528861
 30
0.0
 10
137.3463224397281
 20
-147.0829008972721
 30
0.0
 10
137.0155974570963
 20
-147.2742828416682
 30
0.0
 10
136.6090874585365
 20
-147.2742828416682
 30
0.0
 10
136.2015233022677
 20
-147.2742828416682
 30
0.0
 10
135.8721699773369
 20
-147.0829008972721
 30
0.0
 10
135.8721699773369
 20
-146.8467514528861
 30
0.0
 10
135.8721699773369
 20
-146.6105667307229
 30
0.0
 10
136.2015233022677
 20
-146.4193611752154
 30
0.0
 10
136.6090874585365
 20
-146.4193611752154
 30
0.0
 10
137.0155974570963
 20
-146.4193611752154
 30
0.0
 10
137.3463224397281
 20
-146.6105667307229
 30
0.0
 10
137.3463224397281
 20
-146.8467514528861
 30
0.0
  0
SPLINE
  5
88
330
79
100
AcDbEntity
  8
レイヤー 1
 62
   250
420
  2299925
370
     9
100
AcDbSpline
210
0.0
220
0.0
230
1.0
 70
     8
 71
     3
 72
    11
 73
     7
 74
     0
 42
0.0000000001
 43
0.0000000001
 40
0.0
 40
0.0
 40
0.0
 40
0.0
 40
1.0
 40
1.0
 40
1.0
 40
2.0
 40
2.0
 40
2.0
 40
2.0
 10
135.9996285851963
 20
-147.0818778417163
 30
0.0
 10
135.9996285851963
 20
-147.0818778417163
 30
0.0
 10
135.978638307954
 20
-146.5683745085113
 30
0.0
 10
136.8112996755999
 20
-146.6119425640558
 30
0.0
 10
136.8112996755999
 20
-146.6119425640558
 30
0.0
 10
137.3029307741685
 20
-146.6753367307068
 30
0.0
 10
137.2178407763393
 20
-147.0604995083884
 30
0.0
  0
SPLINE
  5
89
330
79
100
AcDbEntity
  8
レイヤー 1
 62
   250
420
  2299925
370
     9
100
AcDbSpline
210
0.0
220
0.0
230
1.0
 70
     9
 71
     3
 72
    17
 73
    13
 74
     0
 42
0.0000000001
 43
0.0000000001
 40
0.0
 40
0.0
 40
0.0
 40
0.0
 40
1.0
 40
1.0
 40
1.0
 40
2.0
 40
2.0
 40
2.0
 40
3.0
 40
3.0
 40
3.0
 40
4.0
 40
4.0
 40
4.0
 40
4.0
 10
127.6439107428128
 20
-149.4589650633445
 30
0.0
 10
127.6439107428128
 20
-149.6949733966188
 30
0.0
 10
127.3135343623525
 20
-149.8861789521263
 30
0.0
 10
126.9066404838444
 20
-149.8861789521263
 30
0.0
 10
126.4994291053443
 20
-149.8861789521263
 30
0.0
 10
126.1697582804216
 20
-149.6949733966188
 30
0.0
 10
126.1697582804216
 20
-149.4589650633445
 30
0.0
 10
126.1697582804216
 20
-149.2229920078477
 30
0.0
 10
126.4994291053443
 20
-149.0311161745621
 30
0.0
 10
126.9066404838444
 20
-149.0311161745621
 30
0.0
 10
127.3135343623525
 20
-149.0311161745621
 30
0.0
 10
127.6439107428128
 20
-149.2229920078477
 30
0.0
 10
127.6439107428128
 20
-149.4589650633445
 30
0.0
  0
SPLINE
  5
8A
330
79
100
AcDbEntity
  8
レイヤー 1
 62
   250
420
  2299925
370
     9
100
AcDbSpline
210
0.0
220
0.0
230
1.0
 70
     8
 71
     3
 72
    11
 73
     7
 74
     0
 42
0.0000000001
 43
0.0000000001
 40
0.0
 40
0.0
 40
0.0
 40
0.0
 40
1.0
 40
1.0
 40
1.0
 40
2.0
 40
2.0
 40
2.0
 40
2.0
 10
126.2979224438185
 20
-149.6937739521747
 30
0.0
 10
126.2979224438185
 20
-149.6937739521747
 30
0.0
 10
126.2761913332618
 20
-149.1804470078583
 30
0.0
 10
127.1092446817957
 20
-149.2236975634032
 30
0.0
 10
127.1092446817957
 20
-149.2236975634032
 30
0.0
 10
127.6001662994844
 20
-149.2875856189427
 30
0.0
 10
127.5157465794159
 20
-149.6723956188465
 30
0.0
  0
SPLINE
  5
8B
330
79
100
AcDbEntity
  8
レイヤー 1
 62
   250
420
  2299925
370
     9
100
AcDbSpline
210
0.0
220
0.0
230
1.0
 70
     9
 71
     3
 72
    17
 73
    13
 74
     0
 42
0.0000000001
 43
0.0000000001
 40
0.0
 40
0.0
 40
0.0
 40
0.0
 40
1.0
 40
1.0
 40
1.0
 40
2.0
 40
2.0
 40
2.0
 40
3.0
 40
3.0
 40
3.0
 40
4.0
 40
4.0
 40
4.0
 40
4.0
 10
135.3781399899406
 20
-149.0183456190103
 30
0.0
 10
135.3781399899406
 20
-149.2540011745068
 30
0.0
 10
135.0467446798113
 20
-149.4455595077921
 30
0.0
 10
134.6409050087491
 20
-149.4455595077921
 30
0.0
 10
134.2329880747114
 20
-149.4455595077921
 30
0.0
 10
133.9039875275494
 20
-149.2540011745068
 30
0.0
 10
133.9039875275494
 20
-149.0183456190103
 30
0.0
 10
133.9039875275494
 20
-148.7821961746246
 30
0.0
 10
134.2329880747114
 20
-148.5906378413393
 30
0.0
 10
134.6409050087491
 20
-148.5906378413393
 30
0.0
 10
135.0467446798113
 20
-148.5906378413393
 30
0.0
 10
135.3781399899406
 20
-148.7821961746246
 30
0.0
 10
135.3781399899406
 20
-149.0183456190103
 30
0.0
  0
SPLINE
  5
8C
330
79
100
AcDbEntity
  8
レイヤー 1
 62
   250
420
  2299925
370
     9
100
AcDbSpline
210
0.0
220
0.0
230
1.0
 70
     8
 71
     3
 72
    11
 73
     7
 74
     0
 42
0.0000000001
 43
0.0000000001
 40
0.0
 40
0.0
 40
0.0
 40
0.0
 40
1.0
 40
1.0
 40
1.0
 40
2.0
 40
2.0
 40
2.0
 40
2.0
 10
134.032155791176
 20
-149.252978118951
 30
0.0
 10
134.032155791176
 20
-149.252978118951
 30
0.0
 10
134.0104558581665
 20
-148.7398275635241
 30
0.0
 10
134.8441402813419
 20
-148.7832192301797
 30
0.0
 10
134.8441402813419
 20
-148.7832192301797
 30
0.0
 10
135.3350658243729
 20
-148.84678978572
 30
0.0
 10
135.2496583265518
 20
-149.2317761745123
 30
0.0
  0
SPLINE
  5
8D
330
79
100
AcDbEntity
  8
レイヤー 1
 62
   250
420
  2299925
370
     9
100
AcDbSpline
210
0.0
220
0.0
230
1.0
 70
     9
 71
     3
 72
    17
 73
    13
 74
     0
 42
0.0000000001
 43
0.0000000001
 40
0.0
 40
0.0
 40
0.0
 40
0.0
 40
1.0
 40
1.0
 40
1.0
 40
2.0
 40
2.0
 40
2.0
 40
3.0
 40
3.0
 40
3.0
 40
4.0
 40
4.0
 40
4.0
 40
4.0
 10
135.1404383293383
 20
-147.9324603415037
 30
0.0
 10
135.1404383293383
 20
-148.1682922858891
 30
0.0
 10
134.8097091711092
 20
-148.360168119175
 30
0.0
 10
134.4035208481386
 20
-148.360168119175
 30
0.0
 10
133.9959566918697
 20
-148.360168119175
 30
0.0
 10
133.6666386447158
 20
-148.1682922858891
 30
0.0
 10
133.6666386447158
 20
-147.9324603415037
 30
0.0
 10
133.6666386447158
 20
-147.6961345082292
 30
0.0
 10
133.9959566918697
 20
-147.5047525638328
 30
0.0
 10
134.4035208481386
 20
-147.5047525638328
 30
0.0
 10
134.8097091711092
 20
-147.5047525638328
 30
0.0
 10
135.1404383293383
 20
-147.6961345082292
 30
0.0
 10
135.1404383293383
 20
-147.9324603415037
 30
0.0
  0
SPLINE
  5
8E
330
79
100
AcDbEntity
  8
レイヤー 1
 62
   250
420
  2299925
370
     9
100
AcDbSpline
210
0.0
220
0.0
230
1.0
 70
     8
 71
     3
 72
    11
 73
     7
 74
     0
 42
0.0000000001
 43
0.0000000001
 40
0.0
 40
0.0
 40
0.0
 40
0.0
 40
1.0
 40
1.0
 40
1.0
 40
2.0
 40
2.0
 40
2.0
 40
2.0
 10
133.7947675303358
 20
-148.1672339525562
 30
0.0
 10
133.7947675303358
 20
-148.1672339525562
 30
0.0
 10
133.7734244753248
 20
-147.6540833971289
 30
0.0
 10
134.6060858429707
 20
-147.6976867304513
 30
0.0
 10
134.6060858429707
 20
-147.6976867304513
 30
0.0
 10
135.0980697193081
 20
-147.761080897102
 30
0.0
 10
135.0122741659413
 20
-148.1462436747835
 30
0.0
  0
SPLINE
  5
8F
330
79
100
AcDbEntity
  8
レイヤー 1
 62
   250
420
  2299925
370
     9
100
AcDbSpline
210
0.0
220
0.0
230
1.0
 70
     9
 71
     3
 72
    17
 73
    13
 74
     0
 42
0.0000000001
 43
0.0000000001
 40
0.0
 40
0.0
 40
0.0
 40
0.0
 40
1.0
 40
1.0
 40
1.0
 40
2.0
 40
2.0
 40
2.0
 40
3.0
 40
3.0
 40
3.0
 40
4.0
 40
4.0
 40
4.0
 40
4.0
 10
134.5974780654125
 20
-146.9826414528523
 30
0.0
 10
134.5974780654125
 20
-147.2189672861266
 30
0.0
 10
134.2674585688954
 20
-147.4099964527455
 30
0.0
 10
133.8609133619816
 20
-147.4099964527455
 30
0.0
 10
133.4537019834816
 20
-147.4099964527455
 30
0.0
 10
133.1233256030213
 20
-147.2189672861266
 30
0.0
 10
133.1233256030213
 20
-146.9826414528523
 30
0.0
 10
133.1233256030213
 20
-146.7466683973556
 30
0.0
 10
133.4537019834816
 20
-146.5551100640702
 30
0.0
 10
133.8609133619816
 20
-146.5551100640702
 30
0.0
 10
134.2674585688954
 20
-146.5551100640702
 30
0.0
 10
134.5974780654125
 20
-146.7466683973556
 30
0.0
 10
134.5974780654125
 20
-146.9826414528523
 30
0.0
  0
SPLINE
  5
90
330
79
100
AcDbEntity
  8
レイヤー 1
 62
   250
420
  2299925
370
     9
100
AcDbSpline
210
0.0
220
0.0
230
1.0
 70
     8
 71
     3
 72
    11
 73
     7
 74
     0
 42
0.0000000001
 43
0.0000000001
 40
0.0
 40
0.0
 40
0.0
 40
0.0
 40
1.0
 40
1.0
 40
1.0
 40
2.0
 40
2.0
 40
2.0
 40
2.0
 10
133.251842544187
 20
-147.2177678416822
 30
0.0
 10
133.251842544187
 20
-147.2177678416822
 30
0.0
 10
133.2304642113991
 20
-146.7044408973664
 30
0.0
 10
134.0635136345907
 20
-146.7475150640221
 30
0.0
 10
134.0635136345907
 20
-146.7475150640221
 30
0.0
 10
134.5551094553823
 20
-146.8114383973395
 30
0.0
 10
134.4700194575532
 20
-147.196601175021
 30
0.0
  0
SPLINE
  5
91
330
79
100
AcDbEntity
  8
レイヤー 1
 62
   250
420
  2299925
370
     9
100
AcDbSpline
210
0.0
220
0.0
230
1.0
 70
     9
 71
     3
 72
    17
 73
    13
 74
     0
 42
0.0000000001
 43
0.0000000001
 40
0.0
 40
0.0
 40
0.0
 40
0.0
 40
1.0
 40
1.0
 40
1.0
 40
2.0
 40
2.0
 40
2.0
 40
3.0
 40
3.0
 40
3.0
 40
4.0
 40
4.0
 40
4.0
 40
4.0
 10
133.0713261599035
 20
-149.8320981188065
 30
0.0
 10
133.0713261599035
 20
-150.0684239520804
 30
0.0
 10
132.7402442239056
 20
-150.2596295075886
 30
0.0
 10
132.3337031231662
 20
-150.2596295075886
 30
0.0
 10
131.9268445224349
 20
-150.2596295075886
 30
0.0
 10
131.5971384197354
 20
-150.0684239520804
 30
0.0
 10
131.5971384197354
 20
-149.8320981188065
 30
0.0
 10
131.5971384197354
 20
-149.5959133966434
 30
0.0
 10
131.9268445224349
 20
-149.4045314522469
 30
0.0
 10
132.3337031231662
 20
-149.4045314522469
 30
0.0
 10
132.7402442239056
 20
-149.4045314522469
 30
0.0
 10
133.0713261599035
 20
-149.5959133966434
 30
0.0
 10
133.0713261599035
 20
-149.8320981188065
 30
0.0
  0
SPLINE
  5
92
330
79
100
AcDbEntity
  8
レイヤー 1
 62
   250
420
  2299925
370
     9
100
AcDbSpline
210
0.0
220
0.0
230
1.0
 70
     8
 71
     3
 72
    11
 73
     7
 74
     0
 42
0.0000000001
 43
0.0000000001
 40
0.0
 40
0.0
 40
0.0
 40
0.0
 40
1.0
 40
1.0
 40
1.0
 40
2.0
 40
2.0
 40
2.0
 40
2.0
 10
131.7253025831323
 20
-150.0668717298593
 30
0.0
 10
131.7253025831323
 20
-150.0668717298593
 30
0.0
 10
131.7036067503525
 20
-149.5537211744317
 30
0.0
 10
132.5369736735359
 20
-149.596971729976
 30
0.0
 10
132.5369736735359
 20
-149.596971729976
 30
0.0
 10
133.0286047721045
 20
-149.6610361744057
 30
0.0
 10
132.9421036632002
 20
-150.0458461743088
 30
0.0
  0
SPLINE
  5
93
330
79
100
AcDbEntity
  8
レイヤー 1
 62
   250
420
  2299925
370
     9
100
AcDbSpline
210
0.0
220
0.0
230
1.0
 70
     9
 71
     3
 72
    17
 73
    13
 74
     0
 42
0.0000000001
 43
0.0000000001
 40
0.0
 40
0.0
 40
0.0
 40
0.0
 40
1.0
 40
1.0
 40
1.0
 40
2.0
 40
2.0
 40
2.0
 40
3.0
 40
3.0
 40
3.0
 40
4.0
 40
4.0
 40
4.0
 40
4.0
 10
132.8329189437635
 20
-148.7465303413002
 30
0.0
 10
132.8329189437635
 20
-148.9825386745745
 30
0.0
 10
132.502864124892
 20
-149.1737442300821
 30
0.0
 10
132.0963542403326
 20
-149.1737442300821
 30
0.0
 10
131.6891428618326
 20
-149.1737442300821
 30
0.0
 10
131.359436759133
 20
-148.9825386745745
 30
0.0
 10
131.359436759133
 20
-148.7465303413002
 30
0.0
 10
131.359436759133
 20
-148.5105572858035
 30
0.0
 10
131.6891428618326
 20
-148.3186461747404
 30
0.0
 10
132.0963542403326
 20
-148.3186461747404
 30
0.0
 10
132.502864124892
 20
-148.3186461747404
 30
0.0
 10
132.8329189437635
 20
-148.5105572858035
 30
0.0
 10
132.8329189437635
 20
-148.7465303413002
 30
0.0
  0
SPLINE
  5
94
330
79
100
AcDbEntity
  8
レイヤー 1
 62
   250
420
  2299925
370
     9
100
AcDbSpline
210
0.0
220
0.0
230
1.0
 70
     8
 71
     3
 72
    11
 73
     7
 74
     0
 42
0.0000000001
 43
0.0000000001
 40
0.0
 40
0.0
 40
0.0
 40
0.0
 40
1.0
 40
1.0
 40
1.0
 40
2.0
 40
2.0
 40
2.0
 40
2.0
 10
131.4876009225299
 20
-148.9809864523528
 30
0.0
 10
131.4876009225299
 20
-148.9809864523528
 30
0.0
 10
131.466222589742
 20
-148.4680122858147
 30
0.0
 10
132.2992720129336
 20
-148.51140395247
 30
0.0
 10
132.2992720129336
 20
-148.51140395247
 30
0.0
 10
132.7908678337252
 20
-148.5751508968985
 30
0.0
 10
132.7054250581273
 20
-148.9601372856912
 30
0.0
  0
SPLINE
  5
95
330
79
100
AcDbEntity
  8
レイヤー 1
 62
   250
420
  2299925
370
     9
100
AcDbSpline
210
0.0
220
0.0
230
1.0
 70
     9
 71
     3
 72
    17
 73
    13
 74
     0
 42
0.0000000001
 43
0.0000000001
 40
0.0
 40
0.0
 40
0.0
 40
0.0
 40
1.0
 40
1.0
 40
1.0
 40
2.0
 40
2.0
 40
2.0
 40
3.0
 40
3.0
 40
3.0
 40
4.0
 40
4.0
 40
4.0
 40
4.0
 10
132.2909817353673
 20
-147.7963939526492
 30
0.0
 10
132.2909817353673
 20
-148.0327197859231
 30
0.0
 10
131.9602525771382
 20
-148.2241017303196
 30
0.0
 10
131.5544170319364
 20
-148.2241017303196
 30
0.0
 10
131.1465353756756
 20
-148.2241017303196
 30
0.0
 10
130.8165117729841
 20
-148.0327197859231
 30
0.0
 10
130.8165117729841
 20
-147.7963939526492
 30
0.0
 10
130.8165117729841
 20
-147.5603856193743
 30
0.0
 10
131.1465353756756
 20
-147.3695328416448
 30
0.0
 10
131.5544170319364
 20
-147.3695328416448
 30
0.0
 10
131.9602525771382
 20
-147.3695328416448
 30
0.0
 10
132.2909817353673
 20
-147.5603856193743
 30
0.0
 10
132.2909817353673
 20
-147.7963939526492
 30
0.0
  0
SPLINE
  5
96
330
79
100
AcDbEntity
  8
レイヤー 1
 62
   250
420
  2299925
370
     9
100
AcDbSpline
210
0.0
220
0.0
230
1.0
 70
     8
 71
     3
 72
    11
 73
     7
 74
     0
 42
0.0000000001
 43
0.0000000001
 40
0.0
 40
0.0
 40
0.0
 40
0.0
 40
1.0
 40
1.0
 40
1.0
 40
2.0
 40
2.0
 40
2.0
 40
2.0
 10
130.9449974586144
 20
-148.0316614525898
 30
0.0
 10
130.9449974586144
 20
-148.0316614525898
 30
0.0
 10
130.9229448258244
 20
-147.5180170082744
 30
0.0
 10
131.7563117490078
 20
-147.5617614527075
 30
0.0
 10
131.7563117490078
 20
-147.5617614527075
 30
0.0
 10
132.2472372920389
 20
-147.6253320082471
 30
0.0
 10
132.1628528497472
 20
-148.0101420081509
 30
0.0
  0
SPLINE
  5
97
330
79
100
AcDbEntity
  8
レイヤー 1
 62
   250
420
  2299925
370
     9
100
AcDbSpline
210
0.0
220
0.0
230
1.0
 70
     9
 71
     3
 72
    17
 73
    13
 74
     0
 42
0.0000000001
 43
0.0000000001
 40
0.0
 40
0.0
 40
0.0
 40
0.0
 40
1.0
 40
1.0
 40
1.0
 40
2.0
 40
2.0
 40
2.0
 40
3.0
 40
3.0
 40
3.0
 40
4.0
 40
4.0
 40
4.0
 40
4.0
 10
130.6277051111343
 20
-150.6465208963808
 30
0.0
 10
130.6277051111343
 20
-150.8824939518769
 30
0.0
 10
130.2976502365543
 20
-151.073875896274
 30
0.0
 10
129.8914931854722
 20
-151.073875896274
 30
0.0
 10
129.4835762514346
 20
-151.073875896274
 30
0.0
 10
129.1535526487431
 20
-150.8824939518769
 30
0.0
 10
129.1535526487431
 20
-150.6465208963808
 30
0.0
 10
129.1535526487431
 20
-150.4101597853288
 30
0.0
 10
129.4835762514346
 20
-150.218636729821
 30
0.0
 10
129.8914931854722
 20
-150.218636729821
 30
0.0
 10
130.2976502365543
 20
-150.218636729821
 30
0.0
 10
130.6277051111343
 20
-150.4101597853288
 30
0.0
 10
130.6277051111343
 20
-150.6465208963808
 30
0.0
  0
SPLINE
  5
98
330
79
100
AcDbEntity
  8
レイヤー 1
 62
   250
420
  2299925
370
     9
100
AcDbSpline
210
0.0
220
0.0
230
1.0
 70
     8
 71
     3
 72
    11
 73
     7
 74
     0
 42
0.0000000001
 43
0.0000000001
 40
0.0
 40
0.0
 40
0.0
 40
0.0
 40
1.0
 40
1.0
 40
1.0
 40
2.0
 40
2.0
 40
2.0
 40
2.0
 10
129.28171681214
 20
-150.8814708963218
 30
0.0
 10
129.28171681214
 20
-150.8814708963218
 30
0.0
 10
129.2603384793521
 20
-150.3679675631171
 30
0.0
 10
130.0940581803044
 20
-150.411218118662
 30
0.0
 10
130.0940581803044
 20
-150.411218118662
 30
0.0
 10
130.5856892788729
 20
-150.4747533964238
 30
0.0
 10
130.500246503275
 20
-150.8600925629936
 30
0.0
  0
SPLINE
  5
99
330
79
100
AcDbEntity
  8
レイヤー 1
 62
   250
420
  2299925
370
     9
100
AcDbSpline
210
0.0
220
0.0
230
1.0
 70
     9
 71
     3
 72
    17
 73
    13
 74
     0
 42
0.0000000001
 43
0.0000000001
 40
0.0
 40
0.0
 40
0.0
 40
0.0
 40
1.0
 40
1.0
 40
1.0
 40
2.0
 40
2.0
 40
2.0
 40
3.0
 40
3.0
 40
3.0
 40
4.0
 40
4.0
 40
4.0
 40
4.0
 10
130.3910265060614
 20
-149.5606003410967
 30
0.0
 10
130.3910265060614
 20
-149.7967850632599
 30
0.0
 10
130.0599445700636
 20
-149.9883081187671
 30
0.0
 10
129.653438747101
 20
-149.9883081187671
 30
0.0
 10
129.246227368601
 20
-149.9883081187671
 30
0.0
 10
128.9168780146771
 20
-149.7967850632599
 30
0.0
 10
128.9168780146771
 20
-149.5606003410967
 30
0.0
 10
128.9168780146771
 20
-149.3244508967111
 30
0.0
 10
129.246227368601
 20
-149.1334217300924
 30
0.0
 10
129.653438747101
 20
-149.1334217300924
 30
0.0
 10
130.0599445700636
 20
-149.1334217300924
 30
0.0
 10
130.3910265060614
 20
-149.3244508967111
 30
0.0
 10
130.3910265060614
 20
-149.5606003410967
 30
0.0
  0
SPLINE
  5
9A
330
79
100
AcDbEntity
  8
レイヤー 1
 62
   250
420
  2299925
370
     9
100
AcDbSpline
210
0.0
220
0.0
230
1.0
 70
     8
 71
     3
 72
    11
 73
     7
 74
     0
 42
0.0000000001
 43
0.0000000001
 40
0.0
 40
0.0
 40
0.0
 40
0.0
 40
1.0
 40
1.0
 40
1.0
 40
2.0
 40
2.0
 40
2.0
 40
2.0
 10
129.0450382070671
 20
-149.7957267299266
 30
0.0
 10
129.0450382070671
 20
-149.7957267299266
 30
0.0
 10
129.0236598742792
 20
-149.2822586744994
 30
0.0
 10
129.8570307922201
 20
-149.3256503411558
 30
0.0
 10
129.8570307922201
 20
-149.3256503411558
 30
0.0
 10
130.3486578960312
 20
-149.3893972855839
 30
0.0
 10
130.2625095648957
 20
-149.7745600632655
 30
0.0
  0
SPLINE
  5
9B
330
79
100
AcDbEntity
  8
レイヤー 1
 62
   250
420
  2299925
370
     9
100
AcDbSpline
210
0.0
220
0.0
230
1.0
 70
     9
 71
     3
 72
    17
 73
    13
 74
     0
 42
0.0000000001
 43
0.0000000001
 40
0.0
 40
0.0
 40
0.0
 40
0.0
 40
1.0
 40
1.0
 40
1.0
 40
2.0
 40
2.0
 40
2.0
 40
3.0
 40
3.0
 40
3.0
 40
4.0
 40
4.0
 40
4.0
 40
4.0
 10
129.8477487421438
 20
-148.610640341334
 30
0.0
 10
129.8477487421438
 20
-148.84678978572
 30
0.0
 10
129.5173370839066
 20
-149.038348119005
 30
0.0
 10
129.1111840387129
 20
-149.038348119005
 30
0.0
 10
128.7032671046753
 20
-149.038348119005
 30
0.0
 10
128.3739137797444
 20
-148.84678978572
 30
0.0
 10
128.3739137797444
 20
-148.610640341334
 30
0.0
 10
128.3739137797444
 20
-148.3748083969486
 30
0.0
 10
128.7032671046753
 20
-148.1834264525522
 30
0.0
 10
129.1111840387129
 20
-148.1834264525522
 30
0.0
 10
129.5173370839066
 20
-148.1834264525522
 30
0.0
 10
129.8477487421438
 20
-148.3748083969486
 30
0.0
 10
129.8477487421438
 20
-148.610640341334
 30
0.0
  0
SPLINE
  5
9C
330
79
100
AcDbEntity
  8
レイヤー 1
 62
   250
420
  2299925
370
     9
100
AcDbSpline
210
0.0
220
0.0
230
1.0
 70
     8
 71
     3
 72
    11
 73
     7
 74
     0
 42
0.0000000001
 43
0.0000000001
 40
0.0
 40
0.0
 40
0.0
 40
0.0
 40
1.0
 40
1.0
 40
1.0
 40
2.0
 40
2.0
 40
2.0
 40
2.0
 10
128.5024307209102
 20
-148.8457667301642
 30
0.0
 10
128.5024307209102
 20
-148.8457667301642
 30
0.0
 10
128.4807348881303
 20
-148.332439785848
 30
0.0
 10
129.3141057923556
 20
-148.3758314525037
 30
0.0
 10
129.3141057923556
 20
-148.3758314525037
 30
0.0
 10
129.8053448543367
 20
-148.4395783969325
 30
0.0
 10
129.7199373565156
 20
-148.8245647857252
 30
0.0
  0
SPLINE
  5
9D
330
79
100
AcDbEntity
  8
レイヤー 1
 62
   250
420
  2299925
370
     9
100
AcDbSpline
210
0.0
220
0.0
230
1.0
 70
     9
 71
     3
 72
    17
 73
    13
 74
     0
 42
0.0000000001
 43
0.0000000001
 40
0.0
 40
0.0
 40
0.0
 40
0.0
 40
1.0
 40
1.0
 40
1.0
 40
2.0
 40
2.0
 40
2.0
 40
3.0
 40
3.0
 40
3.0
 40
4.0
 40
4.0
 40
4.0
 40
4.0
 10
140.2295398661711
 20
-153.3603697845909
 30
0.0
 10
140.2295398661711
 20
-153.5966956178654
 30
0.0
 10
139.8988107079421
 20
-153.7880775622618
 30
0.0
 10
139.4926223849714
 20
-153.7880775622618
 30
0.0
 10
139.0847407287107
 20
-153.7880775622618
 30
0.0
 10
138.7553874037799
 20
-153.5966956178654
 30
0.0
 10
138.7553874037799
 20
-153.3603697845909
 30
0.0
 10
138.7553874037799
 20
-153.1245731179836
 30
0.0
 10
139.0847407287107
 20
-152.9333675624754
 30
0.0
 10
139.4926223849714
 20
-152.9333675624754
 30
0.0
 10
139.8988107079421
 20
-152.9333675624754
 30
0.0
 10
140.2295398661711
 20
-153.1245731179836
 30
0.0
 10
140.2295398661711
 20
-153.3603697845909
 30
0.0
  0
SPLINE
  5
9E
330
79
100
AcDbEntity
  8
レイヤー 1
 62
   250
420
  2299925
370
     9
100
AcDbSpline
210
0.0
220
0.0
230
1.0
 70
     8
 71
     3
 72
    11
 73
     7
 74
     0
 42
0.0000000001
 43
0.0000000001
 40
0.0
 40
0.0
 40
0.0
 40
0.0
 40
1.0
 40
1.0
 40
1.0
 40
2.0
 40
2.0
 40
2.0
 40
2.0
 10
138.8828502344078
 20
-153.5954961734214
 30
0.0
 10
138.8828502344078
 20
-153.5954961734214
 30
0.0
 10
138.8618204566201
 20
-153.0823456179944
 30
0.0
 10
139.6951873798036
 20
-153.1259489513165
 30
0.0
 10
139.6951873798036
 20
-153.1259489513165
 30
0.0
 10
140.1868184783721
 20
-153.1893431179675
 30
0.0
 10
140.1010229250054
 20
-153.5741531178707
 30
0.0
  0
SPLINE
  5
9F
330
79
100
AcDbEntity
  8
レイヤー 1
 62
   250
420
  2299925
370
     9
100
AcDbSpline
210
0.0
220
0.0
230
1.0
 70
     9
 71
     3
 72
    17
 73
    13
 74
     0
 42
0.0000000001
 43
0.0000000001
 40
0.0
 40
0.0
 40
0.0
 40
0.0
 40
1.0
 40
1.0
 40
1.0
 40
2.0
 40
2.0
 40
2.0
 40
3.0
 40
3.0
 40
3.0
 40
4.0
 40
4.0
 40
4.0
 40
4.0
 10
140.2295398661711
 20
-154.6836392287046
 30
0.0
 10
140.2295398661711
 20
-154.9197886730902
 30
0.0
 10
139.8988107079421
 20
-155.1113470063755
 30
0.0
 10
139.4926223849714
 20
-155.1113470063755
 30
0.0
 10
139.0847407287107
 20
-155.1113470063755
 30
0.0
 10
138.7553874037799
 20
-154.9197886730902
 30
0.0
 10
138.7553874037799
 20
-154.6836392287046
 30
0.0
 10
138.7553874037799
 20
-154.4476661732078
 30
0.0
 10
139.0847407287107
 20
-154.2562842288113
 30
0.0
 10
139.4926223849714
 20
-154.2562842288113
 30
0.0
 10
139.8988107079421
 20
-154.2562842288113
 30
0.0
 10
140.2295398661711
 20
-154.4476661732078
 30
0.0
 10
140.2295398661711
 20
-154.6836392287046
 30
0.0
  0
SPLINE
  5
A0
330
79
100
AcDbEntity
  8
レイヤー 1
 62
   250
420
  2299925
370
     9
100
AcDbSpline
210
0.0
220
0.0
230
1.0
 70
     8
 71
     3
 72
    11
 73
     7
 74
     0
 42
0.0000000001
 43
0.0000000001
 40
0.0
 40
0.0
 40
0.0
 40
0.0
 40
1.0
 40
1.0
 40
1.0
 40
2.0
 40
2.0
 40
2.0
 40
2.0
 10
138.8828502344078
 20
-154.9185892286462
 30
0.0
 10
138.8828502344078
 20
-154.9185892286462
 30
0.0
 10
138.8618204566201
 20
-154.4054386732186
 30
0.0
 10
139.6951873798036
 20
-154.4488656176524
 30
0.0
 10
139.6951873798036
 20
-154.4488656176524
 30
0.0
 10
140.1868184783721
 20
-154.5122597843034
 30
0.0
 10
140.1010229250054
 20
-154.8974225619843
 30
0.0
  0
SPLINE
  5
A1
330
79
100
AcDbEntity
  8
レイヤー 1
 62
   250
420
  2299925
370
     9
100
AcDbSpline
210
0.0
220
0.0
230
1.0
 70
     9
 71
     3
 72
    17
 73
    13
 74
     0
 42
0.0000000001
 43
0.0000000001
 40
0.0
 40
0.0
 40
0.0
 40
0.0
 40
1.0
 40
1.0
 40
1.0
 40
2.0
 40
2.0
 40
2.0
 40
3.0
 40
3.0
 40
3.0
 40
4.0
 40
4.0
 40
4.0
 40
4.0
 10
140.2295398661711
 20
-152.1392647848961
 30
0.0
 10
140.2295398661711
 20
-152.3755906181706
 30
0.0
 10
139.8988107079421
 20
-152.5667961736788
 30
0.0
 10
139.4926223849714
 20
-152.5667961736788
 30
0.0
 10
139.0847407287107
 20
-152.5667961736788
 30
0.0
 10
138.7553874037799
 20
-152.3755906181706
 30
0.0
 10
138.7553874037799
 20
-152.1392647848961
 30
0.0
 10
138.7553874037799
 20
-151.9031153405111
 30
0.0
 10
139.0847407287107
 20
-151.7120861738924
 30
0.0
 10
139.4926223849714
 20
-151.7120861738924
 30
0.0
 10
139.8988107079421
 20
-151.7120861738924
 30
0.0
 10
140.2295398661711
 20
-151.9031153405111
 30
0.0
 10
140.2295398661711
 20
-152.1392647848961
 30
0.0
  0
SPLINE
  5
A2
330
79
100
AcDbEntity
  8
レイヤー 1
 62
   250
420
  2299925
370
     9
100
AcDbSpline
210
0.0
220
0.0
230
1.0
 70
     8
 71
     3
 72
    11
 73
     7
 74
     0
 42
0.0000000001
 43
0.0000000001
 40
0.0
 40
0.0
 40
0.0
 40
0.0
 40
1.0
 40
1.0
 40
1.0
 40
2.0
 40
2.0
 40
2.0
 40
2.0
 10
138.8828502344078
 20
-152.3742147848377
 30
0.0
 10
138.8828502344078
 20
-152.3742147848377
 30
0.0
 10
138.8618204566201
 20
-151.8608878405219
 30
0.0
 10
139.6951873798036
 20
-151.9043147849551
 30
0.0
 10
139.6951873798036
 20
-151.9043147849551
 30
0.0
 10
140.1868184783721
 20
-151.9682028404946
 30
0.0
 10
140.1010229250054
 20
-152.3530481181759
 30
0.0
  0
SPLINE
  5
A3
330
79
100
AcDbEntity
  8
レイヤー 1
 62
   250
420
  2299925
370
     9
100
AcDbSpline
210
0.0
220
0.0
230
1.0
 70
     9
 71
     3
 72
    17
 73
    13
 74
     0
 42
0.0000000001
 43
0.0000000001
 40
0.0
 40
0.0
 40
0.0
 40
0.0
 40
1.0
 40
1.0
 40
1.0
 40
2.0
 40
2.0
 40
2.0
 40
3.0
 40
3.0
 40
3.0
 40
4.0
 40
4.0
 40
4.0
 40
4.0
 10
142.4516164761479
 20
-152.5299308959098
 30
0.0
 10
142.4516164761479
 20
-152.7659392291841
 30
0.0
 10
142.12053454015
 20
-152.9569683958034
 30
0.0
 10
141.7143814949563
 20
-152.9569683958034
 30
0.0
 10
141.3068173386875
 20
-152.9569683958034
 30
0.0
 10
140.9771112359879
 20
-152.7659392291841
 30
0.0
 10
140.9771112359879
 20
-152.5299308959098
 30
0.0
 10
140.9771112359879
 20
-152.2932522848575
 30
0.0
 10
141.3068173386875
 20
-152.1020467293506
 30
0.0
 10
141.7143814949563
 20
-152.1020467293506
 30
0.0
 10
142.12053454015
 20
-152.1020467293506
 30
0.0
 10
142.4516164761479
 20
-152.2932522848575
 30
0.0
 10
142.4516164761479
 20
-152.5299308959098
 30
0.0
  0
SPLINE
  5
A4
330
79
100
AcDbEntity
  8
レイヤー 1
 62
   250
420
  2299925
370
     9
100
AcDbSpline
210
0.0
220
0.0
230
1.0
 70
     8
 71
     3
 72
    11
 73
     7
 74
     0
 42
0.0000000001
 43
0.0000000001
 40
0.0
 40
0.0
 40
0.0
 40
0.0
 40
1.0
 40
1.0
 40
1.0
 40
2.0
 40
2.0
 40
2.0
 40
2.0
 10
141.1052753993848
 20
-152.7645633958512
 30
0.0
 10
141.1052753993848
 20
-152.7645633958512
 30
0.0
 10
141.0835795666049
 20
-152.2514128404242
 30
0.0
 10
141.9172639897803
 20
-152.2944517293022
 30
0.0
 10
141.9172639897803
 20
-152.2944517293022
 30
0.0
 10
142.4085423105801
 20
-152.3583750626192
 30
0.0
 10
142.3230995349822
 20
-152.7435378403014
 30
0.0
  0
SPLINE
  5
A5
330
79
100
AcDbEntity
  8
レイヤー 1
 62
   250
420
  2299925
370
     9
100
AcDbSpline
210
0.0
220
0.0
230
1.0
 70
     9
 71
     3
 72
    17
 73
    13
 74
     0
 42
0.0000000001
 43
0.0000000001
 40
0.0
 40
0.0
 40
0.0
 40
0.0
 40
1.0
 40
1.0
 40
1.0
 40
2.0
 40
2.0
 40
2.0
 40
3.0
 40
3.0
 40
3.0
 40
4.0
 40
4.0
 40
4.0
 40
4.0
 10
142.4516164761479
 20
-153.8528475622457
 30
0.0
 10
142.4516164761479
 20
-154.08885589552
 30
0.0
 10
142.12053454015
 20
-154.280202562139
 30
0.0
 10
141.7143814949563
 20
-154.280202562139
 30
0.0
 10
141.3068173386875
 20
-154.280202562139
 30
0.0
 10
140.9771112359879
 20
-154.08885589552
 30
0.0
 10
140.9771112359879
 20
-153.8528475622457
 30
0.0
 10
140.9771112359879
 20
-153.6165217289712
 30
0.0
 10
141.3068173386875
 20
-153.4251397845748
 30
0.0
 10
141.7143814949563
 20
-153.4251397845748
 30
0.0
 10
142.12053454015
 20
-153.4251397845748
 30
0.0
 10
142.4516164761479
 20
-153.6165217289712
 30
0.0
 10
142.4516164761479
 20
-153.8528475622457
 30
0.0
  0
SPLINE
  5
A6
330
79
100
AcDbEntity
  8
レイヤー 1
 62
   250
420
  2299925
370
     9
100
AcDbSpline
210
0.0
220
0.0
230
1.0
 70
     8
 71
     3
 72
    11
 73
     7
 74
     0
 42
0.0000000001
 43
0.0000000001
 40
0.0
 40
0.0
 40
0.0
 40
0.0
 40
1.0
 40
1.0
 40
1.0
 40
2.0
 40
2.0
 40
2.0
 40
2.0
 10
141.1052753993848
 20
-154.087656451076
 30
0.0
 10
141.1052753993848
 20
-154.087656451076
 30
0.0
 10
141.0835795666049
 20
-153.5741531178707
 30
0.0
 10
141.9172639897803
 20
-153.6177211734158
 30
0.0
 10
141.9172639897803
 20
-153.6177211734158
 30
0.0
 10
142.4085423105801
 20
-153.6812917289551
 30
0.0
 10
142.3230995349822
 20
-154.0666308955255
 30
0.0
  0
SPLINE
  5
A7
330
79
100
AcDbEntity
  8
レイヤー 1
 62
   250
420
  2299925
370
     9
100
AcDbSpline
210
0.0
220
0.0
230
1.0
 70
     9
 71
     3
 72
    17
 73
    13
 74
     0
 42
0.0000000001
 43
0.0000000001
 40
0.0
 40
0.0
 40
0.0
 40
0.0
 40
1.0
 40
1.0
 40
1.0
 40
2.0
 40
2.0
 40
2.0
 40
3.0
 40
3.0
 40
3.0
 40
4.0
 40
4.0
 40
4.0
 40
4.0
 10
142.4516164761479
 20
-151.3084731184373
 30
0.0
 10
142.4516164761479
 20
-151.5443050628227
 30
0.0
 10
142.12053454015
 20
-151.7355106183309
 30
0.0
 10
141.7143814949563
 20
-151.7355106183309
 30
0.0
 10
141.3068173386875
 20
-151.7355106183309
 30
0.0
 10
140.9771112359879
 20
-151.5443050628227
 30
0.0
 10
140.9771112359879
 20
-151.3084731184373
 30
0.0
 10
140.9771112359879
 20
-151.0725000629405
 30
0.0
 10
141.3068173386875
 20
-150.8807653407663
 30
0.0
 10
141.7143814949563
 20
-150.8807653407663
 30
0.0
 10
142.12053454015
 20
-150.8807653407663
 30
0.0
 10
142.4516164761479
 20
-151.0725000629405
 30
0.0
 10
142.4516164761479
 20
-151.3084731184373
 30
0.0
  0
SPLINE
  5
A8
330
79
100
AcDbEntity
  8
レイヤー 1
 62
   250
420
  2299925
370
     9
100
AcDbSpline
210
0.0
220
0.0
230
1.0
 70
     8
 71
     3
 72
    11
 73
     7
 74
     0
 42
0.0000000001
 43
0.0000000001
 40
0.0
 40
0.0
 40
0.0
 40
0.0
 40
1.0
 40
1.0
 40
1.0
 40
2.0
 40
2.0
 40
2.0
 40
2.0
 10
141.1052753993848
 20
-151.54324672949
 30
0.0
 10
141.1052753993848
 20
-151.54324672949
 30
0.0
 10
141.0835795666049
 20
-151.0299550629517
 30
0.0
 10
141.9172639897803
 20
-151.0731703407185
 30
0.0
 10
141.9172639897803
 20
-151.0731703407185
 30
0.0
 10
142.4085423105801
 20
-151.1369172851466
 30
0.0
 10
142.3230995349822
 20
-151.5219036739393
 30
0.0
  0
SPLINE
  5
A9
330
79
100
AcDbEntity
  8
レイヤー 1
 62
   250
420
  2299925
370
     9
100
AcDbSpline
210
0.0
220
0.0
230
1.0
 70
     9
 71
     3
 72
    17
 73
    13
 74
     0
 42
0.0000000001
 43
0.0000000001
 40
0.0
 40
0.0
 40
0.0
 40
0.0
 40
1.0
 40
1.0
 40
1.0
 40
2.0
 40
2.0
 40
2.0
 40
3.0
 40
3.0
 40
3.0
 40
4.0
 40
4.0
 40
4.0
 40
4.0
 10
144.9107244689664
 20
-151.5966572850325
 30
0.0
 10
144.9107244689664
 20
-151.8328067294175
 30
0.0
 10
144.5803480885061
 20
-152.0241886738139
 30
0.0
 10
144.1741641219738
 20
-152.0241886738139
 30
0.0
 10
143.7669483870354
 20
-152.0241886738139
 30
0.0
 10
143.4362192288064
 20
-151.8328067294175
 30
0.0
 10
143.4362192288064
 20
-151.5966572850325
 30
0.0
 10
143.4362192288064
 20
-151.3606842295357
 30
0.0
 10
143.7669483870354
 20
-151.1689495073615
 30
0.0
 10
144.1741641219738
 20
-151.1689495073615
 30
0.0
 10
144.5803480885061
 20
-151.1689495073615
 30
0.0
 10
144.9107244689664
 20
-151.3606842295357
 30
0.0
 10
144.9107244689664
 20
-151.5966572850325
 30
0.0
  0
SPLINE
  5
AA
330
79
100
AcDbEntity
  8
レイヤー 1
 62
   250
420
  2299925
370
     9
100
AcDbSpline
210
0.0
220
0.0
230
1.0
 70
     8
 71
     3
 72
    11
 73
     7
 74
     0
 42
0.0000000001
 43
0.0000000001
 40
0.0
 40
0.0
 40
0.0
 40
0.0
 40
1.0
 40
1.0
 40
1.0
 40
2.0
 40
2.0
 40
2.0
 40
2.0
 10
143.5647361699721
 20
-151.8314308960846
 30
0.0
 10
143.5647361699721
 20
-151.8314308960846
 30
0.0
 10
143.5433578371841
 20
-151.3179628406574
 30
0.0
 10
144.3760544826069
 20
-151.3613545073131
 30
0.0
 10
144.3760544826069
 20
-151.3613545073131
 30
0.0
 10
144.8680030811674
 20
-151.4252778406301
 30
0.0
 10
144.7829130833382
 20
-151.8104406183122
 30
0.0
  0
SPLINE
  5
AB
330
79
100
AcDbEntity
  8
レイヤー 1
 62
   250
420
  2299925
370
     9
100
AcDbSpline
210
0.0
220
0.0
230
1.0
 70
     9
 71
     3
 72
    17
 73
    13
 74
     0
 42
0.0000000001
 43
0.0000000001
 40
0.0
 40
0.0
 40
0.0
 40
0.0
 40
1.0
 40
1.0
 40
1.0
 40
2.0
 40
2.0
 40
2.0
 40
3.0
 40
3.0
 40
3.0
 40
4.0
 40
4.0
 40
4.0
 40
4.0
 10
144.9107244689664
 20
-152.9195739513684
 30
0.0
 10
144.9107244689664
 20
-153.1560761735311
 30
0.0
 10
144.5803480885061
 20
-153.3471053401498
 30
0.0
 10
144.1741641219738
 20
-153.3471053401498
 30
0.0
 10
143.7669483870354
 20
-153.3471053401498
 30
0.0
 10
143.4362192288064
 20
-153.1560761735311
 30
0.0
 10
143.4362192288064
 20
-152.9195739513684
 30
0.0
 10
143.4362192288064
 20
-152.6836008958716
 30
0.0
 10
143.7669483870354
 20
-152.4923953403634
 30
0.0
 10
144.1741641219738
 20
-152.4923953403634
 30
0.0
 10
144.5803480885061
 20
-152.4923953403634
 30
0.0
 10
144.9107244689664
 20
-152.6836008958716
 30
0.0
 10
144.9107244689664
 20
-152.9195739513684
 30
0.0
  0
SPLINE
  5
AC
330
79
100
AcDbEntity
  8
レイヤー 1
 62
   250
420
  2299925
370
     9
100
AcDbSpline
210
0.0
220
0.0
230
1.0
 70
     8
 71
     3
 72
    11
 73
     7
 74
     0
 42
0.0000000001
 43
0.0000000001
 40
0.0
 40
0.0
 40
0.0
 40
0.0
 40
1.0
 40
1.0
 40
1.0
 40
2.0
 40
2.0
 40
2.0
 40
2.0
 10
143.5647361699721
 20
-153.1547003401983
 30
0.0
 10
143.5647361699721
 20
-153.1547003401983
 30
0.0
 10
143.5433578371841
 20
-152.6412322847711
 30
0.0
 10
144.3760544826069
 20
-152.6846239514267
 30
0.0
 10
144.3760544826069
 20
-152.6846239514267
 30
0.0
 10
144.8680030811674
 20
-152.7486883958552
 30
0.0
 10
144.7829130833382
 20
-153.1335336735364
 30
0.0
  0
SPLINE
  5
AD
330
79
100
AcDbEntity
  8
レイヤー 1
 62
   250
420
  2299925
370
     9
100
AcDbSpline
210
0.0
220
0.0
230
1.0
 70
     9
 71
     3
 72
    17
 73
    13
 74
     0
 42
0.0000000001
 43
0.0000000001
 40
0.0
 40
0.0
 40
0.0
 40
0.0
 40
1.0
 40
1.0
 40
1.0
 40
2.0
 40
2.0
 40
2.0
 40
3.0
 40
3.0
 40
3.0
 40
4.0
 40
4.0
 40
4.0
 40
4.0
 10
144.9107244689664
 20
-150.3751995075599
 30
0.0
 10
144.9107244689664
 20
-150.6113489519449
 30
0.0
 10
144.5803480885061
 20
-150.8025545074531
 30
0.0
 10
144.1741641219738
 20
-150.8025545074531
 30
0.0
 10
143.7669483870354
 20
-150.8025545074531
 30
0.0
 10
143.4362192288064
 20
-150.6113489519449
 30
0.0
 10
143.4362192288064
 20
-150.3751995075599
 30
0.0
 10
143.4362192288064
 20
-150.1392264520632
 30
0.0
 10
143.7669483870354
 20
-149.9478445076667
 30
0.0
 10
144.1741641219738
 20
-149.9478445076667
 30
0.0
 10
144.5803480885061
 20
-149.9478445076667
 30
0.0
 10
144.9107244689664
 20
-150.1392264520632
 30
0.0
 10
144.9107244689664
 20
-150.3751995075599
 30
0.0
  0
SPLINE
  5
AE
330
79
100
AcDbEntity
  8
レイヤー 1
 62
   250
420
  2299925
370
     9
100
AcDbSpline
210
0.0
220
0.0
230
1.0
 70
     8
 71
     3
 72
    11
 73
     7
 74
     0
 42
0.0000000001
 43
0.0000000001
 40
0.0
 40
0.0
 40
0.0
 40
0.0
 40
1.0
 40
1.0
 40
1.0
 40
2.0
 40
2.0
 40
2.0
 40
2.0
 10
143.5647361699721
 20
-150.6103258963898
 30
0.0
 10
143.5647361699721
 20
-150.6103258963898
 30
0.0
 10
143.5433578371841
 20
-150.0971753409622
 30
0.0
 10
144.3760544826069
 20
-150.1402495076183
 30
0.0
 10
144.3760544826069
 20
-150.1402495076183
 30
0.0
 10
144.8680030811674
 20
-150.2043139520467
 30
0.0
 10
144.7829130833382
 20
-150.5891592297279
 30
0.0
  0
SPLINE
  5
AF
330
79
100
AcDbEntity
  8
レイヤー 1
 62
   250
420
  2299925
370
     9
100
AcDbSpline
210
0.0
220
0.0
230
1.0
 70
     9
 71
     3
 72
    17
 73
    13
 74
     0
 42
0.0000000001
 43
0.0000000001
 40
0.0
 40
0.0
 40
0.0
 40
0.0
 40
1.0
 40
1.0
 40
1.0
 40
2.0
 40
2.0
 40
2.0
 40
3.0
 40
3.0
 40
3.0
 40
4.0
 40
4.0
 40
4.0
 40
4.0
 10
147.2857655194851
 20
-152.1392647848961
 30
0.0
 10
147.2857655194851
 20
-152.3755906181706
 30
0.0
 10
146.9546835834873
 20
-152.5667961736788
 30
0.0
 10
146.5485305382936
 20
-152.5667961736788
 30
0.0
 10
146.1409663820247
 20
-152.5667961736788
 30
0.0
 10
145.8112602793251
 20
-152.3755906181706
 30
0.0
 10
145.8112602793251
 20
-152.1392647848961
 30
0.0
 10
145.8112602793251
 20
-151.9031153405111
 30
0.0
 10
146.1409663820247
 20
-151.7120861738924
 30
0.0
 10
146.5485305382936
 20
-151.7120861738924
 30
0.0
 10
146.9546835834873
 20
-151.7120861738924
 30
0.0
 10
147.2857655194851
 20
-151.9031153405111
 30
0.0
 10
147.2857655194851
 20
-152.1392647848961
 30
0.0
  0
SPLINE
  5
B0
330
79
100
AcDbEntity
  8
レイヤー 1
 62
   250
420
  2299925
370
     9
100
AcDbSpline
210
0.0
220
0.0
230
1.0
 70
     8
 71
     3
 72
    11
 73
     7
 74
     0
 42
0.0000000001
 43
0.0000000001
 40
0.0
 40
0.0
 40
0.0
 40
0.0
 40
1.0
 40
1.0
 40
1.0
 40
2.0
 40
2.0
 40
2.0
 40
2.0
 10
145.9394244427221
 20
-152.3742147848377
 30
0.0
 10
145.9394244427221
 20
-152.3742147848377
 30
0.0
 10
145.9177286099422
 20
-151.8608878405219
 30
0.0
 10
146.7514483108945
 20
-151.9043147849551
 30
0.0
 10
146.7514483108945
 20
-151.9043147849551
 30
0.0
 10
147.2427266316943
 20
-151.9682028404946
 30
0.0
 10
147.1569310783275
 20
-152.3530481181759
 30
0.0
  0
SPLINE
  5
B1
330
79
100
AcDbEntity
  8
レイヤー 1
 62
   250
420
  2299925
370
     9
100
AcDbSpline
210
0.0
220
0.0
230
1.0
 70
     9
 71
     3
 72
    17
 73
    13
 74
     0
 42
0.0000000001
 43
0.0000000001
 40
0.0
 40
0.0
 40
0.0
 40
0.0
 40
1.0
 40
1.0
 40
1.0
 40
2.0
 40
2.0
 40
2.0
 40
3.0
 40
3.0
 40
3.0
 40
4.0
 40
4.0
 40
4.0
 40
4.0
 10
147.2857655194851
 20
-150.9183361740908
 30
0.0
 10
147.2857655194851
 20
-151.1539564518098
 30
0.0
 10
146.9546835834873
 20
-151.3455147850945
 30
0.0
 10
146.5485305382936
 20
-151.3455147850945
 30
0.0
 10
146.1409663820247
 20
-151.3455147850945
 30
0.0
 10
145.8112602793251
 20
-151.1539564518098
 30
0.0
 10
145.8112602793251
 20
-150.9183361740908
 30
0.0
 10
145.8112602793251
 20
-150.6821514519277
 30
0.0
 10
146.1409663820247
 20
-150.490452007531
 30
0.0
 10
146.5485305382936
 20
-150.490452007531
 30
0.0
 10
146.9546835834873
 20
-150.490452007531
 30
0.0
 10
147.2857655194851
 20
-150.6821514519277
 30
0.0
 10
147.2857655194851
 20
-150.9183361740908
 30
0.0
  0
SPLINE
  5
B2
330
79
100
AcDbEntity
  8
レイヤー 1
 62
   250
420
  2299925
370
     9
100
AcDbSpline
210
0.0
220
0.0
230
1.0
 70
     8
 71
     3
 72
    11
 73
     7
 74
     0
 42
0.0000000001
 43
0.0000000001
 40
0.0
 40
0.0
 40
0.0
 40
0.0
 40
1.0
 40
1.0
 40
1.0
 40
2.0
 40
2.0
 40
2.0
 40
2.0
 10
145.9394244427221
 20
-151.1529333962541
 30
0.0
 10
145.9394244427221
 20
-151.1529333962541
 30
0.0
 10
145.9177286099422
 20
-150.6396064519376
 30
0.0
 10
146.7514483108945
 20
-150.6830333963714
 30
0.0
 10
146.7514483108945
 20
-150.6830333963714
 30
0.0
 10
147.2427266316943
 20
-150.7467450630221
 30
0.0
 10
147.1569310783275
 20
-151.1317314518147
 30
0.0
  0
ENDBLK
  5
7C
330
79
100
AcDbEntity
  8
0
100
AcDbBlockEnd
  0
BLOCK
  5
B5
330
B3
100
AcDbEntity
  8
0
100
AcDbBlockBegin
  2
Block_1
 70
     0
 10
0.0
 20
0.0
 30
0.0
  3
Block_1
  1

  0
LINE
  5
B7
330
B3
100
AcDbEntity
  8
レイヤー 1
  6
AI-Linetype-0
 62
   154
420
    23468
370
    25
100
AcDbLine
 10
65.76104565490926
 20
-148.1791225636643
 30
0.0
 11
75.76113123311917
 21
-148.1791225636643
 31
0.0
  0
LINE
  5
B9
330
B3
100
AcDbEntity
  8
レイヤー 1
  6
AI-Linetype-1
 62
   154
420
    23468
370
    25
100
AcDbLine
 10
106.2637626240771
 20
-148.1791225636643
 30
0.0
 11
116.763734300645
 21
-148.1791225636643
 31
0.0
  0
LINE
  5
BB
330
B3
100
AcDbEntity
  8
レイヤー 1
 62
   250
420
  2299925
370
    25
100
AcDbLine
 10
96.76183456097295
 20
-152.4282956181575
 30
0.0
 11
85.76188708908974
 21
-152.4282956181575
 31
0.0
  0
LINE
  5
BC
330
B3
100
AcDbEntity
  8
レイヤー 1
 62
   250
420
  2299925
370
    25
100
AcDbLine
 10
65.76104565490926
 20
-146.927855063977
 30
0.0
 11
65.76104565490926
 21
-147.4280939527407
 31
0.0
  0
LINE
  5
BD
330
B3
100
AcDbEntity
  8
レイヤー 1
 62
   250
420
  2299925
370
    25
100
AcDbLine
 10
85.76188708908974
 20
-147.4280939527407
 30
0.0
 11
65.76104565490926
 21
-147.4280939527407
 31
0.0
  0
LINE
  5
BE
330
B3
100
AcDbEntity
  8
レイヤー 1
 62
   250
420
  2299925
370
    25
100
AcDbLine
 10
65.76104565490926
 20
-146.927855063977
 30
0.0
 11
66.27504286401833
 21
-147.3102661749924
 31
0.0
  0
LINE
  5
BF
330
B3
100
AcDbEntity
  8
レイヤー 1
 62
   250
420
  2299925
370
    25
100
AcDbLine
 10
66.27504286401833
 20
-147.3102661749924
 30
0.0
 11
66.76011229608795
 21
-146.8927183973196
 31
0.0
  0
LINE
  5
C0
330
B3
100
AcDbEntity
  8
レイヤー 1
 62
   250
420
  2299925
370
    25
100
AcDbLine
 10
67.27410950519669
 20
-147.2744592305571
 30
0.0
 11
67.75988449280354
 21
-146.8569114528836
 31
0.0
  0
LINE
  5
C1
330
B3
100
AcDbEntity
  8
レイヤー 1
 62
   250
420
  2299925
370
    25
100
AcDbLine
 10
66.76011229608795
 20
-146.8927183973196
 30
0.0
 11
67.27410950519669
 21
-147.2744592305571
 31
0.0
  0
LINE
  5
C2
330
B3
100
AcDbEntity
  8
レイヤー 1
 62
   250
420
  2299925
370
    25
100
AcDbLine
 10
67.75988449280354
 20
-146.8569114528836
 30
0.0
 11
68.2738817019126
 21
-147.2386170083438
 31
0.0
  0
LINE
  5
C3
330
B3
100
AcDbEntity
  8
レイヤー 1
 62
   250
420
  2299925
370
    25
100
AcDbLine
 10
68.2738817019126
 20
-147.2386170083438
 30
0.0
 11
68.7589511339819
 21
-146.8210692306703
 31
0.0
  0
LINE
  5
C4
330
B3
100
AcDbEntity
  8
レイヤー 1
 62
   250
420
  2299925
370
    25
100
AcDbLine
 10
68.7589511339819
 20
-146.8210692306703
 30
0.0
 11
69.27294834309094
 21
-147.2027747861306
 31
0.0
  0
LINE
  5
C5
330
B3
100
AcDbEntity
  8
レイヤー 1
 62
   250
420
  2299925
370
    25
100
AcDbLine
 10
69.27294834309094
 20
-147.2027747861306
 30
0.0
 11
69.75801777516024
 21
-146.7852270084571
 31
0.0
  0
LINE
  5
C6
330
B3
100
AcDbEntity
  8
レイヤー 1
 62
   250
420
  2299925
370
    25
100
AcDbLine
 10
69.75801777516024
 20
-146.7852270084571
 30
0.0
 11
70.27205026204618
 21
-147.1669678416948
 31
0.0
  0
LINE
  5
C7
330
B3
100
AcDbEntity
  8
レイヤー 1
 62
   250
420
  2299925
370
    25
100
AcDbLine
 10
70.27205026204618
 20
-147.1669678416948
 30
0.0
 11
70.75778997187615
 21
-146.7494200640216
 31
0.0
  0
LINE
  5
C8
330
B3
100
AcDbEntity
  8
レイヤー 1
 62
   250
420
  2299925
370
    25
100
AcDbLine
 10
70.75778997187615
 20
-146.7494200640216
 30
0.0
 11
71.27182245876209
 21
-147.1318311750371
 31
0.0
  0
LINE
  5
C9
330
B3
100
AcDbEntity
  8
レイヤー 1
 62
   250
420
  2299925
370
    25
100
AcDbLine
 10
71.27182245876209
 20
-147.1318311750371
 30
0.0
 11
71.75689189083169
 21
-146.7142833973639
 31
0.0
  0
LINE
  5
CA
330
B3
100
AcDbEntity
  8
レイヤー 1
 62
   250
420
  2299925
370
    25
100
AcDbLine
 10
71.75689189083169
 20
-146.7142833973639
 30
0.0
 11
72.27088909994044
 21
-147.0959889528239
 31
0.0
  0
LINE
  5
CB
330
B3
100
AcDbEntity
  8
レイヤー 1
 62
   250
420
  2299925
370
    25
100
AcDbLine
 10
72.27088909994044
 20
-147.0959889528239
 30
0.0
 11
72.75662880977042
 21
-146.6784411751504
 31
0.0
  0
LINE
  5
CC
330
B3
100
AcDbEntity
  8
レイヤー 1
 62
   250
420
  2299925
370
    25
100
AcDbLine
 10
73.27066129665666
 20
-147.0601467306106
 30
0.0
 11
73.75573072872564
 21
-146.6425989529371
 31
0.0
  0
LINE
  5
CD
330
B3
100
AcDbEntity
  8
レイヤー 1
 62
   250
420
  2299925
370
    25
100
AcDbLine
 10
72.75662880977042
 20
-146.6784411751504
 30
0.0
 11
73.27066129665666
 21
-147.0601467306106
 31
0.0
  0
LINE
  5
CE
330
B3
100
AcDbEntity
  8
レイヤー 1
 62
   250
420
  2299925
370
    25
100
AcDbLine
 10
73.75573072872564
 20
-146.6425989529371
 30
0.0
 11
74.2697279378347
 21
-147.0243397861752
 31
0.0
  0
LINE
  5
CF
330
B3
100
AcDbEntity
  8
レイヤー 1
 62
   250
420
  2299925
370
    25
100
AcDbLine
 10
74.2697279378347
 20
-147.0243397861752
 30
0.0
 11
74.75550292544155
 21
-146.6067920085017
 31
0.0
  0
LINE
  5
D0
330
B3
100
AcDbEntity
  8
レイヤー 1
 62
   250
420
  2299925
370
    25
100
AcDbLine
 10
75.26879457901306
 20
-146.9884975639619
 30
0.0
 11
75.75456956661991
 21
-146.5709497862885
 31
0.0
  0
LINE
  5
D1
330
B3
100
AcDbEntity
  8
レイヤー 1
 62
   250
420
  2299925
370
    25
100
AcDbLine
 10
74.75550292544155
 20
-146.6067920085017
 30
0.0
 11
75.26879457901306
 21
-146.9884975639619
 31
0.0
  0
LINE
  5
D2
330
B3
100
AcDbEntity
  8
レイヤー 1
 62
   250
420
  2299925
370
    25
100
AcDbLine
 10
76.26856677572897
 20
-146.9533608973039
 30
0.0
 11
76.75363620779858
 21
-146.5358131196311
 31
0.0
  0
LINE
  5
D3
330
B3
100
AcDbEntity
  8
レイヤー 1
 62
   250
420
  2299925
370
    25
100
AcDbLine
 10
75.75456956661991
 20
-146.5709497862885
 30
0.0
 11
76.26856677572897
 21
-146.9533608973039
 31
0.0
  0
LINE
  5
D4
330
B3
100
AcDbEntity
  8
レイヤー 1
 62
   250
420
  2299925
370
    25
100
AcDbLine
 10
76.75363620779858
 20
-146.5358131196311
 30
0.0
 11
77.26766869468419
 21
-146.9175186750907
 31
0.0
  0
LINE
  5
D5
330
B3
100
AcDbEntity
  8
レイヤー 1
 62
   250
420
  2299925
370
    25
100
AcDbLine
 10
77.26766869468419
 20
-146.9175186750907
 30
0.0
 11
77.75340840451416
 21
-146.500006175195
 31
0.0
  0
LINE
  5
D6
330
B3
100
AcDbEntity
  8
レイヤー 1
 62
   250
420
  2299925
370
    25
100
AcDbLine
 10
77.75340840451416
 20
-146.500006175195
 30
0.0
 11
78.26740561362322
 21
-146.8817117306552
 31
0.0
  0
LINE
  5
D7
330
B3
100
AcDbEntity
  8
レイヤー 1
 62
   250
420
  2299925
370
    25
100
AcDbLine
 10
78.26740561362322
 20
-146.8817117306552
 30
0.0
 11
78.75247504569252
 21
-146.4641639529818
 31
0.0
  0
LINE
  5
D8
330
B3
100
AcDbEntity
  8
レイヤー 1
 62
   250
420
  2299925
370
    25
100
AcDbLine
 10
78.75247504569252
 20
-146.4641639529818
 30
0.0
 11
79.26650753257845
 21
-146.845869508442
 31
0.0
  0
LINE
  5
D9
330
B3
100
AcDbEntity
  8
レイヤー 1
 62
   250
420
  2299925
370
    25
100
AcDbLine
 10
79.26650753257845
 20
-146.845869508442
 30
0.0
 11
79.7522472424081
 21
-146.4283217307685
 31
0.0
  0
LINE
  5
DA
330
B3
100
AcDbEntity
  8
レイヤー 1
 62
   250
420
  2299925
370
    25
100
AcDbLine
 10
79.7522472424081
 20
-146.4283217307685
 30
0.0
 11
80.26627972929437
 21
-146.8100625640066
 31
0.0
  0
LINE
  5
DB
330
B3
100
AcDbEntity
  8
レイヤー 1
 62
   250
420
  2299925
370
    25
100
AcDbLine
 10
80.26627972929437
 20
-146.8100625640066
 30
0.0
 11
80.75134916136367
 21
-146.3925147863331
 31
0.0
  0
LINE
  5
DC
330
B3
100
AcDbEntity
  8
レイヤー 1
 62
   250
420
  2299925
370
    25
100
AcDbLine
 10
80.75134916136367
 20
-146.3925147863331
 30
0.0
 11
81.26534637047273
 21
-146.7748906195707
 31
0.0
  0
LINE
  5
DD
330
B3
100
AcDbEntity
  8
レイヤー 1
 62
   250
420
  2299925
370
    25
100
AcDbLine
 10
81.26534637047273
 20
-146.7748906195707
 30
0.0
 11
81.750415802542
 21
-146.3573781196754
 31
0.0
  0
LINE
  5
DE
330
B3
100
AcDbEntity
  8
レイヤー 1
 62
   250
420
  2299925
370
    25
100
AcDbLine
 10
81.750415802542
 20
-146.3573781196754
 30
0.0
 11
82.26441301165108
 21
-146.7390836751353
 31
0.0
  0
LINE
  5
DF
330
B3
100
AcDbEntity
  8
レイヤー 1
 62
   250
420
  2299925
370
    25
100
AcDbLine
 10
82.26441301165108
 20
-146.7390836751353
 30
0.0
 11
82.75018799925792
 21
-146.3215358974621
 31
0.0
  0
LINE
  5
E0
330
B3
100
AcDbEntity
  8
レイヤー 1
 62
   250
420
  2299925
370
    25
100
AcDbLine
 10
82.75018799925792
 20
-146.3215358974621
 30
0.0
 11
83.2641852083673
 21
-146.7032414529221
 31
0.0
  0
LINE
  5
E1
330
B3
100
AcDbEntity
  8
レイヤー 1
 62
   250
420
  2299925
370
    25
100
AcDbLine
 10
83.2641852083673
 20
-146.7032414529221
 30
0.0
 11
83.74925464043627
 21
-146.2856936752489
 31
0.0
  0
LINE
  5
E2
330
B3
100
AcDbEntity
  8
レイヤー 1
 62
   250
420
  2299925
370
    25
100
AcDbLine
 10
83.74925464043627
 20
-146.2856936752489
 30
0.0
 11
84.26325184954533
 21
-146.6674345084866
 31
0.0
  0
LINE
  5
E3
330
B3
100
AcDbEntity
  8
レイヤー 1
 62
   250
420
  2299925
370
    25
100
AcDbLine
 10
84.26325184954533
 20
-146.6674345084866
 30
0.0
 11
84.74832128161462
 21
-146.2498867308131
 31
0.0
  0
LINE
  5
E4
330
B3
100
AcDbEntity
  8
レイヤー 1
 62
   250
420
  2299925
370
    25
100
AcDbLine
 10
84.74832128161462
 20
-146.2498867308131
 30
0.0
 11
85.26235376850056
 21
-146.6315922862734
 31
0.0
  0
LINE
  5
E5
330
B3
100
AcDbEntity
  8
レイヤー 1
 62
   250
420
  2299925
370
    25
100
AcDbLine
 10
85.26235376850056
 20
-146.6315922862734
 30
0.0
 11
85.74809347833053
 21
-146.2140445085999
 31
0.0
  0
LINE
  5
E6
330
B3
100
AcDbEntity
  8
レイヤー 1
 62
   250
420
  2299925
370
    25
100
AcDbLine
 10
85.82212596532542
 20
-146.1658197863897
 30
0.0
 11
86.76232956356633
 21
-146.1658197863897
 31
0.0
  0
LINE
  5
E7
330
B3
100
AcDbEntity
  8
レイヤー 1
 62
   250
420
  2299925
370
    25
100
AcDbLine
 10
86.76232956356633
 20
-146.1658197863897
 30
0.0
 11
86.76232956356633
 21
-151.4278531184076
 31
0.0
  0
LINE
  5
E8
330
B3
100
AcDbEntity
  8
レイヤー 1
 62
   250
420
  2299925
370
    25
100
AcDbLine
 10
85.76188708908974
 20
-147.4280939527407
 30
0.0
 11
85.76188708908974
 21
-152.4282956181575
 31
0.0
  0
LINE
  5
E9
330
B3
100
AcDbEntity
  8
レイヤー 1
 62
   250
420
  2299925
370
    25
100
AcDbLine
 10
95.76206236425703
 20
-151.4278531184076
 30
0.0
 11
86.76232956356633
 21
-151.4278531184076
 31
0.0
  0
LINE
  5
EA
330
B3
100
AcDbEntity
  8
レイヤー 1
 62
   250
420
  2299925
370
    25
100
AcDbLine
 10
106.7698223333887
 20
-146.5709497862885
 30
0.0
 11
106.2558251242796
 21
-146.9533608973039
 31
0.0
  0
LINE
  5
EB
330
B3
100
AcDbEntity
  8
レイヤー 1
 62
   250
420
  2299925
370
    25
100
AcDbLine
 10
111.7666019281324
 20
-146.7494200640216
 30
0.0
 11
111.2526047190234
 21
-147.1318311750371
 31
0.0
  0
LINE
  5
EC
330
B3
100
AcDbEntity
  8
レイヤー 1
 62
   250
420
  2299925
370
    25
100
AcDbLine
 10
107.254891765458
 20
-146.9884975639619
 30
0.0
 11
106.7698223333887
 21
-146.5709497862885
 31
0.0
  0
LINE
  5
ED
330
B3
100
AcDbEntity
  8
レイヤー 1
 62
   250
420
  2299925
370
    25
100
AcDbLine
 10
108.2546639621739
 20
-147.0243397861752
 30
0.0
 11
107.7689242523439
 21
-146.6067920085017
 31
0.0
  0
LINE
  5
EE
330
B3
100
AcDbEntity
  8
レイヤー 1
 62
   250
420
  2299925
370
    25
100
AcDbLine
 10
106.2558251242796
 20
-146.9533608973039
 30
0.0
 11
105.7700854144496
 21
-146.5358131196311
 31
0.0
  0
LINE
  5
EF
330
B3
100
AcDbEntity
  8
レイヤー 1
 62
   250
420
  2299925
370
    25
100
AcDbLine
 10
107.7689242523439
 20
-146.6067920085017
 30
0.0
 11
107.254891765458
 21
-146.9884975639619
 31
0.0
  0
LINE
  5
F0
330
B3
100
AcDbEntity
  8
レイヤー 1
 62
   250
420
  2299925
370
    25
100
AcDbLine
 10
115.7642796039209
 20
-146.8927183973196
 30
0.0
 11
115.2502823948119
 21
-147.2744592305571
 31
0.0
  0
LINE
  5
F1
330
B3
100
AcDbEntity
  8
レイヤー 1
 62
   250
420
  2299925
370
    25
100
AcDbLine
 10
108.7686964490598
 20
-146.6425989529371
 30
0.0
 11
108.2546639621739
 21
-147.0243397861752
 31
0.0
  0
LINE
  5
F2
330
B3
100
AcDbEntity
  8
レイヤー 1
 62
   250
420
  2299925
370
    25
100
AcDbLine
 10
109.7677630902381
 20
-146.6784411751504
 30
0.0
 11
109.2537658811291
 21
-147.0601467306106
 31
0.0
  0
LINE
  5
F3
330
B3
100
AcDbEntity
  8
レイヤー 1
 62
   250
420
  2299925
370
    25
100
AcDbLine
 10
95.76206233644194
 20
-146.1658197863897
 30
0.0
 11
95.76206233644194
 21
-151.4278531184076
 31
0.0
  0
LINE
  5
F4
330
B3
100
AcDbEntity
  8
レイヤー 1
 62
   250
420
  2299925
370
    25
100
AcDbLine
 10
109.2537658811291
 20
-147.0601467306106
 30
0.0
 11
108.7686964490598
 21
-146.6425989529371
 31
0.0
  0
LINE
  5
F5
330
B3
100
AcDbEntity
  8
レイヤー 1
 62
   250
420
  2299925
370
    25
100
AcDbLine
 10
110.2535028000681
 20
-147.0959889528239
 30
0.0
 11
109.7677630902381
 21
-146.6784411751504
 31
0.0
  0
LINE
  5
F6
330
B3
100
AcDbEntity
  8
レイヤー 1
 62
   250
420
  2299925
370
    25
100
AcDbLine
 10
115.2502823948119
 20
-147.2744592305571
 30
0.0
 11
114.7645426849819
 21
-146.8569114528836
 31
0.0
  0
LINE
  5
F7
330
B3
100
AcDbEntity
  8
レイヤー 1
 62
   250
420
  2299925
370
    25
100
AcDbLine
 10
110.7668297314165
 20
-146.7142833973639
 30
0.0
 11
110.2535028000681
 21
-147.0959889528239
 31
0.0
  0
LINE
  5
F8
330
B3
100
AcDbEntity
  8
レイヤー 1
 62
   250
420
  2299925
370
    25
100
AcDbLine
 10
111.2526047190234
 20
-147.1318311750371
 30
0.0
 11
110.7668297314165
 21
-146.7142833973639
 31
0.0
  0
LINE
  5
F9
330
B3
100
AcDbEntity
  8
レイヤー 1
 62
   250
420
  2299925
370
    25
100
AcDbLine
 10
116.2493490359902
 20
-147.3102661749924
 30
0.0
 11
115.7642796039209
 21
-146.8927183973196
 31
0.0
  0
LINE
  5
FA
330
B3
100
AcDbEntity
  8
レイヤー 1
 62
   250
420
  2299925
370
    25
100
AcDbLine
 10
112.7656685693108
 20
-146.7852270084571
 30
0.0
 11
112.2516713602017
 21
-147.1669678416948
 31
0.0
  0
LINE
  5
FB
330
B3
100
AcDbEntity
  8
レイヤー 1
 62
   250
420
  2299925
370
    25
100
AcDbLine
 10
113.7654407660267
 20
-146.8210692306703
 30
0.0
 11
113.2514435569176
 21
-147.2027747861306
 31
0.0
  0
LINE
  5
FC
330
B3
100
AcDbEntity
  8
レイヤー 1
 62
   250
420
  2299925
370
    25
100
AcDbLine
 10
113.2514435569176
 20
-147.2027747861306
 30
0.0
 11
112.7656685693108
 21
-146.7852270084571
 31
0.0
  0
LINE
  5
FD
330
B3
100
AcDbEntity
  8
レイヤー 1
 62
   250
420
  2299925
370
    25
100
AcDbLine
 10
116.7633815228762
 20
-146.927855063977
 30
0.0
 11
116.2493490359902
 21
-147.3102661749924
 31
0.0
  0
LINE
  5
FE
330
B3
100
AcDbEntity
  8
レイヤー 1
 62
   250
420
  2299925
370
    25
100
AcDbLine
 10
112.2516713602017
 20
-147.1669678416948
 30
0.0
 11
111.7666019281324
 21
-146.7494200640216
 31
0.0
  0
LINE
  5
FF
330
B3
100
AcDbEntity
  8
レイヤー 1
 62
   250
420
  2299925
370
    25
100
AcDbLine
 10
114.7645426849819
 20
-146.8569114528836
 30
0.0
 11
114.250510198096
 21
-147.2386170083438
 31
0.0
  0
LINE
  5
100
330
B3
100
AcDbEntity
  8
レイヤー 1
 62
   250
420
  2299925
370
    25
100
AcDbLine
 10
114.250510198096
 20
-147.2386170083438
 30
0.0
 11
113.7654407660267
 21
-146.8210692306703
 31
0.0
  0
LINE
  5
101
330
B3
100
AcDbEntity
  8
レイヤー 1
 62
   250
420
  2299925
370
    25
100
AcDbLine
 10
116.7633815228762
 20
-146.927855063977
 30
0.0
 11
116.7633815228762
 21
-147.4280939527407
 31
0.0
  0
LINE
  5
102
330
B3
100
AcDbEntity
  8
レイヤー 1
 62
   250
420
  2299925
370
    25
100
AcDbLine
 10
96.76183453315786
 20
-147.4280939527407
 30
0.0
 11
116.7633815228762
 21
-147.4280939527407
 31
0.0
  0
LINE
  5
103
330
B3
100
AcDbEntity
  8
レイヤー 1
 62
   250
420
  2299925
370
    25
100
AcDbLine
 10
105.7700854144496
 20
-146.5358131196311
 30
0.0
 11
105.2560529275634
 21
-146.9175186750907
 31
0.0
  0
LINE
  5
104
330
B3
100
AcDbEntity
  8
レイヤー 1
 62
   250
420
  2299925
370
    25
100
AcDbLine
 10
105.2560529275634
 20
-146.9175186750907
 30
0.0
 11
104.7709834954941
 21
-146.500006175195
 31
0.0
  0
LINE
  5
105
330
B3
100
AcDbEntity
  8
レイヤー 1
 62
   250
420
  2299925
370
    25
100
AcDbLine
 10
104.7709834954941
 20
-146.500006175195
 30
0.0
 11
104.256986286385
 21
-146.8817117306552
 31
0.0
  0
LINE
  5
106
330
B3
100
AcDbEntity
  8
レイヤー 1
 62
   250
420
  2299925
370
    25
100
AcDbLine
 10
104.256986286385
 20
-146.8817117306552
 30
0.0
 11
103.7719168543157
 21
-146.4641639529818
 31
0.0
  0
LINE
  5
107
330
B3
100
AcDbEntity
  8
レイヤー 1
 62
   250
420
  2299925
370
    25
100
AcDbLine
 10
103.7719168543157
 20
-146.4641639529818
 30
0.0
 11
103.2579196452067
 21
-146.845869508442
 31
0.0
  0
LINE
  5
108
330
B3
100
AcDbEntity
  8
レイヤー 1
 62
   250
420
  2299925
370
    25
100
AcDbLine
 10
103.2579196452067
 20
-146.845869508442
 30
0.0
 11
102.7721446575998
 21
-146.4283217307685
 31
0.0
  0
LINE
  5
109
330
B3
100
AcDbEntity
  8
レイヤー 1
 62
   250
420
  2299925
370
    25
100
AcDbLine
 10
102.7721446575998
 20
-146.4283217307685
 30
0.0
 11
102.2581474484908
 21
-146.8100625640066
 31
0.0
  0
LINE
  5
10A
330
B3
100
AcDbEntity
  8
レイヤー 1
 62
   250
420
  2299925
370
    25
100
AcDbLine
 10
102.2581474484908
 20
-146.8100625640066
 30
0.0
 11
101.7730780164215
 21
-146.3925147863331
 31
0.0
  0
LINE
  5
10B
330
B3
100
AcDbEntity
  8
レイヤー 1
 62
   250
420
  2299925
370
    25
100
AcDbLine
 10
101.7730780164215
 20
-146.3925147863331
 30
0.0
 11
101.2590808073124
 21
-146.7748906195707
 31
0.0
  0
LINE
  5
10C
330
B3
100
AcDbEntity
  8
レイヤー 1
 62
   250
420
  2299925
370
    25
100
AcDbLine
 10
101.2590808073124
 20
-146.7748906195707
 30
0.0
 11
100.7733058197056
 21
-146.3573781196754
 31
0.0
  0
LINE
  5
10D
330
B3
100
AcDbEntity
  8
レイヤー 1
 62
   250
420
  2299925
370
    25
100
AcDbLine
 10
100.7733058197056
 20
-146.3573781196754
 30
0.0
 11
100.2593086105965
 21
-146.7390836751353
 31
0.0
  0
LINE
  5
10E
330
B3
100
AcDbEntity
  8
レイヤー 1
 62
   250
420
  2299925
370
    25
100
AcDbLine
 10
100.2593086105965
 20
-146.7390836751353
 30
0.0
 11
99.77423917852755
 21
-146.3215358974621
 31
0.0
  0
LINE
  5
10F
330
B3
100
AcDbEntity
  8
レイヤー 1
 62
   250
420
  2299925
370
    25
100
AcDbLine
 10
99.77423917852755
 20
-146.3215358974621
 30
0.0
 11
99.26020669164129
 21
-146.7032414529221
 31
0.0
  0
LINE
  5
110
330
B3
100
AcDbEntity
  8
レイヤー 1
 62
   250
420
  2299925
370
    25
100
AcDbLine
 10
99.26020669164129
 20
-146.7032414529221
 30
0.0
 11
98.775137259572
 21
-146.2856936752489
 31
0.0
  0
LINE
  5
111
330
B3
100
AcDbEntity
  8
レイヤー 1
 62
   250
420
  2299925
370
    25
100
AcDbLine
 10
98.775137259572
 20
-146.2856936752489
 30
0.0
 11
98.26114005046294
 21
-146.6674345084866
 31
0.0
  0
LINE
  5
112
330
B3
100
AcDbEntity
  8
レイヤー 1
 62
   250
420
  2299925
370
    25
100
AcDbLine
 10
98.26114005046294
 20
-146.6674345084866
 30
0.0
 11
97.77540034063298
 21
-146.2498867308131
 31
0.0
  0
LINE
  5
113
330
B3
100
AcDbEntity
  8
レイヤー 1
 62
   250
420
  2299925
370
    25
100
AcDbLine
 10
97.77540034063298
 20
-146.2498867308131
 30
0.0
 11
97.26136785374704
 21
-146.6315922862734
 31
0.0
  0
LINE
  5
114
330
B3
100
AcDbEntity
  8
レイヤー 1
 62
   250
420
  2299925
370
    25
100
AcDbLine
 10
97.26136785374704
 20
-146.6315922862734
 30
0.0
 11
96.77629842167775
 21
-146.2140445085999
 31
0.0
  0
LINE
  5
115
330
B3
100
AcDbEntity
  8
レイヤー 1
 62
   250
420
  2299925
370
    25
100
AcDbLine
 10
96.70230121245973
 20
-146.1658197863897
 30
0.0
 11
95.76206233644194
 21
-146.1658197863897
 31
0.0
  0
LINE
  5
116
330
B3
100
AcDbEntity
  8
レイヤー 1
 62
   250
420
  2299925
370
    25
100
AcDbLine
 10
96.76183453315786
 20
-147.4280939527407
 30
0.0
 11
96.76183453315786
 21
-152.4282956181575
 31
0.0
  0
CIRCLE
  5
117
330
B3
100
AcDbEntity
  8
レイヤー 1
 62
   250
420
  2299925
370
     9
100
AcDbCircle
 10
65.76104565490926
 20
-142.1660606207233
 30
0.0
 40
0.0999066653798167
  0
CIRCLE
  5
118
330
B3
100
AcDbEntity
  8
レイヤー 1
 62
   250
420
  2299925
370
     9
100
AcDbCircle
 10
63.53138432290379
 20
-146.927855063977
 30
0.0
 40
0.0999066653797365
  0
CIRCLE
  5
119
330
B3
100
AcDbEntity
  8
レイヤー 1
 62
   250
420
  2299925
370
     9
100
AcDbCircle
 10
63.53138432290379
 20
-147.4280939527409
 30
0.0
 40
0.0999066653798167
  0
CIRCLE
  5
11A
330
B3
100
AcDbEntity
  8
レイヤー 1
 62
   250
420
  2299925
370
     9
100
AcDbCircle
 10
63.53138432290379
 20
-152.4282956181575
 30
0.0
 40
0.0999066653797365
  0
SPLINE
  5
11B
330
B3
100
AcDbEntity
  8
レイヤー 1
 62
   250
420
  2299925
370
     9
100
AcDbSpline
210
0.0
220
0.0
230
1.0
 70
     9
 71
     3
 72
    17
 73
    13
 74
     0
 42
0.0000000001
 43
0.0000000001
 40
0.0
 40
0.0
 40
0.0
 40
0.0
 40
1.0
 40
1.0
 40
1.0
 40
2.0
 40
2.0
 40
2.0
 40
3.0
 40
3.0
 40
3.0
 40
4.0
 40
4.0
 40
4.0
 40
4.0
 10
86.86223913630184
 20
-142.1660606207235
 30
0.0
 10
86.86223913630184
 20
-142.1109214540701
 30
0.0
 10
86.81746872882628
 20
-142.0661539540815
 30
0.0
 10
86.76232956356633
 20
-142.0661539540815
 30
0.0
 10
86.70652012054571
 20
-142.0661539540815
 30
0.0
 10
86.66175262168813
 20
-142.1109214540701
 30
0.0
 10
86.66175262168813
 20
-142.1660606207235
 30
0.0
 10
86.66175262168813
 20
-142.2211645095981
 30
0.0
 10
86.70652012054571
 20
-142.2659672873648
 30
0.0
 10
86.76232956356633
 20
-142.2659672873648
 30
0.0
 10
86.81746872882628
 20
-142.2659672873648
 30
0.0
 10
86.86223913630184
 20
-142.2211645095981
 30
0.0
 10
86.86223913630184
 20
-142.1660606207235
 30
0.0
  0
SPLINE
  5
11C
330
B3
100
AcDbEntity
  8
レイヤー 1
 62
   250
420
  2299925
370
     9
100
AcDbSpline
210
0.0
220
0.0
230
1.0
 70
     9
 71
     3
 72
    17
 73
    13
 74
     0
 42
0.0000000001
 43
0.0000000001
 40
0.0
 40
0.0
 40
0.0
 40
0.0
 40
1.0
 40
1.0
 40
1.0
 40
2.0
 40
2.0
 40
2.0
 40
3.0
 40
3.0
 40
3.0
 40
4.0
 40
4.0
 40
4.0
 40
4.0
 10
116.8632918787643
 20
-142.1660606207235
 30
0.0
 10
116.8632918787643
 20
-142.1109214540701
 30
0.0
 10
116.8184891009976
 20
-142.0661539540815
 30
0.0
 10
116.7633815228762
 20
-142.0661539540815
 30
0.0
 10
116.7082423576162
 20
-142.0661539540815
 30
0.0
 10
116.6634748587583
 20
-142.1109214540701
 30
0.0
 10
116.6634748587583
 20
-142.1660606207235
 30
0.0
 10
116.6634748587583
 20
-142.2211645095981
 30
0.0
 10
116.7082423576162
 20
-142.2659672873648
 30
0.0
 10
116.7633815228762
 20
-142.2659672873648
 30
0.0
 10
116.8184891009976
 20
-142.2659672873648
 30
0.0
 10
116.8632918787643
 20
-142.2211645095981
 30
0.0
 10
116.8632918787643
 20
-142.1660606207235
 30
0.0
  0
CIRCLE
  5
11D
330
B3
100
AcDbEntity
  8
レイヤー 1
 62
   250
420
  2299925
370
     9
100
AcDbCircle
 10
95.76206233644187
 20
-142.1660606207233
 30
0.0
 40
0.099906665379937
  0
LINE
  5
11E
330
B3
100
AcDbEntity
  8
レイヤー 1
 62
   250
420
  2299925
370
     9
100
AcDbLine
 10
63.53138432290379
 20
-146.927855063977
 30
0.0
 11
63.53138432290379
 21
-141.6706547875136
 31
0.0
  0
LINE
  5
11F
330
B3
100
AcDbEntity
  8
レイヤー 1
 62
   250
420
  2299925
370
     9
100
AcDbLine
 10
63.53138432290379
 20
-146.927855063977
 30
0.0
 11
63.53138432290379
 21
-147.4280939527407
 31
0.0
  0
LINE
  5
120
330
B3
100
AcDbEntity
  8
レイヤー 1
 62
   250
420
  2299925
370
     9
100
AcDbLine
 10
64.99139039676736
 20
-146.927855063977
 30
0.0
 11
62.53161212618787
 21
-146.927855063977
 31
0.0
  0
LINE
  5
121
330
B3
100
AcDbEntity
  8
レイヤー 1
 62
   250
420
  2299925
370
     9
100
AcDbLine
 10
64.99139039676736
 20
-147.4280939527407
 30
0.0
 11
62.53161212618787
 21
-147.4280939527407
 31
0.0
  0
INSERT
  5
123
330
B3
100
AcDbEntity
  8
レイヤー 1
100
AcDbBlockReference
  2
Block_2
 10
0.0
 20
0.0
 30
0.0
  0
LINE
  5
131
330
B3
100
AcDbEntity
  8
レイヤー 1
 62
   250
420
  2299925
370
     9
100
AcDbLine
 10
65.76104565490926
 20
-142.1660606207235
 30
0.0
 11
86.76232956356633
 21
-142.1660606207235
 31
0.0
  0
LINE
  5
132
330
B3
100
AcDbEntity
  8
レイヤー 1
 62
   250
420
  2299925
370
     9
100
AcDbLine
 10
65.76104565490926
 20
-144.3881372868342
 30
0.0
 11
65.76104565490926
 21
-141.1662883987506
 31
0.0
  0
INSERT
  5
134
330
B3
100
AcDbEntity
  8
レイヤー 1
100
AcDbBlockReference
  2
Block_4
 10
0.0
 20
0.0
 30
0.0
  0
LINE
  5
13F
330
B3
100
AcDbEntity
  8
レイヤー 1
 62
   250
420
  2299925
370
     9
100
AcDbLine
 10
63.53138432290379
 20
-147.4280939527407
 30
0.0
 11
63.53138432290379
 21
-152.4282956181575
 31
0.0
  0
LINE
  5
140
330
B3
100
AcDbEntity
  8
レイヤー 1
 62
   250
420
  2299925
370
     9
100
AcDbLine
 10
84.99293738648507
 20
-152.4282956181575
 30
0.0
 11
62.53161212618787
 21
-152.4282956181575
 31
0.0
  0
INSERT
  5
142
330
B3
100
AcDbEntity
  8
レイヤー 1
100
AcDbBlockReference
  2
Block_6
 10
0.0
 20
0.0
 30
0.0
  0
LINE
  5
147
330
B3
100
AcDbEntity
  8
レイヤー 1
 62
   250
420
  2299925
370
     9
100
AcDbLine
 10
116.7633815228762
 20
-142.1660606207235
 30
0.0
 11
95.76206233644194
 21
-142.1660606207235
 31
0.0
  0
LINE
  5
148
330
B3
100
AcDbEntity
  8
レイヤー 1
 62
   250
420
  2299925
370
     9
100
AcDbLine
 10
116.7633815228762
 20
-144.3881372868342
 30
0.0
 11
116.7633815228762
 21
-141.1662883987506
 31
0.0
  0
INSERT
  5
14A
330
B3
100
AcDbEntity
  8
レイヤー 1
100
AcDbBlockReference
  2
Block_7
 10
0.0
 20
0.0
 30
0.0
  0
LINE
  5
155
330
B3
100
AcDbEntity
  8
レイヤー 1
 62
   250
420
  2299925
370
     9
100
AcDbLine
 10
86.76232956356633
 20
-142.1660606207235
 30
0.0
 11
95.76206236425703
 21
-142.1660606207235
 31
0.0
  0
LINE
  5
156
330
B3
100
AcDbEntity
  8
レイヤー 1
 62
   250
420
  2299925
370
     9
100
AcDbLine
 10
86.76232956356633
 20
-143.6261020092469
 30
0.0
 11
86.76232956356633
 21
-141.1662883987506
 31
0.0
  0
LINE
  5
157
330
B3
100
AcDbEntity
  8
レイヤー 1
 62
   250
420
  2299925
370
     9
100
AcDbLine
 10
95.76206233644194
 20
-143.6261020092469
 30
0.0
 11
95.76206233644194
 21
-141.1662883987506
 31
0.0
  0
INSERT
  5
159
330
B3
100
AcDbEntity
  8
レイヤー 1
100
AcDbBlockReference
  2
Block_9
 10
0.0
 20
0.0
 30
0.0
  0
LINE
  5
15F
330
B3
100
AcDbEntity
  8
レイヤー 1
 62
   250
420
  2299925
370
     9
100
AcDbLine
 10
94.23842323518568
 20
-150.4563383964284
 30
0.0
 11
101.7386116423191
 21
-150.4563383964284
 31
0.0
  0
INSERT
  5
161
330
B3
100
AcDbEntity
  8
レイヤー 1
100
AcDbBlockReference
  2
Block_10
 10
0.0
 20
0.0
 30
0.0
  0
ENDBLK
  5
B6
330
B3
100
AcDbEntity
  8
0
100
AcDbBlockEnd
  0
BLOCK
  5
124
330
122
100
AcDbEntity
  8
0
100
AcDbBlockBegin
  2
Block_2
 70
     0
 10
0.0
 20
0.0
 30
0.0
  3
Block_2
  1

  0
INSERT
  5
127
330
122
100
AcDbEntity
  8
レイヤー 1
100
AcDbBlockReference
  2
Block_3
 10
0.0
 20
0.0
 30
0.0
  0
ENDBLK
  5
125
330
122
100
AcDbEntity
  8
0
100
AcDbBlockEnd
  0
BLOCK
  5
128
330
126
100
AcDbEntity
  8
0
100
AcDbBlockBegin
  2
Block_3
 70
     0
 10
0.0
 20
0.0
 30
0.0
  3
Block_3
  1

  0
SPLINE
  5
12A
330
126
100
AcDbEntity
  8
レイヤー 1
100
AcDbSpline
210
0.0
220
0.0
230
1.0
 70
     9
 71
     3
 72
    17
 73
    13
 74
     0
 42
0.0000000001
 43
0.0000000001
 40
0.0
 40
0.0
 40
0.0
 40
0.0
 40
1.0
 40
1.0
 40
1.0
 40
2.0
 40
2.0
 40
2.0
 40
3.0
 40
3.0
 40
3.0
 40
4.0
 40
4.0
 40
4.0
 40
4.0
 10
60.68707952041851
 20
-148.0831230641077
 30
0.0
 10
60.68707952041851
 20
-148.3328924867883
 30
0.0
 10
60.97043862408031
 20
-148.3794012758392
 30
0.0
 10
61.31529268215381
 20
-148.3794012758392
 30
0.0
 10
61.63482528841074
 20
-148.3794012758392
 30
0.0
 10
61.94367809866339
 20
-148.343227773244
 30
0.0
 10
61.94367809866339
 20
-148.0831230641077
 30
0.0
 10
61.94367809866339
 20
-147.8354206987182
 30
0.0
 10
61.66221379751847
 20
-147.7868448523762
 30
0.0
 10
61.31529268215381
 20
-147.7868448523762
 30
0.0
 10
60.99593233067116
 20
-147.7868448523762
 30
0.0
 10
60.68707952041851
 20
-147.8250854122625
 30
0.0
 10
60.68707952041851
 20
-148.0831230641077
 30
0.0
  0
SPLINE
  5
12B
330
126
100
AcDbEntity
  8
レイヤー 1
100
AcDbSpline
210
0.0
220
0.0
230
1.0
 70
     9
 71
     3
 72
    29
 73
    25
 74
     0
 42
0.0000000001
 43
0.0000000001
 40
0.0
 40
0.0
 40
0.0
 40
0.0
 40
1.0
 40
1.0
 40
1.0
 40
2.0
 40
2.0
 40
2.0
 40
3.0
 40
3.0
 40
3.0
 40
4.0
 40
4.0
 40
4.0
 40
5.0
 40
5.0
 40
5.0
 40
6.0
 40
6.0
 40
6.0
 40
7.0
 40
7.0
 40
7.0
 40
8.0
 40
8.0
 40
8.0
 40
8.0
 10
61.90974390813368
 20
-147.6852145355613
 30
0.0
 10
62.11920571363687
 20
-147.7933905337982
 30
0.0
 10
62.13832599358
 20
-147.9666788367062
 30
0.0
 10
62.13832599358
 20
-148.0831230641077
 30
0.0
 10
62.13832599358
 20
-148.2440090232688
 30
0.0
 10
62.09181720452913
 20
-148.3856024477126
 30
0.0
 10
61.90974390813368
 20
-148.4806870831055
 30
0.0
 10
61.71526826799133
 20
-148.5843844572115
 30
0.0
 10
61.47824569860613
 20
-148.6036769919289
 30
0.0
 10
61.31529268215381
 20
-148.6036769919289
 30
0.0
 10
61.17145994564463
 20
-148.6036769919289
 30
0.0
 10
60.91979572044714
 20
-148.5864515145027
 30
0.0
 10
60.72084145617395
 20
-148.4806870831055
 30
0.0
 10
60.51775307731848
 20
-148.3728555944172
 30
0.0
 10
60.49449868279304
 20
-148.211969635256
 30
0.0
 10
60.49449868279304
 20
-148.0831230641077
 30
0.0
 10
60.49449868279304
 20
-147.9243041622377
 30
0.0
 10
60.53894041455277
 20
-147.7806436805027
 30
0.0
 10
60.72084145617395
 20
-147.6852145355613
 30
0.0
 10
60.91342229379943
 20
-147.5859957855861
 30
0.0
 10
61.14183212447149
 20
-147.5625691362864
 30
0.0
 10
61.31529268215381
 20
-147.5625691362864
 30
0.0
 10
61.486686182545
 20
-147.5625691362864
 30
0.0
 10
61.71733532528247
 20
-147.583928728295
 30
0.0
 10
61.90974390813368
 20
-147.6852145355613
 30
0.0
  0
HATCH
  5
12C
330
126
100
AcDbEntity
  8
レイヤー 1
 62
   250
420
  2299925
440
 33554687
100
AcDbHatch
 10
0.0
 20
0.0
 30
0.0
210
0.0
220
0.0
230
1.0
  2
SOLID
 70
     1
 71
     1
 91
        2
 92
        1
 93
        1
 72
     4
 94
        3
 73
     0
 74
     0
 95
       17
 96
       13
 40
0.0
 40
0.0
 40
0.0
 40
0.0
 40
1.0
 40
1.0
 40
1.0
 40
2.0
 40
2.0
 40
2.0
 40
3.0
 40
3.0
 40
3.0
 40
4.0
 40
4.0
 40
4.0
 40
4.0
 10
60.68707952041851
 20
-148.0831230641077
 10
60.68707952041851
 20
-148.3328924867883
 10
60.97043862408031
 20
-148.3794012758392
 10
61.31529268215381
 20
-148.3794012758392
 10
61.63482528841074
 20
-148.3794012758392
 10
61.94367809866339
 20
-148.343227773244
 10
61.94367809866339
 20
-148.0831230641077
 10
61.94367809866339
 20
-147.8354206987182
 10
61.66221379751847
 20
-147.7868448523762
 10
61.31529268215381
 20
-147.7868448523762
 10
60.99593233067116
 20
-147.7868448523762
 10
60.68707952041851
 20
-147.8250854122625
 10
60.68707952041851
 20
-148.0831230641077
 97
        0
 97
        1
330
12A
 92
        1
 93
        1
 72
     4
 94
        3
 73
     0
 74
     0
 95
       29
 96
       25
 40
0.0
 40
0.0
 40
0.0
 40
0.0
 40
1.0
 40
1.0
 40
1.0
 40
2.0
 40
2.0
 40
2.0
 40
3.0
 40
3.0
 40
3.0
 40
4.0
 40
4.0
 40
4.0
 40
5.0
 40
5.0
 40
5.0
 40
6.0
 40
6.0
 40
6.0
 40
7.0
 40
7.0
 40
7.0
 40
8.0
 40
8.0
 40
8.0
 40
8.0
 10
61.90974390813368
 20
-147.6852145355613
 10
62.11920571363687
 20
-147.7933905337982
 10
62.13832599358
 20
-147.9666788367062
 10
62.13832599358
 20
-148.0831230641077
 10
62.13832599358
 20
-148.2440090232688
 10
62.09181720452913
 20
-148.3856024477126
 10
61.90974390813368
 20
-148.4806870831055
 10
61.71526826799133
 20
-148.5843844572115
 10
61.47824569860613
 20
-148.6036769919289
 10
61.31529268215381
 20
-148.6036769919289
 10
61.17145994564463
 20
-148.6036769919289
 10
60.91979572044714
 20
-148.5864515145027
 10
60.72084145617395
 20
-148.4806870831055
 10
60.51775307731848
 20
-148.3728555944172
 10
60.49449868279304
 20
-148.211969635256
 10
60.49449868279304
 20
-148.0831230641077
 10
60.49449868279304
 20
-147.9243041622377
 10
60.53894041455277
 20
-147.7806436805027
 10
60.72084145617395
 20
-147.6852145355613
 10
60.91342229379943
 20
-147.5859957855861
 10
61.14183212447149
 20
-147.5625691362864
 10
61.31529268215381
 20
-147.5625691362864
 10
61.486686182545
 20
-147.5625691362864
 10
61.71733532528247
 20
-147.583928728295
 10
61.90974390813368
 20
-147.6852145355613
 97
        0
 97
        1
330
12B
 75
     2
 76
     1
 98
        1
 10
0.0
 20
0.0
450
        0
451
        0
460
0.0
461
0.0
452
        0
462
0.0
453
        0
470

  0
SPLINE
  5
12D
330
126
100
AcDbEntity
  8
レイヤー 1
100
AcDbSpline
210
0.0
220
0.0
230
1.0
 70
    11
 71
     3
 72
    17
 73
    13
 74
     0
 42
0.0000000001
 43
0.0000000001
 40
0.0
 40
0.0
 40
0.0
 40
0.0
 40
1.0
 40
1.0
 40
1.0
 40
2.0
 40
2.0
 40
2.0
 40
3.0
 40
3.0
 40
3.0
 40
4.0
 40
4.0
 40
4.0
 40
4.0
 10
62.08751083517257
 20
-147.3462171398127
 30
0.0
 10
62.08751083517257
 20
-147.3462171398127
 30
0.0
 10
61.83584660997507
 20
-147.3462171398127
 30
0.0
 10
61.83584660997507
 20
-147.3462171398127
 30
0.0
 10
61.83584660997507
 20
-147.3462171398127
 30
0.0
 10
61.83584660997507
 20
-147.094380659841
 30
0.0
 10
61.83584660997507
 20
-147.094380659841
 30
0.0
 10
61.83584660997507
 20
-147.094380659841
 30
0.0
 10
62.08751083517257
 20
-147.094380659841
 30
0.0
 10
62.08751083517257
 20
-147.094380659841
 30
0.0
 10
62.08751083517257
 20
-147.094380659841
 30
0.0
 10
62.08751083517257
 20
-147.3462171398127
 30
0.0
 10
62.08751083517257
 20
-147.3462171398127
 30
0.0
  0
HATCH
  5
12E
330
126
100
AcDbEntity
  8
レイヤー 1
 62
   250
420
  2299925
440
 33554687
100
AcDbHatch
 10
0.0
 20
0.0
 30
0.0
210
0.0
220
0.0
230
1.0
  2
SOLID
 70
     1
 71
     1
 91
        1
 92
        1
 93
        1
 72
     4
 94
        3
 73
     0
 74
     0
 95
       17
 96
       13
 40
0.0
 40
0.0
 40
0.0
 40
0.0
 40
1.0
 40
1.0
 40
1.0
 40
2.0
 40
2.0
 40
2.0
 40
3.0
 40
3.0
 40
3.0
 40
4.0
 40
4.0
 40
4.0
 40
4.0
 10
62.08751083517257
 20
-147.3462171398127
 10
62.08751083517257
 20
-147.3462171398127
 10
61.83584660997507
 20
-147.3462171398127
 10
61.83584660997507
 20
-147.3462171398127
 10
61.83584660997507
 20
-147.3462171398127
 10
61.83584660997507
 20
-147.094380659841
 10
61.83584660997507
 20
-147.094380659841
 10
61.83584660997507
 20
-147.094380659841
 10
62.08751083517257
 20
-147.094380659841
 10
62.08751083517257
 20
-147.094380659841
 10
62.08751083517257
 20
-147.094380659841
 10
62.08751083517257
 20
-147.3462171398127
 10
62.08751083517257
 20
-147.3462171398127
 97
        0
 97
        1
330
12D
 75
     2
 76
     1
 98
        1
 10
0.0
 20
0.0
450
        0
451
        0
460
0.0
461
0.0
452
        0
462
0.0
453
        0
470

  0
SPLINE
  5
12F
330
126
100
AcDbEntity
  8
レイヤー 1
100
AcDbSpline
210
0.0
220
0.0
230
1.0
 70
     9
 71
     3
 72
    53
 73
    49
 74
     0
 42
0.0000000001
 43
0.0000000001
 40
0.0
 40
0.0
 40
0.0
 40
0.0
 40
1.0
 40
1.0
 40
1.0
 40
2.0
 40
2.0
 40
2.0
 40
3.0
 40
3.0
 40
3.0
 40
4.0
 40
4.0
 40
4.0
 40
5.0
 40
5.0
 40
5.0
 40
6.0
 40
6.0
 40
6.0
 40
7.0
 40
7.0
 40
7.0
 40
8.0
 40
8.0
 40
8.0
 40
9.0
 40
9.0
 40
9.0
 40
10.0
 40
10.0
 40
10.0
 40
11.0
 40
11.0
 40
11.0
 40
12.0
 40
12.0
 40
12.0
 40
13.0
 40
13.0
 40
13.0
 40
14.0
 40
14.0
 40
14.0
 40
15.0
 40
15.0
 40
15.0
 40
16.0
 40
16.0
 40
16.0
 40
16.0
 10
62.13832599358
 20
-146.3771117798119
 30
0.0
 10
62.13832599358
 20
-146.4553154473271
 30
0.0
 10
62.12144502570228
 20
-146.556945764142
 30
0.0
 10
62.05788301399942
 20
-146.6585760809569
 30
0.0
 10
61.94781221324569
 20
-146.8318643838649
 30
0.0
 10
61.81672633003193
 20
-146.8532239758735
 30
0.0
 10
61.70889484134361
 20
-146.8721720010423
 30
0.0
 10
61.70889484134361
 20
-146.8721720010423
 30
0.0
 10
61.70889484134361
 20
-146.6499633422438
 30
0.0
 10
61.70889484134361
 20
-146.6499633422438
 30
0.0
 10
61.90767685084253
 20
-146.5951863240283
 30
0.0
 10
61.93730467201568
 20
-146.4680623006225
 30
0.0
 10
61.93730467201568
 20
-146.3750447225208
 30
0.0
 10
61.93730467201568
 20
-146.2355183553682
 30
0.0
 10
61.83791366726622
 20
-146.0832451349201
 30
0.0
 10
61.6051974672376
 20
-146.0832451349201
 30
0.0
 10
61.34922687268353
 20
-146.0832451349201
 30
0.0
 10
61.27946368910722
 20
-146.2630791192502
 30
0.0
 10
61.27946368910722
 20
-146.3836574612339
 30
0.0
 10
61.27946368910722
 20
-146.4153523396982
 30
0.0
 10
61.27946368910722
 20
-146.556945764142
 30
0.0
 10
61.40848251502982
 20
-146.6458292276614
 30
0.0
 10
61.40848251502982
 20
-146.6458292276614
 30
0.0
 10
61.38936223508669
 20
-146.8215290974092
 30
0.0
 10
61.38936223508669
 20
-146.8215290974092
 30
0.0
 10
61.38936223508669
 20
-146.8215290974092
 30
0.0
 10
60.54324678390933
 20
-146.7009507554254
 30
0.0
 10
60.54324678390933
 20
-146.7009507554254
 30
0.0
 10
60.54324678390933
 20
-146.7009507554254
 30
0.0
 10
60.54324678390933
 20
-145.922359175759
 30
0.0
 10
60.54324678390933
 20
-145.922359175759
 30
0.0
 10
60.54324678390933
 20
-145.922359175759
 30
0.0
 10
60.73789467882594
 20
-145.922359175759
 30
0.0
 10
60.73789467882594
 20
-145.922359175759
 30
0.0
 10
60.73789467882594
 20
-145.922359175759
 30
0.0
 10
60.73789467882594
 20
-146.5379977389731
 30
0.0
 10
60.73789467882594
 20
-146.5379977389731
 30
0.0
 10
60.73789467882594
 20
-146.5379977389731
 30
0.0
 10
61.16095240441462
 20
-146.6034545531929
 30
0.0
 10
61.16095240441462
 20
-146.6034545531929
 30
0.0
 10
61.12701821388491
 20
-146.5421318535554
 30
0.0
 10
61.08688285148176
 20
-146.4597940714579
 30
0.0
 10
61.08688285148176
 20
-146.3412827867654
 30
0.0
 10
61.08688285148176
 20
-146.0873792495025
 30
0.0
 10
61.2730902624595
 20
-145.8503566801172
 30
0.0
 10
61.58607718729445
 20
-145.8503566801172
 30
0.0
 10
61.90354273626023
 20
-145.8503566801172
 30
0.0
 10
62.13832599358
 20
-146.074632396207
 30
0.0
 10
62.13832599358
 20
-146.3771117798119
 30
0.0
  0
HATCH
  5
130
330
126
100
AcDbEntity
  8
レイヤー 1
 62
   250
420
  2299925
440
 33554687
100
AcDbHatch
 10
0.0
 20
0.0
 30
0.0
210
0.0
220
0.0
230
1.0
  2
SOLID
 70
     1
 71
     1
 91
        1
 92
        1
 93
        1
 72
     4
 94
        3
 73
     0
 74
     0
 95
       53
 96
       49
 40
0.0
 40
0.0
 40
0.0
 40
0.0
 40
1.0
 40
1.0
 40
1.0
 40
2.0
 40
2.0
 40
2.0
 40
3.0
 40
3.0
 40
3.0
 40
4.0
 40
4.0
 40
4.0
 40
5.0
 40
5.0
 40
5.0
 40
6.0
 40
6.0
 40
6.0
 40
7.0
 40
7.0
 40
7.0
 40
8.0
 40
8.0
 40
8.0
 40
9.0
 40
9.0
 40
9.0
 40
10.0
 40
10.0
 40
10.0
 40
11.0
 40
11.0
 40
11.0
 40
12.0
 40
12.0
 40
12.0
 40
13.0
 40
13.0
 40
13.0
 40
14.0
 40
14.0
 40
14.0
 40
15.0
 40
15.0
 40
15.0
 40
16.0
 40
16.0
 40
16.0
 40
16.0
 10
62.13832599358
 20
-146.3771117798119
 10
62.13832599358
 20
-146.4553154473271
 10
62.12144502570228
 20
-146.556945764142
 10
62.05788301399942
 20
-146.6585760809569
 10
61.94781221324569
 20
-146.8318643838649
 10
61.81672633003193
 20
-146.8532239758735
 10
61.70889484134361
 20
-146.8721720010423
 10
61.70889484134361
 20
-146.8721720010423
 10
61.70889484134361
 20
-146.6499633422438
 10
61.70889484134361
 20
-146.6499633422438
 10
61.90767685084253
 20
-146.5951863240283
 10
61.93730467201568
 20
-146.4680623006225
 10
61.93730467201568
 20
-146.3750447225208
 10
61.93730467201568
 20
-146.2355183553682
 10
61.83791366726622
 20
-146.0832451349201
 10
61.6051974672376
 20
-146.0832451349201
 10
61.34922687268353
 20
-146.0832451349201
 10
61.27946368910722
 20
-146.2630791192502
 10
61.27946368910722
 20
-146.3836574612339
 10
61.27946368910722
 20
-146.4153523396982
 10
61.27946368910722
 20
-146.556945764142
 10
61.40848251502982
 20
-146.6458292276614
 10
61.40848251502982
 20
-146.6458292276614
 10
61.38936223508669
 20
-146.8215290974092
 10
61.38936223508669
 20
-146.8215290974092
 10
61.38936223508669
 20
-146.8215290974092
 10
60.54324678390933
 20
-146.7009507554254
 10
60.54324678390933
 20
-146.7009507554254
 10
60.54324678390933
 20
-146.7009507554254
 10
60.54324678390933
 20
-145.922359175759
 10
60.54324678390933
 20
-145.922359175759
 10
60.54324678390933
 20
-145.922359175759
 10
60.73789467882594
 20
-145.922359175759
 10
60.73789467882594
 20
-145.922359175759
 10
60.73789467882594
 20
-145.922359175759
 10
60.73789467882594
 20
-146.5379977389731
 10
60.73789467882594
 20
-146.5379977389731
 10
60.73789467882594
 20
-146.5379977389731
 10
61.16095240441462
 20
-146.6034545531929
 10
61.16095240441462
 20
-146.6034545531929
 10
61.12701821388491
 20
-146.5421318535554
 10
61.08688285148176
 20
-146.4597940714579
 10
61.08688285148176
 20
-146.3412827867654
 10
61.08688285148176
 20
-146.0873792495025
 10
61.2730902624595
 20
-145.8503566801172
 10
61.58607718729445
 20
-145.8503566801172
 10
61.90354273626023
 20
-145.8503566801172
 10
62.13832599358
 20
-146.074632396207
 10
62.13832599358
 20
-146.3771117798119
 97
        0
 97
        1
330
12F
 75
     2
 76
     1
 98
        1
 10
0.0
 20
0.0
450
        0
451
        0
460
0.0
461
0.0
452
        0
462
0.0
453
        0
470

  0
ENDBLK
  5
129
330
126
100
AcDbEntity
  8
0
100
AcDbBlockEnd
  0
BLOCK
  5
135
330
133
100
AcDbEntity
  8
0
100
AcDbBlockBegin
  2
Block_4
 70
     0
 10
0.0
 20
0.0
 30
0.0
  3
Block_4
  1

  0
INSERT
  5
138
330
133
100
AcDbEntity
  8
レイヤー 1
100
AcDbBlockReference
  2
Block_5
 10
0.0
 20
0.0
 30
0.0
  0
ENDBLK
  5
136
330
133
100
AcDbEntity
  8
0
100
AcDbBlockEnd
  0
BLOCK
  5
139
330
137
100
AcDbEntity
  8
0
100
AcDbBlockBegin
  2
Block_5
 70
     0
 10
0.0
 20
0.0
 30
0.0
  3
Block_5
  1

  0
SPLINE
  5
13B
330
137
100
AcDbEntity
  8
レイヤー 1
100
AcDbSpline
210
0.0
220
0.0
230
1.0
 70
     9
 71
     3
 72
    44
 73
    40
 74
     0
 42
0.0000000001
 43
0.0000000001
 40
0.0
 40
0.0
 40
0.0
 40
0.0
 40
1.0
 40
1.0
 40
1.0
 40
2.0
 40
2.0
 40
2.0
 40
3.0
 40
3.0
 40
3.0
 40
4.0
 40
4.0
 40
4.0
 40
5.0
 40
5.0
 40
5.0
 40
6.0
 40
6.0
 40
6.0
 40
7.0
 40
7.0
 40
7.0
 40
8.0
 40
8.0
 40
8.0
 40
9.0
 40
9.0
 40
9.0
 40
10.0
 40
10.0
 40
10.0
 40
11.0
 40
11.0
 40
11.0
 40
12.0
 40
12.0
 40
12.0
 40
13.0
 40
13.0
 40
13.0
 40
13.0
 10
75.6902981039073
 20
-140.8708156657371
 30
0.0
 10
75.47239581446524
 20
-141.0294623128329
 30
0.0
 10
75.37920598158923
 20
-141.1035318657658
 30
0.0
 10
75.33063013524721
 20
-141.247364602275
 30
0.0
 10
75.33063013524721
 20
-141.247364602275
 30
0.0
 10
76.1090494601394
 20
-141.247364602275
 30
0.0
 10
76.1090494601394
 20
-141.247364602275
 30
0.0
 10
76.1090494601394
 20
-141.247364602275
 30
0.0
 10
76.1090494601394
 20
-141.4525200384216
 30
0.0
 10
76.1090494601394
 20
-141.4525200384216
 30
0.0
 10
76.1090494601394
 20
-141.4525200384216
 30
0.0
 10
75.08103296734086
 20
-141.4525200384216
 30
0.0
 10
75.08103296734086
 20
-141.4525200384216
 30
0.0
 10
75.11272784580516
 20
-141.0949191270526
 30
0.0
 10
75.17835691479916
 20
-141.0167154595375
 30
0.0
 10
75.56334633527583
 20
-140.7183701905148
 30
0.0
 10
75.8193169298299
 20
-140.5195881810159
 30
0.0
 10
75.88477374404964
 20
-140.4518920547308
 30
0.0
 10
75.88477374404964
 20
-140.3144327448693
 30
0.0
 10
75.88477374404964
 20
-140.1959214601767
 30
0.0
 10
75.81294350318218
 20
-140.0646633221887
 30
0.0
 10
75.61622855097441
 20
-140.0646633221887
 30
0.0
 10
75.3559515870638
 20
-140.0646633221887
 30
0.0
 10
75.34751110312493
 20
-140.2953124649262
 30
0.0
 10
75.34320473376837
 20
-140.4117566923276
 30
0.0
 10
75.34320473376837
 20
-140.4117566923276
 30
0.0
 10
75.11910127245286
 20
-140.4117566923276
 30
0.0
 10
75.11910127245286
 20
-140.4117566923276
 30
0.0
 10
75.12754175639173
 20
-140.2848049236961
 30
0.0
 10
75.13804929762173
 20
-140.1726670656513
 30
0.0
 10
75.21849227720233
 20
-140.0541557809587
 30
0.0
 10
75.32839082318179
 20
-139.8934420765717
 30
0.0
 10
75.51459823415955
 20
-139.8595078860421
 30
0.0
 10
75.63104246156099
 20
-139.8595078860421
 30
0.0
 10
75.90820039334935
 20
-139.8595078860421
 30
0.0
 10
76.11542288678712
 20
-140.0436482397287
 30
0.0
 10
76.11542288678712
 20
-140.3164998021605
 30
0.0
 10
76.11542288678712
 20
-140.5449096328325
 30
0.0
 10
75.99915091415994
 20
-140.6444728923562
 30
0.0
 10
75.6902981039073
 20
-140.8708156657371
 30
0.0
  0
HATCH
  5
13C
330
137
100
AcDbEntity
  8
レイヤー 1
 62
   250
420
  2299925
440
 33554687
100
AcDbHatch
 10
0.0
 20
0.0
 30
0.0
210
0.0
220
0.0
230
1.0
  2
SOLID
 70
     1
 71
     1
 91
        1
 92
        1
 93
        1
 72
     4
 94
        3
 73
     0
 74
     0
 95
       44
 96
       40
 40
0.0
 40
0.0
 40
0.0
 40
0.0
 40
1.0
 40
1.0
 40
1.0
 40
2.0
 40
2.0
 40
2.0
 40
3.0
 40
3.0
 40
3.0
 40
4.0
 40
4.0
 40
4.0
 40
5.0
 40
5.0
 40
5.0
 40
6.0
 40
6.0
 40
6.0
 40
7.0
 40
7.0
 40
7.0
 40
8.0
 40
8.0
 40
8.0
 40
9.0
 40
9.0
 40
9.0
 40
10.0
 40
10.0
 40
10.0
 40
11.0
 40
11.0
 40
11.0
 40
12.0
 40
12.0
 40
12.0
 40
13.0
 40
13.0
 40
13.0
 40
13.0
 10
75.6902981039073
 20
-140.8708156657371
 10
75.47239581446524
 20
-141.0294623128329
 10
75.37920598158923
 20
-141.1035318657658
 10
75.33063013524721
 20
-141.247364602275
 10
75.33063013524721
 20
-141.247364602275
 10
76.1090494601394
 20
-141.247364602275
 10
76.1090494601394
 20
-141.247364602275
 10
76.1090494601394
 20
-141.247364602275
 10
76.1090494601394
 20
-141.4525200384216
 10
76.1090494601394
 20
-141.4525200384216
 10
76.1090494601394
 20
-141.4525200384216
 10
75.08103296734086
 20
-141.4525200384216
 10
75.08103296734086
 20
-141.4525200384216
 10
75.11272784580516
 20
-141.0949191270526
 10
75.17835691479916
 20
-141.0167154595375
 10
75.56334633527583
 20
-140.7183701905148
 10
75.8193169298299
 20
-140.5195881810159
 10
75.88477374404964
 20
-140.4518920547308
 10
75.88477374404964
 20
-140.3144327448693
 10
75.88477374404964
 20
-140.1959214601767
 10
75.81294350318218
 20
-140.0646633221887
 10
75.61622855097441
 20
-140.0646633221887
 10
75.3559515870638
 20
-140.0646633221887
 10
75.34751110312493
 20
-140.2953124649262
 10
75.34320473376837
 20
-140.4117566923276
 10
75.34320473376837
 20
-140.4117566923276
 10
75.11910127245286
 20
-140.4117566923276
 10
75.11910127245286
 20
-140.4117566923276
 10
75.12754175639173
 20
-140.2848049236961
 10
75.13804929762173
 20
-140.1726670656513
 10
75.21849227720233
 20
-140.0541557809587
 10
75.32839082318179
 20
-139.8934420765717
 10
75.51459823415955
 20
-139.8595078860421
 10
75.63104246156099
 20
-139.8595078860421
 10
75.90820039334935
 20
-139.8595078860421
 10
76.11542288678712
 20
-140.0436482397287
 10
76.11542288678712
 20
-140.3164998021605
 10
76.11542288678712
 20
-140.5449096328325
 10
75.99915091415994
 20
-140.6444728923562
 10
75.6902981039073
 20
-140.8708156657371
 97
        0
 97
        1
330
13B
 75
     2
 76
     1
 98
        1
 10
0.0
 20
0.0
450
        0
451
        0
460
0.0
461
0.0
452
        0
462
0.0
453
        0
470

  0
SPLINE
  5
13D
330
137
100
AcDbEntity
  8
レイヤー 1
100
AcDbSpline
210
0.0
220
0.0
230
1.0
 70
    11
 71
     3
 72
    26
 73
    22
 74
     0
 42
0.0000000001
 43
0.0000000001
 40
0.0
 40
0.0
 40
0.0
 40
0.0
 40
1.0
 40
1.0
 40
1.0
 40
2.0
 40
2.0
 40
2.0
 40
3.0
 40
3.0
 40
3.0
 40
4.0
 40
4.0
 40
4.0
 40
5.0
 40
5.0
 40
5.0
 40
6.0
 40
6.0
 40
6.0
 40
7.0
 40
7.0
 40
7.0
 40
7.0
 10
76.7253770424506
 20
-141.4525200384216
 30
0.0
 10
76.7253770424506
 20
-141.4525200384216
 30
0.0
 10
76.7253770424506
 20
-140.3481946806248
 30
0.0
 10
76.7253770424506
 20
-140.3481946806248
 30
0.0
 10
76.7253770424506
 20
-140.3481946806248
 30
0.0
 10
76.39533689496366
 20
-140.3481946806248
 30
0.0
 10
76.39533689496366
 20
-140.3481946806248
 30
0.0
 10
76.39533689496366
 20
-140.3481946806248
 30
0.0
 10
76.39533689496366
 20
-140.200055574759
 30
0.0
 10
76.39533689496366
 20
-140.200055574759
 30
0.0
 10
76.72744409974176
 20
-140.1854139189467
 30
0.0
 10
76.77395288879262
 20
-140.0224609024944
 30
0.0
 10
76.80358070996577
 20
-139.9082559871583
 30
0.0
 10
76.80358070996577
 20
-139.9082559871583
 30
0.0
 10
76.94965275854037
 20
-139.9082559871583
 30
0.0
 10
76.94965275854037
 20
-139.9082559871583
 30
0.0
 10
76.94965275854037
 20
-139.9082559871583
 30
0.0
 10
76.94965275854037
 20
-141.4525200384216
 30
0.0
 10
76.94965275854037
 20
-141.4525200384216
 30
0.0
 10
76.94965275854037
 20
-141.4525200384216
 30
0.0
 10
76.7253770424506
 20
-141.4525200384216
 30
0.0
 10
76.7253770424506
 20
-141.4525200384216
 30
0.0
  0
HATCH
  5
13E
330
137
100
AcDbEntity
  8
レイヤー 1
 62
   250
420
  2299925
440
 33554687
100
AcDbHatch
 10
0.0
 20
0.0
 30
0.0
210
0.0
220
0.0
230
1.0
  2
SOLID
 70
     1
 71
     1
 91
        1
 92
        1
 93
        1
 72
     4
 94
        3
 73
     0
 74
     0
 95
       26
 96
       22
 40
0.0
 40
0.0
 40
0.0
 40
0.0
 40
1.0
 40
1.0
 40
1.0
 40
2.0
 40
2.0
 40
2.0
 40
3.0
 40
3.0
 40
3.0
 40
4.0
 40
4.0
 40
4.0
 40
5.0
 40
5.0
 40
5.0
 40
6.0
 40
6.0
 40
6.0
 40
7.0
 40
7.0
 40
7.0
 40
7.0
 10
76.7253770424506
 20
-141.4525200384216
 10
76.7253770424506
 20
-141.4525200384216
 10
76.7253770424506
 20
-140.3481946806248
 10
76.7253770424506
 20
-140.3481946806248
 10
76.7253770424506
 20
-140.3481946806248
 10
76.39533689496366
 20
-140.3481946806248
 10
76.39533689496366
 20
-140.3481946806248
 10
76.39533689496366
 20
-140.3481946806248
 10
76.39533689496366
 20
-140.200055574759
 10
76.39533689496366
 20
-140.200055574759
 10
76.72744409974176
 20
-140.1854139189467
 10
76.77395288879262
 20
-140.0224609024944
 10
76.80358070996577
 20
-139.9082559871583
 10
76.80358070996577
 20
-139.9082559871583
 10
76.94965275854037
 20
-139.9082559871583
 10
76.94965275854037
 20
-139.9082559871583
 10
76.94965275854037
 20
-139.9082559871583
 10
76.94965275854037
 20
-141.4525200384216
 10
76.94965275854037
 20
-141.4525200384216
 10
76.94965275854037
 20
-141.4525200384216
 10
76.7253770424506
 20
-141.4525200384216
 10
76.7253770424506
 20
-141.4525200384216
 97
        0
 97
        1
330
13D
 75
     2
 76
     1
 98
        1
 10
0.0
 20
0.0
450
        0
451
        0
460
0.0
461
0.0
452
        0
462
0.0
453
        0
470

  0
ENDBLK
  5
13A
330
137
100
AcDbEntity
  8
0
100
AcDbBlockEnd
  0
BLOCK
  5
143
330
141
100
AcDbEntity
  8
0
100
AcDbBlockBegin
  2
Block_6
 70
     0
 10
0.0
 20
0.0
 30
0.0
  3
Block_6
  1

  0
SPLINE
  5
145
330
141
100
AcDbEntity
  8
レイヤー 1
100
AcDbSpline
210
0.0
220
0.0
230
1.0
 70
     9
 71
     3
 72
    53
 73
    49
 74
     0
 42
0.0000000001
 43
0.0000000001
 40
0.0
 40
0.0
 40
0.0
 40
0.0
 40
1.0
 40
1.0
 40
1.0
 40
2.0
 40
2.0
 40
2.0
 40
3.0
 40
3.0
 40
3.0
 40
4.0
 40
4.0
 40
4.0
 40
5.0
 40
5.0
 40
5.0
 40
6.0
 40
6.0
 40
6.0
 40
7.0
 40
7.0
 40
7.0
 40
8.0
 40
8.0
 40
8.0
 40
9.0
 40
9.0
 40
9.0
 40
10.0
 40
10.0
 40
10.0
 40
11.0
 40
11.0
 40
11.0
 40
12.0
 40
12.0
 40
12.0
 40
13.0
 40
13.0
 40
13.0
 40
14.0
 40
14.0
 40
14.0
 40
15.0
 40
15.0
 40
15.0
 40
16.0
 40
16.0
 40
16.0
 40
16.0
 10
62.86937525555002
 20
-150.7976860517103
 30
0.0
 10
62.86937525555002
 20
-150.8758897192255
 30
0.0
 10
62.85232203289803
 20
-150.9775200360403
 30
0.0
 10
62.78893227596944
 20
-151.0791503528552
 30
0.0
 10
62.6788614752157
 20
-151.2524386557633
 30
0.0
 10
62.54777559200195
 20
-151.2737982477718
 30
0.0
 10
62.43994410331363
 20
-151.2927462729407
 30
0.0
 10
62.43994410331363
 20
-151.2927462729407
 30
0.0
 10
62.43994410331363
 20
-151.0705376141421
 30
0.0
 10
62.43994410331363
 20
-151.0705376141421
 30
0.0
 10
62.63872611281254
 20
-151.0157605959266
 30
0.0
 10
62.66835393398569
 20
-150.8886365725209
 30
0.0
 10
62.66835393398569
 20
-150.7956189944191
 30
0.0
 10
62.66835393398569
 20
-150.6560926272665
 30
0.0
 10
62.56896292923624
 20
-150.5038194068185
 30
0.0
 10
62.33624672920761
 20
-150.5038194068185
 30
0.0
 10
62.08027613465354
 20
-150.5038194068185
 30
0.0
 10
62.01051295107724
 20
-150.6836533911485
 30
0.0
 10
62.01051295107724
 20
-150.8042317331322
 30
0.0
 10
62.01051295107724
 20
-150.8359266115966
 30
0.0
 10
62.01051295107724
 20
-150.9775200360403
 30
0.0
 10
62.13953177699984
 20
-151.0664034995597
 30
0.0
 10
62.13953177699984
 20
-151.0664034995597
 30
0.0
 10
62.12041149705671
 20
-151.2421033693075
 30
0.0
 10
62.12041149705671
 20
-151.2421033693075
 30
0.0
 10
62.12041149705671
 20
-151.2421033693075
 30
0.0
 10
61.27429604587934
 20
-151.1215250273238
 30
0.0
 10
61.27429604587934
 20
-151.1215250273238
 30
0.0
 10
61.27429604587934
 20
-151.1215250273238
 30
0.0
 10
61.27429604587934
 20
-150.3429334476573
 30
0.0
 10
61.27429604587934
 20
-150.3429334476573
 30
0.0
 10
61.27429604587934
 20
-150.3429334476573
 30
0.0
 10
61.46894394079596
 20
-150.3429334476573
 30
0.0
 10
61.46894394079596
 20
-150.3429334476573
 30
0.0
 10
61.46894394079596
 20
-150.3429334476573
 30
0.0
 10
61.46894394079596
 20
-150.9585720108715
 30
0.0
 10
61.46894394079596
 20
-150.9585720108715
 30
0.0
 10
61.46894394079596
 20
-150.9585720108715
 30
0.0
 10
61.89200166638464
 20
-151.0240288250912
 30
0.0
 10
61.89200166638464
 20
-151.0240288250912
 30
0.0
 10
61.85806747585493
 20
-150.9627061254537
 30
0.0
 10
61.81793211345176
 20
-150.8803683433563
 30
0.0
 10
61.81793211345176
 20
-150.7618570586637
 30
0.0
 10
61.81793211345176
 20
-150.5079535214008
 30
0.0
 10
62.00413952442953
 20
-150.2709309520156
 30
0.0
 10
62.31712644926447
 20
-150.2709309520156
 30
0.0
 10
62.63459199823024
 20
-150.2709309520156
 30
0.0
 10
62.86937525555002
 20
-150.4952066681053
 30
0.0
 10
62.86937525555002
 20
-150.7976860517103
 30
0.0
  0
HATCH
  5
146
330
141
100
AcDbEntity
  8
レイヤー 1
 62
   250
420
  2299925
440
 33554687
100
AcDbHatch
 10
0.0
 20
0.0
 30
0.0
210
0.0
220
0.0
230
1.0
  2
SOLID
 70
     1
 71
     1
 91
        1
 92
        1
 93
        1
 72
     4
 94
        3
 73
     0
 74
     0
 95
       53
 96
       49
 40
0.0
 40
0.0
 40
0.0
 40
0.0
 40
1.0
 40
1.0
 40
1.0
 40
2.0
 40
2.0
 40
2.0
 40
3.0
 40
3.0
 40
3.0
 40
4.0
 40
4.0
 40
4.0
 40
5.0
 40
5.0
 40
5.0
 40
6.0
 40
6.0
 40
6.0
 40
7.0
 40
7.0
 40
7.0
 40
8.0
 40
8.0
 40
8.0
 40
9.0
 40
9.0
 40
9.0
 40
10.0
 40
10.0
 40
10.0
 40
11.0
 40
11.0
 40
11.0
 40
12.0
 40
12.0
 40
12.0
 40
13.0
 40
13.0
 40
13.0
 40
14.0
 40
14.0
 40
14.0
 40
15.0
 40
15.0
 40
15.0
 40
16.0
 40
16.0
 40
16.0
 40
16.0
 10
62.86937525555002
 20
-150.7976860517103
 10
62.86937525555002
 20
-150.8758897192255
 10
62.85232203289803
 20
-150.9775200360403
 10
62.78893227596944
 20
-151.0791503528552
 10
62.6788614752157
 20
-151.2524386557633
 10
62.54777559200195
 20
-151.2737982477718
 10
62.43994410331363
 20
-151.2927462729407
 10
62.43994410331363
 20
-151.2927462729407
 10
62.43994410331363
 20
-151.0705376141421
 10
62.43994410331363
 20
-151.0705376141421
 10
62.63872611281254
 20
-151.0157605959266
 10
62.66835393398569
 20
-150.8886365725209
 10
62.66835393398569
 20
-150.7956189944191
 10
62.66835393398569
 20
-150.6560926272665
 10
62.56896292923624
 20
-150.5038194068185
 10
62.33624672920761
 20
-150.5038194068185
 10
62.08027613465354
 20
-150.5038194068185
 10
62.01051295107724
 20
-150.6836533911485
 10
62.01051295107724
 20
-150.8042317331322
 10
62.01051295107724
 20
-150.8359266115966
 10
62.01051295107724
 20
-150.9775200360403
 10
62.13953177699984
 20
-151.0664034995597
 10
62.13953177699984
 20
-151.0664034995597
 10
62.12041149705671
 20
-151.2421033693075
 10
62.12041149705671
 20
-151.2421033693075
 10
62.12041149705671
 20
-151.2421033693075
 10
61.27429604587934
 20
-151.1215250273238
 10
61.27429604587934
 20
-151.1215250273238
 10
61.27429604587934
 20
-151.1215250273238
 10
61.27429604587934
 20
-150.3429334476573
 10
61.27429604587934
 20
-150.3429334476573
 10
61.27429604587934
 20
-150.3429334476573
 10
61.46894394079596
 20
-150.3429334476573
 10
61.46894394079596
 20
-150.3429334476573
 10
61.46894394079596
 20
-150.3429334476573
 10
61.46894394079596
 20
-150.9585720108715
 10
61.46894394079596
 20
-150.9585720108715
 10
61.46894394079596
 20
-150.9585720108715
 10
61.89200166638464
 20
-151.0240288250912
 10
61.89200166638464
 20
-151.0240288250912
 10
61.85806747585493
 20
-150.9627061254537
 10
61.81793211345176
 20
-150.8803683433563
 10
61.81793211345176
 20
-150.7618570586637
 10
61.81793211345176
 20
-150.5079535214008
 10
62.00413952442953
 20
-150.2709309520156
 10
62.31712644926447
 20
-150.2709309520156
 10
62.63459199823024
 20
-150.2709309520156
 10
62.86937525555002
 20
-150.4952066681053
 10
62.86937525555002
 20
-150.7976860517103
 97
        0
 97
        1
330
145
 75
     2
 76
     1
 98
        1
 10
0.0
 20
0.0
450
        0
451
        0
460
0.0
461
0.0
452
        0
462
0.0
453
        0
470

  0
ENDBLK
  5
144
330
141
100
AcDbEntity
  8
0
100
AcDbBlockEnd
  0
BLOCK
  5
14B
330
149
100
AcDbEntity
  8
0
100
AcDbBlockBegin
  2
Block_7
 70
     0
 10
0.0
 20
0.0
 30
0.0
  3
Block_7
  1

  0
INSERT
  5
14E
330
149
100
AcDbEntity
  8
レイヤー 1
100
AcDbBlockReference
  2
Block_8
 10
0.0
 20
0.0
 30
0.0
  0
ENDBLK
  5
14C
330
149
100
AcDbEntity
  8
0
100
AcDbBlockEnd
  0
BLOCK
  5
14F
330
14D
100
AcDbEntity
  8
0
100
AcDbBlockBegin
  2
Block_8
 70
     0
 10
0.0
 20
0.0
 30
0.0
  3
Block_8
  1

  0
SPLINE
  5
151
330
14D
100
AcDbEntity
  8
レイヤー 1
100
AcDbSpline
210
0.0
220
0.0
230
1.0
 70
     9
 71
     3
 72
    44
 73
    40
 74
     0
 42
0.0000000001
 43
0.0000000001
 40
0.0
 40
0.0
 40
0.0
 40
0.0
 40
1.0
 40
1.0
 40
1.0
 40
2.0
 40
2.0
 40
2.0
 40
3.0
 40
3.0
 40
3.0
 40
4.0
 40
4.0
 40
4.0
 40
5.0
 40
5.0
 40
5.0
 40
6.0
 40
6.0
 40
6.0
 40
7.0
 40
7.0
 40
7.0
 40
8.0
 40
8.0
 40
8.0
 40
9.0
 40
9.0
 40
9.0
 40
10.0
 40
10.0
 40
10.0
 40
11.0
 40
11.0
 40
11.0
 40
12.0
 40
12.0
 40
12.0
 40
13.0
 40
13.0
 40
13.0
 40
13.0
 10
105.6913953728827
 20
-140.8708156657371
 30
0.0
 10
105.4736653382149
 20
-141.0294623128329
 30
0.0
 10
105.3806477601131
 20
-141.1035318657658
 30
0.0
 10
105.3317274042226
 20
-141.247364602275
 30
0.0
 10
105.3317274042226
 20
-141.247364602275
 30
0.0
 10
106.1103189838891
 20
-141.247364602275
 30
0.0
 10
106.1103189838891
 20
-141.247364602275
 30
0.0
 10
106.1103189838891
 20
-141.247364602275
 30
0.0
 10
106.1103189838891
 20
-141.4525200384216
 30
0.0
 10
106.1103189838891
 20
-141.4525200384216
 30
0.0
 10
106.1103189838891
 20
-141.4525200384216
 30
0.0
 10
105.0823024910905
 20
-141.4525200384216
 30
0.0
 10
105.0823024910905
 20
-141.4525200384216
 30
0.0
 10
105.1139973695548
 20
-141.0949191270526
 30
0.0
 10
105.1794541837746
 20
-141.0167154595375
 30
0.0
 10
105.5646158590255
 20
-140.7183701905148
 30
0.0
 10
105.8205864535796
 20
-140.5195881810159
 30
0.0
 10
105.8860432677993
 20
-140.4518920547308
 30
0.0
 10
105.8860432677993
 20
-140.3144327448693
 30
0.0
 10
105.8860432677993
 20
-140.1959214601767
 30
0.0
 10
105.8140407721576
 20
-140.0646633221887
 30
0.0
 10
105.6173258199498
 20
-140.0646633221887
 30
0.0
 10
105.3572211108135
 20
-140.0646633221887
 30
0.0
 10
105.3489528816489
 20
-140.2953124649262
 30
0.0
 10
105.344474257518
 20
-140.4117566923276
 30
0.0
 10
105.344474257518
 20
-140.4117566923276
 30
0.0
 10
105.1201985414283
 20
-140.4117566923276
 30
0.0
 10
105.1201985414283
 20
-140.4117566923276
 30
0.0
 10
105.1288112801414
 20
-140.2848049236961
 30
0.0
 10
105.1394910761457
 20
-140.1726670656513
 30
0.0
 10
105.219761800952
 20
-140.0541557809587
 30
0.0
 10
105.3296603469314
 20
-139.8934420765717
 30
0.0
 10
105.5160400126835
 20
-139.8595078860421
 30
0.0
 10
105.6321397305364
 20
-139.8595078860421
 30
0.0
 10
105.909469917099
 20
-139.8595078860421
 30
0.0
 10
106.116864665311
 20
-140.0436482397287
 30
0.0
 10
106.116864665311
 20
-140.3164998021605
 30
0.0
 10
106.116864665311
 20
-140.5449096328325
 30
0.0
 10
106.0004204379096
 20
-140.6444728923562
 30
0.0
 10
105.6913953728827
 20
-140.8708156657371
 30
0.0
  0
HATCH
  5
152
330
14D
100
AcDbEntity
  8
レイヤー 1
 62
   250
420
  2299925
440
 33554687
100
AcDbHatch
 10
0.0
 20
0.0
 30
0.0
210
0.0
220
0.0
230
1.0
  2
SOLID
 70
     1
 71
     1
 91
        1
 92
        1
 93
        1
 72
     4
 94
        3
 73
     0
 74
     0
 95
       44
 96
       40
 40
0.0
 40
0.0
 40
0.0
 40
0.0
 40
1.0
 40
1.0
 40
1.0
 40
2.0
 40
2.0
 40
2.0
 40
3.0
 40
3.0
 40
3.0
 40
4.0
 40
4.0
 40
4.0
 40
5.0
 40
5.0
 40
5.0
 40
6.0
 40
6.0
 40
6.0
 40
7.0
 40
7.0
 40
7.0
 40
8.0
 40
8.0
 40
8.0
 40
9.0
 40
9.0
 40
9.0
 40
10.0
 40
10.0
 40
10.0
 40
11.0
 40
11.0
 40
11.0
 40
12.0
 40
12.0
 40
12.0
 40
13.0
 40
13.0
 40
13.0
 40
13.0
 10
105.6913953728827
 20
-140.8708156657371
 10
105.4736653382149
 20
-141.0294623128329
 10
105.3806477601131
 20
-141.1035318657658
 10
105.3317274042226
 20
-141.247364602275
 10
105.3317274042226
 20
-141.247364602275
 10
106.1103189838891
 20
-141.247364602275
 10
106.1103189838891
 20
-141.247364602275
 10
106.1103189838891
 20
-141.247364602275
 10
106.1103189838891
 20
-141.4525200384216
 10
106.1103189838891
 20
-141.4525200384216
 10
106.1103189838891
 20
-141.4525200384216
 10
105.0823024910905
 20
-141.4525200384216
 10
105.0823024910905
 20
-141.4525200384216
 10
105.1139973695548
 20
-141.0949191270526
 10
105.1794541837746
 20
-141.0167154595375
 10
105.5646158590255
 20
-140.7183701905148
 10
105.8205864535796
 20
-140.5195881810159
 10
105.8860432677993
 20
-140.4518920547308
 10
105.8860432677993
 20
-140.3144327448693
 10
105.8860432677993
 20
-140.1959214601767
 10
105.8140407721576
 20
-140.0646633221887
 10
105.6173258199498
 20
-140.0646633221887
 10
105.3572211108135
 20
-140.0646633221887
 10
105.3489528816489
 20
-140.2953124649262
 10
105.344474257518
 20
-140.4117566923276
 10
105.344474257518
 20
-140.4117566923276
 10
105.1201985414283
 20
-140.4117566923276
 10
105.1201985414283
 20
-140.4117566923276
 10
105.1288112801414
 20
-140.2848049236961
 10
105.1394910761457
 20
-140.1726670656513
 10
105.219761800952
 20
-140.0541557809587
 10
105.3296603469314
 20
-139.8934420765717
 10
105.5160400126835
 20
-139.8595078860421
 10
105.6321397305364
 20
-139.8595078860421
 10
105.909469917099
 20
-139.8595078860421
 10
106.116864665311
 20
-140.0436482397287
 10
106.116864665311
 20
-140.3164998021605
 10
106.116864665311
 20
-140.5449096328325
 10
106.0004204379096
 20
-140.6444728923562
 10
105.6913953728827
 20
-140.8708156657371
 97
        0
 97
        1
330
151
 75
     2
 76
     1
 98
        1
 10
0.0
 20
0.0
450
        0
451
        0
460
0.0
461
0.0
452
        0
462
0.0
453
        0
470

  0
SPLINE
  5
153
330
14D
100
AcDbEntity
  8
レイヤー 1
100
AcDbSpline
210
0.0
220
0.0
230
1.0
 70
    11
 71
     3
 72
    26
 73
    22
 74
     0
 42
0.0000000001
 43
0.0000000001
 40
0.0
 40
0.0
 40
0.0
 40
0.0
 40
1.0
 40
1.0
 40
1.0
 40
2.0
 40
2.0
 40
2.0
 40
3.0
 40
3.0
 40
3.0
 40
4.0
 40
4.0
 40
4.0
 40
5.0
 40
5.0
 40
5.0
 40
6.0
 40
6.0
 40
6.0
 40
7.0
 40
7.0
 40
7.0
 40
7.0
 10
106.7266465662003
 20
-141.4525200384216
 30
0.0
 10
106.7266465662003
 20
-141.4525200384216
 30
0.0
 10
106.7266465662003
 20
-140.3481946806248
 30
0.0
 10
106.7266465662003
 20
-140.3481946806248
 30
0.0
 10
106.7266465662003
 20
-140.3481946806248
 30
0.0
 10
106.3966064187133
 20
-140.3481946806248
 30
0.0
 10
106.3966064187133
 20
-140.3481946806248
 30
0.0
 10
106.3966064187133
 20
-140.3481946806248
 30
0.0
 10
106.3966064187133
 20
-140.200055574759
 30
0.0
 10
106.3966064187133
 20
-140.200055574759
 30
0.0
 10
106.7287136234914
 20
-140.1854139189467
 30
0.0
 10
106.7752224125423
 20
-140.0224609024944
 30
0.0
 10
106.8048502337154
 20
-139.9082559871583
 30
0.0
 10
106.8048502337154
 20
-139.9082559871583
 30
0.0
 10
106.95092228229
 20
-139.9082559871583
 30
0.0
 10
106.95092228229
 20
-139.9082559871583
 30
0.0
 10
106.95092228229
 20
-139.9082559871583
 30
0.0
 10
106.95092228229
 20
-141.4525200384216
 30
0.0
 10
106.95092228229
 20
-141.4525200384216
 30
0.0
 10
106.95092228229
 20
-141.4525200384216
 30
0.0
 10
106.7266465662003
 20
-141.4525200384216
 30
0.0
 10
106.7266465662003
 20
-141.4525200384216
 30
0.0
  0
HATCH
  5
154
330
14D
100
AcDbEntity
  8
レイヤー 1
 62
   250
420
  2299925
440
 33554687
100
AcDbHatch
 10
0.0
 20
0.0
 30
0.0
210
0.0
220
0.0
230
1.0
  2
SOLID
 70
     1
 71
     1
 91
        1
 92
        1
 93
        1
 72
     4
 94
        3
 73
     0
 74
     0
 95
       26
 96
       22
 40
0.0
 40
0.0
 40
0.0
 40
0.0
 40
1.0
 40
1.0
 40
1.0
 40
2.0
 40
2.0
 40
2.0
 40
3.0
 40
3.0
 40
3.0
 40
4.0
 40
4.0
 40
4.0
 40
5.0
 40
5.0
 40
5.0
 40
6.0
 40
6.0
 40
6.0
 40
7.0
 40
7.0
 40
7.0
 40
7.0
 10
106.7266465662003
 20
-141.4525200384216
 10
106.7266465662003
 20
-141.4525200384216
 10
106.7266465662003
 20
-140.3481946806248
 10
106.7266465662003
 20
-140.3481946806248
 10
106.7266465662003
 20
-140.3481946806248
 10
106.3966064187133
 20
-140.3481946806248
 10
106.3966064187133
 20
-140.3481946806248
 10
106.3966064187133
 20
-140.3481946806248
 10
106.3966064187133
 20
-140.200055574759
 10
106.3966064187133
 20
-140.200055574759
 10
106.7287136234914
 20
-140.1854139189467
 10
106.7752224125423
 20
-140.0224609024944
 10
106.8048502337154
 20
-139.9082559871583
 10
106.8048502337154
 20
-139.9082559871583
 10
106.95092228229
 20
-139.9082559871583
 10
106.95092228229
 20
-139.9082559871583
 10
106.95092228229
 20
-139.9082559871583
 10
106.95092228229
 20
-141.4525200384216
 10
106.95092228229
 20
-141.4525200384216
 10
106.95092228229
 20
-141.4525200384216
 10
106.7266465662003
 20
-141.4525200384216
 10
106.7266465662003
 20
-141.4525200384216
 97
        0
 97
        1
330
153
 75
     2
 76
     1
 98
        1
 10
0.0
 20
0.0
450
        0
451
        0
460
0.0
461
0.0
452
        0
462
0.0
453
        0
470

  0
ENDBLK
  5
150
330
14D
100
AcDbEntity
  8
0
100
AcDbBlockEnd
  0
BLOCK
  5
15A
330
158
100
AcDbEntity
  8
0
100
AcDbBlockBegin
  2
Block_9
 70
     0
 10
0.0
 20
0.0
 30
0.0
  3
Block_9
  1

  0
SPLINE
  5
15C
330
158
100
AcDbEntity
  8
レイヤー 1
100
AcDbSpline
210
0.0
220
0.0
230
1.0
 70
     9
 71
     3
 72
    17
 73
    13
 74
     0
 42
0.0000000001
 43
0.0000000001
 40
0.0
 40
0.0
 40
0.0
 40
0.0
 40
1.0
 40
1.0
 40
1.0
 40
2.0
 40
2.0
 40
2.0
 40
3.0
 40
3.0
 40
3.0
 40
4.0
 40
4.0
 40
4.0
 40
4.0
 10
91.20580238605272
 20
-140.0520887236675
 30
0.0
 10
91.08729110136012
 20
-140.0520887236675
 30
0.0
 10
90.91159123161238
 20
-140.1091050539484
 30
0.0
 10
90.91159123161238
 20
-140.3947034696756
 30
0.0
 10
90.91159123161238
 20
-140.6210462430565
 30
0.0
 10
91.05146210831353
 20
-140.7163031332237
 30
0.0
 10
91.18685436088384
 20
-140.7163031332237
 30
0.0
 10
91.44902612731135
 20
-140.7163031332237
 30
0.0
 10
91.48726668719763
 20
-140.5068413277205
 30
0.0
 10
91.48726668719763
 20
-140.3905693550933
 30
0.0
 10
91.48726668719763
 20
-140.2148694853456
 30
0.0
 10
91.39183754225621
 20
-140.0520887236675
 30
0.0
 10
91.20580238605272
 20
-140.0520887236675
 30
0.0
  0
SPLINE
  5
15D
330
158
100
AcDbEntity
  8
レイヤー 1
100
AcDbSpline
210
0.0
220
0.0
230
1.0
 70
     9
 71
     3
 72
    32
 73
    28
 74
     0
 42
0.0000000001
 43
0.0000000001
 40
0.0
 40
0.0
 40
0.0
 40
0.0
 40
1.0
 40
1.0
 40
1.0
 40
2.0
 40
2.0
 40
2.0
 40
3.0
 40
3.0
 40
3.0
 40
4.0
 40
4.0
 40
4.0
 40
5.0
 40
5.0
 40
5.0
 40
6.0
 40
6.0
 40
6.0
 40
7.0
 40
7.0
 40
7.0
 40
8.0
 40
8.0
 40
8.0
 40
9.0
 40
9.0
 40
9.0
 40
9.0
 10
91.16549476887529
 20
-141.503335196829
 30
0.0
 10
90.99220646596723
 20
-141.503335196829
 30
0.0
 10
90.74657115786891
 20
-141.4333997584784
 30
0.0
 10
90.70867510753116
 20
-141.1012925537004
 30
0.0
 10
90.70867510753116
 20
-141.1012925537004
 30
0.0
 10
90.92227102761667
 20
-141.1012925537004
 30
0.0
 10
90.92227102761667
 20
-141.1012925537004
 30
0.0
 10
90.93295082362093
 20
-141.1605481960467
 30
0.0
 10
90.96464570208523
 20
-141.3086873019124
 30
0.0
 10
91.16756182616645
 20
-141.3086873019124
 30
0.0
 10
91.45970592331563
 20
-141.3086873019124
 30
0.0
 10
91.49760197365338
 20
-140.9786471544255
 30
0.0
 10
91.51034882694879
 20
-140.7734917182788
 30
0.0
 10
91.4193983061382
 20
-140.8537624430852
 30
0.0
 10
91.35187443462731
 20
-140.9109510281403
 30
0.0
 10
91.16997339300612
 20
-140.9109510281403
 30
0.0
 10
90.99013940867608
 20
-140.9109510281403
 30
0.0
 10
90.68731551552261
 20
-140.8051865967431
 30
0.0
 10
90.68731551552261
 20
-140.3990098390322
 30
0.0
 10
90.68731551552261
 20
-140.0794772327753
 30
0.0
 10
90.88644203457006
 20
-139.8595078860421
 30
0.0
 10
91.20373532876156
 20
-139.8595078860421
 30
0.0
 10
91.71774357516085
 20
-139.8595078860421
 30
0.0
 10
91.72842337116511
 20
-140.4138237496188
 30
0.0
 10
91.72842337116511
 20
-140.6274196697042
 30
0.0
 10
91.72842337116511
 20
-140.8580688124417
 30
0.0
 10
91.70913083644773
 20
-141.503335196829
 30
0.0
 10
91.16549476887529
 20
-141.503335196829
 30
0.0
  0
HATCH
  5
15E
330
158
100
AcDbEntity
  8
レイヤー 1
 62
   250
420
  2299925
440
 33554687
100
AcDbHatch
 10
0.0
 20
0.0
 30
0.0
210
0.0
220
0.0
230
1.0
  2
SOLID
 70
     1
 71
     1
 91
        2
 92
        1
 93
        1
 72
     4
 94
        3
 73
     0
 74
     0
 95
       17
 96
       13
 40
0.0
 40
0.0
 40
0.0
 40
0.0
 40
1.0
 40
1.0
 40
1.0
 40
2.0
 40
2.0
 40
2.0
 40
3.0
 40
3.0
 40
3.0
 40
4.0
 40
4.0
 40
4.0
 40
4.0
 10
91.20580238605272
 20
-140.0520887236675
 10
91.08729110136012
 20
-140.0520887236675
 10
90.91159123161238
 20
-140.1091050539484
 10
90.91159123161238
 20
-140.3947034696756
 10
90.91159123161238
 20
-140.6210462430565
 10
91.05146210831353
 20
-140.7163031332237
 10
91.18685436088384
 20
-140.7163031332237
 10
91.44902612731135
 20
-140.7163031332237
 10
91.48726668719763
 20
-140.5068413277205
 10
91.48726668719763
 20
-140.3905693550933
 10
91.48726668719763
 20
-140.2148694853456
 10
91.39183754225621
 20
-140.0520887236675
 10
91.20580238605272
 20
-140.0520887236675
 97
        0
 97
        1
330
15C
 92
        1
 93
        1
 72
     4
 94
        3
 73
     0
 74
     0
 95
       32
 96
       28
 40
0.0
 40
0.0
 40
0.0
 40
0.0
 40
1.0
 40
1.0
 40
1.0
 40
2.0
 40
2.0
 40
2.0
 40
3.0
 40
3.0
 40
3.0
 40
4.0
 40
4.0
 40
4.0
 40
5.0
 40
5.0
 40
5.0
 40
6.0
 40
6.0
 40
6.0
 40
7.0
 40
7.0
 40
7.0
 40
8.0
 40
8.0
 40
8.0
 40
9.0
 40
9.0
 40
9.0
 40
9.0
 10
91.16549476887529
 20
-141.503335196829
 10
90.99220646596723
 20
-141.503335196829
 10
90.74657115786891
 20
-141.4333997584784
 10
90.70867510753116
 20
-141.1012925537004
 10
90.70867510753116
 20
-141.1012925537004
 10
90.92227102761667
 20
-141.1012925537004
 10
90.92227102761667
 20
-141.1012925537004
 10
90.93295082362093
 20
-141.1605481960467
 10
90.96464570208523
 20
-141.3086873019124
 10
91.16756182616645
 20
-141.3086873019124
 10
91.45970592331563
 20
-141.3086873019124
 10
91.49760197365338
 20
-140.9786471544255
 10
91.51034882694879
 20
-140.7734917182788
 10
91.4193983061382
 20
-140.8537624430852
 10
91.35187443462731
 20
-140.9109510281403
 10
91.16997339300612
 20
-140.9109510281403
 10
90.99013940867608
 20
-140.9109510281403
 10
90.68731551552261
 20
-140.8051865967431
 10
90.68731551552261
 20
-140.3990098390322
 10
90.68731551552261
 20
-140.0794772327753
 10
90.88644203457006
 20
-139.8595078860421
 10
91.20373532876156
 20
-139.8595078860421
 10
91.71774357516085
 20
-139.8595078860421
 10
91.72842337116511
 20
-140.4138237496188
 10
91.72842337116511
 20
-140.6274196697042
 10
91.72842337116511
 20
-140.8580688124417
 10
91.70913083644773
 20
-141.503335196829
 10
91.16549476887529
 20
-141.503335196829
 97
        0
 97
        1
330
15D
 75
     2
 76
     1
 98
        1
 10
0.0
 20
0.0
450
        0
451
        0
460
0.0
461
0.0
452
        0
462
0.0
453
        0
470

  0
ENDBLK
  5
15B
330
158
100
AcDbEntity
  8
0
100
AcDbBlockEnd
  0
BLOCK
  5
162
330
160
100
AcDbEntity
  8
0
100
AcDbBlockBegin
  2
Block_10
 70
     0
 10
0.0
 20
0.0
 30
0.0
  3
Block_10
  1

  0
SPLINE
  5
164
330
160
100
AcDbEntity
  8
レイヤー 1
100
AcDbSpline
210
0.0
220
0.0
230
1.0
 70
    11
 71
     3
 72
    26
 73
    22
 74
     0
 42
0.0000000001
 43
0.0000000001
 40
0.0
 40
0.0
 40
0.0
 40
0.0
 40
1.0
 40
1.0
 40
1.0
 40
2.0
 40
2.0
 40
2.0
 40
3.0
 40
3.0
 40
3.0
 40
4.0
 40
4.0
 40
4.0
 40
5.0
 40
5.0
 40
5.0
 40
6.0
 40
6.0
 40
6.0
 40
7.0
 40
7.0
 40
7.0
 40
7.0
 10
98.69836830214833
 20
-149.6876762863628
 30
0.0
 10
98.69836830214833
 20
-149.6876762863628
 30
0.0
 10
98.69836830214833
 20
-148.583350928566
 30
0.0
 10
98.69836830214833
 20
-148.583350928566
 30
0.0
 10
98.69836830214833
 20
-148.583350928566
 30
0.0
 10
98.3683281546614
 20
-148.583350928566
 30
0.0
 10
98.3683281546614
 20
-148.583350928566
 30
0.0
 10
98.3683281546614
 20
-148.583350928566
 30
0.0
 10
98.3683281546614
 20
-148.4352118227002
 30
0.0
 10
98.3683281546614
 20
-148.4352118227002
 30
0.0
 10
98.70043535943949
 20
-148.4205701668879
 30
0.0
 10
98.74694414849036
 20
-148.2576171504356
 30
0.0
 10
98.77657196966351
 20
-148.1434122350995
 30
0.0
 10
98.77657196966351
 20
-148.1434122350995
 30
0.0
 10
98.92264401823808
 20
-148.1434122350995
 30
0.0
 10
98.92264401823808
 20
-148.1434122350995
 30
0.0
 10
98.92264401823808
 20
-148.1434122350995
 30
0.0
 10
98.92264401823808
 20
-149.6876762863628
 30
0.0
 10
98.92264401823808
 20
-149.6876762863628
 30
0.0
 10
98.92264401823808
 20
-149.6876762863628
 30
0.0
 10
98.69836830214833
 20
-149.6876762863628
 30
0.0
 10
98.69836830214833
 20
-149.6876762863628
 30
0.0
  0
HATCH
  5
165
330
160
100
AcDbEntity
  8
レイヤー 1
 62
   250
420
  2299925
440
 33554687
100
AcDbHatch
 10
0.0
 20
0.0
 30
0.0
210
0.0
220
0.0
230
1.0
  2
SOLID
 70
     1
 71
     1
 91
        1
 92
        1
 93
        1
 72
     4
 94
        3
 73
     0
 74
     0
 95
       26
 96
       22
 40
0.0
 40
0.0
 40
0.0
 40
0.0
 40
1.0
 40
1.0
 40
1.0
 40
2.0
 40
2.0
 40
2.0
 40
3.0
 40
3.0
 40
3.0
 40
4.0
 40
4.0
 40
4.0
 40
5.0
 40
5.0
 40
5.0
 40
6.0
 40
6.0
 40
6.0
 40
7.0
 40
7.0
 40
7.0
 40
7.0
 10
98.69836830214833
 20
-149.6876762863628
 10
98.69836830214833
 20
-149.6876762863628
 10
98.69836830214833
 20
-148.583350928566
 10
98.69836830214833
 20
-148.583350928566
 10
98.69836830214833
 20
-148.583350928566
 10
98.3683281546614
 20
-148.583350928566
 10
98.3683281546614
 20
-148.583350928566
 10
98.3683281546614
 20
-148.583350928566
 10
98.3683281546614
 20
-148.4352118227002
 10
98.3683281546614
 20
-148.4352118227002
 10
98.70043535943949
 20
-148.4205701668879
 10
98.74694414849036
 20
-148.2576171504356
 10
98.77657196966351
 20
-148.1434122350995
 10
98.77657196966351
 20
-148.1434122350995
 10
98.92264401823808
 20
-148.1434122350995
 10
98.92264401823808
 20
-148.1434122350995
 10
98.92264401823808
 20
-148.1434122350995
 10
98.92264401823808
 20
-149.6876762863628
 10
98.92264401823808
 20
-149.6876762863628
 10
98.92264401823808
 20
-149.6876762863628
 10
98.69836830214833
 20
-149.6876762863628
 10
98.69836830214833
 20
-149.6876762863628
 97
        0
 97
        1
330
164
 75
     2
 76
     1
 98
        1
 10
0.0
 20
0.0
450
        0
451
        0
460
0.0
461
0.0
452
        0
462
0.0
453
        0
470

  0
ENDBLK
  5
163
330
160
100
AcDbEntity
  8
0
100
AcDbBlockEnd
  0
BLOCK
  5
168
330
166
100
AcDbEntity
  8
0
100
AcDbBlockBegin
  2
Block_11
 70
     0
 10
0.0
 20
0.0
 30
0.0
  3
Block_11
  1

  0
INSERT
  5
16B
330
166
100
AcDbEntity
  8
レイヤー 1
100
AcDbBlockReference
  2
Block_12
 10
0.0
 20
0.0
 30
0.0
  0
INSERT
  5
172
330
166
100
AcDbEntity
  8
レイヤー 1
100
AcDbBlockReference
  2
Block_13
 10
0.0
 20
0.0
 30
0.0
  0
ENDBLK
  5
169
330
166
100
AcDbEntity
  8
0
100
AcDbBlockEnd
  0
BLOCK
  5
16C
330
16A
100
AcDbEntity
  8
0
100
AcDbBlockBegin
  2
Block_12
 70
     0
 10
0.0
 20
0.0
 30
0.0
  3
Block_12
  1

  0
LINE
  5
16E
330
16A
100
AcDbEntity
  8
レイヤー 1
 62
    18
420
        0
370
     9
100
AcDbLine
 10
108.2546639621739
 20
-148.6211178413314
 30
0.0
 11
109.0659822748087
 21
-149.2057764522963
 31
0.0
  0
LINE
  5
16F
330
16A
100
AcDbEntity
  8
レイヤー 1
 62
    18
420
        0
370
     9
100
AcDbLine
 10
108.2546639621739
 20
-148.6211178413314
 30
0.0
 11
110.8323052853017
 21
-151.7782320072092
 31
0.0
  0
LINE
  5
170
330
16A
100
AcDbEntity
  8
レイヤー 1
 62
    18
420
        0
370
     9
100
AcDbLine
 10
108.2546639621739
 20
-148.6211178413314
 30
0.0
 11
108.6649797850392
 21
-149.5332247855479
 31
0.0
  0
ENDBLK
  5
16D
330
16A
100
AcDbEntity
  8
0
100
AcDbBlockEnd
  0
BLOCK
  5
173
330
171
100
AcDbEntity
  8
0
100
AcDbBlockBegin
  2
Block_13
 70
     0
 10
0.0
 20
0.0
 30
0.0
  3
Block_13
  1

  0
INSERT
  5
176
330
171
100
AcDbEntity
  8
レイヤー 1
100
AcDbBlockReference
  2
Block_14
 10
0.0
 20
0.0
 30
0.0
  0
ENDBLK
  5
174
330
171
100
AcDbEntity
  8
0
100
AcDbBlockEnd
  0
BLOCK
  5
177
330
175
100
AcDbEntity
  8
0
100
AcDbBlockBegin
  2
Block_14
 70
     0
 10
0.0
 20
0.0
 30
0.0
  3
Block_14
  1

  0
SPLINE
  5
179
330
175
100
AcDbEntity
  8
レイヤー 1
100
AcDbSpline
210
0.0
220
0.0
230
1.0
 70
     9
 71
     3
 72
    17
 73
    13
 74
     0
 42
0.0000000001
 43
0.0000000001
 40
0.0
 40
0.0
 40
0.0
 40
0.0
 40
1.0
 40
1.0
 40
1.0
 40
2.0
 40
2.0
 40
2.0
 40
3.0
 40
3.0
 40
3.0
 40
4.0
 40
4.0
 40
4.0
 40
4.0
 10
112.4989040517364
 20
-152.2256781303463
 30
0.0
 10
112.4820230838586
 20
-152.2553059515195
 30
0.0
 10
112.4313801802255
 20
-152.3483235296212
 30
0.0
 10
112.4207003842212
 20
-152.3672715547901
 30
0.0
 10
112.6112141645555
 20
-152.4265271971364
 30
0.0
 10
112.6322292470155
 20
-152.4330728785584
 30
0.0
 10
112.7042317426573
 20
-152.4602891328919
 30
0.0
 10
112.7590087608727
 20
-152.3738172362121
 30
0.0
 10
112.7824354101724
 20
-152.2997476832792
 30
0.0
 10
112.797249320759
 20
-152.2256781303463
 30
0.0
 10
112.797249320759
 20
-152.2256781303463
 30
0.0
 10
112.4989040517364
 20
-152.2256781303463
 30
0.0
 10
112.4989040517364
 20
-152.2256781303463
 30
0.0
  0
SPLINE
  5
17A
330
175
100
AcDbEntity
  8
レイヤー 1
100
AcDbSpline
210
0.0
220
0.0
230
1.0
 70
    11
 71
     3
 72
    20
 73
    16
 74
     0
 42
0.0000000001
 43
0.0000000001
 40
0.0
 40
0.0
 40
0.0
 40
0.0
 40
1.0
 40
1.0
 40
1.0
 40
2.0
 40
2.0
 40
2.0
 40
3.0
 40
3.0
 40
3.0
 40
4.0
 40
4.0
 40
4.0
 40
5.0
 40
5.0
 40
5.0
 40
5.0
 10
112.4355142948078
 20
-151.3750840550381
 30
0.0
 10
112.4355142948078
 20
-151.3750840550381
 30
0.0
 10
112.4038194163435
 20
-151.3750840550381
 30
0.0
 10
112.4038194163435
 20
-151.3750840550381
 30
0.0
 10
112.4503282053944
 20
-151.4746473145619
 30
0.0
 10
112.4820230838586
 20
-151.5549180393682
 30
0.0
 10
112.5157850196141
 20
-151.6820420627739
 30
0.0
 10
112.5157850196141
 20
-151.6820420627739
 30
0.0
 10
112.7231797678261
 20
-151.6820420627739
 30
0.0
 10
112.7231797678261
 20
-151.6820420627739
 30
0.0
 10
112.7548746462904
 20
-151.5890244846722
 30
0.0
 10
112.7783012955901
 20
-151.504275135735
 30
0.0
 10
112.8013834353413
 20
-151.3750840550381
 30
0.0
 10
112.8013834353413
 20
-151.3750840550381
 30
0.0
 10
112.4355142948078
 20
-151.3750840550381
 30
0.0
 10
112.4355142948078
 20
-151.3750840550381
 30
0.0
  0
SPLINE
  5
17B
330
175
100
AcDbEntity
  8
レイヤー 1
100
AcDbSpline
210
0.0
220
0.0
230
1.0
 70
     9
 71
     3
 72
   242
 73
   238
 74
     0
 42
0.0000000001
 43
0.0000000001
 40
0.0
 40
0.0
 40
0.0
 40
0.0
 40
1.0
 40
1.0
 40
1.0
 40
2.0
 40
2.0
 40
2.0
 40
3.0
 40
3.0
 40
3.0
 40
4.0
 40
4.0
 40
4.0
 40
5.0
 40
5.0
 40
5.0
 40
6.0
 40
6.0
 40
6.0
 40
7.0
 40
7.0
 40
7.0
 40
8.0
 40
8.0
 40
8.0
 40
9.0
 40
9.0
 40
9.0
 40
10.0
 40
10.0
 40
10.0
 40
11.0
 40
11.0
 40
11.0
 40
12.0
 40
12.0
 40
12.0
 40
13.0
 40
13.0
 40
13.0
 40
14.0
 40
14.0
 40
14.0
 40
15.0
 40
15.0
 40
15.0
 40
16.0
 40
16.0
 40
16.0
 40
17.0
 40
17.0
 40
17.0
 40
18.0
 40
18.0
 40
18.0
 40
19.0
 40
19.0
 40
19.0
 40
20.0
 40
20.0
 40
20.0
 40
21.0
 40
21.0
 40
21.0
 40
22.0
 40
22.0
 40
22.0
 40
23.0
 40
23.0
 40
23.0
 40
24.0
 40
24.0
 40
24.0
 40
25.0
 40
25.0
 40
25.0
 40
26.0
 40
26.0
 40
26.0
 40
27.0
 40
27.0
 40
27.0
 40
28.0
 40
28.0
 40
28.0
 40
29.0
 40
29.0
 40
29.0
 40
30.0
 40
30.0
 40
30.0
 40
31.0
 40
31.0
 40
31.0
 40
32.0
 40
32.0
 40
32.0
 40
33.0
 40
33.0
 40
33.0
 40
34.0
 40
34.0
 40
34.0
 40
35.0
 40
35.0
 40
35.0
 40
36.0
 40
36.0
 40
36.0
 40
37.0
 40
37.0
 40
37.0
 40
38.0
 40
38.0
 40
38.0
 40
39.0
 40
39.0
 40
39.0
 40
40.0
 40
40.0
 40
40.0
 40
41.0
 40
41.0
 40
41.0
 40
42.0
 40
42.0
 40
42.0
 40
43.0
 40
43.0
 40
43.0
 40
44.0
 40
44.0
 40
44.0
 40
45.0
 40
45.0
 40
45.0
 40
46.0
 40
46.0
 40
46.0
 40
47.0
 40
47.0
 40
47.0
 40
48.0
 40
48.0
 40
48.0
 40
49.0
 40
49.0
 40
49.0
 40
50.0
 40
50.0
 40
50.0
 40
51.0
 40
51.0
 40
51.0
 40
52.0
 40
52.0
 40
52.0
 40
53.0
 40
53.0
 40
53.0
 40
54.0
 40
54.0
 40
54.0
 40
55.0
 40
55.0
 40
55.0
 40
56.0
 40
56.0
 40
56.0
 40
57.0
 40
57.0
 40
57.0
 40
58.0
 40
58.0
 40
58.0
 40
59.0
 40
59.0
 40
59.0
 40
60.0
 40
60.0
 40
60.0
 40
61.0
 40
61.0
 40
61.0
 40
62.0
 40
62.0
 40
62.0
 40
63.0
 40
63.0
 40
63.0
 40
64.0
 40
64.0
 40
64.0
 40
65.0
 40
65.0
 40
65.0
 40
66.0
 40
66.0
 40
66.0
 40
67.0
 40
67.0
 40
67.0
 40
68.0
 40
68.0
 40
68.0
 40
69.0
 40
69.0
 40
69.0
 40
70.0
 40
70.0
 40
70.0
 40
71.0
 40
71.0
 40
71.0
 40
72.0
 40
72.0
 40
72.0
 40
73.0
 40
73.0
 40
73.0
 40
74.0
 40
74.0
 40
74.0
 40
75.0
 40
75.0
 40
75.0
 40
76.0
 40
76.0
 40
76.0
 40
77.0
 40
77.0
 40
77.0
 40
78.0
 40
78.0
 40
78.0
 40
79.0
 40
79.0
 40
79.0
 40
79.0
 10
113.0638997113173
 20
-151.8405164550954
 30
0.0
 10
113.0638997113173
 20
-151.8405164550954
 30
0.0
 10
112.8099961740544
 20
-151.8405164550954
 30
0.0
 10
112.8099961740544
 20
-151.8405164550954
 30
0.0
 10
112.8099961740544
 20
-151.8405164550954
 30
0.0
 10
112.5326659874918
 20
-151.8405164550954
 30
0.0
 10
112.5326659874918
 20
-151.8405164550954
 30
0.0
 10
112.5326659874918
 20
-151.8405164550954
 30
0.0
 10
112.6597900108975
 20
-151.882891129564
 30
0.0
 10
112.6597900108975
 20
-151.882891129564
 30
0.0
 10
112.6704698069018
 20
-151.8870252441463
 30
0.0
 10
112.6828721506487
 20
-151.8935709255682
 30
0.0
 10
112.6828721506487
 20
-151.9063177788637
 30
0.0
 10
112.6828721506487
 20
-151.9273328613237
 30
0.0
 10
112.6511772721844
 20
-151.9335340331972
 30
0.0
 10
112.6301621897244
 20
-151.938012657328
 30
0.0
 10
112.6194823937201
 20
-151.9610947970791
 30
0.0
 10
112.5898545725469
 20
-152.0268961208474
 30
0.0
 10
112.5709065473781
 20
-152.0713378526072
 30
0.0
 10
112.5709065473781
 20
-152.0713378526072
 30
0.0
 10
112.8416910525187
 20
-152.0713378526072
 30
0.0
 10
112.8416910525187
 20
-152.0713378526072
 30
0.0
 10
112.9326415733293
 20
-152.0713378526072
 30
0.0
 10
113.1293565255371
 20
-152.0668592284763
 30
0.0
 10
113.2709499499809
 20
-152.0585909993117
 30
0.0
 10
113.2709499499809
 20
-152.0585909993117
 30
0.0
 10
113.2709499499809
 20
-152.2363579263506
 30
0.0
 10
113.2709499499809
 20
-152.2363579263506
 30
0.0
 10
113.1886121678834
 20
-152.2318793022198
 30
0.0
 10
113.1675970854234
 20
-152.2318793022198
 30
0.0
 10
112.9877631010933
 20
-152.2277451876375
 30
0.0
 10
112.956068222629
 20
-152.3820854653767
 30
0.0
 10
112.9116264908693
 20
-152.4627006997315
 30
0.0
 10
112.8671847591096
 20
-152.5322916285336
 30
0.0
 10
112.9877631010933
 20
-152.5915472708799
 30
0.0
 10
113.0935275324905
 20
-152.6594156519393
 30
0.0
 10
113.1972249065965
 20
-152.7417534340368
 30
0.0
 10
113.1972249065965
 20
-152.7417534340368
 30
0.0
 10
113.0787136219039
 20
-152.9088405650714
 30
0.0
 10
113.0787136219039
 20
-152.9088405650714
 30
0.0
 10
113.0552869726042
 20
-152.8898925399025
 30
0.0
 10
113.0425401193088
 20
-152.8812798011894
 30
0.0
 10
112.9305745160382
 20
-152.7968749618008
 30
0.0
 10
112.8819986696961
 20
-152.7586344019145
 30
0.0
 10
112.8227430273498
 20
-152.7228054088679
 30
0.0
 10
112.742127792995
 20
-152.6783636771082
 30
0.0
 10
112.5305989302006
 20
-152.8643988333117
 30
0.0
 10
112.3256157488283
 20
-152.8878254826114
 30
0.0
 10
112.0355387089703
 20
-152.9174533037845
 30
0.0
 10
112.0355387089703
 20
-152.9174533037845
 30
0.0
 10
111.9318413348642
 20
-152.7376193194545
 30
0.0
 10
111.9318413348642
 20
-152.7376193194545
 30
0.0
 10
112.2494791386043
 20
-152.7334852048721
 30
0.0
 10
112.4248344988035
 20
-152.7079914982813
 30
0.0
 10
112.5771077192515
 20
-152.5980929523018
 30
0.0
 10
112.4585964345589
 20
-152.5471055391201
 30
0.0
 10
112.370057480588
 20
-152.5195447752382
 30
0.0
 10
112.3338839779929
 20
-152.5071424314913
 30
0.0
 10
112.314935952824
 20
-152.5343586858247
 30
0.0
 10
112.3001220422374
 20
-152.5536512205421
 30
0.0
 10
112.2725612783554
 20
-152.5874131562976
 30
0.0
 10
112.2725612783554
 20
-152.5874131562976
 30
0.0
 10
112.0758463261477
 20
-152.5047308646516
 30
0.0
 10
112.0758463261477
 20
-152.5047308646516
 30
0.0
 10
112.1585286177937
 20
-152.4244601398453
 30
0.0
 10
112.2198513174311
 20
-152.3293755044524
 30
0.0
 10
112.2766953929378
 20
-152.2277451876375
 30
0.0
 10
112.0865261221519
 20
-152.2318793022198
 30
0.0
 10
112.0651665301434
 20
-152.2318793022198
 30
0.0
 10
111.9828287480459
 20
-152.2363579263506
 30
0.0
 10
111.9828287480459
 20
-152.2363579263506
 30
0.0
 10
111.9828287480459
 20
-152.0585909993117
 30
0.0
 10
111.9828287480459
 20
-152.0585909993117
 30
0.0
 10
112.1223551151986
 20
-152.0647921711852
 30
0.0
 10
112.3318169207017
 20
-152.0689262857675
 30
0.0
 10
112.3573106272926
 20
-152.0689262857675
 30
0.0
 10
112.3741915951703
 20
-152.035164350012
 30
0.0
 10
112.4293131229343
 20
-151.9145860080283
 30
0.0
 10
112.4482611481032
 20
-151.8405164550954
 30
0.0
 10
112.4293131229343
 20
-151.8405164550954
 30
0.0
 10
112.2515461958954
 20
-151.8470621365174
 30
0.0
 10
112.0568983009788
 20
-151.8598089898128
 30
0.0
 10
112.0568983009788
 20
-151.8598089898128
 30
0.0
 10
112.0568983009788
 20
-151.9927896755434
 30
0.0
 10
112.0568983009788
 20
-151.9927896755434
 30
0.0
 10
112.0083224546368
 20
-152.0182833821343
 30
0.0
 10
111.9490668122905
 20
-152.0499782605986
 30
0.0
 10
111.8157416170113
 20
-152.1157795843669
 30
0.0
 10
111.8157416170113
 20
-152.1157795843669
 30
0.0
 10
111.8157416170113
 20
-152.2615071233929
 30
0.0
 10
111.8157416170113
 20
-152.2615071233929
 30
0.0
 10
111.8157416170113
 20
-152.2615071233929
 30
0.0
 10
111.8157416170113
 20
-152.7290065807413
 30
0.0
 10
111.8157416170113
 20
-152.7290065807413
 30
0.0
 10
111.8157416170113
 20
-152.8561306041471
 30
0.0
 10
111.7795681144162
 20
-152.9153862464933
 30
0.0
 10
111.4960367559801
 20
-152.9067735077802
 30
0.0
 10
111.4960367559801
 20
-152.9067735077802
 30
0.0
 10
111.3926838914226
 20
-152.6993787595682
 30
0.0
 10
111.3926838914226
 20
-152.6993787595682
 30
0.0
 10
111.4560736483512
 20
-152.7121256128636
 30
0.0
 10
111.5046494946932
 20
-152.7162597274459
 30
0.0
 10
111.5449571118707
 20
-152.7162597274459
 30
0.0
 10
111.6210937220947
 20
-152.7162597274459
 30
0.0
 10
111.6314290085504
 20
-152.6931775876948
 30
0.0
 10
111.6314290085504
 20
-152.627720773475
 30
0.0
 10
111.6314290085504
 20
-152.627720773475
 30
0.0
 10
111.6314290085504
 20
-152.1981173664643
 30
0.0
 10
111.6314290085504
 20
-152.1981173664643
 30
0.0
 10
111.5342773158664
 20
-152.2384249836417
 30
0.0
 10
111.5173963479887
 20
-152.2446261555152
 30
0.0
 10
111.4708875589378
 20
-152.2635741806841
 30
0.0
 10
111.4667534443555
 20
-152.2849337726926
 30
0.0
 10
111.4622748202247
 20
-152.3145615938658
 30
0.0
 10
111.4433267950558
 20
-152.3145615938658
 30
0.0
 10
111.4347140563427
 20
-152.3145615938658
 30
0.0
 10
111.424378769887
 20
-152.3104274792835
 30
0.0
 10
111.417833088465
 20
-152.2870008299838
 30
0.0
 10
111.417833088465
 20
-152.2870008299838
 30
0.0
 10
111.3651231275406
 20
-152.0944199923583
 30
0.0
 10
111.3651231275406
 20
-152.0944199923583
 30
0.0
 10
111.5108506665667
 20
-152.0479112033074
 30
0.0
 10
111.576651990335
 20
-152.0248290635563
 30
0.0
 10
111.6314290085504
 20
-152.0034694715477
 30
0.0
 10
111.6314290085504
 20
-152.0034694715477
 30
0.0
 10
111.6314290085504
 20
-151.5910915419633
 30
0.0
 10
111.6314290085504
 20
-151.5910915419633
 30
0.0
 10
111.6314290085504
 20
-151.5910915419633
 30
0.0
 10
111.5787190476261
 20
-151.5910915419633
 30
0.0
 10
111.5787190476261
 20
-151.5910915419633
 30
0.0
 10
111.5787190476261
 20
-151.5910915419633
 30
0.0
 10
111.500515380111
 20
-151.5910915419633
 30
0.0
 10
111.500515380111
 20
-151.5910915419633
 30
0.0
 10
111.4326469990515
 20
-151.5910915419633
 30
0.0
 10
111.424378769887
 20
-151.5910915419633
 30
0.0
 10
111.3882052672918
 20
-151.5972927138368
 30
0.0
 10
111.3882052672918
 20
-151.5972927138368
 30
0.0
 10
111.3882052672918
 20
-151.4026448189202
 30
0.0
 10
111.3882052672918
 20
-151.4026448189202
 30
0.0
 10
111.4157660311738
 20
-151.4091905003421
 30
0.0
 10
111.424378769887
 20
-151.4091905003421
 30
0.0
 10
111.493969698689
 20
-151.4091905003421
 30
0.0
 10
111.493969698689
 20
-151.4091905003421
 30
0.0
 10
111.6272948939682
 20
-151.4091905003421
 30
0.0
 10
111.6272948939682
 20
-151.4091905003421
 30
0.0
 10
111.6272948939682
 20
-151.3392550619916
 30
0.0
 10
111.6272948939682
 20
-151.2565727703456
 30
0.0
 10
111.625227836677
 20
-151.2524386557633
 30
0.0
 10
111.6169596075124
 20
-151.0726046714332
 30
0.0
 10
111.6169596075124
 20
-151.0536566462643
 30
0.0
 10
111.6145480406727
 20
-151.0071478572135
 30
0.0
 10
111.6145480406727
 20
-151.0071478572135
 30
0.0
 10
111.8305555275979
 20
-151.0154160863781
 30
0.0
 10
111.8305555275979
 20
-151.0154160863781
 30
0.0
 10
111.8408908140536
 20
-151.0154160863781
 30
0.0
 10
111.8622504060622
 20
-151.0178276532178
 30
0.0
 10
111.8622504060622
 20
-151.0347086210955
 30
0.0
 10
111.8622504060622
 20
-151.0536566462643
 30
0.0
 10
111.8474364954756
 20
-151.0643364422686
 30
0.0
 10
111.8219427888848
 20
-151.0832844674375
 30
0.0
 10
111.8219427888848
 20
-151.1339273710707
 30
0.0
 10
111.8157416170113
 20
-151.3623372017427
 30
0.0
 10
111.8178086743025
 20
-151.4091905003421
 30
0.0
 10
111.9466552454508
 20
-151.4091905003421
 30
0.0
 10
111.9594020987462
 20
-151.4091905003421
 30
0.0
 10
112.0568983009788
 20
-151.400577761629
 30
0.0
 10
112.0568983009788
 20
-151.400577761629
 30
0.0
 10
112.0568983009788
 20
-151.5952256565456
 30
0.0
 10
112.0568983009788
 20
-151.5952256565456
 30
0.0
 10
112.0186577410925
 20
-151.5931585992545
 30
0.0
 10
111.9511338695816
 20
-151.5890244846722
 30
0.0
 10
111.8157416170113
 20
-151.5910915419633
 30
0.0
 10
111.8157416170113
 20
-151.5910915419633
 30
0.0
 10
111.8157416170113
 20
-151.9293999186148
 30
0.0
 10
111.8157416170113
 20
-151.9293999186148
 30
0.0
 10
111.8705186352268
 20
-151.9063177788637
 30
0.0
 10
111.9363199589951
 20
-151.8787570149817
 30
0.0
 10
111.9848958053371
 20
-151.855330365682
 30
0.0
 10
111.9848958053371
 20
-151.855330365682
 30
0.0
 10
111.9848958053371
 20
-151.6775634386431
 30
0.0
 10
111.9848958053371
 20
-151.6775634386431
 30
0.0
 10
112.0992729754474
 20
-151.6903102919385
 30
0.0
 10
112.2174397505915
 20
-151.6903102919385
 30
0.0
 10
112.3338839779929
 20
-151.6903102919385
 30
0.0
 10
112.3108018382417
 20
-151.5952256565456
 30
0.0
 10
112.2832410743597
 20
-151.5125433648996
 30
0.0
 10
112.2198513174311
 20
-151.379562679169
 30
0.0
 10
112.1754095856714
 20
-151.3816297364601
 30
0.0
 10
112.0927272940254
 20
-151.3857638510424
 30
0.0
 10
112.0548312436877
 20
-151.3878309083336
 30
0.0
 10
112.0548312436877
 20
-151.3878309083336
 30
0.0
 10
112.0548312436877
 20
-151.2079969240035
 30
0.0
 10
112.0548312436877
 20
-151.2079969240035
 30
0.0
 10
112.1795437002537
 20
-151.2166096627167
 30
0.0
 10
112.3528320031618
 20
-151.220743777299
 30
0.0
 10
112.4355142948078
 20
-151.220743777299
 30
0.0
 10
112.4355142948078
 20
-151.220743777299
 30
0.0
 10
112.5178520769053
 20
-151.220743777299
 30
0.0
 10
112.5178520769053
 20
-151.220743777299
 30
0.0
 10
112.5178520769053
 20
-151.0577907608466
 30
0.0
 10
112.5178520769053
 20
-151.0474554743909
 30
0.0
 10
112.5157850196141
 20
-150.9923339466269
 30
0.0
 10
112.5157850196141
 20
-150.9923339466269
 30
0.0
 10
112.7400607357039
 20
-151.0178276532178
 30
0.0
 10
112.7400607357039
 20
-151.0178276532178
 30
0.0
 10
112.7441948502861
 20
-151.0178276532178
 30
0.0
 10
112.7655544422947
 20
-151.0198947105089
 30
0.0
 10
112.7655544422947
 20
-151.0367756783866
 30
0.0
 10
112.7655544422947
 20
-151.0515895889732
 30
0.0
 10
112.7548746462904
 20
-151.0598578181378
 30
0.0
 10
112.7273138824084
 20
-151.0746717287244
 30
0.0
 10
112.721112710535
 20
-151.1404730524926
 30
0.0
 10
112.7190456532438
 20
-151.1614881349527
 30
0.0
 10
112.7190456532438
 20
-151.220743777299
 30
0.0
 10
112.7190456532438
 20
-151.220743777299
 30
0.0
 10
112.8141302886367
 20
-151.220743777299
 30
0.0
 10
112.8141302886367
 20
-151.220743777299
 30
0.0
 10
112.8968125802827
 20
-151.220743777299
 30
0.0
 10
113.0701008831908
 20
-151.2166096627167
 30
0.0
 10
113.1948133397568
 20
-151.2079969240035
 30
0.0
 10
113.1948133397568
 20
-151.2079969240035
 30
0.0
 10
113.1948133397568
 20
-151.3878309083336
 30
0.0
 10
113.1948133397568
 20
-151.3878309083336
 30
0.0
 10
113.1651855185837
 20
-151.3857638510424
 30
0.0
 10
113.0470187434396
 20
-151.3816297364601
 30
0.0
 10
113.0067111262622
 20
-151.379562679169
 30
0.0
 10
112.9918972156756
 20
-151.4302055828022
 30
0.0
 10
112.9581352799202
 20
-151.5421711860728
 30
0.0
 10
112.8923339561519
 20
-151.6820420627739
 30
0.0
 10
112.9347086306205
 20
-151.6820420627739
 30
0.0
 10
113.2120388171831
 20
-151.6627495280565
 30
0.0
 10
113.2733615168205
 20
-151.6606824707654
 30
0.0
 10
113.2733615168205
 20
-151.6606824707654
 30
0.0
 10
113.2733615168205
 20
-151.8449950792262
 30
0.0
 10
113.2733615168205
 20
-151.8449950792262
 30
0.0
 10
113.2437336956474
 20
-151.8449950792262
 30
0.0
 10
113.2268527277697
 20
-151.8405164550954
 30
0.0
 10
113.0638997113173
 20
-151.8405164550954
 30
0.0
  0
HATCH
  5
17C
330
175
100
AcDbEntity
  8
レイヤー 1
 62
    18
420
        0
440
 33554687
100
AcDbHatch
 10
0.0
 20
0.0
 30
0.0
210
0.0
220
0.0
230
1.0
  2
SOLID
 70
     1
 71
     1
 91
        3
 92
        1
 93
        1
 72
     4
 94
        3
 73
     0
 74
     0
 95
       17
 96
       13
 40
0.0
 40
0.0
 40
0.0
 40
0.0
 40
1.0
 40
1.0
 40
1.0
 40
2.0
 40
2.0
 40
2.0
 40
3.0
 40
3.0
 40
3.0
 40
4.0
 40
4.0
 40
4.0
 40
4.0
 10
112.4989040517364
 20
-152.2256781303463
 10
112.4820230838586
 20
-152.2553059515195
 10
112.4313801802255
 20
-152.3483235296212
 10
112.4207003842212
 20
-152.3672715547901
 10
112.6112141645555
 20
-152.4265271971364
 10
112.6322292470155
 20
-152.4330728785584
 10
112.7042317426573
 20
-152.4602891328919
 10
112.7590087608727
 20
-152.3738172362121
 10
112.7824354101724
 20
-152.2997476832792
 10
112.797249320759
 20
-152.2256781303463
 10
112.797249320759
 20
-152.2256781303463
 10
112.4989040517364
 20
-152.2256781303463
 10
112.4989040517364
 20
-152.2256781303463
 97
        0
 97
        1
330
179
 92
        1
 93
        1
 72
     4
 94
        3
 73
     0
 74
     0
 95
       20
 96
       16
 40
0.0
 40
0.0
 40
0.0
 40
0.0
 40
1.0
 40
1.0
 40
1.0
 40
2.0
 40
2.0
 40
2.0
 40
3.0
 40
3.0
 40
3.0
 40
4.0
 40
4.0
 40
4.0
 40
5.0
 40
5.0
 40
5.0
 40
5.0
 10
112.4355142948078
 20
-151.3750840550381
 10
112.4355142948078
 20
-151.3750840550381
 10
112.4038194163435
 20
-151.3750840550381
 10
112.4038194163435
 20
-151.3750840550381
 10
112.4503282053944
 20
-151.4746473145619
 10
112.4820230838586
 20
-151.5549180393682
 10
112.5157850196141
 20
-151.6820420627739
 10
112.5157850196141
 20
-151.6820420627739
 10
112.7231797678261
 20
-151.6820420627739
 10
112.7231797678261
 20
-151.6820420627739
 10
112.7548746462904
 20
-151.5890244846722
 10
112.7783012955901
 20
-151.504275135735
 10
112.8013834353413
 20
-151.3750840550381
 10
112.8013834353413
 20
-151.3750840550381
 10
112.4355142948078
 20
-151.3750840550381
 10
112.4355142948078
 20
-151.3750840550381
 97
        0
 97
        1
330
17A
 92
        1
 93
        1
 72
     4
 94
        3
 73
     0
 74
     0
 95
      242
 96
      238
 40
0.0
 40
0.0
 40
0.0
 40
0.0
 40
1.0
 40
1.0
 40
1.0
 40
2.0
 40
2.0
 40
2.0
 40
3.0
 40
3.0
 40
3.0
 40
4.0
 40
4.0
 40
4.0
 40
5.0
 40
5.0
 40
5.0
 40
6.0
 40
6.0
 40
6.0
 40
7.0
 40
7.0
 40
7.0
 40
8.0
 40
8.0
 40
8.0
 40
9.0
 40
9.0
 40
9.0
 40
10.0
 40
10.0
 40
10.0
 40
11.0
 40
11.0
 40
11.0
 40
12.0
 40
12.0
 40
12.0
 40
13.0
 40
13.0
 40
13.0
 40
14.0
 40
14.0
 40
14.0
 40
15.0
 40
15.0
 40
15.0
 40
16.0
 40
16.0
 40
16.0
 40
17.0
 40
17.0
 40
17.0
 40
18.0
 40
18.0
 40
18.0
 40
19.0
 40
19.0
 40
19.0
 40
20.0
 40
20.0
 40
20.0
 40
21.0
 40
21.0
 40
21.0
 40
22.0
 40
22.0
 40
22.0
 40
23.0
 40
23.0
 40
23.0
 40
24.0
 40
24.0
 40
24.0
 40
25.0
 40
25.0
 40
25.0
 40
26.0
 40
26.0
 40
26.0
 40
27.0
 40
27.0
 40
27.0
 40
28.0
 40
28.0
 40
28.0
 40
29.0
 40
29.0
 40
29.0
 40
30.0
 40
30.0
 40
30.0
 40
31.0
 40
31.0
 40
31.0
 40
32.0
 40
32.0
 40
32.0
 40
33.0
 40
33.0
 40
33.0
 40
34.0
 40
34.0
 40
34.0
 40
35.0
 40
35.0
 40
35.0
 40
36.0
 40
36.0
 40
36.0
 40
37.0
 40
37.0
 40
37.0
 40
38.0
 40
38.0
 40
38.0
 40
39.0
 40
39.0
 40
39.0
 40
40.0
 40
40.0
 40
40.0
 40
41.0
 40
41.0
 40
41.0
 40
42.0
 40
42.0
 40
42.0
 40
43.0
 40
43.0
 40
43.0
 40
44.0
 40
44.0
 40
44.0
 40
45.0
 40
45.0
 40
45.0
 40
46.0
 40
46.0
 40
46.0
 40
47.0
 40
47.0
 40
47.0
 40
48.0
 40
48.0
 40
48.0
 40
49.0
 40
49.0
 40
49.0
 40
50.0
 40
50.0
 40
50.0
 40
51.0
 40
51.0
 40
51.0
 40
52.0
 40
52.0
 40
52.0
 40
53.0
 40
53.0
 40
53.0
 40
54.0
 40
54.0
 40
54.0
 40
55.0
 40
55.0
 40
55.0
 40
56.0
 40
56.0
 40
56.0
 40
57.0
 40
57.0
 40
57.0
 40
58.0
 40
58.0
 40
58.0
 40
59.0
 40
59.0
 40
59.0
 40
60.0
 40
60.0
 40
60.0
 40
61.0
 40
61.0
 40
61.0
 40
62.0
 40
62.0
 40
62.0
 40
63.0
 40
63.0
 40
63.0
 40
64.0
 40
64.0
 40
64.0
 40
65.0
 40
65.0
 40
65.0
 40
66.0
 40
66.0
 40
66.0
 40
67.0
 40
67.0
 40
67.0
 40
68.0
 40
68.0
 40
68.0
 40
69.0
 40
69.0
 40
69.0
 40
70.0
 40
70.0
 40
70.0
 40
71.0
 40
71.0
 40
71.0
 40
72.0
 40
72.0
 40
72.0
 40
73.0
 40
73.0
 40
73.0
 40
74.0
 40
74.0
 40
74.0
 40
75.0
 40
75.0
 40
75.0
 40
76.0
 40
76.0
 40
76.0
 40
77.0
 40
77.0
 40
77.0
 40
78.0
 40
78.0
 40
78.0
 40
79.0
 40
79.0
 40
79.0
 40
79.0
 10
113.0638997113173
 20
-151.8405164550954
 10
113.0638997113173
 20
-151.8405164550954
 10
112.8099961740544
 20
-151.8405164550954
 10
112.8099961740544
 20
-151.8405164550954
 10
112.8099961740544
 20
-151.8405164550954
 10
112.5326659874918
 20
-151.8405164550954
 10
112.5326659874918
 20
-151.8405164550954
 10
112.5326659874918
 20
-151.8405164550954
 10
112.6597900108975
 20
-151.882891129564
 10
112.6597900108975
 20
-151.882891129564
 10
112.6704698069018
 20
-151.8870252441463
 10
112.6828721506487
 20
-151.8935709255682
 10
112.6828721506487
 20
-151.9063177788637
 10
112.6828721506487
 20
-151.9273328613237
 10
112.6511772721844
 20
-151.9335340331972
 10
112.6301621897244
 20
-151.938012657328
 10
112.6194823937201
 20
-151.9610947970791
 10
112.5898545725469
 20
-152.0268961208474
 10
112.5709065473781
 20
-152.0713378526072
 10
112.5709065473781
 20
-152.0713378526072
 10
112.8416910525187
 20
-152.0713378526072
 10
112.8416910525187
 20
-152.0713378526072
 10
112.9326415733293
 20
-152.0713378526072
 10
113.1293565255371
 20
-152.0668592284763
 10
113.2709499499809
 20
-152.0585909993117
 10
113.2709499499809
 20
-152.0585909993117
 10
113.2709499499809
 20
-152.2363579263506
 10
113.2709499499809
 20
-152.2363579263506
 10
113.1886121678834
 20
-152.2318793022198
 10
113.1675970854234
 20
-152.2318793022198
 10
112.9877631010933
 20
-152.2277451876375
 10
112.956068222629
 20
-152.3820854653767
 10
112.9116264908693
 20
-152.4627006997315
 10
112.8671847591096
 20
-152.5322916285336
 10
112.9877631010933
 20
-152.5915472708799
 10
113.0935275324905
 20
-152.6594156519393
 10
113.1972249065965
 20
-152.7417534340368
 10
113.1972249065965
 20
-152.7417534340368
 10
113.0787136219039
 20
-152.9088405650714
 10
113.0787136219039
 20
-152.9088405650714
 10
113.0552869726042
 20
-152.8898925399025
 10
113.0425401193088
 20
-152.8812798011894
 10
112.9305745160382
 20
-152.7968749618008
 10
112.8819986696961
 20
-152.7586344019145
 10
112.8227430273498
 20
-152.7228054088679
 10
112.742127792995
 20
-152.6783636771082
 10
112.5305989302006
 20
-152.8643988333117
 10
112.3256157488283
 20
-152.8878254826114
 10
112.0355387089703
 20
-152.9174533037845
 10
112.0355387089703
 20
-152.9174533037845
 10
111.9318413348642
 20
-152.7376193194545
 10
111.9318413348642
 20
-152.7376193194545
 10
112.2494791386043
 20
-152.7334852048721
 10
112.4248344988035
 20
-152.7079914982813
 10
112.5771077192515
 20
-152.5980929523018
 10
112.4585964345589
 20
-152.5471055391201
 10
112.370057480588
 20
-152.5195447752382
 10
112.3338839779929
 20
-152.5071424314913
 10
112.314935952824
 20
-152.5343586858247
 10
112.3001220422374
 20
-152.5536512205421
 10
112.2725612783554
 20
-152.5874131562976
 10
112.2725612783554
 20
-152.5874131562976
 10
112.0758463261477
 20
-152.5047308646516
 10
112.0758463261477
 20
-152.5047308646516
 10
112.1585286177937
 20
-152.4244601398453
 10
112.2198513174311
 20
-152.3293755044524
 10
112.2766953929378
 20
-152.2277451876375
 10
112.0865261221519
 20
-152.2318793022198
 10
112.0651665301434
 20
-152.2318793022198
 10
111.9828287480459
 20
-152.2363579263506
 10
111.9828287480459
 20
-152.2363579263506
 10
111.9828287480459
 20
-152.0585909993117
 10
111.9828287480459
 20
-152.0585909993117
 10
112.1223551151986
 20
-152.0647921711852
 10
112.3318169207017
 20
-152.0689262857675
 10
112.3573106272926
 20
-152.0689262857675
 10
112.3741915951703
 20
-152.035164350012
 10
112.4293131229343
 20
-151.9145860080283
 10
112.4482611481032
 20
-151.8405164550954
 10
112.4293131229343
 20
-151.8405164550954
 10
112.2515461958954
 20
-151.8470621365174
 10
112.0568983009788
 20
-151.8598089898128
 10
112.0568983009788
 20
-151.8598089898128
 10
112.0568983009788
 20
-151.9927896755434
 10
112.0568983009788
 20
-151.9927896755434
 10
112.0083224546368
 20
-152.0182833821343
 10
111.9490668122905
 20
-152.0499782605986
 10
111.8157416170113
 20
-152.1157795843669
 10
111.8157416170113
 20
-152.1157795843669
 10
111.8157416170113
 20
-152.2615071233929
 10
111.8157416170113
 20
-152.2615071233929
 10
111.8157416170113
 20
-152.2615071233929
 10
111.8157416170113
 20
-152.7290065807413
 10
111.8157416170113
 20
-152.7290065807413
 10
111.8157416170113
 20
-152.8561306041471
 10
111.7795681144162
 20
-152.9153862464933
 10
111.4960367559801
 20
-152.9067735077802
 10
111.4960367559801
 20
-152.9067735077802
 10
111.3926838914226
 20
-152.6993787595682
 10
111.3926838914226
 20
-152.6993787595682
 10
111.4560736483512
 20
-152.7121256128636
 10
111.5046494946932
 20
-152.7162597274459
 10
111.5449571118707
 20
-152.7162597274459
 10
111.6210937220947
 20
-152.7162597274459
 10
111.6314290085504
 20
-152.6931775876948
 10
111.6314290085504
 20
-152.627720773475
 10
111.6314290085504
 20
-152.627720773475
 10
111.6314290085504
 20
-152.1981173664643
 10
111.6314290085504
 20
-152.1981173664643
 10
111.5342773158664
 20
-152.2384249836417
 10
111.5173963479887
 20
-152.2446261555152
 10
111.4708875589378
 20
-152.2635741806841
 10
111.4667534443555
 20
-152.2849337726926
 10
111.4622748202247
 20
-152.3145615938658
 10
111.4433267950558
 20
-152.3145615938658
 10
111.4347140563427
 20
-152.3145615938658
 10
111.424378769887
 20
-152.3104274792835
 10
111.417833088465
 20
-152.2870008299838
 10
111.417833088465
 20
-152.2870008299838
 10
111.3651231275406
 20
-152.0944199923583
 10
111.3651231275406
 20
-152.0944199923583
 10
111.5108506665667
 20
-152.0479112033074
 10
111.576651990335
 20
-152.0248290635563
 10
111.6314290085504
 20
-152.0034694715477
 10
111.6314290085504
 20
-152.0034694715477
 10
111.6314290085504
 20
-151.5910915419633
 10
111.6314290085504
 20
-151.5910915419633
 10
111.6314290085504
 20
-151.5910915419633
 10
111.5787190476261
 20
-151.5910915419633
 10
111.5787190476261
 20
-151.5910915419633
 10
111.5787190476261
 20
-151.5910915419633
 10
111.500515380111
 20
-151.5910915419633
 10
111.500515380111
 20
-151.5910915419633
 10
111.4326469990515
 20
-151.5910915419633
 10
111.424378769887
 20
-151.5910915419633
 10
111.3882052672918
 20
-151.5972927138368
 10
111.3882052672918
 20
-151.5972927138368
 10
111.3882052672918
 20
-151.4026448189202
 10
111.3882052672918
 20
-151.4026448189202
 10
111.4157660311738
 20
-151.4091905003421
 10
111.424378769887
 20
-151.4091905003421
 10
111.493969698689
 20
-151.4091905003421
 10
111.493969698689
 20
-151.4091905003421
 10
111.6272948939682
 20
-151.4091905003421
 10
111.6272948939682
 20
-151.4091905003421
 10
111.6272948939682
 20
-151.3392550619916
 10
111.6272948939682
 20
-151.2565727703456
 10
111.625227836677
 20
-151.2524386557633
 10
111.6169596075124
 20
-151.0726046714332
 10
111.6169596075124
 20
-151.0536566462643
 10
111.6145480406727
 20
-151.0071478572135
 10
111.6145480406727
 20
-151.0071478572135
 10
111.8305555275979
 20
-151.0154160863781
 10
111.8305555275979
 20
-151.0154160863781
 10
111.8408908140536
 20
-151.0154160863781
 10
111.8622504060622
 20
-151.0178276532178
 10
111.8622504060622
 20
-151.0347086210955
 10
111.8622504060622
 20
-151.0536566462643
 10
111.8474364954756
 20
-151.0643364422686
 10
111.8219427888848
 20
-151.0832844674375
 10
111.8219427888848
 20
-151.1339273710707
 10
111.8157416170113
 20
-151.3623372017427
 10
111.8178086743025
 20
-151.4091905003421
 10
111.9466552454508
 20
-151.4091905003421
 10
111.9594020987462
 20
-151.4091905003421
 10
112.0568983009788
 20
-151.400577761629
 10
112.0568983009788
 20
-151.400577761629
 10
112.0568983009788
 20
-151.5952256565456
 10
112.0568983009788
 20
-151.5952256565456
 10
112.0186577410925
 20
-151.5931585992545
 10
111.9511338695816
 20
-151.5890244846722
 10
111.8157416170113
 20
-151.5910915419633
 10
111.8157416170113
 20
-151.5910915419633
 10
111.8157416170113
 20
-151.9293999186148
 10
111.8157416170113
 20
-151.9293999186148
 10
111.8705186352268
 20
-151.9063177788637
 10
111.9363199589951
 20
-151.8787570149817
 10
111.9848958053371
 20
-151.855330365682
 10
111.9848958053371
 20
-151.855330365682
 10
111.9848958053371
 20
-151.6775634386431
 10
111.9848958053371
 20
-151.6775634386431
 10
112.0992729754474
 20
-151.6903102919385
 10
112.2174397505915
 20
-151.6903102919385
 10
112.3338839779929
 20
-151.6903102919385
 10
112.3108018382417
 20
-151.5952256565456
 10
112.2832410743597
 20
-151.5125433648996
 10
112.2198513174311
 20
-151.379562679169
 10
112.1754095856714
 20
-151.3816297364601
 10
112.0927272940254
 20
-151.3857638510424
 10
112.0548312436877
 20
-151.3878309083336
 10
112.0548312436877
 20
-151.3878309083336
 10
112.0548312436877
 20
-151.2079969240035
 10
112.0548312436877
 20
-151.2079969240035
 10
112.1795437002537
 20
-151.2166096627167
 10
112.3528320031618
 20
-151.220743777299
 10
112.4355142948078
 20
-151.220743777299
 10
112.4355142948078
 20
-151.220743777299
 10
112.5178520769053
 20
-151.220743777299
 10
112.5178520769053
 20
-151.220743777299
 10
112.5178520769053
 20
-151.0577907608466
 10
112.5178520769053
 20
-151.0474554743909
 10
112.5157850196141
 20
-150.9923339466269
 10
112.5157850196141
 20
-150.9923339466269
 10
112.7400607357039
 20
-151.0178276532178
 10
112.7400607357039
 20
-151.0178276532178
 10
112.7441948502861
 20
-151.0178276532178
 10
112.7655544422947
 20
-151.0198947105089
 10
112.7655544422947
 20
-151.0367756783866
 10
112.7655544422947
 20
-151.0515895889732
 10
112.7548746462904
 20
-151.0598578181378
 10
112.7273138824084
 20
-151.0746717287244
 10
112.721112710535
 20
-151.1404730524926
 10
112.7190456532438
 20
-151.1614881349527
 10
112.7190456532438
 20
-151.220743777299
 10
112.7190456532438
 20
-151.220743777299
 10
112.8141302886367
 20
-151.220743777299
 10
112.8141302886367
 20
-151.220743777299
 10
112.8968125802827
 20
-151.220743777299
 10
113.0701008831908
 20
-151.2166096627167
 10
113.1948133397568
 20
-151.2079969240035
 10
113.1948133397568
 20
-151.2079969240035
 10
113.1948133397568
 20
-151.3878309083336
 10
113.1948133397568
 20
-151.3878309083336
 10
113.1651855185837
 20
-151.3857638510424
 10
113.0470187434396
 20
-151.3816297364601
 10
113.0067111262622
 20
-151.379562679169
 10
112.9918972156756
 20
-151.4302055828022
 10
112.9581352799202
 20
-151.5421711860728
 10
112.8923339561519
 20
-151.6820420627739
 10
112.9347086306205
 20
-151.6820420627739
 10
113.2120388171831
 20
-151.6627495280565
 10
113.2733615168205
 20
-151.6606824707654
 10
113.2733615168205
 20
-151.6606824707654
 10
113.2733615168205
 20
-151.8449950792262
 10
113.2733615168205
 20
-151.8449950792262
 10
113.2437336956474
 20
-151.8449950792262
 10
113.2268527277697
 20
-151.8405164550954
 10
113.0638997113173
 20
-151.8405164550954
 97
        0
 97
        1
330
17B
 75
     2
 76
     1
 98
        1
 10
0.0
 20
0.0
450
        0
451
        0
460
0.0
461
0.0
452
        0
462
0.0
453
        0
470

  0
SPLINE
  5
17D
330
175
100
AcDbEntity
  8
レイヤー 1
100
AcDbSpline
210
0.0
220
0.0
230
1.0
 70
    11
 71
     3
 72
    17
 73
    13
 74
     0
 42
0.0000000001
 43
0.0000000001
 40
0.0
 40
0.0
 40
0.0
 40
0.0
 40
1.0
 40
1.0
 40
1.0
 40
2.0
 40
2.0
 40
2.0
 40
3.0
 40
3.0
 40
3.0
 40
4.0
 40
4.0
 40
4.0
 40
4.0
 10
114.9201171587699
 20
-152.6401231172219
 30
0.0
 10
114.9201171587699
 20
-152.6401231172219
 30
0.0
 10
114.2135280747452
 20
-152.6401231172219
 30
0.0
 10
114.2135280747452
 20
-152.6401231172219
 30
0.0
 10
114.2135280747452
 20
-152.6401231172219
 30
0.0
 10
114.2135280747452
 20
-152.7545002873322
 30
0.0
 10
114.2135280747452
 20
-152.7545002873322
 30
0.0
 10
114.2135280747452
 20
-152.7545002873322
 30
0.0
 10
114.9201171587699
 20
-152.7545002873322
 30
0.0
 10
114.9201171587699
 20
-152.7545002873322
 30
0.0
 10
114.9201171587699
 20
-152.7545002873322
 30
0.0
 10
114.9201171587699
 20
-152.6401231172219
 30
0.0
 10
114.9201171587699
 20
-152.6401231172219
 30
0.0
  0
SPLINE
  5
17E
330
175
100
AcDbEntity
  8
レイヤー 1
100
AcDbSpline
210
0.0
220
0.0
230
1.0
 70
    11
 71
     3
 72
    17
 73
    13
 74
     0
 42
0.0000000001
 43
0.0000000001
 40
0.0
 40
0.0
 40
0.0
 40
0.0
 40
1.0
 40
1.0
 40
1.0
 40
2.0
 40
2.0
 40
2.0
 40
3.0
 40
3.0
 40
3.0
 40
4.0
 40
4.0
 40
4.0
 40
4.0
 10
114.9201171587699
 20
-152.3968993759632
 30
0.0
 10
114.9201171587699
 20
-152.3968993759632
 30
0.0
 10
114.2135280747452
 20
-152.3968993759632
 30
0.0
 10
114.2135280747452
 20
-152.3968993759632
 30
0.0
 10
114.2135280747452
 20
-152.3968993759632
 30
0.0
 10
114.2135280747452
 20
-152.5112765460736
 30
0.0
 10
114.2135280747452
 20
-152.5112765460736
 30
0.0
 10
114.2135280747452
 20
-152.5112765460736
 30
0.0
 10
114.9201171587699
 20
-152.5112765460736
 30
0.0
 10
114.9201171587699
 20
-152.5112765460736
 30
0.0
 10
114.9201171587699
 20
-152.5112765460736
 30
0.0
 10
114.9201171587699
 20
-152.3968993759632
 30
0.0
 10
114.9201171587699
 20
-152.3968993759632
 30
0.0
  0
SPLINE
  5
17F
330
175
100
AcDbEntity
  8
レイヤー 1
100
AcDbSpline
210
0.0
220
0.0
230
1.0
 70
    11
 71
     3
 72
    17
 73
    13
 74
     0
 42
0.0000000001
 43
0.0000000001
 40
0.0
 40
0.0
 40
0.0
 40
0.0
 40
1.0
 40
1.0
 40
1.0
 40
2.0
 40
2.0
 40
2.0
 40
3.0
 40
3.0
 40
3.0
 40
4.0
 40
4.0
 40
4.0
 40
4.0
 10
114.9201171587699
 20
-152.1643554307089
 30
0.0
 10
114.9201171587699
 20
-152.1643554307089
 30
0.0
 10
114.2135280747452
 20
-152.1643554307089
 30
0.0
 10
114.2135280747452
 20
-152.1643554307089
 30
0.0
 10
114.2135280747452
 20
-152.1643554307089
 30
0.0
 10
114.2135280747452
 20
-152.2721869193972
 30
0.0
 10
114.2135280747452
 20
-152.2721869193972
 30
0.0
 10
114.2135280747452
 20
-152.2721869193972
 30
0.0
 10
114.9201171587699
 20
-152.2721869193972
 30
0.0
 10
114.9201171587699
 20
-152.2721869193972
 30
0.0
 10
114.9201171587699
 20
-152.2721869193972
 30
0.0
 10
114.9201171587699
 20
-152.1643554307089
 30
0.0
 10
114.9201171587699
 20
-152.1643554307089
 30
0.0
  0
SPLINE
  5
180
330
175
100
AcDbEntity
  8
レイヤー 1
100
AcDbSpline
210
0.0
220
0.0
230
1.0
 70
     9
 71
     3
 72
   203
 73
   199
 74
     0
 42
0.0000000001
 43
0.0000000001
 40
0.0
 40
0.0
 40
0.0
 40
0.0
 40
1.0
 40
1.0
 40
1.0
 40
2.0
 40
2.0
 40
2.0
 40
3.0
 40
3.0
 40
3.0
 40
4.0
 40
4.0
 40
4.0
 40
5.0
 40
5.0
 40
5.0
 40
6.0
 40
6.0
 40
6.0
 40
7.0
 40
7.0
 40
7.0
 40
8.0
 40
8.0
 40
8.0
 40
9.0
 40
9.0
 40
9.0
 40
10.0
 40
10.0
 40
10.0
 40
11.0
 40
11.0
 40
11.0
 40
12.0
 40
12.0
 40
12.0
 40
13.0
 40
13.0
 40
13.0
 40
14.0
 40
14.0
 40
14.0
 40
15.0
 40
15.0
 40
15.0
 40
16.0
 40
16.0
 40
16.0
 40
17.0
 40
17.0
 40
17.0
 40
18.0
 40
18.0
 40
18.0
 40
19.0
 40
19.0
 40
19.0
 40
20.0
 40
20.0
 40
20.0
 40
21.0
 40
21.0
 40
21.0
 40
22.0
 40
22.0
 40
22.0
 40
23.0
 40
23.0
 40
23.0
 40
24.0
 40
24.0
 40
24.0
 40
25.0
 40
25.0
 40
25.0
 40
26.0
 40
26.0
 40
26.0
 40
27.0
 40
27.0
 40
27.0
 40
28.0
 40
28.0
 40
28.0
 40
29.0
 40
29.0
 40
29.0
 40
30.0
 40
30.0
 40
30.0
 40
31.0
 40
31.0
 40
31.0
 40
32.0
 40
32.0
 40
32.0
 40
33.0
 40
33.0
 40
33.0
 40
34.0
 40
34.0
 40
34.0
 40
35.0
 40
35.0
 40
35.0
 40
36.0
 40
36.0
 40
36.0
 40
37.0
 40
37.0
 40
37.0
 40
38.0
 40
38.0
 40
38.0
 40
39.0
 40
39.0
 40
39.0
 40
40.0
 40
40.0
 40
40.0
 40
41.0
 40
41.0
 40
41.0
 40
42.0
 40
42.0
 40
42.0
 40
43.0
 40
43.0
 40
43.0
 40
44.0
 40
44.0
 40
44.0
 40
45.0
 40
45.0
 40
45.0
 40
46.0
 40
46.0
 40
46.0
 40
47.0
 40
47.0
 40
47.0
 40
48.0
 40
48.0
 40
48.0
 40
49.0
 40
49.0
 40
49.0
 40
50.0
 40
50.0
 40
50.0
 40
51.0
 40
51.0
 40
51.0
 40
52.0
 40
52.0
 40
52.0
 40
53.0
 40
53.0
 40
53.0
 40
54.0
 40
54.0
 40
54.0
 40
55.0
 40
55.0
 40
55.0
 40
56.0
 40
56.0
 40
56.0
 40
57.0
 40
57.0
 40
57.0
 40
58.0
 40
58.0
 40
58.0
 40
59.0
 40
59.0
 40
59.0
 40
60.0
 40
60.0
 40
60.0
 40
61.0
 40
61.0
 40
61.0
 40
62.0
 40
62.0
 40
62.0
 40
63.0
 40
63.0
 40
63.0
 40
64.0
 40
64.0
 40
64.0
 40
65.0
 40
65.0
 40
65.0
 40
66.0
 40
66.0
 40
66.0
 40
66.0
 10
114.7550970850265
 20
-151.9083848361548
 30
0.0
 10
114.7550970850265
 20
-151.9083848361548
 30
0.0
 10
114.1966471068675
 20
-151.9083848361548
 30
0.0
 10
114.1966471068675
 20
-151.9083848361548
 30
0.0
 10
114.1863118204117
 20
-151.9528265679146
 30
0.0
 10
114.1776990816986
 20
-151.9845214463788
 30
0.0
 10
114.1649522284032
 20
-152.0224174967166
 30
0.0
 10
114.190445934994
 20
-152.0224174967166
 30
0.0
 10
114.2052598455806
 20
-152.0248290635563
 30
0.0
 10
114.2114610174541
 20
-152.0248290635563
 30
0.0
 10
114.2114610174541
 20
-152.0248290635563
 30
0.0
 10
114.3999077404972
 20
-152.0248290635563
 30
0.0
 10
114.3999077404972
 20
-152.0248290635563
 30
0.0
 10
114.3999077404972
 20
-152.0248290635563
 30
0.0
 10
114.7743896197439
 20
-152.0248290635563
 30
0.0
 10
114.7743896197439
 20
-152.0248290635563
 30
0.0
 10
114.8250325233771
 20
-152.0248290635563
 30
0.0
 10
115.1085638818131
 20
-152.0120822102609
 30
0.0
 10
115.1402587602774
 20
-152.0120822102609
 30
0.0
 10
115.1381917029863
 20
-152.0396429741428
 30
0.0
 10
115.1361246456951
 20
-152.0585909993117
 30
0.0
 10
115.1361246456951
 20
-152.0882188204849
 30
0.0
 10
115.134057588404
 20
-152.1199136989492
 30
0.0
 10
115.134057588404
 20
-152.2553059515195
 30
0.0
 10
115.134057588404
 20
-152.2828667154015
 30
0.0
 10
115.134057588404
 20
-152.2828667154015
 30
0.0
 10
115.134057588404
 20
-152.5281575139513
 30
0.0
 10
115.134057588404
 20
-152.5281575139513
 30
0.0
 10
115.134057588404
 20
-152.572599245711
 30
0.0
 10
115.1381917029863
 20
-152.7693141979188
 30
0.0
 10
115.1423258175686
 20
-152.9215874183668
 30
0.0
 10
115.1423258175686
 20
-152.9215874183668
 30
0.0
 10
114.9159830441876
 20
-152.9215874183668
 30
0.0
 10
114.9159830441876
 20
-152.9215874183668
 30
0.0
 10
114.9159830441876
 20
-152.9215874183668
 30
0.0
 10
114.9180501014788
 20
-152.8878254826114
 30
0.0
 10
114.9180501014788
 20
-152.8878254826114
 30
0.0
 10
114.9180501014788
 20
-152.8878254826114
 30
0.0
 10
114.2159396415849
 20
-152.8878254826114
 30
0.0
 10
114.2159396415849
 20
-152.8878254826114
 30
0.0
 10
114.2159396415849
 20
-152.8878254826114
 30
0.0
 10
114.218006698876
 20
-152.9215874183668
 30
0.0
 10
114.218006698876
 20
-152.9215874183668
 30
0.0
 10
114.218006698876
 20
-152.9215874183668
 30
0.0
 10
113.9999321546597
 20
-152.9215874183668
 30
0.0
 10
113.9999321546597
 20
-152.9215874183668
 30
0.0
 10
114.0044107787905
 20
-152.8664658906028
 30
0.0
 10
114.0044107787905
 20
-152.8540635468559
 30
0.0
 10
114.010611950664
 20
-152.7396863767456
 30
0.0
 10
114.0126790079551
 20
-152.7121256128636
 30
0.0
 10
114.0147460652463
 20
-152.5788004175844
 30
0.0
 10
114.0147460652463
 20
-152.5598523924156
 30
0.0
 10
114.0147460652463
 20
-152.5598523924156
 30
0.0
 10
114.0147460652463
 20
-152.3569362683343
 30
0.0
 10
114.0147460652463
 20
-152.3569362683343
 30
0.0
 10
113.8752196980937
 20
-152.6063611814664
 30
0.0
 10
113.7060655097679
 20
-152.7376193194545
 30
0.0
 10
113.6003010783707
 20
-152.8030761336742
 30
0.0
 10
113.6003010783707
 20
-152.8030761336742
 30
0.0
 10
113.4266682659141
 20
-152.6635497665216
 30
0.0
 10
113.4266682659141
 20
-152.6635497665216
 30
0.0
 10
113.5155517294336
 20
-152.6129068628884
 30
0.0
 10
113.659556720717
 20
-152.5260904566601
 30
0.0
 10
113.7970160305785
 20
-152.3314425617435
 30
0.0
 10
113.8879665513891
 20
-152.2043185383378
 30
0.0
 10
113.9534233656088
 20
-152.0606580566029
 30
0.0
 10
113.9871853013643
 20
-151.9083848361548
 30
0.0
 10
113.7587754706922
 20
-151.910451893446
 30
0.0
 10
113.5789414863622
 20
-151.9166530653194
 30
0.0
 10
113.4838568509693
 20
-151.9187201226106
 30
0.0
 10
113.4838568509693
 20
-151.9187201226106
 30
0.0
 10
113.4838568509693
 20
-151.7412977051202
 30
0.0
 10
113.4838568509693
 20
-151.7412977051202
 30
0.0
 10
113.6805718031771
 20
-151.7474988769937
 30
0.0
 10
113.9641031616131
 20
-151.7516329915759
 30
0.0
 10
114.11430932477
 20
-151.7516329915759
 30
0.0
 10
114.11430932477
 20
-151.7516329915759
 30
0.0
 10
114.3279052448555
 20
-151.7516329915759
 30
0.0
 10
114.3279052448555
 20
-151.7516329915759
 30
0.0
 10
114.3279052448555
 20
-151.7516329915759
 30
0.0
 10
114.3279052448555
 20
-151.6438015028876
 30
0.0
 10
114.3279052448555
 20
-151.6438015028876
 30
0.0
 10
114.3279052448555
 20
-151.6438015028876
 30
0.0
 10
114.1818331962809
 20
-151.6438015028876
 30
0.0
 10
114.1818331962809
 20
-151.6438015028876
 30
0.0
 10
114.0126790079551
 20
-151.6438015028876
 30
0.0
 10
113.8435248196294
 20
-151.6479356174699
 30
0.0
 10
113.6764376885948
 20
-151.6544812988919
 30
0.0
 10
113.6764376885948
 20
-151.6544812988919
 30
0.0
 10
113.6764376885948
 20
-151.483260053275
 30
0.0
 10
113.6764376885948
 20
-151.483260053275
 30
0.0
 10
113.830777966334
 20
-151.4935953397307
 30
0.0
 10
114.0168131225374
 20
-151.4935953397307
 30
0.0
 10
114.1818331962809
 20
-151.4935953397307
 30
0.0
 10
114.1818331962809
 20
-151.4935953397307
 30
0.0
 10
114.3279052448555
 20
-151.4935953397307
 30
0.0
 10
114.3279052448555
 20
-151.4935953397307
 30
0.0
 10
114.3279052448555
 20
-151.4935953397307
 30
0.0
 10
114.3279052448555
 20
-151.3750840550381
 30
0.0
 10
114.3279052448555
 20
-151.3750840550381
 30
0.0
 10
114.3279052448555
 20
-151.3750840550381
 30
0.0
 10
114.1966471068675
 20
-151.3750840550381
 30
0.0
 10
114.1966471068675
 20
-151.3750840550381
 30
0.0
 10
114.1501383178166
 20
-151.3750840550381
 30
0.0
 10
113.9472221937354
 20
-151.3836967937513
 30
0.0
 10
113.9048475192668
 20
-151.3836967937513
 30
0.0
 10
113.7015868856371
 20
-151.3878309083336
 30
0.0
 10
113.6254502754131
 20
-151.3898979656247
 30
0.0
 10
113.5472466078979
 20
-151.3919650229159
 30
0.0
 10
113.5472466078979
 20
-151.3919650229159
 30
0.0
 10
113.5472466078979
 20
-151.2079969240035
 30
0.0
 10
113.5472466078979
 20
-151.2079969240035
 30
0.0
 10
113.6616237780082
 20
-151.2166096627167
 30
0.0
 10
113.7060655097679
 20
-151.2166096627167
 30
0.0
 10
114.0888156181792
 20
-151.2248778918813
 30
0.0
 10
114.0254258612506
 20
-151.1297932564884
 30
0.0
 10
113.9978650973686
 20
-151.1022324926064
 30
0.0
 10
113.962036104322
 20
-151.0664034995597
 30
0.0
 10
113.962036104322
 20
-151.0664034995597
 30
0.0
 10
114.1373914645212
 20
-150.9837212079138
 30
0.0
 10
114.1373914645212
 20
-150.9837212079138
 30
0.0
 10
114.1776990816986
 20
-151.0198947105089
 30
0.0
 10
114.2221408134583
 20
-151.0622693849775
 30
0.0
 10
114.2962103663912
 20
-151.1721679309569
 30
0.0
 10
114.2962103663912
 20
-151.1721679309569
 30
0.0
 10
114.1818331962809
 20
-151.2272894587209
 30
0.0
 10
114.1818331962809
 20
-151.2272894587209
 30
0.0
 10
114.1818331962809
 20
-151.2272894587209
 30
0.0
 10
114.1925129922852
 20
-151.2272894587209
 30
0.0
 10
114.1925129922852
 20
-151.2272894587209
 30
0.0
 10
114.1925129922852
 20
-151.2272894587209
 30
0.0
 10
114.7151339773976
 20
-151.2272894587209
 30
0.0
 10
114.7151339773976
 20
-151.2272894587209
 30
0.0
 10
114.7151339773976
 20
-151.2272894587209
 30
0.0
 10
114.6197048324562
 20
-151.1828477269612
 30
0.0
 10
114.6197048324562
 20
-151.1828477269612
 30
0.0
 10
114.6472655963382
 20
-151.144607167075
 30
0.0
 10
114.7044541813933
 20
-151.0643364422686
 30
0.0
 10
114.7192680919799
 20
-150.9902668893357
 30
0.0
 10
114.7192680919799
 20
-150.9902668893357
 30
0.0
 10
114.9328640120654
 20
-151.0536566462643
 30
0.0
 10
114.9328640120654
 20
-151.0536566462643
 30
0.0
 10
114.9414767507785
 20
-151.0557237035555
 30
0.0
 10
114.9624918332385
 20
-151.0664034995597
 30
0.0
 10
114.9624918332385
 20
-151.0874185820198
 30
0.0
 10
114.9624918332385
 20
-151.125659141906
 30
0.0
 10
114.8970350190188
 20
-151.125659141906
 30
0.0
 10
114.8780869938499
 20
-151.125659141906
 30
0.0
 10
114.8674071978456
 20
-151.144607167075
 30
0.0
 10
114.8439805485459
 20
-151.1849147842523
 30
0.0
 10
114.8143527273728
 20
-151.2248778918813
 30
0.0
 10
115.2143283132103
 20
-151.2186767200078
 30
0.0
 10
115.2439561343834
 20
-151.2166096627167
 30
0.0
 10
115.3200927446075
 20
-151.2100639812947
 30
0.0
 10
115.3200927446075
 20
-151.2100639812947
 30
0.0
 10
115.3200927446075
 20
-151.3919650229159
 30
0.0
 10
115.3200927446075
 20
-151.3919650229159
 30
0.0
 10
115.3011447194386
 20
-151.3919650229159
 30
0.0
 10
115.2756510128477
 20
-151.3898979656247
 30
0.0
 10
115.0555094113403
 20
-151.3816297364601
 30
0.0
 10
115.0048665077071
 20
-151.379562679169
 30
0.0
 10
114.7847249061996
 20
-151.3750840550381
 30
0.0
 10
114.7402831744399
 20
-151.3750840550381
 30
0.0
 10
114.7402831744399
 20
-151.3750840550381
 30
0.0
 10
114.5246201970633
 20
-151.3750840550381
 30
0.0
 10
114.5246201970633
 20
-151.3750840550381
 30
0.0
 10
114.5246201970633
 20
-151.3750840550381
 30
0.0
 10
114.5246201970633
 20
-151.4935953397307
 30
0.0
 10
114.5246201970633
 20
-151.4935953397307
 30
0.0
 10
114.5246201970633
 20
-151.4935953397307
 30
0.0
 10
114.6982530095199
 20
-151.4935953397307
 30
0.0
 10
114.6982530095199
 20
-151.4935953397307
 30
0.0
 10
114.8608615164237
 20
-151.4935953397307
 30
0.0
 10
115.051375296758
 20
-151.4935953397307
 30
0.0
 10
115.2081271413368
 20
-151.483260053275
 30
0.0
 10
115.2081271413368
 20
-151.483260053275
 30
0.0
 10
115.2081271413368
 20
-151.6544812988919
 30
0.0
 10
115.2081271413368
 20
-151.6544812988919
 30
0.0
 10
114.9986653358336
 20
-151.6458685601788
 30
0.0
 10
114.8019503836259
 20
-151.6438015028876
 30
0.0
 10
114.6982530095199
 20
-151.6438015028876
 30
0.0
 10
114.6982530095199
 20
-151.6438015028876
 30
0.0
 10
114.5246201970633
 20
-151.6438015028876
 30
0.0
 10
114.5246201970633
 20
-151.6438015028876
 30
0.0
 10
114.5246201970633
 20
-151.6438015028876
 30
0.0
 10
114.5246201970633
 20
-151.7516329915759
 30
0.0
 10
114.5246201970633
 20
-151.7516329915759
 30
0.0
 10
114.5246201970633
 20
-151.7516329915759
 30
0.0
 10
114.7550970850265
 20
-151.7516329915759
 30
0.0
 10
114.7550970850265
 20
-151.7516329915759
 30
0.0
 10
114.8884222803056
 20
-151.7516329915759
 30
0.0
 10
115.176087753324
 20
-151.7474988769937
 30
0.0
 10
115.3855495588272
 20
-151.7412977051202
 30
0.0
 10
115.3855495588272
 20
-151.7412977051202
 30
0.0
 10
115.3855495588272
 20
-151.9187201226106
 30
0.0
 10
115.3855495588272
 20
-151.9187201226106
 30
0.0
 10
115.1933132307503
 20
-151.9125189507371
 30
0.0
 10
114.880154051141
 20
-151.9083848361548
 30
0.0
 10
114.7550970850265
 20
-151.9083848361548
 30
0.0
  0
HATCH
  5
181
330
175
100
AcDbEntity
  8
レイヤー 1
 62
    18
420
        0
440
 33554687
100
AcDbHatch
 10
0.0
 20
0.0
 30
0.0
210
0.0
220
0.0
230
1.0
  2
SOLID
 70
     1
 71
     1
 91
        4
 92
        1
 93
        1
 72
     4
 94
        3
 73
     0
 74
     0
 95
       17
 96
       13
 40
0.0
 40
0.0
 40
0.0
 40
0.0
 40
1.0
 40
1.0
 40
1.0
 40
2.0
 40
2.0
 40
2.0
 40
3.0
 40
3.0
 40
3.0
 40
4.0
 40
4.0
 40
4.0
 40
4.0
 10
114.9201171587699
 20
-152.6401231172219
 10
114.9201171587699
 20
-152.6401231172219
 10
114.2135280747452
 20
-152.6401231172219
 10
114.2135280747452
 20
-152.6401231172219
 10
114.2135280747452
 20
-152.6401231172219
 10
114.2135280747452
 20
-152.7545002873322
 10
114.2135280747452
 20
-152.7545002873322
 10
114.2135280747452
 20
-152.7545002873322
 10
114.9201171587699
 20
-152.7545002873322
 10
114.9201171587699
 20
-152.7545002873322
 10
114.9201171587699
 20
-152.7545002873322
 10
114.9201171587699
 20
-152.6401231172219
 10
114.9201171587699
 20
-152.6401231172219
 97
        0
 97
        1
330
17D
 92
        1
 93
        1
 72
     4
 94
        3
 73
     0
 74
     0
 95
       17
 96
       13
 40
0.0
 40
0.0
 40
0.0
 40
0.0
 40
1.0
 40
1.0
 40
1.0
 40
2.0
 40
2.0
 40
2.0
 40
3.0
 40
3.0
 40
3.0
 40
4.0
 40
4.0
 40
4.0
 40
4.0
 10
114.9201171587699
 20
-152.3968993759632
 10
114.9201171587699
 20
-152.3968993759632
 10
114.2135280747452
 20
-152.3968993759632
 10
114.2135280747452
 20
-152.3968993759632
 10
114.2135280747452
 20
-152.3968993759632
 10
114.2135280747452
 20
-152.5112765460736
 10
114.2135280747452
 20
-152.5112765460736
 10
114.2135280747452
 20
-152.5112765460736
 10
114.9201171587699
 20
-152.5112765460736
 10
114.9201171587699
 20
-152.5112765460736
 10
114.9201171587699
 20
-152.5112765460736
 10
114.9201171587699
 20
-152.3968993759632
 10
114.9201171587699
 20
-152.3968993759632
 97
        0
 97
        1
330
17E
 92
        1
 93
        1
 72
     4
 94
        3
 73
     0
 74
     0
 95
       17
 96
       13
 40
0.0
 40
0.0
 40
0.0
 40
0.0
 40
1.0
 40
1.0
 40
1.0
 40
2.0
 40
2.0
 40
2.0
 40
3.0
 40
3.0
 40
3.0
 40
4.0
 40
4.0
 40
4.0
 40
4.0
 10
114.9201171587699
 20
-152.1643554307089
 10
114.9201171587699
 20
-152.1643554307089
 10
114.2135280747452
 20
-152.1643554307089
 10
114.2135280747452
 20
-152.1643554307089
 10
114.2135280747452
 20
-152.1643554307089
 10
114.2135280747452
 20
-152.2721869193972
 10
114.2135280747452
 20
-152.2721869193972
 10
114.2135280747452
 20
-152.2721869193972
 10
114.9201171587699
 20
-152.2721869193972
 10
114.9201171587699
 20
-152.2721869193972
 10
114.9201171587699
 20
-152.2721869193972
 10
114.9201171587699
 20
-152.1643554307089
 10
114.9201171587699
 20
-152.1643554307089
 97
        0
 97
        1
330
17F
 92
        1
 93
        1
 72
     4
 94
        3
 73
     0
 74
     0
 95
      203
 96
      199
 40
0.0
 40
0.0
 40
0.0
 40
0.0
 40
1.0
 40
1.0
 40
1.0
 40
2.0
 40
2.0
 40
2.0
 40
3.0
 40
3.0
 40
3.0
 40
4.0
 40
4.0
 40
4.0
 40
5.0
 40
5.0
 40
5.0
 40
6.0
 40
6.0
 40
6.0
 40
7.0
 40
7.0
 40
7.0
 40
8.0
 40
8.0
 40
8.0
 40
9.0
 40
9.0
 40
9.0
 40
10.0
 40
10.0
 40
10.0
 40
11.0
 40
11.0
 40
11.0
 40
12.0
 40
12.0
 40
12.0
 40
13.0
 40
13.0
 40
13.0
 40
14.0
 40
14.0
 40
14.0
 40
15.0
 40
15.0
 40
15.0
 40
16.0
 40
16.0
 40
16.0
 40
17.0
 40
17.0
 40
17.0
 40
18.0
 40
18.0
 40
18.0
 40
19.0
 40
19.0
 40
19.0
 40
20.0
 40
20.0
 40
20.0
 40
21.0
 40
21.0
 40
21.0
 40
22.0
 40
22.0
 40
22.0
 40
23.0
 40
23.0
 40
23.0
 40
24.0
 40
24.0
 40
24.0
 40
25.0
 40
25.0
 40
25.0
 40
26.0
 40
26.0
 40
26.0
 40
27.0
 40
27.0
 40
27.0
 40
28.0
 40
28.0
 40
28.0
 40
29.0
 40
29.0
 40
29.0
 40
30.0
 40
30.0
 40
30.0
 40
31.0
 40
31.0
 40
31.0
 40
32.0
 40
32.0
 40
32.0
 40
33.0
 40
33.0
 40
33.0
 40
34.0
 40
34.0
 40
34.0
 40
35.0
 40
35.0
 40
35.0
 40
36.0
 40
36.0
 40
36.0
 40
37.0
 40
37.0
 40
37.0
 40
38.0
 40
38.0
 40
38.0
 40
39.0
 40
39.0
 40
39.0
 40
40.0
 40
40.0
 40
40.0
 40
41.0
 40
41.0
 40
41.0
 40
42.0
 40
42.0
 40
42.0
 40
43.0
 40
43.0
 40
43.0
 40
44.0
 40
44.0
 40
44.0
 40
45.0
 40
45.0
 40
45.0
 40
46.0
 40
46.0
 40
46.0
 40
47.0
 40
47.0
 40
47.0
 40
48.0
 40
48.0
 40
48.0
 40
49.0
 40
49.0
 40
49.0
 40
50.0
 40
50.0
 40
50.0
 40
51.0
 40
51.0
 40
51.0
 40
52.0
 40
52.0
 40
52.0
 40
53.0
 40
53.0
 40
53.0
 40
54.0
 40
54.0
 40
54.0
 40
55.0
 40
55.0
 40
55.0
 40
56.0
 40
56.0
 40
56.0
 40
57.0
 40
57.0
 40
57.0
 40
58.0
 40
58.0
 40
58.0
 40
59.0
 40
59.0
 40
59.0
 40
60.0
 40
60.0
 40
60.0
 40
61.0
 40
61.0
 40
61.0
 40
62.0
 40
62.0
 40
62.0
 40
63.0
 40
63.0
 40
63.0
 40
64.0
 40
64.0
 40
64.0
 40
65.0
 40
65.0
 40
65.0
 40
66.0
 40
66.0
 40
66.0
 40
66.0
 10
114.7550970850265
 20
-151.9083848361548
 10
114.7550970850265
 20
-151.9083848361548
 10
114.1966471068675
 20
-151.9083848361548
 10
114.1966471068675
 20
-151.9083848361548
 10
114.1863118204117
 20
-151.9528265679146
 10
114.1776990816986
 20
-151.9845214463788
 10
114.1649522284032
 20
-152.0224174967166
 10
114.190445934994
 20
-152.0224174967166
 10
114.2052598455806
 20
-152.0248290635563
 10
114.2114610174541
 20
-152.0248290635563
 10
114.2114610174541
 20
-152.0248290635563
 10
114.3999077404972
 20
-152.0248290635563
 10
114.3999077404972
 20
-152.0248290635563
 10
114.3999077404972
 20
-152.0248290635563
 10
114.7743896197439
 20
-152.0248290635563
 10
114.7743896197439
 20
-152.0248290635563
 10
114.8250325233771
 20
-152.0248290635563
 10
115.1085638818131
 20
-152.0120822102609
 10
115.1402587602774
 20
-152.0120822102609
 10
115.1381917029863
 20
-152.0396429741428
 10
115.1361246456951
 20
-152.0585909993117
 10
115.1361246456951
 20
-152.0882188204849
 10
115.134057588404
 20
-152.1199136989492
 10
115.134057588404
 20
-152.2553059515195
 10
115.134057588404
 20
-152.2828667154015
 10
115.134057588404
 20
-152.2828667154015
 10
115.134057588404
 20
-152.5281575139513
 10
115.134057588404
 20
-152.5281575139513
 10
115.134057588404
 20
-152.572599245711
 10
115.1381917029863
 20
-152.7693141979188
 10
115.1423258175686
 20
-152.9215874183668
 10
115.1423258175686
 20
-152.9215874183668
 10
114.9159830441876
 20
-152.9215874183668
 10
114.9159830441876
 20
-152.9215874183668
 10
114.9159830441876
 20
-152.9215874183668
 10
114.9180501014788
 20
-152.8878254826114
 10
114.9180501014788
 20
-152.8878254826114
 10
114.9180501014788
 20
-152.8878254826114
 10
114.2159396415849
 20
-152.8878254826114
 10
114.2159396415849
 20
-152.8878254826114
 10
114.2159396415849
 20
-152.8878254826114
 10
114.218006698876
 20
-152.9215874183668
 10
114.218006698876
 20
-152.9215874183668
 10
114.218006698876
 20
-152.9215874183668
 10
113.9999321546597
 20
-152.9215874183668
 10
113.9999321546597
 20
-152.9215874183668
 10
114.0044107787905
 20
-152.8664658906028
 10
114.0044107787905
 20
-152.8540635468559
 10
114.010611950664
 20
-152.7396863767456
 10
114.0126790079551
 20
-152.7121256128636
 10
114.0147460652463
 20
-152.5788004175844
 10
114.0147460652463
 20
-152.5598523924156
 10
114.0147460652463
 20
-152.5598523924156
 10
114.0147460652463
 20
-152.3569362683343
 10
114.0147460652463
 20
-152.3569362683343
 10
113.8752196980937
 20
-152.6063611814664
 10
113.7060655097679
 20
-152.7376193194545
 10
113.6003010783707
 20
-152.8030761336742
 10
113.6003010783707
 20
-152.8030761336742
 10
113.4266682659141
 20
-152.6635497665216
 10
113.4266682659141
 20
-152.6635497665216
 10
113.5155517294336
 20
-152.6129068628884
 10
113.659556720717
 20
-152.5260904566601
 10
113.7970160305785
 20
-152.3314425617435
 10
113.8879665513891
 20
-152.2043185383378
 10
113.9534233656088
 20
-152.0606580566029
 10
113.9871853013643
 20
-151.9083848361548
 10
113.7587754706922
 20
-151.910451893446
 10
113.5789414863622
 20
-151.9166530653194
 10
113.4838568509693
 20
-151.9187201226106
 10
113.4838568509693
 20
-151.9187201226106
 10
113.4838568509693
 20
-151.7412977051202
 10
113.4838568509693
 20
-151.7412977051202
 10
113.6805718031771
 20
-151.7474988769937
 10
113.9641031616131
 20
-151.7516329915759
 10
114.11430932477
 20
-151.7516329915759
 10
114.11430932477
 20
-151.7516329915759
 10
114.3279052448555
 20
-151.7516329915759
 10
114.3279052448555
 20
-151.7516329915759
 10
114.3279052448555
 20
-151.7516329915759
 10
114.3279052448555
 20
-151.6438015028876
 10
114.3279052448555
 20
-151.6438015028876
 10
114.3279052448555
 20
-151.6438015028876
 10
114.1818331962809
 20
-151.6438015028876
 10
114.1818331962809
 20
-151.6438015028876
 10
114.0126790079551
 20
-151.6438015028876
 10
113.8435248196294
 20
-151.6479356174699
 10
113.6764376885948
 20
-151.6544812988919
 10
113.6764376885948
 20
-151.6544812988919
 10
113.6764376885948
 20
-151.483260053275
 10
113.6764376885948
 20
-151.483260053275
 10
113.830777966334
 20
-151.4935953397307
 10
114.0168131225374
 20
-151.4935953397307
 10
114.1818331962809
 20
-151.4935953397307
 10
114.1818331962809
 20
-151.4935953397307
 10
114.3279052448555
 20
-151.4935953397307
 10
114.3279052448555
 20
-151.4935953397307
 10
114.3279052448555
 20
-151.4935953397307
 10
114.3279052448555
 20
-151.3750840550381
 10
114.3279052448555
 20
-151.3750840550381
 10
114.3279052448555
 20
-151.3750840550381
 10
114.1966471068675
 20
-151.3750840550381
 10
114.1966471068675
 20
-151.3750840550381
 10
114.1501383178166
 20
-151.3750840550381
 10
113.9472221937354
 20
-151.3836967937513
 10
113.9048475192668
 20
-151.3836967937513
 10
113.7015868856371
 20
-151.3878309083336
 10
113.6254502754131
 20
-151.3898979656247
 10
113.5472466078979
 20
-151.3919650229159
 10
113.5472466078979
 20
-151.3919650229159
 10
113.5472466078979
 20
-151.2079969240035
 10
113.5472466078979
 20
-151.2079969240035
 10
113.6616237780082
 20
-151.2166096627167
 10
113.7060655097679
 20
-151.2166096627167
 10
114.0888156181792
 20
-151.2248778918813
 10
114.0254258612506
 20
-151.1297932564884
 10
113.9978650973686
 20
-151.1022324926064
 10
113.962036104322
 20
-151.0664034995597
 10
113.962036104322
 20
-151.0664034995597
 10
114.1373914645212
 20
-150.9837212079138
 10
114.1373914645212
 20
-150.9837212079138
 10
114.1776990816986
 20
-151.0198947105089
 10
114.2221408134583
 20
-151.0622693849775
 10
114.2962103663912
 20
-151.1721679309569
 10
114.2962103663912
 20
-151.1721679309569
 10
114.1818331962809
 20
-151.2272894587209
 10
114.1818331962809
 20
-151.2272894587209
 10
114.1818331962809
 20
-151.2272894587209
 10
114.1925129922852
 20
-151.2272894587209
 10
114.1925129922852
 20
-151.2272894587209
 10
114.1925129922852
 20
-151.2272894587209
 10
114.7151339773976
 20
-151.2272894587209
 10
114.7151339773976
 20
-151.2272894587209
 10
114.7151339773976
 20
-151.2272894587209
 10
114.6197048324562
 20
-151.1828477269612
 10
114.6197048324562
 20
-151.1828477269612
 10
114.6472655963382
 20
-151.144607167075
 10
114.7044541813933
 20
-151.0643364422686
 10
114.7192680919799
 20
-150.9902668893357
 10
114.7192680919799
 20
-150.9902668893357
 10
114.9328640120654
 20
-151.0536566462643
 10
114.9328640120654
 20
-151.0536566462643
 10
114.9414767507785
 20
-151.0557237035555
 10
114.9624918332385
 20
-151.0664034995597
 10
114.9624918332385
 20
-151.0874185820198
 10
114.9624918332385
 20
-151.125659141906
 10
114.8970350190188
 20
-151.125659141906
 10
114.8780869938499
 20
-151.125659141906
 10
114.8674071978456
 20
-151.144607167075
 10
114.8439805485459
 20
-151.1849147842523
 10
114.8143527273728
 20
-151.2248778918813
 10
115.2143283132103
 20
-151.2186767200078
 10
115.2439561343834
 20
-151.2166096627167
 10
115.3200927446075
 20
-151.2100639812947
 10
115.3200927446075
 20
-151.2100639812947
 10
115.3200927446075
 20
-151.3919650229159
 10
115.3200927446075
 20
-151.3919650229159
 10
115.3011447194386
 20
-151.3919650229159
 10
115.2756510128477
 20
-151.3898979656247
 10
115.0555094113403
 20
-151.3816297364601
 10
115.0048665077071
 20
-151.379562679169
 10
114.7847249061996
 20
-151.3750840550381
 10
114.7402831744399
 20
-151.3750840550381
 10
114.7402831744399
 20
-151.3750840550381
 10
114.5246201970633
 20
-151.3750840550381
 10
114.5246201970633
 20
-151.3750840550381
 10
114.5246201970633
 20
-151.3750840550381
 10
114.5246201970633
 20
-151.4935953397307
 10
114.5246201970633
 20
-151.4935953397307
 10
114.5246201970633
 20
-151.4935953397307
 10
114.6982530095199
 20
-151.4935953397307
 10
114.6982530095199
 20
-151.4935953397307
 10
114.8608615164237
 20
-151.4935953397307
 10
115.051375296758
 20
-151.4935953397307
 10
115.2081271413368
 20
-151.483260053275
 10
115.2081271413368
 20
-151.483260053275
 10
115.2081271413368
 20
-151.6544812988919
 10
115.2081271413368
 20
-151.6544812988919
 10
114.9986653358336
 20
-151.6458685601788
 10
114.8019503836259
 20
-151.6438015028876
 10
114.6982530095199
 20
-151.6438015028876
 10
114.6982530095199
 20
-151.6438015028876
 10
114.5246201970633
 20
-151.6438015028876
 10
114.5246201970633
 20
-151.6438015028876
 10
114.5246201970633
 20
-151.6438015028876
 10
114.5246201970633
 20
-151.7516329915759
 10
114.5246201970633
 20
-151.7516329915759
 10
114.5246201970633
 20
-151.7516329915759
 10
114.7550970850265
 20
-151.7516329915759
 10
114.7550970850265
 20
-151.7516329915759
 10
114.8884222803056
 20
-151.7516329915759
 10
115.176087753324
 20
-151.7474988769937
 10
115.3855495588272
 20
-151.7412977051202
 10
115.3855495588272
 20
-151.7412977051202
 10
115.3855495588272
 20
-151.9187201226106
 10
115.3855495588272
 20
-151.9187201226106
 10
115.1933132307503
 20
-151.9125189507371
 10
114.880154051141
 20
-151.9083848361548
 10
114.7550970850265
 20
-151.9083848361548
 97
        0
 97
        1
330
180
 75
     2
 76
     1
 98
        1
 10
0.0
 20
0.0
450
        0
451
        0
460
0.0
461
0.0
452
        0
462
0.0
453
        0
470

  0
SPLINE
  5
182
330
175
100
AcDbEntity
  8
レイヤー 1
100
AcDbSpline
210
0.0
220
0.0
230
1.0
 70
     9
 71
     3
 72
    29
 73
    25
 74
     0
 42
0.0000000001
 43
0.0000000001
 40
0.0
 40
0.0
 40
0.0
 40
0.0
 40
1.0
 40
1.0
 40
1.0
 40
2.0
 40
2.0
 40
2.0
 40
3.0
 40
3.0
 40
3.0
 40
4.0
 40
4.0
 40
4.0
 40
5.0
 40
5.0
 40
5.0
 40
6.0
 40
6.0
 40
6.0
 40
7.0
 40
7.0
 40
7.0
 40
8.0
 40
8.0
 40
8.0
 40
8.0
 10
116.6306070671965
 20
-151.3561360298693
 30
0.0
 10
116.6306070671965
 20
-151.3561360298693
 30
0.0
 10
116.2774847799584
 20
-151.3561360298693
 30
0.0
 10
116.2774847799584
 20
-151.3561360298693
 30
0.0
 10
116.1651746671392
 20
-151.3561360298693
 30
0.0
 10
116.0256482999866
 20
-151.3623372017427
 30
0.0
 10
115.9178168112983
 20
-151.3750840550381
 30
0.0
 10
115.9178168112983
 20
-151.3750840550381
 30
0.0
 10
115.9178168112983
 20
-151.1404730524926
 30
0.0
 10
115.9178168112983
 20
-151.1404730524926
 30
0.0
 10
116.0363280959909
 20
-151.1552869630792
 30
0.0
 10
116.2202961949033
 20
-151.1594210776615
 30
0.0
 10
116.2774847799584
 20
-151.1594210776615
 30
0.0
 10
116.2774847799584
 20
-151.1594210776615
 30
0.0
 10
116.6306070671965
 20
-151.1594210776615
 30
0.0
 10
116.6306070671965
 20
-151.1594210776615
 30
0.0
 10
116.6498996019139
 20
-151.1594210776615
 30
0.0
 10
116.8528157259951
 20
-151.1594210776615
 30
0.0
 10
116.9944091504389
 20
-151.1404730524926
 30
0.0
 10
116.9944091504389
 20
-151.1404730524926
 30
0.0
 10
116.9944091504389
 20
-151.3750840550381
 30
0.0
 10
116.9944091504389
 20
-151.3750840550381
 30
0.0
 10
116.8380018154085
 20
-151.3561360298693
 30
0.0
 10
116.6474880350742
 20
-151.3561360298693
 30
0.0
 10
116.6306070671965
 20
-151.3561360298693
 30
0.0
  0
SPLINE
  5
183
330
175
100
AcDbEntity
  8
レイヤー 1
100
AcDbSpline
210
0.0
220
0.0
230
1.0
 70
     9
 71
     3
 72
    47
 73
    43
 74
     0
 42
0.0000000001
 43
0.0000000001
 40
0.0
 40
0.0
 40
0.0
 40
0.0
 40
1.0
 40
1.0
 40
1.0
 40
2.0
 40
2.0
 40
2.0
 40
3.0
 40
3.0
 40
3.0
 40
4.0
 40
4.0
 40
4.0
 40
5.0
 40
5.0
 40
5.0
 40
6.0
 40
6.0
 40
6.0
 40
7.0
 40
7.0
 40
7.0
 40
8.0
 40
8.0
 40
8.0
 40
9.0
 40
9.0
 40
9.0
 40
10.0
 40
10.0
 40
10.0
 40
11.0
 40
11.0
 40
11.0
 40
12.0
 40
12.0
 40
12.0
 40
13.0
 40
13.0
 40
13.0
 40
14.0
 40
14.0
 40
14.0
 40
14.0
 10
116.7322373840114
 20
-151.8849581868551
 30
0.0
 10
116.7322373840114
 20
-151.8849581868551
 30
0.0
 10
116.6306070671965
 20
-151.8849581868551
 30
0.0
 10
116.6306070671965
 20
-151.8849581868551
 30
0.0
 10
116.6306070671965
 20
-151.9717745930834
 30
0.0
 10
116.6095919847365
 20
-152.3610703829167
 30
0.0
 10
116.4128770325287
 20
-152.5812119844241
 30
0.0
 10
116.2606038120807
 20
-152.7503661727499
 30
0.0
 10
116.0532090638686
 20
-152.8199571015519
 30
0.0
 10
115.9684597149315
 20
-152.8475178654339
 30
0.0
 10
115.9684597149315
 20
-152.8475178654339
 30
0.0
 10
115.7738118200149
 20
-152.6804307343993
 30
0.0
 10
115.7738118200149
 20
-152.6804307343993
 30
0.0
 10
115.8713080222474
 20
-152.6676838811039
 30
0.0
 10
116.0466633824466
 20
-152.6446017413527
 30
0.0
 10
116.2351101054898
 20
-152.4561550183095
 30
0.0
 10
116.3091796584227
 20
-152.3841525226678
 30
0.0
 10
116.4128770325287
 20
-152.2446261555152
 30
0.0
 10
116.4128770325287
 20
-151.8849581868551
 30
0.0
 10
116.4128770325287
 20
-151.8849581868551
 30
0.0
 10
116.182055635017
 20
-151.8849581868551
 30
0.0
 10
116.182055635017
 20
-151.8849581868551
 30
0.0
 10
115.9960204788135
 20
-151.8849581868551
 30
0.0
 10
115.80998532261
 20
-151.889436810986
 30
0.0
 10
115.623605656858
 20
-151.903906212024
 30
0.0
 10
115.623605656858
 20
-151.903906212024
 30
0.0
 10
115.623605656858
 20
-151.6841091200651
 30
0.0
 10
115.623605656858
 20
-151.6841091200651
 30
0.0
 10
115.8120523799011
 20
-151.6989230306516
 30
0.0
 10
116.0976507956283
 20
-151.7030571452339
 30
0.0
 10
116.182055635017
 20
-151.7030571452339
 30
0.0
 10
116.182055635017
 20
-151.7030571452339
 30
0.0
 10
116.7322373840114
 20
-151.7030571452339
 30
0.0
 10
116.7322373840114
 20
-151.7030571452339
 30
0.0
 10
116.7511854091802
 20
-151.7030571452339
 30
0.0
 10
117.0684787033718
 20
-151.7030571452339
 30
0.0
 10
117.2972330435923
 20
-151.6841091200651
 30
0.0
 10
117.2972330435923
 20
-151.6841091200651
 30
0.0
 10
117.2972330435923
 20
-151.903906212024
 30
0.0
 10
117.2972330435923
 20
-151.903906212024
 30
0.0
 10
117.1087863205492
 20
-151.889436810986
 30
0.0
 10
116.9206841070545
 20
-151.8849581868551
 30
0.0
 10
116.7322373840114
 20
-151.8849581868551
 30
0.0
  0
HATCH
  5
184
330
175
100
AcDbEntity
  8
レイヤー 1
 62
    18
420
        0
440
 33554687
100
AcDbHatch
 10
0.0
 20
0.0
 30
0.0
210
0.0
220
0.0
230
1.0
  2
SOLID
 70
     1
 71
     1
 91
        2
 92
        1
 93
        1
 72
     4
 94
        3
 73
     0
 74
     0
 95
       29
 96
       25
 40
0.0
 40
0.0
 40
0.0
 40
0.0
 40
1.0
 40
1.0
 40
1.0
 40
2.0
 40
2.0
 40
2.0
 40
3.0
 40
3.0
 40
3.0
 40
4.0
 40
4.0
 40
4.0
 40
5.0
 40
5.0
 40
5.0
 40
6.0
 40
6.0
 40
6.0
 40
7.0
 40
7.0
 40
7.0
 40
8.0
 40
8.0
 40
8.0
 40
8.0
 10
116.6306070671965
 20
-151.3561360298693
 10
116.6306070671965
 20
-151.3561360298693
 10
116.2774847799584
 20
-151.3561360298693
 10
116.2774847799584
 20
-151.3561360298693
 10
116.1651746671392
 20
-151.3561360298693
 10
116.0256482999866
 20
-151.3623372017427
 10
115.9178168112983
 20
-151.3750840550381
 10
115.9178168112983
 20
-151.3750840550381
 10
115.9178168112983
 20
-151.1404730524926
 10
115.9178168112983
 20
-151.1404730524926
 10
116.0363280959909
 20
-151.1552869630792
 10
116.2202961949033
 20
-151.1594210776615
 10
116.2774847799584
 20
-151.1594210776615
 10
116.2774847799584
 20
-151.1594210776615
 10
116.6306070671965
 20
-151.1594210776615
 10
116.6306070671965
 20
-151.1594210776615
 10
116.6498996019139
 20
-151.1594210776615
 10
116.8528157259951
 20
-151.1594210776615
 10
116.9944091504389
 20
-151.1404730524926
 10
116.9944091504389
 20
-151.1404730524926
 10
116.9944091504389
 20
-151.3750840550381
 10
116.9944091504389
 20
-151.3750840550381
 10
116.8380018154085
 20
-151.3561360298693
 10
116.6474880350742
 20
-151.3561360298693
 10
116.6306070671965
 20
-151.3561360298693
 97
        0
 97
        1
330
182
 92
        1
 93
        1
 72
     4
 94
        3
 73
     0
 74
     0
 95
       47
 96
       43
 40
0.0
 40
0.0
 40
0.0
 40
0.0
 40
1.0
 40
1.0
 40
1.0
 40
2.0
 40
2.0
 40
2.0
 40
3.0
 40
3.0
 40
3.0
 40
4.0
 40
4.0
 40
4.0
 40
5.0
 40
5.0
 40
5.0
 40
6.0
 40
6.0
 40
6.0
 40
7.0
 40
7.0
 40
7.0
 40
8.0
 40
8.0
 40
8.0
 40
9.0
 40
9.0
 40
9.0
 40
10.0
 40
10.0
 40
10.0
 40
11.0
 40
11.0
 40
11.0
 40
12.0
 40
12.0
 40
12.0
 40
13.0
 40
13.0
 40
13.0
 40
14.0
 40
14.0
 40
14.0
 40
14.0
 10
116.7322373840114
 20
-151.8849581868551
 10
116.7322373840114
 20
-151.8849581868551
 10
116.6306070671965
 20
-151.8849581868551
 10
116.6306070671965
 20
-151.8849581868551
 10
116.6306070671965
 20
-151.9717745930834
 10
116.6095919847365
 20
-152.3610703829167
 10
116.4128770325287
 20
-152.5812119844241
 10
116.2606038120807
 20
-152.7503661727499
 10
116.0532090638686
 20
-152.8199571015519
 10
115.9684597149315
 20
-152.8475178654339
 10
115.9684597149315
 20
-152.8475178654339
 10
115.7738118200149
 20
-152.6804307343993
 10
115.7738118200149
 20
-152.6804307343993
 10
115.8713080222474
 20
-152.6676838811039
 10
116.0466633824466
 20
-152.6446017413527
 10
116.2351101054898
 20
-152.4561550183095
 10
116.3091796584227
 20
-152.3841525226678
 10
116.4128770325287
 20
-152.2446261555152
 10
116.4128770325287
 20
-151.8849581868551
 10
116.4128770325287
 20
-151.8849581868551
 10
116.182055635017
 20
-151.8849581868551
 10
116.182055635017
 20
-151.8849581868551
 10
115.9960204788135
 20
-151.8849581868551
 10
115.80998532261
 20
-151.889436810986
 10
115.623605656858
 20
-151.903906212024
 10
115.623605656858
 20
-151.903906212024
 10
115.623605656858
 20
-151.6841091200651
 10
115.623605656858
 20
-151.6841091200651
 10
115.8120523799011
 20
-151.6989230306516
 10
116.0976507956283
 20
-151.7030571452339
 10
116.182055635017
 20
-151.7030571452339
 10
116.182055635017
 20
-151.7030571452339
 10
116.7322373840114
 20
-151.7030571452339
 10
116.7322373840114
 20
-151.7030571452339
 10
116.7511854091802
 20
-151.7030571452339
 10
117.0684787033718
 20
-151.7030571452339
 10
117.2972330435923
 20
-151.6841091200651
 10
117.2972330435923
 20
-151.6841091200651
 10
117.2972330435923
 20
-151.903906212024
 10
117.2972330435923
 20
-151.903906212024
 10
117.1087863205492
 20
-151.889436810986
 10
116.9206841070545
 20
-151.8849581868551
 10
116.7322373840114
 20
-151.8849581868551
 97
        0
 97
        1
330
183
 75
     2
 76
     1
 98
        1
 10
0.0
 20
0.0
450
        0
451
        0
460
0.0
461
0.0
452
        0
462
0.0
453
        0
470

  0
SPLINE
  5
185
330
175
100
AcDbEntity
  8
レイヤー 1
100
AcDbSpline
210
0.0
220
0.0
230
1.0
 70
     9
 71
     3
 72
    29
 73
    25
 74
     0
 42
0.0000000001
 43
0.0000000001
 40
0.0
 40
0.0
 40
0.0
 40
0.0
 40
1.0
 40
1.0
 40
1.0
 40
2.0
 40
2.0
 40
2.0
 40
3.0
 40
3.0
 40
3.0
 40
4.0
 40
4.0
 40
4.0
 40
5.0
 40
5.0
 40
5.0
 40
6.0
 40
6.0
 40
6.0
 40
7.0
 40
7.0
 40
7.0
 40
8.0
 40
8.0
 40
8.0
 40
8.0
 10
118.5781195450082
 20
-152.0479112033074
 30
0.0
 10
118.5781195450082
 20
-152.0479112033074
 30
0.0
 10
118.0937391197821
 20
-152.0479112033074
 30
0.0
 10
118.0937391197821
 20
-152.0479112033074
 30
0.0
 10
118.0661783559001
 20
-152.0479112033074
 30
0.0
 10
117.7488850617086
 20
-152.0479112033074
 30
0.0
 10
117.5373561989143
 20
-152.0734049098983
 30
0.0
 10
117.5373561989143
 20
-152.0734049098983
 30
0.0
 10
117.5373561989143
 20
-151.8425835123866
 30
0.0
 10
117.5373561989143
 20
-151.8425835123866
 30
0.0
 10
117.6958305912358
 20
-151.8660101616863
 30
0.0
 10
117.8863443715701
 20
-151.8680772189774
 30
0.0
 10
118.0937391197821
 20
-151.8680772189774
 30
0.0
 10
118.0937391197821
 20
-151.8680772189774
 30
0.0
 10
118.5781195450082
 20
-151.8680772189774
 30
0.0
 10
118.5781195450082
 20
-151.8680772189774
 30
0.0
 10
118.7641547012117
 20
-151.8680772189774
 30
0.0
 10
118.9501898574152
 20
-151.8660101616863
 30
0.0
 10
119.1345024658761
 20
-151.8425835123866
 30
0.0
 10
119.1345024658761
 20
-151.8425835123866
 30
0.0
 10
119.1345024658761
 20
-152.0734049098983
 30
0.0
 10
119.1345024658761
 20
-152.0734049098983
 30
0.0
 10
118.9501898574152
 20
-152.0499782605986
 30
0.0
 10
118.7028320015743
 20
-152.0479112033074
 30
0.0
 10
118.5781195450082
 20
-152.0479112033074
 30
0.0
  0
HATCH
  5
186
330
175
100
AcDbEntity
  8
レイヤー 1
 62
    18
420
        0
440
 33554687
100
AcDbHatch
 10
0.0
 20
0.0
 30
0.0
210
0.0
220
0.0
230
1.0
  2
SOLID
 70
     1
 71
     1
 91
        1
 92
        1
 93
        1
 72
     4
 94
        3
 73
     0
 74
     0
 95
       29
 96
       25
 40
0.0
 40
0.0
 40
0.0
 40
0.0
 40
1.0
 40
1.0
 40
1.0
 40
2.0
 40
2.0
 40
2.0
 40
3.0
 40
3.0
 40
3.0
 40
4.0
 40
4.0
 40
4.0
 40
5.0
 40
5.0
 40
5.0
 40
6.0
 40
6.0
 40
6.0
 40
7.0
 40
7.0
 40
7.0
 40
8.0
 40
8.0
 40
8.0
 40
8.0
 10
118.5781195450082
 20
-152.0479112033074
 10
118.5781195450082
 20
-152.0479112033074
 10
118.0937391197821
 20
-152.0479112033074
 10
118.0937391197821
 20
-152.0479112033074
 10
118.0661783559001
 20
-152.0479112033074
 10
117.7488850617086
 20
-152.0479112033074
 10
117.5373561989143
 20
-152.0734049098983
 10
117.5373561989143
 20
-152.0734049098983
 10
117.5373561989143
 20
-151.8425835123866
 10
117.5373561989143
 20
-151.8425835123866
 10
117.6958305912358
 20
-151.8660101616863
 10
117.8863443715701
 20
-151.8680772189774
 10
118.0937391197821
 20
-151.8680772189774
 10
118.0937391197821
 20
-151.8680772189774
 10
118.5781195450082
 20
-151.8680772189774
 10
118.5781195450082
 20
-151.8680772189774
 10
118.7641547012117
 20
-151.8680772189774
 10
118.9501898574152
 20
-151.8660101616863
 10
119.1345024658761
 20
-151.8425835123866
 10
119.1345024658761
 20
-151.8425835123866
 10
119.1345024658761
 20
-152.0734049098983
 10
119.1345024658761
 20
-152.0734049098983
 10
118.9501898574152
 20
-152.0499782605986
 10
118.7028320015743
 20
-152.0479112033074
 10
118.5781195450082
 20
-152.0479112033074
 97
        0
 97
        1
330
185
 75
     2
 76
     1
 98
        1
 10
0.0
 20
0.0
450
        0
451
        0
460
0.0
461
0.0
452
        0
462
0.0
453
        0
470

  0
SPLINE
  5
187
330
175
100
AcDbEntity
  8
レイヤー 1
100
AcDbSpline
210
0.0
220
0.0
230
1.0
 70
     9
 71
     3
 72
    47
 73
    43
 74
     0
 42
0.0000000001
 43
0.0000000001
 40
0.0
 40
0.0
 40
0.0
 40
0.0
 40
1.0
 40
1.0
 40
1.0
 40
2.0
 40
2.0
 40
2.0
 40
3.0
 40
3.0
 40
3.0
 40
4.0
 40
4.0
 40
4.0
 40
5.0
 40
5.0
 40
5.0
 40
6.0
 40
6.0
 40
6.0
 40
7.0
 40
7.0
 40
7.0
 40
8.0
 40
8.0
 40
8.0
 40
9.0
 40
9.0
 40
9.0
 40
10.0
 40
10.0
 40
10.0
 40
11.0
 40
11.0
 40
11.0
 40
12.0
 40
12.0
 40
12.0
 40
13.0
 40
13.0
 40
13.0
 40
14.0
 40
14.0
 40
14.0
 40
14.0
 10
120.7981390757032
 20
-151.4536322321019
 30
0.0
 10
120.7285481469012
 20
-151.7326849664071
 30
0.0
 10
120.6520670271286
 20
-152.0372314073032
 30
0.0
 10
120.3392523570679
 20
-152.3693386120813
 30
0.0
 10
120.1022297876828
 20
-152.6191080347619
 30
0.0
 10
119.856938989133
 20
-152.7186712942856
 30
0.0
 10
119.7511745577358
 20
-152.7607014592057
 30
0.0
 10
119.7511745577358
 20
-152.7607014592057
 30
0.0
 10
119.5565266628192
 20
-152.5788004175844
 30
0.0
 10
119.5565266628192
 20
-152.5788004175844
 30
0.0
 10
119.7425618190227
 20
-152.5322916285336
 30
0.0
 10
120.1042968449739
 20
-152.4392740504318
 30
0.0
 10
120.4005750567054
 20
-151.9442138292014
 30
0.0
 10
120.561116506318
 20
-151.6775634386431
 30
0.0
 10
120.5738633596135
 20
-151.504275135735
 30
0.0
 10
120.5824760983266
 20
-151.4133246149244
 30
0.0
 10
120.5824760983266
 20
-151.4133246149244
 30
0.0
 10
120.0767360810919
 20
-151.4133246149244
 30
0.0
 10
120.0767360810919
 20
-151.4133246149244
 30
0.0
 10
119.9582247963993
 20
-151.4133246149244
 30
0.0
 10
119.5372341281018
 20
-151.4322726400933
 30
0.0
 10
119.3849609076537
 20
-151.4429524360976
 30
0.0
 10
119.3849609076537
 20
-151.4429524360976
 30
0.0
 10
119.3849609076537
 20
-151.2334906305944
 30
0.0
 10
119.3849609076537
 20
-151.2334906305944
 30
0.0
 10
119.526898841646
 20
-151.2462374838898
 30
0.0
 10
119.8038845186601
 20
-151.2503715984721
 30
0.0
 10
119.9203287460615
 20
-151.2503715984721
 30
0.0
 10
119.9203287460615
 20
-151.2503715984721
 30
0.0
 10
120.2755180905908
 20
-151.2503715984721
 30
0.0
 10
120.2755180905908
 20
-151.2503715984721
 30
0.0
 10
120.3030788544728
 20
-151.2503715984721
 30
0.0
 10
120.463964813634
 20
-151.248304541181
 30
0.0
 10
120.5738633596135
 20
-151.2334906305944
 30
0.0
 10
120.6310519446686
 20
-151.2272894587209
 30
0.0
 10
120.6479329125463
 20
-151.2079969240035
 30
0.0
 10
120.671359561846
 20
-151.1849147842523
 30
0.0
 10
120.671359561846
 20
-151.1849147842523
 30
0.0
 10
120.8594617753407
 20
-151.3351209474093
 30
0.0
 10
120.8594617753407
 20
-151.3351209474093
 30
0.0
 10
120.8446478647541
 20
-151.3647487685824
 30
0.0
 10
120.8343125782983
 20
-151.3836967937513
 30
0.0
 10
120.7981390757032
 20
-151.4536322321019
 30
0.0
  0
HATCH
  5
188
330
175
100
AcDbEntity
  8
レイヤー 1
 62
    18
420
        0
440
 33554687
100
AcDbHatch
 10
0.0
 20
0.0
 30
0.0
210
0.0
220
0.0
230
1.0
  2
SOLID
 70
     1
 71
     1
 91
        1
 92
        1
 93
        1
 72
     4
 94
        3
 73
     0
 74
     0
 95
       47
 96
       43
 40
0.0
 40
0.0
 40
0.0
 40
0.0
 40
1.0
 40
1.0
 40
1.0
 40
2.0
 40
2.0
 40
2.0
 40
3.0
 40
3.0
 40
3.0
 40
4.0
 40
4.0
 40
4.0
 40
5.0
 40
5.0
 40
5.0
 40
6.0
 40
6.0
 40
6.0
 40
7.0
 40
7.0
 40
7.0
 40
8.0
 40
8.0
 40
8.0
 40
9.0
 40
9.0
 40
9.0
 40
10.0
 40
10.0
 40
10.0
 40
11.0
 40
11.0
 40
11.0
 40
12.0
 40
12.0
 40
12.0
 40
13.0
 40
13.0
 40
13.0
 40
14.0
 40
14.0
 40
14.0
 40
14.0
 10
120.7981390757032
 20
-151.4536322321019
 10
120.7285481469012
 20
-151.7326849664071
 10
120.6520670271286
 20
-152.0372314073032
 10
120.3392523570679
 20
-152.3693386120813
 10
120.1022297876828
 20
-152.6191080347619
 10
119.856938989133
 20
-152.7186712942856
 10
119.7511745577358
 20
-152.7607014592057
 10
119.7511745577358
 20
-152.7607014592057
 10
119.5565266628192
 20
-152.5788004175844
 10
119.5565266628192
 20
-152.5788004175844
 10
119.7425618190227
 20
-152.5322916285336
 10
120.1042968449739
 20
-152.4392740504318
 10
120.4005750567054
 20
-151.9442138292014
 10
120.561116506318
 20
-151.6775634386431
 10
120.5738633596135
 20
-151.504275135735
 10
120.5824760983266
 20
-151.4133246149244
 10
120.5824760983266
 20
-151.4133246149244
 10
120.0767360810919
 20
-151.4133246149244
 10
120.0767360810919
 20
-151.4133246149244
 10
119.9582247963993
 20
-151.4133246149244
 10
119.5372341281018
 20
-151.4322726400933
 10
119.3849609076537
 20
-151.4429524360976
 10
119.3849609076537
 20
-151.4429524360976
 10
119.3849609076537
 20
-151.2334906305944
 10
119.3849609076537
 20
-151.2334906305944
 10
119.526898841646
 20
-151.2462374838898
 10
119.8038845186601
 20
-151.2503715984721
 10
119.9203287460615
 20
-151.2503715984721
 10
119.9203287460615
 20
-151.2503715984721
 10
120.2755180905908
 20
-151.2503715984721
 10
120.2755180905908
 20
-151.2503715984721
 10
120.3030788544728
 20
-151.2503715984721
 10
120.463964813634
 20
-151.248304541181
 10
120.5738633596135
 20
-151.2334906305944
 10
120.6310519446686
 20
-151.2272894587209
 10
120.6479329125463
 20
-151.2079969240035
 10
120.671359561846
 20
-151.1849147842523
 10
120.671359561846
 20
-151.1849147842523
 10
120.8594617753407
 20
-151.3351209474093
 10
120.8594617753407
 20
-151.3351209474093
 10
120.8446478647541
 20
-151.3647487685824
 10
120.8343125782983
 20
-151.3836967937513
 10
120.7981390757032
 20
-151.4536322321019
 97
        0
 97
        1
330
187
 75
     2
 76
     1
 98
        1
 10
0.0
 20
0.0
450
        0
451
        0
460
0.0
461
0.0
452
        0
462
0.0
453
        0
470

  0
SPLINE
  5
189
330
175
100
AcDbEntity
  8
レイヤー 1
100
AcDbSpline
210
0.0
220
0.0
230
1.0
 70
    11
 71
     3
 72
    17
 73
    13
 74
     0
 42
0.0000000001
 43
0.0000000001
 40
0.0
 40
0.0
 40
0.0
 40
0.0
 40
1.0
 40
1.0
 40
1.0
 40
2.0
 40
2.0
 40
2.0
 40
3.0
 40
3.0
 40
3.0
 40
4.0
 40
4.0
 40
4.0
 40
4.0
 10
121.188468394182
 20
-151.2355576878855
 30
0.0
 10
121.188468394182
 20
-151.2948133302318
 30
0.0
 10
121.2349771832329
 20
-151.3413221192827
 30
0.0
 10
121.2942328255792
 20
-151.3413221192827
 30
0.0
 10
121.3534884679255
 20
-151.3413221192827
 30
0.0
 10
121.4020643142675
 20
-151.2948133302318
 30
0.0
 10
121.4020643142675
 20
-151.2355576878855
 30
0.0
 10
121.4020643142675
 20
-151.1763020455392
 30
0.0
 10
121.3534884679255
 20
-151.1277261991972
 30
0.0
 10
121.2942328255792
 20
-151.1277261991972
 30
0.0
 10
121.2349771832329
 20
-151.1277261991972
 30
0.0
 10
121.188468394182
 20
-151.1763020455392
 30
0.0
 10
121.188468394182
 20
-151.2355576878855
 30
0.0
  0
SPLINE
  5
18A
330
175
100
AcDbEntity
  8
レイヤー 1
100
AcDbSpline
210
0.0
220
0.0
230
1.0
 70
     9
 71
     3
 72
    17
 73
    13
 74
     0
 42
0.0000000001
 43
0.0000000001
 40
0.0
 40
0.0
 40
0.0
 40
0.0
 40
1.0
 40
1.0
 40
1.0
 40
2.0
 40
2.0
 40
2.0
 40
3.0
 40
3.0
 40
3.0
 40
4.0
 40
4.0
 40
4.0
 40
4.0
 10
121.5036946310824
 20
-151.2355576878855
 30
0.0
 10
121.5036946310824
 20
-151.3499348579958
 30
0.0
 10
121.4106770529806
 20
-151.4450194933887
 30
0.0
 10
121.2942328255792
 20
-151.4450194933887
 30
0.0
 10
121.1798556554689
 20
-151.4450194933887
 30
0.0
 10
121.084771020076
 20
-151.3499348579958
 30
0.0
 10
121.084771020076
 20
-151.2355576878855
 30
0.0
 10
121.084771020076
 20
-151.1191134604841
 30
0.0
 10
121.1798556554689
 20
-151.0260958823824
 30
0.0
 10
121.2942328255792
 20
-151.0260958823824
 30
0.0
 10
121.4086099956895
 20
-151.0260958823824
 30
0.0
 10
121.5036946310824
 20
-151.1191134604841
 30
0.0
 10
121.5036946310824
 20
-151.2355576878855
 30
0.0
  0
HATCH
  5
18B
330
175
100
AcDbEntity
  8
レイヤー 1
 62
    18
420
        0
440
 33554687
100
AcDbHatch
 10
0.0
 20
0.0
 30
0.0
210
0.0
220
0.0
230
1.0
  2
SOLID
 70
     1
 71
     1
 91
        2
 92
        1
 93
        1
 72
     4
 94
        3
 73
     0
 74
     0
 95
       17
 96
       13
 40
0.0
 40
0.0
 40
0.0
 40
0.0
 40
1.0
 40
1.0
 40
1.0
 40
2.0
 40
2.0
 40
2.0
 40
3.0
 40
3.0
 40
3.0
 40
4.0
 40
4.0
 40
4.0
 40
4.0
 10
121.188468394182
 20
-151.2355576878855
 10
121.188468394182
 20
-151.2948133302318
 10
121.2349771832329
 20
-151.3413221192827
 10
121.2942328255792
 20
-151.3413221192827
 10
121.3534884679255
 20
-151.3413221192827
 10
121.4020643142675
 20
-151.2948133302318
 10
121.4020643142675
 20
-151.2355576878855
 10
121.4020643142675
 20
-151.1763020455392
 10
121.3534884679255
 20
-151.1277261991972
 10
121.2942328255792
 20
-151.1277261991972
 10
121.2349771832329
 20
-151.1277261991972
 10
121.188468394182
 20
-151.1763020455392
 10
121.188468394182
 20
-151.2355576878855
 97
        0
 97
        1
330
189
 92
        1
 93
        1
 72
     4
 94
        3
 73
     0
 74
     0
 95
       17
 96
       13
 40
0.0
 40
0.0
 40
0.0
 40
0.0
 40
1.0
 40
1.0
 40
1.0
 40
2.0
 40
2.0
 40
2.0
 40
3.0
 40
3.0
 40
3.0
 40
4.0
 40
4.0
 40
4.0
 40
4.0
 10
121.5036946310824
 20
-151.2355576878855
 10
121.5036946310824
 20
-151.3499348579958
 10
121.4106770529806
 20
-151.4450194933887
 10
121.2942328255792
 20
-151.4450194933887
 10
121.1798556554689
 20
-151.4450194933887
 10
121.084771020076
 20
-151.3499348579958
 10
121.084771020076
 20
-151.2355576878855
 10
121.084771020076
 20
-151.1191134604841
 10
121.1798556554689
 20
-151.0260958823824
 10
121.2942328255792
 20
-151.0260958823824
 10
121.4086099956895
 20
-151.0260958823824
 10
121.5036946310824
 20
-151.1191134604841
 10
121.5036946310824
 20
-151.2355576878855
 97
        0
 97
        1
330
18A
 75
     2
 76
     1
 98
        1
 10
0.0
 20
0.0
450
        0
451
        0
460
0.0
461
0.0
452
        0
462
0.0
453
        0
470

  0
ENDBLK
  5
178
330
175
100
AcDbEntity
  8
0
100
AcDbBlockEnd
  0
BLOCK
  5
195
330
193
100
AcDbEntity
  8
0
100
AcDbBlockBegin
  2
Block_15
 70
     0
 10
0.0
 20
0.0
 30
0.0
  3
Block_15
  1

  0
INSERT
  5
198
330
193
100
AcDbEntity
  8
レイヤー 1
100
AcDbBlockReference
  2
Block_16
 10
0.0
 20
0.0
 30
0.0
  0
ENDBLK
  5
196
330
193
100
AcDbEntity
  8
0
100
AcDbBlockEnd
  0
BLOCK
  5
199
330
197
100
AcDbEntity
  8
0
100
AcDbBlockBegin
  2
Block_16
 70
     0
 10
0.0
 20
0.0
 30
0.0
  3
Block_16
  1

  0
SPLINE
  5
19B
330
197
100
AcDbEntity
  8
レイヤー 1
100
AcDbSpline
210
0.0
220
0.0
230
1.0
 70
    11
 71
     3
 72
    26
 73
    22
 74
     0
 42
0.0000000001
 43
0.0000000001
 40
0.0
 40
0.0
 40
0.0
 40
0.0
 40
1.0
 40
1.0
 40
1.0
 40
2.0
 40
2.0
 40
2.0
 40
3.0
 40
3.0
 40
3.0
 40
4.0
 40
4.0
 40
4.0
 40
5.0
 40
5.0
 40
5.0
 40
6.0
 40
6.0
 40
6.0
 40
7.0
 40
7.0
 40
7.0
 40
7.0
 10
90.86628822598134
 20
-155.8278699697236
 30
0.0
 10
90.86628822598134
 20
-155.8278699697236
 30
0.0
 10
90.86628822598134
 20
-154.723716866701
 30
0.0
 10
90.86628822598134
 20
-154.723716866701
 30
0.0
 10
90.86628822598134
 20
-154.723716866701
 30
0.0
 10
90.53624807849441
 20
-154.723716866701
 30
0.0
 10
90.53624807849441
 20
-154.723716866701
 30
0.0
 10
90.53624807849441
 20
-154.723716866701
 30
0.0
 10
90.53624807849441
 20
-154.5755777608353
 30
0.0
 10
90.53624807849441
 20
-154.5755777608353
 30
0.0
 10
90.86835528327249
 20
-154.5607638502487
 30
0.0
 10
90.91486407232336
 20
-154.3978108337964
 30
0.0
 10
90.94449189349651
 20
-154.2834336636861
 30
0.0
 10
90.94449189349651
 20
-154.2834336636861
 30
0.0
 10
91.09056394207112
 20
-154.2834336636861
 30
0.0
 10
91.09056394207112
 20
-154.2834336636861
 30
0.0
 10
91.09056394207112
 20
-154.2834336636861
 30
0.0
 10
91.09056394207112
 20
-155.8278699697236
 30
0.0
 10
91.09056394207112
 20
-155.8278699697236
 30
0.0
 10
91.09056394207112
 20
-155.8278699697236
 30
0.0
 10
90.86628822598134
 20
-155.8278699697236
 30
0.0
 10
90.86628822598134
 20
-155.8278699697236
 30
0.0
  0
HATCH
  5
19C
330
197
100
AcDbEntity
  8
レイヤー 1
 62
   250
420
  2299925
440
 33554687
100
AcDbHatch
 10
0.0
 20
0.0
 30
0.0
210
0.0
220
0.0
230
1.0
  2
SOLID
 70
     1
 71
     1
 91
        1
 92
        1
 93
        1
 72
     4
 94
        3
 73
     0
 74
     0
 95
       26
 96
       22
 40
0.0
 40
0.0
 40
0.0
 40
0.0
 40
1.0
 40
1.0
 40
1.0
 40
2.0
 40
2.0
 40
2.0
 40
3.0
 40
3.0
 40
3.0
 40
4.0
 40
4.0
 40
4.0
 40
5.0
 40
5.0
 40
5.0
 40
6.0
 40
6.0
 40
6.0
 40
7.0
 40
7.0
 40
7.0
 40
7.0
 10
90.86628822598134
 20
-155.8278699697236
 10
90.86628822598134
 20
-155.8278699697236
 10
90.86628822598134
 20
-154.723716866701
 10
90.86628822598134
 20
-154.723716866701
 10
90.86628822598134
 20
-154.723716866701
 10
90.53624807849441
 20
-154.723716866701
 10
90.53624807849441
 20
-154.723716866701
 10
90.53624807849441
 20
-154.723716866701
 10
90.53624807849441
 20
-154.5755777608353
 10
90.53624807849441
 20
-154.5755777608353
 10
90.86835528327249
 20
-154.5607638502487
 10
90.91486407232336
 20
-154.3978108337964
 10
90.94449189349651
 20
-154.2834336636861
 10
90.94449189349651
 20
-154.2834336636861
 10
91.09056394207112
 20
-154.2834336636861
 10
91.09056394207112
 20
-154.2834336636861
 10
91.09056394207112
 20
-154.2834336636861
 10
91.09056394207112
 20
-155.8278699697236
 10
91.09056394207112
 20
-155.8278699697236
 10
91.09056394207112
 20
-155.8278699697236
 10
90.86628822598134
 20
-155.8278699697236
 10
90.86628822598134
 20
-155.8278699697236
 97
        0
 97
        1
330
19B
 75
     2
 76
     1
 98
        1
 10
0.0
 20
0.0
450
        0
451
        0
460
0.0
461
0.0
452
        0
462
0.0
453
        0
470

  0
SPLINE
  5
19D
330
197
100
AcDbEntity
  8
レイヤー 1
100
AcDbSpline
210
0.0
220
0.0
230
1.0
 70
    11
 71
     3
 72
    26
 73
    22
 74
     0
 42
0.0000000001
 43
0.0000000001
 40
0.0
 40
0.0
 40
0.0
 40
0.0
 40
1.0
 40
1.0
 40
1.0
 40
2.0
 40
2.0
 40
2.0
 40
3.0
 40
3.0
 40
3.0
 40
4.0
 40
4.0
 40
4.0
 40
5.0
 40
5.0
 40
5.0
 40
6.0
 40
6.0
 40
6.0
 40
7.0
 40
7.0
 40
7.0
 40
7.0
 10
92.0431328437427
 20
-155.8278699697236
 30
0.0
 10
92.0431328437427
 20
-155.8278699697236
 30
0.0
 10
92.0431328437427
 20
-154.723716866701
 30
0.0
 10
92.0431328437427
 20
-154.723716866701
 30
0.0
 10
92.0431328437427
 20
-154.723716866701
 30
0.0
 10
91.71309269625576
 20
-154.723716866701
 30
0.0
 10
91.71309269625576
 20
-154.723716866701
 30
0.0
 10
91.71309269625576
 20
-154.723716866701
 30
0.0
 10
91.71309269625576
 20
-154.5755777608353
 30
0.0
 10
91.71309269625576
 20
-154.5755777608353
 30
0.0
 10
92.04519990103383
 20
-154.5607638502487
 30
0.0
 10
92.09170869008472
 20
-154.3978108337964
 30
0.0
 10
92.12133651125787
 20
-154.2834336636861
 30
0.0
 10
92.12133651125787
 20
-154.2834336636861
 30
0.0
 10
92.26740855983246
 20
-154.2834336636861
 30
0.0
 10
92.26740855983246
 20
-154.2834336636861
 30
0.0
 10
92.26740855983246
 20
-154.2834336636861
 30
0.0
 10
92.26740855983246
 20
-155.8278699697236
 30
0.0
 10
92.26740855983246
 20
-155.8278699697236
 30
0.0
 10
92.26740855983246
 20
-155.8278699697236
 30
0.0
 10
92.0431328437427
 20
-155.8278699697236
 30
0.0
 10
92.0431328437427
 20
-155.8278699697236
 30
0.0
  0
HATCH
  5
19E
330
197
100
AcDbEntity
  8
レイヤー 1
 62
   250
420
  2299925
440
 33554687
100
AcDbHatch
 10
0.0
 20
0.0
 30
0.0
210
0.0
220
0.0
230
1.0
  2
SOLID
 70
     1
 71
     1
 91
        1
 92
        1
 93
        1
 72
     4
 94
        3
 73
     0
 74
     0
 95
       26
 96
       22
 40
0.0
 40
0.0
 40
0.0
 40
0.0
 40
1.0
 40
1.0
 40
1.0
 40
2.0
 40
2.0
 40
2.0
 40
3.0
 40
3.0
 40
3.0
 40
4.0
 40
4.0
 40
4.0
 40
5.0
 40
5.0
 40
5.0
 40
6.0
 40
6.0
 40
6.0
 40
7.0
 40
7.0
 40
7.0
 40
7.0
 10
92.0431328437427
 20
-155.8278699697236
 10
92.0431328437427
 20
-155.8278699697236
 10
92.0431328437427
 20
-154.723716866701
 10
92.0431328437427
 20
-154.723716866701
 10
92.0431328437427
 20
-154.723716866701
 10
91.71309269625576
 20
-154.723716866701
 10
91.71309269625576
 20
-154.723716866701
 10
91.71309269625576
 20
-154.723716866701
 10
91.71309269625576
 20
-154.5755777608353
 10
91.71309269625576
 20
-154.5755777608353
 10
92.04519990103383
 20
-154.5607638502487
 10
92.09170869008472
 20
-154.3978108337964
 10
92.12133651125787
 20
-154.2834336636861
 10
92.12133651125787
 20
-154.2834336636861
 10
92.26740855983246
 20
-154.2834336636861
 10
92.26740855983246
 20
-154.2834336636861
 10
92.26740855983246
 20
-154.2834336636861
 10
92.26740855983246
 20
-155.8278699697236
 10
92.26740855983246
 20
-155.8278699697236
 10
92.26740855983246
 20
-155.8278699697236
 10
92.0431328437427
 20
-155.8278699697236
 10
92.0431328437427
 20
-155.8278699697236
 97
        0
 97
        1
330
19D
 75
     2
 76
     1
 98
        1
 10
0.0
 20
0.0
450
        0
451
        0
460
0.0
461
0.0
452
        0
462
0.0
453
        0
470

  0
ENDBLK
  5
19A
330
197
100
AcDbEntity
  8
0
100
AcDbBlockEnd
  0
ENDSEC
  0
SECTION
  2
ENTITIES
  0
INSERT
  5
7A
330
70
100
AcDbEntity
  8
レイヤー 1
100
AcDbBlockReference
  2
Block_0
 10
0.0
 20
0.0
 30
0.0
  0
INSERT
  5
B4
330
70
100
AcDbEntity
  8
レイヤー 1
100
AcDbBlockReference
  2
Block_1
 10
0.0
 20
0.0
 30
0.0
  0
INSERT
  5
167
330
70
100
AcDbEntity
  8
レイヤー 1
100
AcDbBlockReference
  2
Block_11
 10
0.0
 20
0.0
 30
0.0
  0
SPLINE
  5
18C
330
70
100
AcDbEntity
  8
レイヤー 1
 62
   250
420
  2299925
370
     9
100
AcDbSpline
210
0.0
220
0.0
230
1.0
 70
     9
 71
     3
 72
    17
 73
    13
 74
     0
 42
0.0000000001
 43
0.0000000001
 40
0.0
 40
0.0
 40
0.0
 40
0.0
 40
1.0
 40
1.0
 40
1.0
 40
2.0
 40
2.0
 40
2.0
 40
3.0
 40
3.0
 40
3.0
 40
4.0
 40
4.0
 40
4.0
 40
4.0
 10
85.9900336129729
 20
-156.5414375615227
 30
0.0
 10
85.9900336129729
 20
-156.4862983948703
 30
0.0
 10
85.94505407553269
 20
-156.4414956171036
 30
0.0
 10
85.88966243188046
 20
-156.4414956171036
 30
0.0
 10
85.83501315046252
 20
-156.4414956171036
 30
0.0
 10
85.7900336130223
 20
-156.4862983948703
 30
0.0
 10
85.7900336130223
 20
-156.5414375615227
 30
0.0
 10
85.7900336130223
 20
-156.5965414503983
 30
0.0
 10
85.83501315046252
 20
-156.641344228165
 30
0.0
 10
85.88966243188046
 20
-156.641344228165
 30
0.0
 10
85.94505407553269
 20
-156.641344228165
 30
0.0
 10
85.9900336129729
 20
-156.5965414503983
 30
0.0
 10
85.9900336129729
 20
-156.5414375615227
 30
0.0
  0
HATCH
  5
18D
330
70
100
AcDbEntity
  8
レイヤー 1
 62
   250
420
  2299925
440
 33554687
100
AcDbHatch
 10
0.0
 20
0.0
 30
0.0
210
0.0
220
0.0
230
1.0
  2
SOLID
 70
     1
 71
     1
 91
        1
 92
        1
 93
        1
 72
     4
 94
        3
 73
     0
 74
     0
 95
       17
 96
       13
 40
0.0
 40
0.0
 40
0.0
 40
0.0
 40
1.0
 40
1.0
 40
1.0
 40
2.0
 40
2.0
 40
2.0
 40
3.0
 40
3.0
 40
3.0
 40
4.0
 40
4.0
 40
4.0
 40
4.0
 10
85.9900336129729
 20
-156.5414375615227
 10
85.9900336129729
 20
-156.4862983948703
 10
85.94505407553269
 20
-156.4414956171036
 10
85.88966243188046
 20
-156.4414956171036
 10
85.83501315046252
 20
-156.4414956171036
 10
85.7900336130223
 20
-156.4862983948703
 10
85.7900336130223
 20
-156.5414375615227
 10
85.7900336130223
 20
-156.5965414503983
 10
85.83501315046252
 20
-156.641344228165
 10
85.88966243188046
 20
-156.641344228165
 10
85.94505407553269
 20
-156.641344228165
 10
85.9900336129729
 20
-156.5965414503983
 10
85.9900336129729
 20
-156.5414375615227
 97
        0
 97
        1
330
18C
 75
     2
 76
     1
 98
        1
 10
0.0
 20
0.0
450
        0
451
        0
460
0.0
461
0.0
452
        0
462
0.0
453
        0
470

  0
SPLINE
  5
18E
330
70
100
AcDbEntity
  8
レイヤー 1
 62
   250
420
  2299925
370
     9
100
AcDbSpline
210
0.0
220
0.0
230
1.0
 70
     9
 71
     3
 72
    17
 73
    13
 74
     0
 42
0.0000000001
 43
0.0000000001
 40
0.0
 40
0.0
 40
0.0
 40
0.0
 40
1.0
 40
1.0
 40
1.0
 40
2.0
 40
2.0
 40
2.0
 40
3.0
 40
3.0
 40
3.0
 40
4.0
 40
4.0
 40
4.0
 40
4.0
 10
97.03272008372842
 20
-156.5414375615227
 30
0.0
 10
97.03272008372842
 20
-156.4862983948703
 30
0.0
 10
96.98810645602677
 20
-156.4414956171036
 30
0.0
 10
96.93308171298818
 20
-156.4414956171036
 30
0.0
 10
96.87733371147949
 20
-156.4414956171036
 30
0.0
 10
96.83272008377784
 20
-156.4862983948703
 30
0.0
 10
96.83272008377784
 20
-156.5414375615227
 30
0.0
 10
96.83272008377784
 20
-156.5965414503983
 30
0.0
 10
96.87733371147949
 20
-156.641344228165
 30
0.0
 10
96.93308171298818
 20
-156.641344228165
 30
0.0
 10
96.98810645602677
 20
-156.641344228165
 30
0.0
 10
97.03272008372842
 20
-156.5965414503983
 30
0.0
 10
97.03272008372842
 20
-156.5414375615227
 30
0.0
  0
HATCH
  5
18F
330
70
100
AcDbEntity
  8
レイヤー 1
 62
   250
420
  2299925
440
 33554687
100
AcDbHatch
 10
0.0
 20
0.0
 30
0.0
210
0.0
220
0.0
230
1.0
  2
SOLID
 70
     1
 71
     1
 91
        1
 92
        1
 93
        1
 72
     4
 94
        3
 73
     0
 74
     0
 95
       17
 96
       13
 40
0.0
 40
0.0
 40
0.0
 40
0.0
 40
1.0
 40
1.0
 40
1.0
 40
2.0
 40
2.0
 40
2.0
 40
3.0
 40
3.0
 40
3.0
 40
4.0
 40
4.0
 40
4.0
 40
4.0
 10
97.03272008372842
 20
-156.5414375615227
 10
97.03272008372842
 20
-156.4862983948703
 10
96.98810645602677
 20
-156.4414956171036
 10
96.93308171298818
 20
-156.4414956171036
 10
96.87733371147949
 20
-156.4414956171036
 10
96.83272008377784
 20
-156.4862983948703
 10
96.83272008377784
 20
-156.5414375615227
 10
96.83272008377784
 20
-156.5965414503983
 10
96.87733371147949
 20
-156.641344228165
 10
96.93308171298818
 20
-156.641344228165
 10
96.98810645602677
 20
-156.641344228165
 10
97.03272008372842
 20
-156.5965414503983
 10
97.03272008372842
 20
-156.5414375615227
 97
        0
 97
        1
330
18E
 75
     2
 76
     1
 98
        1
 10
0.0
 20
0.0
450
        0
451
        0
460
0.0
461
0.0
452
        0
462
0.0
453
        0
470

  0
LINE
  5
190
330
70
100
AcDbEntity
  8
レイヤー 1
 62
   250
420
  2299925
370
     9
100
AcDbLine
 10
96.9333903893289
 20
-156.5414375615227
 30
0.0
 11
85.88934569634849
 21
-156.5414375615227
 31
0.0
  0
LINE
  5
191
330
70
100
AcDbEntity
  8
レイヤー 1
 62
   250
420
  2299925
370
     9
100
AcDbLine
 10
96.9333903615138
 20
-155.081396172999
 30
0.0
 11
96.9333903615138
 21
-157.5415272834955
 31
0.0
  0
LINE
  5
192
330
70
100
AcDbEntity
  8
レイヤー 1
 62
   250
420
  2299925
370
     9
100
AcDbLine
 10
85.88934569634849
 20
-155.081396172999
 30
0.0
 11
85.88934569634849
 21
-157.5415272834955
 31
0.0
  0
INSERT
  5
194
330
70
100
AcDbEntity
  8
レイヤー 1
100
AcDbBlockReference
  2
Block_15
 10
0.0
 20
0.0
 30
0.0
  0
ENDSEC
  0
SECTION
  2
OBJECTS
  0
DICTIONARY
  5
C
330
0
100
AcDbDictionary
281
     1
  3
ACAD_COLOR
350
63
  3
ACAD_DETAILVIEWSTYLE
350
6A
  3
ACAD_GROUP
350
D
  3
ACAD_LAYOUT
350
62
  3
ACAD_MATERIAL
350
10
  3
ACAD_MLEADERSTYLE
350
66
  3
ACAD_MLINESTYLE
350
5F
  3
ACAD_PLOTSETTINGS
350
61
  3
ACAD_PLOTSTYLENAME
350
E
  3
ACAD_SCALELIST
350
42
  3
ACAD_SECTIONVIEWSTYLE
350
68
  3
ACAD_TABLESTYLE
350
64
  3
ACAD_VISUALSTYLE
350
29
  3
ACDB_RECOMPOSE_DATA
350
1A7
  3
AcDbVariableDictionary
350
19F
  0
DICTIONARY
  5
63
102
{ACAD_REACTORS
330
C
102
}
330
C
100
AcDbDictionary
281
     1
  0
DICTIONARY
  5
6A
102
{ACAD_REACTORS
330
C
102
}
330
C
100
AcDbDictionary
281
     1
  3
Imperial24
350
6B
  0
DICTIONARY
  5
D
102
{ACAD_REACTORS
330
C
102
}
330
C
100
AcDbDictionary
281
     1
  0
DICTIONARY
  5
62
102
{ACAD_REACTORS
330
C
102
}
330
C
100
AcDbDictionary
281
     1
  3
Layout1
350
6F
  3
Layout2
350
77
  3
Model
350
73
  0
DICTIONARY
  5
10
102
{ACAD_REACTORS
330
C
102
}
330
C
100
AcDbDictionary
281
     1
  3
ByBlock
350
19
  3
ByLayer
350
11
  3
Global
350
21
  0
DICTIONARY
  5
66
102
{ACAD_REACTORS
330
C
102
}
330
C
100
AcDbDictionary
281
     1
  3
Standard
350
67
  0
DICTIONARY
  5
5F
102
{ACAD_REACTORS
330
C
102
}
330
C
100
AcDbDictionary
281
     1
  3
Standard
350
60
  0
DICTIONARY
  5
61
102
{ACAD_REACTORS
330
C
102
}
330
C
100
AcDbDictionary
281
     1
  0
ACDBDICTIONARYWDFLT
  5
E
102
{ACAD_REACTORS
330
C
102
}
330
C
100
AcDbDictionary
281
     1
  3
Normal
350
F
100
AcDbDictionaryWithDefault
340
F
  0
DICTIONARY
  5
42
102
{ACAD_REACTORS
330
C
102
}
330
C
100
AcDbDictionary
281
     1
  3
A0
350
43
  3
A1
350
44
  3
A2
350
45
  3
A3
350
46
  3
A4
350
47
  3
A5
350
48
  3
A6
350
49
  3
A7
350
4A
  3
A8
350
4B
  3
A9
350
4C
  3
B0
350
4D
  3
B1
350
4E
  3
B2
350
4F
  3
B3
350
50
  3
B4
350
51
  3
B5
350
52
  3
B6
350
53
  0
DICTIONARY
  5
68
102
{ACAD_REACTORS
330
C
102
}
330
C
100
AcDbDictionary
281
     1
  3
Imperial24
350
69
  0
DICTIONARY
  5
64
102
{ACAD_REACTORS
330
C
102
}
330
C
100
AcDbDictionary
281
     1
  3
Standard
350
65
  0
DICTIONARY
  5
29
102
{ACAD_REACTORS
330
C
102
}
330
C
100
AcDbDictionary
281
     1
  3
2dWireframe
350
2F
  3
Basic
350
2E
  3
Brighten
350
35
  3
ColorChange
350
39
  3
Conceptual
350
32
  3
Dim
350
34
  3
EdgeColorOff
350
41
  3
Facepattern
350
38
  3
Flat
350
2A
  3
FlatWithEdges
350
2B
  3
Gouraud
350
2C
  3
GouraudWithEdges
350
2D
  3
Hidden
350
31
  3
JitterOff
350
3F
  3
Linepattern
350
37
  3
OverhangOff
350
40
  3
Realistic
350
33
  3
Shaded
350
3E
  3
Shaded with edges
350
3D
  3
Shades of Gray
350
3A
  3
Sketchy
350
3B
  3
Thicken
350
36
  3
Wireframe
350
30
  3
X-Ray
350
3C
  0
XRECORD
  5
1A7
102
{ACAD_REACTORS
330
C
102
}
330
C
100
AcDbXrecord
280
     1
 90
        1
330
65
  0
DICTIONARY
  5
19F
102
{ACAD_REACTORS
330
C
102
}
330
C
100
AcDbDictionary
281
     1
  3
CANNOSCALE
350
1A4
  3
CMLEADERSTYLE
350
1A1
  3
CTABLESTYLE
350
1A0
  3
CVIEWDETAILSTYLE
350
1A2
  3
CVIEWSECTIONSTYLE
350
1A3
  0
ACDBDETAILVIEWSTYLE
  5
6B
102
{ACAD_XDICTIONARY
360
1DC
102
}
102
{ACAD_REACTORS
330
6A
102
}
330
6A
100
AcDbModelDocViewStyle
 70
     0
  3
Imperial24
290
     0
100
AcDbDetailViewStyle
 70
     0
 71
     0
 90
        3
 71
     1
340
55
 62
   256
 40
0.24
340
0
 62
   256
 40
0.24
300

 40
0.36
280
     3
 71
     2
340
5D
 90
       25
 62
   256
 71
     3
340
55
 62
   256
 40
0.24
 90
        1
 40
0.75
 90
        1
300
%<\AcVar ViewType \f "%tc1">% %<\AcVar ViewDetailId>%\PSCALE %<\AcVar ViewScale \f "%sn">%
 71
     4
340
5D
 90
       25
 62
   256
340
5D
 90
       25
 62
   256
280
     0
  0
LAYOUT
  5
6F
102
{ACAD_REACTORS
330
62
102
}
330
62
100
AcDbPlotSettings
  1

  2

  4

  6

 40
0.0
 41
0.0
 42
0.0
 43
0.0
 44
0.0
 45
0.0
 46
0.0
 47
0.0
 48
0.0
 49
0.0
140
0.0
141
0.0
142
1.0
143
1.0
 70
   688
 72
     0
 73
     0
 74
     5
  7

 75
    16
147
1.0
 76
     0
 77
     2
 78
   300
148
0.0
149
0.0
100
AcDbLayout
  1
Layout1
 70
     1
 71
     1
 10
0.0
 20
0.0
 11
12.0
 21
9.0
 12
0.0
 22
0.0
 32
0.0
 14
0.0
 24
0.0
 34
0.0
 15
0.0
 25
0.0
 35
0.0
146
0.0
 13
0.0
 23
0.0
 33
0.0
 16
1.0
 26
0.0
 36
0.0
 17
0.0
 27
1.0
 37
0.0
 76
     0
330
6C
  0
LAYOUT
  5
77
102
{ACAD_REACTORS
330
62
102
}
330
62
100
AcDbPlotSettings
  1

  2

  4

  6

 40
0.0
 41
0.0
 42
0.0
 43
0.0
 44
0.0
 45
0.0
 46
0.0
 47
0.0
 48
0.0
 49
0.0
140
0.0
141
0.0
142
1.0
143
1.0
 70
   688
 72
     0
 73
     0
 74
     5
  7

 75
    16
147
1.0
 76
     0
 77
     2
 78
   300
148
0.0
149
0.0
100
AcDbLayout
  1
Layout2
 70
     1
 71
     2
 10
0.0
 20
0.0
 11
12.0
 21
9.0
 12
0.0
 22
0.0
 32
0.0
 14
0.0
 24
0.0
 34
0.0
 15
0.0
 25
0.0
 35
0.0
146
0.0
 13
0.0
 23
0.0
 33
0.0
 16
1.0
 26
0.0
 36
0.0
 17
0.0
 27
1.0
 37
0.0
 76
     0
330
74
  0
LAYOUT
  5
73
102
{ACAD_REACTORS
330
62
102
}
330
62
100
AcDbPlotSettings
  1

  2

  4

  6

 40
0.0
 41
0.0
 42
0.0
 43
0.0
 44
0.0
 45
0.0
 46
0.0
 47
0.0
 48
0.0
 49
0.0
140
0.0
141
0.0
142
1.0
143
1.0
 70
  1712
 72
     0
 73
     0
 74
     0
  7

 75
     0
147
1.0
 76
     0
 77
     2
 78
   300
148
0.0
149
0.0
100
AcDbLayout
  1
Model
 70
     1
 71
     0
 10
0.0
 20
0.0
 11
12.0
 21
9.0
 12
0.0
 22
0.0
 32
0.0
 14
0.0
 24
0.0
 34
0.0
 15
0.0
 25
0.0
 35
0.0
146
0.0
 13
0.0
 23
0.0
 33
0.0
 16
1.0
 26
0.0
 36
0.0
 17
0.0
 27
1.0
 37
0.0
 76
     0
330
70
  0
MATERIAL
  5
19
102
{ACAD_XDICTIONARY
360
1A
102
}
102
{ACAD_REACTORS
330
10
102
}
330
10
100
AcDbMaterial
  1
ByBlock
 72
     0
 43
0.0208333333333333
 43
0.0
 43
0.0
 43
0.0
 43
0.0
 43
0.0208333333333333
 43
0.0
 43
0.0
 43
0.0
 43
0.0
 43
1.0
 43
0.0
 43
0.0
 43
0.0
 43
0.0
 43
1.0
 77
     0
 47
0.0208333333333333
 47
0.0
 47
0.0
 47
0.0
 47
0.0
 47
0.0208333333333333
 47
0.0
 47
0.0
 47
0.0
 47
0.0
 47
1.0
 47
0.0
 47
0.0
 47
0.0
 47
0.0
 47
1.0
171
     0
 49
0.0208333333333333
 49
0.0
 49
0.0
 49
0.0
 49
0.0
 49
0.0208333333333333
 49
0.0
 49
0.0
 49
0.0
 49
0.0
 49
1.0
 49
0.0
 49
0.0
 49
0.0
 49
0.0
 49
1.0
175
     0
142
0.0208333333333333
142
0.0
142
0.0
142
0.0
142
0.0
142
0.0208333333333333
142
0.0
142
0.0
142
0.0
142
0.0
142
1.0
142
0.0
142
0.0
142
0.0
142
0.0
142
1.0
179
     0
144
0.0208333333333333
144
0.0
144
0.0
144
0.0
144
0.0
144
0.0208333333333333
144
0.0
144
0.0
144
0.0
144
0.0
144
1.0
144
0.0
144
0.0
144
0.0
144
0.0
144
1.0
147
0.0208333333333333
147
0.0
147
0.0
147
0.0
147
0.0
147
0.0208333333333333
147
0.0
147
0.0
147
0.0
147
0.0
147
1.0
147
0.0
147
0.0
147
0.0
147
0.0
147
1.0
  0
MATERIAL
  5
11
102
{ACAD_XDICTIONARY
360
12
102
}
102
{ACAD_REACTORS
330
10
102
}
330
10
100
AcDbMaterial
  1
ByLayer
 72
     0
 43
0.0208333333333333
 43
0.0
 43
0.0
 43
0.0
 43
0.0
 43
0.0208333333333333
 43
0.0
 43
0.0
 43
0.0
 43
0.0
 43
1.0
 43
0.0
 43
0.0
 43
0.0
 43
0.0
 43
1.0
 77
     0
 47
0.0208333333333333
 47
0.0
 47
0.0
 47
0.0
 47
0.0
 47
0.0208333333333333
 47
0.0
 47
0.0
 47
0.0
 47
0.0
 47
1.0
 47
0.0
 47
0.0
 47
0.0
 47
0.0
 47
1.0
171
     0
 49
0.0208333333333333
 49
0.0
 49
0.0
 49
0.0
 49
0.0
 49
0.0208333333333333
 49
0.0
 49
0.0
 49
0.0
 49
0.0
 49
1.0
 49
0.0
 49
0.0
 49
0.0
 49
0.0
 49
1.0
175
     0
142
0.0208333333333333
142
0.0
142
0.0
142
0.0
142
0.0
142
0.0208333333333333
142
0.0
142
0.0
142
0.0
142
0.0
142
1.0
142
0.0
142
0.0
142
0.0
142
0.0
142
1.0
179
     0
144
0.0208333333333333
144
0.0
144
0.0
144
0.0
144
0.0
144
0.0208333333333333
144
0.0
144
0.0
144
0.0
144
0.0
144
1.0
144
0.0
144
0.0
144
0.0
144
0.0
144
1.0
147
0.0208333333333333
147
0.0
147
0.0
147
0.0
147
0.0
147
0.0208333333333333
147
0.0
147
0.0
147
0.0
147
0.0
147
1.0
147
0.0
147
0.0
147
0.0
147
0.0
147
1.0
  0
MATERIAL
  5
21
102
{ACAD_XDICTIONARY
360
22
102
}
102
{ACAD_REACTORS
330
10
102
}
330
10
100
AcDbMaterial
  1
Global
 72
     0
 43
0.0208333333333333
 43
0.0
 43
0.0
 43
0.0
 43
0.0
 43
0.0208333333333333
 43
0.0
 43
0.0
 43
0.0
 43
0.0
 43
1.0
 43
0.0
 43
0.0
 43
0.0
 43
0.0
 43
1.0
 77
     0
 47
0.0208333333333333
 47
0.0
 47
0.0
 47
0.0
 47
0.0
 47
0.0208333333333333
 47
0.0
 47
0.0
 47
0.0
 47
0.0
 47
1.0
 47
0.0
 47
0.0
 47
0.0
 47
0.0
 47
1.0
171
     0
 49
0.0208333333333333
 49
0.0
 49
0.0
 49
0.0
 49
0.0
 49
0.0208333333333333
 49
0.0
 49
0.0
 49
0.0
 49
0.0
 49
1.0
 49
0.0
 49
0.0
 49
0.0
 49
0.0
 49
1.0
175
     0
142
0.0208333333333333
142
0.0
142
0.0
142
0.0
142
0.0
142
0.0208333333333333
142
0.0
142
0.0
142
0.0
142
0.0
142
1.0
142
0.0
142
0.0
142
0.0
142
0.0
142
1.0
179
     0
144
0.0208333333333333
144
0.0
144
0.0
144
0.0
144
0.0
144
0.0208333333333333
144
0.0
144
0.0
144
0.0
144
0.0
144
1.0
144
0.0
144
0.0
144
0.0
144
0.0
144
1.0
147
0.0208333333333333
147
0.0
147
0.0
147
0.0
147
0.0
147
0.0208333333333333
147
0.0
147
0.0
147
0.0
147
0.0
147
1.0
147
0.0
147
0.0
147
0.0
147
0.0
147
1.0
  0
MLEADERSTYLE
  5
67
102
{ACAD_XDICTIONARY
360
1D8
102
}
102
{ACAD_REACTORS
330
66
102
}
330
66
100
AcDbMLeaderStyle
179
     2
170
     2
171
     1
172
     0
 90
        2
 40
0.0
 41
0.0
173
     1
 91
-1056964608
340
5B
 92
       -2
290
     1
 42
0.09
291
     1
 43
0.36
  3
Standard
 44
0.18
300

342
55
174
     1
178
     6
175
     1
176
     0
 93
-1056964608
 45
0.18
292
     0
297
     0
 46
0.18
 94
-1056964608
 47
1.0
 49
1.0
140
1.0
293
     1
141
0.0
294
     1
177
     0
142
1.0
295
     0
296
     0
143
0.125
271
     0
272
     9
273
     9
  0
MLINESTYLE
  5
60
102
{ACAD_REACTORS
330
5F
102
}
330
5F
100
AcDbMlineStyle
  2
STANDARD
 70
     0
  3

 62
   256
 51
90.0
 52
90.0
 71
     2
 49
0.5
 62
   256
  6
BYLAYER
 49
-0.5
 62
   256
  6
BYLAYER
  0
ACDBPLACEHOLDER
  5
F
102
{ACAD_REACTORS
330
E
102
}
330
E
  0
SCALE
  5
43
102
{ACAD_REACTORS
330
42
102
}
330
42
100
AcDbScale
 70
     0
300
1:1
140
1.0
141
1.0
290
     1
  0
SCALE
  5
44
102
{ACAD_REACTORS
330
42
102
}
330
42
100
AcDbScale
 70
     0
300
1/128" = 1'-0"
140
0.0078125
141
12.0
290
     0
  0
SCALE
  5
45
102
{ACAD_REACTORS
330
42
102
}
330
42
100
AcDbScale
 70
     0
300
1/64" = 1'-0"
140
0.015625
141
12.0
290
     0
  0
SCALE
  5
46
102
{ACAD_REACTORS
330
42
102
}
330
42
100
AcDbScale
 70
     0
300
1/32" = 1'-0"
140
0.03125
141
12.0
290
     0
  0
SCALE
  5
47
102
{ACAD_REACTORS
330
42
102
}
330
42
100
AcDbScale
 70
     0
300
1/16" = 1'-0"
140
0.0625
141
12.0
290
     0
  0
SCALE
  5
48
102
{ACAD_REACTORS
330
42
102
}
330
42
100
AcDbScale
 70
     0
300
3/32" = 1'-0"
140
0.09375
141
12.0
290
     0
  0
SCALE
  5
49
102
{ACAD_REACTORS
330
42
102
}
330
42
100
AcDbScale
 70
     0
300
1/8" = 1'-0"
140
0.125
141
12.0
290
     0
  0
SCALE
  5
4A
102
{ACAD_REACTORS
330
42
102
}
330
42
100
AcDbScale
 70
     0
300
3/16" = 1'-0"
140
0.1875
141
12.0
290
     0
  0
SCALE
  5
4B
102
{ACAD_REACTORS
330
42
102
}
330
42
100
AcDbScale
 70
     0
300
1/4" = 1'-0"
140
0.25
141
12.0
290
     0
  0
SCALE
  5
4C
102
{ACAD_REACTORS
330
42
102
}
330
42
100
AcDbScale
 70
     0
300
3/8" = 1'-0"
140
0.375
141
12.0
290
     0
  0
SCALE
  5
4D
102
{ACAD_REACTORS
330
42
102
}
330
42
100
AcDbScale
 70
     0
300
1/2" = 1'-0"
140
0.5
141
12.0
290
     0
  0
SCALE
  5
4E
102
{ACAD_REACTORS
330
42
102
}
330
42
100
AcDbScale
 70
     0
300
3/4" = 1'-0"
140
0.75
141
12.0
290
     0
  0
SCALE
  5
4F
102
{ACAD_REACTORS
330
42
102
}
330
42
100
AcDbScale
 70
     0
300
1" = 1'-0"
140
1.0
141
12.0
290
     0
  0
SCALE
  5
50
102
{ACAD_REACTORS
330
42
102
}
330
42
100
AcDbScale
 70
     0
300
1-1/2" = 1'-0"
140
1.5
141
12.0
290
     0
  0
SCALE
  5
51
102
{ACAD_REACTORS
330
42
102
}
330
42
100
AcDbScale
 70
     0
300
3" = 1'-0"
140
3.0
141
12.0
290
     0
  0
SCALE
  5
52
102
{ACAD_REACTORS
330
42
102
}
330
42
100
AcDbScale
 70
     0
300
6" = 1'-0"
140
6.0
141
12.0
290
     0
  0
SCALE
  5
53
102
{ACAD_REACTORS
330
42
102
}
330
42
100
AcDbScale
 70
     0
300
1'-0" = 1'-0"
140
12.0
141
12.0
290
     0
  0
ACDBSECTIONVIEWSTYLE
  5
69
102
{ACAD_XDICTIONARY
360
1DA
102
}
102
{ACAD_REACTORS
330
68
102
}
330
68
100
AcDbModelDocViewStyle
 70
     0
  3
Imperial24
290
     0
100
AcDbSectionViewStyle
 70
     0
 71
     0
 90
       78
 71
     1
340
55
 62
   256
 40
0.24
340
0
340
0
 62
   256
 40
0.24
300
I, O, Q, S, X, Z
 40
0.48
 90
        3
 40
0.18
 90
        1
 71
     2
340
5D
 90
       25
 62
   256
340
5D
 90
       50
 62
   256
 40
0.24
 40
0.0
 40
0.24
 71
     3
340
55
 62
   256
 40
0.24
 90
        1
 40
0.75
 90
        1
300
%<\AcVar ViewType \f "%tc1">% %<\AcVar ViewSectionStartId>%-%<\AcVar ViewSectionEndId>%\PSCALE %<\AcVar ViewScale \f "%sn">%
 71
     4
 62
   256
 62
   257
300
ANSI31
 40
1.0
 90
        0
290
     0
290
     0
 90
        6
 40
0.0
 40
1.570796326794896
 40
0.2617993877991494
 40
1.308996938995747
 40
-0.2617993877991494
 40
1.832595714594046
  0
TABLESTYLE
  5
65
102
{ACAD_XDICTIONARY
360
1A5
102
}
102
{ACAD_REACTORS
330
64
102
}
330
64
100
AcDbTableStyle
280
     0
  3
Standard
 70
     0
 71
     0
 40
0.06
 41
0.06
280
     0
281
     0
  7
Standard
140
0.18
170
     2
 62
     0
 63
     7
283
     0
 90
      512
 91
        0
  1

274
    -2
284
     1
 64
     0
275
    -2
285
     1
 65
     0
276
    -2
286
     1
 66
     0
277
    -2
287
     1
 67
     0
278
    -2
288
     1
 68
     0
279
    -2
289
     1
 69
     0
  7
Standard
140
0.25
170
     5
 62
     0
 63
     7
283
     0
 90
      512
 91
        0
  1

274
    -2
284
     1
 64
     0
275
    -2
285
     1
 65
     0
276
    -2
286
     1
 66
     0
277
    -2
287
     1
 67
     0
278
    -2
288
     1
 68
     0
279
    -2
289
     1
 69
     0
  7
Standard
140
0.18
170
     5
 62
     0
 63
     7
283
     0
 90
      512
 91
        0
  1

274
    -2
284
     1
 64
     0
275
    -2
285
     1
 65
     0
276
    -2
286
     1
 66
     0
277
    -2
287
     1
 67
     0
278
    -2
288
     1
 68
     0
279
    -2
289
     1
 69
     0
  0
VISUALSTYLE
  5
2F
102
{ACAD_XDICTIONARY
360
1B2
102
}
102
{ACAD_REACTORS
330
29
102
}
330
29
100
AcDbVisualStyle
  2
2dWireframe
 70
     4
177
     2
291
     0
 71
     0
176
     1
 72
     2
176
     1
 73
     0
176
     1
 90
        0
176
     1
 40
0.6
176
     1
 41
30.0
176
     1
 63
     7
421
 16777215
176
     1
 74
     1
176
     1
 91
        4
176
     1
 64
     7
176
     1
 65
   257
176
     1
 75
     1
176
     1
175
     1
176
     1
 42
1.0
176
     1
 92
        0
176
     1
 66
   257
176
     1
 43
1.0
176
     1
 76
     1
176
     1
 77
     6
176
     1
 78
     2
176
     1
 67
     7
176
     1
 79
     5
176
     1
170
     0
176
     1
171
     0
176
     1
290
     0
176
     1
 93
        1
176
     1
 44
0.0
176
     1
173
     0
176
     1
1001
ACAD
1000
AcDbSavedByObjectVersion
1070
     0
  0
VISUALSTYLE
  5
2E
102
{ACAD_XDICTIONARY
360
1B0
102
}
102
{ACAD_REACTORS
330
29
102
}
330
29
100
AcDbVisualStyle
  2
Basic
 70
     7
177
     2
291
     1
 71
     1
176
     1
 72
     0
176
     1
 73
     1
176
     1
 90
        0
176
     1
 40
0.6
176
     1
 41
30.0
176
     1
 63
     7
421
 16777215
176
     1
 74
     0
176
     1
 91
        4
176
     1
 64
     7
176
     1
 65
   257
176
     1
 75
     1
176
     1
175
     1
176
     1
 42
1.0
176
     1
 92
        8
176
     1
 66
     7
176
     1
 43
1.0
176
     1
 76
     1
176
     1
 77
     6
176
     1
 78
     2
176
     1
 67
     7
176
     1
 79
     5
176
     1
170
     0
176
     1
171
     0
176
     1
290
     0
176
     1
 93
        1
176
     1
 44
0.0
176
     1
173
     0
176
     1
1001
ACAD
1000
AcDbSavedByObjectVersion
1070
     0
  0
VISUALSTYLE
  5
35
102
{ACAD_XDICTIONARY
360
1BE
102
}
102
{ACAD_REACTORS
330
29
102
}
330
29
100
AcDbVisualStyle
  2
Brighten
 70
    12
177
     2
291
     1
 71
     2
176
     1
 72
     2
176
     1
 73
     0
176
     1
 90
        0
176
     1
 40
0.6
176
     1
 41
30.0
176
     1
 63
     7
421
 16777215
176
     1
 74
     1
176
     1
 91
        4
176
     1
 64
     7
176
     1
 65
   257
176
     1
 75
     1
176
     1
175
     1
176
     1
 42
1.0
176
     1
 92
        8
176
     1
 66
     7
176
     1
 43
1.0
176
     1
 76
     1
176
     1
 77
     6
176
     1
 78
     2
176
     1
 67
     7
176
     1
 79
     5
176
     1
170
     0
176
     1
171
     0
176
     1
290
     0
176
     1
 93
        1
176
     1
 44
50.0
176
     1
173
     0
176
     1
1001
ACAD
1000
AcDbSavedByObjectVersion
1070
     0
  0
VISUALSTYLE
  5
39
102
{ACAD_XDICTIONARY
360
1C6
102
}
102
{ACAD_REACTORS
330
29
102
}
330
29
100
AcDbVisualStyle
  2
ColorChange
 70
    16
177
     2
291
     1
 71
     2
176
     1
 72
     2
176
     1
 73
     3
176
     1
 90
        0
176
     1
 40
0.6
176
     1
 41
30.0
176
     1
 63
     8
421
  8421504
176
     1
 74
     1
176
     1
 91
        4
176
     1
 64
     7
176
     1
 65
   257
176
     1
 75
     1
176
     1
175
     1
176
     1
 42
1.0
176
     1
 92
        8
176
     1
 66
     8
424
  8421504
176
     1
 43
1.0
176
     1
 76
     1
176
     1
 77
     6
176
     1
 78
     2
176
     1
 67
     7
176
     1
 79
     5
176
     1
170
     0
176
     1
171
     0
176
     1
290
     0
176
     1
 93
        1
176
     1
 44
0.0
176
     1
173
     0
176
     1
1001
ACAD
1000
AcDbSavedByObjectVersion
1070
     0
  0
VISUALSTYLE
  5
32
102
{ACAD_XDICTIONARY
360
1B8
102
}
102
{ACAD_REACTORS
330
29
102
}
330
29
100
AcDbVisualStyle
  2
Conceptual
 70
     9
177
     2
291
     0
 71
     3
176
     1
 72
     2
176
     1
 73
     0
176
     1
 90
        0
176
     1
 40
0.6
176
     1
 41
30.0
176
     1
 63
     7
421
 16777215
176
     1
 74
     2
176
     1
 91
        2
176
     1
 64
     7
176
     1
 65
   257
176
     1
 75
     1
176
     1
175
     1
176
     1
 42
179.0
176
     1
 92
        8
176
     1
 66
     7
176
     1
 43
1.0
176
     1
 76
     1
176
     1
 77
     6
176
     1
 78
     2
176
     1
 67
     7
176
     1
 79
     3
176
     1
170
     0
176
     1
171
     0
176
     1
290
     0
176
     1
 93
        1
176
     1
 44
0.0
176
     1
173
     0
176
     1
1001
ACAD
1000
AcDbSavedByObjectVersion
1070
     0
  0
VISUALSTYLE
  5
34
102
{ACAD_XDICTIONARY
360
1BC
102
}
102
{ACAD_REACTORS
330
29
102
}
330
29
100
AcDbVisualStyle
  2
Dim
 70
    11
177
     2
291
     1
 71
     2
176
     1
 72
     2
176
     1
 73
     0
176
     1
 90
        0
176
     1
 40
0.6
176
     1
 41
30.0
176
     1
 63
     7
421
 16777215
176
     1
 74
     1
176
     1
 91
        4
176
     1
 64
     7
176
     1
 65
   257
176
     1
 75
     1
176
     1
175
     1
176
     1
 42
1.0
176
     1
 92
        8
176
     1
 66
     7
176
     1
 43
1.0
176
     1
 76
     1
176
     1
 77
     6
176
     1
 78
     2
176
     1
 67
     7
176
     1
 79
     5
176
     1
170
     0
176
     1
171
     0
176
     1
290
     0
176
     1
 93
        1
176
     1
 44
-50.0
176
     1
173
     0
176
     1
1001
ACAD
1000
AcDbSavedByObjectVersion
1070
     0
  0
VISUALSTYLE
  5
41
102
{ACAD_XDICTIONARY
360
1D6
102
}
102
{ACAD_REACTORS
330
29
102
}
330
29
100
AcDbVisualStyle
  2
EdgeColorOff
 70
    22
177
     2
291
     1
 71
     2
176
     0
 72
     2
176
     0
 73
     0
176
     0
 90
        0
176
     0
 40
0.6
176
     0
 41
30.0
176
     0
 63
     7
421
 16777215
176
     0
 74
     1
176
     0
 91
        4
176
     0
 64
     7
176
     0
 65
   257
176
     0
 75
     1
176
     0
175
     1
176
     0
 42
1.0
176
     0
 92
        8
176
     2
 66
     7
176
     0
 43
1.0
176
     0
 76
     1
176
     0
 77
     6
176
     0
 78
     2
176
     0
 67
     7
176
     0
 79
     5
176
     0
170
     0
176
     0
171
     0
176
     0
290
     0
176
     0
 93
        1
176
     0
 44
0.0
176
     0
173
     0
176
     0
1001
ACAD
1000
AcDbSavedByObjectVersion
1070
     0
  0
VISUALSTYLE
  5
38
102
{ACAD_XDICTIONARY
360
1C4
102
}
102
{ACAD_REACTORS
330
29
102
}
330
29
100
AcDbVisualStyle
  2
Facepattern
 70
    15
177
     2
291
     1
 71
     2
176
     1
 72
     2
176
     1
 73
     0
176
     1
 90
        0
176
     1
 40
0.6
176
     1
 41
30.0
176
     1
 63
     7
421
 16777215
176
     1
 74
     1
176
     1
 91
        4
176
     1
 64
     7
176
     1
 65
   257
176
     1
 75
     1
176
     1
175
     1
176
     1
 42
1.0
176
     1
 92
        8
176
     1
 66
     7
176
     1
 43
1.0
176
     1
 76
     1
176
     1
 77
     6
176
     1
 78
     2
176
     1
 67
     7
176
     1
 79
     5
176
     1
170
     0
176
     1
171
     0
176
     1
290
     0
176
     1
 93
        1
176
     1
 44
0.0
176
     1
173
     0
176
     1
1001
ACAD
1000
AcDbSavedByObjectVersion
1070
     0
  0
VISUALSTYLE
  5
2A
102
{ACAD_XDICTIONARY
360
1A8
102
}
102
{ACAD_REACTORS
330
29
102
}
330
29
100
AcDbVisualStyle
  2
Flat
 70
     0
177
     2
291
     1
 71
     2
176
     1
 72
     1
176
     1
 73
     1
176
     1
 90
        2
176
     1
 40
0.6
176
     1
 41
30.0
176
     1
 63
     7
421
 16777215
176
     1
 74
     0
176
     1
 91
        0
176
     1
 64
     7
176
     1
 65
   257
176
     1
 75
     1
176
     1
175
     1
176
     1
 42
1.0
176
     1
 92
        8
176
     1
 66
     7
176
     1
 43
1.0
176
     1
 76
     1
176
     1
 77
     6
176
     1
 78
     2
176
     1
 67
     7
176
     1
 79
     5
176
     1
170
     0
176
     1
171
     0
176
     1
290
     0
176
     1
 93
       13
176
     1
 44
0.0
176
     1
173
     0
176
     1
1001
ACAD
1000
AcDbSavedByObjectVersion
1070
     0
  0
VISUALSTYLE
  5
2B
102
{ACAD_XDICTIONARY
360
1AA
102
}
102
{ACAD_REACTORS
330
29
102
}
330
29
100
AcDbVisualStyle
  2
FlatWithEdges
 70
     1
177
     2
291
     1
 71
     2
176
     1
 72
     1
176
     1
 73
     1
176
     1
 90
        2
176
     1
 40
0.6
176
     1
 41
30.0
176
     1
 63
     7
421
 16777215
176
     1
 74
     1
176
     1
 91
        0
176
     1
 64
     7
176
     1
 65
   257
176
     1
 75
     1
176
     1
175
     1
176
     1
 42
1.0
176
     1
 92
        0
176
     1
 66
   257
176
     1
 43
1.0
176
     1
 76
     1
176
     1
 77
     6
176
     1
 78
     2
176
     1
 67
     7
176
     1
 79
     5
176
     1
170
     0
176
     1
171
     0
176
     1
290
     0
176
     1
 93
       13
176
     1
 44
0.0
176
     1
173
     0
176
     1
1001
ACAD
1000
AcDbSavedByObjectVersion
1070
     0
  0
VISUALSTYLE
  5
2C
102
{ACAD_XDICTIONARY
360
1AC
102
}
102
{ACAD_REACTORS
330
29
102
}
330
29
100
AcDbVisualStyle
  2
Gouraud
 70
     2
177
     2
291
     1
 71
     2
176
     1
 72
     2
176
     1
 73
     1
176
     1
 90
        2
176
     1
 40
0.6
176
     1
 41
30.0
176
     1
 63
     7
421
 16777215
176
     1
 74
     0
176
     1
 91
        0
176
     1
 64
     7
176
     1
 65
   257
176
     1
 75
     1
176
     1
175
     1
176
     1
 42
1.0
176
     1
 92
        0
176
     1
 66
     7
176
     1
 43
1.0
176
     1
 76
     1
176
     1
 77
     6
176
     1
 78
     2
176
     1
 67
     7
176
     1
 79
     5
176
     1
170
     0
176
     1
171
     0
176
     1
290
     0
176
     1
 93
       13
176
     1
 44
0.0
176
     1
173
     0
176
     1
1001
ACAD
1000
AcDbSavedByObjectVersion
1070
     0
  0
VISUALSTYLE
  5
2D
102
{ACAD_XDICTIONARY
360
1AE
102
}
102
{ACAD_REACTORS
330
29
102
}
330
29
100
AcDbVisualStyle
  2
GouraudWithEdges
 70
     3
177
     2
291
     1
 71
     2
176
     1
 72
     2
176
     1
 73
     1
176
     1
 90
        2
176
     1
 40
0.6
176
     1
 41
30.0
176
     1
 63
     7
421
 16777215
176
     1
 74
     1
176
     1
 91
        0
176
     1
 64
     7
176
     1
 65
   257
176
     1
 75
     1
176
     1
175
     1
176
     1
 42
1.0
176
     1
 92
        0
176
     1
 66
   257
176
     1
 43
1.0
176
     1
 76
     1
176
     1
 77
     6
176
     1
 78
     2
176
     1
 67
     7
176
     1
 79
     5
176
     1
170
     0
176
     1
171
     0
176
     1
290
     0
176
     1
 93
       13
176
     1
 44
0.0
176
     1
173
     0
176
     1
1001
ACAD
1000
AcDbSavedByObjectVersion
1070
     0
  0
VISUALSTYLE
  5
31
102
{ACAD_XDICTIONARY
360
1B6
102
}
102
{ACAD_REACTORS
330
29
102
}
330
29
100
AcDbVisualStyle
  2
Hidden
 70
     6
177
     2
291
     0
 71
     1
176
     1
 72
     2
176
     1
 73
     2
176
     1
 90
        0
176
     1
 40
0.6
176
     1
 41
30.0
176
     1
 63
     7
421
 16777215
176
     1
 74
     2
176
     1
 91
        2
176
     1
 64
     7
176
     1
 65
   257
176
     1
 75
     2
176
     1
175
     1
176
     1
 42
40.0
176
     1
 92
        0
176
     1
 66
   257
176
     1
 43
1.0
176
     1
 76
     1
176
     1
 77
     6
176
     1
 78
     2
176
     1
 67
     7
176
     1
 79
     3
176
     1
170
     0
176
     1
171
     0
176
     1
290
     0
176
     1
 93
        1
176
     1
 44
0.0
176
     1
173
     0
176
     1
1001
ACAD
1000
AcDbSavedByObjectVersion
1070
     0
  0
VISUALSTYLE
  5
3F
102
{ACAD_XDICTIONARY
360
1D2
102
}
102
{ACAD_REACTORS
330
29
102
}
330
29
100
AcDbVisualStyle
  2
JitterOff
 70
    20
177
     2
291
     1
 71
     2
176
     0
 72
     2
176
     0
 73
     0
176
     0
 90
        0
176
     0
 40
0.6
176
     0
 41
30.0
176
     0
 63
     7
421
 16777215
176
     0
 74
     1
176
     0
 91
        4
176
     0
 64
     7
176
     0
 65
   257
176
     0
 75
     1
176
     0
175
     1
176
     0
 42
1.0
176
     0
 92
       10
176
     2
 66
     7
176
     0
 43
1.0
176
     0
 76
     1
176
     0
 77
     6
176
     0
 78
     2
176
     0
 67
     7
176
     0
 79
     5
176
     0
170
     0
176
     0
171
     0
176
     0
290
     0
176
     0
 93
        1
176
     0
 44
0.0
176
     0
173
     0
176
     0
1001
ACAD
1000
AcDbSavedByObjectVersion
1070
     0
  0
VISUALSTYLE
  5
37
102
{ACAD_XDICTIONARY
360
1C2
102
}
102
{ACAD_REACTORS
330
29
102
}
330
29
100
AcDbVisualStyle
  2
Linepattern
 70
    14
177
     2
291
     1
 71
     2
176
     1
 72
     2
176
     1
 73
     0
176
     1
 90
        0
176
     1
 40
0.6
176
     1
 41
30.0
176
     1
 63
     7
421
 16777215
176
     1
 74
     1
176
     1
 91
        4
176
     1
 64
     7
176
     1
 65
   257
176
     1
 75
     7
176
     1
175
     7
176
     1
 42
1.0
176
     1
 92
        8
176
     1
 66
     7
176
     1
 43
1.0
176
     1
 76
     1
176
     1
 77
     6
176
     1
 78
     2
176
     1
 67
     7
176
     1
 79
     5
176
     1
170
     0
176
     1
171
     0
176
     1
290
     0
176
     1
 93
        1
176
     1
 44
0.0
176
     1
173
     0
176
     1
1001
ACAD
1000
AcDbSavedByObjectVersion
1070
     0
  0
VISUALSTYLE
  5
40
102
{ACAD_XDICTIONARY
360
1D4
102
}
102
{ACAD_REACTORS
330
29
102
}
330
29
100
AcDbVisualStyle
  2
OverhangOff
 70
    21
177
     2
291
     1
 71
     2
176
     0
 72
     2
176
     0
 73
     0
176
     0
 90
        0
176
     0
 40
0.6
176
     0
 41
30.0
176
     0
 63
     7
421
 16777215
176
     0
 74
     1
176
     0
 91
        4
176
     0
 64
     7
176
     0
 65
   257
176
     0
 75
     1
176
     0
175
     1
176
     0
 42
1.0
176
     0
 92
        9
176
     2
 66
     7
176
     0
 43
1.0
176
     0
 76
     1
176
     0
 77
     6
176
     0
 78
     2
176
     0
 67
     7
176
     0
 79
     5
176
     0
170
     0
176
     0
171
     0
176
     0
290
     0
176
     0
 93
        1
176
     0
 44
0.0
176
     0
173
     0
176
     0
1001
ACAD
1000
AcDbSavedByObjectVersion
1070
     0
  0
VISUALSTYLE
  5
33
102
{ACAD_XDICTIONARY
360
1BA
102
}
102
{ACAD_REACTORS
330
29
102
}
330
29
100
AcDbVisualStyle
  2
Realistic
 70
     8
177
     2
291
     0
 71
     2
176
     1
 72
     3
176
     1
 73
     0
176
     1
 90
        2
176
     1
 40
0.6
176
     1
 41
30.0
176
     1
 63
     7
421
 16777215
176
     1
 74
     0
176
     1
 91
        0
176
     1
 64
     7
176
     1
 65
   257
176
     1
 75
     1
176
     1
175
     1
176
     1
 42
1.0
176
     1
 92
        8
176
     1
 66
   257
176
     1
 43
1.0
176
     1
 76
     1
176
     1
 77
     6
176
     1
 78
     2
176
     1
 67
     7
176
     1
 79
     3
176
     1
170
     0
176
     1
171
     0
176
     1
290
     0
176
     1
 93
       13
176
     1
 44
0.0
176
     1
173
     0
176
     1
1001
ACAD
1000
AcDbSavedByObjectVersion
1070
     0
  0
VISUALSTYLE
  5
3E
102
{ACAD_XDICTIONARY
360
1D0
102
}
102
{ACAD_REACTORS
330
29
102
}
330
29
100
AcDbVisualStyle
  2
Shaded
 70
    27
177
     2
291
     0
 71
     2
176
     1
 72
     2
176
     1
 73
     1
176
     1
 90
        2
176
     1
 40
0.6
176
     1
 41
30.0
176
     1
 63
     7
421
 16777215
176
     1
 74
     0
176
     1
 91
        4
176
     1
 64
     7
176
     1
 65
   257
176
     1
 75
     1
176
     1
175
     1
176
     1
 42
1.0
176
     1
 92
        8
176
     1
 66
   257
176
     1
 43
1.0
176
     1
 76
     1
176
     1
 77
     6
176
     1
 78
     2
176
     1
 67
     8
425
  7895160
176
     1
 79
     3
176
     1
170
     0
176
     1
171
     0
176
     1
290
     0
176
     1
 93
        5
176
     1
 44
0.0
176
     1
173
     0
176
     1
1001
ACAD
1000
AcDbSavedByObjectVersion
1070
     0
  0
VISUALSTYLE
  5
3D
102
{ACAD_XDICTIONARY
360
1CE
102
}
102
{ACAD_REACTORS
330
29
102
}
330
29
100
AcDbVisualStyle
  2
Shaded with edges
 70
    26
177
     2
291
     0
 71
     2
176
     1
 72
     2
176
     1
 73
     1
176
     1
 90
        2
176
     1
 40
0.6
176
     1
 41
30.0
176
     1
 63
     7
421
 16777215
176
     1
 74
     1
176
     1
 91
        2
176
     1
 64
     7
176
     1
 65
   257
176
     1
 75
     2
176
     1
175
     1
176
     1
 42
1.0
176
     1
 92
        8
176
     1
 66
   257
176
     1
 43
1.0
176
     1
 76
     1
176
     1
 77
     6
176
     1
 78
     2
176
     1
 67
     7
176
     1
 79
     3
176
     1
170
     0
176
     1
171
     0
176
     1
290
     0
176
     1
 93
        5
176
     1
 44
0.0
176
     1
173
     0
176
     1
1001
ACAD
1000
AcDbSavedByObjectVersion
1070
     0
  0
VISUALSTYLE
  5
3A
102
{ACAD_XDICTIONARY
360
1C8
102
}
102
{ACAD_REACTORS
330
29
102
}
330
29
100
AcDbVisualStyle
  2
Shades of Gray
 70
    23
177
     2
291
     0
 71
     2
176
     1
 72
     2
176
     1
 73
     3
176
     1
 90
        0
176
     1
 40
0.6
176
     1
 41
30.0
176
     1
 63
     7
421
 16777215
176
     1
 74
     2
176
     1
 91
        2
176
     1
 64
     7
176
     1
 65
     7
176
     1
 75
     1
176
     1
175
     1
176
     1
 42
40.0
176
     1
 92
        8
176
     1
 66
     7
176
     1
 43
1.0
176
     1
 76
     1
176
     1
 77
     6
176
     1
 78
     2
176
     1
 67
     7
176
     1
 79
     3
176
     1
170
     0
176
     1
171
     0
176
     1
290
     0
176
     1
 93
        1
176
     1
 44
0.0
176
     1
173
     0
176
     1
1001
ACAD
1000
AcDbSavedByObjectVersion
1070
     0
  0
VISUALSTYLE
  5
3B
102
{ACAD_XDICTIONARY
360
1CA
102
}
102
{ACAD_REACTORS
330
29
102
}
330
29
100
AcDbVisualStyle
  2
Sketchy
 70
    24
177
     2
291
     0
 71
     1
176
     1
 72
     2
176
     1
 73
     2
176
     1
 90
        0
176
     1
 40
0.6
176
     1
 41
30.0
176
     1
 63
     7
421
 16777215
176
     1
 74
     2
176
     1
 91
        2
176
     1
 64
     7
176
     1
 65
     7
176
     1
 75
     1
176
     1
175
     1
176
     1
 42
40.0
176
     1
 92
       11
176
     1
 66
     7
176
     1
 43
1.0
176
     1
 76
     1
176
     1
 77
     6
176
     1
 78
     2
176
     1
 67
     7
176
     1
 79
     6
176
     1
170
     0
176
     1
171
     0
176
     1
290
     0
176
     1
 93
        1
176
     1
 44
0.0
176
     1
173
     0
176
     1
1001
ACAD
1000
AcDbSavedByObjectVersion
1070
     0
  0
VISUALSTYLE
  5
36
102
{ACAD_XDICTIONARY
360
1C0
102
}
102
{ACAD_REACTORS
330
29
102
}
330
29
100
AcDbVisualStyle
  2
Thicken
 70
    13
177
     2
291
     1
 71
     2
176
     1
 72
     2
176
     1
 73
     0
176
     1
 90
        0
176
     1
 40
0.6
176
     1
 41
30.0
176
     1
 63
     7
421
 16777215
176
     1
 74
     1
176
     1
 91
        4
176
     1
 64
     7
176
     1
 65
   257
176
     1
 75
     1
176
     1
175
     1
176
     1
 42
1.0
176
     1
 92
       12
176
     1
 66
     7
176
     1
 43
1.0
176
     1
 76
     1
176
     1
 77
     6
176
     1
 78
     2
176
     1
 67
     7
176
     1
 79
     5
176
     1
170
     0
176
     1
171
     0
176
     1
290
     0
176
     1
 93
        1
176
     1
 44
0.0
176
     1
173
     0
176
     1
1001
ACAD
1000
AcDbSavedByObjectVersion
1070
     0
  0
VISUALSTYLE
  5
30
102
{ACAD_XDICTIONARY
360
1B4
102
}
102
{ACAD_REACTORS
330
29
102
}
330
29
100
AcDbVisualStyle
  2
Wireframe
 70
     5
177
     2
291
     0
 71
     0
176
     1
 72
     2
176
     1
 73
     0
176
     1
 90
        0
176
     1
 40
0.6
176
     1
 41
30.0
176
     1
 63
     7
421
 16777215
176
     1
 74
     1
176
     1
 91
        4
176
     1
 64
     7
176
     1
 65
   257
176
     1
 75
     1
176
     1
175
     1
176
     1
 42
1.0
176
     1
 92
        0
176
     1
 66
   257
176
     1
 43
1.0
176
     1
 76
     1
176
     1
 77
     6
176
     1
 78
     2
176
     1
 67
     7
176
     1
 79
     3
176
     1
170
     0
176
     1
171
     0
176
     1
290
     0
176
     1
 93
        1
176
     1
 44
0.0
176
     1
173
     0
176
     1
1001
ACAD
1000
AcDbSavedByObjectVersion
1070
     0
  0
VISUALSTYLE
  5
3C
102
{ACAD_XDICTIONARY
360
1CC
102
}
102
{ACAD_REACTORS
330
29
102
}
330
29
100
AcDbVisualStyle
  2
X-Ray
 70
    25
177
     2
291
     0
 71
     2
176
     1
 72
     2
176
     1
 73
     1
176
     1
 90
        1
176
     1
 40
0.5
176
     1
 41
30.0
176
     1
 63
     7
421
 16777215
176
     1
 74
     1
176
     1
 91
        0
176
     1
 64
     7
176
     1
 65
   257
176
     1
 75
     1
176
     1
175
     1
176
     1
 42
1.0
176
     1
 92
        8
176
     1
 66
     7
176
     1
 43
1.0
176
     1
 76
     1
176
     1
 77
     6
176
     1
 78
     2
176
     1
 67
     7
176
     1
 79
     3
176
     1
170
     0
176
     1
171
     0
176
     1
290
     0
176
     1
 93
       13
176
     1
 44
0.0
176
     1
173
     0
176
     1
1001
ACAD
1000
AcDbSavedByObjectVersion
1070
     0
  0
DICTIONARYVAR
  5
1A4
102
{ACAD_REACTORS
330
19F
102
}
330
19F
100
DictionaryVariables
280
     0
  1
1:1
  0
DICTIONARYVAR
  5
1A1
102
{ACAD_REACTORS
330
19F
102
}
330
19F
100
DictionaryVariables
280
     0
  1
STANDARD
  0
DICTIONARYVAR
  5
1A0
102
{ACAD_REACTORS
330
19F
102
}
330
19F
100
DictionaryVariables
280
     0
  1
STANDARD
  0
DICTIONARYVAR
  5
1A2
102
{ACAD_REACTORS
330
19F
102
}
330
19F
100
DictionaryVariables
280
     0
  1
Imperial24
  0
DICTIONARYVAR
  5
1A3
102
{ACAD_REACTORS
330
19F
102
}
330
19F
100
DictionaryVariables
280
     0
  1
Imperial24
  0
DICTIONARY
  5
1DC
330
6B
100
AcDbDictionary
280
     1
281
     1
  3
ACAD_XREC_ROUNDTRIP
360
1DD
  0
DICTIONARY
  5
1A
330
19
100
AcDbDictionary
280
     1
281
     1
  3
BUMPTILE
360
1C
  3
DIFFUSETILE
360
1B
  3
OPACITYTILE
360
1F
  3
REFLECTIONTILE
360
1E
  3
REFRACTIONTILE
360
20
  3
SPECULARTILE
360
1D
  0
DICTIONARY
  5
12
330
11
100
AcDbDictionary
280
     1
281
     1
  3
BUMPTILE
360
14
  3
DIFFUSETILE
360
13
  3
OPACITYTILE
360
17
  3
REFLECTIONTILE
360
16
  3
REFRACTIONTILE
360
18
  3
SPECULARTILE
360
15
  0
DICTIONARY
  5
22
330
21
100
AcDbDictionary
280
     1
281
     1
  3
BUMPTILE
360
24
  3
DIFFUSETILE
360
23
  3
OPACITYTILE
360
27
  3
REFLECTIONTILE
360
26
  3
REFRACTIONTILE
360
28
  3
SPECULARTILE
360
25
  0
DICTIONARY
  5
1D8
330
67
100
AcDbDictionary
280
     1
281
     1
  3
ACAD_XREC_ROUNDTRIP
360
1D9
  0
DICTIONARY
  5
1DA
330
69
100
AcDbDictionary
280
     1
281
     1
  3
ACAD_XREC_ROUNDTRIP
360
1DB
  0
DICTIONARY
  5
1A5
330
65
100
AcDbDictionary
280
     1
281
     1
  3
ACAD_ROUNDTRIP_2008_TABLESTYLE_CELLSTYLEMAP
360
1A6
  0
DICTIONARY
  5
1B2
330
2F
100
AcDbDictionary
280
     1
281
     1
  3
ACAD_XREC_ROUNDTRIP
360
1B3
  0
DICTIONARY
  5
1B0
330
2E
100
AcDbDictionary
280
     1
281
     1
  3
ACAD_XREC_ROUNDTRIP
360
1B1
  0
DICTIONARY
  5
1BE
330
35
100
AcDbDictionary
280
     1
281
     1
  3
ACAD_XREC_ROUNDTRIP
360
1BF
  0
DICTIONARY
  5
1C6
330
39
100
AcDbDictionary
280
     1
281
     1
  3
ACAD_XREC_ROUNDTRIP
360
1C7
  0
DICTIONARY
  5
1B8
330
32
100
AcDbDictionary
280
     1
281
     1
  3
ACAD_XREC_ROUNDTRIP
360
1B9
  0
DICTIONARY
  5
1BC
330
34
100
AcDbDictionary
280
     1
281
     1
  3
ACAD_XREC_ROUNDTRIP
360
1BD
  0
DICTIONARY
  5
1D6
330
41
100
AcDbDictionary
280
     1
281
     1
  3
ACAD_XREC_ROUNDTRIP
360
1D7
  0
DICTIONARY
  5
1C4
330
38
100
AcDbDictionary
280
     1
281
     1
  3
ACAD_XREC_ROUNDTRIP
360
1C5
  0
DICTIONARY
  5
1A8
330
2A
100
AcDbDictionary
280
     1
281
     1
  3
ACAD_XREC_ROUNDTRIP
360
1A9
  0
DICTIONARY
  5
1AA
330
2B
100
AcDbDictionary
280
     1
281
     1
  3
ACAD_XREC_ROUNDTRIP
360
1AB
  0
DICTIONARY
  5
1AC
330
2C
100
AcDbDictionary
280
     1
281
     1
  3
ACAD_XREC_ROUNDTRIP
360
1AD
  0
DICTIONARY
  5
1AE
330
2D
100
AcDbDictionary
280
     1
281
     1
  3
ACAD_XREC_ROUNDTRIP
360
1AF
  0
DICTIONARY
  5
1B6
330
31
100
AcDbDictionary
280
     1
281
     1
  3
ACAD_XREC_ROUNDTRIP
360
1B7
  0
DICTIONARY
  5
1D2
330
3F
100
AcDbDictionary
280
     1
281
     1
  3
ACAD_XREC_ROUNDTRIP
360
1D3
  0
DICTIONARY
  5
1C2
330
37
100
AcDbDictionary
280
     1
281
     1
  3
ACAD_XREC_ROUNDTRIP
360
1C3
  0
DICTIONARY
  5
1D4
330
40
100
AcDbDictionary
280
     1
281
     1
  3
ACAD_XREC_ROUNDTRIP
360
1D5
  0
DICTIONARY
  5
1BA
330
33
100
AcDbDictionary
280
     1
281
     1
  3
ACAD_XREC_ROUNDTRIP
360
1BB
  0
DICTIONARY
  5
1D0
330
3E
100
AcDbDictionary
280
     1
281
     1
  3
ACAD_XREC_ROUNDTRIP
360
1D1
  0
DICTIONARY
  5
1CE
330
3D
100
AcDbDictionary
280
     1
281
     1
  3
ACAD_XREC_ROUNDTRIP
360
1CF
  0
DICTIONARY
  5
1C8
330
3A
100
AcDbDictionary
280
     1
281
     1
  3
ACAD_XREC_ROUNDTRIP
360
1C9
  0
DICTIONARY
  5
1CA
330
3B
100
AcDbDictionary
280
     1
281
     1
  3
ACAD_XREC_ROUNDTRIP
360
1CB
  0
DICTIONARY
  5
1C0
330
36
100
AcDbDictionary
280
     1
281
     1
  3
ACAD_XREC_ROUNDTRIP
360
1C1
  0
DICTIONARY
  5
1B4
330
30
100
AcDbDictionary
280
     1
281
     1
  3
ACAD_XREC_ROUNDTRIP
360
1B5
  0
DICTIONARY
  5
1CC
330
3C
100
AcDbDictionary
280
     1
281
     1
  3
ACAD_XREC_ROUNDTRIP
360
1CD
  0
XRECORD
  5
1DD
102
{ACAD_REACTORS
330
1DC
102
}
330
1DC
100
AcDbXrecord
280
     1
102
DISPLAYNAME
  1
Imperial24
102
FLAGS
 90
        0
  0
XRECORD
  5
1C
102
{ACAD_REACTORS
330
1A
102
}
330
1A
100
AcDbXrecord
280
     1
270
     1
271
     1
  0
XRECORD
  5
1B
102
{ACAD_REACTORS
330
1A
102
}
330
1A
100
AcDbXrecord
280
     1
270
     1
271
     1
  0
XRECORD
  5
1F
102
{ACAD_REACTORS
330
1A
102
}
330
1A
100
AcDbXrecord
280
     1
270
     1
271
     1
  0
XRECORD
  5
1E
102
{ACAD_REACTORS
330
1A
102
}
330
1A
100
AcDbXrecord
280
     1
270
     1
271
     1
  0
XRECORD
  5
20
102
{ACAD_REACTORS
330
1A
102
}
330
1A
100
AcDbXrecord
280
     1
270
     1
271
     1
  0
XRECORD
  5
1D
102
{ACAD_REACTORS
330
1A
102
}
330
1A
100
AcDbXrecord
280
     1
270
     1
271
     1
  0
XRECORD
  5
14
102
{ACAD_REACTORS
330
12
102
}
330
12
100
AcDbXrecord
280
     1
270
     1
271
     1
  0
XRECORD
  5
13
102
{ACAD_REACTORS
330
12
102
}
330
12
100
AcDbXrecord
280
     1
270
     1
271
     1
  0
XRECORD
  5
17
102
{ACAD_REACTORS
330
12
102
}
330
12
100
AcDbXrecord
280
     1
270
     1
271
     1
  0
XRECORD
  5
16
102
{ACAD_REACTORS
330
12
102
}
330
12
100
AcDbXrecord
280
     1
270
     1
271
     1
  0
XRECORD
  5
18
102
{ACAD_REACTORS
330
12
102
}
330
12
100
AcDbXrecord
280
     1
270
     1
271
     1
  0
XRECORD
  5
15
102
{ACAD_REACTORS
330
12
102
}
330
12
100
AcDbXrecord
280
     1
270
     1
271
     1
  0
XRECORD
  5
24
102
{ACAD_REACTORS
330
22
102
}
330
22
100
AcDbXrecord
280
     1
270
     1
271
     1
  0
XRECORD
  5
23
102
{ACAD_REACTORS
330
22
102
}
330
22
100
AcDbXrecord
280
     1
270
     1
271
     1
  0
XRECORD
  5
27
102
{ACAD_REACTORS
330
22
102
}
330
22
100
AcDbXrecord
280
     1
270
     1
271
     1
  0
XRECORD
  5
26
102
{ACAD_REACTORS
330
22
102
}
330
22
100
AcDbXrecord
280
     1
270
     1
271
     1
  0
XRECORD
  5
28
102
{ACAD_REACTORS
330
22
102
}
330
22
100
AcDbXrecord
280
     1
270
     1
271
     1
  0
XRECORD
  5
25
102
{ACAD_REACTORS
330
22
102
}
330
22
100
AcDbXrecord
280
     1
270
     1
271
     1
  0
XRECORD
  5
1D9
102
{ACAD_REACTORS
330
1D8
102
}
330
1D8
100
AcDbXrecord
280
     1
102
ACAD_ROUNDTRIP_2012_MLEADER_STYLE
298
     1
  0
XRECORD
  5
1DB
102
{ACAD_REACTORS
330
1DA
102
}
330
1DA
100
AcDbXrecord
280
     1
102
DISPLAYNAME
  1
Imperial24
102
FLAGS
 90
        0
  0
CELLSTYLEMAP
  5
1A6
102
{ACAD_REACTORS
330
1A5
102
}
330
1A5
100
AcDbCellStyleMap
 90
        3
300
CELLSTYLE
  1
TABLEFORMAT_BEGIN
 90
        5
170
     1
 91
        0
 92
    32768
 62
   257
 93
        1
300
CONTENTFORMAT
  1
CONTENTFORMAT_BEGIN
 90
        0
 91
        0
 92
      512
 93
        0
300

 40
0.0
140
1.0
 94
        5
 62
     0
340
55
144
0.25
309
CONTENTFORMAT_END
171
     0
 94
        0
309
TABLEFORMAT_END
  1
CELLSTYLE_BEGIN
 90
        1
 91
        1
300
_TITLE
309
CELLSTYLE_END
300
CELLSTYLE
  1
TABLEFORMAT_BEGIN
 90
        5
170
     1
 91
        0
 92
        0
 62
   257
 93
        1
300
CONTENTFORMAT
  1
CONTENTFORMAT_BEGIN
 90
        0
 91
        0
 92
      512
 93
        0
300

 40
0.0
140
1.0
 94
        5
 62
     0
340
55
144
0.18
309
CONTENTFORMAT_END
171
     0
 94
        0
309
TABLEFORMAT_END
  1
CELLSTYLE_BEGIN
 90
        2
 91
        1
300
_HEADER
309
CELLSTYLE_END
300
CELLSTYLE
  1
TABLEFORMAT_BEGIN
 90
        5
170
     1
 91
        0
 92
        0
 62
   257
 93
        1
300
CONTENTFORMAT
  1
CONTENTFORMAT_BEGIN
 90
        0
 91
        0
 92
      512
 93
        0
300

 40
0.0
140
1.0
 94
        2
 62
     0
340
55
144
0.18
309
CONTENTFORMAT_END
171
     0
 94
        0
309
TABLEFORMAT_END
  1
CELLSTYLE_BEGIN
 90
        3
 91
        2
300
_DATA
309
CELLSTYLE_END
  0
XRECORD
  5
1B3
102
{ACAD_REACTORS
330
1B2
102
}
330
1B2
100
AcDbXrecord
280
     1
102
RTVSPost2010Prop28
280
     1
102
RTVSPost2010PropOp28
 70
     1
102
RTVSPost2010Prop29
280
     1
102
RTVSPost2010PropOp29
 70
     1
102
RTVSPost2010Prop30
280
     0
102
RTVSPost2010PropOp30
 70
     1
102
RTVSPost2010Prop31
280
     0
102
RTVSPost2010PropOp31
 70
     1
102
RTVSPost2010Prop32
280
     0
102
RTVSPost2010PropOp32
 70
     1
102
RTVSPost2010Prop33
280
     0
102
RTVSPost2010PropOp33
 70
     1
102
RTVSPost2010Prop34
280
     0
102
RTVSPost2010PropOp34
 70
     1
102
RTVSPost2010Prop35
280
     0
102
RTVSPost2010PropOp35
 70
     1
102
RTVSPost2010Prop36
280
     0
102
RTVSPost2010PropOp36
 70
     1
102
RTVSPost2010Prop37
 90
       50
102
RTVSPost2010PropOp37
 70
     1
102
RTVSPost2010Prop38
140
0.0
102
RTVSPost2010PropOp38
 70
     1
102
RTVSPost2010Prop39
140
1.0
102
RTVSPost2010PropOp39
 70
     1
102
RTVSPost2010Prop40
 90
        0
102
RTVSPost2010PropOp40
 70
     1
102
RTVSPost2010Prop41ColorIndex
 90
       18
102
RTVSPost2010Prop41ColorRGB
 90
        0
102
RTVSPost2010PropOp41
 70
     1
102
RTVSPost2010Prop42
 90
       50
102
RTVSPost2010PropOp42
 70
     1
102
RTVSPost2010Prop43
 90
        3
102
RTVSPost2010PropOp43
 70
     1
102
RTVSPost2010Prop44ColorIndex
 90
        5
102
RTVSPost2010Prop44ColorRGB
 90
      255
102
RTVSPost2010PropOp44
 70
     1
102
RTVSPost2010Prop45
280
     0
102
RTVSPost2010PropOp45
 70
     1
102
RTVSPost2010Prop46
 90
       50
102
RTVSPost2010PropOp46
 70
     1
102
RTVSPost2010Prop47
 90
       50
102
RTVSPost2010PropOp47
 70
     1
102
RTVSPost2010Prop48
 90
       50
102
RTVSPost2010PropOp48
 70
     1
102
RTVSPost2010Prop49
280
     0
102
RTVSPost2010PropOp49
 70
     1
102
RTVSPost2010Prop50
 90
       50
102
RTVSPost2010PropOp50
 70
     1
102
RTVSPost2010Prop51ColorIndex
 90
      256
102
RTVSPost2010Prop51ColorRGB
 90
-16777216
102
RTVSPost2010PropOp51
 70
     0
102
RTVSPost2010Prop52
140
1.0
102
RTVSPost2010PropOp52
 70
     0
102
RTVSPost2010Prop53
 90
        2
102
RTVSPost2010PropOp53
 70
     1
102
RTVSPost2010Prop54
  1
strokes_ogs.tif
102
RTVSPost2010PropOp54
 70
     1
102
RTVSPost2010Prop55
280
     0
102
RTVSPost2010PropOp55
 70
     1
102
RTVSPost2010Prop56
140
1.0
102
RTVSPost2010PropOp56
 70
     1
102
RTVSPost2010Prop57
140
1.0
102
RTVSPost2010PropOp57
 70
     1
  0
XRECORD
  5
1B1
102
{ACAD_REACTORS
330
1B0
102
}
330
1B0
100
AcDbXrecord
280
     1
102
RTVSPost2010Prop28
280
     0
102
RTVSPost2010PropOp28
 70
     1
102
RTVSPost2010Prop29
280
     1
102
RTVSPost2010PropOp29
 70
     1
102
RTVSPost2010Prop30
280
     1
102
RTVSPost2010PropOp30
 70
     1
102
RTVSPost2010Prop31
280
     0
102
RTVSPost2010PropOp31
 70
     1
102
RTVSPost2010Prop32
280
     0
102
RTVSPost2010PropOp32
 70
     1
102
RTVSPost2010Prop33
280
     0
102
RTVSPost2010PropOp33
 70
     1
102
RTVSPost2010Prop34
280
     0
102
RTVSPost2010PropOp34
 70
     1
102
RTVSPost2010Prop35
280
     0
102
RTVSPost2010PropOp35
 70
     1
102
RTVSPost2010Prop36
280
     0
102
RTVSPost2010PropOp36
 70
     1
102
RTVSPost2010Prop37
 90
       50
102
RTVSPost2010PropOp37
 70
     1
102
RTVSPost2010Prop38
140
0.0
102
RTVSPost2010PropOp38
 70
     1
102
RTVSPost2010Prop39
140
1.0
102
RTVSPost2010PropOp39
 70
     1
102
RTVSPost2010Prop40
 90
        0
102
RTVSPost2010PropOp40
 70
     1
102
RTVSPost2010Prop41ColorIndex
 90
       18
102
RTVSPost2010Prop41ColorRGB
 90
        0
102
RTVSPost2010PropOp41
 70
     1
102
RTVSPost2010Prop42
 90
       50
102
RTVSPost2010PropOp42
 70
     1
102
RTVSPost2010Prop43
 90
        3
102
RTVSPost2010PropOp43
 70
     1
102
RTVSPost2010Prop44ColorIndex
 90
        5
102
RTVSPost2010Prop44ColorRGB
 90
      255
102
RTVSPost2010PropOp44
 70
     1
102
RTVSPost2010Prop45
280
     0
102
RTVSPost2010PropOp45
 70
     1
102
RTVSPost2010Prop46
 90
       50
102
RTVSPost2010PropOp46
 70
     1
102
RTVSPost2010Prop47
 90
       50
102
RTVSPost2010PropOp47
 70
     1
102
RTVSPost2010Prop48
 90
       50
102
RTVSPost2010PropOp48
 70
     1
102
RTVSPost2010Prop49
280
     0
102
RTVSPost2010PropOp49
 70
     1
102
RTVSPost2010Prop50
 90
       50
102
RTVSPost2010PropOp50
 70
     1
102
RTVSPost2010Prop51ColorIndex
 90
      256
102
RTVSPost2010Prop51ColorRGB
 90
-16777216
102
RTVSPost2010PropOp51
 70
     0
102
RTVSPost2010Prop52
140
1.0
102
RTVSPost2010PropOp52
 70
     0
102
RTVSPost2010Prop53
 90
        2
102
RTVSPost2010PropOp53
 70
     1
102
RTVSPost2010Prop54
  1
strokes_ogs.tif
102
RTVSPost2010PropOp54
 70
     1
102
RTVSPost2010Prop55
280
     0
102
RTVSPost2010PropOp55
 70
     1
102
RTVSPost2010Prop56
140
1.0
102
RTVSPost2010PropOp56
 70
     1
102
RTVSPost2010Prop57
140
1.0
102
RTVSPost2010PropOp57
 70
     1
  0
XRECORD
  5
1BF
102
{ACAD_REACTORS
330
1BE
102
}
330
1BE
100
AcDbXrecord
280
     1
102
RTVSPost2010Prop28
280
     0
102
RTVSPost2010PropOp28
 70
     1
102
RTVSPost2010Prop29
280
     1
102
RTVSPost2010PropOp29
 70
     1
102
RTVSPost2010Prop30
280
     1
102
RTVSPost2010PropOp30
 70
     1
102
RTVSPost2010Prop31
280
     0
102
RTVSPost2010PropOp31
 70
     1
102
RTVSPost2010Prop32
280
     0
102
RTVSPost2010PropOp32
 70
     1
102
RTVSPost2010Prop33
280
     0
102
RTVSPost2010PropOp33
 70
     1
102
RTVSPost2010Prop34
280
     0
102
RTVSPost2010PropOp34
 70
     1
102
RTVSPost2010Prop35
280
     0
102
RTVSPost2010PropOp35
 70
     1
102
RTVSPost2010Prop36
280
     0
102
RTVSPost2010PropOp36
 70
     1
102
RTVSPost2010Prop37
 90
       50
102
RTVSPost2010PropOp37
 70
     1
102
RTVSPost2010Prop38
140
0.0
102
RTVSPost2010PropOp38
 70
     1
102
RTVSPost2010Prop39
140
1.0
102
RTVSPost2010PropOp39
 70
     1
102
RTVSPost2010Prop40
 90
        0
102
RTVSPost2010PropOp40
 70
     1
102
RTVSPost2010Prop41ColorIndex
 90
       18
102
RTVSPost2010Prop41ColorRGB
 90
        0
102
RTVSPost2010PropOp41
 70
     1
102
RTVSPost2010Prop42
 90
       50
102
RTVSPost2010PropOp42
 70
     1
102
RTVSPost2010Prop43
 90
        3
102
RTVSPost2010PropOp43
 70
     1
102
RTVSPost2010Prop44ColorIndex
 90
        5
102
RTVSPost2010Prop44ColorRGB
 90
      255
102
RTVSPost2010PropOp44
 70
     1
102
RTVSPost2010Prop45
280
     0
102
RTVSPost2010PropOp45
 70
     1
102
RTVSPost2010Prop46
 90
       50
102
RTVSPost2010PropOp46
 70
     1
102
RTVSPost2010Prop47
 90
       50
102
RTVSPost2010PropOp47
 70
     1
102
RTVSPost2010Prop48
 90
       50
102
RTVSPost2010PropOp48
 70
     1
102
RTVSPost2010Prop49
280
     0
102
RTVSPost2010PropOp49
 70
     1
102
RTVSPost2010Prop50
 90
       50
102
RTVSPost2010PropOp50
 70
     1
102
RTVSPost2010Prop51ColorIndex
 90
      256
102
RTVSPost2010Prop51ColorRGB
 90
-16777216
102
RTVSPost2010PropOp51
 70
     0
102
RTVSPost2010Prop52
140
1.0
102
RTVSPost2010PropOp52
 70
     0
102
RTVSPost2010Prop53
 90
        2
102
RTVSPost2010PropOp53
 70
     1
102
RTVSPost2010Prop54
  1
strokes_ogs.tif
102
RTVSPost2010PropOp54
 70
     1
102
RTVSPost2010Prop55
280
     0
102
RTVSPost2010PropOp55
 70
     1
102
RTVSPost2010Prop56
140
1.0
102
RTVSPost2010PropOp56
 70
     1
102
RTVSPost2010Prop57
140
1.0
102
RTVSPost2010PropOp57
 70
     1
  0
XRECORD
  5
1C7
102
{ACAD_REACTORS
330
1C6
102
}
330
1C6
100
AcDbXrecord
280
     1
102
RTVSPost2010Prop28
280
     0
102
RTVSPost2010PropOp28
 70
     1
102
RTVSPost2010Prop29
280
     1
102
RTVSPost2010PropOp29
 70
     1
102
RTVSPost2010Prop30
280
     1
102
RTVSPost2010PropOp30
 70
     1
102
RTVSPost2010Prop31
280
     0
102
RTVSPost2010PropOp31
 70
     1
102
RTVSPost2010Prop32
280
     0
102
RTVSPost2010PropOp32
 70
     1
102
RTVSPost2010Prop33
280
     0
102
RTVSPost2010PropOp33
 70
     1
102
RTVSPost2010Prop34
280
     0
102
RTVSPost2010PropOp34
 70
     1
102
RTVSPost2010Prop35
280
     0
102
RTVSPost2010PropOp35
 70
     1
102
RTVSPost2010Prop36
280
     0
102
RTVSPost2010PropOp36
 70
     1
102
RTVSPost2010Prop37
 90
       50
102
RTVSPost2010PropOp37
 70
     1
102
RTVSPost2010Prop38
140
0.0
102
RTVSPost2010PropOp38
 70
     1
102
RTVSPost2010Prop39
140
1.0
102
RTVSPost2010PropOp39
 70
     1
102
RTVSPost2010Prop40
 90
        0
102
RTVSPost2010PropOp40
 70
     1
102
RTVSPost2010Prop41ColorIndex
 90
       18
102
RTVSPost2010Prop41ColorRGB
 90
        0
102
RTVSPost2010PropOp41
 70
     1
102
RTVSPost2010Prop42
 90
       50
102
RTVSPost2010PropOp42
 70
     1
102
RTVSPost2010Prop43
 90
        3
102
RTVSPost2010PropOp43
 70
     1
102
RTVSPost2010Prop44ColorIndex
 90
        5
102
RTVSPost2010Prop44ColorRGB
 90
      255
102
RTVSPost2010PropOp44
 70
     1
102
RTVSPost2010Prop45
280
     0
102
RTVSPost2010PropOp45
 70
     1
102
RTVSPost2010Prop46
 90
       50
102
RTVSPost2010PropOp46
 70
     1
102
RTVSPost2010Prop47
 90
       50
102
RTVSPost2010PropOp47
 70
     1
102
RTVSPost2010Prop48
 90
       50
102
RTVSPost2010PropOp48
 70
     1
102
RTVSPost2010Prop49
280
     0
102
RTVSPost2010PropOp49
 70
     1
102
RTVSPost2010Prop50
 90
       50
102
RTVSPost2010PropOp50
 70
     1
102
RTVSPost2010Prop51ColorIndex
 90
      256
102
RTVSPost2010Prop51ColorRGB
 90
-16777216
102
RTVSPost2010PropOp51
 70
     0
102
RTVSPost2010Prop52
140
1.0
102
RTVSPost2010PropOp52
 70
     0
102
RTVSPost2010Prop53
 90
        2
102
RTVSPost2010PropOp53
 70
     1
102
RTVSPost2010Prop54
  1
strokes_ogs.tif
102
RTVSPost2010PropOp54
 70
     1
102
RTVSPost2010Prop55
280
     0
102
RTVSPost2010PropOp55
 70
     1
102
RTVSPost2010Prop56
140
1.0
102
RTVSPost2010PropOp56
 70
     1
102
RTVSPost2010Prop57
140
1.0
102
RTVSPost2010PropOp57
 70
     1
  0
XRECORD
  5
1B9
102
{ACAD_REACTORS
330
1B8
102
}
330
1B8
100
AcDbXrecord
280
     1
102
RTVSPost2010Prop28
280
     0
102
RTVSPost2010PropOp28
 70
     1
102
RTVSPost2010Prop29
280
     1
102
RTVSPost2010PropOp29
 70
     1
102
RTVSPost2010Prop30
280
     1
102
RTVSPost2010PropOp30
 70
     1
102
RTVSPost2010Prop31
280
     0
102
RTVSPost2010PropOp31
 70
     1
102
RTVSPost2010Prop32
280
     0
102
RTVSPost2010PropOp32
 70
     1
102
RTVSPost2010Prop33
280
     0
102
RTVSPost2010PropOp33
 70
     1
102
RTVSPost2010Prop34
280
     0
102
RTVSPost2010PropOp34
 70
     1
102
RTVSPost2010Prop35
280
     0
102
RTVSPost2010PropOp35
 70
     1
102
RTVSPost2010Prop36
280
     0
102
RTVSPost2010PropOp36
 70
     1
102
RTVSPost2010Prop37
 90
       50
102
RTVSPost2010PropOp37
 70
     1
102
RTVSPost2010Prop38
140
0.0
102
RTVSPost2010PropOp38
 70
     1
102
RTVSPost2010Prop39
140
1.0
102
RTVSPost2010PropOp39
 70
     1
102
RTVSPost2010Prop40
 90
        0
102
RTVSPost2010PropOp40
 70
     1
102
RTVSPost2010Prop41ColorIndex
 90
       18
102
RTVSPost2010Prop41ColorRGB
 90
        0
102
RTVSPost2010PropOp41
 70
     1
102
RTVSPost2010Prop42
 90
       50
102
RTVSPost2010PropOp42
 70
     1
102
RTVSPost2010Prop43
 90
        3
102
RTVSPost2010PropOp43
 70
     1
102
RTVSPost2010Prop44ColorIndex
 90
        5
102
RTVSPost2010Prop44ColorRGB
 90
      255
102
RTVSPost2010PropOp44
 70
     1
102
RTVSPost2010Prop45
280
     0
102
RTVSPost2010PropOp45
 70
     1
102
RTVSPost2010Prop46
 90
       50
102
RTVSPost2010PropOp46
 70
     1
102
RTVSPost2010Prop47
 90
       50
102
RTVSPost2010PropOp47
 70
     1
102
RTVSPost2010Prop48
 90
       50
102
RTVSPost2010PropOp48
 70
     1
102
RTVSPost2010Prop49
280
     0
102
RTVSPost2010PropOp49
 70
     1
102
RTVSPost2010Prop50
 90
       50
102
RTVSPost2010PropOp50
 70
     1
102
RTVSPost2010Prop51ColorIndex
 90
      256
102
RTVSPost2010Prop51ColorRGB
 90
-16777216
102
RTVSPost2010PropOp51
 70
     0
102
RTVSPost2010Prop52
140
1.0
102
RTVSPost2010PropOp52
 70
     0
102
RTVSPost2010Prop53
 90
        2
102
RTVSPost2010PropOp53
 70
     1
102
RTVSPost2010Prop54
  1
strokes_ogs.tif
102
RTVSPost2010PropOp54
 70
     1
102
RTVSPost2010Prop55
280
     0
102
RTVSPost2010PropOp55
 70
     1
102
RTVSPost2010Prop56
140
1.0
102
RTVSPost2010PropOp56
 70
     1
102
RTVSPost2010Prop57
140
1.0
102
RTVSPost2010PropOp57
 70
     1
  0
XRECORD
  5
1BD
102
{ACAD_REACTORS
330
1BC
102
}
330
1BC
100
AcDbXrecord
280
     1
102
RTVSPost2010Prop28
280
     0
102
RTVSPost2010PropOp28
 70
     1
102
RTVSPost2010Prop29
280
     1
102
RTVSPost2010PropOp29
 70
     1
102
RTVSPost2010Prop30
280
     1
102
RTVSPost2010PropOp30
 70
     1
102
RTVSPost2010Prop31
280
     0
102
RTVSPost2010PropOp31
 70
     1
102
RTVSPost2010Prop32
280
     0
102
RTVSPost2010PropOp32
 70
     1
102
RTVSPost2010Prop33
280
     0
102
RTVSPost2010PropOp33
 70
     1
102
RTVSPost2010Prop34
280
     0
102
RTVSPost2010PropOp34
 70
     1
102
RTVSPost2010Prop35
280
     0
102
RTVSPost2010PropOp35
 70
     1
102
RTVSPost2010Prop36
280
     0
102
RTVSPost2010PropOp36
 70
     1
102
RTVSPost2010Prop37
 90
       50
102
RTVSPost2010PropOp37
 70
     1
102
RTVSPost2010Prop38
140
0.0
102
RTVSPost2010PropOp38
 70
     1
102
RTVSPost2010Prop39
140
1.0
102
RTVSPost2010PropOp39
 70
     1
102
RTVSPost2010Prop40
 90
        0
102
RTVSPost2010PropOp40
 70
     1
102
RTVSPost2010Prop41ColorIndex
 90
       18
102
RTVSPost2010Prop41ColorRGB
 90
        0
102
RTVSPost2010PropOp41
 70
     1
102
RTVSPost2010Prop42
 90
       50
102
RTVSPost2010PropOp42
 70
     1
102
RTVSPost2010Prop43
 90
        3
102
RTVSPost2010PropOp43
 70
     1
102
RTVSPost2010Prop44ColorIndex
 90
        5
102
RTVSPost2010Prop44ColorRGB
 90
      255
102
RTVSPost2010PropOp44
 70
     1
102
RTVSPost2010Prop45
280
     0
102
RTVSPost2010PropOp45
 70
     1
102
RTVSPost2010Prop46
 90
       50
102
RTVSPost2010PropOp46
 70
     1
102
RTVSPost2010Prop47
 90
       50
102
RTVSPost2010PropOp47
 70
     1
102
RTVSPost2010Prop48
 90
       50
102
RTVSPost2010PropOp48
 70
     1
102
RTVSPost2010Prop49
280
     0
102
RTVSPost2010PropOp49
 70
     1
102
RTVSPost2010Prop50
 90
       50
102
RTVSPost2010PropOp50
 70
     1
102
RTVSPost2010Prop51ColorIndex
 90
      256
102
RTVSPost2010Prop51ColorRGB
 90
-16777216
102
RTVSPost2010PropOp51
 70
     0
102
RTVSPost2010Prop52
140
1.0
102
RTVSPost2010PropOp52
 70
     0
102
RTVSPost2010Prop53
 90
        2
102
RTVSPost2010PropOp53
 70
     1
102
RTVSPost2010Prop54
  1
strokes_ogs.tif
102
RTVSPost2010PropOp54
 70
     1
102
RTVSPost2010Prop55
280
     0
102
RTVSPost2010PropOp55
 70
     1
102
RTVSPost2010Prop56
140
1.0
102
RTVSPost2010PropOp56
 70
     1
102
RTVSPost2010Prop57
140
1.0
102
RTVSPost2010PropOp57
 70
     1
  0
XRECORD
  5
1D7
102
{ACAD_REACTORS
330
1D6
102
}
330
1D6
100
AcDbXrecord
280
     1
102
RTVSPost2010Prop28
280
     0
102
RTVSPost2010PropOp28
 70
     0
102
RTVSPost2010Prop29
280
     1
102
RTVSPost2010PropOp29
 70
     0
102
RTVSPost2010Prop30
280
     1
102
RTVSPost2010PropOp30
 70
     0
102
RTVSPost2010Prop31
280
     0
102
RTVSPost2010PropOp31
 70
     0
102
RTVSPost2010Prop32
280
     0
102
RTVSPost2010PropOp32
 70
     0
102
RTVSPost2010Prop33
280
     0
102
RTVSPost2010PropOp33
 70
     0
102
RTVSPost2010Prop34
280
     0
102
RTVSPost2010PropOp34
 70
     0
102
RTVSPost2010Prop35
280
     0
102
RTVSPost2010PropOp35
 70
     0
102
RTVSPost2010Prop36
280
     0
102
RTVSPost2010PropOp36
 70
     0
102
RTVSPost2010Prop37
 90
       50
102
RTVSPost2010PropOp37
 70
     0
102
RTVSPost2010Prop38
140
0.0
102
RTVSPost2010PropOp38
 70
     0
102
RTVSPost2010Prop39
140
1.0
102
RTVSPost2010PropOp39
 70
     0
102
RTVSPost2010Prop40
 90
        0
102
RTVSPost2010PropOp40
 70
     0
102
RTVSPost2010Prop41ColorIndex
 90
       18
102
RTVSPost2010Prop41ColorRGB
 90
        0
102
RTVSPost2010PropOp41
 70
     0
102
RTVSPost2010Prop42
 90
       50
102
RTVSPost2010PropOp42
 70
     0
102
RTVSPost2010Prop43
 90
        3
102
RTVSPost2010PropOp43
 70
     0
102
RTVSPost2010Prop44ColorIndex
 90
        5
102
RTVSPost2010Prop44ColorRGB
 90
      255
102
RTVSPost2010PropOp44
 70
     0
102
RTVSPost2010Prop45
280
     0
102
RTVSPost2010PropOp45
 70
     0
102
RTVSPost2010Prop46
 90
       50
102
RTVSPost2010PropOp46
 70
     0
102
RTVSPost2010Prop47
 90
       50
102
RTVSPost2010PropOp47
 70
     0
102
RTVSPost2010Prop48
 90
       50
102
RTVSPost2010PropOp48
 70
     0
102
RTVSPost2010Prop49
280
     0
102
RTVSPost2010PropOp49
 70
     0
102
RTVSPost2010Prop50
 90
       50
102
RTVSPost2010PropOp50
 70
     0
102
RTVSPost2010Prop51ColorIndex
 90
      256
102
RTVSPost2010Prop51ColorRGB
 90
-16777216
102
RTVSPost2010PropOp51
 70
     0
102
RTVSPost2010Prop52
140
1.0
102
RTVSPost2010PropOp52
 70
     0
102
RTVSPost2010Prop53
 90
        2
102
RTVSPost2010PropOp53
 70
     0
102
RTVSPost2010Prop54
  1
strokes_ogs.tif
102
RTVSPost2010PropOp54
 70
     0
102
RTVSPost2010Prop55
280
     0
102
RTVSPost2010PropOp55
 70
     0
102
RTVSPost2010Prop56
140
1.0
102
RTVSPost2010PropOp56
 70
     0
102
RTVSPost2010Prop57
140
1.0
102
RTVSPost2010PropOp57
 70
     0
  0
XRECORD
  5
1C5
102
{ACAD_REACTORS
330
1C4
102
}
330
1C4
100
AcDbXrecord
280
     1
102
RTVSPost2010Prop28
280
     0
102
RTVSPost2010PropOp28
 70
     1
102
RTVSPost2010Prop29
280
     1
102
RTVSPost2010PropOp29
 70
     1
102
RTVSPost2010Prop30
280
     1
102
RTVSPost2010PropOp30
 70
     1
102
RTVSPost2010Prop31
280
     0
102
RTVSPost2010PropOp31
 70
     1
102
RTVSPost2010Prop32
280
     0
102
RTVSPost2010PropOp32
 70
     1
102
RTVSPost2010Prop33
280
     0
102
RTVSPost2010PropOp33
 70
     1
102
RTVSPost2010Prop34
280
     0
102
RTVSPost2010PropOp34
 70
     1
102
RTVSPost2010Prop35
280
     0
102
RTVSPost2010PropOp35
 70
     1
102
RTVSPost2010Prop36
280
     0
102
RTVSPost2010PropOp36
 70
     1
102
RTVSPost2010Prop37
 90
       50
102
RTVSPost2010PropOp37
 70
     1
102
RTVSPost2010Prop38
140
0.0
102
RTVSPost2010PropOp38
 70
     1
102
RTVSPost2010Prop39
140
1.0
102
RTVSPost2010PropOp39
 70
     1
102
RTVSPost2010Prop40
 90
        0
102
RTVSPost2010PropOp40
 70
     1
102
RTVSPost2010Prop41ColorIndex
 90
       18
102
RTVSPost2010Prop41ColorRGB
 90
        0
102
RTVSPost2010PropOp41
 70
     1
102
RTVSPost2010Prop42
 90
       50
102
RTVSPost2010PropOp42
 70
     1
102
RTVSPost2010Prop43
 90
        3
102
RTVSPost2010PropOp43
 70
     1
102
RTVSPost2010Prop44ColorIndex
 90
        5
102
RTVSPost2010Prop44ColorRGB
 90
      255
102
RTVSPost2010PropOp44
 70
     1
102
RTVSPost2010Prop45
280
     0
102
RTVSPost2010PropOp45
 70
     1
102
RTVSPost2010Prop46
 90
       50
102
RTVSPost2010PropOp46
 70
     1
102
RTVSPost2010Prop47
 90
       50
102
RTVSPost2010PropOp47
 70
     1
102
RTVSPost2010Prop48
 90
       50
102
RTVSPost2010PropOp48
 70
     1
102
RTVSPost2010Prop49
280
     0
102
RTVSPost2010PropOp49
 70
     1
102
RTVSPost2010Prop50
 90
       50
102
RTVSPost2010PropOp50
 70
     1
102
RTVSPost2010Prop51ColorIndex
 90
      256
102
RTVSPost2010Prop51ColorRGB
 90
-16777216
102
RTVSPost2010PropOp51
 70
     0
102
RTVSPost2010Prop52
140
1.0
102
RTVSPost2010PropOp52
 70
     0
102
RTVSPost2010Prop53
 90
        2
102
RTVSPost2010PropOp53
 70
     1
102
RTVSPost2010Prop54
  1
strokes_ogs.tif
102
RTVSPost2010PropOp54
 70
     1
102
RTVSPost2010Prop55
280
     0
102
RTVSPost2010PropOp55
 70
     1
102
RTVSPost2010Prop56
140
1.0
102
RTVSPost2010PropOp56
 70
     1
102
RTVSPost2010Prop57
140
1.0
102
RTVSPost2010PropOp57
 70
     1
  0
XRECORD
  5
1A9
102
{ACAD_REACTORS
330
1A8
102
}
330
1A8
100
AcDbXrecord
280
     1
102
RTVSPost2010Prop28
280
     0
102
RTVSPost2010PropOp28
 70
     1
102
RTVSPost2010Prop29
280
     1
102
RTVSPost2010PropOp29
 70
     1
102
RTVSPost2010Prop30
280
     1
102
RTVSPost2010PropOp30
 70
     1
102
RTVSPost2010Prop31
280
     0
102
RTVSPost2010PropOp31
 70
     1
102
RTVSPost2010Prop32
280
     0
102
RTVSPost2010PropOp32
 70
     1
102
RTVSPost2010Prop33
280
     0
102
RTVSPost2010PropOp33
 70
     1
102
RTVSPost2010Prop34
280
     0
102
RTVSPost2010PropOp34
 70
     1
102
RTVSPost2010Prop35
280
     0
102
RTVSPost2010PropOp35
 70
     1
102
RTVSPost2010Prop36
280
     0
102
RTVSPost2010PropOp36
 70
     1
102
RTVSPost2010Prop37
 90
       50
102
RTVSPost2010PropOp37
 70
     1
102
RTVSPost2010Prop38
140
0.0
102
RTVSPost2010PropOp38
 70
     1
102
RTVSPost2010Prop39
140
1.0
102
RTVSPost2010PropOp39
 70
     1
102
RTVSPost2010Prop40
 90
        0
102
RTVSPost2010PropOp40
 70
     1
102
RTVSPost2010Prop41ColorIndex
 90
       18
102
RTVSPost2010Prop41ColorRGB
 90
        0
102
RTVSPost2010PropOp41
 70
     1
102
RTVSPost2010Prop42
 90
       50
102
RTVSPost2010PropOp42
 70
     1
102
RTVSPost2010Prop43
 90
        3
102
RTVSPost2010PropOp43
 70
     1
102
RTVSPost2010Prop44ColorIndex
 90
        5
102
RTVSPost2010Prop44ColorRGB
 90
      255
102
RTVSPost2010PropOp44
 70
     1
102
RTVSPost2010Prop45
280
     0
102
RTVSPost2010PropOp45
 70
     1
102
RTVSPost2010Prop46
 90
       50
102
RTVSPost2010PropOp46
 70
     1
102
RTVSPost2010Prop47
 90
       50
102
RTVSPost2010PropOp47
 70
     1
102
RTVSPost2010Prop48
 90
       50
102
RTVSPost2010PropOp48
 70
     1
102
RTVSPost2010Prop49
280
     0
102
RTVSPost2010PropOp49
 70
     1
102
RTVSPost2010Prop50
 90
       50
102
RTVSPost2010PropOp50
 70
     1
102
RTVSPost2010Prop51ColorIndex
 90
      256
102
RTVSPost2010Prop51ColorRGB
 90
-16777216
102
RTVSPost2010PropOp51
 70
     0
102
RTVSPost2010Prop52
140
1.0
102
RTVSPost2010PropOp52
 70
     0
102
RTVSPost2010Prop53
 90
        2
102
RTVSPost2010PropOp53
 70
     1
102
RTVSPost2010Prop54
  1
strokes_ogs.tif
102
RTVSPost2010PropOp54
 70
     1
102
RTVSPost2010Prop55
280
     0
102
RTVSPost2010PropOp55
 70
     1
102
RTVSPost2010Prop56
140
1.0
102
RTVSPost2010PropOp56
 70
     1
102
RTVSPost2010Prop57
140
1.0
102
RTVSPost2010PropOp57
 70
     1
  0
XRECORD
  5
1AB
102
{ACAD_REACTORS
330
1AA
102
}
330
1AA
100
AcDbXrecord
280
     1
102
RTVSPost2010Prop28
280
     0
102
RTVSPost2010PropOp28
 70
     1
102
RTVSPost2010Prop29
280
     1
102
RTVSPost2010PropOp29
 70
     1
102
RTVSPost2010Prop30
280
     1
102
RTVSPost2010PropOp30
 70
     1
102
RTVSPost2010Prop31
280
     0
102
RTVSPost2010PropOp31
 70
     1
102
RTVSPost2010Prop32
280
     0
102
RTVSPost2010PropOp32
 70
     1
102
RTVSPost2010Prop33
280
     0
102
RTVSPost2010PropOp33
 70
     1
102
RTVSPost2010Prop34
280
     0
102
RTVSPost2010PropOp34
 70
     1
102
RTVSPost2010Prop35
280
     0
102
RTVSPost2010PropOp35
 70
     1
102
RTVSPost2010Prop36
280
     0
102
RTVSPost2010PropOp36
 70
     1
102
RTVSPost2010Prop37
 90
       50
102
RTVSPost2010PropOp37
 70
     1
102
RTVSPost2010Prop38
140
0.0
102
RTVSPost2010PropOp38
 70
     1
102
RTVSPost2010Prop39
140
1.0
102
RTVSPost2010PropOp39
 70
     1
102
RTVSPost2010Prop40
 90
        0
102
RTVSPost2010PropOp40
 70
     1
102
RTVSPost2010Prop41ColorIndex
 90
       18
102
RTVSPost2010Prop41ColorRGB
 90
        0
102
RTVSPost2010PropOp41
 70
     1
102
RTVSPost2010Prop42
 90
       50
102
RTVSPost2010PropOp42
 70
     1
102
RTVSPost2010Prop43
 90
        3
102
RTVSPost2010PropOp43
 70
     1
102
RTVSPost2010Prop44ColorIndex
 90
        5
102
RTVSPost2010Prop44ColorRGB
 90
      255
102
RTVSPost2010PropOp44
 70
     1
102
RTVSPost2010Prop45
280
     0
102
RTVSPost2010PropOp45
 70
     1
102
RTVSPost2010Prop46
 90
       50
102
RTVSPost2010PropOp46
 70
     1
102
RTVSPost2010Prop47
 90
       50
102
RTVSPost2010PropOp47
 70
     1
102
RTVSPost2010Prop48
 90
       50
102
RTVSPost2010PropOp48
 70
     1
102
RTVSPost2010Prop49
280
     0
102
RTVSPost2010PropOp49
 70
     1
102
RTVSPost2010Prop50
 90
       50
102
RTVSPost2010PropOp50
 70
     1
102
RTVSPost2010Prop51ColorIndex
 90
      256
102
RTVSPost2010Prop51ColorRGB
 90
-16777216
102
RTVSPost2010PropOp51
 70
     0
102
RTVSPost2010Prop52
140
1.0
102
RTVSPost2010PropOp52
 70
     0
102
RTVSPost2010Prop53
 90
        2
102
RTVSPost2010PropOp53
 70
     1
102
RTVSPost2010Prop54
  1
strokes_ogs.tif
102
RTVSPost2010PropOp54
 70
     1
102
RTVSPost2010Prop55
280
     0
102
RTVSPost2010PropOp55
 70
     1
102
RTVSPost2010Prop56
140
1.0
102
RTVSPost2010PropOp56
 70
     1
102
RTVSPost2010Prop57
140
1.0
102
RTVSPost2010PropOp57
 70
     1
  0
XRECORD
  5
1AD
102
{ACAD_REACTORS
330
1AC
102
}
330
1AC
100
AcDbXrecord
280
     1
102
RTVSPost2010Prop28
280
     0
102
RTVSPost2010PropOp28
 70
     1
102
RTVSPost2010Prop29
280
     1
102
RTVSPost2010PropOp29
 70
     1
102
RTVSPost2010Prop30
280
     1
102
RTVSPost2010PropOp30
 70
     1
102
RTVSPost2010Prop31
280
     0
102
RTVSPost2010PropOp31
 70
     1
102
RTVSPost2010Prop32
280
     0
102
RTVSPost2010PropOp32
 70
     1
102
RTVSPost2010Prop33
280
     0
102
RTVSPost2010PropOp33
 70
     1
102
RTVSPost2010Prop34
280
     0
102
RTVSPost2010PropOp34
 70
     1
102
RTVSPost2010Prop35
280
     0
102
RTVSPost2010PropOp35
 70
     1
102
RTVSPost2010Prop36
280
     0
102
RTVSPost2010PropOp36
 70
     1
102
RTVSPost2010Prop37
 90
       50
102
RTVSPost2010PropOp37
 70
     1
102
RTVSPost2010Prop38
140
0.0
102
RTVSPost2010PropOp38
 70
     1
102
RTVSPost2010Prop39
140
1.0
102
RTVSPost2010PropOp39
 70
     1
102
RTVSPost2010Prop40
 90
        0
102
RTVSPost2010PropOp40
 70
     1
102
RTVSPost2010Prop41ColorIndex
 90
       18
102
RTVSPost2010Prop41ColorRGB
 90
        0
102
RTVSPost2010PropOp41
 70
     1
102
RTVSPost2010Prop42
 90
       50
102
RTVSPost2010PropOp42
 70
     1
102
RTVSPost2010Prop43
 90
        3
102
RTVSPost2010PropOp43
 70
     1
102
RTVSPost2010Prop44ColorIndex
 90
        5
102
RTVSPost2010Prop44ColorRGB
 90
      255
102
RTVSPost2010PropOp44
 70
     1
102
RTVSPost2010Prop45
280
     0
102
RTVSPost2010PropOp45
 70
     1
102
RTVSPost2010Prop46
 90
       50
102
RTVSPost2010PropOp46
 70
     1
102
RTVSPost2010Prop47
 90
       50
102
RTVSPost2010PropOp47
 70
     1
102
RTVSPost2010Prop48
 90
       50
102
RTVSPost2010PropOp48
 70
     1
102
RTVSPost2010Prop49
280
     0
102
RTVSPost2010PropOp49
 70
     1
102
RTVSPost2010Prop50
 90
       50
102
RTVSPost2010PropOp50
 70
     1
102
RTVSPost2010Prop51ColorIndex
 90
      256
102
RTVSPost2010Prop51ColorRGB
 90
-16777216
102
RTVSPost2010PropOp51
 70
     0
102
RTVSPost2010Prop52
140
1.0
102
RTVSPost2010PropOp52
 70
     0
102
RTVSPost2010Prop53
 90
        2
102
RTVSPost2010PropOp53
 70
     1
102
RTVSPost2010Prop54
  1
strokes_ogs.tif
102
RTVSPost2010PropOp54
 70
     1
102
RTVSPost2010Prop55
280
     0
102
RTVSPost2010PropOp55
 70
     1
102
RTVSPost2010Prop56
140
1.0
102
RTVSPost2010PropOp56
 70
     1
102
RTVSPost2010Prop57
140
1.0
102
RTVSPost2010PropOp57
 70
     1
  0
XRECORD
  5
1AF
102
{ACAD_REACTORS
330
1AE
102
}
330
1AE
100
AcDbXrecord
280
     1
102
RTVSPost2010Prop28
280
     0
102
RTVSPost2010PropOp28
 70
     1
102
RTVSPost2010Prop29
280
     1
102
RTVSPost2010PropOp29
 70
     1
102
RTVSPost2010Prop30
280
     1
102
RTVSPost2010PropOp30
 70
     1
102
RTVSPost2010Prop31
280
     0
102
RTVSPost2010PropOp31
 70
     1
102
RTVSPost2010Prop32
280
     0
102
RTVSPost2010PropOp32
 70
     1
102
RTVSPost2010Prop33
280
     0
102
RTVSPost2010PropOp33
 70
     1
102
RTVSPost2010Prop34
280
     0
102
RTVSPost2010PropOp34
 70
     1
102
RTVSPost2010Prop35
280
     0
102
RTVSPost2010PropOp35
 70
     1
102
RTVSPost2010Prop36
280
     0
102
RTVSPost2010PropOp36
 70
     1
102
RTVSPost2010Prop37
 90
       50
102
RTVSPost2010PropOp37
 70
     1
102
RTVSPost2010Prop38
140
0.0
102
RTVSPost2010PropOp38
 70
     1
102
RTVSPost2010Prop39
140
1.0
102
RTVSPost2010PropOp39
 70
     1
102
RTVSPost2010Prop40
 90
        0
102
RTVSPost2010PropOp40
 70
     1
102
RTVSPost2010Prop41ColorIndex
 90
       18
102
RTVSPost2010Prop41ColorRGB
 90
        0
102
RTVSPost2010PropOp41
 70
     1
102
RTVSPost2010Prop42
 90
       50
102
RTVSPost2010PropOp42
 70
     1
102
RTVSPost2010Prop43
 90
        3
102
RTVSPost2010PropOp43
 70
     1
102
RTVSPost2010Prop44ColorIndex
 90
        5
102
RTVSPost2010Prop44ColorRGB
 90
      255
102
RTVSPost2010PropOp44
 70
     1
102
RTVSPost2010Prop45
280
     0
102
RTVSPost2010PropOp45
 70
     1
102
RTVSPost2010Prop46
 90
       50
102
RTVSPost2010PropOp46
 70
     1
102
RTVSPost2010Prop47
 90
       50
102
RTVSPost2010PropOp47
 70
     1
102
RTVSPost2010Prop48
 90
       50
102
RTVSPost2010PropOp48
 70
     1
102
RTVSPost2010Prop49
280
     0
102
RTVSPost2010PropOp49
 70
     1
102
RTVSPost2010Prop50
 90
       50
102
RTVSPost2010PropOp50
 70
     1
102
RTVSPost2010Prop51ColorIndex
 90
      256
102
RTVSPost2010Prop51ColorRGB
 90
-16777216
102
RTVSPost2010PropOp51
 70
     0
102
RTVSPost2010Prop52
140
1.0
102
RTVSPost2010PropOp52
 70
     0
102
RTVSPost2010Prop53
 90
        2
102
RTVSPost2010PropOp53
 70
     1
102
RTVSPost2010Prop54
  1
strokes_ogs.tif
102
RTVSPost2010PropOp54
 70
     1
102
RTVSPost2010Prop55
280
     0
102
RTVSPost2010PropOp55
 70
     1
102
RTVSPost2010Prop56
140
1.0
102
RTVSPost2010PropOp56
 70
     1
102
RTVSPost2010Prop57
140
1.0
102
RTVSPost2010PropOp57
 70
     1
  0
XRECORD
  5
1B7
102
{ACAD_REACTORS
330
1B6
102
}
330
1B6
100
AcDbXrecord
280
     1
102
RTVSPost2010Prop28
280
     0
102
RTVSPost2010PropOp28
 70
     1
102
RTVSPost2010Prop29
280
     1
102
RTVSPost2010PropOp29
 70
     1
102
RTVSPost2010Prop30
280
     1
102
RTVSPost2010PropOp30
 70
     1
102
RTVSPost2010Prop31
280
     0
102
RTVSPost2010PropOp31
 70
     1
102
RTVSPost2010Prop32
280
     0
102
RTVSPost2010PropOp32
 70
     1
102
RTVSPost2010Prop33
280
     0
102
RTVSPost2010PropOp33
 70
     1
102
RTVSPost2010Prop34
280
     0
102
RTVSPost2010PropOp34
 70
     1
102
RTVSPost2010Prop35
280
     0
102
RTVSPost2010PropOp35
 70
     1
102
RTVSPost2010Prop36
280
     0
102
RTVSPost2010PropOp36
 70
     1
102
RTVSPost2010Prop37
 90
       50
102
RTVSPost2010PropOp37
 70
     1
102
RTVSPost2010Prop38
140
0.0
102
RTVSPost2010PropOp38
 70
     1
102
RTVSPost2010Prop39
140
1.0
102
RTVSPost2010PropOp39
 70
     1
102
RTVSPost2010Prop40
 90
        0
102
RTVSPost2010PropOp40
 70
     1
102
RTVSPost2010Prop41ColorIndex
 90
       18
102
RTVSPost2010Prop41ColorRGB
 90
        0
102
RTVSPost2010PropOp41
 70
     1
102
RTVSPost2010Prop42
 90
       50
102
RTVSPost2010PropOp42
 70
     1
102
RTVSPost2010Prop43
 90
        3
102
RTVSPost2010PropOp43
 70
     1
102
RTVSPost2010Prop44ColorIndex
 90
        5
102
RTVSPost2010Prop44ColorRGB
 90
      255
102
RTVSPost2010PropOp44
 70
     1
102
RTVSPost2010Prop45
280
     0
102
RTVSPost2010PropOp45
 70
     1
102
RTVSPost2010Prop46
 90
       50
102
RTVSPost2010PropOp46
 70
     1
102
RTVSPost2010Prop47
 90
       50
102
RTVSPost2010PropOp47
 70
     1
102
RTVSPost2010Prop48
 90
       50
102
RTVSPost2010PropOp48
 70
     1
102
RTVSPost2010Prop49
280
     0
102
RTVSPost2010PropOp49
 70
     1
102
RTVSPost2010Prop50
 90
       50
102
RTVSPost2010PropOp50
 70
     1
102
RTVSPost2010Prop51ColorIndex
 90
      256
102
RTVSPost2010Prop51ColorRGB
 90
-16777216
102
RTVSPost2010PropOp51
 70
     0
102
RTVSPost2010Prop52
140
1.0
102
RTVSPost2010PropOp52
 70
     0
102
RTVSPost2010Prop53
 90
        2
102
RTVSPost2010PropOp53
 70
     1
102
RTVSPost2010Prop54
  1
strokes_ogs.tif
102
RTVSPost2010PropOp54
 70
     1
102
RTVSPost2010Prop55
280
     0
102
RTVSPost2010PropOp55
 70
     1
102
RTVSPost2010Prop56
140
1.0
102
RTVSPost2010PropOp56
 70
     1
102
RTVSPost2010Prop57
140
1.0
102
RTVSPost2010PropOp57
 70
     1
  0
XRECORD
  5
1D3
102
{ACAD_REACTORS
330
1D2
102
}
330
1D2
100
AcDbXrecord
280
     1
102
RTVSPost2010Prop28
280
     0
102
RTVSPost2010PropOp28
 70
     0
102
RTVSPost2010Prop29
280
     1
102
RTVSPost2010PropOp29
 70
     0
102
RTVSPost2010Prop30
280
     1
102
RTVSPost2010PropOp30
 70
     0
102
RTVSPost2010Prop31
280
     0
102
RTVSPost2010PropOp31
 70
     0
102
RTVSPost2010Prop32
280
     0
102
RTVSPost2010PropOp32
 70
     0
102
RTVSPost2010Prop33
280
     0
102
RTVSPost2010PropOp33
 70
     0
102
RTVSPost2010Prop34
280
     0
102
RTVSPost2010PropOp34
 70
     0
102
RTVSPost2010Prop35
280
     0
102
RTVSPost2010PropOp35
 70
     0
102
RTVSPost2010Prop36
280
     0
102
RTVSPost2010PropOp36
 70
     0
102
RTVSPost2010Prop37
 90
       50
102
RTVSPost2010PropOp37
 70
     0
102
RTVSPost2010Prop38
140
0.0
102
RTVSPost2010PropOp38
 70
     0
102
RTVSPost2010Prop39
140
1.0
102
RTVSPost2010PropOp39
 70
     0
102
RTVSPost2010Prop40
 90
        0
102
RTVSPost2010PropOp40
 70
     0
102
RTVSPost2010Prop41ColorIndex
 90
       18
102
RTVSPost2010Prop41ColorRGB
 90
        0
102
RTVSPost2010PropOp41
 70
     0
102
RTVSPost2010Prop42
 90
       50
102
RTVSPost2010PropOp42
 70
     0
102
RTVSPost2010Prop43
 90
        3
102
RTVSPost2010PropOp43
 70
     0
102
RTVSPost2010Prop44ColorIndex
 90
        5
102
RTVSPost2010Prop44ColorRGB
 90
      255
102
RTVSPost2010PropOp44
 70
     0
102
RTVSPost2010Prop45
280
     0
102
RTVSPost2010PropOp45
 70
     0
102
RTVSPost2010Prop46
 90
       50
102
RTVSPost2010PropOp46
 70
     0
102
RTVSPost2010Prop47
 90
       50
102
RTVSPost2010PropOp47
 70
     0
102
RTVSPost2010Prop48
 90
       50
102
RTVSPost2010PropOp48
 70
     0
102
RTVSPost2010Prop49
280
     0
102
RTVSPost2010PropOp49
 70
     0
102
RTVSPost2010Prop50
 90
       50
102
RTVSPost2010PropOp50
 70
     0
102
RTVSPost2010Prop51ColorIndex
 90
      256
102
RTVSPost2010Prop51ColorRGB
 90
-16777216
102
RTVSPost2010PropOp51
 70
     0
102
RTVSPost2010Prop52
140
1.0
102
RTVSPost2010PropOp52
 70
     0
102
RTVSPost2010Prop53
 90
        2
102
RTVSPost2010PropOp53
 70
     0
102
RTVSPost2010Prop54
  1
strokes_ogs.tif
102
RTVSPost2010PropOp54
 70
     0
102
RTVSPost2010Prop55
280
     0
102
RTVSPost2010PropOp55
 70
     0
102
RTVSPost2010Prop56
140
1.0
102
RTVSPost2010PropOp56
 70
     0
102
RTVSPost2010Prop57
140
1.0
102
RTVSPost2010PropOp57
 70
     0
  0
XRECORD
  5
1C3
102
{ACAD_REACTORS
330
1C2
102
}
330
1C2
100
AcDbXrecord
280
     1
102
RTVSPost2010Prop28
280
     0
102
RTVSPost2010PropOp28
 70
     1
102
RTVSPost2010Prop29
280
     1
102
RTVSPost2010PropOp29
 70
     1
102
RTVSPost2010Prop30
280
     1
102
RTVSPost2010PropOp30
 70
     1
102
RTVSPost2010Prop31
280
     0
102
RTVSPost2010PropOp31
 70
     1
102
RTVSPost2010Prop32
280
     0
102
RTVSPost2010PropOp32
 70
     1
102
RTVSPost2010Prop33
280
     0
102
RTVSPost2010PropOp33
 70
     1
102
RTVSPost2010Prop34
280
     0
102
RTVSPost2010PropOp34
 70
     1
102
RTVSPost2010Prop35
280
     0
102
RTVSPost2010PropOp35
 70
     1
102
RTVSPost2010Prop36
280
     0
102
RTVSPost2010PropOp36
 70
     1
102
RTVSPost2010Prop37
 90
       50
102
RTVSPost2010PropOp37
 70
     1
102
RTVSPost2010Prop38
140
0.0
102
RTVSPost2010PropOp38
 70
     1
102
RTVSPost2010Prop39
140
1.0
102
RTVSPost2010PropOp39
 70
     1
102
RTVSPost2010Prop40
 90
        0
102
RTVSPost2010PropOp40
 70
     1
102
RTVSPost2010Prop41ColorIndex
 90
       18
102
RTVSPost2010Prop41ColorRGB
 90
        0
102
RTVSPost2010PropOp41
 70
     1
102
RTVSPost2010Prop42
 90
       50
102
RTVSPost2010PropOp42
 70
     1
102
RTVSPost2010Prop43
 90
        3
102
RTVSPost2010PropOp43
 70
     1
102
RTVSPost2010Prop44ColorIndex
 90
        5
102
RTVSPost2010Prop44ColorRGB
 90
      255
102
RTVSPost2010PropOp44
 70
     1
102
RTVSPost2010Prop45
280
     0
102
RTVSPost2010PropOp45
 70
     1
102
RTVSPost2010Prop46
 90
       50
102
RTVSPost2010PropOp46
 70
     1
102
RTVSPost2010Prop47
 90
       50
102
RTVSPost2010PropOp47
 70
     1
102
RTVSPost2010Prop48
 90
       50
102
RTVSPost2010PropOp48
 70
     1
102
RTVSPost2010Prop49
280
     0
102
RTVSPost2010PropOp49
 70
     1
102
RTVSPost2010Prop50
 90
       50
102
RTVSPost2010PropOp50
 70
     1
102
RTVSPost2010Prop51ColorIndex
 90
      256
102
RTVSPost2010Prop51ColorRGB
 90
-16777216
102
RTVSPost2010PropOp51
 70
     0
102
RTVSPost2010Prop52
140
1.0
102
RTVSPost2010PropOp52
 70
     0
102
RTVSPost2010Prop53
 90
        2
102
RTVSPost2010PropOp53
 70
     1
102
RTVSPost2010Prop54
  1
strokes_ogs.tif
102
RTVSPost2010PropOp54
 70
     1
102
RTVSPost2010Prop55
280
     0
102
RTVSPost2010PropOp55
 70
     1
102
RTVSPost2010Prop56
140
1.0
102
RTVSPost2010PropOp56
 70
     1
102
RTVSPost2010Prop57
140
1.0
102
RTVSPost2010PropOp57
 70
     1
  0
XRECORD
  5
1D5
102
{ACAD_REACTORS
330
1D4
102
}
330
1D4
100
AcDbXrecord
280
     1
102
RTVSPost2010Prop28
280
     0
102
RTVSPost2010PropOp28
 70
     0
102
RTVSPost2010Prop29
280
     1
102
RTVSPost2010PropOp29
 70
     0
102
RTVSPost2010Prop30
280
     1
102
RTVSPost2010PropOp30
 70
     0
102
RTVSPost2010Prop31
280
     0
102
RTVSPost2010PropOp31
 70
     0
102
RTVSPost2010Prop32
280
     0
102
RTVSPost2010PropOp32
 70
     0
102
RTVSPost2010Prop33
280
     0
102
RTVSPost2010PropOp33
 70
     0
102
RTVSPost2010Prop34
280
     0
102
RTVSPost2010PropOp34
 70
     0
102
RTVSPost2010Prop35
280
     0
102
RTVSPost2010PropOp35
 70
     0
102
RTVSPost2010Prop36
280
     0
102
RTVSPost2010PropOp36
 70
     0
102
RTVSPost2010Prop37
 90
       50
102
RTVSPost2010PropOp37
 70
     0
102
RTVSPost2010Prop38
140
0.0
102
RTVSPost2010PropOp38
 70
     0
102
RTVSPost2010Prop39
140
1.0
102
RTVSPost2010PropOp39
 70
     0
102
RTVSPost2010Prop40
 90
        0
102
RTVSPost2010PropOp40
 70
     0
102
RTVSPost2010Prop41ColorIndex
 90
       18
102
RTVSPost2010Prop41ColorRGB
 90
        0
102
RTVSPost2010PropOp41
 70
     0
102
RTVSPost2010Prop42
 90
       50
102
RTVSPost2010PropOp42
 70
     0
102
RTVSPost2010Prop43
 90
        3
102
RTVSPost2010PropOp43
 70
     0
102
RTVSPost2010Prop44ColorIndex
 90
        5
102
RTVSPost2010Prop44ColorRGB
 90
      255
102
RTVSPost2010PropOp44
 70
     0
102
RTVSPost2010Prop45
280
     0
102
RTVSPost2010PropOp45
 70
     0
102
RTVSPost2010Prop46
 90
       50
102
RTVSPost2010PropOp46
 70
     0
102
RTVSPost2010Prop47
 90
       50
102
RTVSPost2010PropOp47
 70
     0
102
RTVSPost2010Prop48
 90
       50
102
RTVSPost2010PropOp48
 70
     0
102
RTVSPost2010Prop49
280
     0
102
RTVSPost2010PropOp49
 70
     0
102
RTVSPost2010Prop50
 90
       50
102
RTVSPost2010PropOp50
 70
     0
102
RTVSPost2010Prop51ColorIndex
 90
      256
102
RTVSPost2010Prop51ColorRGB
 90
-16777216
102
RTVSPost2010PropOp51
 70
     0
102
RTVSPost2010Prop52
140
1.0
102
RTVSPost2010PropOp52
 70
     0
102
RTVSPost2010Prop53
 90
        2
102
RTVSPost2010PropOp53
 70
     0
102
RTVSPost2010Prop54
  1
strokes_ogs.tif
102
RTVSPost2010PropOp54
 70
     0
102
RTVSPost2010Prop55
280
     0
102
RTVSPost2010PropOp55
 70
     0
102
RTVSPost2010Prop56
140
1.0
102
RTVSPost2010PropOp56
 70
     0
102
RTVSPost2010Prop57
140
1.0
102
RTVSPost2010PropOp57
 70
     0
  0
XRECORD
  5
1BB
102
{ACAD_REACTORS
330
1BA
102
}
330
1BA
100
AcDbXrecord
280
     1
102
RTVSPost2010Prop28
280
     0
102
RTVSPost2010PropOp28
 70
     1
102
RTVSPost2010Prop29
280
     1
102
RTVSPost2010PropOp29
 70
     1
102
RTVSPost2010Prop30
280
     1
102
RTVSPost2010PropOp30
 70
     1
102
RTVSPost2010Prop31
280
     0
102
RTVSPost2010PropOp31
 70
     1
102
RTVSPost2010Prop32
280
     0
102
RTVSPost2010PropOp32
 70
     1
102
RTVSPost2010Prop33
280
     0
102
RTVSPost2010PropOp33
 70
     1
102
RTVSPost2010Prop34
280
     0
102
RTVSPost2010PropOp34
 70
     1
102
RTVSPost2010Prop35
280
     0
102
RTVSPost2010PropOp35
 70
     1
102
RTVSPost2010Prop36
280
     0
102
RTVSPost2010PropOp36
 70
     1
102
RTVSPost2010Prop37
 90
       50
102
RTVSPost2010PropOp37
 70
     1
102
RTVSPost2010Prop38
140
0.0
102
RTVSPost2010PropOp38
 70
     1
102
RTVSPost2010Prop39
140
1.0
102
RTVSPost2010PropOp39
 70
     1
102
RTVSPost2010Prop40
 90
        0
102
RTVSPost2010PropOp40
 70
     1
102
RTVSPost2010Prop41ColorIndex
 90
       18
102
RTVSPost2010Prop41ColorRGB
 90
        0
102
RTVSPost2010PropOp41
 70
     1
102
RTVSPost2010Prop42
 90
       50
102
RTVSPost2010PropOp42
 70
     1
102
RTVSPost2010Prop43
 90
        3
102
RTVSPost2010PropOp43
 70
     1
102
RTVSPost2010Prop44ColorIndex
 90
        5
102
RTVSPost2010Prop44ColorRGB
 90
      255
102
RTVSPost2010PropOp44
 70
     1
102
RTVSPost2010Prop45
280
     0
102
RTVSPost2010PropOp45
 70
     1
102
RTVSPost2010Prop46
 90
       50
102
RTVSPost2010PropOp46
 70
     1
102
RTVSPost2010Prop47
 90
       50
102
RTVSPost2010PropOp47
 70
     1
102
RTVSPost2010Prop48
 90
       50
102
RTVSPost2010PropOp48
 70
     1
102
RTVSPost2010Prop49
280
     0
102
RTVSPost2010PropOp49
 70
     1
102
RTVSPost2010Prop50
 90
       50
102
RTVSPost2010PropOp50
 70
     1
102
RTVSPost2010Prop51ColorIndex
 90
      256
102
RTVSPost2010Prop51ColorRGB
 90
-16777216
102
RTVSPost2010PropOp51
 70
     0
102
RTVSPost2010Prop52
140
1.0
102
RTVSPost2010PropOp52
 70
     0
102
RTVSPost2010Prop53
 90
        2
102
RTVSPost2010PropOp53
 70
     1
102
RTVSPost2010Prop54
  1
strokes_ogs.tif
102
RTVSPost2010PropOp54
 70
     1
102
RTVSPost2010Prop55
280
     0
102
RTVSPost2010PropOp55
 70
     1
102
RTVSPost2010Prop56
140
1.0
102
RTVSPost2010PropOp56
 70
     1
102
RTVSPost2010Prop57
140
1.0
102
RTVSPost2010PropOp57
 70
     1
  0
XRECORD
  5
1D1
102
{ACAD_REACTORS
330
1D0
102
}
330
1D0
100
AcDbXrecord
280
     1
102
RTVSPost2010Prop28
280
     0
102
RTVSPost2010PropOp28
 70
     1
102
RTVSPost2010Prop29
280
     1
102
RTVSPost2010PropOp29
 70
     1
102
RTVSPost2010Prop30
280
     1
102
RTVSPost2010PropOp30
 70
     1
102
RTVSPost2010Prop31
280
     0
102
RTVSPost2010PropOp31
 70
     1
102
RTVSPost2010Prop32
280
     0
102
RTVSPost2010PropOp32
 70
     1
102
RTVSPost2010Prop33
280
     0
102
RTVSPost2010PropOp33
 70
     1
102
RTVSPost2010Prop34
280
     0
102
RTVSPost2010PropOp34
 70
     1
102
RTVSPost2010Prop35
280
     0
102
RTVSPost2010PropOp35
 70
     1
102
RTVSPost2010Prop36
280
     0
102
RTVSPost2010PropOp36
 70
     1
102
RTVSPost2010Prop37
 90
       50
102
RTVSPost2010PropOp37
 70
     1
102
RTVSPost2010Prop38
140
0.0
102
RTVSPost2010PropOp38
 70
     1
102
RTVSPost2010Prop39
140
1.0
102
RTVSPost2010PropOp39
 70
     1
102
RTVSPost2010Prop40
 90
        0
102
RTVSPost2010PropOp40
 70
     1
102
RTVSPost2010Prop41ColorIndex
 90
       18
102
RTVSPost2010Prop41ColorRGB
 90
        0
102
RTVSPost2010PropOp41
 70
     1
102
RTVSPost2010Prop42
 90
       50
102
RTVSPost2010PropOp42
 70
     1
102
RTVSPost2010Prop43
 90
        3
102
RTVSPost2010PropOp43
 70
     1
102
RTVSPost2010Prop44ColorIndex
 90
        5
102
RTVSPost2010Prop44ColorRGB
 90
      255
102
RTVSPost2010PropOp44
 70
     1
102
RTVSPost2010Prop45
280
     0
102
RTVSPost2010PropOp45
 70
     1
102
RTVSPost2010Prop46
 90
       50
102
RTVSPost2010PropOp46
 70
     1
102
RTVSPost2010Prop47
 90
       50
102
RTVSPost2010PropOp47
 70
     1
102
RTVSPost2010Prop48
 90
       50
102
RTVSPost2010PropOp48
 70
     1
102
RTVSPost2010Prop49
280
     0
102
RTVSPost2010PropOp49
 70
     1
102
RTVSPost2010Prop50
 90
       50
102
RTVSPost2010PropOp50
 70
     1
102
RTVSPost2010Prop51ColorIndex
 90
      256
102
RTVSPost2010Prop51ColorRGB
 90
-16777216
102
RTVSPost2010PropOp51
 70
     0
102
RTVSPost2010Prop52
140
1.0
102
RTVSPost2010PropOp52
 70
     0
102
RTVSPost2010Prop53
 90
        2
102
RTVSPost2010PropOp53
 70
     1
102
RTVSPost2010Prop54
  1
strokes_ogs.tif
102
RTVSPost2010PropOp54
 70
     1
102
RTVSPost2010Prop55
280
     0
102
RTVSPost2010PropOp55
 70
     1
102
RTVSPost2010Prop56
140
1.0
102
RTVSPost2010PropOp56
 70
     1
102
RTVSPost2010Prop57
140
1.0
102
RTVSPost2010PropOp57
 70
     1
  0
XRECORD
  5
1CF
102
{ACAD_REACTORS
330
1CE
102
}
330
1CE
100
AcDbXrecord
280
     1
102
RTVSPost2010Prop28
280
     0
102
RTVSPost2010PropOp28
 70
     1
102
RTVSPost2010Prop29
280
     1
102
RTVSPost2010PropOp29
 70
     1
102
RTVSPost2010Prop30
280
     1
102
RTVSPost2010PropOp30
 70
     1
102
RTVSPost2010Prop31
280
     0
102
RTVSPost2010PropOp31
 70
     1
102
RTVSPost2010Prop32
280
     0
102
RTVSPost2010PropOp32
 70
     1
102
RTVSPost2010Prop33
280
     0
102
RTVSPost2010PropOp33
 70
     1
102
RTVSPost2010Prop34
280
     0
102
RTVSPost2010PropOp34
 70
     1
102
RTVSPost2010Prop35
280
     0
102
RTVSPost2010PropOp35
 70
     1
102
RTVSPost2010Prop36
280
     0
102
RTVSPost2010PropOp36
 70
     1
102
RTVSPost2010Prop37
 90
       50
102
RTVSPost2010PropOp37
 70
     1
102
RTVSPost2010Prop38
140
0.0
102
RTVSPost2010PropOp38
 70
     1
102
RTVSPost2010Prop39
140
1.0
102
RTVSPost2010PropOp39
 70
     1
102
RTVSPost2010Prop40
 90
        0
102
RTVSPost2010PropOp40
 70
     1
102
RTVSPost2010Prop41ColorIndex
 90
       18
102
RTVSPost2010Prop41ColorRGB
 90
        0
102
RTVSPost2010PropOp41
 70
     1
102
RTVSPost2010Prop42
 90
       50
102
RTVSPost2010PropOp42
 70
     1
102
RTVSPost2010Prop43
 90
        3
102
RTVSPost2010PropOp43
 70
     1
102
RTVSPost2010Prop44ColorIndex
 90
        5
102
RTVSPost2010Prop44ColorRGB
 90
      255
102
RTVSPost2010PropOp44
 70
     1
102
RTVSPost2010Prop45
280
     0
102
RTVSPost2010PropOp45
 70
     1
102
RTVSPost2010Prop46
 90
       50
102
RTVSPost2010PropOp46
 70
     1
102
RTVSPost2010Prop47
 90
       50
102
RTVSPost2010PropOp47
 70
     1
102
RTVSPost2010Prop48
 90
       50
102
RTVSPost2010PropOp48
 70
     1
102
RTVSPost2010Prop49
280
     0
102
RTVSPost2010PropOp49
 70
     1
102
RTVSPost2010Prop50
 90
       50
102
RTVSPost2010PropOp50
 70
     1
102
RTVSPost2010Prop51ColorIndex
 90
      256
102
RTVSPost2010Prop51ColorRGB
 90
-16777216
102
RTVSPost2010PropOp51
 70
     0
102
RTVSPost2010Prop52
140
1.0
102
RTVSPost2010PropOp52
 70
     0
102
RTVSPost2010Prop53
 90
        2
102
RTVSPost2010PropOp53
 70
     1
102
RTVSPost2010Prop54
  1
strokes_ogs.tif
102
RTVSPost2010PropOp54
 70
     1
102
RTVSPost2010Prop55
280
     0
102
RTVSPost2010PropOp55
 70
     1
102
RTVSPost2010Prop56
140
1.0
102
RTVSPost2010PropOp56
 70
     1
102
RTVSPost2010Prop57
140
1.0
102
RTVSPost2010PropOp57
 70
     1
  0
XRECORD
  5
1C9
102
{ACAD_REACTORS
330
1C8
102
}
330
1C8
100
AcDbXrecord
280
     1
102
RTVSPost2010Prop28
280
     0
102
RTVSPost2010PropOp28
 70
     1
102
RTVSPost2010Prop29
280
     1
102
RTVSPost2010PropOp29
 70
     1
102
RTVSPost2010Prop30
280
     1
102
RTVSPost2010PropOp30
 70
     1
102
RTVSPost2010Prop31
280
     0
102
RTVSPost2010PropOp31
 70
     1
102
RTVSPost2010Prop32
280
     0
102
RTVSPost2010PropOp32
 70
     1
102
RTVSPost2010Prop33
280
     0
102
RTVSPost2010PropOp33
 70
     1
102
RTVSPost2010Prop34
280
     0
102
RTVSPost2010PropOp34
 70
     1
102
RTVSPost2010Prop35
280
     0
102
RTVSPost2010PropOp35
 70
     1
102
RTVSPost2010Prop36
280
     0
102
RTVSPost2010PropOp36
 70
     1
102
RTVSPost2010Prop37
 90
       50
102
RTVSPost2010PropOp37
 70
     1
102
RTVSPost2010Prop38
140
0.0
102
RTVSPost2010PropOp38
 70
     1
102
RTVSPost2010Prop39
140
1.0
102
RTVSPost2010PropOp39
 70
     1
102
RTVSPost2010Prop40
 90
        0
102
RTVSPost2010PropOp40
 70
     1
102
RTVSPost2010Prop41ColorIndex
 90
       18
102
RTVSPost2010Prop41ColorRGB
 90
        0
102
RTVSPost2010PropOp41
 70
     1
102
RTVSPost2010Prop42
 90
       50
102
RTVSPost2010PropOp42
 70
     1
102
RTVSPost2010Prop43
 90
        3
102
RTVSPost2010PropOp43
 70
     1
102
RTVSPost2010Prop44ColorIndex
 90
        5
102
RTVSPost2010Prop44ColorRGB
 90
      255
102
RTVSPost2010PropOp44
 70
     1
102
RTVSPost2010Prop45
280
     0
102
RTVSPost2010PropOp45
 70
     1
102
RTVSPost2010Prop46
 90
       50
102
RTVSPost2010PropOp46
 70
     1
102
RTVSPost2010Prop47
 90
       50
102
RTVSPost2010PropOp47
 70
     1
102
RTVSPost2010Prop48
 90
       50
102
RTVSPost2010PropOp48
 70
     1
102
RTVSPost2010Prop49
280
     0
102
RTVSPost2010PropOp49
 70
     1
102
RTVSPost2010Prop50
 90
       50
102
RTVSPost2010PropOp50
 70
     1
102
RTVSPost2010Prop51ColorIndex
 90
      256
102
RTVSPost2010Prop51ColorRGB
 90
-16777216
102
RTVSPost2010PropOp51
 70
     0
102
RTVSPost2010Prop52
140
1.0
102
RTVSPost2010PropOp52
 70
     0
102
RTVSPost2010Prop53
 90
        2
102
RTVSPost2010PropOp53
 70
     1
102
RTVSPost2010Prop54
  1
strokes_ogs.tif
102
RTVSPost2010PropOp54
 70
     1
102
RTVSPost2010Prop55
280
     0
102
RTVSPost2010PropOp55
 70
     1
102
RTVSPost2010Prop56
140
1.0
102
RTVSPost2010PropOp56
 70
     1
102
RTVSPost2010Prop57
140
1.0
102
RTVSPost2010PropOp57
 70
     1
  0
XRECORD
  5
1CB
102
{ACAD_REACTORS
330
1CA
102
}
330
1CA
100
AcDbXrecord
280
     1
102
RTVSPost2010Prop28
280
     0
102
RTVSPost2010PropOp28
 70
     1
102
RTVSPost2010Prop29
280
     1
102
RTVSPost2010PropOp29
 70
     1
102
RTVSPost2010Prop30
280
     1
102
RTVSPost2010PropOp30
 70
     1
102
RTVSPost2010Prop31
280
     0
102
RTVSPost2010PropOp31
 70
     1
102
RTVSPost2010Prop32
280
     0
102
RTVSPost2010PropOp32
 70
     1
102
RTVSPost2010Prop33
280
     0
102
RTVSPost2010PropOp33
 70
     1
102
RTVSPost2010Prop34
280
     0
102
RTVSPost2010PropOp34
 70
     1
102
RTVSPost2010Prop35
280
     0
102
RTVSPost2010PropOp35
 70
     1
102
RTVSPost2010Prop36
280
     0
102
RTVSPost2010PropOp36
 70
     1
102
RTVSPost2010Prop37
 90
       50
102
RTVSPost2010PropOp37
 70
     1
102
RTVSPost2010Prop38
140
0.0
102
RTVSPost2010PropOp38
 70
     1
102
RTVSPost2010Prop39
140
1.0
102
RTVSPost2010PropOp39
 70
     1
102
RTVSPost2010Prop40
 90
        0
102
RTVSPost2010PropOp40
 70
     1
102
RTVSPost2010Prop41ColorIndex
 90
       18
102
RTVSPost2010Prop41ColorRGB
 90
        0
102
RTVSPost2010PropOp41
 70
     1
102
RTVSPost2010Prop42
 90
       50
102
RTVSPost2010PropOp42
 70
     1
102
RTVSPost2010Prop43
 90
        3
102
RTVSPost2010PropOp43
 70
     1
102
RTVSPost2010Prop44ColorIndex
 90
        5
102
RTVSPost2010Prop44ColorRGB
 90
      255
102
RTVSPost2010PropOp44
 70
     1
102
RTVSPost2010Prop45
280
     0
102
RTVSPost2010PropOp45
 70
     1
102
RTVSPost2010Prop46
 90
       50
102
RTVSPost2010PropOp46
 70
     1
102
RTVSPost2010Prop47
 90
       50
102
RTVSPost2010PropOp47
 70
     1
102
RTVSPost2010Prop48
 90
       50
102
RTVSPost2010PropOp48
 70
     1
102
RTVSPost2010Prop49
280
     0
102
RTVSPost2010PropOp49
 70
     1
102
RTVSPost2010Prop50
 90
       50
102
RTVSPost2010PropOp50
 70
     1
102
RTVSPost2010Prop51ColorIndex
 90
      256
102
RTVSPost2010Prop51ColorRGB
 90
-16777216
102
RTVSPost2010PropOp51
 70
     0
102
RTVSPost2010Prop52
140
1.0
102
RTVSPost2010PropOp52
 70
     0
102
RTVSPost2010Prop53
 90
        2
102
RTVSPost2010PropOp53
 70
     1
102
RTVSPost2010Prop54
  1
strokes_ogs.tif
102
RTVSPost2010PropOp54
 70
     1
102
RTVSPost2010Prop55
280
     0
102
RTVSPost2010PropOp55
 70
     1
102
RTVSPost2010Prop56
140
1.0
102
RTVSPost2010PropOp56
 70
     1
102
RTVSPost2010Prop57
140
1.0
102
RTVSPost2010PropOp57
 70
     1
  0
XRECORD
  5
1C1
102
{ACAD_REACTORS
330
1C0
102
}
330
1C0
100
AcDbXrecord
280
     1
102
RTVSPost2010Prop28
280
     0
102
RTVSPost2010PropOp28
 70
     1
102
RTVSPost2010Prop29
280
     1
102
RTVSPost2010PropOp29
 70
     1
102
RTVSPost2010Prop30
280
     1
102
RTVSPost2010PropOp30
 70
     1
102
RTVSPost2010Prop31
280
     0
102
RTVSPost2010PropOp31
 70
     1
102
RTVSPost2010Prop32
280
     0
102
RTVSPost2010PropOp32
 70
     1
102
RTVSPost2010Prop33
280
     0
102
RTVSPost2010PropOp33
 70
     1
102
RTVSPost2010Prop34
280
     0
102
RTVSPost2010PropOp34
 70
     1
102
RTVSPost2010Prop35
280
     0
102
RTVSPost2010PropOp35
 70
     1
102
RTVSPost2010Prop36
280
     0
102
RTVSPost2010PropOp36
 70
     1
102
RTVSPost2010Prop37
 90
       50
102
RTVSPost2010PropOp37
 70
     1
102
RTVSPost2010Prop38
140
0.0
102
RTVSPost2010PropOp38
 70
     1
102
RTVSPost2010Prop39
140
1.0
102
RTVSPost2010PropOp39
 70
     1
102
RTVSPost2010Prop40
 90
        0
102
RTVSPost2010PropOp40
 70
     1
102
RTVSPost2010Prop41ColorIndex
 90
       18
102
RTVSPost2010Prop41ColorRGB
 90
        0
102
RTVSPost2010PropOp41
 70
     1
102
RTVSPost2010Prop42
 90
       50
102
RTVSPost2010PropOp42
 70
     1
102
RTVSPost2010Prop43
 90
        3
102
RTVSPost2010PropOp43
 70
     1
102
RTVSPost2010Prop44ColorIndex
 90
        5
102
RTVSPost2010Prop44ColorRGB
 90
      255
102
RTVSPost2010PropOp44
 70
     1
102
RTVSPost2010Prop45
280
     0
102
RTVSPost2010PropOp45
 70
     1
102
RTVSPost2010Prop46
 90
       50
102
RTVSPost2010PropOp46
 70
     1
102
RTVSPost2010Prop47
 90
       50
102
RTVSPost2010PropOp47
 70
     1
102
RTVSPost2010Prop48
 90
       50
102
RTVSPost2010PropOp48
 70
     1
102
RTVSPost2010Prop49
280
     0
102
RTVSPost2010PropOp49
 70
     1
102
RTVSPost2010Prop50
 90
       50
102
RTVSPost2010PropOp50
 70
     1
102
RTVSPost2010Prop51ColorIndex
 90
      256
102
RTVSPost2010Prop51ColorRGB
 90
-16777216
102
RTVSPost2010PropOp51
 70
     0
102
RTVSPost2010Prop52
140
1.0
102
RTVSPost2010PropOp52
 70
     0
102
RTVSPost2010Prop53
 90
        2
102
RTVSPost2010PropOp53
 70
     1
102
RTVSPost2010Prop54
  1
strokes_ogs.tif
102
RTVSPost2010PropOp54
 70
     1
102
RTVSPost2010Prop55
280
     0
102
RTVSPost2010PropOp55
 70
     1
102
RTVSPost2010Prop56
140
1.0
102
RTVSPost2010PropOp56
 70
     1
102
RTVSPost2010Prop57
140
1.0
102
RTVSPost2010PropOp57
 70
     1
  0
XRECORD
  5
1B5
102
{ACAD_REACTORS
330
1B4
102
}
330
1B4
100
AcDbXrecord
280
     1
102
RTVSPost2010Prop28
280
     0
102
RTVSPost2010PropOp28
 70
     1
102
RTVSPost2010Prop29
280
     1
102
RTVSPost2010PropOp29
 70
     1
102
RTVSPost2010Prop30
280
     1
102
RTVSPost2010PropOp30
 70
     1
102
RTVSPost2010Prop31
280
     0
102
RTVSPost2010PropOp31
 70
     1
102
RTVSPost2010Prop32
280
     0
102
RTVSPost2010PropOp32
 70
     1
102
RTVSPost2010Prop33
280
     0
102
RTVSPost2010PropOp33
 70
     1
102
RTVSPost2010Prop34
280
     0
102
RTVSPost2010PropOp34
 70
     1
102
RTVSPost2010Prop35
280
     0
102
RTVSPost2010PropOp35
 70
     1
102
RTVSPost2010Prop36
280
     0
102
RTVSPost2010PropOp36
 70
     1
102
RTVSPost2010Prop37
 90
       50
102
RTVSPost2010PropOp37
 70
     1
102
RTVSPost2010Prop38
140
0.0
102
RTVSPost2010PropOp38
 70
     1
102
RTVSPost2010Prop39
140
1.0
102
RTVSPost2010PropOp39
 70
     1
102
RTVSPost2010Prop40
 90
        0
102
RTVSPost2010PropOp40
 70
     1
102
RTVSPost2010Prop41ColorIndex
 90
       18
102
RTVSPost2010Prop41ColorRGB
 90
        0
102
RTVSPost2010PropOp41
 70
     1
102
RTVSPost2010Prop42
 90
       50
102
RTVSPost2010PropOp42
 70
     1
102
RTVSPost2010Prop43
 90
        3
102
RTVSPost2010PropOp43
 70
     1
102
RTVSPost2010Prop44ColorIndex
 90
        5
102
RTVSPost2010Prop44ColorRGB
 90
      255
102
RTVSPost2010PropOp44
 70
     1
102
RTVSPost2010Prop45
280
     0
102
RTVSPost2010PropOp45
 70
     1
102
RTVSPost2010Prop46
 90
       50
102
RTVSPost2010PropOp46
 70
     1
102
RTVSPost2010Prop47
 90
       50
102
RTVSPost2010PropOp47
 70
     1
102
RTVSPost2010Prop48
 90
       50
102
RTVSPost2010PropOp48
 70
     1
102
RTVSPost2010Prop49
280
     0
102
RTVSPost2010PropOp49
 70
     1
102
RTVSPost2010Prop50
 90
       50
102
RTVSPost2010PropOp50
 70
     1
102
RTVSPost2010Prop51ColorIndex
 90
      256
102
RTVSPost2010Prop51ColorRGB
 90
-16777216
102
RTVSPost2010PropOp51
 70
     0
102
RTVSPost2010Prop52
140
1.0
102
RTVSPost2010PropOp52
 70
     0
102
RTVSPost2010Prop53
 90
        2
102
RTVSPost2010PropOp53
 70
     1
102
RTVSPost2010Prop54
  1
strokes_ogs.tif
102
RTVSPost2010PropOp54
 70
     1
102
RTVSPost2010Prop55
280
     0
102
RTVSPost2010PropOp55
 70
     1
102
RTVSPost2010Prop56
140
1.0
102
RTVSPost2010PropOp56
 70
     1
102
RTVSPost2010Prop57
140
1.0
102
RTVSPost2010PropOp57
 70
     1
  0
XRECORD
  5
1CD
102
{ACAD_REACTORS
330
1CC
102
}
330
1CC
100
AcDbXrecord
280
     1
102
RTVSPost2010Prop28
280
     0
102
RTVSPost2010PropOp28
 70
     1
102
RTVSPost2010Prop29
280
     1
102
RTVSPost2010PropOp29
 70
     1
102
RTVSPost2010Prop30
280
     1
102
RTVSPost2010PropOp30
 70
     1
102
RTVSPost2010Prop31
280
     0
102
RTVSPost2010PropOp31
 70
     1
102
RTVSPost2010Prop32
280
     0
102
RTVSPost2010PropOp32
 70
     1
102
RTVSPost2010Prop33
280
     0
102
RTVSPost2010PropOp33
 70
     1
102
RTVSPost2010Prop34
280
     0
102
RTVSPost2010PropOp34
 70
     1
102
RTVSPost2010Prop35
280
     0
102
RTVSPost2010PropOp35
 70
     1
102
RTVSPost2010Prop36
280
     0
102
RTVSPost2010PropOp36
 70
     1
102
RTVSPost2010Prop37
 90
       50
102
RTVSPost2010PropOp37
 70
     1
102
RTVSPost2010Prop38
140
0.0
102
RTVSPost2010PropOp38
 70
     1
102
RTVSPost2010Prop39
140
1.0
102
RTVSPost2010PropOp39
 70
     1
102
RTVSPost2010Prop40
 90
        0
102
RTVSPost2010PropOp40
 70
     1
102
RTVSPost2010Prop41ColorIndex
 90
       18
102
RTVSPost2010Prop41ColorRGB
 90
        0
102
RTVSPost2010PropOp41
 70
     1
102
RTVSPost2010Prop42
 90
       50
102
RTVSPost2010PropOp42
 70
     1
102
RTVSPost2010Prop43
 90
        3
102
RTVSPost2010PropOp43
 70
     1
102
RTVSPost2010Prop44ColorIndex
 90
        5
102
RTVSPost2010Prop44ColorRGB
 90
      255
102
RTVSPost2010PropOp44
 70
     1
102
RTVSPost2010Prop45
280
     0
102
RTVSPost2010PropOp45
 70
     1
102
RTVSPost2010Prop46
 90
       50
102
RTVSPost2010PropOp46
 70
     1
102
RTVSPost2010Prop47
 90
       50
102
RTVSPost2010PropOp47
 70
     1
102
RTVSPost2010Prop48
 90
       50
102
RTVSPost2010PropOp48
 70
     1
102
RTVSPost2010Prop49
280
     0
102
RTVSPost2010PropOp49
 70
     1
102
RTVSPost2010Prop50
 90
       50
102
RTVSPost2010PropOp50
 70
     1
102
RTVSPost2010Prop51ColorIndex
 90
      256
102
RTVSPost2010Prop51ColorRGB
 90
-16777216
102
RTVSPost2010PropOp51
 70
     0
102
RTVSPost2010Prop52
140
1.0
102
RTVSPost2010PropOp52
 70
     0
102
RTVSPost2010Prop53
 90
        2
102
RTVSPost2010PropOp53
 70
     1
102
RTVSPost2010Prop54
  1
strokes_ogs.tif
102
RTVSPost2010PropOp54
 70
     1
102
RTVSPost2010Prop55
280
     0
102
RTVSPost2010PropOp55
 70
     1
102
RTVSPost2010Prop56
140
1.0
102
RTVSPost2010PropOp56
 70
     1
102
RTVSPost2010Prop57
140
1.0
102
RTVSPost2010PropOp57
 70
     1
  0
ENDSEC
  0
EOF
