  0
SECTION
  2
HEADER
  9
$ACADVER
  1
AC1024
  9
$ACADMAINTVER
 70
   226
  9
$DWGCODEPAGE
  3
ANSI_932
  9
$INSBASE
 10
0.0
 20
0.0
 30
0.0
  9
$EXTMIN
 10
1.000000000000000E+20
 20
1.000000000000000E+20
 30
1.000000000000000E+20
  9
$EXTMAX
 10
-1.000000000000000E+20
 20
-1.000000000000000E+20
 30
-1.000000000000000E+20
  9
$LIMMIN
 10
0.0
 20
0.0
  9
$LIMMAX
 10
12.0
 20
9.0
  9
$ORTHOMODE
 70
     0
  9
$REGENMODE
 70
     1
  9
$FILLMODE
 70
     1
  9
$QTEXTMODE
 70
     0
  9
$MIRRTEXT
 70
     0
  9
$LTSCALE
 40
1.0
  9
$ATTMODE
 70
     1
  9
$TEXTSIZE
 40
0.2
  9
$TRACEWID
 40
0.05
  9
$TEXTSTYLE
  7
Standard
  9
$CLAYER
  8
0
  9
$CELTYPE
  6
ByLayer
  9
$CECOLOR
 62
   256
  9
$CELTSCALE
 40
1.0
  9
$DISPSILH
 70
     0
  9
$DIMSCALE
 40
1.0
  9
$DIMASZ
 40
0.18
  9
$DIMEXO
 40
0.0625
  9
$DIMDLI
 40
0.38
  9
$DIMRND
 40
0.0
  9
$DIMDLE
 40
0.0
  9
$DIMEXE
 40
0.18
  9
$DIMTP
 40
0.0
  9
$DIMTM
 40
0.0
  9
$DIMTXT
 40
0.18
  9
$DIMCEN
 40
0.09
  9
$DIMTSZ
 40
0.0
  9
$DIMTOL
 70
     0
  9
$DIMLIM
 70
     0
  9
$DIMTIH
 70
     1
  9
$DIMTOH
 70
     1
  9
$DIMSE1
 70
     0
  9
$DIMSE2
 70
     0
  9
$DIMTAD
 70
     0
  9
$DIMZIN
 70
     0
  9
$DIMBLK
  1

  9
$DIMASO
 70
     1
  9
$DIMSHO
 70
     1
  9
$DIMPOST
  1

  9
$DIMAPOST
  1

  9
$DIMALT
 70
     0
  9
$DIMALTD
 70
     2
  9
$DIMALTF
 40
25.4
  9
$DIMLFAC
 40
1.0
  9
$DIMTOFL
 70
     0
  9
$DIMTVP
 40
0.0
  9
$DIMTIX
 70
     0
  9
$DIMSOXD
 70
     0
  9
$DIMSAH
 70
     0
  9
$DIMBLK1
  1

  9
$DIMBLK2
  1

  9
$DIMSTYLE
  2
Standard
  9
$DIMCLRD
 70
     0
  9
$DIMCLRE
 70
     0
  9
$DIMCLRT
 70
     0
  9
$DIMTFAC
 40
1.0
  9
$DIMGAP
 40
0.09
  9
$DIMJUST
 70
     0
  9
$DIMSD1
 70
     0
  9
$DIMSD2
 70
     0
  9
$DIMTOLJ
 70
     1
  9
$DIMTZIN
 70
     0
  9
$DIMALTZ
 70
     0
  9
$DIMALTTZ
 70
     0
  9
$DIMUPT
 70
     0
  9
$DIMDEC
 70
     4
  9
$DIMTDEC
 70
     4
  9
$DIMALTU
 70
     2
  9
$DIMALTTD
 70
     2
  9
$DIMTXSTY
  7
Standard
  9
$DIMAUNIT
 70
     0
  9
$DIMADEC
 70
     0
  9
$DIMALTRND
 40
0.0
  9
$DIMAZIN
 70
     0
  9
$DIMDSEP
 70
    46
  9
$DIMATFIT
 70
     3
  9
$DIMFRAC
 70
     0
  9
$DIMLDRBLK
  1

  9
$DIMLUNIT
 70
     2
  9
$DIMLWD
 70
    -2
  9
$DIMLWE
 70
    -2
  9
$DIMTMOVE
 70
     0
  9
$DIMFXL
 40
1.0
  9
$DIMFXLON
 70
     0
  9
$DIMJOGANG
 40
0.7853981633974483
  9
$DIMTFILL
 70
     0
  9
$DIMTFILLCLR
 70
     0
  9
$DIMARCSYM
 70
     0
  9
$DIMLTYPE
  6

  9
$DIMLTEX1
  6

  9
$DIMLTEX2
  6

  9
$DIMTXTDIRECTION
 70
     0
  9
$LUNITS
 70
     2
  9
$LUPREC
 70
     4
  9
$SKETCHINC
 40
0.1
  9
$FILLETRAD
 40
0.0
  9
$AUNITS
 70
     0
  9
$AUPREC
 70
     0
  9
$MENU
  1
.
  9
$ELEVATION
 40
0.0
  9
$PELEVATION
 40
0.0
  9
$THICKNESS
 40
0.0
  9
$LIMCHECK
 70
     0
  9
$CHAMFERA
 40
0.0
  9
$CHAMFERB
 40
0.0
  9
$CHAMFERC
 40
0.0
  9
$CHAMFERD
 40
0.0
  9
$SKPOLY
 70
     0
  9
$TDCREATE
 40
2459569.489120370
  9
$TDUCREATE
 40
2459569.114120371
  9
$TDUPDATE
 40
2459569.489120370
  9
$TDUUPDATE
 40
2459569.114120371
  9
$TDINDWG
 40
0.0000000000
  9
$TDUSRTIMER
 40
0.0000000000
  9
$USRTIMER
 70
     1
  9
$ANGBASE
 50
0.0
  9
$ANGDIR
 70
     0
  9
$PDMODE
 70
     0
  9
$PDSIZE
 40
0.0
  9
$PLINEWID
 40
0.0
  9
$SPLFRAME
 70
     0
  9
$SPLINETYPE
 70
     6
  9
$SPLINESEGS
 70
     8
  9
$HANDSEED
  5
1A9
  9
$SURFTAB1
 70
     6
  9
$SURFTAB2
 70
     6
  9
$SURFTYPE
 70
     6
  9
$SURFU
 70
     6
  9
$SURFV
 70
     6
  9
$UCSBASE
  2

  9
$UCSNAME
  2

  9
$UCSORG
 10
0.0
 20
0.0
 30
0.0
  9
$UCSXDIR
 10
1.0
 20
0.0
 30
0.0
  9
$UCSYDIR
 10
0.0
 20
1.0
 30
0.0
  9
$UCSORTHOREF
  2

  9
$UCSORTHOVIEW
 70
     0
  9
$UCSORGTOP
 10
0.0
 20
0.0
 30
0.0
  9
$UCSORGBOTTOM
 10
0.0
 20
0.0
 30
0.0
  9
$UCSORGLEFT
 10
0.0
 20
0.0
 30
0.0
  9
$UCSORGRIGHT
 10
0.0
 20
0.0
 30
0.0
  9
$UCSORGFRONT
 10
0.0
 20
0.0
 30
0.0
  9
$UCSORGBACK
 10
0.0
 20
0.0
 30
0.0
  9
$PUCSBASE
  2

  9
$PUCSNAME
  2

  9
$PUCSORG
 10
0.0
 20
0.0
 30
0.0
  9
$PUCSXDIR
 10
1.0
 20
0.0
 30
0.0
  9
$PUCSYDIR
 10
0.0
 20
1.0
 30
0.0
  9
$PUCSORTHOREF
  2

  9
$PUCSORTHOVIEW
 70
     0
  9
$PUCSORGTOP
 10
0.0
 20
0.0
 30
0.0
  9
$PUCSORGBOTTOM
 10
0.0
 20
0.0
 30
0.0
  9
$PUCSORGLEFT
 10
0.0
 20
0.0
 30
0.0
  9
$PUCSORGRIGHT
 10
0.0
 20
0.0
 30
0.0
  9
$PUCSORGFRONT
 10
0.0
 20
0.0
 30
0.0
  9
$PUCSORGBACK
 10
0.0
 20
0.0
 30
0.0
  9
$USERI1
 70
     0
  9
$USERI2
 70
     0
  9
$USERI3
 70
     0
  9
$USERI4
 70
     0
  9
$USERI5
 70
     0
  9
$USERR1
 40
0.0
  9
$USERR2
 40
0.0
  9
$USERR3
 40
0.0
  9
$USERR4
 40
0.0
  9
$USERR5
 40
0.0
  9
$WORLDVIEW
 70
     1
  9
$SHADEDGE
 70
     3
  9
$SHADEDIF
 70
    70
  9
$TILEMODE
 70
     1
  9
$MAXACTVP
 70
    64
  9
$PINSBASE
 10
0.0
 20
0.0
 30
0.0
  9
$PLIMCHECK
 70
     0
  9
$PEXTMIN
 10
1.000000000000000E+20
 20
1.000000000000000E+20
 30
1.000000000000000E+20
  9
$PEXTMAX
 10
-1.000000000000000E+20
 20
-1.000000000000000E+20
 30
-1.000000000000000E+20
  9
$PLIMMIN
 10
0.0
 20
0.0
  9
$PLIMMAX
 10
12.0
 20
9.0
  9
$UNITMODE
 70
     0
  9
$VISRETAIN
 70
     1
  9
$PLINEGEN
 70
     0
  9
$PSLTSCALE
 70
     1
  9
$TREEDEPTH
 70
  3020
  9
$CMLSTYLE
  2
Standard
  9
$CMLJUST
 70
     0
  9
$CMLSCALE
 40
1.0
  9
$PROXYGRAPHICS
 70
     1
  9
$MEASUREMENT
 70
     0
  9
$CELWEIGHT
370
    -1
  9
$ENDCAPS
280
     0
  9
$JOINSTYLE
280
     0
  9
$LWDISPLAY
290
     1
  9
$INSUNITS
 70
     4
  9
$HYPERLINKBASE
  1

  9
$STYLESHEET
  1

  9
$XEDIT
290
     1
  9
$CEPSNTYPE
380
     0
  9
$PSTYLEMODE
290
     1
  9
$FINGERPRINTGUID
  2
{E1471BFD-05B6-9F43-B998-DD2CD1E64A33}
  9
$VERSIONGUID
  2
{C4DE5286-AAFA-ED4B-A9C8-1F36E5FF9B93}
  9
$EXTNAMES
290
     1
  9
$PSVPSCALE
 40
0.0
  9
$OLESTARTUP
290
     0
  9
$SORTENTS
280
   127
  9
$INDEXCTL
280
     0
  9
$HIDETEXT
280
     1
  9
$XCLIPFRAME
280
     2
  9
$HALOGAP
280
     0
  9
$OBSCOLOR
 70
   257
  9
$OBSLTYPE
280
     0
  9
$INTERSECTIONDISPLAY
280
     0
  9
$INTERSECTIONCOLOR
 70
   257
  9
$DIMASSOC
280
     2
  9
$PROJECTNAME
  1

  9
$CAMERADISPLAY
290
     0
  9
$LENSLENGTH
 40
50.0
  9
$CAMERAHEIGHT
 40
0.0
  9
$STEPSPERSEC
 40
2.0
  9
$STEPSIZE
 40
6.0
  9
$3DDWFPREC
 40
2.0
  9
$PSOLWIDTH
 40
0.25
  9
$PSOLHEIGHT
 40
4.0
  9
$LOFTANG1
 40
1.570796326794896
  9
$LOFTANG2
 40
1.570796326794896
  9
$LOFTMAG1
 40
0.0
  9
$LOFTMAG2
 40
0.0
  9
$LOFTPARAM
 70
     7
  9
$LOFTNORMALS
280
     1
  9
$LATITUDE
 40
37.795
  9
$LONGITUDE
 40
-122.394
  9
$NORTHDIRECTION
 40
0.0
  9
$TIMEZONE
 70
 -8000
  9
$LIGHTGLYPHDISPLAY
280
     1
  9
$TILEMODELIGHTSYNCH
280
     1
  9
$CMATERIAL
347
11
  9
$SOLIDHIST
280
     0
  9
$SHOWHIST
280
     1
  9
$DWFFRAME
280
     2
  9
$DGNFRAME
280
     0
  9
$REALWORLDSCALE
290
     1
  9
$INTERFERECOLOR
 62
     1
  9
$INTERFEREOBJVS
345
33
  9
$INTERFEREVPVS
346
30
  9
$CSHADOW
280
     0
  9
$SHADOWPLANELOCATION
 40
0.0
  0
ENDSEC
  0
SECTION
  2
CLASSES
  0
CLASS
  1
ACDBDICTIONARYWDFLT
  2
AcDbDictionaryWithDefault
  3
ObjectDBX Classes
 90
        0
 91
        1
280
     0
281
     0
  0
CLASS
  1
MATERIAL
  2
AcDbMaterial
  3
ObjectDBX Classes
 90
     1153
 91
        3
280
     0
281
     0
  0
CLASS
  1
VISUALSTYLE
  2
AcDbVisualStyle
  3
ObjectDBX Classes
 90
     4095
 91
       24
280
     0
281
     0
  0
CLASS
  1
SCALE
  2
AcDbScale
  3
ObjectDBX Classes
 90
     1153
 91
       17
280
     0
281
     0
  0
CLASS
  1
TABLESTYLE
  2
AcDbTableStyle
  3
ObjectDBX Classes
 90
     4095
 91
        1
280
     0
281
     0
  0
CLASS
  1
MLEADERSTYLE
  2
AcDbMLeaderStyle
  3
ACDB_MLEADERSTYLE_CLASS
 90
     4095
 91
        1
280
     0
281
     0
  0
CLASS
  1
ACDBSECTIONVIEWSTYLE
  2
AcDbSectionViewStyle
  3
ObjectDBX Classes
 90
     1025
 91
        1
280
     0
281
     0
  0
CLASS
  1
ACDBDETAILVIEWSTYLE
  2
AcDbDetailViewStyle
  3
ObjectDBX Classes
 90
     1025
 91
        1
280
     0
281
     0
  0
CLASS
  1
DICTIONARYVAR
  2
AcDbDictionaryVar
  3
ObjectDBX Classes
 90
        0
 91
        5
280
     0
281
     0
  0
CLASS
  1
CELLSTYLEMAP
  2
AcDbCellStyleMap
  3
ObjectDBX Classes
 90
     1152
 91
        1
280
     0
281
     0
  0
ENDSEC
  0
SECTION
  2
TABLES
  0
TABLE
  2
VPORT
  5
8
330
0
100
AcDbSymbolTable
 70
     1
  0
VPORT
  5
57
330
8
100
AcDbSymbolTableRecord
100
AcDbViewportTableRecord
  2
*Active
 70
     0
 10
0.0
 20
0.0
 11
1.0
 21
1.0
 12
0.0
 22
0.0
 13
0.0
 23
0.0
 14
1.0
 24
1.0
 15
0.0
 25
0.0
 16
0.0
 26
0.0
 36
1.0
 17
104.9999999737534
 27
-148.4999999628701
 37
0.0
 40
302.939999924255
 41
0.7070707070707534
 42
50.0
 43
0.0
 44
0.0
 50
0.0
 51
0.0
 71
     0
 72
   100
 73
     1
 74
     0
 75
     1
 76
     0
 77
     0
 78
     0
281
     0
 65
     1
110
0.0
120
0.0
130
0.0
111
1.0
121
0.0
131
0.0
112
0.0
122
1.0
132
0.0
 79
     0
146
0.0
 60
     3
 61
     5
292
     1
282
     1
141
0.0
142
0.0
 63
   250
421
  3355443
  0
ENDTAB
  0
TABLE
  2
LTYPE
  5
5
330
0
100
AcDbSymbolTable
 70
     2
  0
LTYPE
  5
5B
330
5
100
AcDbSymbolTableRecord
100
AcDbLinetypeTableRecord
  2
ByBlock
 70
     0
  3

 72
    65
 73
     0
 40
0.0
  0
LTYPE
  5
5C
330
5
100
AcDbSymbolTableRecord
100
AcDbLinetypeTableRecord
  2
ByLayer
 70
     0
  3

 72
    65
 73
     0
 40
0.0
  0
LTYPE
  5
5D
330
5
100
AcDbSymbolTableRecord
100
AcDbLinetypeTableRecord
  2
Continuous
 70
     0
  3
Solid line
 72
    65
 73
     0
 40
0.0
  0
LTYPE
  5
A5
330
5
100
AcDbSymbolTableRecord
100
AcDbLinetypeTableRecord
  2
AI-Linetype-0
 70
     0
  3
Adobe Illustrator Linetype No. 0
 72
    65
 73
     2
 40
1.411111110758333
 49
0.7055555553791667
 74
     0
 49
-0.7055555553791667
 74
     0
  0
ENDTAB
  0
TABLE
  2
LAYER
  5
2
330
0
100
AcDbSymbolTable
 70
     2
  0
LAYER
  5
54
330
2
100
AcDbSymbolTableRecord
100
AcDbLayerTableRecord
  2
0
 70
     0
 62
     7
  6
Continuous
370
    -3
390
F
347
21
  0
LAYER
  5
78
330
2
100
AcDbSymbolTableRecord
100
AcDbLayerTableRecord
  2
レイヤー 1
 70
     0
 62
     7
  6
Continuous
370
     0
390
F
347
21
  0
ENDTAB
  0
TABLE
  2
STYLE
  5
3
330
0
100
AcDbSymbolTable
 70
     2
  0
STYLE
  5
55
330
3
100
AcDbSymbolTableRecord
100
AcDbTextStyleTableRecord
  2
Standard
 70
     0
 40
0.0
 41
1.0
 50
0.0
 71
     0
 42
0.2
  3
txt
  4

  0
STYLE
  5
5A
330
3
100
AcDbSymbolTableRecord
100
AcDbTextStyleTableRecord
  2
Annotative
 70
     0
 40
0.0
 41
1.0
 50
0.0
 71
     0
 42
0.2
  3
txt
  4

1001
AcadAnnotative
1000
AnnotativeData
1002
{
1070
     1
1070
     1
1002
}
  0
ENDTAB
  0
TABLE
  2
VIEW
  5
6
330
0
100
AcDbSymbolTable
 70
     0
  0
ENDTAB
  0
TABLE
  2
UCS
  5
7
330
0
100
AcDbSymbolTable
 70
     0
  0
ENDTAB
  0
TABLE
  2
APPID
  5
9
330
0
100
AcDbSymbolTable
 70
     2
  0
APPID
  5
56
330
9
100
AcDbSymbolTableRecord
100
AcDbRegAppTableRecord
  2
ACAD
 70
     0
  0
APPID
  5
5E
330
9
100
AcDbSymbolTableRecord
100
AcDbRegAppTableRecord
  2
AcadAnnotative
 70
     0
  0
ENDTAB
  0
TABLE
  2
DIMSTYLE
  5
A
330
0
100
AcDbSymbolTable
 70
     2
100
AcDbDimStyleTable
 71
     0
  0
DIMSTYLE
105
58
330
A
100
AcDbSymbolTableRecord
100
AcDbDimStyleTableRecord
  2
Standard
 70
     0
340
55
  0
DIMSTYLE
105
59
330
A
100
AcDbSymbolTableRecord
100
AcDbDimStyleTableRecord
  2
Annotative
 70
     0
340
55
1001
AcadAnnotative
1000
AnnotativeData
1002
{
1070
     1
1070
     1
1002
}
  0
ENDTAB
  0
TABLE
  2
BLOCK_RECORD
  5
1
330
0
100
AcDbSymbolTable
 70
    16
  0
BLOCK_RECORD
  5
70
330
1
100
AcDbSymbolTableRecord
100
AcDbBlockTableRecord
  2
*Model_Space
340
73
 70
     0
280
     1
281
     0
  0
BLOCK_RECORD
  5
6C
330
1
100
AcDbSymbolTableRecord
100
AcDbBlockTableRecord
  2
*Paper_Space
340
6F
 70
     0
280
     1
281
     0
  0
BLOCK_RECORD
  5
74
330
1
100
AcDbSymbolTableRecord
100
AcDbBlockTableRecord
  2
*Paper_Space0
340
77
 70
     0
280
     1
281
     0
  0
BLOCK_RECORD
  5
79
330
1
100
AcDbSymbolTableRecord
100
AcDbBlockTableRecord
  2
Block_0
340
0
102
{BLKREFS
331
7A
102
}
 70
     0
280
     1
281
     0
  0
BLOCK_RECORD
  5
7D
330
1
100
AcDbSymbolTableRecord
100
AcDbBlockTableRecord
  2
Block_1
340
0
102
{BLKREFS
331
7E
102
}
 70
     0
280
     1
281
     0
  0
BLOCK_RECORD
  5
81
330
1
100
AcDbSymbolTableRecord
100
AcDbBlockTableRecord
  2
Block_2
340
0
102
{BLKREFS
331
82
102
}
 70
     0
280
     1
281
     0
  0
BLOCK_RECORD
  5
A6
330
1
100
AcDbSymbolTableRecord
100
AcDbBlockTableRecord
  2
Block_3
340
0
102
{BLKREFS
331
A7
102
}
 70
     0
280
     1
281
     0
  0
BLOCK_RECORD
  5
111
330
1
100
AcDbSymbolTableRecord
100
AcDbBlockTableRecord
  2
Block_4
340
0
102
{BLKREFS
331
112
102
}
 70
     0
280
     1
281
     0
  0
BLOCK_RECORD
  5
115
330
1
100
AcDbSymbolTableRecord
100
AcDbBlockTableRecord
  2
Block_5
340
0
102
{BLKREFS
331
116
102
}
 70
     0
280
     1
281
     0
  0
BLOCK_RECORD
  5
122
330
1
100
AcDbSymbolTableRecord
100
AcDbBlockTableRecord
  2
Block_6
340
0
102
{BLKREFS
331
123
102
}
 70
     0
280
     1
281
     0
  0
BLOCK_RECORD
  5
126
330
1
100
AcDbSymbolTableRecord
100
AcDbBlockTableRecord
  2
Block_7
340
0
102
{BLKREFS
331
127
102
}
 70
     0
280
     1
281
     0
  0
BLOCK_RECORD
  5
130
330
1
100
AcDbSymbolTableRecord
100
AcDbBlockTableRecord
  2
Block_8
340
0
102
{BLKREFS
331
131
102
}
 70
     0
280
     1
281
     0
  0
BLOCK_RECORD
  5
13A
330
1
100
AcDbSymbolTableRecord
100
AcDbBlockTableRecord
  2
Block_9
340
0
102
{BLKREFS
331
13B
102
}
 70
     0
280
     1
281
     0
  0
BLOCK_RECORD
  5
13E
330
1
100
AcDbSymbolTableRecord
100
AcDbBlockTableRecord
  2
Block_10
340
0
102
{BLKREFS
331
13F
102
}
 70
     0
280
     1
281
     0
  0
BLOCK_RECORD
  5
149
330
1
100
AcDbSymbolTableRecord
100
AcDbBlockTableRecord
  2
Block_11
340
0
102
{BLKREFS
331
14A
102
}
 70
     0
280
     1
281
     0
  0
BLOCK_RECORD
  5
151
330
1
100
AcDbSymbolTableRecord
100
AcDbBlockTableRecord
  2
Block_12
340
0
102
{BLKREFS
331
152
102
}
 70
     0
280
     1
281
     0
  0
BLOCK_RECORD
  5
15E
330
1
100
AcDbSymbolTableRecord
100
AcDbBlockTableRecord
  2
Block_13
340
0
102
{BLKREFS
331
15F
102
}
 70
     0
280
     1
281
     0
  0
BLOCK_RECORD
  5
162
330
1
100
AcDbSymbolTableRecord
100
AcDbBlockTableRecord
  2
Block_14
340
0
102
{BLKREFS
331
163
102
}
 70
     0
280
     1
281
     0
  0
ENDTAB
  0
ENDSEC
  0
SECTION
  2
BLOCKS
  0
BLOCK
  5
71
330
70
100
AcDbEntity
  8
0
100
AcDbBlockBegin
  2
*Model_Space
 70
     0
 10
0.0
 20
0.0
 30
0.0
  3
*Model_Space
  1

  0
ENDBLK
  5
72
330
70
100
AcDbEntity
  8
0
100
AcDbBlockEnd
  0
BLOCK
  5
6D
330
6C
100
AcDbEntity
 67
     1
  8
0
100
AcDbBlockBegin
  2
*Paper_Space
 70
     0
 10
0.0
 20
0.0
 30
0.0
  3
*Paper_Space
  1

  0
ENDBLK
  5
6E
330
6C
100
AcDbEntity
 67
     1
  8
0
100
AcDbBlockEnd
  0
BLOCK
  5
75
330
74
100
AcDbEntity
 67
     1
  8
0
100
AcDbBlockBegin
  2
*Paper_Space0
 70
     0
 10
0.0
 20
0.0
 30
0.0
  3
*Paper_Space0
  1

  0
ENDBLK
  5
76
330
74
100
AcDbEntity
 67
     1
  8
0
100
AcDbBlockEnd
  0
BLOCK
  5
7B
330
79
100
AcDbEntity
  8
0
100
AcDbBlockBegin
  2
Block_0
 70
     0
 10
0.0
 20
0.0
 30
0.0
  3
Block_0
  1

  0
INSERT
  5
7E
330
79
100
AcDbEntity
  8
レイヤー 1
100
AcDbBlockReference
  2
Block_1
 10
0.0
 20
0.0
 30
0.0
  0
LWPOLYLINE
  5
A3
330
79
100
AcDbEntity
  8
レイヤー 1
 62
   250
420
  2299925
370
     9
100
AcDbPolyline
 90
        3
 70
     0
 43
0.0
 10
117.8996748893253
 20
-144.3569693664156
 10
124.0732858429344
 20
-152.4705054754986
 10
134.7151800158815
 20
-152.4705054754986
  0
LWPOLYLINE
  5
A4
330
79
100
AcDbEntity
  8
レイヤー 1
  6
AI-Linetype-0
 62
   154
420
    23468
370
    25
100
AcDbPolyline
 90
        6
 70
     0
 43
0.0
 10
80.15268146096419
 20
-144.827222144076
 10
101.7899531311736
 20
-144.004191588726
 10
101.7899531311736
 20
-152.3533832533055
 10
109.785786235254
 20
-152.3533832533055
 10
109.785786235254
 20
-143.945277699852
 10
131.3052301306917
 20
-144.827222144076
  0
INSERT
  5
A7
330
79
100
AcDbEntity
  8
レイヤー 1
100
AcDbBlockReference
  2
Block_3
 10
0.0
 20
0.0
 30
0.0
  0
ENDBLK
  5
7C
330
79
100
AcDbEntity
  8
0
100
AcDbBlockEnd
  0
BLOCK
  5
7F
330
7D
100
AcDbEntity
  8
0
100
AcDbBlockBegin
  2
Block_1
 70
     0
 10
0.0
 20
0.0
 30
0.0
  3
Block_1
  1

  0
INSERT
  5
82
330
7D
100
AcDbEntity
  8
レイヤー 1
100
AcDbBlockReference
  2
Block_2
 10
0.0
 20
0.0
 30
0.0
  0
ENDBLK
  5
80
330
7D
100
AcDbEntity
  8
0
100
AcDbBlockEnd
  0
BLOCK
  5
83
330
81
100
AcDbEntity
  8
0
100
AcDbBlockBegin
  2
Block_2
 70
     0
 10
0.0
 20
0.0
 30
0.0
  3
Block_2
  1

  0
SPLINE
  5
85
330
81
100
AcDbEntity
  8
レイヤー 1
100
AcDbSpline
210
0.0
220
0.0
230
1.0
 70
     9
 71
     3
 72
    59
 73
    55
 74
     0
 42
0.0000000001
 43
0.0000000001
 40
0.0
 40
0.0
 40
0.0
 40
0.0
 40
1.0
 40
1.0
 40
1.0
 40
2.0
 40
2.0
 40
2.0
 40
3.0
 40
3.0
 40
3.0
 40
4.0
 40
4.0
 40
4.0
 40
5.0
 40
5.0
 40
5.0
 40
6.0
 40
6.0
 40
6.0
 40
7.0
 40
7.0
 40
7.0
 40
8.0
 40
8.0
 40
8.0
 40
9.0
 40
9.0
 40
9.0
 40
10.0
 40
10.0
 40
10.0
 40
11.0
 40
11.0
 40
11.0
 40
12.0
 40
12.0
 40
12.0
 40
13.0
 40
13.0
 40
13.0
 40
14.0
 40
14.0
 40
14.0
 40
15.0
 40
15.0
 40
15.0
 40
16.0
 40
16.0
 40
16.0
 40
17.0
 40
17.0
 40
17.0
 40
18.0
 40
18.0
 40
18.0
 40
18.0
 10
125.4324815224613
 20
-148.087946197787
 30
0.0
 10
125.2864094738867
 20
-148.5745659350786
 30
0.0
 10
125.0679904201219
 20
-149.097186920191
 30
0.0
 10
124.5436468872668
 20
-149.4144802143825
 30
0.0
 10
124.5436468872668
 20
-149.4144802143825
 30
0.0
 10
124.3789713230719
 20
-149.2622069939344
 30
0.0
 10
124.3789713230719
 20
-149.2622069939344
 30
0.0
 10
124.5198757284186
 20
-149.1922715555839
 30
0.0
 10
124.7345051771497
 20
-149.0823730096044
 30
0.0
 10
124.9549912882057
 20
-148.7521606073432
 30
0.0
 10
125.1623860364177
 20
-148.4391736825083
 30
0.0
 10
125.2123399209538
 20
-148.1832030879542
 30
0.0
 10
125.2364555893506
 20
-148.0562513193227
 30
0.0
 10
125.2364555893506
 20
-148.0562513193227
 30
0.0
 10
124.669737382027
 20
-148.0562513193227
 30
0.0
 10
124.669737382027
 20
-148.0562513193227
 30
0.0
 10
124.5791313707649
 20
-148.2169650237096
 30
0.0
 10
124.4733669393678
 20
-148.3840521547442
 30
0.0
 10
124.304901770139
 20
-148.5554456551354
 30
0.0
 10
124.304901770139
 20
-148.5554456551354
 30
0.0
 10
124.1529730592395
 20
-148.4328002558605
 30
0.0
 10
124.1529730592395
 20
-148.4328002558605
 30
0.0
 10
124.2049940010668
 20
-148.3862914668097
 30
0.0
 10
124.3345295913122
 20
-148.2741536087648
 30
0.0
 10
124.4788790921441
 20
-148.0245564408584
 30
0.0
 10
124.545713944558
 20
-147.9060451561658
 30
0.0
 10
124.6363199558201
 20
-147.7367187130658
 30
0.0
 10
124.6587130764742
 20
-147.6140733137909
 30
0.0
 10
124.6587130764742
 20
-147.6140733137909
 30
0.0
 10
124.8605956719098
 20
-147.7155313758315
 30
0.0
 10
124.8605956719098
 20
-147.7155313758315
 30
0.0
 10
124.8733425252053
 20
-147.7219048024792
 30
0.0
 10
124.8864338880492
 20
-147.7303452864181
 30
0.0
 10
124.8864338880492
 20
-147.7451591970047
 30
0.0
 10
124.8864338880492
 20
-147.766346534239
 30
0.0
 10
124.8640407673951
 20
-147.7790933875344
 30
0.0
 10
124.8568060668761
 20
-147.7811604448255
 30
0.0
 10
124.8326903984793
 20
-147.7896009287644
 30
0.0
 10
124.8254556979603
 20
-147.7875338714732
 30
0.0
 10
124.8030625773062
 20
-147.8128553232898
 30
0.0
 10
124.780669456652
 20
-147.8383490298807
 30
0.0
 10
124.7827365139432
 20
-147.8467895138195
 30
0.0
 10
124.7548312405127
 20
-147.8996717295181
 30
0.0
 10
124.7548312405127
 20
-147.8996717295181
 30
0.0
 10
125.0473198472104
 20
-147.8996717295181
 30
0.0
 10
125.0473198472104
 20
-147.8996717295181
 30
0.0
 10
125.2715955633001
 20
-147.8996717295181
 30
0.0
 10
125.2995008367307
 20
-147.8869248762227
 30
0.0
 10
125.3494547212668
 20
-147.8572970550495
 30
0.0
 10
125.3494547212668
 20
-147.8572970550495
 30
0.0
 10
125.4862250120312
 20
-148.022317128793
 30
0.0
 10
125.4862250120312
 20
-148.022317128793
 30
0.0
 10
125.4565971908581
 20
-148.0583183766139
 30
0.0
 10
125.4548746431154
 20
-148.060385433905
 30
0.0
 10
125.4324815224613
 20
-148.087946197787
 30
0.0
  0
HATCH
  5
86
330
81
100
AcDbEntity
  8
レイヤー 1
 62
   250
420
  2299925
440
 33554687
100
AcDbHatch
 10
0.0
 20
0.0
 30
0.0
210
0.0
220
0.0
230
1.0
  2
SOLID
 70
     1
 71
     1
 91
        1
 92
        1
 93
        1
 72
     4
 94
        3
 73
     0
 74
     0
 95
       59
 96
       55
 40
0.0
 40
0.0
 40
0.0
 40
0.0
 40
1.0
 40
1.0
 40
1.0
 40
2.0
 40
2.0
 40
2.0
 40
3.0
 40
3.0
 40
3.0
 40
4.0
 40
4.0
 40
4.0
 40
5.0
 40
5.0
 40
5.0
 40
6.0
 40
6.0
 40
6.0
 40
7.0
 40
7.0
 40
7.0
 40
8.0
 40
8.0
 40
8.0
 40
9.0
 40
9.0
 40
9.0
 40
10.0
 40
10.0
 40
10.0
 40
11.0
 40
11.0
 40
11.0
 40
12.0
 40
12.0
 40
12.0
 40
13.0
 40
13.0
 40
13.0
 40
14.0
 40
14.0
 40
14.0
 40
15.0
 40
15.0
 40
15.0
 40
16.0
 40
16.0
 40
16.0
 40
17.0
 40
17.0
 40
17.0
 40
18.0
 40
18.0
 40
18.0
 40
18.0
 10
125.4324815224613
 20
-148.087946197787
 10
125.2864094738867
 20
-148.5745659350786
 10
125.0679904201219
 20
-149.097186920191
 10
124.5436468872668
 20
-149.4144802143825
 10
124.5436468872668
 20
-149.4144802143825
 10
124.3789713230719
 20
-149.2622069939344
 10
124.3789713230719
 20
-149.2622069939344
 10
124.5198757284186
 20
-149.1922715555839
 10
124.7345051771497
 20
-149.0823730096044
 10
124.9549912882057
 20
-148.7521606073432
 10
125.1623860364177
 20
-148.4391736825083
 10
125.2123399209538
 20
-148.1832030879542
 10
125.2364555893506
 20
-148.0562513193227
 10
125.2364555893506
 20
-148.0562513193227
 10
124.669737382027
 20
-148.0562513193227
 10
124.669737382027
 20
-148.0562513193227
 10
124.5791313707649
 20
-148.2169650237096
 10
124.4733669393678
 20
-148.3840521547442
 10
124.304901770139
 20
-148.5554456551354
 10
124.304901770139
 20
-148.5554456551354
 10
124.1529730592395
 20
-148.4328002558605
 10
124.1529730592395
 20
-148.4328002558605
 10
124.2049940010668
 20
-148.3862914668097
 10
124.3345295913122
 20
-148.2741536087648
 10
124.4788790921441
 20
-148.0245564408584
 10
124.545713944558
 20
-147.9060451561658
 10
124.6363199558201
 20
-147.7367187130658
 10
124.6587130764742
 20
-147.6140733137909
 10
124.6587130764742
 20
-147.6140733137909
 10
124.8605956719098
 20
-147.7155313758315
 10
124.8605956719098
 20
-147.7155313758315
 10
124.8733425252053
 20
-147.7219048024792
 10
124.8864338880492
 20
-147.7303452864181
 10
124.8864338880492
 20
-147.7451591970047
 10
124.8864338880492
 20
-147.766346534239
 10
124.8640407673951
 20
-147.7790933875344
 10
124.8568060668761
 20
-147.7811604448255
 10
124.8326903984793
 20
-147.7896009287644
 10
124.8254556979603
 20
-147.7875338714732
 10
124.8030625773062
 20
-147.8128553232898
 10
124.780669456652
 20
-147.8383490298807
 10
124.7827365139432
 20
-147.8467895138195
 10
124.7548312405127
 20
-147.8996717295181
 10
124.7548312405127
 20
-147.8996717295181
 10
125.0473198472104
 20
-147.8996717295181
 10
125.0473198472104
 20
-147.8996717295181
 10
125.2715955633001
 20
-147.8996717295181
 10
125.2995008367307
 20
-147.8869248762227
 10
125.3494547212668
 20
-147.8572970550495
 10
125.3494547212668
 20
-147.8572970550495
 10
125.4862250120312
 20
-148.022317128793
 10
125.4862250120312
 20
-148.022317128793
 10
125.4565971908581
 20
-148.0583183766139
 10
125.4548746431154
 20
-148.060385433905
 10
125.4324815224613
 20
-148.087946197787
 97
        0
 97
        1
330
85
 75
     2
 76
     1
 98
        1
 10
0.0
 20
0.0
450
        0
451
        0
460
0.0
461
0.0
452
        0
462
0.0
453
        0
470

  0
SPLINE
  5
87
330
81
100
AcDbEntity
  8
レイヤー 1
100
AcDbSpline
210
0.0
220
0.0
230
1.0
 70
    11
 71
     3
 72
    17
 73
    13
 74
     0
 42
0.0000000001
 43
0.0000000001
 40
0.0
 40
0.0
 40
0.0
 40
0.0
 40
1.0
 40
1.0
 40
1.0
 40
2.0
 40
2.0
 40
2.0
 40
3.0
 40
3.0
 40
3.0
 40
4.0
 40
4.0
 40
4.0
 40
4.0
 10
126.8714979066502
 20
-147.9969956769764
 30
0.0
 10
126.8714979066502
 20
-147.9969956769764
 30
0.0
 10
125.9602701508016
 20
-147.9969956769764
 30
0.0
 10
125.9602701508016
 20
-147.9969956769764
 30
0.0
 10
125.9602701508016
 20
-147.9969956769764
 30
0.0
 10
125.9602701508016
 20
-148.8856580573966
 30
0.0
 10
125.9602701508016
 20
-148.8856580573966
 30
0.0
 10
125.9602701508016
 20
-148.8856580573966
 30
0.0
 10
126.8714979066502
 20
-148.8856580573966
 30
0.0
 10
126.8714979066502
 20
-148.8856580573966
 30
0.0
 10
126.8714979066502
 20
-148.8856580573966
 30
0.0
 10
126.8714979066502
 20
-147.9969956769764
 30
0.0
 10
126.8714979066502
 20
-147.9969956769764
 30
0.0
  0
SPLINE
  5
88
330
81
100
AcDbEntity
  8
レイヤー 1
100
AcDbSpline
210
0.0
220
0.0
230
1.0
 70
     9
 71
     3
 72
    53
 73
    49
 74
     0
 42
0.0000000001
 43
0.0000000001
 40
0.0
 40
0.0
 40
0.0
 40
0.0
 40
1.0
 40
1.0
 40
1.0
 40
2.0
 40
2.0
 40
2.0
 40
3.0
 40
3.0
 40
3.0
 40
4.0
 40
4.0
 40
4.0
 40
5.0
 40
5.0
 40
5.0
 40
6.0
 40
6.0
 40
6.0
 40
7.0
 40
7.0
 40
7.0
 40
8.0
 40
8.0
 40
8.0
 40
9.0
 40
9.0
 40
9.0
 40
10.0
 40
10.0
 40
10.0
 40
11.0
 40
11.0
 40
11.0
 40
12.0
 40
12.0
 40
12.0
 40
13.0
 40
13.0
 40
13.0
 40
14.0
 40
14.0
 40
14.0
 40
15.0
 40
15.0
 40
15.0
 40
16.0
 40
16.0
 40
16.0
 40
16.0
 10
126.8511718432872
 20
-149.200884294297
 30
0.0
 10
126.8584065438062
 20
-149.1564425625373
 30
0.0
 10
126.8584065438062
 20
-149.1478298238241
 30
0.0
 10
126.8639186965826
 20
-149.0737602708913
 30
0.0
 10
126.8639186965826
 20
-149.0737602708913
 30
0.0
 10
125.9623372080927
 20
-149.0737602708913
 30
0.0
 10
125.9623372080927
 20
-149.0737602708913
 30
0.0
 10
125.9623372080927
 20
-149.1054551493555
 30
0.0
 10
125.9623372080927
 20
-149.1605766771196
 30
0.0
 10
125.965782303578
 20
-149.1964056701661
 30
0.0
 10
125.965782303578
 20
-149.1964056701661
 30
0.0
 10
125.7549424598807
 20
-149.1964056701661
 30
0.0
 10
125.7549424598807
 20
-149.1964056701661
 30
0.0
 10
125.7604546126571
 20
-149.1416286519507
 30
0.0
 10
125.7697563704673
 20
-149.0506781311401
 30
0.0
 10
125.7697563704673
 20
-148.9214870504432
 30
0.0
 10
125.7714789182099
 20
-148.7163316142966
 30
0.0
 10
125.7714789182099
 20
-148.6929049649969
 30
0.0
 10
125.7714789182099
 20
-148.6696505704714
 30
0.0
 10
125.7714789182099
 20
-148.6696505704714
 30
0.0
 10
125.7714789182099
 20
-148.2297118770051
 30
0.0
 10
125.7714789182099
 20
-148.2297118770051
 30
0.0
 10
125.7714789182099
 20
-148.164082808011
 30
0.0
 10
125.7659667654335
 20
-147.8404160871718
 30
0.0
 10
125.7621771603997
 20
-147.7854668141821
 30
0.0
 10
125.8713866872821
 20
-147.7980414127032
 30
0.0
 10
126.1028971038909
 20
-147.8023477820598
 30
0.0
 10
126.2179632930983
 20
-147.8023477820598
 30
0.0
 10
126.2179632930983
 20
-147.8023477820598
 30
0.0
 10
126.6158718216446
 20
-147.8023477820598
 30
0.0
 10
126.6158718216446
 20
-147.8023477820598
 30
0.0
 10
126.7474744691812
 20
-147.8023477820598
 30
0.0
 10
126.9435004022919
 20
-147.8002807247687
 30
0.0
 10
127.0713134447946
 20
-147.7918402408298
 30
0.0
 10
127.0640787442756
 20
-147.9017387868093
 30
0.0
 10
127.0602891392418
 20
-148.1513359547156
 30
0.0
 10
127.0602891392418
 20
-148.2698472394082
 30
0.0
 10
127.0602891392418
 20
-148.2698472394082
 30
0.0
 10
127.0602891392418
 20
-148.6887708504146
 30
0.0
 10
127.0602891392418
 20
-148.6887708504146
 30
0.0
 10
127.0602891392418
 20
-148.7311455248832
 30
0.0
 10
127.0658012920182
 20
-148.9132188212786
 30
0.0
 10
127.0658012920182
 20
-148.9511148716164
 30
0.0
 10
127.0678683493094
 20
-149.1013210347733
 30
0.0
 10
127.0751030498284
 20
-149.1519639384064
 30
0.0
 10
127.082682259896
 20
-149.200884294297
 30
0.0
 10
127.082682259896
 20
-149.200884294297
 30
0.0
 10
126.8511718432872
 20
-149.200884294297
 30
0.0
 10
126.8511718432872
 20
-149.200884294297
 30
0.0
  0
HATCH
  5
89
330
81
100
AcDbEntity
  8
レイヤー 1
 62
   250
420
  2299925
440
 33554687
100
AcDbHatch
 10
0.0
 20
0.0
 30
0.0
210
0.0
220
0.0
230
1.0
  2
SOLID
 70
     1
 71
     1
 91
        2
 92
        1
 93
        1
 72
     4
 94
        3
 73
     0
 74
     0
 95
       17
 96
       13
 40
0.0
 40
0.0
 40
0.0
 40
0.0
 40
1.0
 40
1.0
 40
1.0
 40
2.0
 40
2.0
 40
2.0
 40
3.0
 40
3.0
 40
3.0
 40
4.0
 40
4.0
 40
4.0
 40
4.0
 10
126.8714979066502
 20
-147.9969956769764
 10
126.8714979066502
 20
-147.9969956769764
 10
125.9602701508016
 20
-147.9969956769764
 10
125.9602701508016
 20
-147.9969956769764
 10
125.9602701508016
 20
-147.9969956769764
 10
125.9602701508016
 20
-148.8856580573966
 10
125.9602701508016
 20
-148.8856580573966
 10
125.9602701508016
 20
-148.8856580573966
 10
126.8714979066502
 20
-148.8856580573966
 10
126.8714979066502
 20
-148.8856580573966
 10
126.8714979066502
 20
-148.8856580573966
 10
126.8714979066502
 20
-147.9969956769764
 10
126.8714979066502
 20
-147.9969956769764
 97
        0
 97
        1
330
87
 92
        1
 93
        1
 72
     4
 94
        3
 73
     0
 74
     0
 95
       53
 96
       49
 40
0.0
 40
0.0
 40
0.0
 40
0.0
 40
1.0
 40
1.0
 40
1.0
 40
2.0
 40
2.0
 40
2.0
 40
3.0
 40
3.0
 40
3.0
 40
4.0
 40
4.0
 40
4.0
 40
5.0
 40
5.0
 40
5.0
 40
6.0
 40
6.0
 40
6.0
 40
7.0
 40
7.0
 40
7.0
 40
8.0
 40
8.0
 40
8.0
 40
9.0
 40
9.0
 40
9.0
 40
10.0
 40
10.0
 40
10.0
 40
11.0
 40
11.0
 40
11.0
 40
12.0
 40
12.0
 40
12.0
 40
13.0
 40
13.0
 40
13.0
 40
14.0
 40
14.0
 40
14.0
 40
15.0
 40
15.0
 40
15.0
 40
16.0
 40
16.0
 40
16.0
 40
16.0
 10
126.8511718432872
 20
-149.200884294297
 10
126.8584065438062
 20
-149.1564425625373
 10
126.8584065438062
 20
-149.1478298238241
 10
126.8639186965826
 20
-149.0737602708913
 10
126.8639186965826
 20
-149.0737602708913
 10
125.9623372080927
 20
-149.0737602708913
 10
125.9623372080927
 20
-149.0737602708913
 10
125.9623372080927
 20
-149.1054551493555
 10
125.9623372080927
 20
-149.1605766771196
 10
125.965782303578
 20
-149.1964056701661
 10
125.965782303578
 20
-149.1964056701661
 10
125.7549424598807
 20
-149.1964056701661
 10
125.7549424598807
 20
-149.1964056701661
 10
125.7604546126571
 20
-149.1416286519507
 10
125.7697563704673
 20
-149.0506781311401
 10
125.7697563704673
 20
-148.9214870504432
 10
125.7714789182099
 20
-148.7163316142966
 10
125.7714789182099
 20
-148.6929049649969
 10
125.7714789182099
 20
-148.6696505704714
 10
125.7714789182099
 20
-148.6696505704714
 10
125.7714789182099
 20
-148.2297118770051
 10
125.7714789182099
 20
-148.2297118770051
 10
125.7714789182099
 20
-148.164082808011
 10
125.7659667654335
 20
-147.8404160871718
 10
125.7621771603997
 20
-147.7854668141821
 10
125.8713866872821
 20
-147.7980414127032
 10
126.1028971038909
 20
-147.8023477820598
 10
126.2179632930983
 20
-147.8023477820598
 10
126.2179632930983
 20
-147.8023477820598
 10
126.6158718216446
 20
-147.8023477820598
 10
126.6158718216446
 20
-147.8023477820598
 10
126.7474744691812
 20
-147.8023477820598
 10
126.9435004022919
 20
-147.8002807247687
 10
127.0713134447946
 20
-147.7918402408298
 10
127.0640787442756
 20
-147.9017387868093
 10
127.0602891392418
 20
-148.1513359547156
 10
127.0602891392418
 20
-148.2698472394082
 10
127.0602891392418
 20
-148.2698472394082
 10
127.0602891392418
 20
-148.6887708504146
 10
127.0602891392418
 20
-148.6887708504146
 10
127.0602891392418
 20
-148.7311455248832
 10
127.0658012920182
 20
-148.9132188212786
 10
127.0658012920182
 20
-148.9511148716164
 10
127.0678683493094
 20
-149.1013210347733
 10
127.0751030498284
 20
-149.1519639384064
 10
127.082682259896
 20
-149.200884294297
 10
127.082682259896
 20
-149.200884294297
 10
126.8511718432872
 20
-149.200884294297
 10
126.8511718432872
 20
-149.200884294297
 97
        0
 97
        1
330
88
 75
     2
 76
     1
 98
        1
 10
0.0
 20
0.0
450
        0
451
        0
460
0.0
461
0.0
452
        0
462
0.0
453
        0
470

  0
SPLINE
  5
8A
330
81
100
AcDbEntity
  8
レイヤー 1
100
AcDbSpline
210
0.0
220
0.0
230
1.0
 70
     9
 71
     3
 72
    56
 73
    52
 74
     0
 42
0.0000000001
 43
0.0000000001
 40
0.0
 40
0.0
 40
0.0
 40
0.0
 40
1.0
 40
1.0
 40
1.0
 40
2.0
 40
2.0
 40
2.0
 40
3.0
 40
3.0
 40
3.0
 40
4.0
 40
4.0
 40
4.0
 40
5.0
 40
5.0
 40
5.0
 40
6.0
 40
6.0
 40
6.0
 40
7.0
 40
7.0
 40
7.0
 40
8.0
 40
8.0
 40
8.0
 40
9.0
 40
9.0
 40
9.0
 40
10.0
 40
10.0
 40
10.0
 40
11.0
 40
11.0
 40
11.0
 40
12.0
 40
12.0
 40
12.0
 40
13.0
 40
13.0
 40
13.0
 40
14.0
 40
14.0
 40
14.0
 40
15.0
 40
15.0
 40
15.0
 40
16.0
 40
16.0
 40
16.0
 40
17.0
 40
17.0
 40
17.0
 40
17.0
 10
128.6123046553469
 20
-149.2663411085167
 30
0.0
 10
128.4438394861182
 20
-148.9576605530384
 30
0.0
 10
128.2181857318343
 20
-148.7521606073432
 30
0.0
 10
128.1382595165765
 20
-148.6867037931234
 30
0.0
 10
127.8809108838284
 20
-149.0251844245492
 30
0.0
 10
127.627351856114
 20
-149.1774576449973
 30
0.0
 10
127.4533745341089
 20
-149.270475223099
 30
0.0
 10
127.4533745341089
 20
-149.270475223099
 30
0.0
 10
127.3141926765048
 20
-149.0823730096044
 30
0.0
 10
127.3141926765048
 20
-149.0823730096044
 30
0.0
 10
127.4051431973154
 20
-149.0461995070092
 30
0.0
 10
127.5922118821644
 20
-148.9700628967852
 30
0.0
 10
127.7958170253427
 20
-148.7840277405818
 30
0.0
 10
128.0273274419515
 20
-148.5723266230131
 30
0.0
 10
128.1902804584038
 20
-148.2846611499948
 30
0.0
 10
128.2977674375436
 20
-147.9716742251598
 30
0.0
 10
128.2977674375436
 20
-147.9716742251598
 30
0.0
 10
127.9680717996052
 20
-147.9716742251598
 30
0.0
 10
127.9680717996052
 20
-147.9716742251598
 30
0.0
 10
127.834746604326
 20
-147.9716742251598
 30
0.0
 10
127.6514675245107
 20
-147.9758083397421
 30
0.0
 10
127.5198648769742
 20
-147.9949286196853
 30
0.0
 10
127.5198648769742
 20
-147.9949286196853
 30
0.0
 10
127.5198648769742
 20
-147.7833997568909
 30
0.0
 10
127.5198648769742
 20
-147.7833997568909
 30
0.0
 10
127.5791205193205
 20
-147.7896009287644
 30
0.0
 10
127.8068413308955
 20
-147.8002807247687
 30
0.0
 10
127.8829779411195
 20
-147.8002807247687
 30
0.0
 10
127.8829779411195
 20
-147.8002807247687
 30
0.0
 10
128.1551404844543
 20
-147.8002807247687
 30
0.0
 10
128.1551404844543
 20
-147.8002807247687
 30
0.0
 10
128.3366970165269
 20
-147.8002807247687
 30
0.0
 10
128.3570230798899
 20
-147.793907298121
 30
0.0
 10
128.3773491432529
 20
-147.7896009287644
 30
0.0
 10
128.4162787222362
 20
-147.7833997568909
 30
0.0
 10
128.4493516388946
 20
-147.7579060503001
 30
0.0
 10
128.4679551545149
 20
-147.7410250824224
 30
0.0
 10
128.4679551545149
 20
-147.7410250824224
 30
0.0
 10
128.6050699548279
 20
-147.9144856401047
 30
0.0
 10
128.6050699548279
 20
-147.9144856401047
 30
0.0
 10
128.5699299808783
 20
-147.9420464039867
 30
0.0
 10
128.558561165777
 20
-147.9525539452167
 30
0.0
 10
128.5161864913084
 20
-147.9885551930376
 30
0.0
 10
128.4031873593922
 20
-148.2360853036528
 30
0.0
 10
128.3329074114932
 20
-148.3862914668097
 30
0.0
 10
128.2419568906825
 20
-148.53219126061
 30
0.0
 10
128.5161864913084
 20
-148.750093550052
 30
0.0
 10
128.7160020294529
 20
-149.0358642205535
 30
0.0
 10
128.7625108185038
 20
-149.1140678880687
 30
0.0
 10
128.7625108185038
 20
-149.1140678880687
 30
0.0
 10
128.6123046553469
 20
-149.2663411085167
 30
0.0
 10
128.6123046553469
 20
-149.2663411085167
 30
0.0
  0
HATCH
  5
8B
330
81
100
AcDbEntity
  8
レイヤー 1
 62
   250
420
  2299925
440
 33554687
100
AcDbHatch
 10
0.0
 20
0.0
 30
0.0
210
0.0
220
0.0
230
1.0
  2
SOLID
 70
     1
 71
     1
 91
        1
 92
        1
 93
        1
 72
     4
 94
        3
 73
     0
 74
     0
 95
       56
 96
       52
 40
0.0
 40
0.0
 40
0.0
 40
0.0
 40
1.0
 40
1.0
 40
1.0
 40
2.0
 40
2.0
 40
2.0
 40
3.0
 40
3.0
 40
3.0
 40
4.0
 40
4.0
 40
4.0
 40
5.0
 40
5.0
 40
5.0
 40
6.0
 40
6.0
 40
6.0
 40
7.0
 40
7.0
 40
7.0
 40
8.0
 40
8.0
 40
8.0
 40
9.0
 40
9.0
 40
9.0
 40
10.0
 40
10.0
 40
10.0
 40
11.0
 40
11.0
 40
11.0
 40
12.0
 40
12.0
 40
12.0
 40
13.0
 40
13.0
 40
13.0
 40
14.0
 40
14.0
 40
14.0
 40
15.0
 40
15.0
 40
15.0
 40
16.0
 40
16.0
 40
16.0
 40
17.0
 40
17.0
 40
17.0
 40
17.0
 10
128.6123046553469
 20
-149.2663411085167
 10
128.4438394861182
 20
-148.9576605530384
 10
128.2181857318343
 20
-148.7521606073432
 10
128.1382595165765
 20
-148.6867037931234
 10
127.8809108838284
 20
-149.0251844245492
 10
127.627351856114
 20
-149.1774576449973
 10
127.4533745341089
 20
-149.270475223099
 10
127.4533745341089
 20
-149.270475223099
 10
127.3141926765048
 20
-149.0823730096044
 10
127.3141926765048
 20
-149.0823730096044
 10
127.4051431973154
 20
-149.0461995070092
 10
127.5922118821644
 20
-148.9700628967852
 10
127.7958170253427
 20
-148.7840277405818
 10
128.0273274419515
 20
-148.5723266230131
 10
128.1902804584038
 20
-148.2846611499948
 10
128.2977674375436
 20
-147.9716742251598
 10
128.2977674375436
 20
-147.9716742251598
 10
127.9680717996052
 20
-147.9716742251598
 10
127.9680717996052
 20
-147.9716742251598
 10
127.834746604326
 20
-147.9716742251598
 10
127.6514675245107
 20
-147.9758083397421
 10
127.5198648769742
 20
-147.9949286196853
 10
127.5198648769742
 20
-147.9949286196853
 10
127.5198648769742
 20
-147.7833997568909
 10
127.5198648769742
 20
-147.7833997568909
 10
127.5791205193205
 20
-147.7896009287644
 10
127.8068413308955
 20
-147.8002807247687
 10
127.8829779411195
 20
-147.8002807247687
 10
127.8829779411195
 20
-147.8002807247687
 10
128.1551404844543
 20
-147.8002807247687
 10
128.1551404844543
 20
-147.8002807247687
 10
128.3366970165269
 20
-147.8002807247687
 10
128.3570230798899
 20
-147.793907298121
 10
128.3773491432529
 20
-147.7896009287644
 10
128.4162787222362
 20
-147.7833997568909
 10
128.4493516388946
 20
-147.7579060503001
 10
128.4679551545149
 20
-147.7410250824224
 10
128.4679551545149
 20
-147.7410250824224
 10
128.6050699548279
 20
-147.9144856401047
 10
128.6050699548279
 20
-147.9144856401047
 10
128.5699299808783
 20
-147.9420464039867
 10
128.558561165777
 20
-147.9525539452167
 10
128.5161864913084
 20
-147.9885551930376
 10
128.4031873593922
 20
-148.2360853036528
 10
128.3329074114932
 20
-148.3862914668097
 10
128.2419568906825
 20
-148.53219126061
 10
128.5161864913084
 20
-148.750093550052
 10
128.7160020294529
 20
-149.0358642205535
 10
128.7625108185038
 20
-149.1140678880687
 10
128.7625108185038
 20
-149.1140678880687
 10
128.6123046553469
 20
-149.2663411085167
 10
128.6123046553469
 20
-149.2663411085167
 97
        0
 97
        1
330
8A
 75
     2
 76
     1
 98
        1
 10
0.0
 20
0.0
450
        0
451
        0
460
0.0
461
0.0
452
        0
462
0.0
453
        0
470

  0
SPLINE
  5
8C
330
81
100
AcDbEntity
  8
レイヤー 1
100
AcDbSpline
210
0.0
220
0.0
230
1.0
 70
    11
 71
     3
 72
    17
 73
    13
 74
     0
 42
0.0000000001
 43
0.0000000001
 40
0.0
 40
0.0
 40
0.0
 40
0.0
 40
1.0
 40
1.0
 40
1.0
 40
2.0
 40
2.0
 40
2.0
 40
3.0
 40
3.0
 40
3.0
 40
4.0
 40
4.0
 40
4.0
 40
4.0
 10
130.260782845039
 20
-148.2889675193514
 30
0.0
 10
130.260782845039
 20
-148.2889675193514
 30
0.0
 10
129.8590847114588
 20
-148.2889675193514
 30
0.0
 10
129.8590847114588
 20
-148.2889675193514
 30
0.0
 10
129.8590847114588
 20
-148.2889675193514
 30
0.0
 10
129.8590847114588
 20
-148.597820329604
 30
0.0
 10
129.8590847114588
 20
-148.597820329604
 30
0.0
 10
129.8590847114588
 20
-148.597820329604
 30
0.0
 10
130.260782845039
 20
-148.597820329604
 30
0.0
 10
130.260782845039
 20
-148.597820329604
 30
0.0
 10
130.260782845039
 20
-148.597820329604
 30
0.0
 10
130.260782845039
 20
-148.2889675193514
 30
0.0
 10
130.260782845039
 20
-148.2889675193514
 30
0.0
  0
SPLINE
  5
8D
330
81
100
AcDbEntity
  8
レイヤー 1
100
AcDbSpline
210
0.0
220
0.0
230
1.0
 70
    11
 71
     3
 72
    17
 73
    13
 74
     0
 42
0.0000000001
 43
0.0000000001
 40
0.0
 40
0.0
 40
0.0
 40
0.0
 40
1.0
 40
1.0
 40
1.0
 40
2.0
 40
2.0
 40
2.0
 40
3.0
 40
3.0
 40
3.0
 40
4.0
 40
4.0
 40
4.0
 40
4.0
 10
130.260782845039
 20
-147.8171616926464
 30
0.0
 10
130.260782845039
 20
-147.8171616926464
 30
0.0
 10
129.8590847114588
 20
-147.8171616926464
 30
0.0
 10
129.8590847114588
 20
-147.8171616926464
 30
0.0
 10
129.8590847114588
 20
-147.8171616926464
 30
0.0
 10
129.8590847114588
 20
-148.1217081335425
 30
0.0
 10
129.8590847114588
 20
-148.1217081335425
 30
0.0
 10
129.8590847114588
 20
-148.1217081335425
 30
0.0
 10
130.260782845039
 20
-148.1217081335425
 30
0.0
 10
130.260782845039
 20
-148.1217081335425
 30
0.0
 10
130.260782845039
 20
-148.1217081335425
 30
0.0
 10
130.260782845039
 20
-147.8171616926464
 30
0.0
 10
130.260782845039
 20
-147.8171616926464
 30
0.0
  0
SPLINE
  5
8E
330
81
100
AcDbEntity
  8
レイヤー 1
100
AcDbSpline
210
0.0
220
0.0
230
1.0
 70
    11
 71
     3
 72
    17
 73
    13
 74
     0
 42
0.0000000001
 43
0.0000000001
 40
0.0
 40
0.0
 40
0.0
 40
0.0
 40
1.0
 40
1.0
 40
1.0
 40
2.0
 40
2.0
 40
2.0
 40
3.0
 40
3.0
 40
3.0
 40
4.0
 40
4.0
 40
4.0
 40
4.0
 10
129.6923420899727
 20
-148.2889675193514
 30
0.0
 10
129.6923420899727
 20
-148.2889675193514
 30
0.0
 10
129.3089029624644
 20
-148.2889675193514
 30
0.0
 10
129.3089029624644
 20
-148.2889675193514
 30
0.0
 10
129.3089029624644
 20
-148.2889675193514
 30
0.0
 10
129.3089029624644
 20
-148.597820329604
 30
0.0
 10
129.3089029624644
 20
-148.597820329604
 30
0.0
 10
129.3089029624644
 20
-148.597820329604
 30
0.0
 10
129.6923420899727
 20
-148.597820329604
 30
0.0
 10
129.6923420899727
 20
-148.597820329604
 30
0.0
 10
129.6923420899727
 20
-148.597820329604
 30
0.0
 10
129.6923420899727
 20
-148.2889675193514
 30
0.0
 10
129.6923420899727
 20
-148.2889675193514
 30
0.0
  0
SPLINE
  5
8F
330
81
100
AcDbEntity
  8
レイヤー 1
100
AcDbSpline
210
0.0
220
0.0
230
1.0
 70
    11
 71
     3
 72
    17
 73
    13
 74
     0
 42
0.0000000001
 43
0.0000000001
 40
0.0
 40
0.0
 40
0.0
 40
0.0
 40
1.0
 40
1.0
 40
1.0
 40
2.0
 40
2.0
 40
2.0
 40
3.0
 40
3.0
 40
3.0
 40
4.0
 40
4.0
 40
4.0
 40
4.0
 10
129.6923420899727
 20
-147.8171616926464
 30
0.0
 10
129.6923420899727
 20
-147.8171616926464
 30
0.0
 10
129.3089029624644
 20
-147.8171616926464
 30
0.0
 10
129.3089029624644
 20
-147.8171616926464
 30
0.0
 10
129.3089029624644
 20
-147.8171616926464
 30
0.0
 10
129.3089029624644
 20
-148.1217081335425
 30
0.0
 10
129.3089029624644
 20
-148.1217081335425
 30
0.0
 10
129.3089029624644
 20
-148.1217081335425
 30
0.0
 10
129.6923420899727
 20
-148.1217081335425
 30
0.0
 10
129.6923420899727
 20
-148.1217081335425
 30
0.0
 10
129.6923420899727
 20
-148.1217081335425
 30
0.0
 10
129.6923420899727
 20
-147.8171616926464
 30
0.0
 10
129.6923420899727
 20
-147.8171616926464
 30
0.0
  0
SPLINE
  5
90
330
81
100
AcDbEntity
  8
レイヤー 1
100
AcDbSpline
210
0.0
220
0.0
230
1.0
 70
     9
 71
     3
 72
    77
 73
    73
 74
     0
 42
0.0000000001
 43
0.0000000001
 40
0.0
 40
0.0
 40
0.0
 40
0.0
 40
1.0
 40
1.0
 40
1.0
 40
2.0
 40
2.0
 40
2.0
 40
3.0
 40
3.0
 40
3.0
 40
4.0
 40
4.0
 40
4.0
 40
5.0
 40
5.0
 40
5.0
 40
6.0
 40
6.0
 40
6.0
 40
7.0
 40
7.0
 40
7.0
 40
8.0
 40
8.0
 40
8.0
 40
9.0
 40
9.0
 40
9.0
 40
10.0
 40
10.0
 40
10.0
 40
11.0
 40
11.0
 40
11.0
 40
12.0
 40
12.0
 40
12.0
 40
13.0
 40
13.0
 40
13.0
 40
14.0
 40
14.0
 40
14.0
 40
15.0
 40
15.0
 40
15.0
 40
16.0
 40
16.0
 40
16.0
 40
17.0
 40
17.0
 40
17.0
 40
18.0
 40
18.0
 40
18.0
 40
19.0
 40
19.0
 40
19.0
 40
20.0
 40
20.0
 40
20.0
 40
21.0
 40
21.0
 40
21.0
 40
22.0
 40
22.0
 40
22.0
 40
23.0
 40
23.0
 40
23.0
 40
24.0
 40
24.0
 40
24.0
 40
24.0
 10
130.3792941297315
 20
-149.4038004183782
 30
0.0
 10
130.3386420030056
 20
-149.429294124969
 30
0.0
 10
130.2294324761232
 20
-149.4420409782645
 30
0.0
 10
130.1608750759667
 20
-149.4420409782645
 30
0.0
 10
130.1495062608654
 20
-149.4420409782645
 30
0.0
 10
130.1274576497598
 20
-149.4420409782645
 30
0.0
 10
130.0978298285866
 20
-149.4375623541336
 30
0.0
 10
130.0978298285866
 20
-149.4375623541336
 30
0.0
 10
130.012735970101
 20
-149.2112195807527
 30
0.0
 10
130.012735970101
 20
-149.2112195807527
 30
0.0
 10
130.0385741862403
 20
-149.2177652621747
 30
0.0
 10
130.0885280707765
 20
-149.2260334913393
 30
0.0
 10
130.1905028971399
 20
-149.2260334913393
 30
0.0
 10
130.2590602972963
 20
-149.2260334913393
 30
0.0
 10
130.260782845039
 20
-149.1840033264193
 30
0.0
 10
130.260782845039
 20
-149.1268147413641
 30
0.0
 10
130.260782845039
 20
-149.1268147413641
 30
0.0
 10
130.260782845039
 20
-148.7776543139341
 30
0.0
 10
130.260782845039
 20
-148.7776543139341
 30
0.0
 10
130.260782845039
 20
-148.7776543139341
 30
0.0
 10
129.8590847114588
 20
-148.7776543139341
 30
0.0
 10
129.8590847114588
 20
-148.7776543139341
 30
0.0
 10
129.8608072592014
 20
-148.9152858785698
 30
0.0
 10
129.8625298069441
 20
-149.1140678880687
 30
0.0
 10
129.868386469269
 20
-149.2473930833478
 30
0.0
 10
129.8701090170116
 20
-149.2749538472299
 30
0.0
 10
129.8701090170116
 20
-149.3193955789896
 30
0.0
 10
129.8811333225644
 20
-149.380718278627
 30
0.0
 10
129.8811333225644
 20
-149.380718278627
 30
0.0
 10
129.6699489693186
 20
-149.380718278627
 30
0.0
 10
129.6699489693186
 20
-149.380718278627
 30
0.0
 10
129.6923420899727
 20
-149.2556613125124
 30
0.0
 10
129.6923420899727
 20
-148.9152858785698
 30
0.0
 10
129.6923420899727
 20
-148.7776543139341
 30
0.0
 10
129.6923420899727
 20
-148.7776543139341
 30
0.0
 10
129.3054578669792
 20
-148.7776543139341
 30
0.0
 10
129.3054578669792
 20
-148.7776543139341
 30
0.0
 10
129.2847872940677
 20
-148.9848768073718
 30
0.0
 10
129.2275987090125
 20
-149.2535942552213
 30
0.0
 10
129.05534393475
 20
-149.4375623541336
 30
0.0
 10
129.05534393475
 20
-149.4375623541336
 30
0.0
 10
128.8906683705551
 20
-149.3149169548587
 30
0.0
 10
128.8906683705551
 20
-149.3149169548587
 30
0.0
 10
129.1125325198052
 20
-149.0951198628998
 30
0.0
 10
129.1404377932357
 20
-148.7628404033475
 30
0.0
 10
129.1404377932357
 20
-148.4307331985694
 30
0.0
 10
129.1404377932357
 20
-148.4307331985694
 30
0.0
 10
129.1404377932357
 20
-147.9949286196853
 30
0.0
 10
129.1404377932357
 20
-147.9949286196853
 30
0.0
 10
129.1404377932357
 20
-147.9589273718644
 30
0.0
 10
129.1387152454931
 20
-147.7262111718358
 30
0.0
 10
129.1311360354255
 20
-147.6245808550209
 30
0.0
 10
129.2534369251519
 20
-147.6352606510252
 30
0.0
 10
129.4646212783977
 20
-147.6352606510252
 30
0.0
 10
129.5903672636093
 20
-147.6352606510252
 30
0.0
 10
129.5903672636093
 20
-147.6352606510252
 30
0.0
 10
129.992409906738
 20
-147.6352606510252
 30
0.0
 10
129.992409906738
 20
-147.6352606510252
 30
0.0
 10
130.0051567600334
 20
-147.6352606510252
 30
0.0
 10
130.3107367295751
 20
-147.6352606510252
 30
0.0
 10
130.4495740776306
 20
-147.6245808550209
 30
0.0
 10
130.447851529888
 20
-147.6774630707195
 30
0.0
 10
130.4423393771116
 20
-147.8383490298807
 30
0.0
 10
130.4423393771116
 20
-147.8891641882881
 30
0.0
 10
130.4423393771116
 20
-147.8891641882881
 30
0.0
 10
130.4423393771116
 20
-148.4961900127891
 30
0.0
 10
130.4423393771116
 20
-148.4961900127891
 30
0.0
 10
130.4423393771116
 20
-148.5153102927323
 30
0.0
 10
130.4516411349218
 20
-149.0865071241867
 30
0.0
 10
130.4516411349218
 20
-149.1988172370058
 30
0.0
 10
130.4516411349218
 20
-149.2556613125124
 30
0.0
 10
130.4516411349218
 20
-149.3572916293273
 30
0.0
 10
130.3792941297315
 20
-149.4038004183782
 30
0.0
  0
HATCH
  5
91
330
81
100
AcDbEntity
  8
レイヤー 1
 62
   250
420
  2299925
440
 33554687
100
AcDbHatch
 10
0.0
 20
0.0
 30
0.0
210
0.0
220
0.0
230
1.0
  2
SOLID
 70
     1
 71
     1
 91
        5
 92
        1
 93
        1
 72
     4
 94
        3
 73
     0
 74
     0
 95
       17
 96
       13
 40
0.0
 40
0.0
 40
0.0
 40
0.0
 40
1.0
 40
1.0
 40
1.0
 40
2.0
 40
2.0
 40
2.0
 40
3.0
 40
3.0
 40
3.0
 40
4.0
 40
4.0
 40
4.0
 40
4.0
 10
130.260782845039
 20
-148.2889675193514
 10
130.260782845039
 20
-148.2889675193514
 10
129.8590847114588
 20
-148.2889675193514
 10
129.8590847114588
 20
-148.2889675193514
 10
129.8590847114588
 20
-148.2889675193514
 10
129.8590847114588
 20
-148.597820329604
 10
129.8590847114588
 20
-148.597820329604
 10
129.8590847114588
 20
-148.597820329604
 10
130.260782845039
 20
-148.597820329604
 10
130.260782845039
 20
-148.597820329604
 10
130.260782845039
 20
-148.597820329604
 10
130.260782845039
 20
-148.2889675193514
 10
130.260782845039
 20
-148.2889675193514
 97
        0
 97
        1
330
8C
 92
        1
 93
        1
 72
     4
 94
        3
 73
     0
 74
     0
 95
       17
 96
       13
 40
0.0
 40
0.0
 40
0.0
 40
0.0
 40
1.0
 40
1.0
 40
1.0
 40
2.0
 40
2.0
 40
2.0
 40
3.0
 40
3.0
 40
3.0
 40
4.0
 40
4.0
 40
4.0
 40
4.0
 10
130.260782845039
 20
-147.8171616926464
 10
130.260782845039
 20
-147.8171616926464
 10
129.8590847114588
 20
-147.8171616926464
 10
129.8590847114588
 20
-147.8171616926464
 10
129.8590847114588
 20
-147.8171616926464
 10
129.8590847114588
 20
-148.1217081335425
 10
129.8590847114588
 20
-148.1217081335425
 10
129.8590847114588
 20
-148.1217081335425
 10
130.260782845039
 20
-148.1217081335425
 10
130.260782845039
 20
-148.1217081335425
 10
130.260782845039
 20
-148.1217081335425
 10
130.260782845039
 20
-147.8171616926464
 10
130.260782845039
 20
-147.8171616926464
 97
        0
 97
        1
330
8D
 92
        1
 93
        1
 72
     4
 94
        3
 73
     0
 74
     0
 95
       17
 96
       13
 40
0.0
 40
0.0
 40
0.0
 40
0.0
 40
1.0
 40
1.0
 40
1.0
 40
2.0
 40
2.0
 40
2.0
 40
3.0
 40
3.0
 40
3.0
 40
4.0
 40
4.0
 40
4.0
 40
4.0
 10
129.6923420899727
 20
-148.2889675193514
 10
129.6923420899727
 20
-148.2889675193514
 10
129.3089029624644
 20
-148.2889675193514
 10
129.3089029624644
 20
-148.2889675193514
 10
129.3089029624644
 20
-148.2889675193514
 10
129.3089029624644
 20
-148.597820329604
 10
129.3089029624644
 20
-148.597820329604
 10
129.3089029624644
 20
-148.597820329604
 10
129.6923420899727
 20
-148.597820329604
 10
129.6923420899727
 20
-148.597820329604
 10
129.6923420899727
 20
-148.597820329604
 10
129.6923420899727
 20
-148.2889675193514
 10
129.6923420899727
 20
-148.2889675193514
 97
        0
 97
        1
330
8E
 92
        1
 93
        1
 72
     4
 94
        3
 73
     0
 74
     0
 95
       17
 96
       13
 40
0.0
 40
0.0
 40
0.0
 40
0.0
 40
1.0
 40
1.0
 40
1.0
 40
2.0
 40
2.0
 40
2.0
 40
3.0
 40
3.0
 40
3.0
 40
4.0
 40
4.0
 40
4.0
 40
4.0
 10
129.6923420899727
 20
-147.8171616926464
 10
129.6923420899727
 20
-147.8171616926464
 10
129.3089029624644
 20
-147.8171616926464
 10
129.3089029624644
 20
-147.8171616926464
 10
129.3089029624644
 20
-147.8171616926464
 10
129.3089029624644
 20
-148.1217081335425
 10
129.3089029624644
 20
-148.1217081335425
 10
129.3089029624644
 20
-148.1217081335425
 10
129.6923420899727
 20
-148.1217081335425
 10
129.6923420899727
 20
-148.1217081335425
 10
129.6923420899727
 20
-148.1217081335425
 10
129.6923420899727
 20
-147.8171616926464
 10
129.6923420899727
 20
-147.8171616926464
 97
        0
 97
        1
330
8F
 92
        1
 93
        1
 72
     4
 94
        3
 73
     0
 74
     0
 95
       77
 96
       73
 40
0.0
 40
0.0
 40
0.0
 40
0.0
 40
1.0
 40
1.0
 40
1.0
 40
2.0
 40
2.0
 40
2.0
 40
3.0
 40
3.0
 40
3.0
 40
4.0
 40
4.0
 40
4.0
 40
5.0
 40
5.0
 40
5.0
 40
6.0
 40
6.0
 40
6.0
 40
7.0
 40
7.0
 40
7.0
 40
8.0
 40
8.0
 40
8.0
 40
9.0
 40
9.0
 40
9.0
 40
10.0
 40
10.0
 40
10.0
 40
11.0
 40
11.0
 40
11.0
 40
12.0
 40
12.0
 40
12.0
 40
13.0
 40
13.0
 40
13.0
 40
14.0
 40
14.0
 40
14.0
 40
15.0
 40
15.0
 40
15.0
 40
16.0
 40
16.0
 40
16.0
 40
17.0
 40
17.0
 40
17.0
 40
18.0
 40
18.0
 40
18.0
 40
19.0
 40
19.0
 40
19.0
 40
20.0
 40
20.0
 40
20.0
 40
21.0
 40
21.0
 40
21.0
 40
22.0
 40
22.0
 40
22.0
 40
23.0
 40
23.0
 40
23.0
 40
24.0
 40
24.0
 40
24.0
 40
24.0
 10
130.3792941297315
 20
-149.4038004183782
 10
130.3386420030056
 20
-149.429294124969
 10
130.2294324761232
 20
-149.4420409782645
 10
130.1608750759667
 20
-149.4420409782645
 10
130.1495062608654
 20
-149.4420409782645
 10
130.1274576497598
 20
-149.4420409782645
 10
130.0978298285866
 20
-149.4375623541336
 10
130.0978298285866
 20
-149.4375623541336
 10
130.012735970101
 20
-149.2112195807527
 10
130.012735970101
 20
-149.2112195807527
 10
130.0385741862403
 20
-149.2177652621747
 10
130.0885280707765
 20
-149.2260334913393
 10
130.1905028971399
 20
-149.2260334913393
 10
130.2590602972963
 20
-149.2260334913393
 10
130.260782845039
 20
-149.1840033264193
 10
130.260782845039
 20
-149.1268147413641
 10
130.260782845039
 20
-149.1268147413641
 10
130.260782845039
 20
-148.7776543139341
 10
130.260782845039
 20
-148.7776543139341
 10
130.260782845039
 20
-148.7776543139341
 10
129.8590847114588
 20
-148.7776543139341
 10
129.8590847114588
 20
-148.7776543139341
 10
129.8608072592014
 20
-148.9152858785698
 10
129.8625298069441
 20
-149.1140678880687
 10
129.868386469269
 20
-149.2473930833478
 10
129.8701090170116
 20
-149.2749538472299
 10
129.8701090170116
 20
-149.3193955789896
 10
129.8811333225644
 20
-149.380718278627
 10
129.8811333225644
 20
-149.380718278627
 10
129.6699489693186
 20
-149.380718278627
 10
129.6699489693186
 20
-149.380718278627
 10
129.6923420899727
 20
-149.2556613125124
 10
129.6923420899727
 20
-148.9152858785698
 10
129.6923420899727
 20
-148.7776543139341
 10
129.6923420899727
 20
-148.7776543139341
 10
129.3054578669792
 20
-148.7776543139341
 10
129.3054578669792
 20
-148.7776543139341
 10
129.2847872940677
 20
-148.9848768073718
 10
129.2275987090125
 20
-149.2535942552213
 10
129.05534393475
 20
-149.4375623541336
 10
129.05534393475
 20
-149.4375623541336
 10
128.8906683705551
 20
-149.3149169548587
 10
128.8906683705551
 20
-149.3149169548587
 10
129.1125325198052
 20
-149.0951198628998
 10
129.1404377932357
 20
-148.7628404033475
 10
129.1404377932357
 20
-148.4307331985694
 10
129.1404377932357
 20
-148.4307331985694
 10
129.1404377932357
 20
-147.9949286196853
 10
129.1404377932357
 20
-147.9949286196853
 10
129.1404377932357
 20
-147.9589273718644
 10
129.1387152454931
 20
-147.7262111718358
 10
129.1311360354255
 20
-147.6245808550209
 10
129.2534369251519
 20
-147.6352606510252
 10
129.4646212783977
 20
-147.6352606510252
 10
129.5903672636093
 20
-147.6352606510252
 10
129.5903672636093
 20
-147.6352606510252
 10
129.992409906738
 20
-147.6352606510252
 10
129.992409906738
 20
-147.6352606510252
 10
130.0051567600334
 20
-147.6352606510252
 10
130.3107367295751
 20
-147.6352606510252
 10
130.4495740776306
 20
-147.6245808550209
 10
130.447851529888
 20
-147.6774630707195
 10
130.4423393771116
 20
-147.8383490298807
 10
130.4423393771116
 20
-147.8891641882881
 10
130.4423393771116
 20
-147.8891641882881
 10
130.4423393771116
 20
-148.4961900127891
 10
130.4423393771116
 20
-148.4961900127891
 10
130.4423393771116
 20
-148.5153102927323
 10
130.4516411349218
 20
-149.0865071241867
 10
130.4516411349218
 20
-149.1988172370058
 10
130.4516411349218
 20
-149.2556613125124
 10
130.4516411349218
 20
-149.3572916293273
 10
130.3792941297315
 20
-149.4038004183782
 97
        0
 97
        1
330
90
 75
     2
 76
     1
 98
        1
 10
0.0
 20
0.0
450
        0
451
        0
460
0.0
461
0.0
452
        0
462
0.0
453
        0
470

  0
SPLINE
  5
92
330
81
100
AcDbEntity
  8
レイヤー 1
100
AcDbSpline
210
0.0
220
0.0
230
1.0
 70
     9
 71
     3
 72
    17
 73
    13
 74
     0
 42
0.0000000001
 43
0.0000000001
 40
0.0
 40
0.0
 40
0.0
 40
0.0
 40
1.0
 40
1.0
 40
1.0
 40
2.0
 40
2.0
 40
2.0
 40
3.0
 40
3.0
 40
3.0
 40
4.0
 40
4.0
 40
4.0
 40
4.0
 10
125.6012912012385
 20
-150.1648220110699
 30
0.0
 10
125.553059864445
 20
-150.1648220110699
 30
0.0
 10
125.5141302854617
 20
-150.2092637428296
 30
0.0
 10
125.5141302854617
 20
-150.2643852705936
 30
0.0
 10
125.5141302854617
 20
-150.3212293461002
 30
0.0
 10
125.553059864445
 20
-150.3701497019908
 30
0.0
 10
125.6050808062723
 20
-150.3701497019908
 30
0.0
 10
125.6567572385511
 20
-150.3701497019908
 30
0.0
 10
125.6918972125006
 20
-150.3191622888091
 30
0.0
 10
125.6918972125006
 20
-150.2664523278848
 30
0.0
 10
125.6918972125006
 20
-150.2092637428296
 30
0.0
 10
125.6512450857747
 20
-150.1648220110699
 30
0.0
 10
125.6012912012385
 20
-150.1648220110699
 30
0.0
  0
SPLINE
  5
93
330
81
100
AcDbEntity
  8
レイヤー 1
100
AcDbSpline
210
0.0
220
0.0
230
1.0
 70
     9
 71
     3
 72
    17
 73
    13
 74
     0
 42
0.0000000001
 43
0.0000000001
 40
0.0
 40
0.0
 40
0.0
 40
0.0
 40
1.0
 40
1.0
 40
1.0
 40
2.0
 40
2.0
 40
2.0
 40
3.0
 40
3.0
 40
3.0
 40
4.0
 40
4.0
 40
4.0
 40
4.0
 10
125.6030137489812
 20
-150.4948621585568
 30
0.0
 10
125.4920816743561
 20
-150.4948621585568
 30
0.0
 10
125.4031982108367
 20
-150.3932318417419
 30
0.0
 10
125.4031982108367
 20
-150.2664523278848
 30
0.0
 10
125.4031982108367
 20
-150.139328304479
 30
0.0
 10
125.4920816743561
 20
-150.035630930373
 30
0.0
 10
125.6030137489812
 20
-150.035630930373
 30
0.0
 10
125.7142903331547
 20
-150.035630930373
 30
0.0
 10
125.8048963444168
 20
-150.139328304479
 30
0.0
 10
125.8048963444168
 20
-150.2664523278848
 30
0.0
 10
125.8048963444168
 20
-150.3932318417419
 30
0.0
 10
125.7142903331547
 20
-150.4948621585568
 30
0.0
 10
125.6030137489812
 20
-150.4948621585568
 30
0.0
  0
SPLINE
  5
94
330
81
100
AcDbEntity
  8
レイヤー 1
100
AcDbSpline
210
0.0
220
0.0
230
1.0
 70
     9
 71
     3
 72
    44
 73
    40
 74
     0
 42
0.0000000001
 43
0.0000000001
 40
0.0
 40
0.0
 40
0.0
 40
0.0
 40
1.0
 40
1.0
 40
1.0
 40
2.0
 40
2.0
 40
2.0
 40
3.0
 40
3.0
 40
3.0
 40
4.0
 40
4.0
 40
4.0
 40
5.0
 40
5.0
 40
5.0
 40
6.0
 40
6.0
 40
6.0
 40
7.0
 40
7.0
 40
7.0
 40
8.0
 40
8.0
 40
8.0
 40
9.0
 40
9.0
 40
9.0
 40
10.0
 40
10.0
 40
10.0
 40
11.0
 40
11.0
 40
11.0
 40
12.0
 40
12.0
 40
12.0
 40
13.0
 40
13.0
 40
13.0
 40
13.0
 10
125.4197346691659
 20
-150.6936441680557
 30
0.0
 10
125.3215494478363
 20
-151.0619248754289
 30
0.0
 10
125.2771077160765
 20
-151.2203992677504
 30
0.0
 10
125.1048529418141
 20
-151.4701686904311
 30
0.0
 10
124.9439669826529
 20
-151.7006455783943
 30
0.0
 10
124.7365722344408
 20
-151.8866807345977
 30
0.0
 10
124.4919704549881
 20
-151.980042822248
 30
0.0
 10
124.4919704549881
 20
-151.980042822248
 30
0.0
 10
124.3235052857594
 20
-151.800208837918
 30
0.0
 10
124.3235052857594
 20
-151.800208837918
 30
0.0
 10
124.8847113403066
 20
-151.6479356174699
 30
0.0
 10
125.1734103419705
 20
-151.0915526966021
 30
0.0
 10
125.2292208888316
 20
-150.6512694935872
 30
0.0
 10
125.2292208888316
 20
-150.6512694935872
 30
0.0
 10
124.5588053074019
 20
-150.6512694935872
 30
0.0
 10
124.5588053074019
 20
-150.6512694935872
 30
0.0
 10
124.4771565444015
 20
-150.6512694935872
 30
0.0
 10
124.3162705852404
 20
-150.655748117718
 30
0.0
 10
124.1791557849274
 20
-150.6746961428869
 30
0.0
 10
124.1791557849274
 20
-150.6746961428869
 30
0.0
 10
124.1791557849274
 20
-150.4545545413794
 30
0.0
 10
124.1791557849274
 20
-150.4545545413794
 30
0.0
 10
124.2549478856029
 20
-150.4759141333879
 30
0.0
 10
124.4754339966589
 20
-150.4759141333879
 30
0.0
 10
124.5622504028872
 20
-150.4759141333879
 30
0.0
 10
124.5622504028872
 20
-150.4759141333879
 30
0.0
 10
124.9401773776191
 20
-150.4759141333879
 30
0.0
 10
124.9401773776191
 20
-150.4759141333879
 30
0.0
 10
124.9770398993113
 20
-150.4759141333879
 30
0.0
 10
125.1827120997807
 20
-150.4735025665483
 30
0.0
 10
125.2161295259876
 20
-150.4673013946748
 30
0.0
 10
125.2529920476798
 20
-150.4611002228014
 30
0.0
 10
125.2550591049709
 20
-150.4590331655102
 30
0.0
 10
125.3088025945408
 20
-150.4187255483328
 30
0.0
 10
125.3088025945408
 20
-150.4187255483328
 30
0.0
 10
125.4734781587358
 20
-150.573065826072
 30
0.0
 10
125.4734781587358
 20
-150.573065826072
 30
0.0
 10
125.4476399425964
 20
-150.6026936472451
 30
0.0
 10
125.4345485797524
 20
-150.6343885257094
 30
0.0
 10
125.4197346691659
 20
-150.6936441680557
 30
0.0
  0
HATCH
  5
95
330
81
100
AcDbEntity
  8
レイヤー 1
 62
   250
420
  2299925
440
 33554687
100
AcDbHatch
 10
0.0
 20
0.0
 30
0.0
210
0.0
220
0.0
230
1.0
  2
SOLID
 70
     1
 71
     1
 91
        3
 92
        1
 93
        1
 72
     4
 94
        3
 73
     0
 74
     0
 95
       17
 96
       13
 40
0.0
 40
0.0
 40
0.0
 40
0.0
 40
1.0
 40
1.0
 40
1.0
 40
2.0
 40
2.0
 40
2.0
 40
3.0
 40
3.0
 40
3.0
 40
4.0
 40
4.0
 40
4.0
 40
4.0
 10
125.6012912012385
 20
-150.1648220110699
 10
125.553059864445
 20
-150.1648220110699
 10
125.5141302854617
 20
-150.2092637428296
 10
125.5141302854617
 20
-150.2643852705936
 10
125.5141302854617
 20
-150.3212293461002
 10
125.553059864445
 20
-150.3701497019908
 10
125.6050808062723
 20
-150.3701497019908
 10
125.6567572385511
 20
-150.3701497019908
 10
125.6918972125006
 20
-150.3191622888091
 10
125.6918972125006
 20
-150.2664523278848
 10
125.6918972125006
 20
-150.2092637428296
 10
125.6512450857747
 20
-150.1648220110699
 10
125.6012912012385
 20
-150.1648220110699
 97
        0
 97
        1
330
92
 92
        1
 93
        1
 72
     4
 94
        3
 73
     0
 74
     0
 95
       17
 96
       13
 40
0.0
 40
0.0
 40
0.0
 40
0.0
 40
1.0
 40
1.0
 40
1.0
 40
2.0
 40
2.0
 40
2.0
 40
3.0
 40
3.0
 40
3.0
 40
4.0
 40
4.0
 40
4.0
 40
4.0
 10
125.6030137489812
 20
-150.4948621585568
 10
125.4920816743561
 20
-150.4948621585568
 10
125.4031982108367
 20
-150.3932318417419
 10
125.4031982108367
 20
-150.2664523278848
 10
125.4031982108367
 20
-150.139328304479
 10
125.4920816743561
 20
-150.035630930373
 10
125.6030137489812
 20
-150.035630930373
 10
125.7142903331547
 20
-150.035630930373
 10
125.8048963444168
 20
-150.139328304479
 10
125.8048963444168
 20
-150.2664523278848
 10
125.8048963444168
 20
-150.3932318417419
 10
125.7142903331547
 20
-150.4948621585568
 10
125.6030137489812
 20
-150.4948621585568
 97
        0
 97
        1
330
93
 92
        1
 93
        1
 72
     4
 94
        3
 73
     0
 74
     0
 95
       44
 96
       40
 40
0.0
 40
0.0
 40
0.0
 40
0.0
 40
1.0
 40
1.0
 40
1.0
 40
2.0
 40
2.0
 40
2.0
 40
3.0
 40
3.0
 40
3.0
 40
4.0
 40
4.0
 40
4.0
 40
5.0
 40
5.0
 40
5.0
 40
6.0
 40
6.0
 40
6.0
 40
7.0
 40
7.0
 40
7.0
 40
8.0
 40
8.0
 40
8.0
 40
9.0
 40
9.0
 40
9.0
 40
10.0
 40
10.0
 40
10.0
 40
11.0
 40
11.0
 40
11.0
 40
12.0
 40
12.0
 40
12.0
 40
13.0
 40
13.0
 40
13.0
 40
13.0
 10
125.4197346691659
 20
-150.6936441680557
 10
125.3215494478363
 20
-151.0619248754289
 10
125.2771077160765
 20
-151.2203992677504
 10
125.1048529418141
 20
-151.4701686904311
 10
124.9439669826529
 20
-151.7006455783943
 10
124.7365722344408
 20
-151.8866807345977
 10
124.4919704549881
 20
-151.980042822248
 10
124.4919704549881
 20
-151.980042822248
 10
124.3235052857594
 20
-151.800208837918
 10
124.3235052857594
 20
-151.800208837918
 10
124.8847113403066
 20
-151.6479356174699
 10
125.1734103419705
 20
-151.0915526966021
 10
125.2292208888316
 20
-150.6512694935872
 10
125.2292208888316
 20
-150.6512694935872
 10
124.5588053074019
 20
-150.6512694935872
 10
124.5588053074019
 20
-150.6512694935872
 10
124.4771565444015
 20
-150.6512694935872
 10
124.3162705852404
 20
-150.655748117718
 10
124.1791557849274
 20
-150.6746961428869
 10
124.1791557849274
 20
-150.6746961428869
 10
124.1791557849274
 20
-150.4545545413794
 10
124.1791557849274
 20
-150.4545545413794
 10
124.2549478856029
 20
-150.4759141333879
 10
124.4754339966589
 20
-150.4759141333879
 10
124.5622504028872
 20
-150.4759141333879
 10
124.5622504028872
 20
-150.4759141333879
 10
124.9401773776191
 20
-150.4759141333879
 10
124.9401773776191
 20
-150.4759141333879
 10
124.9770398993113
 20
-150.4759141333879
 10
125.1827120997807
 20
-150.4735025665483
 10
125.2161295259876
 20
-150.4673013946748
 10
125.2529920476798
 20
-150.4611002228014
 10
125.2550591049709
 20
-150.4590331655102
 10
125.3088025945408
 20
-150.4187255483328
 10
125.3088025945408
 20
-150.4187255483328
 10
125.4734781587358
 20
-150.573065826072
 10
125.4734781587358
 20
-150.573065826072
 10
125.4476399425964
 20
-150.6026936472451
 10
125.4345485797524
 20
-150.6343885257094
 10
125.4197346691659
 20
-150.6936441680557
 97
        0
 97
        1
330
94
 75
     2
 76
     1
 98
        1
 10
0.0
 20
0.0
450
        0
451
        0
460
0.0
461
0.0
452
        0
462
0.0
453
        0
470

  0
SPLINE
  5
96
330
81
100
AcDbEntity
  8
レイヤー 1
100
AcDbSpline
210
0.0
220
0.0
230
1.0
 70
     9
 71
     3
 72
    29
 73
    25
 74
     0
 42
0.0000000001
 43
0.0000000001
 40
0.0
 40
0.0
 40
0.0
 40
0.0
 40
1.0
 40
1.0
 40
1.0
 40
2.0
 40
2.0
 40
2.0
 40
3.0
 40
3.0
 40
3.0
 40
4.0
 40
4.0
 40
4.0
 40
5.0
 40
5.0
 40
5.0
 40
6.0
 40
6.0
 40
6.0
 40
7.0
 40
7.0
 40
7.0
 40
8.0
 40
8.0
 40
8.0
 40
8.0
 10
126.7440293736959
 20
-150.3763508738642
 30
0.0
 10
126.7440293736959
 20
-150.3763508738642
 30
0.0
 10
126.4460286142218
 20
-150.3763508738642
 30
0.0
 10
126.4460286142218
 20
-150.3763508738642
 30
0.0
 10
126.3461208451496
 20
-150.3763508738642
 30
0.0
 10
126.2441460187862
 20
-150.3804849884465
 30
0.0
 10
126.1442382497139
 20
-150.3952988990331
 30
0.0
 10
126.1442382497139
 20
-150.3952988990331
 30
0.0
 10
126.1442382497139
 20
-150.1858370935299
 30
0.0
 10
126.1442382497139
 20
-150.1858370935299
 30
0.0
 10
126.2479356238199
 20
-150.2006510041165
 30
0.0
 10
126.3998643347195
 20
-150.2051296282473
 30
0.0
 10
126.4460286142218
 20
-150.2051296282473
 30
0.0
 10
126.4460286142218
 20
-150.2051296282473
 30
0.0
 10
126.7440293736959
 20
-150.2051296282473
 30
0.0
 10
126.7440293736959
 20
-150.2051296282473
 30
0.0
 10
126.8460042000593
 20
-150.2051296282473
 30
0.0
 10
126.9476345168742
 20
-150.2006510041165
 30
0.0
 10
127.0496093432376
 20
-150.1858370935299
 30
0.0
 10
127.0496093432376
 20
-150.1858370935299
 30
0.0
 10
127.0496093432376
 20
-150.3952988990331
 30
0.0
 10
127.0496093432376
 20
-150.3952988990331
 30
0.0
 10
126.9180066957011
 20
-150.3763508738642
 30
0.0
 10
126.7571207365399
 20
-150.3763508738642
 30
0.0
 10
126.7440293736959
 20
-150.3763508738642
 30
0.0
  0
SPLINE
  5
97
330
81
100
AcDbEntity
  8
レイヤー 1
100
AcDbSpline
210
0.0
220
0.0
230
1.0
 70
     9
 71
     3
 72
    50
 73
    46
 74
     0
 42
0.0000000001
 43
0.0000000001
 40
0.0
 40
0.0
 40
0.0
 40
0.0
 40
1.0
 40
1.0
 40
1.0
 40
2.0
 40
2.0
 40
2.0
 40
3.0
 40
3.0
 40
3.0
 40
4.0
 40
4.0
 40
4.0
 40
5.0
 40
5.0
 40
5.0
 40
6.0
 40
6.0
 40
6.0
 40
7.0
 40
7.0
 40
7.0
 40
8.0
 40
8.0
 40
8.0
 40
9.0
 40
9.0
 40
9.0
 40
10.0
 40
10.0
 40
10.0
 40
11.0
 40
11.0
 40
11.0
 40
12.0
 40
12.0
 40
12.0
 40
13.0
 40
13.0
 40
13.0
 40
14.0
 40
14.0
 40
14.0
 40
15.0
 40
15.0
 40
15.0
 40
15.0
 10
127.1756998379977
 20
-151.0026692330827
 30
0.0
 10
127.1071424378412
 20
-151.180091650573
 30
0.0
 10
126.9886311531487
 20
-151.3874863987851
 30
0.0
 10
126.8680528111649
 20
-151.5273572754862
 30
0.0
 10
126.7199137052992
 20
-151.6985785211031
 30
0.0
 10
126.5776312617584
 20
-151.7874619846226
 30
0.0
 10
126.2978895083561
 20
-151.9290554090663
 30
0.0
 10
126.2978895083561
 20
-151.9290554090663
 30
0.0
 10
126.1497504024903
 20
-151.7409531955717
 30
0.0
 10
126.1497504024903
 20
-151.7409531955717
 30
0.0
 10
126.3127034189426
 20
-151.717526546272
 30
0.0
 10
126.462565072551
 20
-151.6307101400437
 30
0.0
 10
126.5958902678302
 20
-151.5249457086465
 30
0.0
 10
126.8256781366963
 20
-151.3430446670253
 30
0.0
 10
126.9924207581824
 20
-151.0298854874161
 30
0.0
 10
127.034795432651
 20
-150.8479844457949
 30
0.0
 10
127.034795432651
 20
-150.8479844457949
 30
0.0
 10
126.4477511619644
 20
-150.8479844457949
 30
0.0
 10
126.4477511619644
 20
-150.8479844457949
 30
0.0
 10
126.3089138139089
 20
-150.8479844457949
 30
0.0
 10
126.0532877289033
 20
-150.856597184508
 30
0.0
 10
125.9199625336242
 20
-150.8734781523858
 30
0.0
 10
125.9199625336242
 20
-150.8734781523858
 30
0.0
 10
125.9199625336242
 20
-150.6450683217137
 30
0.0
 10
125.9199625336242
 20
-150.6450683217137
 30
0.0
 10
125.9495903547973
 20
-150.6512694935872
 30
0.0
 10
125.9719834754514
 20
-150.6578151750091
 30
0.0
 10
126.0181477549538
 20
-150.6619492895914
 30
0.0
 10
126.1070312184732
 20
-150.6681504614649
 30
0.0
 10
126.2792859927357
 20
-150.6705620283046
 30
0.0
 10
126.3533555456686
 20
-150.6705620283046
 30
0.0
 10
126.3533555456686
 20
-150.6705620283046
 30
0.0
 10
126.7960503155232
 20
-150.6705620283046
 30
0.0
 10
126.7960503155232
 20
-150.6705620283046
 30
0.0
 10
126.8553059578695
 20
-150.6705620283046
 30
0.0
 10
126.9831190003723
 20
-150.6660834041738
 30
0.0
 10
127.0365179803936
 20
-150.6598822323003
 30
0.0
 10
127.0995632277737
 20
-150.6512694935872
 30
0.0
 10
127.1236788961704
 20
-150.6364555830006
 30
0.0
 10
127.1533067173436
 20
-150.6133734432494
 30
0.0
 10
127.1533067173436
 20
-150.6133734432494
 30
0.0
 10
127.2976562181756
 20
-150.780460574284
 30
0.0
 10
127.2976562181756
 20
-150.780460574284
 30
0.0
 10
127.2366780280866
 20
-150.8479844457949
 30
0.0
 10
127.1960259013607
 20
-150.951681819901
 30
0.0
 10
127.1756998379977
 20
-151.0026692330827
 30
0.0
  0
HATCH
  5
98
330
81
100
AcDbEntity
  8
レイヤー 1
 62
   250
420
  2299925
440
 33554687
100
AcDbHatch
 10
0.0
 20
0.0
 30
0.0
210
0.0
220
0.0
230
1.0
  2
SOLID
 70
     1
 71
     1
 91
        2
 92
        1
 93
        1
 72
     4
 94
        3
 73
     0
 74
     0
 95
       29
 96
       25
 40
0.0
 40
0.0
 40
0.0
 40
0.0
 40
1.0
 40
1.0
 40
1.0
 40
2.0
 40
2.0
 40
2.0
 40
3.0
 40
3.0
 40
3.0
 40
4.0
 40
4.0
 40
4.0
 40
5.0
 40
5.0
 40
5.0
 40
6.0
 40
6.0
 40
6.0
 40
7.0
 40
7.0
 40
7.0
 40
8.0
 40
8.0
 40
8.0
 40
8.0
 10
126.7440293736959
 20
-150.3763508738642
 10
126.7440293736959
 20
-150.3763508738642
 10
126.4460286142218
 20
-150.3763508738642
 10
126.4460286142218
 20
-150.3763508738642
 10
126.3461208451496
 20
-150.3763508738642
 10
126.2441460187862
 20
-150.3804849884465
 10
126.1442382497139
 20
-150.3952988990331
 10
126.1442382497139
 20
-150.3952988990331
 10
126.1442382497139
 20
-150.1858370935299
 10
126.1442382497139
 20
-150.1858370935299
 10
126.2479356238199
 20
-150.2006510041165
 10
126.3998643347195
 20
-150.2051296282473
 10
126.4460286142218
 20
-150.2051296282473
 10
126.4460286142218
 20
-150.2051296282473
 10
126.7440293736959
 20
-150.2051296282473
 10
126.7440293736959
 20
-150.2051296282473
 10
126.8460042000593
 20
-150.2051296282473
 10
126.9476345168742
 20
-150.2006510041165
 10
127.0496093432376
 20
-150.1858370935299
 10
127.0496093432376
 20
-150.1858370935299
 10
127.0496093432376
 20
-150.3952988990331
 10
127.0496093432376
 20
-150.3952988990331
 10
126.9180066957011
 20
-150.3763508738642
 10
126.7571207365399
 20
-150.3763508738642
 10
126.7440293736959
 20
-150.3763508738642
 97
        0
 97
        1
330
96
 92
        1
 93
        1
 72
     4
 94
        3
 73
     0
 74
     0
 95
       50
 96
       46
 40
0.0
 40
0.0
 40
0.0
 40
0.0
 40
1.0
 40
1.0
 40
1.0
 40
2.0
 40
2.0
 40
2.0
 40
3.0
 40
3.0
 40
3.0
 40
4.0
 40
4.0
 40
4.0
 40
5.0
 40
5.0
 40
5.0
 40
6.0
 40
6.0
 40
6.0
 40
7.0
 40
7.0
 40
7.0
 40
8.0
 40
8.0
 40
8.0
 40
9.0
 40
9.0
 40
9.0
 40
10.0
 40
10.0
 40
10.0
 40
11.0
 40
11.0
 40
11.0
 40
12.0
 40
12.0
 40
12.0
 40
13.0
 40
13.0
 40
13.0
 40
14.0
 40
14.0
 40
14.0
 40
15.0
 40
15.0
 40
15.0
 40
15.0
 10
127.1756998379977
 20
-151.0026692330827
 10
127.1071424378412
 20
-151.180091650573
 10
126.9886311531487
 20
-151.3874863987851
 10
126.8680528111649
 20
-151.5273572754862
 10
126.7199137052992
 20
-151.6985785211031
 10
126.5776312617584
 20
-151.7874619846226
 10
126.2978895083561
 20
-151.9290554090663
 10
126.2978895083561
 20
-151.9290554090663
 10
126.1497504024903
 20
-151.7409531955717
 10
126.1497504024903
 20
-151.7409531955717
 10
126.3127034189426
 20
-151.717526546272
 10
126.462565072551
 20
-151.6307101400437
 10
126.5958902678302
 20
-151.5249457086465
 10
126.8256781366963
 20
-151.3430446670253
 10
126.9924207581824
 20
-151.0298854874161
 10
127.034795432651
 20
-150.8479844457949
 10
127.034795432651
 20
-150.8479844457949
 10
126.4477511619644
 20
-150.8479844457949
 10
126.4477511619644
 20
-150.8479844457949
 10
126.3089138139089
 20
-150.8479844457949
 10
126.0532877289033
 20
-150.856597184508
 10
125.9199625336242
 20
-150.8734781523858
 10
125.9199625336242
 20
-150.8734781523858
 10
125.9199625336242
 20
-150.6450683217137
 10
125.9199625336242
 20
-150.6450683217137
 10
125.9495903547973
 20
-150.6512694935872
 10
125.9719834754514
 20
-150.6578151750091
 10
126.0181477549538
 20
-150.6619492895914
 10
126.1070312184732
 20
-150.6681504614649
 10
126.2792859927357
 20
-150.6705620283046
 10
126.3533555456686
 20
-150.6705620283046
 10
126.3533555456686
 20
-150.6705620283046
 10
126.7960503155232
 20
-150.6705620283046
 10
126.7960503155232
 20
-150.6705620283046
 10
126.8553059578695
 20
-150.6705620283046
 10
126.9831190003723
 20
-150.6660834041738
 10
127.0365179803936
 20
-150.6598822323003
 10
127.0995632277737
 20
-150.6512694935872
 10
127.1236788961704
 20
-150.6364555830006
 10
127.1533067173436
 20
-150.6133734432494
 10
127.1533067173436
 20
-150.6133734432494
 10
127.2976562181756
 20
-150.780460574284
 10
127.2976562181756
 20
-150.780460574284
 10
127.2366780280866
 20
-150.8479844457949
 10
127.1960259013607
 20
-150.951681819901
 10
127.1756998379977
 20
-151.0026692330827
 97
        0
 97
        1
330
97
 75
     2
 76
     1
 98
        1
 10
0.0
 20
0.0
450
        0
451
        0
460
0.0
461
0.0
452
        0
462
0.0
453
        0
470

  0
SPLINE
  5
99
330
81
100
AcDbEntity
  8
レイヤー 1
100
AcDbSpline
210
0.0
220
0.0
230
1.0
 70
     9
 71
     3
 72
    50
 73
    46
 74
     0
 42
0.0000000001
 43
0.0000000001
 40
0.0
 40
0.0
 40
0.0
 40
0.0
 40
1.0
 40
1.0
 40
1.0
 40
2.0
 40
2.0
 40
2.0
 40
3.0
 40
3.0
 40
3.0
 40
4.0
 40
4.0
 40
4.0
 40
5.0
 40
5.0
 40
5.0
 40
6.0
 40
6.0
 40
6.0
 40
7.0
 40
7.0
 40
7.0
 40
8.0
 40
8.0
 40
8.0
 40
9.0
 40
9.0
 40
9.0
 40
10.0
 40
10.0
 40
10.0
 40
11.0
 40
11.0
 40
11.0
 40
12.0
 40
12.0
 40
12.0
 40
13.0
 40
13.0
 40
13.0
 40
14.0
 40
14.0
 40
14.0
 40
15.0
 40
15.0
 40
15.0
 40
15.0
 10
128.6736273549843
 20
-150.3615369632776
 30
0.0
 10
128.490348275169
 20
-150.5751328833632
 30
0.0
 10
128.4276475373375
 20
-150.6471353790049
 30
0.0
 10
128.30327959032
 20
-150.7656466636975
 30
0.0
 10
128.30327959032
 20
-150.7656466636975
 30
0.0
 10
128.30327959032
 20
-151.3327093805696
 30
0.0
 10
128.30327959032
 20
-151.3327093805696
 30
0.0
 10
128.30327959032
 20
-151.4829155437265
 30
0.0
 10
128.3091362526449
 20
-151.5018635688953
 30
0.0
 10
128.3125813481301
 20
-151.6796304959342
 30
0.0
 10
128.3146484054213
 20
-151.8105441243737
 30
0.0
 10
128.3201605581977
 20
-151.8594644802643
 30
0.0
 10
128.3256727109741
 20
-151.9187201226106
 30
0.0
 10
128.3256727109741
 20
-151.9187201226106
 30
0.0
 10
128.1275797205722
 20
-151.9187201226106
 30
0.0
 10
128.1275797205722
 20
-151.9187201226106
 30
0.0
 10
128.131369325606
 20
-151.8742783908509
 30
0.0
 10
128.1348144210913
 20
-151.8274250922514
 30
0.0
 10
128.1348144210913
 20
-151.8191568630868
 30
0.0
 10
128.1348144210913
 20
-151.7388861382805
 30
0.0
 10
128.1386040261251
 20
-151.3874863987851
 30
0.0
 10
128.1386040261251
 20
-151.3154839031433
 30
0.0
 10
128.1386040261251
 20
-151.3154839031433
 30
0.0
 10
128.1386040261251
 20
-150.9093071454324
 30
0.0
 10
128.1386040261251
 20
-150.9093071454324
 30
0.0
 10
127.9794406147065
 20
-151.0343641115469
 30
0.0
 10
127.8089083881866
 20
-151.1442626575264
 30
0.0
 10
127.6311414611478
 20
-151.2310790637547
 30
0.0
 10
127.6311414611478
 20
-151.2310790637547
 30
0.0
 10
127.4533745341089
 20
-151.0681260473024
 30
0.0
 10
127.4533745341089
 20
-151.0681260473024
 30
0.0
 10
127.5608615132487
 20
-151.0322970542558
 30
0.0
 10
127.7847927197899
 20
-150.9582275013229
 30
0.0
 10
128.0865830842978
 20
-150.7022569067689
 30
0.0
 10
128.275718826438
 20
-150.5434380048988
 30
0.0
 10
128.4441839956667
 20
-150.3553357914042
 30
0.0
 10
128.5775091909459
 20
-150.1351941898967
 30
0.0
 10
128.5775091909459
 20
-150.1351941898967
 30
0.0
 10
128.7459743601746
 20
-150.2791991811802
 30
0.0
 10
128.7459743601746
 20
-150.2791991811802
 30
0.0
 10
128.7569986657274
 20
-150.2895344676359
 30
0.0
 10
128.764577875795
 20
-150.3043483782225
 30
0.0
 10
128.764577875795
 20
-150.3170952315179
 30
0.0
 10
128.764577875795
 20
-150.3574028486954
 30
0.0
 10
128.731160449588
 20
-150.3574028486954
 30
0.0
 10
128.6736273549843
 20
-150.3615369632776
 30
0.0
  0
HATCH
  5
9A
330
81
100
AcDbEntity
  8
レイヤー 1
 62
   250
420
  2299925
440
 33554687
100
AcDbHatch
 10
0.0
 20
0.0
 30
0.0
210
0.0
220
0.0
230
1.0
  2
SOLID
 70
     1
 71
     1
 91
        1
 92
        1
 93
        1
 72
     4
 94
        3
 73
     0
 74
     0
 95
       50
 96
       46
 40
0.0
 40
0.0
 40
0.0
 40
0.0
 40
1.0
 40
1.0
 40
1.0
 40
2.0
 40
2.0
 40
2.0
 40
3.0
 40
3.0
 40
3.0
 40
4.0
 40
4.0
 40
4.0
 40
5.0
 40
5.0
 40
5.0
 40
6.0
 40
6.0
 40
6.0
 40
7.0
 40
7.0
 40
7.0
 40
8.0
 40
8.0
 40
8.0
 40
9.0
 40
9.0
 40
9.0
 40
10.0
 40
10.0
 40
10.0
 40
11.0
 40
11.0
 40
11.0
 40
12.0
 40
12.0
 40
12.0
 40
13.0
 40
13.0
 40
13.0
 40
14.0
 40
14.0
 40
14.0
 40
15.0
 40
15.0
 40
15.0
 40
15.0
 10
128.6736273549843
 20
-150.3615369632776
 10
128.490348275169
 20
-150.5751328833632
 10
128.4276475373375
 20
-150.6471353790049
 10
128.30327959032
 20
-150.7656466636975
 10
128.30327959032
 20
-150.7656466636975
 10
128.30327959032
 20
-151.3327093805696
 10
128.30327959032
 20
-151.3327093805696
 10
128.30327959032
 20
-151.4829155437265
 10
128.3091362526449
 20
-151.5018635688953
 10
128.3125813481301
 20
-151.6796304959342
 10
128.3146484054213
 20
-151.8105441243737
 10
128.3201605581977
 20
-151.8594644802643
 10
128.3256727109741
 20
-151.9187201226106
 10
128.3256727109741
 20
-151.9187201226106
 10
128.1275797205722
 20
-151.9187201226106
 10
128.1275797205722
 20
-151.9187201226106
 10
128.131369325606
 20
-151.8742783908509
 10
128.1348144210913
 20
-151.8274250922514
 10
128.1348144210913
 20
-151.8191568630868
 10
128.1348144210913
 20
-151.7388861382805
 10
128.1386040261251
 20
-151.3874863987851
 10
128.1386040261251
 20
-151.3154839031433
 10
128.1386040261251
 20
-151.3154839031433
 10
128.1386040261251
 20
-150.9093071454324
 10
128.1386040261251
 20
-150.9093071454324
 10
127.9794406147065
 20
-151.0343641115469
 10
127.8089083881866
 20
-151.1442626575264
 10
127.6311414611478
 20
-151.2310790637547
 10
127.6311414611478
 20
-151.2310790637547
 10
127.4533745341089
 20
-151.0681260473024
 10
127.4533745341089
 20
-151.0681260473024
 10
127.5608615132487
 20
-151.0322970542558
 10
127.7847927197899
 20
-150.9582275013229
 10
128.0865830842978
 20
-150.7022569067689
 10
128.275718826438
 20
-150.5434380048988
 10
128.4441839956667
 20
-150.3553357914042
 10
128.5775091909459
 20
-150.1351941898967
 10
128.5775091909459
 20
-150.1351941898967
 10
128.7459743601746
 20
-150.2791991811802
 10
128.7459743601746
 20
-150.2791991811802
 10
128.7569986657274
 20
-150.2895344676359
 10
128.764577875795
 20
-150.3043483782225
 10
128.764577875795
 20
-150.3170952315179
 10
128.764577875795
 20
-150.3574028486954
 10
128.731160449588
 20
-150.3574028486954
 10
128.6736273549843
 20
-150.3615369632776
 97
        0
 97
        1
330
99
 75
     2
 76
     1
 98
        1
 10
0.0
 20
0.0
450
        0
451
        0
460
0.0
461
0.0
452
        0
462
0.0
453
        0
470

  0
SPLINE
  5
9B
330
81
100
AcDbEntity
  8
レイヤー 1
100
AcDbSpline
210
0.0
220
0.0
230
1.0
 70
     9
 71
     3
 72
    50
 73
    46
 74
     0
 42
0.0000000001
 43
0.0000000001
 40
0.0
 40
0.0
 40
0.0
 40
0.0
 40
1.0
 40
1.0
 40
1.0
 40
2.0
 40
2.0
 40
2.0
 40
3.0
 40
3.0
 40
3.0
 40
4.0
 40
4.0
 40
4.0
 40
5.0
 40
5.0
 40
5.0
 40
6.0
 40
6.0
 40
6.0
 40
7.0
 40
7.0
 40
7.0
 40
8.0
 40
8.0
 40
8.0
 40
9.0
 40
9.0
 40
9.0
 40
10.0
 40
10.0
 40
10.0
 40
11.0
 40
11.0
 40
11.0
 40
12.0
 40
12.0
 40
12.0
 40
13.0
 40
13.0
 40
13.0
 40
14.0
 40
14.0
 40
14.0
 40
15.0
 40
15.0
 40
15.0
 40
15.0
 10
130.1698323242284
 20
-150.8882920629723
 30
0.0
 10
130.116433344207
 20
-150.9602945586141
 30
0.0
 10
129.8883680230835
 20
-151.2775878528056
 30
0.0
 10
129.8384141385473
 20
-151.3409776097342
 30
0.0
 10
129.9124836914802
 20
-151.4384738119668
 30
0.0
 10
129.9569254232399
 20
-151.5018635688953
 30
0.0
 10
130.0144585178436
 20
-151.5928140897059
 30
0.0
 10
130.0144585178436
 20
-151.5928140897059
 30
0.0
 10
129.8532280491339
 20
-151.7302733995674
 30
0.0
 10
129.8532280491339
 20
-151.7302733995674
 30
0.0
 10
129.7347167644413
 20
-151.5187445367731
 30
0.0
 10
129.5848551108329
 20
-151.2944688206833
 30
0.0
 10
129.3275064780848
 20
-151.0956868111844
 30
0.0
 10
129.3275064780848
 20
-151.0956868111844
 30
0.0
 10
129.4570420683302
 20
-150.9413465334452
 30
0.0
 10
129.4570420683302
 20
-150.9413465334452
 30
0.0
 10
129.5535047419172
 20
-151.0216172582515
 30
0.0
 10
129.6441107531792
 20
-151.110500721771
 30
0.0
 10
129.7292046116649
 20
-151.2055853571639
 30
0.0
 10
129.7884602540112
 20
-151.1294487469398
 30
0.0
 10
129.9662271810501
 20
-150.8862250056812
 30
0.0
 10
130.0830159180001
 20
-150.6578151750091
 30
0.0
 10
130.0830159180001
 20
-150.6578151750091
 30
0.0
 10
129.4942490995709
 20
-150.6578151750091
 30
0.0
 10
129.4942490995709
 20
-150.6578151750091
 30
0.0
 10
129.3846950631399
 20
-150.6578151750091
 30
0.0
 10
129.1645534616324
 20
-150.6660834041738
 30
0.0
 10
128.9812743818172
 20
-150.676763200178
 30
0.0
 10
128.9812743818172
 20
-150.676763200178
 30
0.0
 10
128.9812743818172
 20
-150.4566215986706
 30
0.0
 10
128.9812743818172
 20
-150.4566215986706
 30
0.0
 10
129.1421603409783
 20
-150.4759141333879
 30
0.0
 10
129.3219943253084
 20
-150.4800482479702
 30
0.0
 10
129.4866698895033
 20
-150.4800482479702
 30
0.0
 10
129.4866698895033
 20
-150.4800482479702
 30
0.0
 10
129.9272976020668
 20
-150.4800482479702
 30
0.0
 10
129.9272976020668
 20
-150.4800482479702
 30
0.0
 10
130.2235758137983
 20
-150.4800482479702
 30
0.0
 10
130.2625053927816
 20
-150.4652343373837
 30
0.0
 10
130.3348523979718
 20
-150.4249267202063
 30
0.0
 10
130.3348523979718
 20
-150.4249267202063
 30
0.0
 10
130.4809244465464
 20
-150.5837456220763
 30
0.0
 10
130.4809244465464
 20
-150.5837456220763
 30
0.0
 10
130.3475992512672
 20
-150.655748117718
 30
0.0
 10
130.2218532660556
 20
-150.8183566246218
 30
0.0
 10
130.1698323242284
 20
-150.8882920629723
 30
0.0
  0
HATCH
  5
9C
330
81
100
AcDbEntity
  8
レイヤー 1
 62
   250
420
  2299925
440
 33554687
100
AcDbHatch
 10
0.0
 20
0.0
 30
0.0
210
0.0
220
0.0
230
1.0
  2
SOLID
 70
     1
 71
     1
 91
        1
 92
        1
 93
        1
 72
     4
 94
        3
 73
     0
 74
     0
 95
       50
 96
       46
 40
0.0
 40
0.0
 40
0.0
 40
0.0
 40
1.0
 40
1.0
 40
1.0
 40
2.0
 40
2.0
 40
2.0
 40
3.0
 40
3.0
 40
3.0
 40
4.0
 40
4.0
 40
4.0
 40
5.0
 40
5.0
 40
5.0
 40
6.0
 40
6.0
 40
6.0
 40
7.0
 40
7.0
 40
7.0
 40
8.0
 40
8.0
 40
8.0
 40
9.0
 40
9.0
 40
9.0
 40
10.0
 40
10.0
 40
10.0
 40
11.0
 40
11.0
 40
11.0
 40
12.0
 40
12.0
 40
12.0
 40
13.0
 40
13.0
 40
13.0
 40
14.0
 40
14.0
 40
14.0
 40
15.0
 40
15.0
 40
15.0
 40
15.0
 10
130.1698323242284
 20
-150.8882920629723
 10
130.116433344207
 20
-150.9602945586141
 10
129.8883680230835
 20
-151.2775878528056
 10
129.8384141385473
 20
-151.3409776097342
 10
129.9124836914802
 20
-151.4384738119668
 10
129.9569254232399
 20
-151.5018635688953
 10
130.0144585178436
 20
-151.5928140897059
 10
130.0144585178436
 20
-151.5928140897059
 10
129.8532280491339
 20
-151.7302733995674
 10
129.8532280491339
 20
-151.7302733995674
 10
129.7347167644413
 20
-151.5187445367731
 10
129.5848551108329
 20
-151.2944688206833
 10
129.3275064780848
 20
-151.0956868111844
 10
129.3275064780848
 20
-151.0956868111844
 10
129.4570420683302
 20
-150.9413465334452
 10
129.4570420683302
 20
-150.9413465334452
 10
129.5535047419172
 20
-151.0216172582515
 10
129.6441107531792
 20
-151.110500721771
 10
129.7292046116649
 20
-151.2055853571639
 10
129.7884602540112
 20
-151.1294487469398
 10
129.9662271810501
 20
-150.8862250056812
 10
130.0830159180001
 20
-150.6578151750091
 10
130.0830159180001
 20
-150.6578151750091
 10
129.4942490995709
 20
-150.6578151750091
 10
129.4942490995709
 20
-150.6578151750091
 10
129.3846950631399
 20
-150.6578151750091
 10
129.1645534616324
 20
-150.6660834041738
 10
128.9812743818172
 20
-150.676763200178
 10
128.9812743818172
 20
-150.676763200178
 10
128.9812743818172
 20
-150.4566215986706
 10
128.9812743818172
 20
-150.4566215986706
 10
129.1421603409783
 20
-150.4759141333879
 10
129.3219943253084
 20
-150.4800482479702
 10
129.4866698895033
 20
-150.4800482479702
 10
129.4866698895033
 20
-150.4800482479702
 10
129.9272976020668
 20
-150.4800482479702
 10
129.9272976020668
 20
-150.4800482479702
 10
130.2235758137983
 20
-150.4800482479702
 10
130.2625053927816
 20
-150.4652343373837
 10
130.3348523979718
 20
-150.4249267202063
 10
130.3348523979718
 20
-150.4249267202063
 10
130.4809244465464
 20
-150.5837456220763
 10
130.4809244465464
 20
-150.5837456220763
 10
130.3475992512672
 20
-150.655748117718
 10
130.2218532660556
 20
-150.8183566246218
 10
130.1698323242284
 20
-150.8882920629723
 97
        0
 97
        1
330
9B
 75
     2
 76
     1
 98
        1
 10
0.0
 20
0.0
450
        0
451
        0
460
0.0
461
0.0
452
        0
462
0.0
453
        0
470

  0
SPLINE
  5
9D
330
81
100
AcDbEntity
  8
レイヤー 1
100
AcDbSpline
210
0.0
220
0.0
230
1.0
 70
     9
 71
     3
 72
    29
 73
    25
 74
     0
 42
0.0000000001
 43
0.0000000001
 40
0.0
 40
0.0
 40
0.0
 40
0.0
 40
1.0
 40
1.0
 40
1.0
 40
2.0
 40
2.0
 40
2.0
 40
3.0
 40
3.0
 40
3.0
 40
4.0
 40
4.0
 40
4.0
 40
5.0
 40
5.0
 40
5.0
 40
6.0
 40
6.0
 40
6.0
 40
7.0
 40
7.0
 40
7.0
 40
8.0
 40
8.0
 40
8.0
 40
8.0
 10
131.592312250088
 20
-151.131515804231
 30
0.0
 10
131.592312250088
 20
-151.131515804231
 30
0.0
 10
131.1682209958537
 20
-151.131515804231
 30
0.0
 10
131.1682209958537
 20
-151.131515804231
 30
0.0
 10
131.144105327457
 20
-151.131515804231
 30
0.0
 10
130.8660861217973
 20
-151.131515804231
 30
0.0
 10
130.6810844942394
 20
-151.1570095108218
 30
0.0
 10
130.6810844942394
 20
-151.1570095108218
 30
0.0
 10
130.6810844942394
 20
-150.9265326228586
 30
0.0
 10
130.6810844942394
 20
-150.9265326228586
 30
0.0
 10
130.819921842295
 20
-150.9496147626098
 30
0.0
 10
130.9866644637811
 20
-150.951681819901
 30
0.0
 10
131.1682209958537
 20
-150.951681819901
 30
0.0
 10
131.1682209958537
 20
-150.951681819901
 30
0.0
 10
131.592312250088
 20
-150.951681819901
 30
0.0
 10
131.592312250088
 20
-150.951681819901
 30
0.0
 10
131.7549207569918
 20
-150.951681819901
 30
0.0
 10
131.9182182829927
 20
-150.9496147626098
 30
0.0
 10
132.0791042421538
 20
-150.9265326228586
 30
0.0
 10
132.0791042421538
 20
-150.9265326228586
 30
0.0
 10
132.0791042421538
 20
-151.1570095108218
 30
0.0
 10
132.0791042421538
 20
-151.1570095108218
 30
0.0
 10
131.9182182829927
 20
-151.1335828615221
 30
0.0
 10
131.7015217769704
 20
-151.131515804231
 30
0.0
 10
131.592312250088
 20
-151.131515804231
 30
0.0
  0
HATCH
  5
9E
330
81
100
AcDbEntity
  8
レイヤー 1
 62
   250
420
  2299925
440
 33554687
100
AcDbHatch
 10
0.0
 20
0.0
 30
0.0
210
0.0
220
0.0
230
1.0
  2
SOLID
 70
     1
 71
     1
 91
        1
 92
        1
 93
        1
 72
     4
 94
        3
 73
     0
 74
     0
 95
       29
 96
       25
 40
0.0
 40
0.0
 40
0.0
 40
0.0
 40
1.0
 40
1.0
 40
1.0
 40
2.0
 40
2.0
 40
2.0
 40
3.0
 40
3.0
 40
3.0
 40
4.0
 40
4.0
 40
4.0
 40
5.0
 40
5.0
 40
5.0
 40
6.0
 40
6.0
 40
6.0
 40
7.0
 40
7.0
 40
7.0
 40
8.0
 40
8.0
 40
8.0
 40
8.0
 10
131.592312250088
 20
-151.131515804231
 10
131.592312250088
 20
-151.131515804231
 10
131.1682209958537
 20
-151.131515804231
 10
131.1682209958537
 20
-151.131515804231
 10
131.144105327457
 20
-151.131515804231
 10
130.8660861217973
 20
-151.131515804231
 10
130.6810844942394
 20
-151.1570095108218
 10
130.6810844942394
 20
-151.1570095108218
 10
130.6810844942394
 20
-150.9265326228586
 10
130.6810844942394
 20
-150.9265326228586
 10
130.819921842295
 20
-150.9496147626098
 10
130.9866644637811
 20
-150.951681819901
 10
131.1682209958537
 20
-150.951681819901
 10
131.1682209958537
 20
-150.951681819901
 10
131.592312250088
 20
-150.951681819901
 10
131.592312250088
 20
-150.951681819901
 10
131.7549207569918
 20
-150.951681819901
 10
131.9182182829927
 20
-150.9496147626098
 10
132.0791042421538
 20
-150.9265326228586
 10
132.0791042421538
 20
-150.9265326228586
 10
132.0791042421538
 20
-151.1570095108218
 10
132.0791042421538
 20
-151.1570095108218
 10
131.9182182829927
 20
-151.1335828615221
 10
131.7015217769704
 20
-151.131515804231
 10
131.592312250088
 20
-151.131515804231
 97
        0
 97
        1
330
9D
 75
     2
 76
     1
 98
        1
 10
0.0
 20
0.0
450
        0
451
        0
460
0.0
461
0.0
452
        0
462
0.0
453
        0
470

  0
SPLINE
  5
9F
330
81
100
AcDbEntity
  8
レイヤー 1
100
AcDbSpline
210
0.0
220
0.0
230
1.0
 70
     9
 71
     3
 72
    20
 73
    16
 74
     0
 42
0.0000000001
 43
0.0000000001
 40
0.0
 40
0.0
 40
0.0
 40
0.0
 40
1.0
 40
1.0
 40
1.0
 40
2.0
 40
2.0
 40
2.0
 40
3.0
 40
3.0
 40
3.0
 40
4.0
 40
4.0
 40
4.0
 40
5.0
 40
5.0
 40
5.0
 40
5.0
 10
133.1680989250413
 20
-151.4829155437265
 30
0.0
 10
133.1274467983153
 20
-151.3051486166876
 30
0.0
 10
133.0423529398297
 20
-151.1632106826953
 30
0.0
 10
132.9200520501033
 20
-151.0533121367158
 30
0.0
 10
132.9200520501033
 20
-151.0533121367158
 30
0.0
 10
133.06095645545
 20
-150.9389349666055
 30
0.0
 10
133.06095645545
 20
-150.9389349666055
 30
0.0
 10
133.1143554354714
 20
-150.9813096410741
 30
0.0
 10
133.1498399189695
 20
-151.0150715768295
 30
0.0
 10
133.2163302618348
 20
-151.1232475750664
 30
0.0
 10
133.2866102097339
 20
-151.2393472929193
 30
0.0
 10
133.3052137253542
 20
-151.2924017633921
 30
0.0
 10
133.3276068460084
 20
-151.3578585776119
 30
0.0
 10
133.3276068460084
 20
-151.3578585776119
 30
0.0
 10
133.1680989250413
 20
-151.4829155437265
 30
0.0
 10
133.1680989250413
 20
-151.4829155437265
 30
0.0
  0
SPLINE
  5
A0
330
81
100
AcDbEntity
  8
レイヤー 1
100
AcDbSpline
210
0.0
220
0.0
230
1.0
 70
     9
 71
     3
 72
    77
 73
    73
 74
     0
 42
0.0000000001
 43
0.0000000001
 40
0.0
 40
0.0
 40
0.0
 40
0.0
 40
1.0
 40
1.0
 40
1.0
 40
2.0
 40
2.0
 40
2.0
 40
3.0
 40
3.0
 40
3.0
 40
4.0
 40
4.0
 40
4.0
 40
5.0
 40
5.0
 40
5.0
 40
6.0
 40
6.0
 40
6.0
 40
7.0
 40
7.0
 40
7.0
 40
8.0
 40
8.0
 40
8.0
 40
9.0
 40
9.0
 40
9.0
 40
10.0
 40
10.0
 40
10.0
 40
11.0
 40
11.0
 40
11.0
 40
12.0
 40
12.0
 40
12.0
 40
13.0
 40
13.0
 40
13.0
 40
14.0
 40
14.0
 40
14.0
 40
15.0
 40
15.0
 40
15.0
 40
16.0
 40
16.0
 40
16.0
 40
17.0
 40
17.0
 40
17.0
 40
18.0
 40
18.0
 40
18.0
 40
19.0
 40
19.0
 40
19.0
 40
20.0
 40
20.0
 40
20.0
 40
21.0
 40
21.0
 40
21.0
 40
22.0
 40
22.0
 40
22.0
 40
23.0
 40
23.0
 40
23.0
 40
24.0
 40
24.0
 40
24.0
 40
24.0
 10
133.8423041115047
 20
-150.7570339249843
 30
0.0
 10
133.7813259214158
 20
-150.752899810402
 30
0.0
 10
133.7220702790695
 20
-150.752899810402
 30
0.0
 10
133.6628146367232
 20
-150.752899810402
 30
0.0
 10
133.6628146367232
 20
-150.752899810402
 30
0.0
 10
133.6628146367232
 20
-151.5273572754862
 30
0.0
 10
133.6628146367232
 20
-151.5273572754862
 30
0.0
 10
133.6628146367232
 20
-151.7915960992049
 30
0.0
 10
133.660747579432
 20
-151.821223920378
 30
0.0
 10
133.6552354266556
 20
-151.8508517415512
 30
0.0
 10
133.6256076054825
 20
-151.9841769368303
 30
0.0
 10
133.536724141963
 20
-151.9924451659949
 30
0.0
 10
133.3830728833209
 20
-151.9924451659949
 30
0.0
 10
133.3479329093713
 20
-151.9924451659949
 30
0.0
 10
133.3331189987848
 20
-151.9924451659949
 30
0.0
 10
133.2979790248352
 20
-151.9883110514126
 30
0.0
 10
133.2979790248352
 20
-151.9883110514126
 30
0.0
 10
133.1887694979528
 20
-151.7471543674451
 30
0.0
 10
133.1887694979528
 20
-151.7471543674451
 30
0.0
 10
133.2903998147677
 20
-151.7788492459095
 30
0.0
 10
133.3627468199579
 20
-151.7788492459095
 30
0.0
 10
133.3830728833209
 20
-151.7788492459095
 30
0.0
 10
133.4440510734098
 20
-151.7788492459095
 30
0.0
 10
133.4736788945829
 20
-151.7619682780317
 30
0.0
 10
133.4774684996167
 20
-151.7047796929766
 30
0.0
 10
133.4774684996167
 20
-151.6920328396811
 30
0.0
 10
133.4791910473593
 20
-151.5948811469971
 30
0.0
 10
133.4791910473593
 20
-151.537692561942
 30
0.0
 10
133.4791910473593
 20
-151.537692561942
 30
0.0
 10
133.4791910473593
 20
-150.7508327531109
 30
0.0
 10
133.4791910473593
 20
-150.7508327531109
 30
0.0
 10
133.4791910473593
 20
-150.7508327531109
 30
0.0
 10
133.2218424146112
 20
-150.7508327531109
 30
0.0
 10
133.2218424146112
 20
-150.7508327531109
 30
0.0
 10
133.0940293721084
 20
-150.7508327531109
 30
0.0
 10
132.9662163296057
 20
-150.7570339249843
 30
0.0
 10
132.840470344394
 20
-150.7697807782798
 30
0.0
 10
132.840470344394
 20
-150.7697807782798
 30
0.0
 10
132.840470344394
 20
-150.5623860300677
 30
0.0
 10
132.840470344394
 20
-150.5623860300677
 30
0.0
 10
132.9720729919306
 20
-150.5751328833632
 30
0.0
 10
133.1625867722649
 20
-150.579611507494
 30
0.0
 10
133.2218424146112
 20
-150.579611507494
 30
0.0
 10
133.2218424146112
 20
-150.579611507494
 30
0.0
 10
133.4791910473593
 20
-150.579611507494
 30
0.0
 10
133.4791910473593
 20
-150.579611507494
 30
0.0
 10
133.4774684996167
 20
-150.3108940596445
 30
0.0
 10
133.4774684996167
 20
-150.2347574494204
 30
0.0
 10
133.4698892895492
 20
-150.0866183435547
 30
0.0
 10
133.4698892895492
 20
-150.0866183435547
 30
0.0
 10
133.6958875533816
 20
-150.1245143938925
 30
0.0
 10
133.6958875533816
 20
-150.1245143938925
 30
0.0
 10
133.7089789162255
 20
-150.1265814511836
 30
0.0
 10
133.7220702790695
 20
-150.1331271326056
 30
0.0
 10
133.7220702790695
 20
-150.1541422150656
 30
0.0
 10
133.7220702790695
 20
-150.173434749783
 30
0.0
 10
133.7162136167445
 20
-150.1755018070742
 30
0.0
 10
133.6662597322084
 20
-150.2092637428296
 30
0.0
 10
133.6628146367232
 20
-150.2874674103448
 30
0.0
 10
133.6628146367232
 20
-150.3022813209313
 30
0.0
 10
133.6628146367232
 20
-150.579611507494
 30
0.0
 10
133.8181884431079
 20
-150.5751328833632
 30
0.0
 10
133.8347249014371
 20
-150.5751328833632
 30
0.0
 10
133.8643527226103
 20
-150.5709987687808
 30
0.0
 10
133.90879445437
 20
-150.5668646541986
 30
0.0
 10
133.9125840594038
 20
-150.5647975969074
 30
0.0
 10
133.9515136383871
 20
-150.5623860300677
 30
0.0
 10
133.9515136383871
 20
-150.5623860300677
 30
0.0
 10
133.9515136383871
 20
-150.7697807782798
 30
0.0
 10
133.9515136383871
 20
-150.7697807782798
 30
0.0
 10
133.9256754222477
 20
-150.7677137209886
 30
0.0
 10
133.8774440854542
 20
-150.7591009822755
 30
0.0
 10
133.8423041115047
 20
-150.7570339249843
 30
0.0
  0
SPLINE
  5
A1
330
81
100
AcDbEntity
  8
レイヤー 1
100
AcDbSpline
210
0.0
220
0.0
230
1.0
 70
     9
 71
     3
 72
    53
 73
    49
 74
     0
 42
0.0000000001
 43
0.0000000001
 40
0.0
 40
0.0
 40
0.0
 40
0.0
 40
1.0
 40
1.0
 40
1.0
 40
2.0
 40
2.0
 40
2.0
 40
3.0
 40
3.0
 40
3.0
 40
4.0
 40
4.0
 40
4.0
 40
5.0
 40
5.0
 40
5.0
 40
6.0
 40
6.0
 40
6.0
 40
7.0
 40
7.0
 40
7.0
 40
8.0
 40
8.0
 40
8.0
 40
9.0
 40
9.0
 40
9.0
 40
10.0
 40
10.0
 40
10.0
 40
11.0
 40
11.0
 40
11.0
 40
12.0
 40
12.0
 40
12.0
 40
13.0
 40
13.0
 40
13.0
 40
14.0
 40
14.0
 40
14.0
 40
15.0
 40
15.0
 40
15.0
 40
16.0
 40
16.0
 40
16.0
 40
16.0
 10
132.8349581916176
 20
-150.2578395891716
 30
0.0
 10
132.7757025492713
 20
-150.4101128096197
 30
0.0
 10
132.7384955180306
 20
-150.4883164771348
 30
0.0
 10
132.7054226013722
 20
-150.5561848581943
 30
0.0
 10
132.7422851230644
 20
-150.5771999406543
 30
0.0
 10
132.7460747280982
 20
-150.579611507494
 30
0.0
 10
132.7460747280982
 20
-150.5944254180805
 30
0.0
 10
132.7460747280982
 20
-150.6068277618274
 30
0.0
 10
132.716446906925
 20
-150.6409342071314
 30
0.0
 10
132.7071451491149
 20
-150.649202436296
 30
0.0
 10
132.7054226013722
 20
-150.8459173885038
 30
0.0
 10
132.7054226013722
 20
-150.8672769805123
 30
0.0
 10
132.7054226013722
 20
-151.0006021757915
 30
0.0
 10
132.7033555440811
 20
-151.0130045195384
 30
0.0
 10
132.7033555440811
 20
-151.027818430125
 30
0.0
 10
132.7033555440811
 20
-151.0426323407116
 30
0.0
 10
132.7033555440811
 20
-151.0426323407116
 30
0.0
 10
132.7033555440811
 20
-151.5780001791194
 30
0.0
 10
132.7033555440811
 20
-151.5780001791194
 30
0.0
 10
132.7033555440811
 20
-151.6500026747611
 30
0.0
 10
132.7071451491149
 20
-151.8846136773066
 30
0.0
 10
132.7147243591824
 20
-151.9948567328346
 30
0.0
 10
132.7147243591824
 20
-151.9948567328346
 30
0.0
 10
132.5014729486454
 20
-151.9948567328346
 30
0.0
 10
132.5014729486454
 20
-151.9948567328346
 30
0.0
 10
132.5217990120084
 20
-151.8360378309646
 30
0.0
 10
132.5276556743333
 20
-151.5948811469971
 30
0.0
 10
132.5276556743333
 20
-151.5738660645371
 30
0.0
 10
132.5276556743333
 20
-151.5738660645371
 30
0.0
 10
132.5276556743333
 20
-150.856597184508
 30
0.0
 10
132.5276556743333
 20
-150.856597184508
 30
0.0
 10
132.4480739686241
 20
-150.9709743546183
 30
0.0
 10
132.3943304790542
 20
-151.0298854874161
 30
0.0
 10
132.3571234478135
 20
-151.0722601618847
 30
0.0
 10
132.3571234478135
 20
-151.0722601618847
 30
0.0
 10
132.1903808263274
 20
-150.9348008520232
 30
0.0
 10
132.1903808263274
 20
-150.9348008520232
 30
0.0
 10
132.4367051535228
 20
-150.7191378746466
 30
0.0
 10
132.6051703227515
 20
-150.4101128096197
 30
0.0
 10
132.7033555440811
 20
-150.0738714902593
 30
0.0
 10
132.7033555440811
 20
-150.0738714902593
 30
0.0
 10
132.8959363817066
 20
-150.1882486603696
 30
0.0
 10
132.8959363817066
 20
-150.1882486603696
 30
0.0
 10
132.9069606872594
 20
-150.194449832243
 30
0.0
 10
132.9145398973269
 20
-150.1985839468253
 30
0.0
 10
132.9145398973269
 20
-150.2133978574119
 30
0.0
 10
132.9145398973269
 20
-150.2388915640028
 30
0.0
 10
132.8997259867403
 20
-150.243025678585
 30
0.0
 10
132.8349581916176
 20
-150.2578395891716
 30
0.0
  0
HATCH
  5
A2
330
81
100
AcDbEntity
  8
レイヤー 1
 62
   250
420
  2299925
440
 33554687
100
AcDbHatch
 10
0.0
 20
0.0
 30
0.0
210
0.0
220
0.0
230
1.0
  2
SOLID
 70
     1
 71
     1
 91
        3
 92
        1
 93
        1
 72
     4
 94
        3
 73
     0
 74
     0
 95
       20
 96
       16
 40
0.0
 40
0.0
 40
0.0
 40
0.0
 40
1.0
 40
1.0
 40
1.0
 40
2.0
 40
2.0
 40
2.0
 40
3.0
 40
3.0
 40
3.0
 40
4.0
 40
4.0
 40
4.0
 40
5.0
 40
5.0
 40
5.0
 40
5.0
 10
133.1680989250413
 20
-151.4829155437265
 10
133.1274467983153
 20
-151.3051486166876
 10
133.0423529398297
 20
-151.1632106826953
 10
132.9200520501033
 20
-151.0533121367158
 10
132.9200520501033
 20
-151.0533121367158
 10
133.06095645545
 20
-150.9389349666055
 10
133.06095645545
 20
-150.9389349666055
 10
133.1143554354714
 20
-150.9813096410741
 10
133.1498399189695
 20
-151.0150715768295
 10
133.2163302618348
 20
-151.1232475750664
 10
133.2866102097339
 20
-151.2393472929193
 10
133.3052137253542
 20
-151.2924017633921
 10
133.3276068460084
 20
-151.3578585776119
 10
133.3276068460084
 20
-151.3578585776119
 10
133.1680989250413
 20
-151.4829155437265
 10
133.1680989250413
 20
-151.4829155437265
 97
        0
 97
        1
330
9F
 92
        1
 93
        1
 72
     4
 94
        3
 73
     0
 74
     0
 95
       77
 96
       73
 40
0.0
 40
0.0
 40
0.0
 40
0.0
 40
1.0
 40
1.0
 40
1.0
 40
2.0
 40
2.0
 40
2.0
 40
3.0
 40
3.0
 40
3.0
 40
4.0
 40
4.0
 40
4.0
 40
5.0
 40
5.0
 40
5.0
 40
6.0
 40
6.0
 40
6.0
 40
7.0
 40
7.0
 40
7.0
 40
8.0
 40
8.0
 40
8.0
 40
9.0
 40
9.0
 40
9.0
 40
10.0
 40
10.0
 40
10.0
 40
11.0
 40
11.0
 40
11.0
 40
12.0
 40
12.0
 40
12.0
 40
13.0
 40
13.0
 40
13.0
 40
14.0
 40
14.0
 40
14.0
 40
15.0
 40
15.0
 40
15.0
 40
16.0
 40
16.0
 40
16.0
 40
17.0
 40
17.0
 40
17.0
 40
18.0
 40
18.0
 40
18.0
 40
19.0
 40
19.0
 40
19.0
 40
20.0
 40
20.0
 40
20.0
 40
21.0
 40
21.0
 40
21.0
 40
22.0
 40
22.0
 40
22.0
 40
23.0
 40
23.0
 40
23.0
 40
24.0
 40
24.0
 40
24.0
 40
24.0
 10
133.8423041115047
 20
-150.7570339249843
 10
133.7813259214158
 20
-150.752899810402
 10
133.7220702790695
 20
-150.752899810402
 10
133.6628146367232
 20
-150.752899810402
 10
133.6628146367232
 20
-150.752899810402
 10
133.6628146367232
 20
-151.5273572754862
 10
133.6628146367232
 20
-151.5273572754862
 10
133.6628146367232
 20
-151.7915960992049
 10
133.660747579432
 20
-151.821223920378
 10
133.6552354266556
 20
-151.8508517415512
 10
133.6256076054825
 20
-151.9841769368303
 10
133.536724141963
 20
-151.9924451659949
 10
133.3830728833209
 20
-151.9924451659949
 10
133.3479329093713
 20
-151.9924451659949
 10
133.3331189987848
 20
-151.9924451659949
 10
133.2979790248352
 20
-151.9883110514126
 10
133.2979790248352
 20
-151.9883110514126
 10
133.1887694979528
 20
-151.7471543674451
 10
133.1887694979528
 20
-151.7471543674451
 10
133.2903998147677
 20
-151.7788492459095
 10
133.3627468199579
 20
-151.7788492459095
 10
133.3830728833209
 20
-151.7788492459095
 10
133.4440510734098
 20
-151.7788492459095
 10
133.4736788945829
 20
-151.7619682780317
 10
133.4774684996167
 20
-151.7047796929766
 10
133.4774684996167
 20
-151.6920328396811
 10
133.4791910473593
 20
-151.5948811469971
 10
133.4791910473593
 20
-151.537692561942
 10
133.4791910473593
 20
-151.537692561942
 10
133.4791910473593
 20
-150.7508327531109
 10
133.4791910473593
 20
-150.7508327531109
 10
133.4791910473593
 20
-150.7508327531109
 10
133.2218424146112
 20
-150.7508327531109
 10
133.2218424146112
 20
-150.7508327531109
 10
133.0940293721084
 20
-150.7508327531109
 10
132.9662163296057
 20
-150.7570339249843
 10
132.840470344394
 20
-150.7697807782798
 10
132.840470344394
 20
-150.7697807782798
 10
132.840470344394
 20
-150.5623860300677
 10
132.840470344394
 20
-150.5623860300677
 10
132.9720729919306
 20
-150.5751328833632
 10
133.1625867722649
 20
-150.579611507494
 10
133.2218424146112
 20
-150.579611507494
 10
133.2218424146112
 20
-150.579611507494
 10
133.4791910473593
 20
-150.579611507494
 10
133.4791910473593
 20
-150.579611507494
 10
133.4774684996167
 20
-150.3108940596445
 10
133.4774684996167
 20
-150.2347574494204
 10
133.4698892895492
 20
-150.0866183435547
 10
133.4698892895492
 20
-150.0866183435547
 10
133.6958875533816
 20
-150.1245143938925
 10
133.6958875533816
 20
-150.1245143938925
 10
133.7089789162255
 20
-150.1265814511836
 10
133.7220702790695
 20
-150.1331271326056
 10
133.7220702790695
 20
-150.1541422150656
 10
133.7220702790695
 20
-150.173434749783
 10
133.7162136167445
 20
-150.1755018070742
 10
133.6662597322084
 20
-150.2092637428296
 10
133.6628146367232
 20
-150.2874674103448
 10
133.6628146367232
 20
-150.3022813209313
 10
133.6628146367232
 20
-150.579611507494
 10
133.8181884431079
 20
-150.5751328833632
 10
133.8347249014371
 20
-150.5751328833632
 10
133.8643527226103
 20
-150.5709987687808
 10
133.90879445437
 20
-150.5668646541986
 10
133.9125840594038
 20
-150.5647975969074
 10
133.9515136383871
 20
-150.5623860300677
 10
133.9515136383871
 20
-150.5623860300677
 10
133.9515136383871
 20
-150.7697807782798
 10
133.9515136383871
 20
-150.7697807782798
 10
133.9256754222477
 20
-150.7677137209886
 10
133.8774440854542
 20
-150.7591009822755
 10
133.8423041115047
 20
-150.7570339249843
 97
        0
 97
        1
330
A0
 92
        1
 93
        1
 72
     4
 94
        3
 73
     0
 74
     0
 95
       53
 96
       49
 40
0.0
 40
0.0
 40
0.0
 40
0.0
 40
1.0
 40
1.0
 40
1.0
 40
2.0
 40
2.0
 40
2.0
 40
3.0
 40
3.0
 40
3.0
 40
4.0
 40
4.0
 40
4.0
 40
5.0
 40
5.0
 40
5.0
 40
6.0
 40
6.0
 40
6.0
 40
7.0
 40
7.0
 40
7.0
 40
8.0
 40
8.0
 40
8.0
 40
9.0
 40
9.0
 40
9.0
 40
10.0
 40
10.0
 40
10.0
 40
11.0
 40
11.0
 40
11.0
 40
12.0
 40
12.0
 40
12.0
 40
13.0
 40
13.0
 40
13.0
 40
14.0
 40
14.0
 40
14.0
 40
15.0
 40
15.0
 40
15.0
 40
16.0
 40
16.0
 40
16.0
 40
16.0
 10
132.8349581916176
 20
-150.2578395891716
 10
132.7757025492713
 20
-150.4101128096197
 10
132.7384955180306
 20
-150.4883164771348
 10
132.7054226013722
 20
-150.5561848581943
 10
132.7422851230644
 20
-150.5771999406543
 10
132.7460747280982
 20
-150.579611507494
 10
132.7460747280982
 20
-150.5944254180805
 10
132.7460747280982
 20
-150.6068277618274
 10
132.716446906925
 20
-150.6409342071314
 10
132.7071451491149
 20
-150.649202436296
 10
132.7054226013722
 20
-150.8459173885038
 10
132.7054226013722
 20
-150.8672769805123
 10
132.7054226013722
 20
-151.0006021757915
 10
132.7033555440811
 20
-151.0130045195384
 10
132.7033555440811
 20
-151.027818430125
 10
132.7033555440811
 20
-151.0426323407116
 10
132.7033555440811
 20
-151.0426323407116
 10
132.7033555440811
 20
-151.5780001791194
 10
132.7033555440811
 20
-151.5780001791194
 10
132.7033555440811
 20
-151.6500026747611
 10
132.7071451491149
 20
-151.8846136773066
 10
132.7147243591824
 20
-151.9948567328346
 10
132.7147243591824
 20
-151.9948567328346
 10
132.5014729486454
 20
-151.9948567328346
 10
132.5014729486454
 20
-151.9948567328346
 10
132.5217990120084
 20
-151.8360378309646
 10
132.5276556743333
 20
-151.5948811469971
 10
132.5276556743333
 20
-151.5738660645371
 10
132.5276556743333
 20
-151.5738660645371
 10
132.5276556743333
 20
-150.856597184508
 10
132.5276556743333
 20
-150.856597184508
 10
132.4480739686241
 20
-150.9709743546183
 10
132.3943304790542
 20
-151.0298854874161
 10
132.3571234478135
 20
-151.0722601618847
 10
132.3571234478135
 20
-151.0722601618847
 10
132.1903808263274
 20
-150.9348008520232
 10
132.1903808263274
 20
-150.9348008520232
 10
132.4367051535228
 20
-150.7191378746466
 10
132.6051703227515
 20
-150.4101128096197
 10
132.7033555440811
 20
-150.0738714902593
 10
132.7033555440811
 20
-150.0738714902593
 10
132.8959363817066
 20
-150.1882486603696
 10
132.8959363817066
 20
-150.1882486603696
 10
132.9069606872594
 20
-150.194449832243
 10
132.9145398973269
 20
-150.1985839468253
 10
132.9145398973269
 20
-150.2133978574119
 10
132.9145398973269
 20
-150.2388915640028
 10
132.8997259867403
 20
-150.243025678585
 10
132.8349581916176
 20
-150.2578395891716
 97
        0
 97
        1
330
A1
 75
     2
 76
     1
 98
        1
 10
0.0
 20
0.0
450
        0
451
        0
460
0.0
461
0.0
452
        0
462
0.0
453
        0
470

  0
ENDBLK
  5
84
330
81
100
AcDbEntity
  8
0
100
AcDbBlockEnd
  0
BLOCK
  5
A8
330
A6
100
AcDbEntity
  8
0
100
AcDbBlockBegin
  2
Block_3
 70
     0
 10
0.0
 20
0.0
 30
0.0
  3
Block_3
  1

  0
LINE
  5
AA
330
A6
100
AcDbEntity
  8
レイヤー 1
 62
   250
420
  2299925
370
    25
100
AcDbLine
 10
111.1996489769611
 20
-153.9281479751342
 30
0.0
 11
100.1997015050776
 21
-153.9281479751342
 31
0.0
  0
LINE
  5
AB
330
A6
100
AcDbEntity
  8
レイヤー 1
 62
   250
420
  2299925
370
    25
100
AcDbLine
 10
80.1988247931203
 20
-145.428037977259
 30
0.0
 11
80.1988247931203
 21
-145.9282768660227
 31
0.0
  0
LINE
  5
AC
330
A6
100
AcDbEntity
  8
レイヤー 1
 62
   250
420
  2299925
370
    25
100
AcDbLine
 10
100.1997015050776
 20
-145.9282768660227
 30
0.0
 11
80.1988247931203
 21
-145.9282768660227
 31
0.0
  0
LINE
  5
AD
330
A6
100
AcDbEntity
  8
レイヤー 1
 62
   250
420
  2299925
370
    25
100
AcDbLine
 10
80.1988247931203
 20
-145.428037977259
 30
0.0
 11
80.71250450223747
 21
-145.810096310497
 31
0.0
  0
LINE
  5
AE
330
A6
100
AcDbEntity
  8
レイヤー 1
 62
   250
420
  2299925
370
    25
100
AcDbLine
 10
80.71250450223747
 20
-145.810096310497
 30
0.0
 11
81.19792671207553
 21
-145.3925485328235
 31
0.0
  0
LINE
  5
AF
330
A6
100
AcDbEntity
  8
レイヤー 1
 62
   250
420
  2299925
370
    25
100
AcDbLine
 10
81.71192392118459
 20
-145.774642143839
 30
0.0
 11
82.19734613102266
 21
-145.3567415883878
 31
0.0
  0
LINE
  5
B0
330
A6
100
AcDbEntity
  8
レイヤー 1
 62
   250
420
  2299925
370
    25
100
AcDbLine
 10
81.19792671207553
 20
-145.3925485328235
 30
0.0
 11
81.71192392118459
 21
-145.774642143839
 31
0.0
  0
LINE
  5
B1
330
A6
100
AcDbEntity
  8
レイヤー 1
 62
   250
420
  2299925
370
    25
100
AcDbLine
 10
82.19734613102266
 20
-145.3567415883878
 30
0.0
 11
82.71134334013174
 21
-145.7387999216258
 31
0.0
  0
LINE
  5
B2
330
A6
100
AcDbEntity
  8
レイヤー 1
 62
   250
420
  2299925
370
    25
100
AcDbLine
 10
82.71134334013174
 20
-145.7387999216258
 30
0.0
 11
83.19694193885418
 21
-145.3212521439523
 31
0.0
  0
LINE
  5
B3
330
A6
100
AcDbEntity
  8
レイヤー 1
 62
   250
420
  2299925
370
    25
100
AcDbLine
 10
83.19694193885418
 20
-145.3212521439523
 30
0.0
 11
83.71093914796357
 21
-145.7029576994125
 31
0.0
  0
LINE
  5
B4
330
A6
100
AcDbEntity
  8
レイヤー 1
 62
   250
420
  2299925
370
    25
100
AcDbLine
 10
83.71093914796357
 20
-145.7029576994125
 30
0.0
 11
84.19600858003255
 21
-145.2854099217391
 31
0.0
  0
LINE
  5
B5
330
A6
100
AcDbEntity
  8
レイヤー 1
 62
   250
420
  2299925
370
    25
100
AcDbLine
 10
84.19600858003255
 20
-145.2854099217391
 30
0.0
 11
84.71000578914161
 21
-145.6671507549772
 31
0.0
  0
LINE
  5
B6
330
A6
100
AcDbEntity
  8
レイヤー 1
 62
   250
420
  2299925
370
    25
100
AcDbLine
 10
84.71000578914161
 20
-145.6671507549772
 30
0.0
 11
85.19578077674845
 21
-145.2496029773037
 31
0.0
  0
LINE
  5
B7
330
A6
100
AcDbEntity
  8
レイヤー 1
 62
   250
420
  2299925
370
    25
100
AcDbLine
 10
85.19578077674845
 20
-145.2496029773037
 30
0.0
 11
85.70977798585751
 21
-145.6316613105413
 31
0.0
  0
LINE
  5
B8
330
A6
100
AcDbEntity
  8
レイヤー 1
 62
   250
420
  2299925
370
    25
100
AcDbLine
 10
85.70977798585751
 20
-145.6316613105413
 30
0.0
 11
86.1948474179268
 21
-145.2141135328682
 31
0.0
  0
LINE
  5
B9
330
A6
100
AcDbEntity
  8
レイヤー 1
 62
   250
420
  2299925
370
    25
100
AcDbLine
 10
86.1948474179268
 20
-145.2141135328682
 30
0.0
 11
86.70887990481274
 21
-145.5961718661058
 31
0.0
  0
LINE
  5
BA
330
A6
100
AcDbEntity
  8
レイヤー 1
 62
   250
420
  2299925
370
    25
100
AcDbLine
 10
86.70887990481274
 20
-145.5961718661058
 30
0.0
 11
87.19394933688203
 21
-145.1782713106549
 31
0.0
  0
LINE
  5
BB
330
A6
100
AcDbEntity
  8
レイヤー 1
 62
   250
420
  2299925
370
    25
100
AcDbLine
 10
87.70794654599109
 20
-145.5603296438926
 30
0.0
 11
88.19368625582139
 21
-145.1427818662191
 31
0.0
  0
LINE
  5
BC
330
A6
100
AcDbEntity
  8
レイヤー 1
 62
   250
420
  2299925
370
    25
100
AcDbLine
 10
87.19394933688203
 20
-145.1782713106549
 30
0.0
 11
87.70794654599109
 21
-145.5603296438926
 31
0.0
  0
LINE
  5
BD
330
A6
100
AcDbEntity
  8
レイヤー 1
 62
   250
420
  2299925
370
    25
100
AcDbLine
 10
88.19368625582139
 20
-145.1427818662191
 30
0.0
 11
88.70771874270699
 21
-145.5245226994572
 31
0.0
  0
LINE
  5
BE
330
A6
100
AcDbEntity
  8
レイヤー 1
 62
   250
420
  2299925
370
    25
100
AcDbLine
 10
88.70771874270699
 20
-145.5245226994572
 30
0.0
 11
89.1927881747763
 21
-145.1069749217837
 31
0.0
  0
LINE
  5
BF
330
A6
100
AcDbEntity
  8
レイヤー 1
 62
   250
420
  2299925
370
    25
100
AcDbLine
 10
89.70678538388536
 20
-145.4886804772439
 30
0.0
 11
90.1925603714922
 21
-145.0711326995705
 31
0.0
  0
LINE
  5
C0
330
A6
100
AcDbEntity
  8
レイヤー 1
 62
   250
420
  2299925
370
    25
100
AcDbLine
 10
89.1927881747763
 20
-145.1069749217837
 30
0.0
 11
89.70678538388536
 21
-145.4886804772439
 31
0.0
  0
LINE
  5
C1
330
A6
100
AcDbEntity
  8
レイヤー 1
 62
   250
420
  2299925
370
    25
100
AcDbLine
 10
90.70655758060127
 20
-145.4531910328081
 30
0.0
 11
91.19145062378617
 21
-145.035643255135
 31
0.0
  0
LINE
  5
C2
330
A6
100
AcDbEntity
  8
レイヤー 1
 62
   250
420
  2299925
370
    25
100
AcDbLine
 10
90.1925603714922
 20
-145.0711326995705
 30
0.0
 11
90.70655758060127
 21
-145.4531910328081
 31
0.0
  0
LINE
  5
C3
330
A6
100
AcDbEntity
  8
レイヤー 1
 62
   250
420
  2299925
370
    25
100
AcDbLine
 10
91.19145062378617
 20
-145.035643255135
 30
0.0
 11
91.70544783289523
 21
-145.4177015883726
 31
0.0
  0
LINE
  5
C4
330
A6
100
AcDbEntity
  8
レイヤー 1
 62
   250
420
  2299925
370
    25
100
AcDbLine
 10
91.70544783289523
 20
-145.4177015883726
 30
0.0
 11
92.19122282050207
 21
-144.9998363106995
 31
0.0
  0
LINE
  5
C5
330
A6
100
AcDbEntity
  8
レイヤー 1
 62
   250
420
  2299925
370
    25
100
AcDbLine
 10
92.19122282050207
 20
-144.9998363106995
 30
0.0
 11
92.70454975185014
 21
-145.3818946439372
 31
0.0
  0
LINE
  5
C6
330
A6
100
AcDbEntity
  8
レイヤー 1
 62
   250
420
  2299925
370
    25
100
AcDbLine
 10
92.70454975185014
 20
-145.3818946439372
 30
0.0
 11
93.19028946168042
 21
-144.9643468662638
 31
0.0
  0
LINE
  5
C7
330
A6
100
AcDbEntity
  8
レイヤー 1
 62
   250
420
  2299925
370
    25
100
AcDbLine
 10
93.19028946168042
 20
-144.9643468662638
 30
0.0
 11
93.70428667078948
 21
-145.346052421724
 31
0.0
  0
LINE
  5
C8
330
A6
100
AcDbEntity
  8
レイヤー 1
 62
   250
420
  2299925
370
    25
100
AcDbLine
 10
93.70428667078948
 20
-145.346052421724
 30
0.0
 11
94.18935610285878
 21
-144.9285046440505
 31
0.0
  0
LINE
  5
C9
330
A6
100
AcDbEntity
  8
レイヤー 1
 62
   250
420
  2299925
370
    25
100
AcDbLine
 10
94.18935610285878
 20
-144.9285046440505
 30
0.0
 11
94.70338858974471
 21
-145.3102101995107
 31
0.0
  0
LINE
  5
CA
330
A6
100
AcDbEntity
  8
レイヤー 1
 62
   250
420
  2299925
370
    25
100
AcDbLine
 10
94.70338858974471
 20
-145.3102101995107
 30
0.0
 11
95.1891282995747
 21
-144.8926976996151
 31
0.0
  0
LINE
  5
CB
330
A6
100
AcDbEntity
  8
レイヤー 1
 62
   250
420
  2299925
370
    25
100
AcDbLine
 10
95.1891282995747
 20
-144.8926976996151
 30
0.0
 11
95.70316078646063
 21
-145.2747560328531
 31
0.0
  0
LINE
  5
CC
330
A6
100
AcDbEntity
  8
レイヤー 1
 62
   250
420
  2299925
370
    25
100
AcDbLine
 10
95.70316078646063
 20
-145.2747560328531
 30
0.0
 11
96.18823021852993
 21
-144.8572082551796
 31
0.0
  0
LINE
  5
CD
330
A6
100
AcDbEntity
  8
レイヤー 1
 62
   250
420
  2299925
370
    25
100
AcDbLine
 10
96.18823021852993
 20
-144.8572082551796
 30
0.0
 11
96.70222742763899
 21
-145.2392665884173
 31
0.0
  0
LINE
  5
CE
330
A6
100
AcDbEntity
  8
レイヤー 1
 62
   250
420
  2299925
370
    25
100
AcDbLine
 10
96.70222742763899
 20
-145.2392665884173
 30
0.0
 11
97.18796713746895
 21
-144.8213660329663
 31
0.0
  0
LINE
  5
CF
330
A6
100
AcDbEntity
  8
レイヤー 1
 62
   250
420
  2299925
370
    25
100
AcDbLine
 10
97.18796713746895
 20
-144.8213660329663
 30
0.0
 11
97.70199962435491
 21
-145.2034243662041
 31
0.0
  0
LINE
  5
D0
330
A6
100
AcDbEntity
  8
レイヤー 1
 62
   250
420
  2299925
370
    25
100
AcDbLine
 10
97.70199962435491
 20
-145.2034243662041
 30
0.0
 11
98.18706905642418
 21
-144.7858765885309
 31
0.0
  0
LINE
  5
D1
330
A6
100
AcDbEntity
  8
レイヤー 1
 62
   250
420
  2299925
370
    25
100
AcDbLine
 10
98.18706905642418
 20
-144.7858765885309
 30
0.0
 11
98.70106626553324
 21
-145.1675821439908
 31
0.0
  0
LINE
  5
D2
330
A6
100
AcDbEntity
  8
レイヤー 1
 62
   250
420
  2299925
370
    25
100
AcDbLine
 10
98.70106626553324
 20
-145.1675821439908
 30
0.0
 11
99.18613569760221
 21
-144.7500696440951
 31
0.0
  0
LINE
  5
D3
330
A6
100
AcDbEntity
  8
レイヤー 1
 62
   250
420
  2299925
370
    25
100
AcDbLine
 10
99.18613569760221
 20
-144.7500696440951
 30
0.0
 11
99.70013290671191
 21
-145.1317751995554
 31
0.0
  0
LINE
  5
D4
330
A6
100
AcDbEntity
  8
レイヤー 1
 62
   250
420
  2299925
370
    25
100
AcDbLine
 10
99.70013290671191
 20
-145.1317751995554
 30
0.0
 11
100.1859078943184
 21
-144.7142274218819
 31
0.0
  0
LINE
  5
D5
330
A6
100
AcDbEntity
  8
レイヤー 1
 62
   250
420
  2299925
370
    25
100
AcDbLine
 10
100.2999051035674
 20
-144.6660026996717
 30
0.0
 11
101.2001439795542
 21
-144.6660026996717
 31
0.0
  0
LINE
  5
D6
330
A6
100
AcDbEntity
  8
レイヤー 1
 62
   250
420
  2299925
370
    25
100
AcDbLine
 10
101.2001439795542
 20
-144.6660026996717
 30
0.0
 11
101.2001439795542
 21
-152.928022975384
 31
0.0
  0
LINE
  5
D7
330
A6
100
AcDbEntity
  8
レイヤー 1
 62
   250
420
  2299925
370
    25
100
AcDbLine
 10
100.1997015050776
 20
-145.9282768660227
 30
0.0
 11
100.1997015050776
 21
-153.9281479751342
 31
0.0
  0
LINE
  5
D8
330
A6
100
AcDbEntity
  8
レイヤー 1
 62
   250
420
  2299925
370
    25
100
AcDbLine
 10
110.1998767802452
 20
-152.928022975384
 30
0.0
 11
101.2001439795542
 21
-152.928022975384
 31
0.0
  0
LINE
  5
D9
330
A6
100
AcDbEntity
  8
レイヤー 1
 62
   250
420
  2299925
370
    25
100
AcDbLine
 10
121.2076367493766
 20
-145.0711326995705
 30
0.0
 11
120.6936395402675
 21
-145.4531910328081
 31
0.0
  0
LINE
  5
DA
330
A6
100
AcDbEntity
  8
レイヤー 1
 62
   250
420
  2299925
370
    25
100
AcDbLine
 10
126.2044163441203
 20
-145.2496029773037
 30
0.0
 11
125.6903838572344
 21
-145.6316613105413
 31
0.0
  0
LINE
  5
DB
330
A6
100
AcDbEntity
  8
レイヤー 1
 62
   250
420
  2299925
370
    25
100
AcDbLine
 10
121.6927061814459
 20
-145.4886804772439
 30
0.0
 11
121.2076367493766
 21
-145.0711326995705
 31
0.0
  0
LINE
  5
DC
330
A6
100
AcDbEntity
  8
レイヤー 1
 62
   250
420
  2299925
370
    25
100
AcDbLine
 10
122.6924783781618
 20
-145.5245226994572
 30
0.0
 11
122.2067033905549
 21
-145.1069749217837
 31
0.0
  0
LINE
  5
DD
330
A6
100
AcDbEntity
  8
レイヤー 1
 62
   250
420
  2299925
370
    25
100
AcDbLine
 10
120.6936395402675
 20
-145.4531910328081
 30
0.0
 11
120.2078645526607
 21
-145.035643255135
 31
0.0
  0
LINE
  5
DE
330
A6
100
AcDbEntity
  8
レイヤー 1
 62
   250
420
  2299925
370
    25
100
AcDbLine
 10
122.2067033905549
 20
-145.1069749217837
 30
0.0
 11
121.6927061814459
 21
-145.4886804772439
 31
0.0
  0
LINE
  5
DF
330
A6
100
AcDbEntity
  8
レイヤー 1
 62
   250
420
  2299925
370
    25
100
AcDbLine
 10
130.2020940199088
 20
-145.3925485328235
 30
0.0
 11
129.6880968107998
 21
-145.774642143839
 31
0.0
  0
LINE
  5
E0
330
A6
100
AcDbEntity
  8
レイヤー 1
 62
   250
420
  2299925
370
    25
100
AcDbLine
 10
123.2064755872708
 20
-145.1427818662191
 30
0.0
 11
122.6924783781618
 21
-145.5245226994572
 31
0.0
  0
LINE
  5
E1
330
A6
100
AcDbEntity
  8
レイヤー 1
 62
   250
420
  2299925
370
    25
100
AcDbLine
 10
124.2055775062261
 20
-145.1782713106549
 30
0.0
 11
123.6915450193401
 21
-145.5603296438926
 31
0.0
  0
LINE
  5
E2
330
A6
100
AcDbEntity
  8
レイヤー 1
 62
   250
420
  2299925
370
    25
100
AcDbLine
 10
110.1998767524301
 20
-144.6660026996717
 30
0.0
 11
110.1998767524301
 21
-152.928022975384
 31
0.0
  0
LINE
  5
E3
330
A6
100
AcDbEntity
  8
レイヤー 1
 62
   250
420
  2299925
370
    25
100
AcDbLine
 10
123.6915450193401
 20
-145.5603296438926
 30
0.0
 11
123.2064755872708
 21
-145.1427818662191
 31
0.0
  0
LINE
  5
E4
330
A6
100
AcDbEntity
  8
レイヤー 1
 62
   250
420
  2299925
370
    25
100
AcDbLine
 10
124.691317216056
 20
-145.5961718661058
 30
0.0
 11
124.2055775062261
 21
-145.1782713106549
 31
0.0
  0
LINE
  5
E5
330
A6
100
AcDbEntity
  8
レイヤー 1
 62
   250
420
  2299925
370
    25
100
AcDbLine
 10
129.6880968107998
 20
-145.774642143839
 30
0.0
 11
129.2023218231929
 21
-145.3567415883878
 31
0.0
  0
LINE
  5
E6
330
A6
100
AcDbEntity
  8
レイヤー 1
 62
   250
420
  2299925
370
    25
100
AcDbLine
 10
125.2046441474044
 20
-145.2141135328682
 30
0.0
 11
124.691317216056
 21
-145.5961718661058
 31
0.0
  0
LINE
  5
E7
330
A6
100
AcDbEntity
  8
レイヤー 1
 62
   250
420
  2299925
370
    25
100
AcDbLine
 10
125.6903838572344
 20
-145.6316613105413
 30
0.0
 11
125.2046441474044
 21
-145.2141135328682
 31
0.0
  0
LINE
  5
E8
330
A6
100
AcDbEntity
  8
レイヤー 1
 62
   250
420
  2299925
370
    25
100
AcDbLine
 10
130.6871634519781
 20
-145.810096310497
 30
0.0
 11
130.2020940199088
 21
-145.3925485328235
 31
0.0
  0
LINE
  5
E9
330
A6
100
AcDbEntity
  8
レイヤー 1
 62
   250
420
  2299925
370
    25
100
AcDbLine
 10
127.2034829852987
 20
-145.2854099217391
 30
0.0
 11
126.6894857761896
 21
-145.6671507549772
 31
0.0
  0
LINE
  5
EA
330
A6
100
AcDbEntity
  8
レイヤー 1
 62
   250
420
  2299925
370
    25
100
AcDbLine
 10
128.2032551820146
 20
-145.3212521439523
 30
0.0
 11
127.6892579729055
 21
-145.7029576994125
 31
0.0
  0
LINE
  5
EB
330
A6
100
AcDbEntity
  8
レイヤー 1
 62
   250
420
  2299925
370
    25
100
AcDbLine
 10
127.6892579729055
 20
-145.7029576994125
 30
0.0
 11
127.2034829852987
 21
-145.2854099217391
 31
0.0
  0
LINE
  5
EC
330
A6
100
AcDbEntity
  8
レイヤー 1
 62
   250
420
  2299925
370
    25
100
AcDbLine
 10
131.2011606610872
 20
-145.428037977259
 30
0.0
 11
130.6871634519781
 21
-145.810096310497
 31
0.0
  0
LINE
  5
ED
330
A6
100
AcDbEntity
  8
レイヤー 1
 62
   250
420
  2299925
370
    25
100
AcDbLine
 10
126.6894857761896
 20
-145.6671507549772
 30
0.0
 11
126.2044163441203
 21
-145.2496029773037
 31
0.0
  0
LINE
  5
EE
330
A6
100
AcDbEntity
  8
レイヤー 1
 62
   250
420
  2299925
370
    25
100
AcDbLine
 10
129.2023218231929
 20
-145.3567415883878
 30
0.0
 11
128.6883246140839
 21
-145.7387999216258
 31
0.0
  0
LINE
  5
EF
330
A6
100
AcDbEntity
  8
レイヤー 1
 62
   250
420
  2299925
370
    25
100
AcDbLine
 10
128.6883246140839
 20
-145.7387999216258
 30
0.0
 11
128.2032551820146
 21
-145.3212521439523
 31
0.0
  0
LINE
  5
F0
330
A6
100
AcDbEntity
  8
レイヤー 1
 62
   250
420
  2299925
370
    25
100
AcDbLine
 10
131.2011606610872
 20
-145.428037977259
 30
0.0
 11
131.2011606610872
 21
-145.9282768660227
 31
0.0
  0
LINE
  5
F1
330
A6
100
AcDbEntity
  8
レイヤー 1
 62
   250
420
  2299925
370
    25
100
AcDbLine
 10
111.1996489491461
 20
-145.9282768660227
 30
0.0
 11
131.2011606610872
 21
-145.9282768660227
 31
0.0
  0
LINE
  5
F2
330
A6
100
AcDbEntity
  8
レイヤー 1
 62
   250
420
  2299925
370
    25
100
AcDbLine
 10
120.2078645526607
 20
-145.035643255135
 30
0.0
 11
119.6938673435516
 21
-145.4177015883726
 31
0.0
  0
LINE
  5
F3
330
A6
100
AcDbEntity
  8
レイヤー 1
 62
   250
420
  2299925
370
    25
100
AcDbLine
 10
119.6938673435516
 20
-145.4177015883726
 30
0.0
 11
119.2087979114823
 21
-144.9998363106995
 31
0.0
  0
LINE
  5
F4
330
A6
100
AcDbEntity
  8
レイヤー 1
 62
   250
420
  2299925
370
    25
100
AcDbLine
 10
119.2087979114823
 20
-144.9998363106995
 30
0.0
 11
118.6948007023733
 21
-145.3818946439372
 31
0.0
  0
LINE
  5
F5
330
A6
100
AcDbEntity
  8
レイヤー 1
 62
   250
420
  2299925
370
    25
100
AcDbLine
 10
118.6948007023733
 20
-145.3818946439372
 30
0.0
 11
118.209731270304
 21
-144.9643468662638
 31
0.0
  0
LINE
  5
F6
330
A6
100
AcDbEntity
  8
レイヤー 1
 62
   250
420
  2299925
370
    25
100
AcDbLine
 10
118.209731270304
 20
-144.9643468662638
 30
0.0
 11
117.695698783418
 21
-145.346052421724
 31
0.0
  0
LINE
  5
F7
330
A6
100
AcDbEntity
  8
レイヤー 1
 62
   250
420
  2299925
370
    25
100
AcDbLine
 10
117.695698783418
 20
-145.346052421724
 30
0.0
 11
117.2099590735881
 21
-144.9285046440505
 31
0.0
  0
LINE
  5
F8
330
A6
100
AcDbEntity
  8
レイヤー 1
 62
   250
420
  2299925
370
    25
100
AcDbLine
 10
117.2099590735881
 20
-144.9285046440505
 30
0.0
 11
116.695961864479
 21
-145.3102101995107
 31
0.0
  0
LINE
  5
F9
330
A6
100
AcDbEntity
  8
レイヤー 1
 62
   250
420
  2299925
370
    25
100
AcDbLine
 10
116.695961864479
 20
-145.3102101995107
 30
0.0
 11
116.2108924324097
 21
-144.8926976996151
 31
0.0
  0
LINE
  5
FA
330
A6
100
AcDbEntity
  8
レイヤー 1
 62
   250
420
  2299925
370
    25
100
AcDbLine
 10
116.2108924324097
 20
-144.8926976996151
 30
0.0
 11
115.6968599455238
 21
-145.2747560328531
 31
0.0
  0
LINE
  5
FB
330
A6
100
AcDbEntity
  8
レイヤー 1
 62
   250
420
  2299925
370
    25
100
AcDbLine
 10
115.6968599455238
 20
-145.2747560328531
 30
0.0
 11
115.2111202356938
 21
-144.8572082551796
 31
0.0
  0
LINE
  5
FC
330
A6
100
AcDbEntity
  8
レイヤー 1
 62
   250
420
  2299925
370
    25
100
AcDbLine
 10
115.2111202356938
 20
-144.8572082551796
 30
0.0
 11
114.6970877488078
 21
-145.2392665884173
 31
0.0
  0
LINE
  5
FD
330
A6
100
AcDbEntity
  8
レイヤー 1
 62
   250
420
  2299925
370
    25
100
AcDbLine
 10
114.6970877488078
 20
-145.2392665884173
 30
0.0
 11
114.2120183167385
 21
-144.8213660329663
 31
0.0
  0
LINE
  5
FE
330
A6
100
AcDbEntity
  8
レイヤー 1
 62
   250
420
  2299925
370
    25
100
AcDbLine
 10
114.2120183167385
 20
-144.8213660329663
 30
0.0
 11
113.6980211076295
 21
-145.2034243662041
 31
0.0
  0
LINE
  5
FF
330
A6
100
AcDbEntity
  8
レイヤー 1
 62
   250
420
  2299925
370
    25
100
AcDbLine
 10
113.6980211076295
 20
-145.2034243662041
 30
0.0
 11
113.2129516755602
 21
-144.7858765885309
 31
0.0
  0
LINE
  5
100
330
A6
100
AcDbEntity
  8
レイヤー 1
 62
   250
420
  2299925
370
    25
100
AcDbLine
 10
113.2129516755602
 20
-144.7858765885309
 30
0.0
 11
112.6989544664511
 21
-145.1675821439908
 31
0.0
  0
LINE
  5
101
330
A6
100
AcDbEntity
  8
レイヤー 1
 62
   250
420
  2299925
370
    25
100
AcDbLine
 10
112.6989544664511
 20
-145.1675821439908
 30
0.0
 11
112.2131794788443
 21
-144.7500696440951
 31
0.0
  0
LINE
  5
102
330
A6
100
AcDbEntity
  8
レイヤー 1
 62
   250
420
  2299925
370
    25
100
AcDbLine
 10
112.2131794788443
 20
-144.7500696440951
 30
0.0
 11
111.6991822697352
 21
-145.1317751995554
 31
0.0
  0
LINE
  5
103
330
A6
100
AcDbEntity
  8
レイヤー 1
 62
   250
420
  2299925
370
    25
100
AcDbLine
 10
111.6991822697352
 20
-145.1317751995554
 30
0.0
 11
111.2141128376659
 21
-144.7142274218819
 31
0.0
  0
LINE
  5
104
330
A6
100
AcDbEntity
  8
レイヤー 1
 62
   250
420
  2299925
370
    25
100
AcDbLine
 10
111.100115628417
 20
-144.6660026996717
 30
0.0
 11
110.1998767524301
 21
-144.6660026996717
 31
0.0
  0
LINE
  5
105
330
A6
100
AcDbEntity
  8
レイヤー 1
 62
   250
420
  2299925
370
    25
100
AcDbLine
 10
111.1996489491461
 20
-145.9282768660227
 30
0.0
 11
111.1996489491461
 21
-153.9281479751342
 31
0.0
  0
SPLINE
  5
106
330
A6
100
AcDbEntity
  8
レイヤー 1
 62
   250
420
  2299925
370
     9
100
AcDbSpline
210
0.0
220
0.0
230
1.0
 70
     9
 71
     3
 72
    17
 73
    13
 74
     0
 42
0.0000000001
 43
0.0000000001
 40
0.0
 40
0.0
 40
0.0
 40
0.0
 40
1.0
 40
1.0
 40
1.0
 40
2.0
 40
2.0
 40
2.0
 40
3.0
 40
3.0
 40
3.0
 40
4.0
 40
4.0
 40
4.0
 40
4.0
 10
80.29873145723813
 20
-140.6662435340052
 30
0.0
 10
80.29873145723813
 20
-140.6107868673521
 30
0.0
 10
80.25396395838026
 20
-140.5659840895858
 30
0.0
 10
80.1988247931203
 20
-140.5659840895858
 30
0.0
 10
80.14336812786845
 20
-140.5659840895858
 30
0.0
 10
80.09860062901058
 20
-140.6107868673521
 30
0.0
 10
80.09860062901058
 20
-140.6662435340052
 30
0.0
 10
80.09860062901058
 20
-140.7213474228801
 30
0.0
 10
80.14336812786845
 20
-140.7661502006468
 30
0.0
 10
80.1988247931203
 20
-140.7661502006468
 30
0.0
 10
80.25396395838026
 20
-140.7661502006468
 30
0.0
 10
80.29873145723813
 20
-140.7213474228801
 30
0.0
 10
80.29873145723813
 20
-140.6662435340052
 30
0.0
  0
SPLINE
  5
107
330
A6
100
AcDbEntity
  8
レイヤー 1
 62
   250
420
  2299925
370
     9
100
AcDbSpline
210
0.0
220
0.0
230
1.0
 70
     9
 71
     3
 72
    17
 73
    13
 74
     0
 42
0.0000000001
 43
0.0000000001
 40
0.0
 40
0.0
 40
0.0
 40
0.0
 40
1.0
 40
1.0
 40
1.0
 40
2.0
 40
2.0
 40
2.0
 40
3.0
 40
3.0
 40
3.0
 40
4.0
 40
4.0
 40
4.0
 40
4.0
 10
78.06907012523265
 20
-145.428037977259
 30
0.0
 10
78.06907012523265
 20
-145.3729340883841
 30
0.0
 10
78.02430262637476
 20
-145.3281313106174
 30
0.0
 10
77.96884596112291
 20
-145.3281313106174
 30
0.0
 10
77.91370912632906
 20
-145.3281313106174
 30
0.0
 10
77.86890634856234
 20
-145.3729340883841
 30
0.0
 10
77.86890634856234
 20
-145.428037977259
 30
0.0
 10
77.86890634856234
 20
-145.4831771439121
 30
0.0
 10
77.91370912632906
 20
-145.5279446439006
 30
0.0
 10
77.96884596112291
 20
-145.5279446439006
 30
0.0
 10
78.02430262637476
 20
-145.5279446439006
 30
0.0
 10
78.06907012523265
 20
-145.4831771439121
 30
0.0
 10
78.06907012523265
 20
-145.428037977259
 30
0.0
  0
SPLINE
  5
108
330
A6
100
AcDbEntity
  8
レイヤー 1
 62
   250
420
  2299925
370
     9
100
AcDbSpline
210
0.0
220
0.0
230
1.0
 70
     9
 71
     3
 72
    17
 73
    13
 74
     0
 42
0.0000000001
 43
0.0000000001
 40
0.0
 40
0.0
 40
0.0
 40
0.0
 40
1.0
 40
1.0
 40
1.0
 40
2.0
 40
2.0
 40
2.0
 40
3.0
 40
3.0
 40
3.0
 40
4.0
 40
4.0
 40
4.0
 40
4.0
 10
78.06907012523265
 20
-145.9282768660227
 30
0.0
 10
78.06907012523265
 20
-145.87313769937
 30
0.0
 10
78.02430262637476
 20
-145.8283701993811
 30
0.0
 10
77.96884596112291
 20
-145.8283701993811
 30
0.0
 10
77.91370912632906
 20
-145.8283701993811
 30
0.0
 10
77.86890634856234
 20
-145.87313769937
 30
0.0
 10
77.86890634856234
 20
-145.9282768660227
 30
0.0
 10
77.86890634856234
 20
-145.983380754898
 30
0.0
 10
77.91370912632906
 20
-146.0281835326647
 30
0.0
 10
77.96884596112291
 20
-146.0281835326647
 30
0.0
 10
78.02430262637476
 20
-146.0281835326647
 30
0.0
 10
78.06907012523265
 20
-145.983380754898
 30
0.0
 10
78.06907012523265
 20
-145.9282768660227
 30
0.0
  0
SPLINE
  5
109
330
A6
100
AcDbEntity
  8
レイヤー 1
 62
   250
420
  2299925
370
     9
100
AcDbSpline
210
0.0
220
0.0
230
1.0
 70
     9
 71
     3
 72
    17
 73
    13
 74
     0
 42
0.0000000001
 43
0.0000000001
 40
0.0
 40
0.0
 40
0.0
 40
0.0
 40
1.0
 40
1.0
 40
1.0
 40
2.0
 40
2.0
 40
2.0
 40
3.0
 40
3.0
 40
3.0
 40
4.0
 40
4.0
 40
4.0
 40
4.0
 10
78.06907012523265
 20
-153.9281479751342
 30
0.0
 10
78.06907012523265
 20
-153.8730088084812
 30
0.0
 10
78.02430262637476
 20
-153.8282413084919
 30
0.0
 10
77.96884596112291
 20
-153.8282413084919
 30
0.0
 10
77.91370912632906
 20
-153.8282413084919
 30
0.0
 10
77.86890634856234
 20
-153.8730088084812
 30
0.0
 10
77.86890634856234
 20
-153.9281479751342
 30
0.0
 10
77.86890634856234
 20
-153.9830754751203
 30
0.0
 10
77.91370912632906
 20
-154.027878252887
 30
0.0
 10
77.96884596112291
 20
-154.027878252887
 30
0.0
 10
78.02430262637476
 20
-154.027878252887
 30
0.0
 10
78.06907012523265
 20
-153.9830754751203
 30
0.0
 10
78.06907012523265
 20
-153.9281479751342
 30
0.0
  0
SPLINE
  5
10A
330
A6
100
AcDbEntity
  8
レイヤー 1
 62
   250
420
  2299925
370
     9
100
AcDbSpline
210
0.0
220
0.0
230
1.0
 70
     9
 71
     3
 72
    17
 73
    13
 74
     0
 42
0.0000000001
 43
0.0000000001
 40
0.0
 40
0.0
 40
0.0
 40
0.0
 40
1.0
 40
1.0
 40
1.0
 40
2.0
 40
2.0
 40
2.0
 40
3.0
 40
3.0
 40
3.0
 40
4.0
 40
4.0
 40
4.0
 40
4.0
 10
101.3000535649267
 20
-140.6662435340052
 30
0.0
 10
101.3000535649267
 20
-140.6107868673521
 30
0.0
 10
101.2552507871606
 20
-140.5659840895858
 30
0.0
 10
101.2001439795542
 20
-140.5659840895858
 30
0.0
 10
101.1443345365333
 20
-140.5659840895858
 30
0.0
 10
101.0995317598988
 20
-140.6107868673521
 30
0.0
 10
101.0995317598988
 20
-140.6662435340052
 30
0.0
 10
101.0995317598988
 20
-140.7213474228801
 30
0.0
 10
101.1443345365333
 20
-140.7661502006468
 30
0.0
 10
101.2001439795542
 20
-140.7661502006468
 30
0.0
 10
101.2552507871606
 20
-140.7661502006468
 30
0.0
 10
101.3000535649267
 20
-140.7213474228801
 30
0.0
 10
101.3000535649267
 20
-140.6662435340052
 30
0.0
  0
SPLINE
  5
10B
330
A6
100
AcDbEntity
  8
レイヤー 1
 62
   250
420
  2299925
370
     9
100
AcDbSpline
210
0.0
220
0.0
230
1.0
 70
     9
 71
     3
 72
    17
 73
    13
 74
     0
 42
0.0000000001
 43
0.0000000001
 40
0.0
 40
0.0
 40
0.0
 40
0.0
 40
1.0
 40
1.0
 40
1.0
 40
2.0
 40
2.0
 40
2.0
 40
3.0
 40
3.0
 40
3.0
 40
4.0
 40
4.0
 40
4.0
 40
4.0
 10
131.301067325205
 20
-140.6662435340052
 30
0.0
 10
131.301067325205
 20
-140.6107868673521
 30
0.0
 10
131.2563035296218
 20
-140.5659840895858
 30
0.0
 10
131.2011606610872
 20
-140.5659840895858
 30
0.0
 10
131.1460567736041
 20
-140.5659840895858
 30
0.0
 10
131.1012539969694
 20
-140.6107868673521
 30
0.0
 10
131.1012539969694
 20
-140.6662435340052
 30
0.0
 10
131.1012539969694
 20
-140.7213474228801
 30
0.0
 10
131.1460567736041
 20
-140.7661502006468
 30
0.0
 10
131.2011606610872
 20
-140.7661502006468
 30
0.0
 10
131.2563035296218
 20
-140.7661502006468
 30
0.0
 10
131.301067325205
 20
-140.7213474228801
 30
0.0
 10
131.301067325205
 20
-140.6662435340052
 30
0.0
  0
SPLINE
  5
10C
330
A6
100
AcDbEntity
  8
レイヤー 1
 62
   250
420
  2299925
370
     9
100
AcDbSpline
210
0.0
220
0.0
230
1.0
 70
     9
 71
     3
 72
    17
 73
    13
 74
     0
 42
0.0000000001
 43
0.0000000001
 40
0.0
 40
0.0
 40
0.0
 40
0.0
 40
1.0
 40
1.0
 40
1.0
 40
2.0
 40
2.0
 40
2.0
 40
3.0
 40
3.0
 40
3.0
 40
4.0
 40
4.0
 40
4.0
 40
4.0
 10
110.299783416548
 20
-140.6662435340052
 30
0.0
 10
110.299783416548
 20
-140.6107868673521
 30
0.0
 10
110.2549806399132
 20
-140.5659840895858
 30
0.0
 10
110.1998767524301
 20
-140.5659840895858
 30
0.0
 10
110.1447375871702
 20
-140.5659840895858
 30
0.0
 10
110.0999700883123
 20
-140.6107868673521
 30
0.0
 10
110.0999700883123
 20
-140.6662435340052
 30
0.0
 10
110.0999700883123
 20
-140.7213474228801
 30
0.0
 10
110.1447375871702
 20
-140.7661502006468
 30
0.0
 10
110.1998767524301
 20
-140.7661502006468
 30
0.0
 10
110.2549806399132
 20
-140.7661502006468
 30
0.0
 10
110.299783416548
 20
-140.7213474228801
 30
0.0
 10
110.299783416548
 20
-140.6662435340052
 30
0.0
  0
LINE
  5
10D
330
A6
100
AcDbEntity
  8
レイヤー 1
 62
   250
420
  2299925
370
     9
100
AcDbLine
 10
77.96884596112291
 20
-145.428037977259
 30
0.0
 11
77.96884596112291
 21
-140.1704849230179
 31
0.0
  0
LINE
  5
10E
330
A6
100
AcDbEntity
  8
レイヤー 1
 62
   250
420
  2299925
370
     9
100
AcDbLine
 10
77.96884596112291
 20
-145.428037977259
 30
0.0
 11
77.96884596112291
 21
-145.9282768660227
 31
0.0
  0
LINE
  5
10F
330
A6
100
AcDbEntity
  8
レイヤー 1
 62
   250
420
  2299925
370
     9
100
AcDbLine
 10
79.42885203498616
 20
-145.428037977259
 30
0.0
 11
76.96907376440702
 21
-145.428037977259
 31
0.0
  0
LINE
  5
110
330
A6
100
AcDbEntity
  8
レイヤー 1
 62
   250
420
  2299925
370
     9
100
AcDbLine
 10
79.42885203498616
 20
-145.9282768660227
 30
0.0
 11
76.96907376440702
 21
-145.9282768660227
 31
0.0
  0
INSERT
  5
112
330
A6
100
AcDbEntity
  8
レイヤー 1
100
AcDbBlockReference
  2
Block_4
 10
0.0
 20
0.0
 30
0.0
  0
LINE
  5
120
330
A6
100
AcDbEntity
  8
レイヤー 1
 62
   250
420
  2299925
370
     9
100
AcDbLine
 10
80.1988247931203
 20
-140.6662435340052
 30
0.0
 11
101.2001439795542
 21
-140.6662435340052
 31
0.0
  0
LINE
  5
121
330
A6
100
AcDbEntity
  8
レイヤー 1
 62
   250
420
  2299925
370
     9
100
AcDbLine
 10
80.1988247931203
 20
-142.8883202001161
 30
0.0
 11
80.1988247931203
 21
-139.6661185342552
 31
0.0
  0
INSERT
  5
123
330
A6
100
AcDbEntity
  8
レイヤー 1
100
AcDbBlockReference
  2
Block_6
 10
0.0
 20
0.0
 30
0.0
  0
LINE
  5
12E
330
A6
100
AcDbEntity
  8
レイヤー 1
 62
   250
420
  2299925
370
     9
100
AcDbLine
 10
77.96884596112291
 20
-145.9282768660227
 30
0.0
 11
77.96884596112291
 21
-153.9281479751342
 31
0.0
  0
LINE
  5
12F
330
A6
100
AcDbEntity
  8
レイヤー 1
 62
   250
420
  2299925
370
     9
100
AcDbLine
 10
99.43004624693543
 20
-153.9281479751342
 30
0.0
 11
76.96907376440702
 21
-153.9281479751342
 31
0.0
  0
INSERT
  5
131
330
A6
100
AcDbEntity
  8
レイヤー 1
100
AcDbBlockReference
  2
Block_8
 10
0.0
 20
0.0
 30
0.0
  0
LINE
  5
138
330
A6
100
AcDbEntity
  8
レイヤー 1
 62
   250
420
  2299925
370
     9
100
AcDbLine
 10
131.2011606610872
 20
-140.6662435340052
 30
0.0
 11
110.1998767524301
 21
-140.6662435340052
 31
0.0
  0
LINE
  5
139
330
A6
100
AcDbEntity
  8
レイヤー 1
 62
   250
420
  2299925
370
     9
100
AcDbLine
 10
131.2011606610872
 20
-142.8883202001161
 30
0.0
 11
131.2011606610872
 21
-139.6661185342552
 31
0.0
  0
INSERT
  5
13B
330
A6
100
AcDbEntity
  8
レイヤー 1
100
AcDbBlockReference
  2
Block_9
 10
0.0
 20
0.0
 30
0.0
  0
LINE
  5
146
330
A6
100
AcDbEntity
  8
レイヤー 1
 62
   250
420
  2299925
370
     9
100
AcDbLine
 10
101.2001439795542
 20
-140.6662435340052
 30
0.0
 11
110.1998767802452
 21
-140.6662435340052
 31
0.0
  0
LINE
  5
147
330
A6
100
AcDbEntity
  8
レイヤー 1
 62
   250
420
  2299925
370
     9
100
AcDbLine
 10
101.2001439795542
 20
-142.1262849225289
 30
0.0
 11
101.2001439795542
 21
-139.6661185342552
 31
0.0
  0
LINE
  5
148
330
A6
100
AcDbEntity
  8
レイヤー 1
 62
   250
420
  2299925
370
     9
100
AcDbLine
 10
110.1998767524301
 20
-142.1262849225289
 30
0.0
 11
110.1998767524301
 21
-139.6661185342552
 31
0.0
  0
INSERT
  5
14A
330
A6
100
AcDbEntity
  8
レイヤー 1
100
AcDbBlockReference
  2
Block_11
 10
0.0
 20
0.0
 30
0.0
  0
LINE
  5
150
330
A6
100
AcDbEntity
  8
レイヤー 1
 62
   250
420
  2299925
370
     9
100
AcDbLine
 10
108.1755320818533
 20
-150.0734157538753
 30
0.0
 11
116.1757204888626
 21
-150.0734157538753
 31
0.0
  0
INSERT
  5
152
330
A6
100
AcDbEntity
  8
レイヤー 1
100
AcDbBlockReference
  2
Block_12
 10
0.0
 20
0.0
 30
0.0
  0
ENDBLK
  5
A9
330
A6
100
AcDbEntity
  8
0
100
AcDbBlockEnd
  0
BLOCK
  5
113
330
111
100
AcDbEntity
  8
0
100
AcDbBlockBegin
  2
Block_4
 70
     0
 10
0.0
 20
0.0
 30
0.0
  3
Block_4
  1

  0
INSERT
  5
116
330
111
100
AcDbEntity
  8
レイヤー 1
100
AcDbBlockReference
  2
Block_5
 10
0.0
 20
0.0
 30
0.0
  0
ENDBLK
  5
114
330
111
100
AcDbEntity
  8
0
100
AcDbBlockEnd
  0
BLOCK
  5
117
330
115
100
AcDbEntity
  8
0
100
AcDbBlockBegin
  2
Block_5
 70
     0
 10
0.0
 20
0.0
 30
0.0
  3
Block_5
  1

  0
SPLINE
  5
119
330
115
100
AcDbEntity
  8
レイヤー 1
100
AcDbSpline
210
0.0
220
0.0
230
1.0
 70
     9
 71
     3
 72
    17
 73
    13
 74
     0
 42
0.0000000001
 43
0.0000000001
 40
0.0
 40
0.0
 40
0.0
 40
0.0
 40
1.0
 40
1.0
 40
1.0
 40
2.0
 40
2.0
 40
2.0
 40
3.0
 40
3.0
 40
3.0
 40
4.0
 40
4.0
 40
4.0
 40
4.0
 10
75.12461342522927
 20
-146.5831284898299
 30
0.0
 10
75.12461342522927
 20
-146.8328979125105
 30
0.0
 10
75.40797252889106
 20
-146.8794067015614
 30
0.0
 10
75.75282658696457
 20
-146.8794067015614
 30
0.0
 10
76.0723591932215
 20
-146.8794067015614
 30
0.0
 10
76.38121200347415
 20
-146.8432331989663
 30
0.0
 10
76.38121200347415
 20
-146.5831284898299
 30
0.0
 10
76.38121200347415
 20
-146.3354261244404
 30
0.0
 10
76.09974770232923
 20
-146.2868502780984
 30
0.0
 10
75.75282658696457
 20
-146.2868502780984
 30
0.0
 10
75.43346623548192
 20
-146.2868502780984
 30
0.0
 10
75.12461342522927
 20
-146.3250908379847
 30
0.0
 10
75.12461342522927
 20
-146.5831284898299
 30
0.0
  0
SPLINE
  5
11A
330
115
100
AcDbEntity
  8
レイヤー 1
100
AcDbSpline
210
0.0
220
0.0
230
1.0
 70
     9
 71
     3
 72
    29
 73
    25
 74
     0
 42
0.0000000001
 43
0.0000000001
 40
0.0
 40
0.0
 40
0.0
 40
0.0
 40
1.0
 40
1.0
 40
1.0
 40
2.0
 40
2.0
 40
2.0
 40
3.0
 40
3.0
 40
3.0
 40
4.0
 40
4.0
 40
4.0
 40
5.0
 40
5.0
 40
5.0
 40
6.0
 40
6.0
 40
6.0
 40
7.0
 40
7.0
 40
7.0
 40
8.0
 40
8.0
 40
8.0
 40
8.0
 10
76.34727781294444
 20
-146.1852199612835
 30
0.0
 10
76.55673961844762
 20
-146.2933959595204
 30
0.0
 10
76.57585989839076
 20
-146.4666842624285
 30
0.0
 10
76.57585989839076
 20
-146.5831284898299
 30
0.0
 10
76.57585989839076
 20
-146.7440144489911
 30
0.0
 10
76.52935110933988
 20
-146.8856078734348
 30
0.0
 10
76.34727781294444
 20
-146.9806925088277
 30
0.0
 10
76.15280217280208
 20
-147.0843898829337
 30
0.0
 10
75.91577960341689
 20
-147.1036824176511
 30
0.0
 10
75.75282658696457
 20
-147.1036824176511
 30
0.0
 10
75.60899385045539
 20
-147.1036824176511
 30
0.0
 10
75.35732962525789
 20
-147.0864569402249
 30
0.0
 10
75.15837536098472
 20
-146.9806925088277
 30
0.0
 10
74.95528698212924
 20
-146.8728610201394
 30
0.0
 10
74.9320325876038
 20
-146.7119750609782
 30
0.0
 10
74.9320325876038
 20
-146.5831284898299
 30
0.0
 10
74.9320325876038
 20
-146.4243095879599
 30
0.0
 10
74.97647431936352
 20
-146.280649106225
 30
0.0
 10
75.15837536098472
 20
-146.1852199612835
 30
0.0
 10
75.35095619861017
 20
-146.0860012113083
 30
0.0
 10
75.57936602928224
 20
-146.0625745620087
 30
0.0
 10
75.75282658696457
 20
-146.0625745620087
 30
0.0
 10
75.92422008735574
 20
-146.0625745620087
 30
0.0
 10
76.15486923009322
 20
-146.0839341540172
 30
0.0
 10
76.34727781294444
 20
-146.1852199612835
 30
0.0
  0
HATCH
  5
11B
330
115
100
AcDbEntity
  8
レイヤー 1
 62
   250
420
  2299925
440
 33554687
100
AcDbHatch
 10
0.0
 20
0.0
 30
0.0
210
0.0
220
0.0
230
1.0
  2
SOLID
 70
     1
 71
     1
 91
        2
 92
        1
 93
        1
 72
     4
 94
        3
 73
     0
 74
     0
 95
       17
 96
       13
 40
0.0
 40
0.0
 40
0.0
 40
0.0
 40
1.0
 40
1.0
 40
1.0
 40
2.0
 40
2.0
 40
2.0
 40
3.0
 40
3.0
 40
3.0
 40
4.0
 40
4.0
 40
4.0
 40
4.0
 10
75.12461342522927
 20
-146.5831284898299
 10
75.12461342522927
 20
-146.8328979125105
 10
75.40797252889106
 20
-146.8794067015614
 10
75.75282658696457
 20
-146.8794067015614
 10
76.0723591932215
 20
-146.8794067015614
 10
76.38121200347415
 20
-146.8432331989663
 10
76.38121200347415
 20
-146.5831284898299
 10
76.38121200347415
 20
-146.3354261244404
 10
76.09974770232923
 20
-146.2868502780984
 10
75.75282658696457
 20
-146.2868502780984
 10
75.43346623548192
 20
-146.2868502780984
 10
75.12461342522927
 20
-146.3250908379847
 10
75.12461342522927
 20
-146.5831284898299
 97
        0
 97
        1
330
119
 92
        1
 93
        1
 72
     4
 94
        3
 73
     0
 74
     0
 95
       29
 96
       25
 40
0.0
 40
0.0
 40
0.0
 40
0.0
 40
1.0
 40
1.0
 40
1.0
 40
2.0
 40
2.0
 40
2.0
 40
3.0
 40
3.0
 40
3.0
 40
4.0
 40
4.0
 40
4.0
 40
5.0
 40
5.0
 40
5.0
 40
6.0
 40
6.0
 40
6.0
 40
7.0
 40
7.0
 40
7.0
 40
8.0
 40
8.0
 40
8.0
 40
8.0
 10
76.34727781294444
 20
-146.1852199612835
 10
76.55673961844762
 20
-146.2933959595204
 10
76.57585989839076
 20
-146.4666842624285
 10
76.57585989839076
 20
-146.5831284898299
 10
76.57585989839076
 20
-146.7440144489911
 10
76.52935110933988
 20
-146.8856078734348
 10
76.34727781294444
 20
-146.9806925088277
 10
76.15280217280208
 20
-147.0843898829337
 10
75.91577960341689
 20
-147.1036824176511
 10
75.75282658696457
 20
-147.1036824176511
 10
75.60899385045539
 20
-147.1036824176511
 10
75.35732962525789
 20
-147.0864569402249
 10
75.15837536098472
 20
-146.9806925088277
 10
74.95528698212924
 20
-146.8728610201394
 10
74.9320325876038
 20
-146.7119750609782
 10
74.9320325876038
 20
-146.5831284898299
 10
74.9320325876038
 20
-146.4243095879599
 10
74.97647431936352
 20
-146.280649106225
 10
75.15837536098472
 20
-146.1852199612835
 10
75.35095619861017
 20
-146.0860012113083
 10
75.57936602928224
 20
-146.0625745620087
 10
75.75282658696457
 20
-146.0625745620087
 10
75.92422008735574
 20
-146.0625745620087
 10
76.15486923009322
 20
-146.0839341540172
 10
76.34727781294444
 20
-146.1852199612835
 97
        0
 97
        1
330
11A
 75
     2
 76
     1
 98
        1
 10
0.0
 20
0.0
450
        0
451
        0
460
0.0
461
0.0
452
        0
462
0.0
453
        0
470

  0
SPLINE
  5
11C
330
115
100
AcDbEntity
  8
レイヤー 1
100
AcDbSpline
210
0.0
220
0.0
230
1.0
 70
    11
 71
     3
 72
    17
 73
    13
 74
     0
 42
0.0000000001
 43
0.0000000001
 40
0.0
 40
0.0
 40
0.0
 40
0.0
 40
1.0
 40
1.0
 40
1.0
 40
2.0
 40
2.0
 40
2.0
 40
3.0
 40
3.0
 40
3.0
 40
4.0
 40
4.0
 40
4.0
 40
4.0
 10
76.52504473998333
 20
-145.846222565535
 30
0.0
 10
76.52504473998333
 20
-145.846222565535
 30
0.0
 10
76.27338051478583
 20
-145.846222565535
 30
0.0
 10
76.27338051478583
 20
-145.846222565535
 30
0.0
 10
76.27338051478583
 20
-145.846222565535
 30
0.0
 10
76.27338051478583
 20
-145.5943860855632
 30
0.0
 10
76.27338051478583
 20
-145.5943860855632
 30
0.0
 10
76.27338051478583
 20
-145.5943860855632
 30
0.0
 10
76.52504473998333
 20
-145.5943860855632
 30
0.0
 10
76.52504473998333
 20
-145.5943860855632
 30
0.0
 10
76.52504473998333
 20
-145.5943860855632
 30
0.0
 10
76.52504473998333
 20
-145.846222565535
 30
0.0
 10
76.52504473998333
 20
-145.846222565535
 30
0.0
  0
HATCH
  5
11D
330
115
100
AcDbEntity
  8
レイヤー 1
 62
   250
420
  2299925
440
 33554687
100
AcDbHatch
 10
0.0
 20
0.0
 30
0.0
210
0.0
220
0.0
230
1.0
  2
SOLID
 70
     1
 71
     1
 91
        1
 92
        1
 93
        1
 72
     4
 94
        3
 73
     0
 74
     0
 95
       17
 96
       13
 40
0.0
 40
0.0
 40
0.0
 40
0.0
 40
1.0
 40
1.0
 40
1.0
 40
2.0
 40
2.0
 40
2.0
 40
3.0
 40
3.0
 40
3.0
 40
4.0
 40
4.0
 40
4.0
 40
4.0
 10
76.52504473998333
 20
-145.846222565535
 10
76.52504473998333
 20
-145.846222565535
 10
76.27338051478583
 20
-145.846222565535
 10
76.27338051478583
 20
-145.846222565535
 10
76.27338051478583
 20
-145.846222565535
 10
76.27338051478583
 20
-145.5943860855632
 10
76.27338051478583
 20
-145.5943860855632
 10
76.27338051478583
 20
-145.5943860855632
 10
76.52504473998333
 20
-145.5943860855632
 10
76.52504473998333
 20
-145.5943860855632
 10
76.52504473998333
 20
-145.5943860855632
 10
76.52504473998333
 20
-145.846222565535
 10
76.52504473998333
 20
-145.846222565535
 97
        0
 97
        1
330
11C
 75
     2
 76
     1
 98
        1
 10
0.0
 20
0.0
450
        0
451
        0
460
0.0
461
0.0
452
        0
462
0.0
453
        0
470

  0
SPLINE
  5
11E
330
115
100
AcDbEntity
  8
レイヤー 1
100
AcDbSpline
210
0.0
220
0.0
230
1.0
 70
     9
 71
     3
 72
    53
 73
    49
 74
     0
 42
0.0000000001
 43
0.0000000001
 40
0.0
 40
0.0
 40
0.0
 40
0.0
 40
1.0
 40
1.0
 40
1.0
 40
2.0
 40
2.0
 40
2.0
 40
3.0
 40
3.0
 40
3.0
 40
4.0
 40
4.0
 40
4.0
 40
5.0
 40
5.0
 40
5.0
 40
6.0
 40
6.0
 40
6.0
 40
7.0
 40
7.0
 40
7.0
 40
8.0
 40
8.0
 40
8.0
 40
9.0
 40
9.0
 40
9.0
 40
10.0
 40
10.0
 40
10.0
 40
11.0
 40
11.0
 40
11.0
 40
12.0
 40
12.0
 40
12.0
 40
13.0
 40
13.0
 40
13.0
 40
14.0
 40
14.0
 40
14.0
 40
15.0
 40
15.0
 40
15.0
 40
16.0
 40
16.0
 40
16.0
 40
16.0
 10
76.57585989839076
 20
-144.8771172055342
 30
0.0
 10
76.57585989839076
 20
-144.9553208730494
 30
0.0
 10
76.55897893051303
 20
-145.0569511898642
 30
0.0
 10
76.49541691881018
 20
-145.1585815066791
 30
0.0
 10
76.38534611805645
 20
-145.3318698095872
 30
0.0
 10
76.25426023484269
 20
-145.3532294015957
 30
0.0
 10
76.14642874615437
 20
-145.3721774267646
 30
0.0
 10
76.14642874615437
 20
-145.3721774267646
 30
0.0
 10
76.14642874615437
 20
-145.149968767966
 30
0.0
 10
76.14642874615437
 20
-145.149968767966
 30
0.0
 10
76.34521075565328
 20
-145.0951917497505
 30
0.0
 10
76.37483857682643
 20
-144.9680677263448
 30
0.0
 10
76.37483857682643
 20
-144.875050148243
 30
0.0
 10
76.37483857682643
 20
-144.7355237810904
 30
0.0
 10
76.27544757207697
 20
-144.5832505606424
 30
0.0
 10
76.04273137204835
 20
-144.5832505606424
 30
0.0
 10
75.78676077749427
 20
-144.5832505606424
 30
0.0
 10
75.71699759391798
 20
-144.7630845449724
 30
0.0
 10
75.71699759391798
 20
-144.8836628869562
 30
0.0
 10
75.71699759391798
 20
-144.9153577654205
 30
0.0
 10
75.71699759391798
 20
-145.0569511898642
 30
0.0
 10
75.84601641984058
 20
-145.1458346533836
 30
0.0
 10
75.84601641984058
 20
-145.1458346533836
 30
0.0
 10
75.82689613989744
 20
-145.3215345231314
 30
0.0
 10
75.82689613989744
 20
-145.3215345231314
 30
0.0
 10
75.82689613989744
 20
-145.3215345231314
 30
0.0
 10
74.98078068872009
 20
-145.2009561811477
 30
0.0
 10
74.98078068872009
 20
-145.2009561811477
 30
0.0
 10
74.98078068872009
 20
-145.2009561811477
 30
0.0
 10
74.98078068872009
 20
-144.4223646014812
 30
0.0
 10
74.98078068872009
 20
-144.4223646014812
 30
0.0
 10
74.98078068872009
 20
-144.4223646014812
 30
0.0
 10
75.1754285836367
 20
-144.4223646014812
 30
0.0
 10
75.1754285836367
 20
-144.4223646014812
 30
0.0
 10
75.1754285836367
 20
-144.4223646014812
 30
0.0
 10
75.1754285836367
 20
-145.0380031646953
 30
0.0
 10
75.1754285836367
 20
-145.0380031646953
 30
0.0
 10
75.1754285836367
 20
-145.0380031646953
 30
0.0
 10
75.59848630922537
 20
-145.1034599789151
 30
0.0
 10
75.59848630922537
 20
-145.1034599789151
 30
0.0
 10
75.56455211869567
 20
-145.0421372792776
 30
0.0
 10
75.52441675629251
 20
-144.9597994971802
 30
0.0
 10
75.52441675629251
 20
-144.8412882124876
 30
0.0
 10
75.52441675629251
 20
-144.5873846752247
 30
0.0
 10
75.71062416727027
 20
-144.3503621058395
 30
0.0
 10
76.02361109210521
 20
-144.3503621058395
 30
0.0
 10
76.34107664107098
 20
-144.3503621058395
 30
0.0
 10
76.57585989839076
 20
-144.5746378219292
 30
0.0
 10
76.57585989839076
 20
-144.8771172055342
 30
0.0
  0
HATCH
  5
11F
330
115
100
AcDbEntity
  8
レイヤー 1
 62
   250
420
  2299925
440
 33554687
100
AcDbHatch
 10
0.0
 20
0.0
 30
0.0
210
0.0
220
0.0
230
1.0
  2
SOLID
 70
     1
 71
     1
 91
        1
 92
        1
 93
        1
 72
     4
 94
        3
 73
     0
 74
     0
 95
       53
 96
       49
 40
0.0
 40
0.0
 40
0.0
 40
0.0
 40
1.0
 40
1.0
 40
1.0
 40
2.0
 40
2.0
 40
2.0
 40
3.0
 40
3.0
 40
3.0
 40
4.0
 40
4.0
 40
4.0
 40
5.0
 40
5.0
 40
5.0
 40
6.0
 40
6.0
 40
6.0
 40
7.0
 40
7.0
 40
7.0
 40
8.0
 40
8.0
 40
8.0
 40
9.0
 40
9.0
 40
9.0
 40
10.0
 40
10.0
 40
10.0
 40
11.0
 40
11.0
 40
11.0
 40
12.0
 40
12.0
 40
12.0
 40
13.0
 40
13.0
 40
13.0
 40
14.0
 40
14.0
 40
14.0
 40
15.0
 40
15.0
 40
15.0
 40
16.0
 40
16.0
 40
16.0
 40
16.0
 10
76.57585989839076
 20
-144.8771172055342
 10
76.57585989839076
 20
-144.9553208730494
 10
76.55897893051303
 20
-145.0569511898642
 10
76.49541691881018
 20
-145.1585815066791
 10
76.38534611805645
 20
-145.3318698095872
 10
76.25426023484269
 20
-145.3532294015957
 10
76.14642874615437
 20
-145.3721774267646
 10
76.14642874615437
 20
-145.3721774267646
 10
76.14642874615437
 20
-145.149968767966
 10
76.14642874615437
 20
-145.149968767966
 10
76.34521075565328
 20
-145.0951917497505
 10
76.37483857682643
 20
-144.9680677263448
 10
76.37483857682643
 20
-144.875050148243
 10
76.37483857682643
 20
-144.7355237810904
 10
76.27544757207697
 20
-144.5832505606424
 10
76.04273137204835
 20
-144.5832505606424
 10
75.78676077749427
 20
-144.5832505606424
 10
75.71699759391798
 20
-144.7630845449724
 10
75.71699759391798
 20
-144.8836628869562
 10
75.71699759391798
 20
-144.9153577654205
 10
75.71699759391798
 20
-145.0569511898642
 10
75.84601641984058
 20
-145.1458346533836
 10
75.84601641984058
 20
-145.1458346533836
 10
75.82689613989744
 20
-145.3215345231314
 10
75.82689613989744
 20
-145.3215345231314
 10
75.82689613989744
 20
-145.3215345231314
 10
74.98078068872009
 20
-145.2009561811477
 10
74.98078068872009
 20
-145.2009561811477
 10
74.98078068872009
 20
-145.2009561811477
 10
74.98078068872009
 20
-144.4223646014812
 10
74.98078068872009
 20
-144.4223646014812
 10
74.98078068872009
 20
-144.4223646014812
 10
75.1754285836367
 20
-144.4223646014812
 10
75.1754285836367
 20
-144.4223646014812
 10
75.1754285836367
 20
-144.4223646014812
 10
75.1754285836367
 20
-145.0380031646953
 10
75.1754285836367
 20
-145.0380031646953
 10
75.1754285836367
 20
-145.0380031646953
 10
75.59848630922537
 20
-145.1034599789151
 10
75.59848630922537
 20
-145.1034599789151
 10
75.56455211869567
 20
-145.0421372792776
 10
75.52441675629251
 20
-144.9597994971802
 10
75.52441675629251
 20
-144.8412882124876
 10
75.52441675629251
 20
-144.5873846752247
 10
75.71062416727027
 20
-144.3503621058395
 10
76.02361109210521
 20
-144.3503621058395
 10
76.34107664107098
 20
-144.3503621058395
 10
76.57585989839076
 20
-144.5746378219292
 10
76.57585989839076
 20
-144.8771172055342
 97
        0
 97
        1
330
11E
 75
     2
 76
     1
 98
        1
 10
0.0
 20
0.0
450
        0
451
        0
460
0.0
461
0.0
452
        0
462
0.0
453
        0
470

  0
ENDBLK
  5
118
330
115
100
AcDbEntity
  8
0
100
AcDbBlockEnd
  0
BLOCK
  5
124
330
122
100
AcDbEntity
  8
0
100
AcDbBlockBegin
  2
Block_6
 70
     0
 10
0.0
 20
0.0
 30
0.0
  3
Block_6
  1

  0
INSERT
  5
127
330
122
100
AcDbEntity
  8
レイヤー 1
100
AcDbBlockReference
  2
Block_7
 10
0.0
 20
0.0
 30
0.0
  0
ENDBLK
  5
125
330
122
100
AcDbEntity
  8
0
100
AcDbBlockEnd
  0
BLOCK
  5
128
330
126
100
AcDbEntity
  8
0
100
AcDbBlockBegin
  2
Block_7
 70
     0
 10
0.0
 20
0.0
 30
0.0
  3
Block_7
  1

  0
SPLINE
  5
12A
330
126
100
AcDbEntity
  8
レイヤー 1
100
AcDbSpline
210
0.0
220
0.0
230
1.0
 70
     9
 71
     3
 72
    44
 73
    40
 74
     0
 42
0.0000000001
 43
0.0000000001
 40
0.0
 40
0.0
 40
0.0
 40
0.0
 40
1.0
 40
1.0
 40
1.0
 40
2.0
 40
2.0
 40
2.0
 40
3.0
 40
3.0
 40
3.0
 40
4.0
 40
4.0
 40
4.0
 40
5.0
 40
5.0
 40
5.0
 40
6.0
 40
6.0
 40
6.0
 40
7.0
 40
7.0
 40
7.0
 40
8.0
 40
8.0
 40
8.0
 40
9.0
 40
9.0
 40
9.0
 40
10.0
 40
10.0
 40
10.0
 40
11.0
 40
11.0
 40
11.0
 40
12.0
 40
12.0
 40
12.0
 40
13.0
 40
13.0
 40
13.0
 40
13.0
 10
90.12783200871805
 20
-139.3708210914594
 30
0.0
 10
89.909929719276
 20
-139.5294677385551
 30
0.0
 10
89.81673988639998
 20
-139.603537291488
 30
0.0
 10
89.76816404005797
 20
-139.7473700279972
 30
0.0
 10
89.76816404005797
 20
-139.7473700279972
 30
0.0
 10
90.54658336495016
 20
-139.7473700279972
 30
0.0
 10
90.54658336495016
 20
-139.7473700279972
 30
0.0
 10
90.54658336495016
 20
-139.7473700279972
 30
0.0
 10
90.54658336495016
 20
-139.9525254641438
 30
0.0
 10
90.54658336495016
 20
-139.9525254641438
 30
0.0
 10
90.54658336495016
 20
-139.9525254641438
 30
0.0
 10
89.5185668721516
 20
-139.9525254641438
 30
0.0
 10
89.5185668721516
 20
-139.9525254641438
 30
0.0
 10
89.55026175061592
 20
-139.5949245527749
 30
0.0
 10
89.61589081960992
 20
-139.5167208852597
 30
0.0
 10
90.00088024008659
 20
-139.218375616237
 30
0.0
 10
90.25685083464066
 20
-139.0195936067381
 30
0.0
 10
90.3223076488604
 20
-138.951897480453
 30
0.0
 10
90.3223076488604
 20
-138.8144381705915
 30
0.0
 10
90.3223076488604
 20
-138.6959268858989
 30
0.0
 10
90.25047740799294
 20
-138.5646687479109
 30
0.0
 10
90.05376245578517
 20
-138.5646687479109
 30
0.0
 10
89.79348549187454
 20
-138.5646687479109
 30
0.0
 10
89.78504500793569
 20
-138.7953178906484
 30
0.0
 10
89.78073863857913
 20
-138.9117621180498
 30
0.0
 10
89.78073863857913
 20
-138.9117621180498
 30
0.0
 10
89.55663517726362
 20
-138.9117621180498
 30
0.0
 10
89.55663517726362
 20
-138.9117621180498
 30
0.0
 10
89.56507566120249
 20
-138.7848103494184
 30
0.0
 10
89.57558320243249
 20
-138.6726724913735
 30
0.0
 10
89.65602618201307
 20
-138.5541612066809
 30
0.0
 10
89.76592472799255
 20
-138.393447502294
 30
0.0
 10
89.95213213897029
 20
-138.3595133117643
 30
0.0
 10
90.06857636637175
 20
-138.3595133117643
 30
0.0
 10
90.3457342981601
 20
-138.3595133117643
 30
0.0
 10
90.55295679159788
 20
-138.5436536654509
 30
0.0
 10
90.55295679159788
 20
-138.8165052278827
 30
0.0
 10
90.55295679159788
 20
-139.0449150585547
 30
0.0
 10
90.4366848189707
 20
-139.1444783180785
 30
0.0
 10
90.12783200871805
 20
-139.3708210914594
 30
0.0
  0
HATCH
  5
12B
330
126
100
AcDbEntity
  8
レイヤー 1
 62
   250
420
  2299925
440
 33554687
100
AcDbHatch
 10
0.0
 20
0.0
 30
0.0
210
0.0
220
0.0
230
1.0
  2
SOLID
 70
     1
 71
     1
 91
        1
 92
        1
 93
        1
 72
     4
 94
        3
 73
     0
 74
     0
 95
       44
 96
       40
 40
0.0
 40
0.0
 40
0.0
 40
0.0
 40
1.0
 40
1.0
 40
1.0
 40
2.0
 40
2.0
 40
2.0
 40
3.0
 40
3.0
 40
3.0
 40
4.0
 40
4.0
 40
4.0
 40
5.0
 40
5.0
 40
5.0
 40
6.0
 40
6.0
 40
6.0
 40
7.0
 40
7.0
 40
7.0
 40
8.0
 40
8.0
 40
8.0
 40
9.0
 40
9.0
 40
9.0
 40
10.0
 40
10.0
 40
10.0
 40
11.0
 40
11.0
 40
11.0
 40
12.0
 40
12.0
 40
12.0
 40
13.0
 40
13.0
 40
13.0
 40
13.0
 10
90.12783200871805
 20
-139.3708210914594
 10
89.909929719276
 20
-139.5294677385551
 10
89.81673988639998
 20
-139.603537291488
 10
89.76816404005797
 20
-139.7473700279972
 10
89.76816404005797
 20
-139.7473700279972
 10
90.54658336495016
 20
-139.7473700279972
 10
90.54658336495016
 20
-139.7473700279972
 10
90.54658336495016
 20
-139.7473700279972
 10
90.54658336495016
 20
-139.9525254641438
 10
90.54658336495016
 20
-139.9525254641438
 10
90.54658336495016
 20
-139.9525254641438
 10
89.5185668721516
 20
-139.9525254641438
 10
89.5185668721516
 20
-139.9525254641438
 10
89.55026175061592
 20
-139.5949245527749
 10
89.61589081960992
 20
-139.5167208852597
 10
90.00088024008659
 20
-139.218375616237
 10
90.25685083464066
 20
-139.0195936067381
 10
90.3223076488604
 20
-138.951897480453
 10
90.3223076488604
 20
-138.8144381705915
 10
90.3223076488604
 20
-138.6959268858989
 10
90.25047740799294
 20
-138.5646687479109
 10
90.05376245578517
 20
-138.5646687479109
 10
89.79348549187454
 20
-138.5646687479109
 10
89.78504500793569
 20
-138.7953178906484
 10
89.78073863857913
 20
-138.9117621180498
 10
89.78073863857913
 20
-138.9117621180498
 10
89.55663517726362
 20
-138.9117621180498
 10
89.55663517726362
 20
-138.9117621180498
 10
89.56507566120249
 20
-138.7848103494184
 10
89.57558320243249
 20
-138.6726724913735
 10
89.65602618201307
 20
-138.5541612066809
 10
89.76592472799255
 20
-138.393447502294
 10
89.95213213897029
 20
-138.3595133117643
 10
90.06857636637175
 20
-138.3595133117643
 10
90.3457342981601
 20
-138.3595133117643
 10
90.55295679159788
 20
-138.5436536654509
 10
90.55295679159788
 20
-138.8165052278827
 10
90.55295679159788
 20
-139.0449150585547
 10
90.4366848189707
 20
-139.1444783180785
 10
90.12783200871805
 20
-139.3708210914594
 97
        0
 97
        1
330
12A
 75
     2
 76
     1
 98
        1
 10
0.0
 20
0.0
450
        0
451
        0
460
0.0
461
0.0
452
        0
462
0.0
453
        0
470

  0
SPLINE
  5
12C
330
126
100
AcDbEntity
  8
レイヤー 1
100
AcDbSpline
210
0.0
220
0.0
230
1.0
 70
    11
 71
     3
 72
    26
 73
    22
 74
     0
 42
0.0000000001
 43
0.0000000001
 40
0.0
 40
0.0
 40
0.0
 40
0.0
 40
1.0
 40
1.0
 40
1.0
 40
2.0
 40
2.0
 40
2.0
 40
3.0
 40
3.0
 40
3.0
 40
4.0
 40
4.0
 40
4.0
 40
5.0
 40
5.0
 40
5.0
 40
6.0
 40
6.0
 40
6.0
 40
7.0
 40
7.0
 40
7.0
 40
7.0
 10
91.16291094726136
 20
-139.9525254641438
 30
0.0
 10
91.16291094726136
 20
-139.9525254641438
 30
0.0
 10
91.16291094726136
 20
-138.8482001063469
 30
0.0
 10
91.16291094726136
 20
-138.8482001063469
 30
0.0
 10
91.16291094726136
 20
-138.8482001063469
 30
0.0
 10
90.83287079977443
 20
-138.8482001063469
 30
0.0
 10
90.83287079977443
 20
-138.8482001063469
 30
0.0
 10
90.83287079977443
 20
-138.8482001063469
 30
0.0
 10
90.83287079977443
 20
-138.7000610004812
 30
0.0
 10
90.83287079977443
 20
-138.7000610004812
 30
0.0
 10
91.16497800455251
 20
-138.6854193446689
 30
0.0
 10
91.21148679360338
 20
-138.5224663282166
 30
0.0
 10
91.24111461477653
 20
-138.4082614128806
 30
0.0
 10
91.24111461477653
 20
-138.4082614128806
 30
0.0
 10
91.38718666335114
 20
-138.4082614128806
 30
0.0
 10
91.38718666335114
 20
-138.4082614128806
 30
0.0
 10
91.38718666335114
 20
-138.4082614128806
 30
0.0
 10
91.38718666335114
 20
-139.9525254641438
 30
0.0
 10
91.38718666335114
 20
-139.9525254641438
 30
0.0
 10
91.38718666335114
 20
-139.9525254641438
 30
0.0
 10
91.16291094726136
 20
-139.9525254641438
 30
0.0
 10
91.16291094726136
 20
-139.9525254641438
 30
0.0
  0
HATCH
  5
12D
330
126
100
AcDbEntity
  8
レイヤー 1
 62
   250
420
  2299925
440
 33554687
100
AcDbHatch
 10
0.0
 20
0.0
 30
0.0
210
0.0
220
0.0
230
1.0
  2
SOLID
 70
     1
 71
     1
 91
        1
 92
        1
 93
        1
 72
     4
 94
        3
 73
     0
 74
     0
 95
       26
 96
       22
 40
0.0
 40
0.0
 40
0.0
 40
0.0
 40
1.0
 40
1.0
 40
1.0
 40
2.0
 40
2.0
 40
2.0
 40
3.0
 40
3.0
 40
3.0
 40
4.0
 40
4.0
 40
4.0
 40
5.0
 40
5.0
 40
5.0
 40
6.0
 40
6.0
 40
6.0
 40
7.0
 40
7.0
 40
7.0
 40
7.0
 10
91.16291094726136
 20
-139.9525254641438
 10
91.16291094726136
 20
-139.9525254641438
 10
91.16291094726136
 20
-138.8482001063469
 10
91.16291094726136
 20
-138.8482001063469
 10
91.16291094726136
 20
-138.8482001063469
 10
90.83287079977443
 20
-138.8482001063469
 10
90.83287079977443
 20
-138.8482001063469
 10
90.83287079977443
 20
-138.8482001063469
 10
90.83287079977443
 20
-138.7000610004812
 10
90.83287079977443
 20
-138.7000610004812
 10
91.16497800455251
 20
-138.6854193446689
 10
91.21148679360338
 20
-138.5224663282166
 10
91.24111461477653
 20
-138.4082614128806
 10
91.24111461477653
 20
-138.4082614128806
 10
91.38718666335114
 20
-138.4082614128806
 10
91.38718666335114
 20
-138.4082614128806
 10
91.38718666335114
 20
-138.4082614128806
 10
91.38718666335114
 20
-139.9525254641438
 10
91.38718666335114
 20
-139.9525254641438
 10
91.38718666335114
 20
-139.9525254641438
 10
91.16291094726136
 20
-139.9525254641438
 10
91.16291094726136
 20
-139.9525254641438
 97
        0
 97
        1
330
12C
 75
     2
 76
     1
 98
        1
 10
0.0
 20
0.0
450
        0
451
        0
460
0.0
461
0.0
452
        0
462
0.0
453
        0
470

  0
ENDBLK
  5
129
330
126
100
AcDbEntity
  8
0
100
AcDbBlockEnd
  0
BLOCK
  5
132
330
130
100
AcDbEntity
  8
0
100
AcDbBlockBegin
  2
Block_8
 70
     0
 10
0.0
 20
0.0
 30
0.0
  3
Block_8
  1

  0
SPLINE
  5
134
330
130
100
AcDbEntity
  8
レイヤー 1
100
AcDbSpline
210
0.0
220
0.0
230
1.0
 70
     9
 71
     3
 72
    17
 73
    13
 74
     0
 42
0.0000000001
 43
0.0000000001
 40
0.0
 40
0.0
 40
0.0
 40
0.0
 40
1.0
 40
1.0
 40
1.0
 40
2.0
 40
2.0
 40
2.0
 40
3.0
 40
3.0
 40
3.0
 40
4.0
 40
4.0
 40
4.0
 40
4.0
 10
76.51539847262462
 20
-149.9257323843935
 30
0.0
 10
76.51539847262462
 20
-150.0693928661284
 30
0.0
 10
76.60204262407866
 20
-150.222010596125
 30
0.0
 10
76.80513100293413
 20
-150.222010596125
 30
0.0
 10
77.01028643908076
 20
-150.222010596125
 30
0.0
 10
77.11191675589564
 20
-150.0948865727193
 30
0.0
 10
77.11191675589564
 20
-149.9257323843935
 30
0.0
 10
77.11191675589564
 20
-149.7396972281901
 30
0.0
 10
76.98927135662074
 20
-149.6294541726621
 30
0.0
 10
76.81150442958184
 20
-149.6294541726621
 30
0.0
 10
76.58929577078324
 20
-149.6294541726621
 30
0.0
 10
76.51539847262462
 20
-149.7924071891144
 30
0.0
 10
76.51539847262462
 20
-149.9257323843935
 30
0.0
  0
SPLINE
  5
135
330
130
100
AcDbEntity
  8
レイヤー 1
100
AcDbSpline
210
0.0
220
0.0
230
1.0
 70
     9
 71
     3
 72
    17
 73
    13
 74
     0
 42
0.0000000001
 43
0.0000000001
 40
0.0
 40
0.0
 40
0.0
 40
0.0
 40
1.0
 40
1.0
 40
1.0
 40
2.0
 40
2.0
 40
2.0
 40
3.0
 40
3.0
 40
3.0
 40
4.0
 40
4.0
 40
4.0
 40
4.0
 10
75.85531817765076
 20
-149.9257323843935
 30
0.0
 10
75.85531817765076
 20
-150.090752458137
 30
0.0
 10
75.95040281304365
 20
-150.1751572975256
 30
0.0
 10
76.08579506561397
 20
-150.1751572975256
 30
0.0
 10
76.20861271966312
 20
-150.1751572975256
 30
0.0
 10
76.32712400435572
 20
-150.1034993114324
 30
0.0
 10
76.32712400435572
 20
-149.9257323843935
 30
0.0
 10
76.32712400435572
 20
-149.7479654573547
 30
0.0
 10
76.20861271966312
 20
-149.6759629617129
 30
0.0
 10
76.08579506561397
 20
-149.6759629617129
 30
0.0
 10
75.95040281304365
 20
-149.6759629617129
 30
0.0
 10
75.85531817765076
 20
-149.7627793679412
 30
0.0
 10
75.85531817765076
 20
-149.9257323843935
 30
0.0
  0
SPLINE
  5
136
330
130
100
AcDbEntity
  8
レイヤー 1
100
AcDbSpline
210
0.0
220
0.0
230
1.0
 70
     9
 71
     3
 72
    29
 73
    25
 74
     0
 42
0.0000000001
 43
0.0000000001
 40
0.0
 40
0.0
 40
0.0
 40
0.0
 40
1.0
 40
1.0
 40
1.0
 40
2.0
 40
2.0
 40
2.0
 40
3.0
 40
3.0
 40
3.0
 40
4.0
 40
4.0
 40
4.0
 40
5.0
 40
5.0
 40
5.0
 40
6.0
 40
6.0
 40
6.0
 40
7.0
 40
7.0
 40
7.0
 40
8.0
 40
8.0
 40
8.0
 40
8.0
 10
77.30656465081224
 20
-149.9257323843935
 30
0.0
 10
77.30656465081224
 20
-150.1923827749519
 30
0.0
 10
77.16893308617652
 20
-150.4459418026663
 30
0.0
 10
76.81994491352071
 20
-150.4459418026663
 30
0.0
 10
76.56397431896664
 20
-150.4459418026663
 30
0.0
 10
76.46871742879949
 20
-150.3043483782225
 30
0.0
 10
76.40739472916205
 20
-150.1985839468253
 30
0.0
 10
76.34813908681575
 20
-150.3232964033914
 30
0.0
 10
76.23393417147972
 20
-150.3994330136154
 30
0.0
 10
76.07322046709281
 20
-150.3994330136154
 30
0.0
 10
75.79812959259561
 20
-150.3994330136154
 30
0.0
 10
75.66273734002528
 20
-150.2006510041165
 30
0.0
 10
75.66273734002528
 20
-149.9257323843935
 30
0.0
 10
75.66273734002528
 20
-149.6422010259575
 30
0.0
 10
75.80657007653447
 20
-149.4516872456232
 30
0.0
 10
76.07322046709281
 20
-149.4516872456232
 30
0.0
 10
76.23393417147972
 20
-149.4516872456232
 30
0.0
 10
76.34813908681575
 20
-149.5302354226869
 30
0.0
 10
76.40739472916205
 20
-149.6549478792529
 30
0.0
 10
76.45820988756948
 20
-149.5660644157335
 30
0.0
 10
76.55346677773663
 20
-149.4072455138635
 30
0.0
 10
76.81563854416414
 20
-149.4072455138635
 30
0.0
 10
77.19012042341081
 20
-149.4072455138635
 30
0.0
 10
77.30656465081224
 20
-149.6866427577172
 30
0.0
 10
77.30656465081224
 20
-149.9257323843935
 30
0.0
  0
HATCH
  5
137
330
130
100
AcDbEntity
  8
レイヤー 1
 62
   250
420
  2299925
440
 33554687
100
AcDbHatch
 10
0.0
 20
0.0
 30
0.0
210
0.0
220
0.0
230
1.0
  2
SOLID
 70
     1
 71
     1
 91
        3
 92
        1
 93
        1
 72
     4
 94
        3
 73
     0
 74
     0
 95
       17
 96
       13
 40
0.0
 40
0.0
 40
0.0
 40
0.0
 40
1.0
 40
1.0
 40
1.0
 40
2.0
 40
2.0
 40
2.0
 40
3.0
 40
3.0
 40
3.0
 40
4.0
 40
4.0
 40
4.0
 40
4.0
 10
76.51539847262462
 20
-149.9257323843935
 10
76.51539847262462
 20
-150.0693928661284
 10
76.60204262407866
 20
-150.222010596125
 10
76.80513100293413
 20
-150.222010596125
 10
77.01028643908076
 20
-150.222010596125
 10
77.11191675589564
 20
-150.0948865727193
 10
77.11191675589564
 20
-149.9257323843935
 10
77.11191675589564
 20
-149.7396972281901
 10
76.98927135662074
 20
-149.6294541726621
 10
76.81150442958184
 20
-149.6294541726621
 10
76.58929577078324
 20
-149.6294541726621
 10
76.51539847262462
 20
-149.7924071891144
 10
76.51539847262462
 20
-149.9257323843935
 97
        0
 97
        1
330
134
 92
        1
 93
        1
 72
     4
 94
        3
 73
     0
 74
     0
 95
       17
 96
       13
 40
0.0
 40
0.0
 40
0.0
 40
0.0
 40
1.0
 40
1.0
 40
1.0
 40
2.0
 40
2.0
 40
2.0
 40
3.0
 40
3.0
 40
3.0
 40
4.0
 40
4.0
 40
4.0
 40
4.0
 10
75.85531817765076
 20
-149.9257323843935
 10
75.85531817765076
 20
-150.090752458137
 10
75.95040281304365
 20
-150.1751572975256
 10
76.08579506561397
 20
-150.1751572975256
 10
76.20861271966312
 20
-150.1751572975256
 10
76.32712400435572
 20
-150.1034993114324
 10
76.32712400435572
 20
-149.9257323843935
 10
76.32712400435572
 20
-149.7479654573547
 10
76.20861271966312
 20
-149.6759629617129
 10
76.08579506561397
 20
-149.6759629617129
 10
75.95040281304365
 20
-149.6759629617129
 10
75.85531817765076
 20
-149.7627793679412
 10
75.85531817765076
 20
-149.9257323843935
 97
        0
 97
        1
330
135
 92
        1
 93
        1
 72
     4
 94
        3
 73
     0
 74
     0
 95
       29
 96
       25
 40
0.0
 40
0.0
 40
0.0
 40
0.0
 40
1.0
 40
1.0
 40
1.0
 40
2.0
 40
2.0
 40
2.0
 40
3.0
 40
3.0
 40
3.0
 40
4.0
 40
4.0
 40
4.0
 40
5.0
 40
5.0
 40
5.0
 40
6.0
 40
6.0
 40
6.0
 40
7.0
 40
7.0
 40
7.0
 40
8.0
 40
8.0
 40
8.0
 40
8.0
 10
77.30656465081224
 20
-149.9257323843935
 10
77.30656465081224
 20
-150.1923827749519
 10
77.16893308617652
 20
-150.4459418026663
 10
76.81994491352071
 20
-150.4459418026663
 10
76.56397431896664
 20
-150.4459418026663
 10
76.46871742879949
 20
-150.3043483782225
 10
76.40739472916205
 20
-150.1985839468253
 10
76.34813908681575
 20
-150.3232964033914
 10
76.23393417147972
 20
-150.3994330136154
 10
76.07322046709281
 20
-150.3994330136154
 10
75.79812959259561
 20
-150.3994330136154
 10
75.66273734002528
 20
-150.2006510041165
 10
75.66273734002528
 20
-149.9257323843935
 10
75.66273734002528
 20
-149.6422010259575
 10
75.80657007653447
 20
-149.4516872456232
 10
76.07322046709281
 20
-149.4516872456232
 10
76.23393417147972
 20
-149.4516872456232
 10
76.34813908681575
 20
-149.5302354226869
 10
76.40739472916205
 20
-149.6549478792529
 10
76.45820988756948
 20
-149.5660644157335
 10
76.55346677773663
 20
-149.4072455138635
 10
76.81563854416414
 20
-149.4072455138635
 10
77.19012042341081
 20
-149.4072455138635
 10
77.30656465081224
 20
-149.6866427577172
 10
77.30656465081224
 20
-149.9257323843935
 97
        0
 97
        1
330
136
 75
     2
 76
     1
 98
        1
 10
0.0
 20
0.0
450
        0
451
        0
460
0.0
461
0.0
452
        0
462
0.0
453
        0
470

  0
ENDBLK
  5
133
330
130
100
AcDbEntity
  8
0
100
AcDbBlockEnd
  0
BLOCK
  5
13C
330
13A
100
AcDbEntity
  8
0
100
AcDbBlockBegin
  2
Block_9
 70
     0
 10
0.0
 20
0.0
 30
0.0
  3
Block_9
  1

  0
INSERT
  5
13F
330
13A
100
AcDbEntity
  8
レイヤー 1
100
AcDbBlockReference
  2
Block_10
 10
0.0
 20
0.0
 30
0.0
  0
ENDBLK
  5
13D
330
13A
100
AcDbEntity
  8
0
100
AcDbBlockEnd
  0
BLOCK
  5
140
330
13E
100
AcDbEntity
  8
0
100
AcDbBlockBegin
  2
Block_10
 70
     0
 10
0.0
 20
0.0
 30
0.0
  3
Block_10
  1

  0
SPLINE
  5
142
330
13E
100
AcDbEntity
  8
レイヤー 1
100
AcDbSpline
210
0.0
220
0.0
230
1.0
 70
     9
 71
     3
 72
    44
 73
    40
 74
     0
 42
0.0000000001
 43
0.0000000001
 40
0.0
 40
0.0
 40
0.0
 40
0.0
 40
1.0
 40
1.0
 40
1.0
 40
2.0
 40
2.0
 40
2.0
 40
3.0
 40
3.0
 40
3.0
 40
4.0
 40
4.0
 40
4.0
 40
5.0
 40
5.0
 40
5.0
 40
6.0
 40
6.0
 40
6.0
 40
7.0
 40
7.0
 40
7.0
 40
8.0
 40
8.0
 40
8.0
 40
9.0
 40
9.0
 40
9.0
 40
10.0
 40
10.0
 40
10.0
 40
11.0
 40
11.0
 40
11.0
 40
12.0
 40
12.0
 40
12.0
 40
13.0
 40
13.0
 40
13.0
 40
13.0
 10
120.1287570229192
 20
-139.3708210914594
 30
0.0
 10
119.9110269882514
 20
-139.5294677385551
 30
0.0
 10
119.8180094101497
 20
-139.603537291488
 30
0.0
 10
119.7690890542591
 20
-139.7473700279972
 30
0.0
 10
119.7690890542591
 20
-139.7473700279972
 30
0.0
 10
120.5476806339256
 20
-139.7473700279972
 30
0.0
 10
120.5476806339256
 20
-139.7473700279972
 30
0.0
 10
120.5476806339256
 20
-139.7473700279972
 30
0.0
 10
120.5476806339256
 20
-139.9525254641438
 30
0.0
 10
120.5476806339256
 20
-139.9525254641438
 30
0.0
 10
120.5476806339256
 20
-139.9525254641438
 30
0.0
 10
119.519664141127
 20
-139.9525254641438
 30
0.0
 10
119.519664141127
 20
-139.9525254641438
 30
0.0
 10
119.5513590195913
 20
-139.5949245527749
 30
0.0
 10
119.616815833811
 20
-139.5167208852597
 30
0.0
 10
120.001977509062
 20
-139.218375616237
 30
0.0
 10
120.257948103616
 20
-139.0195936067381
 30
0.0
 10
120.3234049178358
 20
-138.951897480453
 30
0.0
 10
120.3234049178358
 20
-138.8144381705915
 30
0.0
 10
120.3234049178358
 20
-138.6959268858989
 30
0.0
 10
120.2514024221941
 20
-138.5646687479109
 30
0.0
 10
120.0546874699863
 20
-138.5646687479109
 30
0.0
 10
119.7945827608499
 20
-138.5646687479109
 30
0.0
 10
119.7863145316854
 20
-138.7953178906484
 30
0.0
 10
119.7818359075545
 20
-138.9117621180498
 30
0.0
 10
119.7818359075545
 20
-138.9117621180498
 30
0.0
 10
119.5575601914648
 20
-138.9117621180498
 30
0.0
 10
119.5575601914648
 20
-138.9117621180498
 30
0.0
 10
119.5661729301779
 20
-138.7848103494184
 30
0.0
 10
119.5768527261822
 20
-138.6726724913735
 30
0.0
 10
119.6571234509885
 20
-138.5541612066809
 30
0.0
 10
119.767021996968
 20
-138.393447502294
 30
0.0
 10
119.95340166272
 20
-138.3595133117643
 30
0.0
 10
120.0695013805729
 20
-138.3595133117643
 30
0.0
 10
120.3468315671355
 20
-138.3595133117643
 30
0.0
 10
120.5542263153475
 20
-138.5436536654509
 30
0.0
 10
120.5542263153475
 20
-138.8165052278827
 30
0.0
 10
120.5542263153475
 20
-139.0449150585547
 30
0.0
 10
120.4377820879461
 20
-139.1444783180785
 30
0.0
 10
120.1287570229192
 20
-139.3708210914594
 30
0.0
  0
HATCH
  5
143
330
13E
100
AcDbEntity
  8
レイヤー 1
 62
   250
420
  2299925
440
 33554687
100
AcDbHatch
 10
0.0
 20
0.0
 30
0.0
210
0.0
220
0.0
230
1.0
  2
SOLID
 70
     1
 71
     1
 91
        1
 92
        1
 93
        1
 72
     4
 94
        3
 73
     0
 74
     0
 95
       44
 96
       40
 40
0.0
 40
0.0
 40
0.0
 40
0.0
 40
1.0
 40
1.0
 40
1.0
 40
2.0
 40
2.0
 40
2.0
 40
3.0
 40
3.0
 40
3.0
 40
4.0
 40
4.0
 40
4.0
 40
5.0
 40
5.0
 40
5.0
 40
6.0
 40
6.0
 40
6.0
 40
7.0
 40
7.0
 40
7.0
 40
8.0
 40
8.0
 40
8.0
 40
9.0
 40
9.0
 40
9.0
 40
10.0
 40
10.0
 40
10.0
 40
11.0
 40
11.0
 40
11.0
 40
12.0
 40
12.0
 40
12.0
 40
13.0
 40
13.0
 40
13.0
 40
13.0
 10
120.1287570229192
 20
-139.3708210914594
 10
119.9110269882514
 20
-139.5294677385551
 10
119.8180094101497
 20
-139.603537291488
 10
119.7690890542591
 20
-139.7473700279972
 10
119.7690890542591
 20
-139.7473700279972
 10
120.5476806339256
 20
-139.7473700279972
 10
120.5476806339256
 20
-139.7473700279972
 10
120.5476806339256
 20
-139.7473700279972
 10
120.5476806339256
 20
-139.9525254641438
 10
120.5476806339256
 20
-139.9525254641438
 10
120.5476806339256
 20
-139.9525254641438
 10
119.519664141127
 20
-139.9525254641438
 10
119.519664141127
 20
-139.9525254641438
 10
119.5513590195913
 20
-139.5949245527749
 10
119.616815833811
 20
-139.5167208852597
 10
120.001977509062
 20
-139.218375616237
 10
120.257948103616
 20
-139.0195936067381
 10
120.3234049178358
 20
-138.951897480453
 10
120.3234049178358
 20
-138.8144381705915
 10
120.3234049178358
 20
-138.6959268858989
 10
120.2514024221941
 20
-138.5646687479109
 10
120.0546874699863
 20
-138.5646687479109
 10
119.7945827608499
 20
-138.5646687479109
 10
119.7863145316854
 20
-138.7953178906484
 10
119.7818359075545
 20
-138.9117621180498
 10
119.7818359075545
 20
-138.9117621180498
 10
119.5575601914648
 20
-138.9117621180498
 10
119.5575601914648
 20
-138.9117621180498
 10
119.5661729301779
 20
-138.7848103494184
 10
119.5768527261822
 20
-138.6726724913735
 10
119.6571234509885
 20
-138.5541612066809
 10
119.767021996968
 20
-138.393447502294
 10
119.95340166272
 20
-138.3595133117643
 10
120.0695013805729
 20
-138.3595133117643
 10
120.3468315671355
 20
-138.3595133117643
 10
120.5542263153475
 20
-138.5436536654509
 10
120.5542263153475
 20
-138.8165052278827
 10
120.5542263153475
 20
-139.0449150585547
 10
120.4377820879461
 20
-139.1444783180785
 10
120.1287570229192
 20
-139.3708210914594
 97
        0
 97
        1
330
142
 75
     2
 76
     1
 98
        1
 10
0.0
 20
0.0
450
        0
451
        0
460
0.0
461
0.0
452
        0
462
0.0
453
        0
470

  0
SPLINE
  5
144
330
13E
100
AcDbEntity
  8
レイヤー 1
100
AcDbSpline
210
0.0
220
0.0
230
1.0
 70
    11
 71
     3
 72
    26
 73
    22
 74
     0
 42
0.0000000001
 43
0.0000000001
 40
0.0
 40
0.0
 40
0.0
 40
0.0
 40
1.0
 40
1.0
 40
1.0
 40
2.0
 40
2.0
 40
2.0
 40
3.0
 40
3.0
 40
3.0
 40
4.0
 40
4.0
 40
4.0
 40
5.0
 40
5.0
 40
5.0
 40
6.0
 40
6.0
 40
6.0
 40
7.0
 40
7.0
 40
7.0
 40
7.0
 10
121.1640082162368
 20
-139.9525254641438
 30
0.0
 10
121.1640082162368
 20
-139.9525254641438
 30
0.0
 10
121.1640082162368
 20
-138.8482001063469
 30
0.0
 10
121.1640082162368
 20
-138.8482001063469
 30
0.0
 10
121.1640082162368
 20
-138.8482001063469
 30
0.0
 10
120.8339680687498
 20
-138.8482001063469
 30
0.0
 10
120.8339680687498
 20
-138.8482001063469
 30
0.0
 10
120.8339680687498
 20
-138.8482001063469
 30
0.0
 10
120.8339680687498
 20
-138.7000610004812
 30
0.0
 10
120.8339680687498
 20
-138.7000610004812
 30
0.0
 10
121.1660752735279
 20
-138.6854193446689
 30
0.0
 10
121.2125840625788
 20
-138.5224663282166
 30
0.0
 10
121.2422118837519
 20
-138.4082614128806
 30
0.0
 10
121.2422118837519
 20
-138.4082614128806
 30
0.0
 10
121.3882839323265
 20
-138.4082614128806
 30
0.0
 10
121.3882839323265
 20
-138.4082614128806
 30
0.0
 10
121.3882839323265
 20
-138.4082614128806
 30
0.0
 10
121.3882839323265
 20
-139.9525254641438
 30
0.0
 10
121.3882839323265
 20
-139.9525254641438
 30
0.0
 10
121.3882839323265
 20
-139.9525254641438
 30
0.0
 10
121.1640082162368
 20
-139.9525254641438
 30
0.0
 10
121.1640082162368
 20
-139.9525254641438
 30
0.0
  0
HATCH
  5
145
330
13E
100
AcDbEntity
  8
レイヤー 1
 62
   250
420
  2299925
440
 33554687
100
AcDbHatch
 10
0.0
 20
0.0
 30
0.0
210
0.0
220
0.0
230
1.0
  2
SOLID
 70
     1
 71
     1
 91
        1
 92
        1
 93
        1
 72
     4
 94
        3
 73
     0
 74
     0
 95
       26
 96
       22
 40
0.0
 40
0.0
 40
0.0
 40
0.0
 40
1.0
 40
1.0
 40
1.0
 40
2.0
 40
2.0
 40
2.0
 40
3.0
 40
3.0
 40
3.0
 40
4.0
 40
4.0
 40
4.0
 40
5.0
 40
5.0
 40
5.0
 40
6.0
 40
6.0
 40
6.0
 40
7.0
 40
7.0
 40
7.0
 40
7.0
 10
121.1640082162368
 20
-139.9525254641438
 10
121.1640082162368
 20
-139.9525254641438
 10
121.1640082162368
 20
-138.8482001063469
 10
121.1640082162368
 20
-138.8482001063469
 10
121.1640082162368
 20
-138.8482001063469
 10
120.8339680687498
 20
-138.8482001063469
 10
120.8339680687498
 20
-138.8482001063469
 10
120.8339680687498
 20
-138.8482001063469
 10
120.8339680687498
 20
-138.7000610004812
 10
120.8339680687498
 20
-138.7000610004812
 10
121.1660752735279
 20
-138.6854193446689
 10
121.2125840625788
 20
-138.5224663282166
 10
121.2422118837519
 20
-138.4082614128806
 10
121.2422118837519
 20
-138.4082614128806
 10
121.3882839323265
 20
-138.4082614128806
 10
121.3882839323265
 20
-138.4082614128806
 10
121.3882839323265
 20
-138.4082614128806
 10
121.3882839323265
 20
-139.9525254641438
 10
121.3882839323265
 20
-139.9525254641438
 10
121.3882839323265
 20
-139.9525254641438
 10
121.1640082162368
 20
-139.9525254641438
 10
121.1640082162368
 20
-139.9525254641438
 97
        0
 97
        1
330
144
 75
     2
 76
     1
 98
        1
 10
0.0
 20
0.0
450
        0
451
        0
460
0.0
461
0.0
452
        0
462
0.0
453
        0
470

  0
ENDBLK
  5
141
330
13E
100
AcDbEntity
  8
0
100
AcDbBlockEnd
  0
BLOCK
  5
14B
330
149
100
AcDbEntity
  8
0
100
AcDbBlockBegin
  2
Block_11
 70
     0
 10
0.0
 20
0.0
 30
0.0
  3
Block_11
  1

  0
SPLINE
  5
14D
330
149
100
AcDbEntity
  8
レイヤー 1
100
AcDbSpline
210
0.0
220
0.0
230
1.0
 70
     9
 71
     3
 72
    17
 73
    13
 74
     0
 42
0.0000000001
 43
0.0000000001
 40
0.0
 40
0.0
 40
0.0
 40
0.0
 40
1.0
 40
1.0
 40
1.0
 40
2.0
 40
2.0
 40
2.0
 40
3.0
 40
3.0
 40
3.0
 40
4.0
 40
4.0
 40
4.0
 40
4.0
 10
105.8133517530605
 20
-138.5520941493898
 30
0.0
 10
105.6948404683679
 20
-138.5520941493898
 30
0.0
 10
105.5191405986202
 20
-138.6091104796706
 30
0.0
 10
105.5191405986202
 20
-138.8947088953978
 30
0.0
 10
105.5191405986202
 20
-139.1210516687787
 30
0.0
 10
105.6590114753213
 20
-139.2163085589459
 30
0.0
 10
105.7944037278917
 20
-139.2163085589459
 30
0.0
 10
106.0565754943192
 20
-139.2163085589459
 30
0.0
 10
106.0948160542054
 20
-139.0068467534427
 30
0.0
 10
106.0948160542054
 20
-138.8905747808155
 30
0.0
 10
106.0948160542054
 20
-138.7148749110678
 30
0.0
 10
105.999386909264
 20
-138.5520941493898
 30
0.0
 10
105.8133517530605
 20
-138.5520941493898
 30
0.0
  0
SPLINE
  5
14E
330
149
100
AcDbEntity
  8
レイヤー 1
100
AcDbSpline
210
0.0
220
0.0
230
1.0
 70
     9
 71
     3
 72
    32
 73
    28
 74
     0
 42
0.0000000001
 43
0.0000000001
 40
0.0
 40
0.0
 40
0.0
 40
0.0
 40
1.0
 40
1.0
 40
1.0
 40
2.0
 40
2.0
 40
2.0
 40
3.0
 40
3.0
 40
3.0
 40
4.0
 40
4.0
 40
4.0
 40
5.0
 40
5.0
 40
5.0
 40
6.0
 40
6.0
 40
6.0
 40
7.0
 40
7.0
 40
7.0
 40
8.0
 40
8.0
 40
8.0
 40
9.0
 40
9.0
 40
9.0
 40
9.0
 10
105.7730441358831
 20
-140.0033406225512
 30
0.0
 10
105.599755832975
 20
-140.0033406225512
 30
0.0
 10
105.3539482701025
 20
-139.9334051842007
 30
0.0
 10
105.3160522197647
 20
-139.6012979794226
 30
0.0
 10
105.3160522197647
 20
-139.6012979794226
 30
0.0
 10
105.5298203946245
 20
-139.6012979794226
 30
0.0
 10
105.5298203946245
 20
-139.6012979794226
 30
0.0
 10
105.5405001906287
 20
-139.6605536217689
 30
0.0
 10
105.572195069093
 20
-139.8086927276346
 30
0.0
 10
105.7751111931743
 20
-139.8086927276346
 30
0.0
 10
106.0672552903235
 20
-139.8086927276346
 30
0.0
 10
106.1051513406612
 20
-139.4786525801477
 30
0.0
 10
106.1178981939566
 20
-139.2734971440011
 30
0.0
 10
106.026947673146
 20
-139.3537678688074
 30
0.0
 10
105.9594238016351
 20
-139.4109564538625
 30
0.0
 10
105.7775227600139
 20
-139.4109564538625
 30
0.0
 10
105.5976887756839
 20
-139.4109564538625
 30
0.0
 10
105.2946926277562
 20
-139.3051920224654
 30
0.0
 10
105.2946926277562
 20
-138.8990152647544
 30
0.0
 10
105.2946926277562
 20
-138.5794826584975
 30
0.0
 10
105.4939914015779
 20
-138.3595133117643
 30
0.0
 10
105.8112846957694
 20
-138.3595133117643
 30
0.0
 10
106.3252929421687
 20
-138.3595133117643
 30
0.0
 10
106.3359727381729
 20
-138.913829175341
 30
0.0
 10
106.3359727381729
 20
-139.1274250954265
 30
0.0
 10
106.3359727381729
 20
-139.3580742381639
 30
0.0
 10
106.3166802034555
 20
-140.0033406225512
 30
0.0
 10
105.7730441358831
 20
-140.0033406225512
 30
0.0
  0
HATCH
  5
14F
330
149
100
AcDbEntity
  8
レイヤー 1
 62
   250
420
  2299925
440
 33554687
100
AcDbHatch
 10
0.0
 20
0.0
 30
0.0
210
0.0
220
0.0
230
1.0
  2
SOLID
 70
     1
 71
     1
 91
        2
 92
        1
 93
        1
 72
     4
 94
        3
 73
     0
 74
     0
 95
       17
 96
       13
 40
0.0
 40
0.0
 40
0.0
 40
0.0
 40
1.0
 40
1.0
 40
1.0
 40
2.0
 40
2.0
 40
2.0
 40
3.0
 40
3.0
 40
3.0
 40
4.0
 40
4.0
 40
4.0
 40
4.0
 10
105.8133517530605
 20
-138.5520941493898
 10
105.6948404683679
 20
-138.5520941493898
 10
105.5191405986202
 20
-138.6091104796706
 10
105.5191405986202
 20
-138.8947088953978
 10
105.5191405986202
 20
-139.1210516687787
 10
105.6590114753213
 20
-139.2163085589459
 10
105.7944037278917
 20
-139.2163085589459
 10
106.0565754943192
 20
-139.2163085589459
 10
106.0948160542054
 20
-139.0068467534427
 10
106.0948160542054
 20
-138.8905747808155
 10
106.0948160542054
 20
-138.7148749110678
 10
105.999386909264
 20
-138.5520941493898
 10
105.8133517530605
 20
-138.5520941493898
 97
        0
 97
        1
330
14D
 92
        1
 93
        1
 72
     4
 94
        3
 73
     0
 74
     0
 95
       32
 96
       28
 40
0.0
 40
0.0
 40
0.0
 40
0.0
 40
1.0
 40
1.0
 40
1.0
 40
2.0
 40
2.0
 40
2.0
 40
3.0
 40
3.0
 40
3.0
 40
4.0
 40
4.0
 40
4.0
 40
5.0
 40
5.0
 40
5.0
 40
6.0
 40
6.0
 40
6.0
 40
7.0
 40
7.0
 40
7.0
 40
8.0
 40
8.0
 40
8.0
 40
9.0
 40
9.0
 40
9.0
 40
9.0
 10
105.7730441358831
 20
-140.0033406225512
 10
105.599755832975
 20
-140.0033406225512
 10
105.3539482701025
 20
-139.9334051842007
 10
105.3160522197647
 20
-139.6012979794226
 10
105.3160522197647
 20
-139.6012979794226
 10
105.5298203946245
 20
-139.6012979794226
 10
105.5298203946245
 20
-139.6012979794226
 10
105.5405001906287
 20
-139.6605536217689
 10
105.572195069093
 20
-139.8086927276346
 10
105.7751111931743
 20
-139.8086927276346
 10
106.0672552903235
 20
-139.8086927276346
 10
106.1051513406612
 20
-139.4786525801477
 10
106.1178981939566
 20
-139.2734971440011
 10
106.026947673146
 20
-139.3537678688074
 10
105.9594238016351
 20
-139.4109564538625
 10
105.7775227600139
 20
-139.4109564538625
 10
105.5976887756839
 20
-139.4109564538625
 10
105.2946926277562
 20
-139.3051920224654
 10
105.2946926277562
 20
-138.8990152647544
 10
105.2946926277562
 20
-138.5794826584975
 10
105.4939914015779
 20
-138.3595133117643
 10
105.8112846957694
 20
-138.3595133117643
 10
106.3252929421687
 20
-138.3595133117643
 10
106.3359727381729
 20
-138.913829175341
 10
106.3359727381729
 20
-139.1274250954265
 10
106.3359727381729
 20
-139.3580742381639
 10
106.3166802034555
 20
-140.0033406225512
 10
105.7730441358831
 20
-140.0033406225512
 97
        0
 97
        1
330
14E
 75
     2
 76
     1
 98
        1
 10
0.0
 20
0.0
450
        0
451
        0
460
0.0
461
0.0
452
        0
462
0.0
453
        0
470

  0
ENDBLK
  5
14C
330
149
100
AcDbEntity
  8
0
100
AcDbBlockEnd
  0
BLOCK
  5
153
330
151
100
AcDbEntity
  8
0
100
AcDbBlockBegin
  2
Block_12
 70
     0
 10
0.0
 20
0.0
 30
0.0
  3
Block_12
  1

  0
SPLINE
  5
155
330
151
100
AcDbEntity
  8
レイヤー 1
100
AcDbSpline
210
0.0
220
0.0
230
1.0
 70
    11
 71
     3
 72
    26
 73
    22
 74
     0
 42
0.0000000001
 43
0.0000000001
 40
0.0
 40
0.0
 40
0.0
 40
0.0
 40
1.0
 40
1.0
 40
1.0
 40
2.0
 40
2.0
 40
2.0
 40
3.0
 40
3.0
 40
3.0
 40
4.0
 40
4.0
 40
4.0
 40
5.0
 40
5.0
 40
5.0
 40
6.0
 40
6.0
 40
6.0
 40
7.0
 40
7.0
 40
7.0
 40
7.0
 10
113.1359022069591
 20
-149.3052706875
 30
0.0
 10
113.1359022069591
 20
-149.3052706875
 30
0.0
 10
113.1359022069591
 20
-148.2009453297032
 30
0.0
 10
113.1359022069591
 20
-148.2009453297032
 30
0.0
 10
113.1359022069591
 20
-148.2009453297032
 30
0.0
 10
112.8058620594721
 20
-148.2009453297032
 30
0.0
 10
112.8058620594721
 20
-148.2009453297032
 30
0.0
 10
112.8058620594721
 20
-148.2009453297032
 30
0.0
 10
112.8058620594721
 20
-148.0528062238375
 30
0.0
 10
112.8058620594721
 20
-148.0528062238375
 30
0.0
 10
113.1379692642502
 20
-148.0381645680252
 30
0.0
 10
113.1844780533011
 20
-147.8752115515729
 30
0.0
 10
113.2141058744742
 20
-147.7610066362368
 30
0.0
 10
113.2141058744742
 20
-147.7610066362368
 30
0.0
 10
113.3601779230488
 20
-147.7610066362368
 30
0.0
 10
113.3601779230488
 20
-147.7610066362368
 30
0.0
 10
113.3601779230488
 20
-147.7610066362368
 30
0.0
 10
113.3601779230488
 20
-149.3052706875
 30
0.0
 10
113.3601779230488
 20
-149.3052706875
 30
0.0
 10
113.3601779230488
 20
-149.3052706875
 30
0.0
 10
113.1359022069591
 20
-149.3052706875
 30
0.0
 10
113.1359022069591
 20
-149.3052706875
 30
0.0
  0
HATCH
  5
156
330
151
100
AcDbEntity
  8
レイヤー 1
 62
   250
420
  2299925
440
 33554687
100
AcDbHatch
 10
0.0
 20
0.0
 30
0.0
210
0.0
220
0.0
230
1.0
  2
SOLID
 70
     1
 71
     1
 91
        1
 92
        1
 93
        1
 72
     4
 94
        3
 73
     0
 74
     0
 95
       26
 96
       22
 40
0.0
 40
0.0
 40
0.0
 40
0.0
 40
1.0
 40
1.0
 40
1.0
 40
2.0
 40
2.0
 40
2.0
 40
3.0
 40
3.0
 40
3.0
 40
4.0
 40
4.0
 40
4.0
 40
5.0
 40
5.0
 40
5.0
 40
6.0
 40
6.0
 40
6.0
 40
7.0
 40
7.0
 40
7.0
 40
7.0
 10
113.1359022069591
 20
-149.3052706875
 10
113.1359022069591
 20
-149.3052706875
 10
113.1359022069591
 20
-148.2009453297032
 10
113.1359022069591
 20
-148.2009453297032
 10
113.1359022069591
 20
-148.2009453297032
 10
112.8058620594721
 20
-148.2009453297032
 10
112.8058620594721
 20
-148.2009453297032
 10
112.8058620594721
 20
-148.2009453297032
 10
112.8058620594721
 20
-148.0528062238375
 10
112.8058620594721
 20
-148.0528062238375
 10
113.1379692642502
 20
-148.0381645680252
 10
113.1844780533011
 20
-147.8752115515729
 10
113.2141058744742
 20
-147.7610066362368
 10
113.2141058744742
 20
-147.7610066362368
 10
113.3601779230488
 20
-147.7610066362368
 10
113.3601779230488
 20
-147.7610066362368
 10
113.3601779230488
 20
-147.7610066362368
 10
113.3601779230488
 20
-149.3052706875
 10
113.3601779230488
 20
-149.3052706875
 10
113.3601779230488
 20
-149.3052706875
 10
113.1359022069591
 20
-149.3052706875
 10
113.1359022069591
 20
-149.3052706875
 97
        0
 97
        1
330
155
 75
     2
 76
     1
 98
        1
 10
0.0
 20
0.0
450
        0
451
        0
460
0.0
461
0.0
452
        0
462
0.0
453
        0
470

  0
ENDBLK
  5
154
330
151
100
AcDbEntity
  8
0
100
AcDbBlockEnd
  0
BLOCK
  5
160
330
15E
100
AcDbEntity
  8
0
100
AcDbBlockBegin
  2
Block_13
 70
     0
 10
0.0
 20
0.0
 30
0.0
  3
Block_13
  1

  0
INSERT
  5
163
330
15E
100
AcDbEntity
  8
レイヤー 1
100
AcDbBlockReference
  2
Block_14
 10
0.0
 20
0.0
 30
0.0
  0
ENDBLK
  5
161
330
15E
100
AcDbEntity
  8
0
100
AcDbBlockEnd
  0
BLOCK
  5
164
330
162
100
AcDbEntity
  8
0
100
AcDbBlockBegin
  2
Block_14
 70
     0
 10
0.0
 20
0.0
 30
0.0
  3
Block_14
  1

  0
SPLINE
  5
166
330
162
100
AcDbEntity
  8
レイヤー 1
100
AcDbSpline
210
0.0
220
0.0
230
1.0
 70
    11
 71
     3
 72
    26
 73
    22
 74
     0
 42
0.0000000001
 43
0.0000000001
 40
0.0
 40
0.0
 40
0.0
 40
0.0
 40
1.0
 40
1.0
 40
1.0
 40
2.0
 40
2.0
 40
2.0
 40
3.0
 40
3.0
 40
3.0
 40
4.0
 40
4.0
 40
4.0
 40
5.0
 40
5.0
 40
5.0
 40
6.0
 40
6.0
 40
6.0
 40
7.0
 40
7.0
 40
7.0
 40
7.0
 10
105.3041666403406
 20
-157.3278645440014
 30
0.0
 10
105.3041666403406
 20
-157.3278645440014
 30
0.0
 10
105.3041666403406
 20
-156.2237114409788
 30
0.0
 10
105.3041666403406
 20
-156.2237114409788
 30
0.0
 10
105.3041666403406
 20
-156.2237114409788
 30
0.0
 10
104.9741264928537
 20
-156.2237114409788
 30
0.0
 10
104.9741264928537
 20
-156.2237114409788
 30
0.0
 10
104.9741264928537
 20
-156.2237114409788
 30
0.0
 10
104.9741264928537
 20
-156.075572335113
 30
0.0
 10
104.9741264928537
 20
-156.075572335113
 30
0.0
 10
105.3062336976318
 20
-156.0607584245265
 30
0.0
 10
105.3527424866826
 20
-155.8978054080741
 30
0.0
 10
105.3823703078558
 20
-155.7834282379638
 30
0.0
 10
105.3823703078558
 20
-155.7834282379638
 30
0.0
 10
105.5284423564304
 20
-155.7834282379638
 30
0.0
 10
105.5284423564304
 20
-155.7834282379638
 30
0.0
 10
105.5284423564304
 20
-155.7834282379638
 30
0.0
 10
105.5284423564304
 20
-157.3278645440014
 30
0.0
 10
105.5284423564304
 20
-157.3278645440014
 30
0.0
 10
105.5284423564304
 20
-157.3278645440014
 30
0.0
 10
105.3041666403406
 20
-157.3278645440014
 30
0.0
 10
105.3041666403406
 20
-157.3278645440014
 30
0.0
  0
HATCH
  5
167
330
162
100
AcDbEntity
  8
レイヤー 1
 62
   250
420
  2299925
440
 33554687
100
AcDbHatch
 10
0.0
 20
0.0
 30
0.0
210
0.0
220
0.0
230
1.0
  2
SOLID
 70
     1
 71
     1
 91
        1
 92
        1
 93
        1
 72
     4
 94
        3
 73
     0
 74
     0
 95
       26
 96
       22
 40
0.0
 40
0.0
 40
0.0
 40
0.0
 40
1.0
 40
1.0
 40
1.0
 40
2.0
 40
2.0
 40
2.0
 40
3.0
 40
3.0
 40
3.0
 40
4.0
 40
4.0
 40
4.0
 40
5.0
 40
5.0
 40
5.0
 40
6.0
 40
6.0
 40
6.0
 40
7.0
 40
7.0
 40
7.0
 40
7.0
 10
105.3041666403406
 20
-157.3278645440014
 10
105.3041666403406
 20
-157.3278645440014
 10
105.3041666403406
 20
-156.2237114409788
 10
105.3041666403406
 20
-156.2237114409788
 10
105.3041666403406
 20
-156.2237114409788
 10
104.9741264928537
 20
-156.2237114409788
 10
104.9741264928537
 20
-156.2237114409788
 10
104.9741264928537
 20
-156.2237114409788
 10
104.9741264928537
 20
-156.075572335113
 10
104.9741264928537
 20
-156.075572335113
 10
105.3062336976318
 20
-156.0607584245265
 10
105.3527424866826
 20
-155.8978054080741
 10
105.3823703078558
 20
-155.7834282379638
 10
105.3823703078558
 20
-155.7834282379638
 10
105.5284423564304
 20
-155.7834282379638
 10
105.5284423564304
 20
-155.7834282379638
 10
105.5284423564304
 20
-155.7834282379638
 10
105.5284423564304
 20
-157.3278645440014
 10
105.5284423564304
 20
-157.3278645440014
 10
105.5284423564304
 20
-157.3278645440014
 10
105.3041666403406
 20
-157.3278645440014
 10
105.3041666403406
 20
-157.3278645440014
 97
        0
 97
        1
330
166
 75
     2
 76
     1
 98
        1
 10
0.0
 20
0.0
450
        0
451
        0
460
0.0
461
0.0
452
        0
462
0.0
453
        0
470

  0
SPLINE
  5
168
330
162
100
AcDbEntity
  8
レイヤー 1
100
AcDbSpline
210
0.0
220
0.0
230
1.0
 70
    11
 71
     3
 72
    26
 73
    22
 74
     0
 42
0.0000000001
 43
0.0000000001
 40
0.0
 40
0.0
 40
0.0
 40
0.0
 40
1.0
 40
1.0
 40
1.0
 40
2.0
 40
2.0
 40
2.0
 40
3.0
 40
3.0
 40
3.0
 40
4.0
 40
4.0
 40
4.0
 40
5.0
 40
5.0
 40
5.0
 40
6.0
 40
6.0
 40
6.0
 40
7.0
 40
7.0
 40
7.0
 40
7.0
 10
106.4810112581019
 20
-157.3278645440014
 30
0.0
 10
106.4810112581019
 20
-157.3278645440014
 30
0.0
 10
106.4810112581019
 20
-156.2237114409788
 30
0.0
 10
106.4810112581019
 20
-156.2237114409788
 30
0.0
 10
106.4810112581019
 20
-156.2237114409788
 30
0.0
 10
106.150971110615
 20
-156.2237114409788
 30
0.0
 10
106.150971110615
 20
-156.2237114409788
 30
0.0
 10
106.150971110615
 20
-156.2237114409788
 30
0.0
 10
106.150971110615
 20
-156.075572335113
 30
0.0
 10
106.150971110615
 20
-156.075572335113
 30
0.0
 10
106.4830783153931
 20
-156.0607584245265
 30
0.0
 10
106.529587104444
 20
-155.8978054080741
 30
0.0
 10
106.5592149256171
 20
-155.7834282379638
 30
0.0
 10
106.5592149256171
 20
-155.7834282379638
 30
0.0
 10
106.7052869741917
 20
-155.7834282379638
 30
0.0
 10
106.7052869741917
 20
-155.7834282379638
 30
0.0
 10
106.7052869741917
 20
-155.7834282379638
 30
0.0
 10
106.7052869741917
 20
-157.3278645440014
 30
0.0
 10
106.7052869741917
 20
-157.3278645440014
 30
0.0
 10
106.7052869741917
 20
-157.3278645440014
 30
0.0
 10
106.4810112581019
 20
-157.3278645440014
 30
0.0
 10
106.4810112581019
 20
-157.3278645440014
 30
0.0
  0
HATCH
  5
169
330
162
100
AcDbEntity
  8
レイヤー 1
 62
   250
420
  2299925
440
 33554687
100
AcDbHatch
 10
0.0
 20
0.0
 30
0.0
210
0.0
220
0.0
230
1.0
  2
SOLID
 70
     1
 71
     1
 91
        1
 92
        1
 93
        1
 72
     4
 94
        3
 73
     0
 74
     0
 95
       26
 96
       22
 40
0.0
 40
0.0
 40
0.0
 40
0.0
 40
1.0
 40
1.0
 40
1.0
 40
2.0
 40
2.0
 40
2.0
 40
3.0
 40
3.0
 40
3.0
 40
4.0
 40
4.0
 40
4.0
 40
5.0
 40
5.0
 40
5.0
 40
6.0
 40
6.0
 40
6.0
 40
7.0
 40
7.0
 40
7.0
 40
7.0
 10
106.4810112581019
 20
-157.3278645440014
 10
106.4810112581019
 20
-157.3278645440014
 10
106.4810112581019
 20
-156.2237114409788
 10
106.4810112581019
 20
-156.2237114409788
 10
106.4810112581019
 20
-156.2237114409788
 10
106.150971110615
 20
-156.2237114409788
 10
106.150971110615
 20
-156.2237114409788
 10
106.150971110615
 20
-156.2237114409788
 10
106.150971110615
 20
-156.075572335113
 10
106.150971110615
 20
-156.075572335113
 10
106.4830783153931
 20
-156.0607584245265
 10
106.529587104444
 20
-155.8978054080741
 10
106.5592149256171
 20
-155.7834282379638
 10
106.5592149256171
 20
-155.7834282379638
 10
106.7052869741917
 20
-155.7834282379638
 10
106.7052869741917
 20
-155.7834282379638
 10
106.7052869741917
 20
-155.7834282379638
 10
106.7052869741917
 20
-157.3278645440014
 10
106.7052869741917
 20
-157.3278645440014
 10
106.7052869741917
 20
-157.3278645440014
 10
106.4810112581019
 20
-157.3278645440014
 10
106.4810112581019
 20
-157.3278645440014
 97
        0
 97
        1
330
168
 75
     2
 76
     1
 98
        1
 10
0.0
 20
0.0
450
        0
451
        0
460
0.0
461
0.0
452
        0
462
0.0
453
        0
470

  0
ENDBLK
  5
165
330
162
100
AcDbEntity
  8
0
100
AcDbBlockEnd
  0
ENDSEC
  0
SECTION
  2
ENTITIES
  0
INSERT
  5
7A
330
70
100
AcDbEntity
  8
レイヤー 1
100
AcDbBlockReference
  2
Block_0
 10
0.0
 20
0.0
 30
0.0
  0
SPLINE
  5
157
330
70
100
AcDbEntity
  8
レイヤー 1
 62
   250
420
  2299925
370
     9
100
AcDbSpline
210
0.0
220
0.0
230
1.0
 70
     9
 71
     3
 72
    17
 73
    13
 74
     0
 42
0.0000000001
 43
0.0000000001
 40
0.0
 40
0.0
 40
0.0
 40
0.0
 40
1.0
 40
1.0
 40
1.0
 40
2.0
 40
2.0
 40
2.0
 40
3.0
 40
3.0
 40
3.0
 40
4.0
 40
4.0
 40
4.0
 40
4.0
 10
100.4278480460556
 20
-158.0414310371296
 30
0.0
 10
100.4278480460556
 20
-157.9862918704772
 30
0.0
 10
100.3828685086154
 20
-157.9414890927105
 30
0.0
 10
100.3274768649632
 20
-157.9414890927105
 30
0.0
 10
100.2728275835453
 20
-157.9414890927105
 30
0.0
 10
100.227848046105
 20
-157.9862918704772
 30
0.0
 10
100.227848046105
 20
-158.0414310371296
 30
0.0
 10
100.227848046105
 20
-158.0965349260052
 30
0.0
 10
100.2728275835453
 20
-158.1413377037719
 30
0.0
 10
100.3274768649632
 20
-158.1413377037719
 30
0.0
 10
100.3828685086154
 20
-158.1413377037719
 30
0.0
 10
100.4278480460556
 20
-158.0965349260052
 30
0.0
 10
100.4278480460556
 20
-158.0414310371296
 30
0.0
  0
HATCH
  5
158
330
70
100
AcDbEntity
  8
レイヤー 1
 62
   250
420
  2299925
440
 33554687
100
AcDbHatch
 10
0.0
 20
0.0
 30
0.0
210
0.0
220
0.0
230
1.0
  2
SOLID
 70
     1
 71
     1
 91
        1
 92
        1
 93
        1
 72
     4
 94
        3
 73
     0
 74
     0
 95
       17
 96
       13
 40
0.0
 40
0.0
 40
0.0
 40
0.0
 40
1.0
 40
1.0
 40
1.0
 40
2.0
 40
2.0
 40
2.0
 40
3.0
 40
3.0
 40
3.0
 40
4.0
 40
4.0
 40
4.0
 40
4.0
 10
100.4278480460556
 20
-158.0414310371296
 10
100.4278480460556
 20
-157.9862918704772
 10
100.3828685086154
 20
-157.9414890927105
 10
100.3274768649632
 20
-157.9414890927105
 10
100.2728275835453
 20
-157.9414890927105
 10
100.227848046105
 20
-157.9862918704772
 10
100.227848046105
 20
-158.0414310371296
 10
100.227848046105
 20
-158.0965349260052
 10
100.2728275835453
 20
-158.1413377037719
 10
100.3274768649632
 20
-158.1413377037719
 10
100.3828685086154
 20
-158.1413377037719
 10
100.4278480460556
 20
-158.0965349260052
 10
100.4278480460556
 20
-158.0414310371296
 97
        0
 97
        1
330
157
 75
     2
 76
     1
 98
        1
 10
0.0
 20
0.0
450
        0
451
        0
460
0.0
461
0.0
452
        0
462
0.0
453
        0
470

  0
SPLINE
  5
159
330
70
100
AcDbEntity
  8
レイヤー 1
 62
   250
420
  2299925
370
     9
100
AcDbSpline
210
0.0
220
0.0
230
1.0
 70
     9
 71
     3
 72
    17
 73
    13
 74
     0
 42
0.0000000001
 43
0.0000000001
 40
0.0
 40
0.0
 40
0.0
 40
0.0
 40
1.0
 40
1.0
 40
1.0
 40
2.0
 40
2.0
 40
2.0
 40
3.0
 40
3.0
 40
3.0
 40
4.0
 40
4.0
 40
4.0
 40
4.0
 10
111.4705345168109
 20
-158.0414310371296
 30
0.0
 10
111.4705345168109
 20
-157.9862918704772
 30
0.0
 10
111.4259208891098
 20
-157.9414890927105
 30
0.0
 10
111.3708961460706
 20
-157.9414890927105
 30
0.0
 10
111.3151481445626
 20
-157.9414890927105
 30
0.0
 10
111.2705345168603
 20
-157.9862918704772
 30
0.0
 10
111.2705345168603
 20
-158.0414310371296
 30
0.0
 10
111.2705345168603
 20
-158.0965349260052
 30
0.0
 10
111.3151481445626
 20
-158.1413377037719
 30
0.0
 10
111.3708961460706
 20
-158.1413377037719
 30
0.0
 10
111.4259208891098
 20
-158.1413377037719
 30
0.0
 10
111.4705345168109
 20
-158.0965349260052
 30
0.0
 10
111.4705345168109
 20
-158.0414310371296
 30
0.0
  0
HATCH
  5
15A
330
70
100
AcDbEntity
  8
レイヤー 1
 62
   250
420
  2299925
440
 33554687
100
AcDbHatch
 10
0.0
 20
0.0
 30
0.0
210
0.0
220
0.0
230
1.0
  2
SOLID
 70
     1
 71
     1
 91
        1
 92
        1
 93
        1
 72
     4
 94
        3
 73
     0
 74
     0
 95
       17
 96
       13
 40
0.0
 40
0.0
 40
0.0
 40
0.0
 40
1.0
 40
1.0
 40
1.0
 40
2.0
 40
2.0
 40
2.0
 40
3.0
 40
3.0
 40
3.0
 40
4.0
 40
4.0
 40
4.0
 40
4.0
 10
111.4705345168109
 20
-158.0414310371296
 10
111.4705345168109
 20
-157.9862918704772
 10
111.4259208891098
 20
-157.9414890927105
 10
111.3708961460706
 20
-157.9414890927105
 10
111.3151481445626
 20
-157.9414890927105
 10
111.2705345168603
 20
-157.9862918704772
 10
111.2705345168603
 20
-158.0414310371296
 10
111.2705345168603
 20
-158.0965349260052
 10
111.3151481445626
 20
-158.1413377037719
 10
111.3708961460706
 20
-158.1413377037719
 10
111.4259208891098
 20
-158.1413377037719
 10
111.4705345168109
 20
-158.0965349260052
 10
111.4705345168109
 20
-158.0414310371296
 97
        0
 97
        1
330
159
 75
     2
 76
     1
 98
        1
 10
0.0
 20
0.0
450
        0
451
        0
460
0.0
461
0.0
452
        0
462
0.0
453
        0
470

  0
LINE
  5
15B
330
70
100
AcDbEntity
  8
レイヤー 1
 62
   250
420
  2299925
370
     9
100
AcDbLine
 10
111.371204822412
 20
-158.0414310371296
 30
0.0
 11
100.3271601294312
 21
-158.0414310371296
 31
0.0
  0
LINE
  5
15C
330
70
100
AcDbEntity
  8
レイヤー 1
 62
   250
420
  2299925
370
     9
100
AcDbLine
 10
111.3712047945969
 20
-156.5813896486059
 30
0.0
 11
111.3712047945969
 21
-159.0415207591024
 31
0.0
  0
LINE
  5
15D
330
70
100
AcDbEntity
  8
レイヤー 1
 62
   250
420
  2299925
370
     9
100
AcDbLine
 10
100.3271601294312
 20
-156.5813896486059
 30
0.0
 11
100.3271601294312
 21
-159.0415207591024
 31
0.0
  0
INSERT
  5
15F
330
70
100
AcDbEntity
  8
レイヤー 1
100
AcDbBlockReference
  2
Block_13
 10
0.0
 20
0.0
 30
0.0
  0
ENDSEC
  0
SECTION
  2
OBJECTS
  0
DICTIONARY
  5
C
330
0
100
AcDbDictionary
281
     1
  3
ACAD_COLOR
350
63
  3
ACAD_DETAILVIEWSTYLE
350
6A
  3
ACAD_GROUP
350
D
  3
ACAD_LAYOUT
350
62
  3
ACAD_MATERIAL
350
10
  3
ACAD_MLEADERSTYLE
350
66
  3
ACAD_MLINESTYLE
350
5F
  3
ACAD_PLOTSETTINGS
350
61
  3
ACAD_PLOTSTYLENAME
350
E
  3
ACAD_SCALELIST
350
42
  3
ACAD_SECTIONVIEWSTYLE
350
68
  3
ACAD_TABLESTYLE
350
64
  3
ACAD_VISUALSTYLE
350
29
  3
ACDB_RECOMPOSE_DATA
350
172
  3
AcDbVariableDictionary
350
16A
  0
DICTIONARY
  5
63
102
{ACAD_REACTORS
330
C
102
}
330
C
100
AcDbDictionary
281
     1
  0
DICTIONARY
  5
6A
102
{ACAD_REACTORS
330
C
102
}
330
C
100
AcDbDictionary
281
     1
  3
Imperial24
350
6B
  0
DICTIONARY
  5
D
102
{ACAD_REACTORS
330
C
102
}
330
C
100
AcDbDictionary
281
     1
  0
DICTIONARY
  5
62
102
{ACAD_REACTORS
330
C
102
}
330
C
100
AcDbDictionary
281
     1
  3
Layout1
350
6F
  3
Layout2
350
77
  3
Model
350
73
  0
DICTIONARY
  5
10
102
{ACAD_REACTORS
330
C
102
}
330
C
100
AcDbDictionary
281
     1
  3
ByBlock
350
19
  3
ByLayer
350
11
  3
Global
350
21
  0
DICTIONARY
  5
66
102
{ACAD_REACTORS
330
C
102
}
330
C
100
AcDbDictionary
281
     1
  3
Standard
350
67
  0
DICTIONARY
  5
5F
102
{ACAD_REACTORS
330
C
102
}
330
C
100
AcDbDictionary
281
     1
  3
Standard
350
60
  0
DICTIONARY
  5
61
102
{ACAD_REACTORS
330
C
102
}
330
C
100
AcDbDictionary
281
     1
  0
ACDBDICTIONARYWDFLT
  5
E
102
{ACAD_REACTORS
330
C
102
}
330
C
100
AcDbDictionary
281
     1
  3
Normal
350
F
100
AcDbDictionaryWithDefault
340
F
  0
DICTIONARY
  5
42
102
{ACAD_REACTORS
330
C
102
}
330
C
100
AcDbDictionary
281
     1
  3
A0
350
43
  3
A1
350
44
  3
A2
350
45
  3
A3
350
46
  3
A4
350
47
  3
A5
350
48
  3
A6
350
49
  3
A7
350
4A
  3
A8
350
4B
  3
A9
350
4C
  3
B0
350
4D
  3
B1
350
4E
  3
B2
350
4F
  3
B3
350
50
  3
B4
350
51
  3
B5
350
52
  3
B6
350
53
  0
DICTIONARY
  5
68
102
{ACAD_REACTORS
330
C
102
}
330
C
100
AcDbDictionary
281
     1
  3
Imperial24
350
69
  0
DICTIONARY
  5
64
102
{ACAD_REACTORS
330
C
102
}
330
C
100
AcDbDictionary
281
     1
  3
Standard
350
65
  0
DICTIONARY
  5
29
102
{ACAD_REACTORS
330
C
102
}
330
C
100
AcDbDictionary
281
     1
  3
2dWireframe
350
2F
  3
Basic
350
2E
  3
Brighten
350
35
  3
ColorChange
350
39
  3
Conceptual
350
32
  3
Dim
350
34
  3
EdgeColorOff
350
41
  3
Facepattern
350
38
  3
Flat
350
2A
  3
FlatWithEdges
350
2B
  3
Gouraud
350
2C
  3
GouraudWithEdges
350
2D
  3
Hidden
350
31
  3
JitterOff
350
3F
  3
Linepattern
350
37
  3
OverhangOff
350
40
  3
Realistic
350
33
  3
Shaded
350
3E
  3
Shaded with edges
350
3D
  3
Shades of Gray
350
3A
  3
Sketchy
350
3B
  3
Thicken
350
36
  3
Wireframe
350
30
  3
X-Ray
350
3C
  0
XRECORD
  5
172
102
{ACAD_REACTORS
330
C
102
}
330
C
100
AcDbXrecord
280
     1
 90
        1
330
65
  0
DICTIONARY
  5
16A
102
{ACAD_REACTORS
330
C
102
}
330
C
100
AcDbDictionary
281
     1
  3
CANNOSCALE
350
16F
  3
CMLEADERSTYLE
350
16C
  3
CTABLESTYLE
350
16B
  3
CVIEWDETAILSTYLE
350
16D
  3
CVIEWSECTIONSTYLE
350
16E
  0
ACDBDETAILVIEWSTYLE
  5
6B
102
{ACAD_XDICTIONARY
360
1A7
102
}
102
{ACAD_REACTORS
330
6A
102
}
330
6A
100
AcDbModelDocViewStyle
 70
     0
  3
Imperial24
290
     0
100
AcDbDetailViewStyle
 70
     0
 71
     0
 90
        3
 71
     1
340
55
 62
   256
 40
0.24
340
0
 62
   256
 40
0.24
300

 40
0.36
280
     3
 71
     2
340
5D
 90
       25
 62
   256
 71
     3
340
55
 62
   256
 40
0.24
 90
        1
 40
0.75
 90
        1
300
%<\AcVar ViewType \f "%tc1">% %<\AcVar ViewDetailId>%\PSCALE %<\AcVar ViewScale \f "%sn">%
 71
     4
340
5D
 90
       25
 62
   256
340
5D
 90
       25
 62
   256
280
     0
  0
LAYOUT
  5
6F
102
{ACAD_REACTORS
330
62
102
}
330
62
100
AcDbPlotSettings
  1

  2

  4

  6

 40
0.0
 41
0.0
 42
0.0
 43
0.0
 44
0.0
 45
0.0
 46
0.0
 47
0.0
 48
0.0
 49
0.0
140
0.0
141
0.0
142
1.0
143
1.0
 70
   688
 72
     0
 73
     0
 74
     5
  7

 75
    16
147
1.0
 76
     0
 77
     2
 78
   300
148
0.0
149
0.0
100
AcDbLayout
  1
Layout1
 70
     1
 71
     1
 10
0.0
 20
0.0
 11
12.0
 21
9.0
 12
0.0
 22
0.0
 32
0.0
 14
0.0
 24
0.0
 34
0.0
 15
0.0
 25
0.0
 35
0.0
146
0.0
 13
0.0
 23
0.0
 33
0.0
 16
1.0
 26
0.0
 36
0.0
 17
0.0
 27
1.0
 37
0.0
 76
     0
330
6C
  0
LAYOUT
  5
77
102
{ACAD_REACTORS
330
62
102
}
330
62
100
AcDbPlotSettings
  1

  2

  4

  6

 40
0.0
 41
0.0
 42
0.0
 43
0.0
 44
0.0
 45
0.0
 46
0.0
 47
0.0
 48
0.0
 49
0.0
140
0.0
141
0.0
142
1.0
143
1.0
 70
   688
 72
     0
 73
     0
 74
     5
  7

 75
    16
147
1.0
 76
     0
 77
     2
 78
   300
148
0.0
149
0.0
100
AcDbLayout
  1
Layout2
 70
     1
 71
     2
 10
0.0
 20
0.0
 11
12.0
 21
9.0
 12
0.0
 22
0.0
 32
0.0
 14
0.0
 24
0.0
 34
0.0
 15
0.0
 25
0.0
 35
0.0
146
0.0
 13
0.0
 23
0.0
 33
0.0
 16
1.0
 26
0.0
 36
0.0
 17
0.0
 27
1.0
 37
0.0
 76
     0
330
74
  0
LAYOUT
  5
73
102
{ACAD_REACTORS
330
62
102
}
330
62
100
AcDbPlotSettings
  1

  2

  4

  6

 40
0.0
 41
0.0
 42
0.0
 43
0.0
 44
0.0
 45
0.0
 46
0.0
 47
0.0
 48
0.0
 49
0.0
140
0.0
141
0.0
142
1.0
143
1.0
 70
  1712
 72
     0
 73
     0
 74
     0
  7

 75
     0
147
1.0
 76
     0
 77
     2
 78
   300
148
0.0
149
0.0
100
AcDbLayout
  1
Model
 70
     1
 71
     0
 10
0.0
 20
0.0
 11
12.0
 21
9.0
 12
0.0
 22
0.0
 32
0.0
 14
0.0
 24
0.0
 34
0.0
 15
0.0
 25
0.0
 35
0.0
146
0.0
 13
0.0
 23
0.0
 33
0.0
 16
1.0
 26
0.0
 36
0.0
 17
0.0
 27
1.0
 37
0.0
 76
     0
330
70
  0
MATERIAL
  5
19
102
{ACAD_XDICTIONARY
360
1A
102
}
102
{ACAD_REACTORS
330
10
102
}
330
10
100
AcDbMaterial
  1
ByBlock
 72
     0
 43
0.0208333333333333
 43
0.0
 43
0.0
 43
0.0
 43
0.0
 43
0.0208333333333333
 43
0.0
 43
0.0
 43
0.0
 43
0.0
 43
1.0
 43
0.0
 43
0.0
 43
0.0
 43
0.0
 43
1.0
 77
     0
 47
0.0208333333333333
 47
0.0
 47
0.0
 47
0.0
 47
0.0
 47
0.0208333333333333
 47
0.0
 47
0.0
 47
0.0
 47
0.0
 47
1.0
 47
0.0
 47
0.0
 47
0.0
 47
0.0
 47
1.0
171
     0
 49
0.0208333333333333
 49
0.0
 49
0.0
 49
0.0
 49
0.0
 49
0.0208333333333333
 49
0.0
 49
0.0
 49
0.0
 49
0.0
 49
1.0
 49
0.0
 49
0.0
 49
0.0
 49
0.0
 49
1.0
175
     0
142
0.0208333333333333
142
0.0
142
0.0
142
0.0
142
0.0
142
0.0208333333333333
142
0.0
142
0.0
142
0.0
142
0.0
142
1.0
142
0.0
142
0.0
142
0.0
142
0.0
142
1.0
179
     0
144
0.0208333333333333
144
0.0
144
0.0
144
0.0
144
0.0
144
0.0208333333333333
144
0.0
144
0.0
144
0.0
144
0.0
144
1.0
144
0.0
144
0.0
144
0.0
144
0.0
144
1.0
147
0.0208333333333333
147
0.0
147
0.0
147
0.0
147
0.0
147
0.0208333333333333
147
0.0
147
0.0
147
0.0
147
0.0
147
1.0
147
0.0
147
0.0
147
0.0
147
0.0
147
1.0
  0
MATERIAL
  5
11
102
{ACAD_XDICTIONARY
360
12
102
}
102
{ACAD_REACTORS
330
10
102
}
330
10
100
AcDbMaterial
  1
ByLayer
 72
     0
 43
0.0208333333333333
 43
0.0
 43
0.0
 43
0.0
 43
0.0
 43
0.0208333333333333
 43
0.0
 43
0.0
 43
0.0
 43
0.0
 43
1.0
 43
0.0
 43
0.0
 43
0.0
 43
0.0
 43
1.0
 77
     0
 47
0.0208333333333333
 47
0.0
 47
0.0
 47
0.0
 47
0.0
 47
0.0208333333333333
 47
0.0
 47
0.0
 47
0.0
 47
0.0
 47
1.0
 47
0.0
 47
0.0
 47
0.0
 47
0.0
 47
1.0
171
     0
 49
0.0208333333333333
 49
0.0
 49
0.0
 49
0.0
 49
0.0
 49
0.0208333333333333
 49
0.0
 49
0.0
 49
0.0
 49
0.0
 49
1.0
 49
0.0
 49
0.0
 49
0.0
 49
0.0
 49
1.0
175
     0
142
0.0208333333333333
142
0.0
142
0.0
142
0.0
142
0.0
142
0.0208333333333333
142
0.0
142
0.0
142
0.0
142
0.0
142
1.0
142
0.0
142
0.0
142
0.0
142
0.0
142
1.0
179
     0
144
0.0208333333333333
144
0.0
144
0.0
144
0.0
144
0.0
144
0.0208333333333333
144
0.0
144
0.0
144
0.0
144
0.0
144
1.0
144
0.0
144
0.0
144
0.0
144
0.0
144
1.0
147
0.0208333333333333
147
0.0
147
0.0
147
0.0
147
0.0
147
0.0208333333333333
147
0.0
147
0.0
147
0.0
147
0.0
147
1.0
147
0.0
147
0.0
147
0.0
147
0.0
147
1.0
  0
MATERIAL
  5
21
102
{ACAD_XDICTIONARY
360
22
102
}
102
{ACAD_REACTORS
330
10
102
}
330
10
100
AcDbMaterial
  1
Global
 72
     0
 43
0.0208333333333333
 43
0.0
 43
0.0
 43
0.0
 43
0.0
 43
0.0208333333333333
 43
0.0
 43
0.0
 43
0.0
 43
0.0
 43
1.0
 43
0.0
 43
0.0
 43
0.0
 43
0.0
 43
1.0
 77
     0
 47
0.0208333333333333
 47
0.0
 47
0.0
 47
0.0
 47
0.0
 47
0.0208333333333333
 47
0.0
 47
0.0
 47
0.0
 47
0.0
 47
1.0
 47
0.0
 47
0.0
 47
0.0
 47
0.0
 47
1.0
171
     0
 49
0.0208333333333333
 49
0.0
 49
0.0
 49
0.0
 49
0.0
 49
0.0208333333333333
 49
0.0
 49
0.0
 49
0.0
 49
0.0
 49
1.0
 49
0.0
 49
0.0
 49
0.0
 49
0.0
 49
1.0
175
     0
142
0.0208333333333333
142
0.0
142
0.0
142
0.0
142
0.0
142
0.0208333333333333
142
0.0
142
0.0
142
0.0
142
0.0
142
1.0
142
0.0
142
0.0
142
0.0
142
0.0
142
1.0
179
     0
144
0.0208333333333333
144
0.0
144
0.0
144
0.0
144
0.0
144
0.0208333333333333
144
0.0
144
0.0
144
0.0
144
0.0
144
1.0
144
0.0
144
0.0
144
0.0
144
0.0
144
1.0
147
0.0208333333333333
147
0.0
147
0.0
147
0.0
147
0.0
147
0.0208333333333333
147
0.0
147
0.0
147
0.0
147
0.0
147
1.0
147
0.0
147
0.0
147
0.0
147
0.0
147
1.0
  0
MLEADERSTYLE
  5
67
102
{ACAD_XDICTIONARY
360
1A3
102
}
102
{ACAD_REACTORS
330
66
102
}
330
66
100
AcDbMLeaderStyle
179
     2
170
     2
171
     1
172
     0
 90
        2
 40
0.0
 41
0.0
173
     1
 91
-1056964608
340
5B
 92
       -2
290
     1
 42
0.09
291
     1
 43
0.36
  3
Standard
 44
0.18
300

342
55
174
     1
178
     6
175
     1
176
     0
 93
-1056964608
 45
0.18
292
     0
297
     0
 46
0.18
 94
-1056964608
 47
1.0
 49
1.0
140
1.0
293
     1
141
0.0
294
     1
177
     0
142
1.0
295
     0
296
     0
143
0.125
271
     0
272
     9
273
     9
  0
MLINESTYLE
  5
60
102
{ACAD_REACTORS
330
5F
102
}
330
5F
100
AcDbMlineStyle
  2
STANDARD
 70
     0
  3

 62
   256
 51
90.0
 52
90.0
 71
     2
 49
0.5
 62
   256
  6
BYLAYER
 49
-0.5
 62
   256
  6
BYLAYER
  0
ACDBPLACEHOLDER
  5
F
102
{ACAD_REACTORS
330
E
102
}
330
E
  0
SCALE
  5
43
102
{ACAD_REACTORS
330
42
102
}
330
42
100
AcDbScale
 70
     0
300
1:1
140
1.0
141
1.0
290
     1
  0
SCALE
  5
44
102
{ACAD_REACTORS
330
42
102
}
330
42
100
AcDbScale
 70
     0
300
1/128" = 1'-0"
140
0.0078125
141
12.0
290
     0
  0
SCALE
  5
45
102
{ACAD_REACTORS
330
42
102
}
330
42
100
AcDbScale
 70
     0
300
1/64" = 1'-0"
140
0.015625
141
12.0
290
     0
  0
SCALE
  5
46
102
{ACAD_REACTORS
330
42
102
}
330
42
100
AcDbScale
 70
     0
300
1/32" = 1'-0"
140
0.03125
141
12.0
290
     0
  0
SCALE
  5
47
102
{ACAD_REACTORS
330
42
102
}
330
42
100
AcDbScale
 70
     0
300
1/16" = 1'-0"
140
0.0625
141
12.0
290
     0
  0
SCALE
  5
48
102
{ACAD_REACTORS
330
42
102
}
330
42
100
AcDbScale
 70
     0
300
3/32" = 1'-0"
140
0.09375
141
12.0
290
     0
  0
SCALE
  5
49
102
{ACAD_REACTORS
330
42
102
}
330
42
100
AcDbScale
 70
     0
300
1/8" = 1'-0"
140
0.125
141
12.0
290
     0
  0
SCALE
  5
4A
102
{ACAD_REACTORS
330
42
102
}
330
42
100
AcDbScale
 70
     0
300
3/16" = 1'-0"
140
0.1875
141
12.0
290
     0
  0
SCALE
  5
4B
102
{ACAD_REACTORS
330
42
102
}
330
42
100
AcDbScale
 70
     0
300
1/4" = 1'-0"
140
0.25
141
12.0
290
     0
  0
SCALE
  5
4C
102
{ACAD_REACTORS
330
42
102
}
330
42
100
AcDbScale
 70
     0
300
3/8" = 1'-0"
140
0.375
141
12.0
290
     0
  0
SCALE
  5
4D
102
{ACAD_REACTORS
330
42
102
}
330
42
100
AcDbScale
 70
     0
300
1/2" = 1'-0"
140
0.5
141
12.0
290
     0
  0
SCALE
  5
4E
102
{ACAD_REACTORS
330
42
102
}
330
42
100
AcDbScale
 70
     0
300
3/4" = 1'-0"
140
0.75
141
12.0
290
     0
  0
SCALE
  5
4F
102
{ACAD_REACTORS
330
42
102
}
330
42
100
AcDbScale
 70
     0
300
1" = 1'-0"
140
1.0
141
12.0
290
     0
  0
SCALE
  5
50
102
{ACAD_REACTORS
330
42
102
}
330
42
100
AcDbScale
 70
     0
300
1-1/2" = 1'-0"
140
1.5
141
12.0
290
     0
  0
SCALE
  5
51
102
{ACAD_REACTORS
330
42
102
}
330
42
100
AcDbScale
 70
     0
300
3" = 1'-0"
140
3.0
141
12.0
290
     0
  0
SCALE
  5
52
102
{ACAD_REACTORS
330
42
102
}
330
42
100
AcDbScale
 70
     0
300
6" = 1'-0"
140
6.0
141
12.0
290
     0
  0
SCALE
  5
53
102
{ACAD_REACTORS
330
42
102
}
330
42
100
AcDbScale
 70
     0
300
1'-0" = 1'-0"
140
12.0
141
12.0
290
     0
  0
ACDBSECTIONVIEWSTYLE
  5
69
102
{ACAD_XDICTIONARY
360
1A5
102
}
102
{ACAD_REACTORS
330
68
102
}
330
68
100
AcDbModelDocViewStyle
 70
     0
  3
Imperial24
290
     0
100
AcDbSectionViewStyle
 70
     0
 71
     0
 90
       78
 71
     1
340
55
 62
   256
 40
0.24
340
0
340
0
 62
   256
 40
0.24
300
I, O, Q, S, X, Z
 40
0.48
 90
        3
 40
0.18
 90
        1
 71
     2
340
5D
 90
       25
 62
   256
340
5D
 90
       50
 62
   256
 40
0.24
 40
0.0
 40
0.24
 71
     3
340
55
 62
   256
 40
0.24
 90
        1
 40
0.75
 90
        1
300
%<\AcVar ViewType \f "%tc1">% %<\AcVar ViewSectionStartId>%-%<\AcVar ViewSectionEndId>%\PSCALE %<\AcVar ViewScale \f "%sn">%
 71
     4
 62
   256
 62
   257
300
ANSI31
 40
1.0
 90
        0
290
     0
290
     0
 90
        6
 40
0.0
 40
1.570796326794896
 40
0.2617993877991494
 40
1.308996938995747
 40
-0.2617993877991494
 40
1.832595714594046
  0
TABLESTYLE
  5
65
102
{ACAD_XDICTIONARY
360
170
102
}
102
{ACAD_REACTORS
330
64
102
}
330
64
100
AcDbTableStyle
280
     0
  3
Standard
 70
     0
 71
     0
 40
0.06
 41
0.06
280
     0
281
     0
  7
Standard
140
0.18
170
     2
 62
     0
 63
     7
283
     0
 90
      512
 91
        0
  1

274
    -2
284
     1
 64
     0
275
    -2
285
     1
 65
     0
276
    -2
286
     1
 66
     0
277
    -2
287
     1
 67
     0
278
    -2
288
     1
 68
     0
279
    -2
289
     1
 69
     0
  7
Standard
140
0.25
170
     5
 62
     0
 63
     7
283
     0
 90
      512
 91
        0
  1

274
    -2
284
     1
 64
     0
275
    -2
285
     1
 65
     0
276
    -2
286
     1
 66
     0
277
    -2
287
     1
 67
     0
278
    -2
288
     1
 68
     0
279
    -2
289
     1
 69
     0
  7
Standard
140
0.18
170
     5
 62
     0
 63
     7
283
     0
 90
      512
 91
        0
  1

274
    -2
284
     1
 64
     0
275
    -2
285
     1
 65
     0
276
    -2
286
     1
 66
     0
277
    -2
287
     1
 67
     0
278
    -2
288
     1
 68
     0
279
    -2
289
     1
 69
     0
  0
VISUALSTYLE
  5
2F
102
{ACAD_XDICTIONARY
360
17D
102
}
102
{ACAD_REACTORS
330
29
102
}
330
29
100
AcDbVisualStyle
  2
2dWireframe
 70
     4
177
     2
291
     0
 71
     0
176
     1
 72
     2
176
     1
 73
     0
176
     1
 90
        0
176
     1
 40
0.6
176
     1
 41
30.0
176
     1
 63
     7
421
 16777215
176
     1
 74
     1
176
     1
 91
        4
176
     1
 64
     7
176
     1
 65
   257
176
     1
 75
     1
176
     1
175
     1
176
     1
 42
1.0
176
     1
 92
        0
176
     1
 66
   257
176
     1
 43
1.0
176
     1
 76
     1
176
     1
 77
     6
176
     1
 78
     2
176
     1
 67
     7
176
     1
 79
     5
176
     1
170
     0
176
     1
171
     0
176
     1
290
     0
176
     1
 93
        1
176
     1
 44
0.0
176
     1
173
     0
176
     1
1001
ACAD
1000
AcDbSavedByObjectVersion
1070
     0
  0
VISUALSTYLE
  5
2E
102
{ACAD_XDICTIONARY
360
17B
102
}
102
{ACAD_REACTORS
330
29
102
}
330
29
100
AcDbVisualStyle
  2
Basic
 70
     7
177
     2
291
     1
 71
     1
176
     1
 72
     0
176
     1
 73
     1
176
     1
 90
        0
176
     1
 40
0.6
176
     1
 41
30.0
176
     1
 63
     7
421
 16777215
176
     1
 74
     0
176
     1
 91
        4
176
     1
 64
     7
176
     1
 65
   257
176
     1
 75
     1
176
     1
175
     1
176
     1
 42
1.0
176
     1
 92
        8
176
     1
 66
     7
176
     1
 43
1.0
176
     1
 76
     1
176
     1
 77
     6
176
     1
 78
     2
176
     1
 67
     7
176
     1
 79
     5
176
     1
170
     0
176
     1
171
     0
176
     1
290
     0
176
     1
 93
        1
176
     1
 44
0.0
176
     1
173
     0
176
     1
1001
ACAD
1000
AcDbSavedByObjectVersion
1070
     0
  0
VISUALSTYLE
  5
35
102
{ACAD_XDICTIONARY
360
189
102
}
102
{ACAD_REACTORS
330
29
102
}
330
29
100
AcDbVisualStyle
  2
Brighten
 70
    12
177
     2
291
     1
 71
     2
176
     1
 72
     2
176
     1
 73
     0
176
     1
 90
        0
176
     1
 40
0.6
176
     1
 41
30.0
176
     1
 63
     7
421
 16777215
176
     1
 74
     1
176
     1
 91
        4
176
     1
 64
     7
176
     1
 65
   257
176
     1
 75
     1
176
     1
175
     1
176
     1
 42
1.0
176
     1
 92
        8
176
     1
 66
     7
176
     1
 43
1.0
176
     1
 76
     1
176
     1
 77
     6
176
     1
 78
     2
176
     1
 67
     7
176
     1
 79
     5
176
     1
170
     0
176
     1
171
     0
176
     1
290
     0
176
     1
 93
        1
176
     1
 44
50.0
176
     1
173
     0
176
     1
1001
ACAD
1000
AcDbSavedByObjectVersion
1070
     0
  0
VISUALSTYLE
  5
39
102
{ACAD_XDICTIONARY
360
191
102
}
102
{ACAD_REACTORS
330
29
102
}
330
29
100
AcDbVisualStyle
  2
ColorChange
 70
    16
177
     2
291
     1
 71
     2
176
     1
 72
     2
176
     1
 73
     3
176
     1
 90
        0
176
     1
 40
0.6
176
     1
 41
30.0
176
     1
 63
     8
421
  8421504
176
     1
 74
     1
176
     1
 91
        4
176
     1
 64
     7
176
     1
 65
   257
176
     1
 75
     1
176
     1
175
     1
176
     1
 42
1.0
176
     1
 92
        8
176
     1
 66
     8
424
  8421504
176
     1
 43
1.0
176
     1
 76
     1
176
     1
 77
     6
176
     1
 78
     2
176
     1
 67
     7
176
     1
 79
     5
176
     1
170
     0
176
     1
171
     0
176
     1
290
     0
176
     1
 93
        1
176
     1
 44
0.0
176
     1
173
     0
176
     1
1001
ACAD
1000
AcDbSavedByObjectVersion
1070
     0
  0
VISUALSTYLE
  5
32
102
{ACAD_XDICTIONARY
360
183
102
}
102
{ACAD_REACTORS
330
29
102
}
330
29
100
AcDbVisualStyle
  2
Conceptual
 70
     9
177
     2
291
     0
 71
     3
176
     1
 72
     2
176
     1
 73
     0
176
     1
 90
        0
176
     1
 40
0.6
176
     1
 41
30.0
176
     1
 63
     7
421
 16777215
176
     1
 74
     2
176
     1
 91
        2
176
     1
 64
     7
176
     1
 65
   257
176
     1
 75
     1
176
     1
175
     1
176
     1
 42
179.0
176
     1
 92
        8
176
     1
 66
     7
176
     1
 43
1.0
176
     1
 76
     1
176
     1
 77
     6
176
     1
 78
     2
176
     1
 67
     7
176
     1
 79
     3
176
     1
170
     0
176
     1
171
     0
176
     1
290
     0
176
     1
 93
        1
176
     1
 44
0.0
176
     1
173
     0
176
     1
1001
ACAD
1000
AcDbSavedByObjectVersion
1070
     0
  0
VISUALSTYLE
  5
34
102
{ACAD_XDICTIONARY
360
187
102
}
102
{ACAD_REACTORS
330
29
102
}
330
29
100
AcDbVisualStyle
  2
Dim
 70
    11
177
     2
291
     1
 71
     2
176
     1
 72
     2
176
     1
 73
     0
176
     1
 90
        0
176
     1
 40
0.6
176
     1
 41
30.0
176
     1
 63
     7
421
 16777215
176
     1
 74
     1
176
     1
 91
        4
176
     1
 64
     7
176
     1
 65
   257
176
     1
 75
     1
176
     1
175
     1
176
     1
 42
1.0
176
     1
 92
        8
176
     1
 66
     7
176
     1
 43
1.0
176
     1
 76
     1
176
     1
 77
     6
176
     1
 78
     2
176
     1
 67
     7
176
     1
 79
     5
176
     1
170
     0
176
     1
171
     0
176
     1
290
     0
176
     1
 93
        1
176
     1
 44
-50.0
176
     1
173
     0
176
     1
1001
ACAD
1000
AcDbSavedByObjectVersion
1070
     0
  0
VISUALSTYLE
  5
41
102
{ACAD_XDICTIONARY
360
1A1
102
}
102
{ACAD_REACTORS
330
29
102
}
330
29
100
AcDbVisualStyle
  2
EdgeColorOff
 70
    22
177
     2
291
     1
 71
     2
176
     0
 72
     2
176
     0
 73
     0
176
     0
 90
        0
176
     0
 40
0.6
176
     0
 41
30.0
176
     0
 63
     7
421
 16777215
176
     0
 74
     1
176
     0
 91
        4
176
     0
 64
     7
176
     0
 65
   257
176
     0
 75
     1
176
     0
175
     1
176
     0
 42
1.0
176
     0
 92
        8
176
     2
 66
     7
176
     0
 43
1.0
176
     0
 76
     1
176
     0
 77
     6
176
     0
 78
     2
176
     0
 67
     7
176
     0
 79
     5
176
     0
170
     0
176
     0
171
     0
176
     0
290
     0
176
     0
 93
        1
176
     0
 44
0.0
176
     0
173
     0
176
     0
1001
ACAD
1000
AcDbSavedByObjectVersion
1070
     0
  0
VISUALSTYLE
  5
38
102
{ACAD_XDICTIONARY
360
18F
102
}
102
{ACAD_REACTORS
330
29
102
}
330
29
100
AcDbVisualStyle
  2
Facepattern
 70
    15
177
     2
291
     1
 71
     2
176
     1
 72
     2
176
     1
 73
     0
176
     1
 90
        0
176
     1
 40
0.6
176
     1
 41
30.0
176
     1
 63
     7
421
 16777215
176
     1
 74
     1
176
     1
 91
        4
176
     1
 64
     7
176
     1
 65
   257
176
     1
 75
     1
176
     1
175
     1
176
     1
 42
1.0
176
     1
 92
        8
176
     1
 66
     7
176
     1
 43
1.0
176
     1
 76
     1
176
     1
 77
     6
176
     1
 78
     2
176
     1
 67
     7
176
     1
 79
     5
176
     1
170
     0
176
     1
171
     0
176
     1
290
     0
176
     1
 93
        1
176
     1
 44
0.0
176
     1
173
     0
176
     1
1001
ACAD
1000
AcDbSavedByObjectVersion
1070
     0
  0
VISUALSTYLE
  5
2A
102
{ACAD_XDICTIONARY
360
173
102
}
102
{ACAD_REACTORS
330
29
102
}
330
29
100
AcDbVisualStyle
  2
Flat
 70
     0
177
     2
291
     1
 71
     2
176
     1
 72
     1
176
     1
 73
     1
176
     1
 90
        2
176
     1
 40
0.6
176
     1
 41
30.0
176
     1
 63
     7
421
 16777215
176
     1
 74
     0
176
     1
 91
        0
176
     1
 64
     7
176
     1
 65
   257
176
     1
 75
     1
176
     1
175
     1
176
     1
 42
1.0
176
     1
 92
        8
176
     1
 66
     7
176
     1
 43
1.0
176
     1
 76
     1
176
     1
 77
     6
176
     1
 78
     2
176
     1
 67
     7
176
     1
 79
     5
176
     1
170
     0
176
     1
171
     0
176
     1
290
     0
176
     1
 93
       13
176
     1
 44
0.0
176
     1
173
     0
176
     1
1001
ACAD
1000
AcDbSavedByObjectVersion
1070
     0
  0
VISUALSTYLE
  5
2B
102
{ACAD_XDICTIONARY
360
175
102
}
102
{ACAD_REACTORS
330
29
102
}
330
29
100
AcDbVisualStyle
  2
FlatWithEdges
 70
     1
177
     2
291
     1
 71
     2
176
     1
 72
     1
176
     1
 73
     1
176
     1
 90
        2
176
     1
 40
0.6
176
     1
 41
30.0
176
     1
 63
     7
421
 16777215
176
     1
 74
     1
176
     1
 91
        0
176
     1
 64
     7
176
     1
 65
   257
176
     1
 75
     1
176
     1
175
     1
176
     1
 42
1.0
176
     1
 92
        0
176
     1
 66
   257
176
     1
 43
1.0
176
     1
 76
     1
176
     1
 77
     6
176
     1
 78
     2
176
     1
 67
     7
176
     1
 79
     5
176
     1
170
     0
176
     1
171
     0
176
     1
290
     0
176
     1
 93
       13
176
     1
 44
0.0
176
     1
173
     0
176
     1
1001
ACAD
1000
AcDbSavedByObjectVersion
1070
     0
  0
VISUALSTYLE
  5
2C
102
{ACAD_XDICTIONARY
360
177
102
}
102
{ACAD_REACTORS
330
29
102
}
330
29
100
AcDbVisualStyle
  2
Gouraud
 70
     2
177
     2
291
     1
 71
     2
176
     1
 72
     2
176
     1
 73
     1
176
     1
 90
        2
176
     1
 40
0.6
176
     1
 41
30.0
176
     1
 63
     7
421
 16777215
176
     1
 74
     0
176
     1
 91
        0
176
     1
 64
     7
176
     1
 65
   257
176
     1
 75
     1
176
     1
175
     1
176
     1
 42
1.0
176
     1
 92
        0
176
     1
 66
     7
176
     1
 43
1.0
176
     1
 76
     1
176
     1
 77
     6
176
     1
 78
     2
176
     1
 67
     7
176
     1
 79
     5
176
     1
170
     0
176
     1
171
     0
176
     1
290
     0
176
     1
 93
       13
176
     1
 44
0.0
176
     1
173
     0
176
     1
1001
ACAD
1000
AcDbSavedByObjectVersion
1070
     0
  0
VISUALSTYLE
  5
2D
102
{ACAD_XDICTIONARY
360
179
102
}
102
{ACAD_REACTORS
330
29
102
}
330
29
100
AcDbVisualStyle
  2
GouraudWithEdges
 70
     3
177
     2
291
     1
 71
     2
176
     1
 72
     2
176
     1
 73
     1
176
     1
 90
        2
176
     1
 40
0.6
176
     1
 41
30.0
176
     1
 63
     7
421
 16777215
176
     1
 74
     1
176
     1
 91
        0
176
     1
 64
     7
176
     1
 65
   257
176
     1
 75
     1
176
     1
175
     1
176
     1
 42
1.0
176
     1
 92
        0
176
     1
 66
   257
176
     1
 43
1.0
176
     1
 76
     1
176
     1
 77
     6
176
     1
 78
     2
176
     1
 67
     7
176
     1
 79
     5
176
     1
170
     0
176
     1
171
     0
176
     1
290
     0
176
     1
 93
       13
176
     1
 44
0.0
176
     1
173
     0
176
     1
1001
ACAD
1000
AcDbSavedByObjectVersion
1070
     0
  0
VISUALSTYLE
  5
31
102
{ACAD_XDICTIONARY
360
181
102
}
102
{ACAD_REACTORS
330
29
102
}
330
29
100
AcDbVisualStyle
  2
Hidden
 70
     6
177
     2
291
     0
 71
     1
176
     1
 72
     2
176
     1
 73
     2
176
     1
 90
        0
176
     1
 40
0.6
176
     1
 41
30.0
176
     1
 63
     7
421
 16777215
176
     1
 74
     2
176
     1
 91
        2
176
     1
 64
     7
176
     1
 65
   257
176
     1
 75
     2
176
     1
175
     1
176
     1
 42
40.0
176
     1
 92
        0
176
     1
 66
   257
176
     1
 43
1.0
176
     1
 76
     1
176
     1
 77
     6
176
     1
 78
     2
176
     1
 67
     7
176
     1
 79
     3
176
     1
170
     0
176
     1
171
     0
176
     1
290
     0
176
     1
 93
        1
176
     1
 44
0.0
176
     1
173
     0
176
     1
1001
ACAD
1000
AcDbSavedByObjectVersion
1070
     0
  0
VISUALSTYLE
  5
3F
102
{ACAD_XDICTIONARY
360
19D
102
}
102
{ACAD_REACTORS
330
29
102
}
330
29
100
AcDbVisualStyle
  2
JitterOff
 70
    20
177
     2
291
     1
 71
     2
176
     0
 72
     2
176
     0
 73
     0
176
     0
 90
        0
176
     0
 40
0.6
176
     0
 41
30.0
176
     0
 63
     7
421
 16777215
176
     0
 74
     1
176
     0
 91
        4
176
     0
 64
     7
176
     0
 65
   257
176
     0
 75
     1
176
     0
175
     1
176
     0
 42
1.0
176
     0
 92
       10
176
     2
 66
     7
176
     0
 43
1.0
176
     0
 76
     1
176
     0
 77
     6
176
     0
 78
     2
176
     0
 67
     7
176
     0
 79
     5
176
     0
170
     0
176
     0
171
     0
176
     0
290
     0
176
     0
 93
        1
176
     0
 44
0.0
176
     0
173
     0
176
     0
1001
ACAD
1000
AcDbSavedByObjectVersion
1070
     0
  0
VISUALSTYLE
  5
37
102
{ACAD_XDICTIONARY
360
18D
102
}
102
{ACAD_REACTORS
330
29
102
}
330
29
100
AcDbVisualStyle
  2
Linepattern
 70
    14
177
     2
291
     1
 71
     2
176
     1
 72
     2
176
     1
 73
     0
176
     1
 90
        0
176
     1
 40
0.6
176
     1
 41
30.0
176
     1
 63
     7
421
 16777215
176
     1
 74
     1
176
     1
 91
        4
176
     1
 64
     7
176
     1
 65
   257
176
     1
 75
     7
176
     1
175
     7
176
     1
 42
1.0
176
     1
 92
        8
176
     1
 66
     7
176
     1
 43
1.0
176
     1
 76
     1
176
     1
 77
     6
176
     1
 78
     2
176
     1
 67
     7
176
     1
 79
     5
176
     1
170
     0
176
     1
171
     0
176
     1
290
     0
176
     1
 93
        1
176
     1
 44
0.0
176
     1
173
     0
176
     1
1001
ACAD
1000
AcDbSavedByObjectVersion
1070
     0
  0
VISUALSTYLE
  5
40
102
{ACAD_XDICTIONARY
360
19F
102
}
102
{ACAD_REACTORS
330
29
102
}
330
29
100
AcDbVisualStyle
  2
OverhangOff
 70
    21
177
     2
291
     1
 71
     2
176
     0
 72
     2
176
     0
 73
     0
176
     0
 90
        0
176
     0
 40
0.6
176
     0
 41
30.0
176
     0
 63
     7
421
 16777215
176
     0
 74
     1
176
     0
 91
        4
176
     0
 64
     7
176
     0
 65
   257
176
     0
 75
     1
176
     0
175
     1
176
     0
 42
1.0
176
     0
 92
        9
176
     2
 66
     7
176
     0
 43
1.0
176
     0
 76
     1
176
     0
 77
     6
176
     0
 78
     2
176
     0
 67
     7
176
     0
 79
     5
176
     0
170
     0
176
     0
171
     0
176
     0
290
     0
176
     0
 93
        1
176
     0
 44
0.0
176
     0
173
     0
176
     0
1001
ACAD
1000
AcDbSavedByObjectVersion
1070
     0
  0
VISUALSTYLE
  5
33
102
{ACAD_XDICTIONARY
360
185
102
}
102
{ACAD_REACTORS
330
29
102
}
330
29
100
AcDbVisualStyle
  2
Realistic
 70
     8
177
     2
291
     0
 71
     2
176
     1
 72
     3
176
     1
 73
     0
176
     1
 90
        2
176
     1
 40
0.6
176
     1
 41
30.0
176
     1
 63
     7
421
 16777215
176
     1
 74
     0
176
     1
 91
        0
176
     1
 64
     7
176
     1
 65
   257
176
     1
 75
     1
176
     1
175
     1
176
     1
 42
1.0
176
     1
 92
        8
176
     1
 66
   257
176
     1
 43
1.0
176
     1
 76
     1
176
     1
 77
     6
176
     1
 78
     2
176
     1
 67
     7
176
     1
 79
     3
176
     1
170
     0
176
     1
171
     0
176
     1
290
     0
176
     1
 93
       13
176
     1
 44
0.0
176
     1
173
     0
176
     1
1001
ACAD
1000
AcDbSavedByObjectVersion
1070
     0
  0
VISUALSTYLE
  5
3E
102
{ACAD_XDICTIONARY
360
19B
102
}
102
{ACAD_REACTORS
330
29
102
}
330
29
100
AcDbVisualStyle
  2
Shaded
 70
    27
177
     2
291
     0
 71
     2
176
     1
 72
     2
176
     1
 73
     1
176
     1
 90
        2
176
     1
 40
0.6
176
     1
 41
30.0
176
     1
 63
     7
421
 16777215
176
     1
 74
     0
176
     1
 91
        4
176
     1
 64
     7
176
     1
 65
   257
176
     1
 75
     1
176
     1
175
     1
176
     1
 42
1.0
176
     1
 92
        8
176
     1
 66
   257
176
     1
 43
1.0
176
     1
 76
     1
176
     1
 77
     6
176
     1
 78
     2
176
     1
 67
     8
425
  7895160
176
     1
 79
     3
176
     1
170
     0
176
     1
171
     0
176
     1
290
     0
176
     1
 93
        5
176
     1
 44
0.0
176
     1
173
     0
176
     1
1001
ACAD
1000
AcDbSavedByObjectVersion
1070
     0
  0
VISUALSTYLE
  5
3D
102
{ACAD_XDICTIONARY
360
199
102
}
102
{ACAD_REACTORS
330
29
102
}
330
29
100
AcDbVisualStyle
  2
Shaded with edges
 70
    26
177
     2
291
     0
 71
     2
176
     1
 72
     2
176
     1
 73
     1
176
     1
 90
        2
176
     1
 40
0.6
176
     1
 41
30.0
176
     1
 63
     7
421
 16777215
176
     1
 74
     1
176
     1
 91
        2
176
     1
 64
     7
176
     1
 65
   257
176
     1
 75
     2
176
     1
175
     1
176
     1
 42
1.0
176
     1
 92
        8
176
     1
 66
   257
176
     1
 43
1.0
176
     1
 76
     1
176
     1
 77
     6
176
     1
 78
     2
176
     1
 67
     7
176
     1
 79
     3
176
     1
170
     0
176
     1
171
     0
176
     1
290
     0
176
     1
 93
        5
176
     1
 44
0.0
176
     1
173
     0
176
     1
1001
ACAD
1000
AcDbSavedByObjectVersion
1070
     0
  0
VISUALSTYLE
  5
3A
102
{ACAD_XDICTIONARY
360
193
102
}
102
{ACAD_REACTORS
330
29
102
}
330
29
100
AcDbVisualStyle
  2
Shades of Gray
 70
    23
177
     2
291
     0
 71
     2
176
     1
 72
     2
176
     1
 73
     3
176
     1
 90
        0
176
     1
 40
0.6
176
     1
 41
30.0
176
     1
 63
     7
421
 16777215
176
     1
 74
     2
176
     1
 91
        2
176
     1
 64
     7
176
     1
 65
     7
176
     1
 75
     1
176
     1
175
     1
176
     1
 42
40.0
176
     1
 92
        8
176
     1
 66
     7
176
     1
 43
1.0
176
     1
 76
     1
176
     1
 77
     6
176
     1
 78
     2
176
     1
 67
     7
176
     1
 79
     3
176
     1
170
     0
176
     1
171
     0
176
     1
290
     0
176
     1
 93
        1
176
     1
 44
0.0
176
     1
173
     0
176
     1
1001
ACAD
1000
AcDbSavedByObjectVersion
1070
     0
  0
VISUALSTYLE
  5
3B
102
{ACAD_XDICTIONARY
360
195
102
}
102
{ACAD_REACTORS
330
29
102
}
330
29
100
AcDbVisualStyle
  2
Sketchy
 70
    24
177
     2
291
     0
 71
     1
176
     1
 72
     2
176
     1
 73
     2
176
     1
 90
        0
176
     1
 40
0.6
176
     1
 41
30.0
176
     1
 63
     7
421
 16777215
176
     1
 74
     2
176
     1
 91
        2
176
     1
 64
     7
176
     1
 65
     7
176
     1
 75
     1
176
     1
175
     1
176
     1
 42
40.0
176
     1
 92
       11
176
     1
 66
     7
176
     1
 43
1.0
176
     1
 76
     1
176
     1
 77
     6
176
     1
 78
     2
176
     1
 67
     7
176
     1
 79
     6
176
     1
170
     0
176
     1
171
     0
176
     1
290
     0
176
     1
 93
        1
176
     1
 44
0.0
176
     1
173
     0
176
     1
1001
ACAD
1000
AcDbSavedByObjectVersion
1070
     0
  0
VISUALSTYLE
  5
36
102
{ACAD_XDICTIONARY
360
18B
102
}
102
{ACAD_REACTORS
330
29
102
}
330
29
100
AcDbVisualStyle
  2
Thicken
 70
    13
177
     2
291
     1
 71
     2
176
     1
 72
     2
176
     1
 73
     0
176
     1
 90
        0
176
     1
 40
0.6
176
     1
 41
30.0
176
     1
 63
     7
421
 16777215
176
     1
 74
     1
176
     1
 91
        4
176
     1
 64
     7
176
     1
 65
   257
176
     1
 75
     1
176
     1
175
     1
176
     1
 42
1.0
176
     1
 92
       12
176
     1
 66
     7
176
     1
 43
1.0
176
     1
 76
     1
176
     1
 77
     6
176
     1
 78
     2
176
     1
 67
     7
176
     1
 79
     5
176
     1
170
     0
176
     1
171
     0
176
     1
290
     0
176
     1
 93
        1
176
     1
 44
0.0
176
     1
173
     0
176
     1
1001
ACAD
1000
AcDbSavedByObjectVersion
1070
     0
  0
VISUALSTYLE
  5
30
102
{ACAD_XDICTIONARY
360
17F
102
}
102
{ACAD_REACTORS
330
29
102
}
330
29
100
AcDbVisualStyle
  2
Wireframe
 70
     5
177
     2
291
     0
 71
     0
176
     1
 72
     2
176
     1
 73
     0
176
     1
 90
        0
176
     1
 40
0.6
176
     1
 41
30.0
176
     1
 63
     7
421
 16777215
176
     1
 74
     1
176
     1
 91
        4
176
     1
 64
     7
176
     1
 65
   257
176
     1
 75
     1
176
     1
175
     1
176
     1
 42
1.0
176
     1
 92
        0
176
     1
 66
   257
176
     1
 43
1.0
176
     1
 76
     1
176
     1
 77
     6
176
     1
 78
     2
176
     1
 67
     7
176
     1
 79
     3
176
     1
170
     0
176
     1
171
     0
176
     1
290
     0
176
     1
 93
        1
176
     1
 44
0.0
176
     1
173
     0
176
     1
1001
ACAD
1000
AcDbSavedByObjectVersion
1070
     0
  0
VISUALSTYLE
  5
3C
102
{ACAD_XDICTIONARY
360
197
102
}
102
{ACAD_REACTORS
330
29
102
}
330
29
100
AcDbVisualStyle
  2
X-Ray
 70
    25
177
     2
291
     0
 71
     2
176
     1
 72
     2
176
     1
 73
     1
176
     1
 90
        1
176
     1
 40
0.5
176
     1
 41
30.0
176
     1
 63
     7
421
 16777215
176
     1
 74
     1
176
     1
 91
        0
176
     1
 64
     7
176
     1
 65
   257
176
     1
 75
     1
176
     1
175
     1
176
     1
 42
1.0
176
     1
 92
        8
176
     1
 66
     7
176
     1
 43
1.0
176
     1
 76
     1
176
     1
 77
     6
176
     1
 78
     2
176
     1
 67
     7
176
     1
 79
     3
176
     1
170
     0
176
     1
171
     0
176
     1
290
     0
176
     1
 93
       13
176
     1
 44
0.0
176
     1
173
     0
176
     1
1001
ACAD
1000
AcDbSavedByObjectVersion
1070
     0
  0
DICTIONARYVAR
  5
16F
102
{ACAD_REACTORS
330
16A
102
}
330
16A
100
DictionaryVariables
280
     0
  1
1:1
  0
DICTIONARYVAR
  5
16C
102
{ACAD_REACTORS
330
16A
102
}
330
16A
100
DictionaryVariables
280
     0
  1
STANDARD
  0
DICTIONARYVAR
  5
16B
102
{ACAD_REACTORS
330
16A
102
}
330
16A
100
DictionaryVariables
280
     0
  1
STANDARD
  0
DICTIONARYVAR
  5
16D
102
{ACAD_REACTORS
330
16A
102
}
330
16A
100
DictionaryVariables
280
     0
  1
Imperial24
  0
DICTIONARYVAR
  5
16E
102
{ACAD_REACTORS
330
16A
102
}
330
16A
100
DictionaryVariables
280
     0
  1
Imperial24
  0
DICTIONARY
  5
1A7
330
6B
100
AcDbDictionary
280
     1
281
     1
  3
ACAD_XREC_ROUNDTRIP
360
1A8
  0
DICTIONARY
  5
1A
330
19
100
AcDbDictionary
280
     1
281
     1
  3
BUMPTILE
360
1C
  3
DIFFUSETILE
360
1B
  3
OPACITYTILE
360
1F
  3
REFLECTIONTILE
360
1E
  3
REFRACTIONTILE
360
20
  3
SPECULARTILE
360
1D
  0
DICTIONARY
  5
12
330
11
100
AcDbDictionary
280
     1
281
     1
  3
BUMPTILE
360
14
  3
DIFFUSETILE
360
13
  3
OPACITYTILE
360
17
  3
REFLECTIONTILE
360
16
  3
REFRACTIONTILE
360
18
  3
SPECULARTILE
360
15
  0
DICTIONARY
  5
22
330
21
100
AcDbDictionary
280
     1
281
     1
  3
BUMPTILE
360
24
  3
DIFFUSETILE
360
23
  3
OPACITYTILE
360
27
  3
REFLECTIONTILE
360
26
  3
REFRACTIONTILE
360
28
  3
SPECULARTILE
360
25
  0
DICTIONARY
  5
1A3
330
67
100
AcDbDictionary
280
     1
281
     1
  3
ACAD_XREC_ROUNDTRIP
360
1A4
  0
DICTIONARY
  5
1A5
330
69
100
AcDbDictionary
280
     1
281
     1
  3
ACAD_XREC_ROUNDTRIP
360
1A6
  0
DICTIONARY
  5
170
330
65
100
AcDbDictionary
280
     1
281
     1
  3
ACAD_ROUNDTRIP_2008_TABLESTYLE_CELLSTYLEMAP
360
171
  0
DICTIONARY
  5
17D
330
2F
100
AcDbDictionary
280
     1
281
     1
  3
ACAD_XREC_ROUNDTRIP
360
17E
  0
DICTIONARY
  5
17B
330
2E
100
AcDbDictionary
280
     1
281
     1
  3
ACAD_XREC_ROUNDTRIP
360
17C
  0
DICTIONARY
  5
189
330
35
100
AcDbDictionary
280
     1
281
     1
  3
ACAD_XREC_ROUNDTRIP
360
18A
  0
DICTIONARY
  5
191
330
39
100
AcDbDictionary
280
     1
281
     1
  3
ACAD_XREC_ROUNDTRIP
360
192
  0
DICTIONARY
  5
183
330
32
100
AcDbDictionary
280
     1
281
     1
  3
ACAD_XREC_ROUNDTRIP
360
184
  0
DICTIONARY
  5
187
330
34
100
AcDbDictionary
280
     1
281
     1
  3
ACAD_XREC_ROUNDTRIP
360
188
  0
DICTIONARY
  5
1A1
330
41
100
AcDbDictionary
280
     1
281
     1
  3
ACAD_XREC_ROUNDTRIP
360
1A2
  0
DICTIONARY
  5
18F
330
38
100
AcDbDictionary
280
     1
281
     1
  3
ACAD_XREC_ROUNDTRIP
360
190
  0
DICTIONARY
  5
173
330
2A
100
AcDbDictionary
280
     1
281
     1
  3
ACAD_XREC_ROUNDTRIP
360
174
  0
DICTIONARY
  5
175
330
2B
100
AcDbDictionary
280
     1
281
     1
  3
ACAD_XREC_ROUNDTRIP
360
176
  0
DICTIONARY
  5
177
330
2C
100
AcDbDictionary
280
     1
281
     1
  3
ACAD_XREC_ROUNDTRIP
360
178
  0
DICTIONARY
  5
179
330
2D
100
AcDbDictionary
280
     1
281
     1
  3
ACAD_XREC_ROUNDTRIP
360
17A
  0
DICTIONARY
  5
181
330
31
100
AcDbDictionary
280
     1
281
     1
  3
ACAD_XREC_ROUNDTRIP
360
182
  0
DICTIONARY
  5
19D
330
3F
100
AcDbDictionary
280
     1
281
     1
  3
ACAD_XREC_ROUNDTRIP
360
19E
  0
DICTIONARY
  5
18D
330
37
100
AcDbDictionary
280
     1
281
     1
  3
ACAD_XREC_ROUNDTRIP
360
18E
  0
DICTIONARY
  5
19F
330
40
100
AcDbDictionary
280
     1
281
     1
  3
ACAD_XREC_ROUNDTRIP
360
1A0
  0
DICTIONARY
  5
185
330
33
100
AcDbDictionary
280
     1
281
     1
  3
ACAD_XREC_ROUNDTRIP
360
186
  0
DICTIONARY
  5
19B
330
3E
100
AcDbDictionary
280
     1
281
     1
  3
ACAD_XREC_ROUNDTRIP
360
19C
  0
DICTIONARY
  5
199
330
3D
100
AcDbDictionary
280
     1
281
     1
  3
ACAD_XREC_ROUNDTRIP
360
19A
  0
DICTIONARY
  5
193
330
3A
100
AcDbDictionary
280
     1
281
     1
  3
ACAD_XREC_ROUNDTRIP
360
194
  0
DICTIONARY
  5
195
330
3B
100
AcDbDictionary
280
     1
281
     1
  3
ACAD_XREC_ROUNDTRIP
360
196
  0
DICTIONARY
  5
18B
330
36
100
AcDbDictionary
280
     1
281
     1
  3
ACAD_XREC_ROUNDTRIP
360
18C
  0
DICTIONARY
  5
17F
330
30
100
AcDbDictionary
280
     1
281
     1
  3
ACAD_XREC_ROUNDTRIP
360
180
  0
DICTIONARY
  5
197
330
3C
100
AcDbDictionary
280
     1
281
     1
  3
ACAD_XREC_ROUNDTRIP
360
198
  0
XRECORD
  5
1A8
102
{ACAD_REACTORS
330
1A7
102
}
330
1A7
100
AcDbXrecord
280
     1
102
DISPLAYNAME
  1
Imperial24
102
FLAGS
 90
        0
  0
XRECORD
  5
1C
102
{ACAD_REACTORS
330
1A
102
}
330
1A
100
AcDbXrecord
280
     1
270
     1
271
     1
  0
XRECORD
  5
1B
102
{ACAD_REACTORS
330
1A
102
}
330
1A
100
AcDbXrecord
280
     1
270
     1
271
     1
  0
XRECORD
  5
1F
102
{ACAD_REACTORS
330
1A
102
}
330
1A
100
AcDbXrecord
280
     1
270
     1
271
     1
  0
XRECORD
  5
1E
102
{ACAD_REACTORS
330
1A
102
}
330
1A
100
AcDbXrecord
280
     1
270
     1
271
     1
  0
XRECORD
  5
20
102
{ACAD_REACTORS
330
1A
102
}
330
1A
100
AcDbXrecord
280
     1
270
     1
271
     1
  0
XRECORD
  5
1D
102
{ACAD_REACTORS
330
1A
102
}
330
1A
100
AcDbXrecord
280
     1
270
     1
271
     1
  0
XRECORD
  5
14
102
{ACAD_REACTORS
330
12
102
}
330
12
100
AcDbXrecord
280
     1
270
     1
271
     1
  0
XRECORD
  5
13
102
{ACAD_REACTORS
330
12
102
}
330
12
100
AcDbXrecord
280
     1
270
     1
271
     1
  0
XRECORD
  5
17
102
{ACAD_REACTORS
330
12
102
}
330
12
100
AcDbXrecord
280
     1
270
     1
271
     1
  0
XRECORD
  5
16
102
{ACAD_REACTORS
330
12
102
}
330
12
100
AcDbXrecord
280
     1
270
     1
271
     1
  0
XRECORD
  5
18
102
{ACAD_REACTORS
330
12
102
}
330
12
100
AcDbXrecord
280
     1
270
     1
271
     1
  0
XRECORD
  5
15
102
{ACAD_REACTORS
330
12
102
}
330
12
100
AcDbXrecord
280
     1
270
     1
271
     1
  0
XRECORD
  5
24
102
{ACAD_REACTORS
330
22
102
}
330
22
100
AcDbXrecord
280
     1
270
     1
271
     1
  0
XRECORD
  5
23
102
{ACAD_REACTORS
330
22
102
}
330
22
100
AcDbXrecord
280
     1
270
     1
271
     1
  0
XRECORD
  5
27
102
{ACAD_REACTORS
330
22
102
}
330
22
100
AcDbXrecord
280
     1
270
     1
271
     1
  0
XRECORD
  5
26
102
{ACAD_REACTORS
330
22
102
}
330
22
100
AcDbXrecord
280
     1
270
     1
271
     1
  0
XRECORD
  5
28
102
{ACAD_REACTORS
330
22
102
}
330
22
100
AcDbXrecord
280
     1
270
     1
271
     1
  0
XRECORD
  5
25
102
{ACAD_REACTORS
330
22
102
}
330
22
100
AcDbXrecord
280
     1
270
     1
271
     1
  0
XRECORD
  5
1A4
102
{ACAD_REACTORS
330
1A3
102
}
330
1A3
100
AcDbXrecord
280
     1
102
ACAD_ROUNDTRIP_2012_MLEADER_STYLE
298
     1
  0
XRECORD
  5
1A6
102
{ACAD_REACTORS
330
1A5
102
}
330
1A5
100
AcDbXrecord
280
     1
102
DISPLAYNAME
  1
Imperial24
102
FLAGS
 90
        0
  0
CELLSTYLEMAP
  5
171
102
{ACAD_REACTORS
330
170
102
}
330
170
100
AcDbCellStyleMap
 90
        3
300
CELLSTYLE
  1
TABLEFORMAT_BEGIN
 90
        5
170
     1
 91
        0
 92
    32768
 62
   257
 93
        1
300
CONTENTFORMAT
  1
CONTENTFORMAT_BEGIN
 90
        0
 91
        0
 92
      512
 93
        0
300

 40
0.0
140
1.0
 94
        5
 62
     0
340
55
144
0.25
309
CONTENTFORMAT_END
171
     0
 94
        0
309
TABLEFORMAT_END
  1
CELLSTYLE_BEGIN
 90
        1
 91
        1
300
_TITLE
309
CELLSTYLE_END
300
CELLSTYLE
  1
TABLEFORMAT_BEGIN
 90
        5
170
     1
 91
        0
 92
        0
 62
   257
 93
        1
300
CONTENTFORMAT
  1
CONTENTFORMAT_BEGIN
 90
        0
 91
        0
 92
      512
 93
        0
300

 40
0.0
140
1.0
 94
        5
 62
     0
340
55
144
0.18
309
CONTENTFORMAT_END
171
     0
 94
        0
309
TABLEFORMAT_END
  1
CELLSTYLE_BEGIN
 90
        2
 91
        1
300
_HEADER
309
CELLSTYLE_END
300
CELLSTYLE
  1
TABLEFORMAT_BEGIN
 90
        5
170
     1
 91
        0
 92
        0
 62
   257
 93
        1
300
CONTENTFORMAT
  1
CONTENTFORMAT_BEGIN
 90
        0
 91
        0
 92
      512
 93
        0
300

 40
0.0
140
1.0
 94
        2
 62
     0
340
55
144
0.18
309
CONTENTFORMAT_END
171
     0
 94
        0
309
TABLEFORMAT_END
  1
CELLSTYLE_BEGIN
 90
        3
 91
        2
300
_DATA
309
CELLSTYLE_END
  0
XRECORD
  5
17E
102
{ACAD_REACTORS
330
17D
102
}
330
17D
100
AcDbXrecord
280
     1
102
RTVSPost2010Prop28
280
     1
102
RTVSPost2010PropOp28
 70
     1
102
RTVSPost2010Prop29
280
     1
102
RTVSPost2010PropOp29
 70
     1
102
RTVSPost2010Prop30
280
     0
102
RTVSPost2010PropOp30
 70
     1
102
RTVSPost2010Prop31
280
     0
102
RTVSPost2010PropOp31
 70
     1
102
RTVSPost2010Prop32
280
     0
102
RTVSPost2010PropOp32
 70
     1
102
RTVSPost2010Prop33
280
     0
102
RTVSPost2010PropOp33
 70
     1
102
RTVSPost2010Prop34
280
     0
102
RTVSPost2010PropOp34
 70
     1
102
RTVSPost2010Prop35
280
     0
102
RTVSPost2010PropOp35
 70
     1
102
RTVSPost2010Prop36
280
     0
102
RTVSPost2010PropOp36
 70
     1
102
RTVSPost2010Prop37
 90
       50
102
RTVSPost2010PropOp37
 70
     1
102
RTVSPost2010Prop38
140
0.0
102
RTVSPost2010PropOp38
 70
     1
102
RTVSPost2010Prop39
140
1.0
102
RTVSPost2010PropOp39
 70
     1
102
RTVSPost2010Prop40
 90
        0
102
RTVSPost2010PropOp40
 70
     1
102
RTVSPost2010Prop41ColorIndex
 90
       18
102
RTVSPost2010Prop41ColorRGB
 90
        0
102
RTVSPost2010PropOp41
 70
     1
102
RTVSPost2010Prop42
 90
       50
102
RTVSPost2010PropOp42
 70
     1
102
RTVSPost2010Prop43
 90
        3
102
RTVSPost2010PropOp43
 70
     1
102
RTVSPost2010Prop44ColorIndex
 90
        5
102
RTVSPost2010Prop44ColorRGB
 90
      255
102
RTVSPost2010PropOp44
 70
     1
102
RTVSPost2010Prop45
280
     0
102
RTVSPost2010PropOp45
 70
     1
102
RTVSPost2010Prop46
 90
       50
102
RTVSPost2010PropOp46
 70
     1
102
RTVSPost2010Prop47
 90
       50
102
RTVSPost2010PropOp47
 70
     1
102
RTVSPost2010Prop48
 90
       50
102
RTVSPost2010PropOp48
 70
     1
102
RTVSPost2010Prop49
280
     0
102
RTVSPost2010PropOp49
 70
     1
102
RTVSPost2010Prop50
 90
       50
102
RTVSPost2010PropOp50
 70
     1
102
RTVSPost2010Prop51ColorIndex
 90
      256
102
RTVSPost2010Prop51ColorRGB
 90
-16777216
102
RTVSPost2010PropOp51
 70
     0
102
RTVSPost2010Prop52
140
1.0
102
RTVSPost2010PropOp52
 70
     0
102
RTVSPost2010Prop53
 90
        2
102
RTVSPost2010PropOp53
 70
     1
102
RTVSPost2010Prop54
  1
strokes_ogs.tif
102
RTVSPost2010PropOp54
 70
     1
102
RTVSPost2010Prop55
280
     0
102
RTVSPost2010PropOp55
 70
     1
102
RTVSPost2010Prop56
140
1.0
102
RTVSPost2010PropOp56
 70
     1
102
RTVSPost2010Prop57
140
1.0
102
RTVSPost2010PropOp57
 70
     1
  0
XRECORD
  5
17C
102
{ACAD_REACTORS
330
17B
102
}
330
17B
100
AcDbXrecord
280
     1
102
RTVSPost2010Prop28
280
     0
102
RTVSPost2010PropOp28
 70
     1
102
RTVSPost2010Prop29
280
     1
102
RTVSPost2010PropOp29
 70
     1
102
RTVSPost2010Prop30
280
     1
102
RTVSPost2010PropOp30
 70
     1
102
RTVSPost2010Prop31
280
     0
102
RTVSPost2010PropOp31
 70
     1
102
RTVSPost2010Prop32
280
     0
102
RTVSPost2010PropOp32
 70
     1
102
RTVSPost2010Prop33
280
     0
102
RTVSPost2010PropOp33
 70
     1
102
RTVSPost2010Prop34
280
     0
102
RTVSPost2010PropOp34
 70
     1
102
RTVSPost2010Prop35
280
     0
102
RTVSPost2010PropOp35
 70
     1
102
RTVSPost2010Prop36
280
     0
102
RTVSPost2010PropOp36
 70
     1
102
RTVSPost2010Prop37
 90
       50
102
RTVSPost2010PropOp37
 70
     1
102
RTVSPost2010Prop38
140
0.0
102
RTVSPost2010PropOp38
 70
     1
102
RTVSPost2010Prop39
140
1.0
102
RTVSPost2010PropOp39
 70
     1
102
RTVSPost2010Prop40
 90
        0
102
RTVSPost2010PropOp40
 70
     1
102
RTVSPost2010Prop41ColorIndex
 90
       18
102
RTVSPost2010Prop41ColorRGB
 90
        0
102
RTVSPost2010PropOp41
 70
     1
102
RTVSPost2010Prop42
 90
       50
102
RTVSPost2010PropOp42
 70
     1
102
RTVSPost2010Prop43
 90
        3
102
RTVSPost2010PropOp43
 70
     1
102
RTVSPost2010Prop44ColorIndex
 90
        5
102
RTVSPost2010Prop44ColorRGB
 90
      255
102
RTVSPost2010PropOp44
 70
     1
102
RTVSPost2010Prop45
280
     0
102
RTVSPost2010PropOp45
 70
     1
102
RTVSPost2010Prop46
 90
       50
102
RTVSPost2010PropOp46
 70
     1
102
RTVSPost2010Prop47
 90
       50
102
RTVSPost2010PropOp47
 70
     1
102
RTVSPost2010Prop48
 90
       50
102
RTVSPost2010PropOp48
 70
     1
102
RTVSPost2010Prop49
280
     0
102
RTVSPost2010PropOp49
 70
     1
102
RTVSPost2010Prop50
 90
       50
102
RTVSPost2010PropOp50
 70
     1
102
RTVSPost2010Prop51ColorIndex
 90
      256
102
RTVSPost2010Prop51ColorRGB
 90
-16777216
102
RTVSPost2010PropOp51
 70
     0
102
RTVSPost2010Prop52
140
1.0
102
RTVSPost2010PropOp52
 70
     0
102
RTVSPost2010Prop53
 90
        2
102
RTVSPost2010PropOp53
 70
     1
102
RTVSPost2010Prop54
  1
strokes_ogs.tif
102
RTVSPost2010PropOp54
 70
     1
102
RTVSPost2010Prop55
280
     0
102
RTVSPost2010PropOp55
 70
     1
102
RTVSPost2010Prop56
140
1.0
102
RTVSPost2010PropOp56
 70
     1
102
RTVSPost2010Prop57
140
1.0
102
RTVSPost2010PropOp57
 70
     1
  0
XRECORD
  5
18A
102
{ACAD_REACTORS
330
189
102
}
330
189
100
AcDbXrecord
280
     1
102
RTVSPost2010Prop28
280
     0
102
RTVSPost2010PropOp28
 70
     1
102
RTVSPost2010Prop29
280
     1
102
RTVSPost2010PropOp29
 70
     1
102
RTVSPost2010Prop30
280
     1
102
RTVSPost2010PropOp30
 70
     1
102
RTVSPost2010Prop31
280
     0
102
RTVSPost2010PropOp31
 70
     1
102
RTVSPost2010Prop32
280
     0
102
RTVSPost2010PropOp32
 70
     1
102
RTVSPost2010Prop33
280
     0
102
RTVSPost2010PropOp33
 70
     1
102
RTVSPost2010Prop34
280
     0
102
RTVSPost2010PropOp34
 70
     1
102
RTVSPost2010Prop35
280
     0
102
RTVSPost2010PropOp35
 70
     1
102
RTVSPost2010Prop36
280
     0
102
RTVSPost2010PropOp36
 70
     1
102
RTVSPost2010Prop37
 90
       50
102
RTVSPost2010PropOp37
 70
     1
102
RTVSPost2010Prop38
140
0.0
102
RTVSPost2010PropOp38
 70
     1
102
RTVSPost2010Prop39
140
1.0
102
RTVSPost2010PropOp39
 70
     1
102
RTVSPost2010Prop40
 90
        0
102
RTVSPost2010PropOp40
 70
     1
102
RTVSPost2010Prop41ColorIndex
 90
       18
102
RTVSPost2010Prop41ColorRGB
 90
        0
102
RTVSPost2010PropOp41
 70
     1
102
RTVSPost2010Prop42
 90
       50
102
RTVSPost2010PropOp42
 70
     1
102
RTVSPost2010Prop43
 90
        3
102
RTVSPost2010PropOp43
 70
     1
102
RTVSPost2010Prop44ColorIndex
 90
        5
102
RTVSPost2010Prop44ColorRGB
 90
      255
102
RTVSPost2010PropOp44
 70
     1
102
RTVSPost2010Prop45
280
     0
102
RTVSPost2010PropOp45
 70
     1
102
RTVSPost2010Prop46
 90
       50
102
RTVSPost2010PropOp46
 70
     1
102
RTVSPost2010Prop47
 90
       50
102
RTVSPost2010PropOp47
 70
     1
102
RTVSPost2010Prop48
 90
       50
102
RTVSPost2010PropOp48
 70
     1
102
RTVSPost2010Prop49
280
     0
102
RTVSPost2010PropOp49
 70
     1
102
RTVSPost2010Prop50
 90
       50
102
RTVSPost2010PropOp50
 70
     1
102
RTVSPost2010Prop51ColorIndex
 90
      256
102
RTVSPost2010Prop51ColorRGB
 90
-16777216
102
RTVSPost2010PropOp51
 70
     0
102
RTVSPost2010Prop52
140
1.0
102
RTVSPost2010PropOp52
 70
     0
102
RTVSPost2010Prop53
 90
        2
102
RTVSPost2010PropOp53
 70
     1
102
RTVSPost2010Prop54
  1
strokes_ogs.tif
102
RTVSPost2010PropOp54
 70
     1
102
RTVSPost2010Prop55
280
     0
102
RTVSPost2010PropOp55
 70
     1
102
RTVSPost2010Prop56
140
1.0
102
RTVSPost2010PropOp56
 70
     1
102
RTVSPost2010Prop57
140
1.0
102
RTVSPost2010PropOp57
 70
     1
  0
XRECORD
  5
192
102
{ACAD_REACTORS
330
191
102
}
330
191
100
AcDbXrecord
280
     1
102
RTVSPost2010Prop28
280
     0
102
RTVSPost2010PropOp28
 70
     1
102
RTVSPost2010Prop29
280
     1
102
RTVSPost2010PropOp29
 70
     1
102
RTVSPost2010Prop30
280
     1
102
RTVSPost2010PropOp30
 70
     1
102
RTVSPost2010Prop31
280
     0
102
RTVSPost2010PropOp31
 70
     1
102
RTVSPost2010Prop32
280
     0
102
RTVSPost2010PropOp32
 70
     1
102
RTVSPost2010Prop33
280
     0
102
RTVSPost2010PropOp33
 70
     1
102
RTVSPost2010Prop34
280
     0
102
RTVSPost2010PropOp34
 70
     1
102
RTVSPost2010Prop35
280
     0
102
RTVSPost2010PropOp35
 70
     1
102
RTVSPost2010Prop36
280
     0
102
RTVSPost2010PropOp36
 70
     1
102
RTVSPost2010Prop37
 90
       50
102
RTVSPost2010PropOp37
 70
     1
102
RTVSPost2010Prop38
140
0.0
102
RTVSPost2010PropOp38
 70
     1
102
RTVSPost2010Prop39
140
1.0
102
RTVSPost2010PropOp39
 70
     1
102
RTVSPost2010Prop40
 90
        0
102
RTVSPost2010PropOp40
 70
     1
102
RTVSPost2010Prop41ColorIndex
 90
       18
102
RTVSPost2010Prop41ColorRGB
 90
        0
102
RTVSPost2010PropOp41
 70
     1
102
RTVSPost2010Prop42
 90
       50
102
RTVSPost2010PropOp42
 70
     1
102
RTVSPost2010Prop43
 90
        3
102
RTVSPost2010PropOp43
 70
     1
102
RTVSPost2010Prop44ColorIndex
 90
        5
102
RTVSPost2010Prop44ColorRGB
 90
      255
102
RTVSPost2010PropOp44
 70
     1
102
RTVSPost2010Prop45
280
     0
102
RTVSPost2010PropOp45
 70
     1
102
RTVSPost2010Prop46
 90
       50
102
RTVSPost2010PropOp46
 70
     1
102
RTVSPost2010Prop47
 90
       50
102
RTVSPost2010PropOp47
 70
     1
102
RTVSPost2010Prop48
 90
       50
102
RTVSPost2010PropOp48
 70
     1
102
RTVSPost2010Prop49
280
     0
102
RTVSPost2010PropOp49
 70
     1
102
RTVSPost2010Prop50
 90
       50
102
RTVSPost2010PropOp50
 70
     1
102
RTVSPost2010Prop51ColorIndex
 90
      256
102
RTVSPost2010Prop51ColorRGB
 90
-16777216
102
RTVSPost2010PropOp51
 70
     0
102
RTVSPost2010Prop52
140
1.0
102
RTVSPost2010PropOp52
 70
     0
102
RTVSPost2010Prop53
 90
        2
102
RTVSPost2010PropOp53
 70
     1
102
RTVSPost2010Prop54
  1
strokes_ogs.tif
102
RTVSPost2010PropOp54
 70
     1
102
RTVSPost2010Prop55
280
     0
102
RTVSPost2010PropOp55
 70
     1
102
RTVSPost2010Prop56
140
1.0
102
RTVSPost2010PropOp56
 70
     1
102
RTVSPost2010Prop57
140
1.0
102
RTVSPost2010PropOp57
 70
     1
  0
XRECORD
  5
184
102
{ACAD_REACTORS
330
183
102
}
330
183
100
AcDbXrecord
280
     1
102
RTVSPost2010Prop28
280
     0
102
RTVSPost2010PropOp28
 70
     1
102
RTVSPost2010Prop29
280
     1
102
RTVSPost2010PropOp29
 70
     1
102
RTVSPost2010Prop30
280
     1
102
RTVSPost2010PropOp30
 70
     1
102
RTVSPost2010Prop31
280
     0
102
RTVSPost2010PropOp31
 70
     1
102
RTVSPost2010Prop32
280
     0
102
RTVSPost2010PropOp32
 70
     1
102
RTVSPost2010Prop33
280
     0
102
RTVSPost2010PropOp33
 70
     1
102
RTVSPost2010Prop34
280
     0
102
RTVSPost2010PropOp34
 70
     1
102
RTVSPost2010Prop35
280
     0
102
RTVSPost2010PropOp35
 70
     1
102
RTVSPost2010Prop36
280
     0
102
RTVSPost2010PropOp36
 70
     1
102
RTVSPost2010Prop37
 90
       50
102
RTVSPost2010PropOp37
 70
     1
102
RTVSPost2010Prop38
140
0.0
102
RTVSPost2010PropOp38
 70
     1
102
RTVSPost2010Prop39
140
1.0
102
RTVSPost2010PropOp39
 70
     1
102
RTVSPost2010Prop40
 90
        0
102
RTVSPost2010PropOp40
 70
     1
102
RTVSPost2010Prop41ColorIndex
 90
       18
102
RTVSPost2010Prop41ColorRGB
 90
        0
102
RTVSPost2010PropOp41
 70
     1
102
RTVSPost2010Prop42
 90
       50
102
RTVSPost2010PropOp42
 70
     1
102
RTVSPost2010Prop43
 90
        3
102
RTVSPost2010PropOp43
 70
     1
102
RTVSPost2010Prop44ColorIndex
 90
        5
102
RTVSPost2010Prop44ColorRGB
 90
      255
102
RTVSPost2010PropOp44
 70
     1
102
RTVSPost2010Prop45
280
     0
102
RTVSPost2010PropOp45
 70
     1
102
RTVSPost2010Prop46
 90
       50
102
RTVSPost2010PropOp46
 70
     1
102
RTVSPost2010Prop47
 90
       50
102
RTVSPost2010PropOp47
 70
     1
102
RTVSPost2010Prop48
 90
       50
102
RTVSPost2010PropOp48
 70
     1
102
RTVSPost2010Prop49
280
     0
102
RTVSPost2010PropOp49
 70
     1
102
RTVSPost2010Prop50
 90
       50
102
RTVSPost2010PropOp50
 70
     1
102
RTVSPost2010Prop51ColorIndex
 90
      256
102
RTVSPost2010Prop51ColorRGB
 90
-16777216
102
RTVSPost2010PropOp51
 70
     0
102
RTVSPost2010Prop52
140
1.0
102
RTVSPost2010PropOp52
 70
     0
102
RTVSPost2010Prop53
 90
        2
102
RTVSPost2010PropOp53
 70
     1
102
RTVSPost2010Prop54
  1
strokes_ogs.tif
102
RTVSPost2010PropOp54
 70
     1
102
RTVSPost2010Prop55
280
     0
102
RTVSPost2010PropOp55
 70
     1
102
RTVSPost2010Prop56
140
1.0
102
RTVSPost2010PropOp56
 70
     1
102
RTVSPost2010Prop57
140
1.0
102
RTVSPost2010PropOp57
 70
     1
  0
XRECORD
  5
188
102
{ACAD_REACTORS
330
187
102
}
330
187
100
AcDbXrecord
280
     1
102
RTVSPost2010Prop28
280
     0
102
RTVSPost2010PropOp28
 70
     1
102
RTVSPost2010Prop29
280
     1
102
RTVSPost2010PropOp29
 70
     1
102
RTVSPost2010Prop30
280
     1
102
RTVSPost2010PropOp30
 70
     1
102
RTVSPost2010Prop31
280
     0
102
RTVSPost2010PropOp31
 70
     1
102
RTVSPost2010Prop32
280
     0
102
RTVSPost2010PropOp32
 70
     1
102
RTVSPost2010Prop33
280
     0
102
RTVSPost2010PropOp33
 70
     1
102
RTVSPost2010Prop34
280
     0
102
RTVSPost2010PropOp34
 70
     1
102
RTVSPost2010Prop35
280
     0
102
RTVSPost2010PropOp35
 70
     1
102
RTVSPost2010Prop36
280
     0
102
RTVSPost2010PropOp36
 70
     1
102
RTVSPost2010Prop37
 90
       50
102
RTVSPost2010PropOp37
 70
     1
102
RTVSPost2010Prop38
140
0.0
102
RTVSPost2010PropOp38
 70
     1
102
RTVSPost2010Prop39
140
1.0
102
RTVSPost2010PropOp39
 70
     1
102
RTVSPost2010Prop40
 90
        0
102
RTVSPost2010PropOp40
 70
     1
102
RTVSPost2010Prop41ColorIndex
 90
       18
102
RTVSPost2010Prop41ColorRGB
 90
        0
102
RTVSPost2010PropOp41
 70
     1
102
RTVSPost2010Prop42
 90
       50
102
RTVSPost2010PropOp42
 70
     1
102
RTVSPost2010Prop43
 90
        3
102
RTVSPost2010PropOp43
 70
     1
102
RTVSPost2010Prop44ColorIndex
 90
        5
102
RTVSPost2010Prop44ColorRGB
 90
      255
102
RTVSPost2010PropOp44
 70
     1
102
RTVSPost2010Prop45
280
     0
102
RTVSPost2010PropOp45
 70
     1
102
RTVSPost2010Prop46
 90
       50
102
RTVSPost2010PropOp46
 70
     1
102
RTVSPost2010Prop47
 90
       50
102
RTVSPost2010PropOp47
 70
     1
102
RTVSPost2010Prop48
 90
       50
102
RTVSPost2010PropOp48
 70
     1
102
RTVSPost2010Prop49
280
     0
102
RTVSPost2010PropOp49
 70
     1
102
RTVSPost2010Prop50
 90
       50
102
RTVSPost2010PropOp50
 70
     1
102
RTVSPost2010Prop51ColorIndex
 90
      256
102
RTVSPost2010Prop51ColorRGB
 90
-16777216
102
RTVSPost2010PropOp51
 70
     0
102
RTVSPost2010Prop52
140
1.0
102
RTVSPost2010PropOp52
 70
     0
102
RTVSPost2010Prop53
 90
        2
102
RTVSPost2010PropOp53
 70
     1
102
RTVSPost2010Prop54
  1
strokes_ogs.tif
102
RTVSPost2010PropOp54
 70
     1
102
RTVSPost2010Prop55
280
     0
102
RTVSPost2010PropOp55
 70
     1
102
RTVSPost2010Prop56
140
1.0
102
RTVSPost2010PropOp56
 70
     1
102
RTVSPost2010Prop57
140
1.0
102
RTVSPost2010PropOp57
 70
     1
  0
XRECORD
  5
1A2
102
{ACAD_REACTORS
330
1A1
102
}
330
1A1
100
AcDbXrecord
280
     1
102
RTVSPost2010Prop28
280
     0
102
RTVSPost2010PropOp28
 70
     0
102
RTVSPost2010Prop29
280
     1
102
RTVSPost2010PropOp29
 70
     0
102
RTVSPost2010Prop30
280
     1
102
RTVSPost2010PropOp30
 70
     0
102
RTVSPost2010Prop31
280
     0
102
RTVSPost2010PropOp31
 70
     0
102
RTVSPost2010Prop32
280
     0
102
RTVSPost2010PropOp32
 70
     0
102
RTVSPost2010Prop33
280
     0
102
RTVSPost2010PropOp33
 70
     0
102
RTVSPost2010Prop34
280
     0
102
RTVSPost2010PropOp34
 70
     0
102
RTVSPost2010Prop35
280
     0
102
RTVSPost2010PropOp35
 70
     0
102
RTVSPost2010Prop36
280
     0
102
RTVSPost2010PropOp36
 70
     0
102
RTVSPost2010Prop37
 90
       50
102
RTVSPost2010PropOp37
 70
     0
102
RTVSPost2010Prop38
140
0.0
102
RTVSPost2010PropOp38
 70
     0
102
RTVSPost2010Prop39
140
1.0
102
RTVSPost2010PropOp39
 70
     0
102
RTVSPost2010Prop40
 90
        0
102
RTVSPost2010PropOp40
 70
     0
102
RTVSPost2010Prop41ColorIndex
 90
       18
102
RTVSPost2010Prop41ColorRGB
 90
        0
102
RTVSPost2010PropOp41
 70
     0
102
RTVSPost2010Prop42
 90
       50
102
RTVSPost2010PropOp42
 70
     0
102
RTVSPost2010Prop43
 90
        3
102
RTVSPost2010PropOp43
 70
     0
102
RTVSPost2010Prop44ColorIndex
 90
        5
102
RTVSPost2010Prop44ColorRGB
 90
      255
102
RTVSPost2010PropOp44
 70
     0
102
RTVSPost2010Prop45
280
     0
102
RTVSPost2010PropOp45
 70
     0
102
RTVSPost2010Prop46
 90
       50
102
RTVSPost2010PropOp46
 70
     0
102
RTVSPost2010Prop47
 90
       50
102
RTVSPost2010PropOp47
 70
     0
102
RTVSPost2010Prop48
 90
       50
102
RTVSPost2010PropOp48
 70
     0
102
RTVSPost2010Prop49
280
     0
102
RTVSPost2010PropOp49
 70
     0
102
RTVSPost2010Prop50
 90
       50
102
RTVSPost2010PropOp50
 70
     0
102
RTVSPost2010Prop51ColorIndex
 90
      256
102
RTVSPost2010Prop51ColorRGB
 90
-16777216
102
RTVSPost2010PropOp51
 70
     0
102
RTVSPost2010Prop52
140
1.0
102
RTVSPost2010PropOp52
 70
     0
102
RTVSPost2010Prop53
 90
        2
102
RTVSPost2010PropOp53
 70
     0
102
RTVSPost2010Prop54
  1
strokes_ogs.tif
102
RTVSPost2010PropOp54
 70
     0
102
RTVSPost2010Prop55
280
     0
102
RTVSPost2010PropOp55
 70
     0
102
RTVSPost2010Prop56
140
1.0
102
RTVSPost2010PropOp56
 70
     0
102
RTVSPost2010Prop57
140
1.0
102
RTVSPost2010PropOp57
 70
     0
  0
XRECORD
  5
190
102
{ACAD_REACTORS
330
18F
102
}
330
18F
100
AcDbXrecord
280
     1
102
RTVSPost2010Prop28
280
     0
102
RTVSPost2010PropOp28
 70
     1
102
RTVSPost2010Prop29
280
     1
102
RTVSPost2010PropOp29
 70
     1
102
RTVSPost2010Prop30
280
     1
102
RTVSPost2010PropOp30
 70
     1
102
RTVSPost2010Prop31
280
     0
102
RTVSPost2010PropOp31
 70
     1
102
RTVSPost2010Prop32
280
     0
102
RTVSPost2010PropOp32
 70
     1
102
RTVSPost2010Prop33
280
     0
102
RTVSPost2010PropOp33
 70
     1
102
RTVSPost2010Prop34
280
     0
102
RTVSPost2010PropOp34
 70
     1
102
RTVSPost2010Prop35
280
     0
102
RTVSPost2010PropOp35
 70
     1
102
RTVSPost2010Prop36
280
     0
102
RTVSPost2010PropOp36
 70
     1
102
RTVSPost2010Prop37
 90
       50
102
RTVSPost2010PropOp37
 70
     1
102
RTVSPost2010Prop38
140
0.0
102
RTVSPost2010PropOp38
 70
     1
102
RTVSPost2010Prop39
140
1.0
102
RTVSPost2010PropOp39
 70
     1
102
RTVSPost2010Prop40
 90
        0
102
RTVSPost2010PropOp40
 70
     1
102
RTVSPost2010Prop41ColorIndex
 90
       18
102
RTVSPost2010Prop41ColorRGB
 90
        0
102
RTVSPost2010PropOp41
 70
     1
102
RTVSPost2010Prop42
 90
       50
102
RTVSPost2010PropOp42
 70
     1
102
RTVSPost2010Prop43
 90
        3
102
RTVSPost2010PropOp43
 70
     1
102
RTVSPost2010Prop44ColorIndex
 90
        5
102
RTVSPost2010Prop44ColorRGB
 90
      255
102
RTVSPost2010PropOp44
 70
     1
102
RTVSPost2010Prop45
280
     0
102
RTVSPost2010PropOp45
 70
     1
102
RTVSPost2010Prop46
 90
       50
102
RTVSPost2010PropOp46
 70
     1
102
RTVSPost2010Prop47
 90
       50
102
RTVSPost2010PropOp47
 70
     1
102
RTVSPost2010Prop48
 90
       50
102
RTVSPost2010PropOp48
 70
     1
102
RTVSPost2010Prop49
280
     0
102
RTVSPost2010PropOp49
 70
     1
102
RTVSPost2010Prop50
 90
       50
102
RTVSPost2010PropOp50
 70
     1
102
RTVSPost2010Prop51ColorIndex
 90
      256
102
RTVSPost2010Prop51ColorRGB
 90
-16777216
102
RTVSPost2010PropOp51
 70
     0
102
RTVSPost2010Prop52
140
1.0
102
RTVSPost2010PropOp52
 70
     0
102
RTVSPost2010Prop53
 90
        2
102
RTVSPost2010PropOp53
 70
     1
102
RTVSPost2010Prop54
  1
strokes_ogs.tif
102
RTVSPost2010PropOp54
 70
     1
102
RTVSPost2010Prop55
280
     0
102
RTVSPost2010PropOp55
 70
     1
102
RTVSPost2010Prop56
140
1.0
102
RTVSPost2010PropOp56
 70
     1
102
RTVSPost2010Prop57
140
1.0
102
RTVSPost2010PropOp57
 70
     1
  0
XRECORD
  5
174
102
{ACAD_REACTORS
330
173
102
}
330
173
100
AcDbXrecord
280
     1
102
RTVSPost2010Prop28
280
     0
102
RTVSPost2010PropOp28
 70
     1
102
RTVSPost2010Prop29
280
     1
102
RTVSPost2010PropOp29
 70
     1
102
RTVSPost2010Prop30
280
     1
102
RTVSPost2010PropOp30
 70
     1
102
RTVSPost2010Prop31
280
     0
102
RTVSPost2010PropOp31
 70
     1
102
RTVSPost2010Prop32
280
     0
102
RTVSPost2010PropOp32
 70
     1
102
RTVSPost2010Prop33
280
     0
102
RTVSPost2010PropOp33
 70
     1
102
RTVSPost2010Prop34
280
     0
102
RTVSPost2010PropOp34
 70
     1
102
RTVSPost2010Prop35
280
     0
102
RTVSPost2010PropOp35
 70
     1
102
RTVSPost2010Prop36
280
     0
102
RTVSPost2010PropOp36
 70
     1
102
RTVSPost2010Prop37
 90
       50
102
RTVSPost2010PropOp37
 70
     1
102
RTVSPost2010Prop38
140
0.0
102
RTVSPost2010PropOp38
 70
     1
102
RTVSPost2010Prop39
140
1.0
102
RTVSPost2010PropOp39
 70
     1
102
RTVSPost2010Prop40
 90
        0
102
RTVSPost2010PropOp40
 70
     1
102
RTVSPost2010Prop41ColorIndex
 90
       18
102
RTVSPost2010Prop41ColorRGB
 90
        0
102
RTVSPost2010PropOp41
 70
     1
102
RTVSPost2010Prop42
 90
       50
102
RTVSPost2010PropOp42
 70
     1
102
RTVSPost2010Prop43
 90
        3
102
RTVSPost2010PropOp43
 70
     1
102
RTVSPost2010Prop44ColorIndex
 90
        5
102
RTVSPost2010Prop44ColorRGB
 90
      255
102
RTVSPost2010PropOp44
 70
     1
102
RTVSPost2010Prop45
280
     0
102
RTVSPost2010PropOp45
 70
     1
102
RTVSPost2010Prop46
 90
       50
102
RTVSPost2010PropOp46
 70
     1
102
RTVSPost2010Prop47
 90
       50
102
RTVSPost2010PropOp47
 70
     1
102
RTVSPost2010Prop48
 90
       50
102
RTVSPost2010PropOp48
 70
     1
102
RTVSPost2010Prop49
280
     0
102
RTVSPost2010PropOp49
 70
     1
102
RTVSPost2010Prop50
 90
       50
102
RTVSPost2010PropOp50
 70
     1
102
RTVSPost2010Prop51ColorIndex
 90
      256
102
RTVSPost2010Prop51ColorRGB
 90
-16777216
102
RTVSPost2010PropOp51
 70
     0
102
RTVSPost2010Prop52
140
1.0
102
RTVSPost2010PropOp52
 70
     0
102
RTVSPost2010Prop53
 90
        2
102
RTVSPost2010PropOp53
 70
     1
102
RTVSPost2010Prop54
  1
strokes_ogs.tif
102
RTVSPost2010PropOp54
 70
     1
102
RTVSPost2010Prop55
280
     0
102
RTVSPost2010PropOp55
 70
     1
102
RTVSPost2010Prop56
140
1.0
102
RTVSPost2010PropOp56
 70
     1
102
RTVSPost2010Prop57
140
1.0
102
RTVSPost2010PropOp57
 70
     1
  0
XRECORD
  5
176
102
{ACAD_REACTORS
330
175
102
}
330
175
100
AcDbXrecord
280
     1
102
RTVSPost2010Prop28
280
     0
102
RTVSPost2010PropOp28
 70
     1
102
RTVSPost2010Prop29
280
     1
102
RTVSPost2010PropOp29
 70
     1
102
RTVSPost2010Prop30
280
     1
102
RTVSPost2010PropOp30
 70
     1
102
RTVSPost2010Prop31
280
     0
102
RTVSPost2010PropOp31
 70
     1
102
RTVSPost2010Prop32
280
     0
102
RTVSPost2010PropOp32
 70
     1
102
RTVSPost2010Prop33
280
     0
102
RTVSPost2010PropOp33
 70
     1
102
RTVSPost2010Prop34
280
     0
102
RTVSPost2010PropOp34
 70
     1
102
RTVSPost2010Prop35
280
     0
102
RTVSPost2010PropOp35
 70
     1
102
RTVSPost2010Prop36
280
     0
102
RTVSPost2010PropOp36
 70
     1
102
RTVSPost2010Prop37
 90
       50
102
RTVSPost2010PropOp37
 70
     1
102
RTVSPost2010Prop38
140
0.0
102
RTVSPost2010PropOp38
 70
     1
102
RTVSPost2010Prop39
140
1.0
102
RTVSPost2010PropOp39
 70
     1
102
RTVSPost2010Prop40
 90
        0
102
RTVSPost2010PropOp40
 70
     1
102
RTVSPost2010Prop41ColorIndex
 90
       18
102
RTVSPost2010Prop41ColorRGB
 90
        0
102
RTVSPost2010PropOp41
 70
     1
102
RTVSPost2010Prop42
 90
       50
102
RTVSPost2010PropOp42
 70
     1
102
RTVSPost2010Prop43
 90
        3
102
RTVSPost2010PropOp43
 70
     1
102
RTVSPost2010Prop44ColorIndex
 90
        5
102
RTVSPost2010Prop44ColorRGB
 90
      255
102
RTVSPost2010PropOp44
 70
     1
102
RTVSPost2010Prop45
280
     0
102
RTVSPost2010PropOp45
 70
     1
102
RTVSPost2010Prop46
 90
       50
102
RTVSPost2010PropOp46
 70
     1
102
RTVSPost2010Prop47
 90
       50
102
RTVSPost2010PropOp47
 70
     1
102
RTVSPost2010Prop48
 90
       50
102
RTVSPost2010PropOp48
 70
     1
102
RTVSPost2010Prop49
280
     0
102
RTVSPost2010PropOp49
 70
     1
102
RTVSPost2010Prop50
 90
       50
102
RTVSPost2010PropOp50
 70
     1
102
RTVSPost2010Prop51ColorIndex
 90
      256
102
RTVSPost2010Prop51ColorRGB
 90
-16777216
102
RTVSPost2010PropOp51
 70
     0
102
RTVSPost2010Prop52
140
1.0
102
RTVSPost2010PropOp52
 70
     0
102
RTVSPost2010Prop53
 90
        2
102
RTVSPost2010PropOp53
 70
     1
102
RTVSPost2010Prop54
  1
strokes_ogs.tif
102
RTVSPost2010PropOp54
 70
     1
102
RTVSPost2010Prop55
280
     0
102
RTVSPost2010PropOp55
 70
     1
102
RTVSPost2010Prop56
140
1.0
102
RTVSPost2010PropOp56
 70
     1
102
RTVSPost2010Prop57
140
1.0
102
RTVSPost2010PropOp57
 70
     1
  0
XRECORD
  5
178
102
{ACAD_REACTORS
330
177
102
}
330
177
100
AcDbXrecord
280
     1
102
RTVSPost2010Prop28
280
     0
102
RTVSPost2010PropOp28
 70
     1
102
RTVSPost2010Prop29
280
     1
102
RTVSPost2010PropOp29
 70
     1
102
RTVSPost2010Prop30
280
     1
102
RTVSPost2010PropOp30
 70
     1
102
RTVSPost2010Prop31
280
     0
102
RTVSPost2010PropOp31
 70
     1
102
RTVSPost2010Prop32
280
     0
102
RTVSPost2010PropOp32
 70
     1
102
RTVSPost2010Prop33
280
     0
102
RTVSPost2010PropOp33
 70
     1
102
RTVSPost2010Prop34
280
     0
102
RTVSPost2010PropOp34
 70
     1
102
RTVSPost2010Prop35
280
     0
102
RTVSPost2010PropOp35
 70
     1
102
RTVSPost2010Prop36
280
     0
102
RTVSPost2010PropOp36
 70
     1
102
RTVSPost2010Prop37
 90
       50
102
RTVSPost2010PropOp37
 70
     1
102
RTVSPost2010Prop38
140
0.0
102
RTVSPost2010PropOp38
 70
     1
102
RTVSPost2010Prop39
140
1.0
102
RTVSPost2010PropOp39
 70
     1
102
RTVSPost2010Prop40
 90
        0
102
RTVSPost2010PropOp40
 70
     1
102
RTVSPost2010Prop41ColorIndex
 90
       18
102
RTVSPost2010Prop41ColorRGB
 90
        0
102
RTVSPost2010PropOp41
 70
     1
102
RTVSPost2010Prop42
 90
       50
102
RTVSPost2010PropOp42
 70
     1
102
RTVSPost2010Prop43
 90
        3
102
RTVSPost2010PropOp43
 70
     1
102
RTVSPost2010Prop44ColorIndex
 90
        5
102
RTVSPost2010Prop44ColorRGB
 90
      255
102
RTVSPost2010PropOp44
 70
     1
102
RTVSPost2010Prop45
280
     0
102
RTVSPost2010PropOp45
 70
     1
102
RTVSPost2010Prop46
 90
       50
102
RTVSPost2010PropOp46
 70
     1
102
RTVSPost2010Prop47
 90
       50
102
RTVSPost2010PropOp47
 70
     1
102
RTVSPost2010Prop48
 90
       50
102
RTVSPost2010PropOp48
 70
     1
102
RTVSPost2010Prop49
280
     0
102
RTVSPost2010PropOp49
 70
     1
102
RTVSPost2010Prop50
 90
       50
102
RTVSPost2010PropOp50
 70
     1
102
RTVSPost2010Prop51ColorIndex
 90
      256
102
RTVSPost2010Prop51ColorRGB
 90
-16777216
102
RTVSPost2010PropOp51
 70
     0
102
RTVSPost2010Prop52
140
1.0
102
RTVSPost2010PropOp52
 70
     0
102
RTVSPost2010Prop53
 90
        2
102
RTVSPost2010PropOp53
 70
     1
102
RTVSPost2010Prop54
  1
strokes_ogs.tif
102
RTVSPost2010PropOp54
 70
     1
102
RTVSPost2010Prop55
280
     0
102
RTVSPost2010PropOp55
 70
     1
102
RTVSPost2010Prop56
140
1.0
102
RTVSPost2010PropOp56
 70
     1
102
RTVSPost2010Prop57
140
1.0
102
RTVSPost2010PropOp57
 70
     1
  0
XRECORD
  5
17A
102
{ACAD_REACTORS
330
179
102
}
330
179
100
AcDbXrecord
280
     1
102
RTVSPost2010Prop28
280
     0
102
RTVSPost2010PropOp28
 70
     1
102
RTVSPost2010Prop29
280
     1
102
RTVSPost2010PropOp29
 70
     1
102
RTVSPost2010Prop30
280
     1
102
RTVSPost2010PropOp30
 70
     1
102
RTVSPost2010Prop31
280
     0
102
RTVSPost2010PropOp31
 70
     1
102
RTVSPost2010Prop32
280
     0
102
RTVSPost2010PropOp32
 70
     1
102
RTVSPost2010Prop33
280
     0
102
RTVSPost2010PropOp33
 70
     1
102
RTVSPost2010Prop34
280
     0
102
RTVSPost2010PropOp34
 70
     1
102
RTVSPost2010Prop35
280
     0
102
RTVSPost2010PropOp35
 70
     1
102
RTVSPost2010Prop36
280
     0
102
RTVSPost2010PropOp36
 70
     1
102
RTVSPost2010Prop37
 90
       50
102
RTVSPost2010PropOp37
 70
     1
102
RTVSPost2010Prop38
140
0.0
102
RTVSPost2010PropOp38
 70
     1
102
RTVSPost2010Prop39
140
1.0
102
RTVSPost2010PropOp39
 70
     1
102
RTVSPost2010Prop40
 90
        0
102
RTVSPost2010PropOp40
 70
     1
102
RTVSPost2010Prop41ColorIndex
 90
       18
102
RTVSPost2010Prop41ColorRGB
 90
        0
102
RTVSPost2010PropOp41
 70
     1
102
RTVSPost2010Prop42
 90
       50
102
RTVSPost2010PropOp42
 70
     1
102
RTVSPost2010Prop43
 90
        3
102
RTVSPost2010PropOp43
 70
     1
102
RTVSPost2010Prop44ColorIndex
 90
        5
102
RTVSPost2010Prop44ColorRGB
 90
      255
102
RTVSPost2010PropOp44
 70
     1
102
RTVSPost2010Prop45
280
     0
102
RTVSPost2010PropOp45
 70
     1
102
RTVSPost2010Prop46
 90
       50
102
RTVSPost2010PropOp46
 70
     1
102
RTVSPost2010Prop47
 90
       50
102
RTVSPost2010PropOp47
 70
     1
102
RTVSPost2010Prop48
 90
       50
102
RTVSPost2010PropOp48
 70
     1
102
RTVSPost2010Prop49
280
     0
102
RTVSPost2010PropOp49
 70
     1
102
RTVSPost2010Prop50
 90
       50
102
RTVSPost2010PropOp50
 70
     1
102
RTVSPost2010Prop51ColorIndex
 90
      256
102
RTVSPost2010Prop51ColorRGB
 90
-16777216
102
RTVSPost2010PropOp51
 70
     0
102
RTVSPost2010Prop52
140
1.0
102
RTVSPost2010PropOp52
 70
     0
102
RTVSPost2010Prop53
 90
        2
102
RTVSPost2010PropOp53
 70
     1
102
RTVSPost2010Prop54
  1
strokes_ogs.tif
102
RTVSPost2010PropOp54
 70
     1
102
RTVSPost2010Prop55
280
     0
102
RTVSPost2010PropOp55
 70
     1
102
RTVSPost2010Prop56
140
1.0
102
RTVSPost2010PropOp56
 70
     1
102
RTVSPost2010Prop57
140
1.0
102
RTVSPost2010PropOp57
 70
     1
  0
XRECORD
  5
182
102
{ACAD_REACTORS
330
181
102
}
330
181
100
AcDbXrecord
280
     1
102
RTVSPost2010Prop28
280
     0
102
RTVSPost2010PropOp28
 70
     1
102
RTVSPost2010Prop29
280
     1
102
RTVSPost2010PropOp29
 70
     1
102
RTVSPost2010Prop30
280
     1
102
RTVSPost2010PropOp30
 70
     1
102
RTVSPost2010Prop31
280
     0
102
RTVSPost2010PropOp31
 70
     1
102
RTVSPost2010Prop32
280
     0
102
RTVSPost2010PropOp32
 70
     1
102
RTVSPost2010Prop33
280
     0
102
RTVSPost2010PropOp33
 70
     1
102
RTVSPost2010Prop34
280
     0
102
RTVSPost2010PropOp34
 70
     1
102
RTVSPost2010Prop35
280
     0
102
RTVSPost2010PropOp35
 70
     1
102
RTVSPost2010Prop36
280
     0
102
RTVSPost2010PropOp36
 70
     1
102
RTVSPost2010Prop37
 90
       50
102
RTVSPost2010PropOp37
 70
     1
102
RTVSPost2010Prop38
140
0.0
102
RTVSPost2010PropOp38
 70
     1
102
RTVSPost2010Prop39
140
1.0
102
RTVSPost2010PropOp39
 70
     1
102
RTVSPost2010Prop40
 90
        0
102
RTVSPost2010PropOp40
 70
     1
102
RTVSPost2010Prop41ColorIndex
 90
       18
102
RTVSPost2010Prop41ColorRGB
 90
        0
102
RTVSPost2010PropOp41
 70
     1
102
RTVSPost2010Prop42
 90
       50
102
RTVSPost2010PropOp42
 70
     1
102
RTVSPost2010Prop43
 90
        3
102
RTVSPost2010PropOp43
 70
     1
102
RTVSPost2010Prop44ColorIndex
 90
        5
102
RTVSPost2010Prop44ColorRGB
 90
      255
102
RTVSPost2010PropOp44
 70
     1
102
RTVSPost2010Prop45
280
     0
102
RTVSPost2010PropOp45
 70
     1
102
RTVSPost2010Prop46
 90
       50
102
RTVSPost2010PropOp46
 70
     1
102
RTVSPost2010Prop47
 90
       50
102
RTVSPost2010PropOp47
 70
     1
102
RTVSPost2010Prop48
 90
       50
102
RTVSPost2010PropOp48
 70
     1
102
RTVSPost2010Prop49
280
     0
102
RTVSPost2010PropOp49
 70
     1
102
RTVSPost2010Prop50
 90
       50
102
RTVSPost2010PropOp50
 70
     1
102
RTVSPost2010Prop51ColorIndex
 90
      256
102
RTVSPost2010Prop51ColorRGB
 90
-16777216
102
RTVSPost2010PropOp51
 70
     0
102
RTVSPost2010Prop52
140
1.0
102
RTVSPost2010PropOp52
 70
     0
102
RTVSPost2010Prop53
 90
        2
102
RTVSPost2010PropOp53
 70
     1
102
RTVSPost2010Prop54
  1
strokes_ogs.tif
102
RTVSPost2010PropOp54
 70
     1
102
RTVSPost2010Prop55
280
     0
102
RTVSPost2010PropOp55
 70
     1
102
RTVSPost2010Prop56
140
1.0
102
RTVSPost2010PropOp56
 70
     1
102
RTVSPost2010Prop57
140
1.0
102
RTVSPost2010PropOp57
 70
     1
  0
XRECORD
  5
19E
102
{ACAD_REACTORS
330
19D
102
}
330
19D
100
AcDbXrecord
280
     1
102
RTVSPost2010Prop28
280
     0
102
RTVSPost2010PropOp28
 70
     0
102
RTVSPost2010Prop29
280
     1
102
RTVSPost2010PropOp29
 70
     0
102
RTVSPost2010Prop30
280
     1
102
RTVSPost2010PropOp30
 70
     0
102
RTVSPost2010Prop31
280
     0
102
RTVSPost2010PropOp31
 70
     0
102
RTVSPost2010Prop32
280
     0
102
RTVSPost2010PropOp32
 70
     0
102
RTVSPost2010Prop33
280
     0
102
RTVSPost2010PropOp33
 70
     0
102
RTVSPost2010Prop34
280
     0
102
RTVSPost2010PropOp34
 70
     0
102
RTVSPost2010Prop35
280
     0
102
RTVSPost2010PropOp35
 70
     0
102
RTVSPost2010Prop36
280
     0
102
RTVSPost2010PropOp36
 70
     0
102
RTVSPost2010Prop37
 90
       50
102
RTVSPost2010PropOp37
 70
     0
102
RTVSPost2010Prop38
140
0.0
102
RTVSPost2010PropOp38
 70
     0
102
RTVSPost2010Prop39
140
1.0
102
RTVSPost2010PropOp39
 70
     0
102
RTVSPost2010Prop40
 90
        0
102
RTVSPost2010PropOp40
 70
     0
102
RTVSPost2010Prop41ColorIndex
 90
       18
102
RTVSPost2010Prop41ColorRGB
 90
        0
102
RTVSPost2010PropOp41
 70
     0
102
RTVSPost2010Prop42
 90
       50
102
RTVSPost2010PropOp42
 70
     0
102
RTVSPost2010Prop43
 90
        3
102
RTVSPost2010PropOp43
 70
     0
102
RTVSPost2010Prop44ColorIndex
 90
        5
102
RTVSPost2010Prop44ColorRGB
 90
      255
102
RTVSPost2010PropOp44
 70
     0
102
RTVSPost2010Prop45
280
     0
102
RTVSPost2010PropOp45
 70
     0
102
RTVSPost2010Prop46
 90
       50
102
RTVSPost2010PropOp46
 70
     0
102
RTVSPost2010Prop47
 90
       50
102
RTVSPost2010PropOp47
 70
     0
102
RTVSPost2010Prop48
 90
       50
102
RTVSPost2010PropOp48
 70
     0
102
RTVSPost2010Prop49
280
     0
102
RTVSPost2010PropOp49
 70
     0
102
RTVSPost2010Prop50
 90
       50
102
RTVSPost2010PropOp50
 70
     0
102
RTVSPost2010Prop51ColorIndex
 90
      256
102
RTVSPost2010Prop51ColorRGB
 90
-16777216
102
RTVSPost2010PropOp51
 70
     0
102
RTVSPost2010Prop52
140
1.0
102
RTVSPost2010PropOp52
 70
     0
102
RTVSPost2010Prop53
 90
        2
102
RTVSPost2010PropOp53
 70
     0
102
RTVSPost2010Prop54
  1
strokes_ogs.tif
102
RTVSPost2010PropOp54
 70
     0
102
RTVSPost2010Prop55
280
     0
102
RTVSPost2010PropOp55
 70
     0
102
RTVSPost2010Prop56
140
1.0
102
RTVSPost2010PropOp56
 70
     0
102
RTVSPost2010Prop57
140
1.0
102
RTVSPost2010PropOp57
 70
     0
  0
XRECORD
  5
18E
102
{ACAD_REACTORS
330
18D
102
}
330
18D
100
AcDbXrecord
280
     1
102
RTVSPost2010Prop28
280
     0
102
RTVSPost2010PropOp28
 70
     1
102
RTVSPost2010Prop29
280
     1
102
RTVSPost2010PropOp29
 70
     1
102
RTVSPost2010Prop30
280
     1
102
RTVSPost2010PropOp30
 70
     1
102
RTVSPost2010Prop31
280
     0
102
RTVSPost2010PropOp31
 70
     1
102
RTVSPost2010Prop32
280
     0
102
RTVSPost2010PropOp32
 70
     1
102
RTVSPost2010Prop33
280
     0
102
RTVSPost2010PropOp33
 70
     1
102
RTVSPost2010Prop34
280
     0
102
RTVSPost2010PropOp34
 70
     1
102
RTVSPost2010Prop35
280
     0
102
RTVSPost2010PropOp35
 70
     1
102
RTVSPost2010Prop36
280
     0
102
RTVSPost2010PropOp36
 70
     1
102
RTVSPost2010Prop37
 90
       50
102
RTVSPost2010PropOp37
 70
     1
102
RTVSPost2010Prop38
140
0.0
102
RTVSPost2010PropOp38
 70
     1
102
RTVSPost2010Prop39
140
1.0
102
RTVSPost2010PropOp39
 70
     1
102
RTVSPost2010Prop40
 90
        0
102
RTVSPost2010PropOp40
 70
     1
102
RTVSPost2010Prop41ColorIndex
 90
       18
102
RTVSPost2010Prop41ColorRGB
 90
        0
102
RTVSPost2010PropOp41
 70
     1
102
RTVSPost2010Prop42
 90
       50
102
RTVSPost2010PropOp42
 70
     1
102
RTVSPost2010Prop43
 90
        3
102
RTVSPost2010PropOp43
 70
     1
102
RTVSPost2010Prop44ColorIndex
 90
        5
102
RTVSPost2010Prop44ColorRGB
 90
      255
102
RTVSPost2010PropOp44
 70
     1
102
RTVSPost2010Prop45
280
     0
102
RTVSPost2010PropOp45
 70
     1
102
RTVSPost2010Prop46
 90
       50
102
RTVSPost2010PropOp46
 70
     1
102
RTVSPost2010Prop47
 90
       50
102
RTVSPost2010PropOp47
 70
     1
102
RTVSPost2010Prop48
 90
       50
102
RTVSPost2010PropOp48
 70
     1
102
RTVSPost2010Prop49
280
     0
102
RTVSPost2010PropOp49
 70
     1
102
RTVSPost2010Prop50
 90
       50
102
RTVSPost2010PropOp50
 70
     1
102
RTVSPost2010Prop51ColorIndex
 90
      256
102
RTVSPost2010Prop51ColorRGB
 90
-16777216
102
RTVSPost2010PropOp51
 70
     0
102
RTVSPost2010Prop52
140
1.0
102
RTVSPost2010PropOp52
 70
     0
102
RTVSPost2010Prop53
 90
        2
102
RTVSPost2010PropOp53
 70
     1
102
RTVSPost2010Prop54
  1
strokes_ogs.tif
102
RTVSPost2010PropOp54
 70
     1
102
RTVSPost2010Prop55
280
     0
102
RTVSPost2010PropOp55
 70
     1
102
RTVSPost2010Prop56
140
1.0
102
RTVSPost2010PropOp56
 70
     1
102
RTVSPost2010Prop57
140
1.0
102
RTVSPost2010PropOp57
 70
     1
  0
XRECORD
  5
1A0
102
{ACAD_REACTORS
330
19F
102
}
330
19F
100
AcDbXrecord
280
     1
102
RTVSPost2010Prop28
280
     0
102
RTVSPost2010PropOp28
 70
     0
102
RTVSPost2010Prop29
280
     1
102
RTVSPost2010PropOp29
 70
     0
102
RTVSPost2010Prop30
280
     1
102
RTVSPost2010PropOp30
 70
     0
102
RTVSPost2010Prop31
280
     0
102
RTVSPost2010PropOp31
 70
     0
102
RTVSPost2010Prop32
280
     0
102
RTVSPost2010PropOp32
 70
     0
102
RTVSPost2010Prop33
280
     0
102
RTVSPost2010PropOp33
 70
     0
102
RTVSPost2010Prop34
280
     0
102
RTVSPost2010PropOp34
 70
     0
102
RTVSPost2010Prop35
280
     0
102
RTVSPost2010PropOp35
 70
     0
102
RTVSPost2010Prop36
280
     0
102
RTVSPost2010PropOp36
 70
     0
102
RTVSPost2010Prop37
 90
       50
102
RTVSPost2010PropOp37
 70
     0
102
RTVSPost2010Prop38
140
0.0
102
RTVSPost2010PropOp38
 70
     0
102
RTVSPost2010Prop39
140
1.0
102
RTVSPost2010PropOp39
 70
     0
102
RTVSPost2010Prop40
 90
        0
102
RTVSPost2010PropOp40
 70
     0
102
RTVSPost2010Prop41ColorIndex
 90
       18
102
RTVSPost2010Prop41ColorRGB
 90
        0
102
RTVSPost2010PropOp41
 70
     0
102
RTVSPost2010Prop42
 90
       50
102
RTVSPost2010PropOp42
 70
     0
102
RTVSPost2010Prop43
 90
        3
102
RTVSPost2010PropOp43
 70
     0
102
RTVSPost2010Prop44ColorIndex
 90
        5
102
RTVSPost2010Prop44ColorRGB
 90
      255
102
RTVSPost2010PropOp44
 70
     0
102
RTVSPost2010Prop45
280
     0
102
RTVSPost2010PropOp45
 70
     0
102
RTVSPost2010Prop46
 90
       50
102
RTVSPost2010PropOp46
 70
     0
102
RTVSPost2010Prop47
 90
       50
102
RTVSPost2010PropOp47
 70
     0
102
RTVSPost2010Prop48
 90
       50
102
RTVSPost2010PropOp48
 70
     0
102
RTVSPost2010Prop49
280
     0
102
RTVSPost2010PropOp49
 70
     0
102
RTVSPost2010Prop50
 90
       50
102
RTVSPost2010PropOp50
 70
     0
102
RTVSPost2010Prop51ColorIndex
 90
      256
102
RTVSPost2010Prop51ColorRGB
 90
-16777216
102
RTVSPost2010PropOp51
 70
     0
102
RTVSPost2010Prop52
140
1.0
102
RTVSPost2010PropOp52
 70
     0
102
RTVSPost2010Prop53
 90
        2
102
RTVSPost2010PropOp53
 70
     0
102
RTVSPost2010Prop54
  1
strokes_ogs.tif
102
RTVSPost2010PropOp54
 70
     0
102
RTVSPost2010Prop55
280
     0
102
RTVSPost2010PropOp55
 70
     0
102
RTVSPost2010Prop56
140
1.0
102
RTVSPost2010PropOp56
 70
     0
102
RTVSPost2010Prop57
140
1.0
102
RTVSPost2010PropOp57
 70
     0
  0
XRECORD
  5
186
102
{ACAD_REACTORS
330
185
102
}
330
185
100
AcDbXrecord
280
     1
102
RTVSPost2010Prop28
280
     0
102
RTVSPost2010PropOp28
 70
     1
102
RTVSPost2010Prop29
280
     1
102
RTVSPost2010PropOp29
 70
     1
102
RTVSPost2010Prop30
280
     1
102
RTVSPost2010PropOp30
 70
     1
102
RTVSPost2010Prop31
280
     0
102
RTVSPost2010PropOp31
 70
     1
102
RTVSPost2010Prop32
280
     0
102
RTVSPost2010PropOp32
 70
     1
102
RTVSPost2010Prop33
280
     0
102
RTVSPost2010PropOp33
 70
     1
102
RTVSPost2010Prop34
280
     0
102
RTVSPost2010PropOp34
 70
     1
102
RTVSPost2010Prop35
280
     0
102
RTVSPost2010PropOp35
 70
     1
102
RTVSPost2010Prop36
280
     0
102
RTVSPost2010PropOp36
 70
     1
102
RTVSPost2010Prop37
 90
       50
102
RTVSPost2010PropOp37
 70
     1
102
RTVSPost2010Prop38
140
0.0
102
RTVSPost2010PropOp38
 70
     1
102
RTVSPost2010Prop39
140
1.0
102
RTVSPost2010PropOp39
 70
     1
102
RTVSPost2010Prop40
 90
        0
102
RTVSPost2010PropOp40
 70
     1
102
RTVSPost2010Prop41ColorIndex
 90
       18
102
RTVSPost2010Prop41ColorRGB
 90
        0
102
RTVSPost2010PropOp41
 70
     1
102
RTVSPost2010Prop42
 90
       50
102
RTVSPost2010PropOp42
 70
     1
102
RTVSPost2010Prop43
 90
        3
102
RTVSPost2010PropOp43
 70
     1
102
RTVSPost2010Prop44ColorIndex
 90
        5
102
RTVSPost2010Prop44ColorRGB
 90
      255
102
RTVSPost2010PropOp44
 70
     1
102
RTVSPost2010Prop45
280
     0
102
RTVSPost2010PropOp45
 70
     1
102
RTVSPost2010Prop46
 90
       50
102
RTVSPost2010PropOp46
 70
     1
102
RTVSPost2010Prop47
 90
       50
102
RTVSPost2010PropOp47
 70
     1
102
RTVSPost2010Prop48
 90
       50
102
RTVSPost2010PropOp48
 70
     1
102
RTVSPost2010Prop49
280
     0
102
RTVSPost2010PropOp49
 70
     1
102
RTVSPost2010Prop50
 90
       50
102
RTVSPost2010PropOp50
 70
     1
102
RTVSPost2010Prop51ColorIndex
 90
      256
102
RTVSPost2010Prop51ColorRGB
 90
-16777216
102
RTVSPost2010PropOp51
 70
     0
102
RTVSPost2010Prop52
140
1.0
102
RTVSPost2010PropOp52
 70
     0
102
RTVSPost2010Prop53
 90
        2
102
RTVSPost2010PropOp53
 70
     1
102
RTVSPost2010Prop54
  1
strokes_ogs.tif
102
RTVSPost2010PropOp54
 70
     1
102
RTVSPost2010Prop55
280
     0
102
RTVSPost2010PropOp55
 70
     1
102
RTVSPost2010Prop56
140
1.0
102
RTVSPost2010PropOp56
 70
     1
102
RTVSPost2010Prop57
140
1.0
102
RTVSPost2010PropOp57
 70
     1
  0
XRECORD
  5
19C
102
{ACAD_REACTORS
330
19B
102
}
330
19B
100
AcDbXrecord
280
     1
102
RTVSPost2010Prop28
280
     0
102
RTVSPost2010PropOp28
 70
     1
102
RTVSPost2010Prop29
280
     1
102
RTVSPost2010PropOp29
 70
     1
102
RTVSPost2010Prop30
280
     1
102
RTVSPost2010PropOp30
 70
     1
102
RTVSPost2010Prop31
280
     0
102
RTVSPost2010PropOp31
 70
     1
102
RTVSPost2010Prop32
280
     0
102
RTVSPost2010PropOp32
 70
     1
102
RTVSPost2010Prop33
280
     0
102
RTVSPost2010PropOp33
 70
     1
102
RTVSPost2010Prop34
280
     0
102
RTVSPost2010PropOp34
 70
     1
102
RTVSPost2010Prop35
280
     0
102
RTVSPost2010PropOp35
 70
     1
102
RTVSPost2010Prop36
280
     0
102
RTVSPost2010PropOp36
 70
     1
102
RTVSPost2010Prop37
 90
       50
102
RTVSPost2010PropOp37
 70
     1
102
RTVSPost2010Prop38
140
0.0
102
RTVSPost2010PropOp38
 70
     1
102
RTVSPost2010Prop39
140
1.0
102
RTVSPost2010PropOp39
 70
     1
102
RTVSPost2010Prop40
 90
        0
102
RTVSPost2010PropOp40
 70
     1
102
RTVSPost2010Prop41ColorIndex
 90
       18
102
RTVSPost2010Prop41ColorRGB
 90
        0
102
RTVSPost2010PropOp41
 70
     1
102
RTVSPost2010Prop42
 90
       50
102
RTVSPost2010PropOp42
 70
     1
102
RTVSPost2010Prop43
 90
        3
102
RTVSPost2010PropOp43
 70
     1
102
RTVSPost2010Prop44ColorIndex
 90
        5
102
RTVSPost2010Prop44ColorRGB
 90
      255
102
RTVSPost2010PropOp44
 70
     1
102
RTVSPost2010Prop45
280
     0
102
RTVSPost2010PropOp45
 70
     1
102
RTVSPost2010Prop46
 90
       50
102
RTVSPost2010PropOp46
 70
     1
102
RTVSPost2010Prop47
 90
       50
102
RTVSPost2010PropOp47
 70
     1
102
RTVSPost2010Prop48
 90
       50
102
RTVSPost2010PropOp48
 70
     1
102
RTVSPost2010Prop49
280
     0
102
RTVSPost2010PropOp49
 70
     1
102
RTVSPost2010Prop50
 90
       50
102
RTVSPost2010PropOp50
 70
     1
102
RTVSPost2010Prop51ColorIndex
 90
      256
102
RTVSPost2010Prop51ColorRGB
 90
-16777216
102
RTVSPost2010PropOp51
 70
     0
102
RTVSPost2010Prop52
140
1.0
102
RTVSPost2010PropOp52
 70
     0
102
RTVSPost2010Prop53
 90
        2
102
RTVSPost2010PropOp53
 70
     1
102
RTVSPost2010Prop54
  1
strokes_ogs.tif
102
RTVSPost2010PropOp54
 70
     1
102
RTVSPost2010Prop55
280
     0
102
RTVSPost2010PropOp55
 70
     1
102
RTVSPost2010Prop56
140
1.0
102
RTVSPost2010PropOp56
 70
     1
102
RTVSPost2010Prop57
140
1.0
102
RTVSPost2010PropOp57
 70
     1
  0
XRECORD
  5
19A
102
{ACAD_REACTORS
330
199
102
}
330
199
100
AcDbXrecord
280
     1
102
RTVSPost2010Prop28
280
     0
102
RTVSPost2010PropOp28
 70
     1
102
RTVSPost2010Prop29
280
     1
102
RTVSPost2010PropOp29
 70
     1
102
RTVSPost2010Prop30
280
     1
102
RTVSPost2010PropOp30
 70
     1
102
RTVSPost2010Prop31
280
     0
102
RTVSPost2010PropOp31
 70
     1
102
RTVSPost2010Prop32
280
     0
102
RTVSPost2010PropOp32
 70
     1
102
RTVSPost2010Prop33
280
     0
102
RTVSPost2010PropOp33
 70
     1
102
RTVSPost2010Prop34
280
     0
102
RTVSPost2010PropOp34
 70
     1
102
RTVSPost2010Prop35
280
     0
102
RTVSPost2010PropOp35
 70
     1
102
RTVSPost2010Prop36
280
     0
102
RTVSPost2010PropOp36
 70
     1
102
RTVSPost2010Prop37
 90
       50
102
RTVSPost2010PropOp37
 70
     1
102
RTVSPost2010Prop38
140
0.0
102
RTVSPost2010PropOp38
 70
     1
102
RTVSPost2010Prop39
140
1.0
102
RTVSPost2010PropOp39
 70
     1
102
RTVSPost2010Prop40
 90
        0
102
RTVSPost2010PropOp40
 70
     1
102
RTVSPost2010Prop41ColorIndex
 90
       18
102
RTVSPost2010Prop41ColorRGB
 90
        0
102
RTVSPost2010PropOp41
 70
     1
102
RTVSPost2010Prop42
 90
       50
102
RTVSPost2010PropOp42
 70
     1
102
RTVSPost2010Prop43
 90
        3
102
RTVSPost2010PropOp43
 70
     1
102
RTVSPost2010Prop44ColorIndex
 90
        5
102
RTVSPost2010Prop44ColorRGB
 90
      255
102
RTVSPost2010PropOp44
 70
     1
102
RTVSPost2010Prop45
280
     0
102
RTVSPost2010PropOp45
 70
     1
102
RTVSPost2010Prop46
 90
       50
102
RTVSPost2010PropOp46
 70
     1
102
RTVSPost2010Prop47
 90
       50
102
RTVSPost2010PropOp47
 70
     1
102
RTVSPost2010Prop48
 90
       50
102
RTVSPost2010PropOp48
 70
     1
102
RTVSPost2010Prop49
280
     0
102
RTVSPost2010PropOp49
 70
     1
102
RTVSPost2010Prop50
 90
       50
102
RTVSPost2010PropOp50
 70
     1
102
RTVSPost2010Prop51ColorIndex
 90
      256
102
RTVSPost2010Prop51ColorRGB
 90
-16777216
102
RTVSPost2010PropOp51
 70
     0
102
RTVSPost2010Prop52
140
1.0
102
RTVSPost2010PropOp52
 70
     0
102
RTVSPost2010Prop53
 90
        2
102
RTVSPost2010PropOp53
 70
     1
102
RTVSPost2010Prop54
  1
strokes_ogs.tif
102
RTVSPost2010PropOp54
 70
     1
102
RTVSPost2010Prop55
280
     0
102
RTVSPost2010PropOp55
 70
     1
102
RTVSPost2010Prop56
140
1.0
102
RTVSPost2010PropOp56
 70
     1
102
RTVSPost2010Prop57
140
1.0
102
RTVSPost2010PropOp57
 70
     1
  0
XRECORD
  5
194
102
{ACAD_REACTORS
330
193
102
}
330
193
100
AcDbXrecord
280
     1
102
RTVSPost2010Prop28
280
     0
102
RTVSPost2010PropOp28
 70
     1
102
RTVSPost2010Prop29
280
     1
102
RTVSPost2010PropOp29
 70
     1
102
RTVSPost2010Prop30
280
     1
102
RTVSPost2010PropOp30
 70
     1
102
RTVSPost2010Prop31
280
     0
102
RTVSPost2010PropOp31
 70
     1
102
RTVSPost2010Prop32
280
     0
102
RTVSPost2010PropOp32
 70
     1
102
RTVSPost2010Prop33
280
     0
102
RTVSPost2010PropOp33
 70
     1
102
RTVSPost2010Prop34
280
     0
102
RTVSPost2010PropOp34
 70
     1
102
RTVSPost2010Prop35
280
     0
102
RTVSPost2010PropOp35
 70
     1
102
RTVSPost2010Prop36
280
     0
102
RTVSPost2010PropOp36
 70
     1
102
RTVSPost2010Prop37
 90
       50
102
RTVSPost2010PropOp37
 70
     1
102
RTVSPost2010Prop38
140
0.0
102
RTVSPost2010PropOp38
 70
     1
102
RTVSPost2010Prop39
140
1.0
102
RTVSPost2010PropOp39
 70
     1
102
RTVSPost2010Prop40
 90
        0
102
RTVSPost2010PropOp40
 70
     1
102
RTVSPost2010Prop41ColorIndex
 90
       18
102
RTVSPost2010Prop41ColorRGB
 90
        0
102
RTVSPost2010PropOp41
 70
     1
102
RTVSPost2010Prop42
 90
       50
102
RTVSPost2010PropOp42
 70
     1
102
RTVSPost2010Prop43
 90
        3
102
RTVSPost2010PropOp43
 70
     1
102
RTVSPost2010Prop44ColorIndex
 90
        5
102
RTVSPost2010Prop44ColorRGB
 90
      255
102
RTVSPost2010PropOp44
 70
     1
102
RTVSPost2010Prop45
280
     0
102
RTVSPost2010PropOp45
 70
     1
102
RTVSPost2010Prop46
 90
       50
102
RTVSPost2010PropOp46
 70
     1
102
RTVSPost2010Prop47
 90
       50
102
RTVSPost2010PropOp47
 70
     1
102
RTVSPost2010Prop48
 90
       50
102
RTVSPost2010PropOp48
 70
     1
102
RTVSPost2010Prop49
280
     0
102
RTVSPost2010PropOp49
 70
     1
102
RTVSPost2010Prop50
 90
       50
102
RTVSPost2010PropOp50
 70
     1
102
RTVSPost2010Prop51ColorIndex
 90
      256
102
RTVSPost2010Prop51ColorRGB
 90
-16777216
102
RTVSPost2010PropOp51
 70
     0
102
RTVSPost2010Prop52
140
1.0
102
RTVSPost2010PropOp52
 70
     0
102
RTVSPost2010Prop53
 90
        2
102
RTVSPost2010PropOp53
 70
     1
102
RTVSPost2010Prop54
  1
strokes_ogs.tif
102
RTVSPost2010PropOp54
 70
     1
102
RTVSPost2010Prop55
280
     0
102
RTVSPost2010PropOp55
 70
     1
102
RTVSPost2010Prop56
140
1.0
102
RTVSPost2010PropOp56
 70
     1
102
RTVSPost2010Prop57
140
1.0
102
RTVSPost2010PropOp57
 70
     1
  0
XRECORD
  5
196
102
{ACAD_REACTORS
330
195
102
}
330
195
100
AcDbXrecord
280
     1
102
RTVSPost2010Prop28
280
     0
102
RTVSPost2010PropOp28
 70
     1
102
RTVSPost2010Prop29
280
     1
102
RTVSPost2010PropOp29
 70
     1
102
RTVSPost2010Prop30
280
     1
102
RTVSPost2010PropOp30
 70
     1
102
RTVSPost2010Prop31
280
     0
102
RTVSPost2010PropOp31
 70
     1
102
RTVSPost2010Prop32
280
     0
102
RTVSPost2010PropOp32
 70
     1
102
RTVSPost2010Prop33
280
     0
102
RTVSPost2010PropOp33
 70
     1
102
RTVSPost2010Prop34
280
     0
102
RTVSPost2010PropOp34
 70
     1
102
RTVSPost2010Prop35
280
     0
102
RTVSPost2010PropOp35
 70
     1
102
RTVSPost2010Prop36
280
     0
102
RTVSPost2010PropOp36
 70
     1
102
RTVSPost2010Prop37
 90
       50
102
RTVSPost2010PropOp37
 70
     1
102
RTVSPost2010Prop38
140
0.0
102
RTVSPost2010PropOp38
 70
     1
102
RTVSPost2010Prop39
140
1.0
102
RTVSPost2010PropOp39
 70
     1
102
RTVSPost2010Prop40
 90
        0
102
RTVSPost2010PropOp40
 70
     1
102
RTVSPost2010Prop41ColorIndex
 90
       18
102
RTVSPost2010Prop41ColorRGB
 90
        0
102
RTVSPost2010PropOp41
 70
     1
102
RTVSPost2010Prop42
 90
       50
102
RTVSPost2010PropOp42
 70
     1
102
RTVSPost2010Prop43
 90
        3
102
RTVSPost2010PropOp43
 70
     1
102
RTVSPost2010Prop44ColorIndex
 90
        5
102
RTVSPost2010Prop44ColorRGB
 90
      255
102
RTVSPost2010PropOp44
 70
     1
102
RTVSPost2010Prop45
280
     0
102
RTVSPost2010PropOp45
 70
     1
102
RTVSPost2010Prop46
 90
       50
102
RTVSPost2010PropOp46
 70
     1
102
RTVSPost2010Prop47
 90
       50
102
RTVSPost2010PropOp47
 70
     1
102
RTVSPost2010Prop48
 90
       50
102
RTVSPost2010PropOp48
 70
     1
102
RTVSPost2010Prop49
280
     0
102
RTVSPost2010PropOp49
 70
     1
102
RTVSPost2010Prop50
 90
       50
102
RTVSPost2010PropOp50
 70
     1
102
RTVSPost2010Prop51ColorIndex
 90
      256
102
RTVSPost2010Prop51ColorRGB
 90
-16777216
102
RTVSPost2010PropOp51
 70
     0
102
RTVSPost2010Prop52
140
1.0
102
RTVSPost2010PropOp52
 70
     0
102
RTVSPost2010Prop53
 90
        2
102
RTVSPost2010PropOp53
 70
     1
102
RTVSPost2010Prop54
  1
strokes_ogs.tif
102
RTVSPost2010PropOp54
 70
     1
102
RTVSPost2010Prop55
280
     0
102
RTVSPost2010PropOp55
 70
     1
102
RTVSPost2010Prop56
140
1.0
102
RTVSPost2010PropOp56
 70
     1
102
RTVSPost2010Prop57
140
1.0
102
RTVSPost2010PropOp57
 70
     1
  0
XRECORD
  5
18C
102
{ACAD_REACTORS
330
18B
102
}
330
18B
100
AcDbXrecord
280
     1
102
RTVSPost2010Prop28
280
     0
102
RTVSPost2010PropOp28
 70
     1
102
RTVSPost2010Prop29
280
     1
102
RTVSPost2010PropOp29
 70
     1
102
RTVSPost2010Prop30
280
     1
102
RTVSPost2010PropOp30
 70
     1
102
RTVSPost2010Prop31
280
     0
102
RTVSPost2010PropOp31
 70
     1
102
RTVSPost2010Prop32
280
     0
102
RTVSPost2010PropOp32
 70
     1
102
RTVSPost2010Prop33
280
     0
102
RTVSPost2010PropOp33
 70
     1
102
RTVSPost2010Prop34
280
     0
102
RTVSPost2010PropOp34
 70
     1
102
RTVSPost2010Prop35
280
     0
102
RTVSPost2010PropOp35
 70
     1
102
RTVSPost2010Prop36
280
     0
102
RTVSPost2010PropOp36
 70
     1
102
RTVSPost2010Prop37
 90
       50
102
RTVSPost2010PropOp37
 70
     1
102
RTVSPost2010Prop38
140
0.0
102
RTVSPost2010PropOp38
 70
     1
102
RTVSPost2010Prop39
140
1.0
102
RTVSPost2010PropOp39
 70
     1
102
RTVSPost2010Prop40
 90
        0
102
RTVSPost2010PropOp40
 70
     1
102
RTVSPost2010Prop41ColorIndex
 90
       18
102
RTVSPost2010Prop41ColorRGB
 90
        0
102
RTVSPost2010PropOp41
 70
     1
102
RTVSPost2010Prop42
 90
       50
102
RTVSPost2010PropOp42
 70
     1
102
RTVSPost2010Prop43
 90
        3
102
RTVSPost2010PropOp43
 70
     1
102
RTVSPost2010Prop44ColorIndex
 90
        5
102
RTVSPost2010Prop44ColorRGB
 90
      255
102
RTVSPost2010PropOp44
 70
     1
102
RTVSPost2010Prop45
280
     0
102
RTVSPost2010PropOp45
 70
     1
102
RTVSPost2010Prop46
 90
       50
102
RTVSPost2010PropOp46
 70
     1
102
RTVSPost2010Prop47
 90
       50
102
RTVSPost2010PropOp47
 70
     1
102
RTVSPost2010Prop48
 90
       50
102
RTVSPost2010PropOp48
 70
     1
102
RTVSPost2010Prop49
280
     0
102
RTVSPost2010PropOp49
 70
     1
102
RTVSPost2010Prop50
 90
       50
102
RTVSPost2010PropOp50
 70
     1
102
RTVSPost2010Prop51ColorIndex
 90
      256
102
RTVSPost2010Prop51ColorRGB
 90
-16777216
102
RTVSPost2010PropOp51
 70
     0
102
RTVSPost2010Prop52
140
1.0
102
RTVSPost2010PropOp52
 70
     0
102
RTVSPost2010Prop53
 90
        2
102
RTVSPost2010PropOp53
 70
     1
102
RTVSPost2010Prop54
  1
strokes_ogs.tif
102
RTVSPost2010PropOp54
 70
     1
102
RTVSPost2010Prop55
280
     0
102
RTVSPost2010PropOp55
 70
     1
102
RTVSPost2010Prop56
140
1.0
102
RTVSPost2010PropOp56
 70
     1
102
RTVSPost2010Prop57
140
1.0
102
RTVSPost2010PropOp57
 70
     1
  0
XRECORD
  5
180
102
{ACAD_REACTORS
330
17F
102
}
330
17F
100
AcDbXrecord
280
     1
102
RTVSPost2010Prop28
280
     0
102
RTVSPost2010PropOp28
 70
     1
102
RTVSPost2010Prop29
280
     1
102
RTVSPost2010PropOp29
 70
     1
102
RTVSPost2010Prop30
280
     1
102
RTVSPost2010PropOp30
 70
     1
102
RTVSPost2010Prop31
280
     0
102
RTVSPost2010PropOp31
 70
     1
102
RTVSPost2010Prop32
280
     0
102
RTVSPost2010PropOp32
 70
     1
102
RTVSPost2010Prop33
280
     0
102
RTVSPost2010PropOp33
 70
     1
102
RTVSPost2010Prop34
280
     0
102
RTVSPost2010PropOp34
 70
     1
102
RTVSPost2010Prop35
280
     0
102
RTVSPost2010PropOp35
 70
     1
102
RTVSPost2010Prop36
280
     0
102
RTVSPost2010PropOp36
 70
     1
102
RTVSPost2010Prop37
 90
       50
102
RTVSPost2010PropOp37
 70
     1
102
RTVSPost2010Prop38
140
0.0
102
RTVSPost2010PropOp38
 70
     1
102
RTVSPost2010Prop39
140
1.0
102
RTVSPost2010PropOp39
 70
     1
102
RTVSPost2010Prop40
 90
        0
102
RTVSPost2010PropOp40
 70
     1
102
RTVSPost2010Prop41ColorIndex
 90
       18
102
RTVSPost2010Prop41ColorRGB
 90
        0
102
RTVSPost2010PropOp41
 70
     1
102
RTVSPost2010Prop42
 90
       50
102
RTVSPost2010PropOp42
 70
     1
102
RTVSPost2010Prop43
 90
        3
102
RTVSPost2010PropOp43
 70
     1
102
RTVSPost2010Prop44ColorIndex
 90
        5
102
RTVSPost2010Prop44ColorRGB
 90
      255
102
RTVSPost2010PropOp44
 70
     1
102
RTVSPost2010Prop45
280
     0
102
RTVSPost2010PropOp45
 70
     1
102
RTVSPost2010Prop46
 90
       50
102
RTVSPost2010PropOp46
 70
     1
102
RTVSPost2010Prop47
 90
       50
102
RTVSPost2010PropOp47
 70
     1
102
RTVSPost2010Prop48
 90
       50
102
RTVSPost2010PropOp48
 70
     1
102
RTVSPost2010Prop49
280
     0
102
RTVSPost2010PropOp49
 70
     1
102
RTVSPost2010Prop50
 90
       50
102
RTVSPost2010PropOp50
 70
     1
102
RTVSPost2010Prop51ColorIndex
 90
      256
102
RTVSPost2010Prop51ColorRGB
 90
-16777216
102
RTVSPost2010PropOp51
 70
     0
102
RTVSPost2010Prop52
140
1.0
102
RTVSPost2010PropOp52
 70
     0
102
RTVSPost2010Prop53
 90
        2
102
RTVSPost2010PropOp53
 70
     1
102
RTVSPost2010Prop54
  1
strokes_ogs.tif
102
RTVSPost2010PropOp54
 70
     1
102
RTVSPost2010Prop55
280
     0
102
RTVSPost2010PropOp55
 70
     1
102
RTVSPost2010Prop56
140
1.0
102
RTVSPost2010PropOp56
 70
     1
102
RTVSPost2010Prop57
140
1.0
102
RTVSPost2010PropOp57
 70
     1
  0
XRECORD
  5
198
102
{ACAD_REACTORS
330
197
102
}
330
197
100
AcDbXrecord
280
     1
102
RTVSPost2010Prop28
280
     0
102
RTVSPost2010PropOp28
 70
     1
102
RTVSPost2010Prop29
280
     1
102
RTVSPost2010PropOp29
 70
     1
102
RTVSPost2010Prop30
280
     1
102
RTVSPost2010PropOp30
 70
     1
102
RTVSPost2010Prop31
280
     0
102
RTVSPost2010PropOp31
 70
     1
102
RTVSPost2010Prop32
280
     0
102
RTVSPost2010PropOp32
 70
     1
102
RTVSPost2010Prop33
280
     0
102
RTVSPost2010PropOp33
 70
     1
102
RTVSPost2010Prop34
280
     0
102
RTVSPost2010PropOp34
 70
     1
102
RTVSPost2010Prop35
280
     0
102
RTVSPost2010PropOp35
 70
     1
102
RTVSPost2010Prop36
280
     0
102
RTVSPost2010PropOp36
 70
     1
102
RTVSPost2010Prop37
 90
       50
102
RTVSPost2010PropOp37
 70
     1
102
RTVSPost2010Prop38
140
0.0
102
RTVSPost2010PropOp38
 70
     1
102
RTVSPost2010Prop39
140
1.0
102
RTVSPost2010PropOp39
 70
     1
102
RTVSPost2010Prop40
 90
        0
102
RTVSPost2010PropOp40
 70
     1
102
RTVSPost2010Prop41ColorIndex
 90
       18
102
RTVSPost2010Prop41ColorRGB
 90
        0
102
RTVSPost2010PropOp41
 70
     1
102
RTVSPost2010Prop42
 90
       50
102
RTVSPost2010PropOp42
 70
     1
102
RTVSPost2010Prop43
 90
        3
102
RTVSPost2010PropOp43
 70
     1
102
RTVSPost2010Prop44ColorIndex
 90
        5
102
RTVSPost2010Prop44ColorRGB
 90
      255
102
RTVSPost2010PropOp44
 70
     1
102
RTVSPost2010Prop45
280
     0
102
RTVSPost2010PropOp45
 70
     1
102
RTVSPost2010Prop46
 90
       50
102
RTVSPost2010PropOp46
 70
     1
102
RTVSPost2010Prop47
 90
       50
102
RTVSPost2010PropOp47
 70
     1
102
RTVSPost2010Prop48
 90
       50
102
RTVSPost2010PropOp48
 70
     1
102
RTVSPost2010Prop49
280
     0
102
RTVSPost2010PropOp49
 70
     1
102
RTVSPost2010Prop50
 90
       50
102
RTVSPost2010PropOp50
 70
     1
102
RTVSPost2010Prop51ColorIndex
 90
      256
102
RTVSPost2010Prop51ColorRGB
 90
-16777216
102
RTVSPost2010PropOp51
 70
     0
102
RTVSPost2010Prop52
140
1.0
102
RTVSPost2010PropOp52
 70
     0
102
RTVSPost2010Prop53
 90
        2
102
RTVSPost2010PropOp53
 70
     1
102
RTVSPost2010Prop54
  1
strokes_ogs.tif
102
RTVSPost2010PropOp54
 70
     1
102
RTVSPost2010Prop55
280
     0
102
RTVSPost2010PropOp55
 70
     1
102
RTVSPost2010Prop56
140
1.0
102
RTVSPost2010PropOp56
 70
     1
102
RTVSPost2010Prop57
140
1.0
102
RTVSPost2010PropOp57
 70
     1
  0
ENDSEC
  0
EOF
