  0
SECTION
  2
HEADER
  9
$ACADVER
  1
AC1024
  9
$ACADMAINTVER
 70
   226
  9
$DWGCODEPAGE
  3
ANSI_932
  9
$INSBASE
 10
0.0
 20
0.0
 30
0.0
  9
$EXTMIN
 10
1.000000000000000E+20
 20
1.000000000000000E+20
 30
1.000000000000000E+20
  9
$EXTMAX
 10
-1.000000000000000E+20
 20
-1.000000000000000E+20
 30
-1.000000000000000E+20
  9
$LIMMIN
 10
0.0
 20
0.0
  9
$LIMMAX
 10
12.0
 20
9.0
  9
$ORTHOMODE
 70
     0
  9
$REGENMODE
 70
     1
  9
$FILLMODE
 70
     1
  9
$QTEXTMODE
 70
     0
  9
$MIRRTEXT
 70
     0
  9
$LTSCALE
 40
1.0
  9
$ATTMODE
 70
     1
  9
$TEXTSIZE
 40
0.2
  9
$TRACEWID
 40
0.05
  9
$TEXTSTYLE
  7
Standard
  9
$CLAYER
  8
0
  9
$CELTYPE
  6
ByLayer
  9
$CECOLOR
 62
   256
  9
$CELTSCALE
 40
1.0
  9
$DISPSILH
 70
     0
  9
$DIMSCALE
 40
1.0
  9
$DIMASZ
 40
0.18
  9
$DIMEXO
 40
0.0625
  9
$DIMDLI
 40
0.38
  9
$DIMRND
 40
0.0
  9
$DIMDLE
 40
0.0
  9
$DIMEXE
 40
0.18
  9
$DIMTP
 40
0.0
  9
$DIMTM
 40
0.0
  9
$DIMTXT
 40
0.18
  9
$DIMCEN
 40
0.09
  9
$DIMTSZ
 40
0.0
  9
$DIMTOL
 70
     0
  9
$DIMLIM
 70
     0
  9
$DIMTIH
 70
     1
  9
$DIMTOH
 70
     1
  9
$DIMSE1
 70
     0
  9
$DIMSE2
 70
     0
  9
$DIMTAD
 70
     0
  9
$DIMZIN
 70
     0
  9
$DIMBLK
  1

  9
$DIMASO
 70
     1
  9
$DIMSHO
 70
     1
  9
$DIMPOST
  1

  9
$DIMAPOST
  1

  9
$DIMALT
 70
     0
  9
$DIMALTD
 70
     2
  9
$DIMALTF
 40
25.4
  9
$DIMLFAC
 40
1.0
  9
$DIMTOFL
 70
     0
  9
$DIMTVP
 40
0.0
  9
$DIMTIX
 70
     0
  9
$DIMSOXD
 70
     0
  9
$DIMSAH
 70
     0
  9
$DIMBLK1
  1

  9
$DIMBLK2
  1

  9
$DIMSTYLE
  2
Standard
  9
$DIMCLRD
 70
     0
  9
$DIMCLRE
 70
     0
  9
$DIMCLRT
 70
     0
  9
$DIMTFAC
 40
1.0
  9
$DIMGAP
 40
0.09
  9
$DIMJUST
 70
     0
  9
$DIMSD1
 70
     0
  9
$DIMSD2
 70
     0
  9
$DIMTOLJ
 70
     1
  9
$DIMTZIN
 70
     0
  9
$DIMALTZ
 70
     0
  9
$DIMALTTZ
 70
     0
  9
$DIMUPT
 70
     0
  9
$DIMDEC
 70
     4
  9
$DIMTDEC
 70
     4
  9
$DIMALTU
 70
     2
  9
$DIMALTTD
 70
     2
  9
$DIMTXSTY
  7
Standard
  9
$DIMAUNIT
 70
     0
  9
$DIMADEC
 70
     0
  9
$DIMALTRND
 40
0.0
  9
$DIMAZIN
 70
     0
  9
$DIMDSEP
 70
    46
  9
$DIMATFIT
 70
     3
  9
$DIMFRAC
 70
     0
  9
$DIMLDRBLK
  1

  9
$DIMLUNIT
 70
     2
  9
$DIMLWD
 70
    -2
  9
$DIMLWE
 70
    -2
  9
$DIMTMOVE
 70
     0
  9
$DIMFXL
 40
1.0
  9
$DIMFXLON
 70
     0
  9
$DIMJOGANG
 40
0.7853981633974483
  9
$DIMTFILL
 70
     0
  9
$DIMTFILLCLR
 70
     0
  9
$DIMARCSYM
 70
     0
  9
$DIMLTYPE
  6

  9
$DIMLTEX1
  6

  9
$DIMLTEX2
  6

  9
$DIMTXTDIRECTION
 70
     0
  9
$LUNITS
 70
     2
  9
$LUPREC
 70
     4
  9
$SKETCHINC
 40
0.1
  9
$FILLETRAD
 40
0.0
  9
$AUNITS
 70
     0
  9
$AUPREC
 70
     0
  9
$MENU
  1
.
  9
$ELEVATION
 40
0.0
  9
$PELEVATION
 40
0.0
  9
$THICKNESS
 40
0.0
  9
$LIMCHECK
 70
     0
  9
$CHAMFERA
 40
0.0
  9
$CHAMFERB
 40
0.0
  9
$CHAMFERC
 40
0.0
  9
$CHAMFERD
 40
0.0
  9
$SKPOLY
 70
     0
  9
$TDCREATE
 40
2459569.489120370
  9
$TDUCREATE
 40
2459569.114120371
  9
$TDUPDATE
 40
2459569.489120370
  9
$TDUUPDATE
 40
2459569.114120371
  9
$TDINDWG
 40
0.0000000000
  9
$TDUSRTIMER
 40
0.0000000000
  9
$USRTIMER
 70
     1
  9
$ANGBASE
 50
0.0
  9
$ANGDIR
 70
     0
  9
$PDMODE
 70
     0
  9
$PDSIZE
 40
0.0
  9
$PLINEWID
 40
0.0
  9
$SPLFRAME
 70
     0
  9
$SPLINETYPE
 70
     6
  9
$SPLINESEGS
 70
     8
  9
$HANDSEED
  5
1B5
  9
$SURFTAB1
 70
     6
  9
$SURFTAB2
 70
     6
  9
$SURFTYPE
 70
     6
  9
$SURFU
 70
     6
  9
$SURFV
 70
     6
  9
$UCSBASE
  2

  9
$UCSNAME
  2

  9
$UCSORG
 10
0.0
 20
0.0
 30
0.0
  9
$UCSXDIR
 10
1.0
 20
0.0
 30
0.0
  9
$UCSYDIR
 10
0.0
 20
1.0
 30
0.0
  9
$UCSORTHOREF
  2

  9
$UCSORTHOVIEW
 70
     0
  9
$UCSORGTOP
 10
0.0
 20
0.0
 30
0.0
  9
$UCSORGBOTTOM
 10
0.0
 20
0.0
 30
0.0
  9
$UCSORGLEFT
 10
0.0
 20
0.0
 30
0.0
  9
$UCSORGRIGHT
 10
0.0
 20
0.0
 30
0.0
  9
$UCSORGFRONT
 10
0.0
 20
0.0
 30
0.0
  9
$UCSORGBACK
 10
0.0
 20
0.0
 30
0.0
  9
$PUCSBASE
  2

  9
$PUCSNAME
  2

  9
$PUCSORG
 10
0.0
 20
0.0
 30
0.0
  9
$PUCSXDIR
 10
1.0
 20
0.0
 30
0.0
  9
$PUCSYDIR
 10
0.0
 20
1.0
 30
0.0
  9
$PUCSORTHOREF
  2

  9
$PUCSORTHOVIEW
 70
     0
  9
$PUCSORGTOP
 10
0.0
 20
0.0
 30
0.0
  9
$PUCSORGBOTTOM
 10
0.0
 20
0.0
 30
0.0
  9
$PUCSORGLEFT
 10
0.0
 20
0.0
 30
0.0
  9
$PUCSORGRIGHT
 10
0.0
 20
0.0
 30
0.0
  9
$PUCSORGFRONT
 10
0.0
 20
0.0
 30
0.0
  9
$PUCSORGBACK
 10
0.0
 20
0.0
 30
0.0
  9
$USERI1
 70
     0
  9
$USERI2
 70
     0
  9
$USERI3
 70
     0
  9
$USERI4
 70
     0
  9
$USERI5
 70
     0
  9
$USERR1
 40
0.0
  9
$USERR2
 40
0.0
  9
$USERR3
 40
0.0
  9
$USERR4
 40
0.0
  9
$USERR5
 40
0.0
  9
$WORLDVIEW
 70
     1
  9
$SHADEDGE
 70
     3
  9
$SHADEDIF
 70
    70
  9
$TILEMODE
 70
     1
  9
$MAXACTVP
 70
    64
  9
$PINSBASE
 10
0.0
 20
0.0
 30
0.0
  9
$PLIMCHECK
 70
     0
  9
$PEXTMIN
 10
1.000000000000000E+20
 20
1.000000000000000E+20
 30
1.000000000000000E+20
  9
$PEXTMAX
 10
-1.000000000000000E+20
 20
-1.000000000000000E+20
 30
-1.000000000000000E+20
  9
$PLIMMIN
 10
0.0
 20
0.0
  9
$PLIMMAX
 10
12.0
 20
9.0
  9
$UNITMODE
 70
     0
  9
$VISRETAIN
 70
     1
  9
$PLINEGEN
 70
     0
  9
$PSLTSCALE
 70
     1
  9
$TREEDEPTH
 70
  3020
  9
$CMLSTYLE
  2
Standard
  9
$CMLJUST
 70
     0
  9
$CMLSCALE
 40
1.0
  9
$PROXYGRAPHICS
 70
     1
  9
$MEASUREMENT
 70
     0
  9
$CELWEIGHT
370
    -1
  9
$ENDCAPS
280
     0
  9
$JOINSTYLE
280
     0
  9
$LWDISPLAY
290
     1
  9
$INSUNITS
 70
     4
  9
$HYPERLINKBASE
  1

  9
$STYLESHEET
  1

  9
$XEDIT
290
     1
  9
$CEPSNTYPE
380
     0
  9
$PSTYLEMODE
290
     1
  9
$FINGERPRINTGUID
  2
{7A1BD4BD-022B-8642-9558-F51E7BAA24B2}
  9
$VERSIONGUID
  2
{EBDA47C0-489B-7B4B-87B6-0C2FECD3704A}
  9
$EXTNAMES
290
     1
  9
$PSVPSCALE
 40
0.0
  9
$OLESTARTUP
290
     0
  9
$SORTENTS
280
   127
  9
$INDEXCTL
280
     0
  9
$HIDETEXT
280
     1
  9
$XCLIPFRAME
280
     2
  9
$HALOGAP
280
     0
  9
$OBSCOLOR
 70
   257
  9
$OBSLTYPE
280
     0
  9
$INTERSECTIONDISPLAY
280
     0
  9
$INTERSECTIONCOLOR
 70
   257
  9
$DIMASSOC
280
     2
  9
$PROJECTNAME
  1

  9
$CAMERADISPLAY
290
     0
  9
$LENSLENGTH
 40
50.0
  9
$CAMERAHEIGHT
 40
0.0
  9
$STEPSPERSEC
 40
2.0
  9
$STEPSIZE
 40
6.0
  9
$3DDWFPREC
 40
2.0
  9
$PSOLWIDTH
 40
0.25
  9
$PSOLHEIGHT
 40
4.0
  9
$LOFTANG1
 40
1.570796326794896
  9
$LOFTANG2
 40
1.570796326794896
  9
$LOFTMAG1
 40
0.0
  9
$LOFTMAG2
 40
0.0
  9
$LOFTPARAM
 70
     7
  9
$LOFTNORMALS
280
     1
  9
$LATITUDE
 40
37.795
  9
$LONGITUDE
 40
-122.394
  9
$NORTHDIRECTION
 40
0.0
  9
$TIMEZONE
 70
 -8000
  9
$LIGHTGLYPHDISPLAY
280
     1
  9
$TILEMODELIGHTSYNCH
280
     1
  9
$CMATERIAL
347
11
  9
$SOLIDHIST
280
     0
  9
$SHOWHIST
280
     1
  9
$DWFFRAME
280
     2
  9
$DGNFRAME
280
     0
  9
$REALWORLDSCALE
290
     1
  9
$INTERFERECOLOR
 62
     1
  9
$INTERFEREOBJVS
345
33
  9
$INTERFEREVPVS
346
30
  9
$CSHADOW
280
     0
  9
$SHADOWPLANELOCATION
 40
0.0
  0
ENDSEC
  0
SECTION
  2
CLASSES
  0
CLASS
  1
ACDBDICTIONARYWDFLT
  2
AcDbDictionaryWithDefault
  3
ObjectDBX Classes
 90
        0
 91
        1
280
     0
281
     0
  0
CLASS
  1
MATERIAL
  2
AcDbMaterial
  3
ObjectDBX Classes
 90
     1153
 91
        3
280
     0
281
     0
  0
CLASS
  1
VISUALSTYLE
  2
AcDbVisualStyle
  3
ObjectDBX Classes
 90
     4095
 91
       24
280
     0
281
     0
  0
CLASS
  1
SCALE
  2
AcDbScale
  3
ObjectDBX Classes
 90
     1153
 91
       17
280
     0
281
     0
  0
CLASS
  1
TABLESTYLE
  2
AcDbTableStyle
  3
ObjectDBX Classes
 90
     4095
 91
        1
280
     0
281
     0
  0
CLASS
  1
MLEADERSTYLE
  2
AcDbMLeaderStyle
  3
ACDB_MLEADERSTYLE_CLASS
 90
     4095
 91
        1
280
     0
281
     0
  0
CLASS
  1
ACDBSECTIONVIEWSTYLE
  2
AcDbSectionViewStyle
  3
ObjectDBX Classes
 90
     1025
 91
        1
280
     0
281
     0
  0
CLASS
  1
ACDBDETAILVIEWSTYLE
  2
AcDbDetailViewStyle
  3
ObjectDBX Classes
 90
     1025
 91
        1
280
     0
281
     0
  0
CLASS
  1
DICTIONARYVAR
  2
AcDbDictionaryVar
  3
ObjectDBX Classes
 90
        0
 91
        5
280
     0
281
     0
  0
CLASS
  1
CELLSTYLEMAP
  2
AcDbCellStyleMap
  3
ObjectDBX Classes
 90
     1152
 91
        1
280
     0
281
     0
  0
ENDSEC
  0
SECTION
  2
TABLES
  0
TABLE
  2
VPORT
  5
8
330
0
100
AcDbSymbolTable
 70
     1
  0
VPORT
  5
57
330
8
100
AcDbSymbolTableRecord
100
AcDbViewportTableRecord
  2
*Active
 70
     0
 10
0.0
 20
0.0
 11
1.0
 21
1.0
 12
0.0
 22
0.0
 13
0.0
 23
0.0
 14
1.0
 24
1.0
 15
0.0
 25
0.0
 16
0.0
 26
0.0
 36
1.0
 17
104.9999999737534
 27
-148.4999999628701
 37
0.0
 40
302.939999924255
 41
0.7070707070707534
 42
50.0
 43
0.0
 44
0.0
 50
0.0
 51
0.0
 71
     0
 72
   100
 73
     1
 74
     0
 75
     1
 76
     0
 77
     0
 78
     0
281
     0
 65
     1
110
0.0
120
0.0
130
0.0
111
1.0
121
0.0
131
0.0
112
0.0
122
1.0
132
0.0
 79
     0
146
0.0
 60
     3
 61
     5
292
     1
282
     1
141
0.0
142
0.0
 63
   250
421
  3355443
  0
ENDTAB
  0
TABLE
  2
LTYPE
  5
5
330
0
100
AcDbSymbolTable
 70
     2
  0
LTYPE
  5
5B
330
5
100
AcDbSymbolTableRecord
100
AcDbLinetypeTableRecord
  2
ByBlock
 70
     0
  3

 72
    65
 73
     0
 40
0.0
  0
LTYPE
  5
5C
330
5
100
AcDbSymbolTableRecord
100
AcDbLinetypeTableRecord
  2
ByLayer
 70
     0
  3

 72
    65
 73
     0
 40
0.0
  0
LTYPE
  5
5D
330
5
100
AcDbSymbolTableRecord
100
AcDbLinetypeTableRecord
  2
Continuous
 70
     0
  3
Solid line
 72
    65
 73
     0
 40
0.0
  0
LTYPE
  5
B1
330
5
100
AcDbSymbolTableRecord
100
AcDbLinetypeTableRecord
  2
AI-Linetype-0
 70
     0
  3
Adobe Illustrator Linetype No. 0
 72
    65
 73
     2
 40
1.411111110758333
 49
0.7055555553791667
 74
     0
 49
-0.7055555553791667
 74
     0
  0
ENDTAB
  0
TABLE
  2
LAYER
  5
2
330
0
100
AcDbSymbolTable
 70
     2
  0
LAYER
  5
54
330
2
100
AcDbSymbolTableRecord
100
AcDbLayerTableRecord
  2
0
 70
     0
 62
     7
  6
Continuous
370
    -3
390
F
347
21
  0
LAYER
  5
78
330
2
100
AcDbSymbolTableRecord
100
AcDbLayerTableRecord
  2
レイヤー 1
 70
     0
 62
     7
  6
Continuous
370
     0
390
F
347
21
  0
ENDTAB
  0
TABLE
  2
STYLE
  5
3
330
0
100
AcDbSymbolTable
 70
     2
  0
STYLE
  5
55
330
3
100
AcDbSymbolTableRecord
100
AcDbTextStyleTableRecord
  2
Standard
 70
     0
 40
0.0
 41
1.0
 50
0.0
 71
     0
 42
0.2
  3
txt
  4

  0
STYLE
  5
5A
330
3
100
AcDbSymbolTableRecord
100
AcDbTextStyleTableRecord
  2
Annotative
 70
     0
 40
0.0
 41
1.0
 50
0.0
 71
     0
 42
0.2
  3
txt
  4

1001
AcadAnnotative
1000
AnnotativeData
1002
{
1070
     1
1070
     1
1002
}
  0
ENDTAB
  0
TABLE
  2
VIEW
  5
6
330
0
100
AcDbSymbolTable
 70
     0
  0
ENDTAB
  0
TABLE
  2
UCS
  5
7
330
0
100
AcDbSymbolTable
 70
     0
  0
ENDTAB
  0
TABLE
  2
APPID
  5
9
330
0
100
AcDbSymbolTable
 70
     2
  0
APPID
  5
56
330
9
100
AcDbSymbolTableRecord
100
AcDbRegAppTableRecord
  2
ACAD
 70
     0
  0
APPID
  5
5E
330
9
100
AcDbSymbolTableRecord
100
AcDbRegAppTableRecord
  2
AcadAnnotative
 70
     0
  0
ENDTAB
  0
TABLE
  2
DIMSTYLE
  5
A
330
0
100
AcDbSymbolTable
 70
     2
100
AcDbDimStyleTable
 71
     0
  0
DIMSTYLE
105
58
330
A
100
AcDbSymbolTableRecord
100
AcDbDimStyleTableRecord
  2
Standard
 70
     0
340
55
  0
DIMSTYLE
105
59
330
A
100
AcDbSymbolTableRecord
100
AcDbDimStyleTableRecord
  2
Annotative
 70
     0
340
55
1001
AcadAnnotative
1000
AnnotativeData
1002
{
1070
     1
1070
     1
1002
}
  0
ENDTAB
  0
TABLE
  2
BLOCK_RECORD
  5
1
330
0
100
AcDbSymbolTable
 70
    17
  0
BLOCK_RECORD
  5
70
330
1
100
AcDbSymbolTableRecord
100
AcDbBlockTableRecord
  2
*Model_Space
340
73
 70
     0
280
     1
281
     0
  0
BLOCK_RECORD
  5
6C
330
1
100
AcDbSymbolTableRecord
100
AcDbBlockTableRecord
  2
*Paper_Space
340
6F
 70
     0
280
     1
281
     0
  0
BLOCK_RECORD
  5
74
330
1
100
AcDbSymbolTableRecord
100
AcDbBlockTableRecord
  2
*Paper_Space0
340
77
 70
     0
280
     1
281
     0
  0
BLOCK_RECORD
  5
79
330
1
100
AcDbSymbolTableRecord
100
AcDbBlockTableRecord
  2
Block_0
340
0
102
{BLKREFS
331
7A
102
}
 70
     0
280
     1
281
     0
  0
BLOCK_RECORD
  5
7D
330
1
100
AcDbSymbolTableRecord
100
AcDbBlockTableRecord
  2
Block_1
340
0
102
{BLKREFS
331
7E
102
}
 70
     0
280
     1
281
     0
  0
BLOCK_RECORD
  5
81
330
1
100
AcDbSymbolTableRecord
100
AcDbBlockTableRecord
  2
Block_2
340
0
102
{BLKREFS
331
82
102
}
 70
     0
280
     1
281
     0
  0
BLOCK_RECORD
  5
AB
330
1
100
AcDbSymbolTableRecord
100
AcDbBlockTableRecord
  2
Block_3
340
0
102
{BLKREFS
331
AC
102
}
 70
     0
280
     1
281
     0
  0
BLOCK_RECORD
  5
B2
330
1
100
AcDbSymbolTableRecord
100
AcDbBlockTableRecord
  2
Block_4
340
0
102
{BLKREFS
331
B3
102
}
 70
     0
280
     1
281
     0
  0
BLOCK_RECORD
  5
11D
330
1
100
AcDbSymbolTableRecord
100
AcDbBlockTableRecord
  2
Block_5
340
0
102
{BLKREFS
331
11E
102
}
 70
     0
280
     1
281
     0
  0
BLOCK_RECORD
  5
121
330
1
100
AcDbSymbolTableRecord
100
AcDbBlockTableRecord
  2
Block_6
340
0
102
{BLKREFS
331
122
102
}
 70
     0
280
     1
281
     0
  0
BLOCK_RECORD
  5
12E
330
1
100
AcDbSymbolTableRecord
100
AcDbBlockTableRecord
  2
Block_7
340
0
102
{BLKREFS
331
12F
102
}
 70
     0
280
     1
281
     0
  0
BLOCK_RECORD
  5
132
330
1
100
AcDbSymbolTableRecord
100
AcDbBlockTableRecord
  2
Block_8
340
0
102
{BLKREFS
331
133
102
}
 70
     0
280
     1
281
     0
  0
BLOCK_RECORD
  5
13C
330
1
100
AcDbSymbolTableRecord
100
AcDbBlockTableRecord
  2
Block_9
340
0
102
{BLKREFS
331
13D
102
}
 70
     0
280
     1
281
     0
  0
BLOCK_RECORD
  5
146
330
1
100
AcDbSymbolTableRecord
100
AcDbBlockTableRecord
  2
Block_10
340
0
102
{BLKREFS
331
147
102
}
 70
     0
280
     1
281
     0
  0
BLOCK_RECORD
  5
14A
330
1
100
AcDbSymbolTableRecord
100
AcDbBlockTableRecord
  2
Block_11
340
0
102
{BLKREFS
331
14B
102
}
 70
     0
280
     1
281
     0
  0
BLOCK_RECORD
  5
155
330
1
100
AcDbSymbolTableRecord
100
AcDbBlockTableRecord
  2
Block_12
340
0
102
{BLKREFS
331
156
102
}
 70
     0
280
     1
281
     0
  0
BLOCK_RECORD
  5
15D
330
1
100
AcDbSymbolTableRecord
100
AcDbBlockTableRecord
  2
Block_13
340
0
102
{BLKREFS
331
15E
102
}
 70
     0
280
     1
281
     0
  0
BLOCK_RECORD
  5
16A
330
1
100
AcDbSymbolTableRecord
100
AcDbBlockTableRecord
  2
Block_14
340
0
102
{BLKREFS
331
16B
102
}
 70
     0
280
     1
281
     0
  0
BLOCK_RECORD
  5
16E
330
1
100
AcDbSymbolTableRecord
100
AcDbBlockTableRecord
  2
Block_15
340
0
102
{BLKREFS
331
16F
102
}
 70
     0
280
     1
281
     0
  0
ENDTAB
  0
ENDSEC
  0
SECTION
  2
BLOCKS
  0
BLOCK
  5
71
330
70
100
AcDbEntity
  8
0
100
AcDbBlockBegin
  2
*Model_Space
 70
     0
 10
0.0
 20
0.0
 30
0.0
  3
*Model_Space
  1

  0
ENDBLK
  5
72
330
70
100
AcDbEntity
  8
0
100
AcDbBlockEnd
  0
BLOCK
  5
6D
330
6C
100
AcDbEntity
 67
     1
  8
0
100
AcDbBlockBegin
  2
*Paper_Space
 70
     0
 10
0.0
 20
0.0
 30
0.0
  3
*Paper_Space
  1

  0
ENDBLK
  5
6E
330
6C
100
AcDbEntity
 67
     1
  8
0
100
AcDbBlockEnd
  0
BLOCK
  5
75
330
74
100
AcDbEntity
 67
     1
  8
0
100
AcDbBlockBegin
  2
*Paper_Space0
 70
     0
 10
0.0
 20
0.0
 30
0.0
  3
*Paper_Space0
  1

  0
ENDBLK
  5
76
330
74
100
AcDbEntity
 67
     1
  8
0
100
AcDbBlockEnd
  0
BLOCK
  5
7B
330
79
100
AcDbEntity
  8
0
100
AcDbBlockBegin
  2
Block_0
 70
     0
 10
0.0
 20
0.0
 30
0.0
  3
Block_0
  1

  0
INSERT
  5
7E
330
79
100
AcDbEntity
  8
レイヤー 1
100
AcDbBlockReference
  2
Block_1
 10
0.0
 20
0.0
 30
0.0
  0
INSERT
  5
AC
330
79
100
AcDbEntity
  8
レイヤー 1
100
AcDbBlockReference
  2
Block_3
 10
0.0
 20
0.0
 30
0.0
  0
ENDBLK
  5
7C
330
79
100
AcDbEntity
  8
0
100
AcDbBlockEnd
  0
BLOCK
  5
7F
330
7D
100
AcDbEntity
  8
0
100
AcDbBlockBegin
  2
Block_1
 70
     0
 10
0.0
 20
0.0
 30
0.0
  3
Block_1
  1

  0
INSERT
  5
82
330
7D
100
AcDbEntity
  8
レイヤー 1
100
AcDbBlockReference
  2
Block_2
 10
0.0
 20
0.0
 30
0.0
  0
ENDBLK
  5
80
330
7D
100
AcDbEntity
  8
0
100
AcDbBlockEnd
  0
BLOCK
  5
83
330
81
100
AcDbEntity
  8
0
100
AcDbBlockBegin
  2
Block_2
 70
     0
 10
0.0
 20
0.0
 30
0.0
  3
Block_2
  1

  0
SPLINE
  5
85
330
81
100
AcDbEntity
  8
レイヤー 1
100
AcDbSpline
210
0.0
220
0.0
230
1.0
 70
     9
 71
     3
 72
    17
 73
    13
 74
     0
 42
0.0000000001
 43
0.0000000001
 40
0.0
 40
0.0
 40
0.0
 40
0.0
 40
1.0
 40
1.0
 40
1.0
 40
2.0
 40
2.0
 40
2.0
 40
3.0
 40
3.0
 40
3.0
 40
4.0
 40
4.0
 40
4.0
 40
4.0
 10
125.6715711491376
 20
-148.7984971416198
 30
0.0
 10
125.553059864445
 20
-148.6865315383492
 30
0.0
 10
125.4607313054403
 20
-148.6229695266463
 30
0.0
 10
125.3570339313343
 20
-148.5595797697177
 30
0.0
 10
125.3570339313343
 20
-148.5595797697177
 30
0.0
 10
125.4679660059594
 20
-148.4474419116729
 30
0.0
 10
125.4679660059594
 20
-148.4474419116729
 30
0.0
 10
125.5826876856182
 20
-148.4939507007237
 30
0.0
 10
125.6791503592052
 20
-148.5511392857789
 30
0.0
 10
125.7883598860876
 20
-148.6525973478195
 30
0.0
 10
125.7883598860876
 20
-148.6525973478195
 30
0.0
 10
125.6715711491376
 20
-148.7984971416198
 30
0.0
 10
125.6715711491376
 20
-148.7984971416198
 30
0.0
  0
SPLINE
  5
86
330
81
100
AcDbEntity
  8
レイヤー 1
100
AcDbSpline
210
0.0
220
0.0
230
1.0
 70
     9
 71
     3
 72
    20
 73
    16
 74
     0
 42
0.0000000001
 43
0.0000000001
 40
0.0
 40
0.0
 40
0.0
 40
0.0
 40
1.0
 40
1.0
 40
1.0
 40
2.0
 40
2.0
 40
2.0
 40
3.0
 40
3.0
 40
3.0
 40
4.0
 40
4.0
 40
4.0
 40
5.0
 40
5.0
 40
5.0
 40
5.0
 10
125.1809895520381
 20
-147.7429198849393
 30
0.0
 10
125.1475721258312
 20
-147.7916679860555
 30
0.0
 10
125.0941731458098
 20
-147.8698716535707
 30
0.0
 10
124.9718722560834
 20
-147.9799424543244
 30
0.0
 10
125.0421522039825
 20
-147.9840765689067
 30
0.0
 10
125.0679904201219
 20
-147.9840765689067
 30
0.0
 10
125.0883164834849
 20
-147.9840765689067
 30
0.0
 10
125.0883164834849
 20
-147.9840765689067
 30
0.0
 10
125.2884765311779
 20
-147.9840765689067
 30
0.0
 10
125.2884765311779
 20
-147.9840765689067
 30
0.0
 10
125.3160372950599
 20
-147.9840765689067
 30
0.0
 10
125.358756479077
 20
-147.9820095116156
 30
0.0
 10
125.4235242741996
 20
-147.9799424543244
 30
0.0
 10
125.32533905287
 20
-147.9058729013916
 30
0.0
 10
125.2829643784015
 20
-147.8593641123407
 30
0.0
 10
125.1809895520381
 20
-147.7429198849393
 30
0.0
  0
SPLINE
  5
87
330
81
100
AcDbEntity
  8
レイヤー 1
100
AcDbSpline
210
0.0
220
0.0
230
1.0
 70
     9
 71
     3
 72
    23
 73
    19
 74
     0
 42
0.0000000001
 43
0.0000000001
 40
0.0
 40
0.0
 40
0.0
 40
0.0
 40
1.0
 40
1.0
 40
1.0
 40
2.0
 40
2.0
 40
2.0
 40
3.0
 40
3.0
 40
3.0
 40
4.0
 40
4.0
 40
4.0
 40
5.0
 40
5.0
 40
5.0
 40
6.0
 40
6.0
 40
6.0
 40
6.0
 10
124.9198513142561
 20
-148.5849012215343
 30
0.0
 10
124.9012477986358
 20
-148.6081556160598
 30
0.0
 10
124.8161539401501
 20
-148.7202934741046
 30
0.0
 10
124.6938530504237
 20
-148.8007364536852
 30
0.0
 10
124.6938530504237
 20
-148.8007364536852
 30
0.0
 10
124.5477810018492
 20
-148.6801581117015
 30
0.0
 10
124.5477810018492
 20
-148.6801581117015
 30
0.0
 10
124.6793836493857
 20
-148.6040215014774
 30
0.0
 10
124.766200055614
 20
-148.5087646113103
 30
0.0
 10
124.8089192396311
 20
-148.4558823956117
 30
0.0
 10
124.8089192396311
 20
-148.4558823956117
 30
0.0
 10
124.9605034409821
 20
-148.5383924324835
 30
0.0
 10
124.9605034409821
 20
-148.5383924324835
 30
0.0
 10
124.9680826510496
 20
-148.5425265470657
 30
0.0
 10
124.9756618611172
 20
-148.5488999737134
 30
0.0
 10
124.9756618611172
 20
-148.5595797697177
 30
0.0
 10
124.9756618611172
 20
-148.5849012215343
 30
0.0
 10
124.9439669826529
 20
-148.5849012215343
 30
0.0
 10
124.9198513142561
 20
-148.5849012215343
 30
0.0
  0
SPLINE
  5
88
330
81
100
AcDbEntity
  8
レイヤー 1
100
AcDbSpline
210
0.0
220
0.0
230
1.0
 70
     9
 71
     3
 72
    17
 73
    13
 74
     0
 42
0.0000000001
 43
0.0000000001
 40
0.0
 40
0.0
 40
0.0
 40
0.0
 40
1.0
 40
1.0
 40
1.0
 40
2.0
 40
2.0
 40
2.0
 40
3.0
 40
3.0
 40
3.0
 40
4.0
 40
4.0
 40
4.0
 40
4.0
 10
124.5236653334524
 20
-147.8803791948007
 30
0.0
 10
124.4699218438825
 20
-147.8042425845767
 30
0.0
 10
124.3569227119663
 20
-147.7281059743527
 30
0.0
 10
124.2663167007042
 20
-147.6984781531795
 30
0.0
 10
124.2663167007042
 20
-147.6984781531795
 30
0.0
 10
124.3496880114473
 20
-147.5334580794361
 30
0.0
 10
124.3496880114473
 20
-147.5334580794361
 30
0.0
 10
124.4385714749667
 20
-147.5694593272569
 30
0.0
 10
124.53124454352
 20
-147.6266479123121
 30
0.0
 10
124.6087591919381
 20
-147.7069186371184
 30
0.0
 10
124.6087591919381
 20
-147.7069186371184
 30
0.0
 10
124.5236653334524
 20
-147.8803791948007
 30
0.0
 10
124.5236653334524
 20
-147.8803791948007
 30
0.0
  0
SPLINE
  5
89
330
81
100
AcDbEntity
  8
レイヤー 1
100
AcDbSpline
210
0.0
220
0.0
230
1.0
 70
     9
 71
     3
 72
    23
 73
    19
 74
     0
 42
0.0000000001
 43
0.0000000001
 40
0.0
 40
0.0
 40
0.0
 40
0.0
 40
1.0
 40
1.0
 40
1.0
 40
2.0
 40
2.0
 40
2.0
 40
3.0
 40
3.0
 40
3.0
 40
4.0
 40
4.0
 40
4.0
 40
5.0
 40
5.0
 40
5.0
 40
6.0
 40
6.0
 40
6.0
 40
6.0
 10
124.3014566746538
 20
-148.7752427470944
 30
0.0
 10
124.3014566746538
 20
-148.7964300843287
 30
0.0
 10
124.3031792223964
 20
-148.8344983894407
 30
0.0
 10
124.2811306112908
 20
-148.8344983894407
 30
0.0
 10
124.2718288534806
 20
-148.8344983894407
 30
0.0
 10
124.2645941529616
 20
-148.8281249627929
 30
0.0
 10
124.2552923951514
 20
-148.8112439949152
 30
0.0
 10
124.2552923951514
 20
-148.8112439949152
 30
0.0
 10
124.1643418743408
 20
-148.629342953294
 30
0.0
 10
124.1643418743408
 20
-148.629342953294
 30
0.0
 10
124.3534776164811
 20
-148.5003241273714
 30
0.0
 10
124.525387881195
 20
-148.2231661955831
 30
0.0
 10
124.5663845174695
 20
-148.1511636999414
 30
0.0
 10
124.5663845174695
 20
-148.1511636999414
 30
0.0
 10
124.629085255301
 20
-148.3309976842714
 30
0.0
 10
124.629085255301
 20
-148.3309976842714
 30
0.0
 10
124.5126410278996
 20
-148.5277126364792
 30
0.0
 10
124.3589897692574
 20
-148.7118529901658
 30
0.0
 10
124.3014566746538
 20
-148.7752427470944
 30
0.0
  0
SPLINE
  5
8A
330
81
100
AcDbEntity
  8
レイヤー 1
100
AcDbSpline
210
0.0
220
0.0
230
1.0
 70
     9
 71
     3
 72
   182
 73
   178
 74
     0
 42
0.0000000001
 43
0.0000000001
 40
0.0
 40
0.0
 40
0.0
 40
0.0
 40
1.0
 40
1.0
 40
1.0
 40
2.0
 40
2.0
 40
2.0
 40
3.0
 40
3.0
 40
3.0
 40
4.0
 40
4.0
 40
4.0
 40
5.0
 40
5.0
 40
5.0
 40
6.0
 40
6.0
 40
6.0
 40
7.0
 40
7.0
 40
7.0
 40
8.0
 40
8.0
 40
8.0
 40
9.0
 40
9.0
 40
9.0
 40
10.0
 40
10.0
 40
10.0
 40
11.0
 40
11.0
 40
11.0
 40
12.0
 40
12.0
 40
12.0
 40
13.0
 40
13.0
 40
13.0
 40
14.0
 40
14.0
 40
14.0
 40
15.0
 40
15.0
 40
15.0
 40
16.0
 40
16.0
 40
16.0
 40
17.0
 40
17.0
 40
17.0
 40
18.0
 40
18.0
 40
18.0
 40
19.0
 40
19.0
 40
19.0
 40
20.0
 40
20.0
 40
20.0
 40
21.0
 40
21.0
 40
21.0
 40
22.0
 40
22.0
 40
22.0
 40
23.0
 40
23.0
 40
23.0
 40
24.0
 40
24.0
 40
24.0
 40
25.0
 40
25.0
 40
25.0
 40
26.0
 40
26.0
 40
26.0
 40
27.0
 40
27.0
 40
27.0
 40
28.0
 40
28.0
 40
28.0
 40
29.0
 40
29.0
 40
29.0
 40
30.0
 40
30.0
 40
30.0
 40
31.0
 40
31.0
 40
31.0
 40
32.0
 40
32.0
 40
32.0
 40
33.0
 40
33.0
 40
33.0
 40
34.0
 40
34.0
 40
34.0
 40
35.0
 40
35.0
 40
35.0
 40
36.0
 40
36.0
 40
36.0
 40
37.0
 40
37.0
 40
37.0
 40
38.0
 40
38.0
 40
38.0
 40
39.0
 40
39.0
 40
39.0
 40
40.0
 40
40.0
 40
40.0
 40
41.0
 40
41.0
 40
41.0
 40
42.0
 40
42.0
 40
42.0
 40
43.0
 40
43.0
 40
43.0
 40
44.0
 40
44.0
 40
44.0
 40
45.0
 40
45.0
 40
45.0
 40
46.0
 40
46.0
 40
46.0
 40
47.0
 40
47.0
 40
47.0
 40
48.0
 40
48.0
 40
48.0
 40
49.0
 40
49.0
 40
49.0
 40
50.0
 40
50.0
 40
50.0
 40
51.0
 40
51.0
 40
51.0
 40
52.0
 40
52.0
 40
52.0
 40
53.0
 40
53.0
 40
53.0
 40
54.0
 40
54.0
 40
54.0
 40
55.0
 40
55.0
 40
55.0
 40
56.0
 40
56.0
 40
56.0
 40
57.0
 40
57.0
 40
57.0
 40
58.0
 40
58.0
 40
58.0
 40
59.0
 40
59.0
 40
59.0
 40
59.0
 10
125.2808973211103
 20
-149.4038004183782
 30
0.0
 10
125.2808973211103
 20
-149.4038004183782
 30
0.0
 10
124.7234808715969
 20
-149.4038004183782
 30
0.0
 10
124.7234808715969
 20
-149.4038004183782
 30
0.0
 10
124.5367566962963
 20
-149.4038004183782
 30
0.0
 10
124.3476209541561
 20
-149.4079345329605
 30
0.0
 10
124.1605522693071
 20
-149.4206813862559
 30
0.0
 10
124.1605522693071
 20
-149.4206813862559
 30
0.0
 10
124.1605522693071
 20
-149.2132866380439
 30
0.0
 10
124.1605522693071
 20
-149.2132866380439
 30
0.0
 10
124.3552001642237
 20
-149.2260334913393
 30
0.0
 10
124.6383870131112
 20
-149.2301676059216
 30
0.0
 10
124.7234808715969
 20
-149.2301676059216
 30
0.0
 10
124.7234808715969
 20
-149.2301676059216
 30
0.0
 10
124.9164062187709
 20
-149.2301676059216
 30
0.0
 10
124.9164062187709
 20
-149.2301676059216
 30
0.0
 10
124.9164062187709
 20
-149.2301676059216
 30
0.0
 10
124.9164062187709
 20
-149.0885741814778
 30
0.0
 10
124.9164062187709
 20
-149.0885741814778
 30
0.0
 10
124.9164062187709
 20
-149.0885741814778
 30
0.0
 10
124.7755018134242
 20
-149.0885741814778
 30
0.0
 10
124.7755018134242
 20
-149.0885741814778
 30
0.0
 10
124.6311523125922
 20
-149.0885741814778
 30
0.0
 10
124.4864583022117
 20
-149.0927082960601
 30
0.0
 10
124.3421088013797
 20
-149.1075222066467
 30
0.0
 10
124.3421088013797
 20
-149.1075222066467
 30
0.0
 10
124.3421088013797
 20
-148.8980604011435
 30
0.0
 10
124.3421088013797
 20
-148.8980604011435
 30
0.0
 10
124.4923149645366
 20
-148.9128743117301
 30
0.0
 10
124.7090114705588
 20
-148.9170084263124
 30
0.0
 10
124.7755018134242
 20
-148.9170084263124
 30
0.0
 10
124.7755018134242
 20
-148.9170084263124
 30
0.0
 10
124.9164062187709
 20
-148.9170084263124
 30
0.0
 10
124.9164062187709
 20
-148.9170084263124
 30
0.0
 10
124.9126166137371
 20
-148.8451781854449
 30
0.0
 10
124.9126166137371
 20
-148.8388047587972
 30
0.0
 10
124.9071044609607
 20
-148.7859225430987
 30
0.0
 10
124.9071044609607
 20
-148.7859225430987
 30
0.0
 10
125.0290608411386
 20
-148.8007364536852
 30
0.0
 10
125.0290608411386
 20
-148.8007364536852
 30
0.0
 10
125.0290608411386
 20
-148.8007364536852
 30
0.0
 10
124.9422444349103
 20
-148.629342953294
 30
0.0
 10
124.9422444349103
 20
-148.629342953294
 30
0.0
 10
124.9828965616362
 20
-148.6357163799418
 30
0.0
 10
125.0476643567589
 20
-148.6441568638806
 30
0.0
 10
125.0624782673455
 20
-148.6441568638806
 30
0.0
 10
125.1069199991052
 20
-148.6441568638806
 30
0.0
 10
125.1217339096918
 20
-148.6229695266463
 30
0.0
 10
125.1217339096918
 20
-148.5659531963654
 30
0.0
 10
125.1217339096918
 20
-148.5659531963654
 30
0.0
 10
125.1217339096918
 20
-148.4283216317297
 30
0.0
 10
125.1217339096918
 20
-148.4283216317297
 30
0.0
 10
125.1217339096918
 20
-148.4283216317297
 30
0.0
 10
125.0290608411386
 20
-148.4283216317297
 30
0.0
 10
125.0290608411386
 20
-148.4283216317297
 30
0.0
 10
124.9126166137371
 20
-148.4283216317297
 30
0.0
 10
124.7755018134242
 20
-148.4283216317297
 30
0.0
 10
124.6680148342844
 20
-148.4410684850251
 30
0.0
 10
124.6680148342844
 20
-148.4410684850251
 30
0.0
 10
124.6680148342844
 20
-148.2507269594651
 30
0.0
 10
124.6680148342844
 20
-148.2507269594651
 30
0.0
 10
124.8144313924075
 20
-148.2676079273428
 30
0.0
 10
125.0163139878431
 20
-148.269674984634
 30
0.0
 10
125.0290608411386
 20
-148.269674984634
 30
0.0
 10
125.0290608411386
 20
-148.269674984634
 30
0.0
 10
125.1217339096918
 20
-148.269674984634
 30
0.0
 10
125.1217339096918
 20
-148.269674984634
 30
0.0
 10
125.1217339096918
 20
-148.269674984634
 30
0.0
 10
125.1217339096918
 20
-148.1385891014202
 30
0.0
 10
125.1217339096918
 20
-148.1385891014202
 30
0.0
 10
125.1217339096918
 20
-148.1385891014202
 30
0.0
 10
125.0883164834849
 20
-148.1385891014202
 30
0.0
 10
125.0883164834849
 20
-148.1385891014202
 30
0.0
 10
125.0493869045015
 20
-148.1385891014202
 30
0.0
 10
124.9401773776191
 20
-148.1427232160025
 30
0.0
 10
124.862662729201
 20
-148.1511636999414
 30
0.0
 10
124.862662729201
 20
-148.1511636999414
 30
0.0
 10
124.862662729201
 20
-148.070892975135
 30
0.0
 10
124.862662729201
 20
-148.070892975135
 30
0.0
 10
124.8161539401501
 20
-148.108961280247
 30
0.0
 10
124.7941053290445
 20
-148.1237751908336
 30
0.0
 10
124.7568982978038
 20
-148.1470295853591
 30
0.0
 10
124.7568982978038
 20
-148.1470295853591
 30
0.0
 10
124.5922227336089
 20
-148.0180107594364
 30
0.0
 10
124.5922227336089
 20
-148.0180107594364
 30
0.0
 10
124.6607801337654
 20
-147.9840765689067
 30
0.0
 10
124.7978949340783
 20
-147.9206868119781
 30
0.0
 10
124.9346652248427
 20
-147.776854075469
 30
0.0
 10
125.0070122300329
 20
-147.6984781531795
 30
0.0
 10
125.0755696301894
 20
-147.6139010590167
 30
0.0
 10
125.1217339096918
 20
-147.512442996976
 30
0.0
 10
125.1217339096918
 20
-147.512442996976
 30
0.0
 10
125.3070800467982
 20
-147.5737656966135
 30
0.0
 10
125.3070800467982
 20
-147.5737656966135
 30
0.0
 10
125.3236165051274
 20
-147.5799668684869
 30
0.0
 10
125.3329182629376
 20
-147.5885796072001
 30
0.0
 10
125.3329182629376
 20
-147.6011542057212
 30
0.0
 10
125.3329182629376
 20
-147.6182074283732
 30
0.0
 10
125.3218939573848
 20
-147.6244086002466
 30
0.0
 10
125.2995008367307
 20
-147.6371554535421
 30
0.0
 10
125.3697807846298
 20
-147.7344794010004
 30
0.0
 10
125.5124077377191
 20
-147.8318033484587
 30
0.0
 10
125.5420355588922
 20
-147.8507513736276
 30
0.0
 10
125.6736382064288
 20
-147.939634837147
 30
0.0
 10
125.773545975501
 20
-147.967195601029
 30
0.0
 10
125.8421033756575
 20
-147.9861436261979
 30
0.0
 10
125.8421033756575
 20
-147.9861436261979
 30
0.0
 10
125.7384060015515
 20
-148.1554700692979
 30
0.0
 10
125.7384060015515
 20
-148.1554700692979
 30
0.0
 10
125.6643364486186
 20
-148.1258422481248
 30
0.0
 10
125.6198947168589
 20
-148.1068942229559
 30
0.0
 10
125.5161973427529
 20
-148.0412651539619
 30
0.0
 10
125.5161973427529
 20
-148.0412651539619
 30
0.0
 10
125.5161973427529
 20
-148.1511636999414
 30
0.0
 10
125.5161973427529
 20
-148.1511636999414
 30
0.0
 10
125.4438503375626
 20
-148.1427232160025
 30
0.0
 10
125.3329182629376
 20
-148.1385891014202
 30
0.0
 10
125.2864094738867
 20
-148.1385891014202
 30
0.0
 10
125.2864094738867
 20
-148.1385891014202
 30
0.0
 10
125.2864094738867
 20
-148.269674984634
 30
0.0
 10
125.2864094738867
 20
-148.269674984634
 30
0.0
 10
125.2864094738867
 20
-148.269674984634
 30
0.0
 10
125.3921739052839
 20
-148.269674984634
 30
0.0
 10
125.3921739052839
 20
-148.269674984634
 30
0.0
 10
125.3938964530265
 20
-148.269674984634
 30
0.0
 10
125.5978461057533
 20
-148.2676079273428
 30
0.0
 10
125.7532199121381
 20
-148.2507269594651
 30
0.0
 10
125.7532199121381
 20
-148.2507269594651
 30
0.0
 10
125.7532199121381
 20
-148.4410684850251
 30
0.0
 10
125.7532199121381
 20
-148.4410684850251
 30
0.0
 10
125.6402207802219
 20
-148.4283216317297
 30
0.0
 10
125.5031059799089
 20
-148.4283216317297
 30
0.0
 10
125.3921739052839
 20
-148.4283216317297
 30
0.0
 10
125.3921739052839
 20
-148.4283216317297
 30
0.0
 10
125.2864094738867
 20
-148.4283216317297
 30
0.0
 10
125.2864094738867
 20
-148.4283216317297
 30
0.0
 10
125.2864094738867
 20
-148.4283216317297
 30
0.0
 10
125.2864094738867
 20
-148.6546644051106
 30
0.0
 10
125.2864094738867
 20
-148.6546644051106
 30
0.0
 10
125.2864094738867
 20
-148.7731756898032
 30
0.0
 10
125.2643608627811
 20
-148.8091769376241
 30
0.0
 10
125.1238009669829
 20
-148.8239908482107
 30
0.0
 10
125.1272460624682
 20
-148.8429388733795
 30
0.0
 10
125.1217339096918
 20
-148.8536186693838
 30
0.0
 10
125.0883164834849
 20
-148.8770453186835
 30
0.0
 10
125.0865939357422
 20
-148.8959933438524
 30
0.0
 10
125.0865939357422
 20
-148.9021945157258
 30
0.0
 10
125.0848713879996
 20
-148.9170084263124
 30
0.0
 10
125.0848713879996
 20
-148.9170084263124
 30
0.0
 10
125.2051052204348
 20
-148.9170084263124
 30
0.0
 10
125.2051052204348
 20
-148.9170084263124
 30
0.0
 10
125.3494547212668
 20
-148.9170084263124
 30
0.0
 10
125.4958712793899
 20
-148.9128743117301
 30
0.0
 10
125.6419433279645
 20
-148.8980604011435
 30
0.0
 10
125.6419433279645
 20
-148.8980604011435
 30
0.0
 10
125.6419433279645
 20
-149.1054551493555
 30
0.0
 10
125.6419433279645
 20
-149.1054551493555
 30
0.0
 10
125.4531520953728
 20
-149.0885741814778
 30
0.0
 10
125.221641678764
 20
-149.0885741814778
 30
0.0
 10
125.2051052204348
 20
-149.0885741814778
 30
0.0
 10
125.2051052204348
 20
-149.0885741814778
 30
0.0
 10
125.0828043307084
 20
-149.0885741814778
 30
0.0
 10
125.0828043307084
 20
-149.0885741814778
 30
0.0
 10
125.0828043307084
 20
-149.0885741814778
 30
0.0
 10
125.0828043307084
 20
-149.2301676059216
 30
0.0
 10
125.0828043307084
 20
-149.2301676059216
 30
0.0
 10
125.0828043307084
 20
-149.2301676059216
 30
0.0
 10
125.2808973211103
 20
-149.2301676059216
 30
0.0
 10
125.2808973211103
 20
-149.2301676059216
 30
0.0
 10
125.4700330632505
 20
-149.2301676059216
 30
0.0
 10
125.6605468435848
 20
-149.2260334913393
 30
0.0
 10
125.8493380761765
 20
-149.2132866380439
 30
0.0
 10
125.8493380761765
 20
-149.2132866380439
 30
0.0
 10
125.8493380761765
 20
-149.4206813862559
 30
0.0
 10
125.8493380761765
 20
-149.4206813862559
 30
0.0
 10
125.6033582585297
 20
-149.4038004183782
 30
0.0
 10
125.3015678940218
 20
-149.4038004183782
 30
0.0
 10
125.2808973211103
 20
-149.4038004183782
 30
0.0
  0
SPLINE
  5
8B
330
81
100
AcDbEntity
  8
レイヤー 1
100
AcDbSpline
210
0.0
220
0.0
230
1.0
 70
     9
 71
     3
 72
    17
 73
    13
 74
     0
 42
0.0000000001
 43
0.0000000001
 40
0.0
 40
0.0
 40
0.0
 40
0.0
 40
1.0
 40
1.0
 40
1.0
 40
2.0
 40
2.0
 40
2.0
 40
3.0
 40
3.0
 40
3.0
 40
4.0
 40
4.0
 40
4.0
 40
4.0
 10
124.3662244697765
 20
-148.2252332528742
 30
0.0
 10
124.2735514012233
 20
-148.1194688214771
 30
0.0
 10
124.2032714533242
 20
-148.0814005163651
 30
0.0
 10
124.1219671998723
 20
-148.0497056379008
 30
0.0
 10
124.1219671998723
 20
-148.0497056379008
 30
0.0
 10
124.2180853639107
 20
-147.8846855641573
 30
0.0
 10
124.2180853639107
 20
-147.8846855641573
 30
0.0
 10
124.3031792223964
 20
-147.9270602386258
 30
0.0
 10
124.4089436537936
 20
-148.005263906141
 30
0.0
 10
124.4551079332959
 20
-148.0602131791308
 30
0.0
 10
124.4551079332959
 20
-148.0602131791308
 30
0.0
 10
124.3662244697765
 20
-148.2252332528742
 30
0.0
 10
124.3662244697765
 20
-148.2252332528742
 30
0.0
  0
HATCH
  5
8C
330
81
100
AcDbEntity
  8
レイヤー 1
 62
   250
420
  2299925
440
 33554687
100
AcDbHatch
 10
0.0
 20
0.0
 30
0.0
210
0.0
220
0.0
230
1.0
  2
SOLID
 70
     1
 71
     1
 91
        7
 92
        1
 93
        1
 72
     4
 94
        3
 73
     0
 74
     0
 95
       17
 96
       13
 40
0.0
 40
0.0
 40
0.0
 40
0.0
 40
1.0
 40
1.0
 40
1.0
 40
2.0
 40
2.0
 40
2.0
 40
3.0
 40
3.0
 40
3.0
 40
4.0
 40
4.0
 40
4.0
 40
4.0
 10
125.6715711491376
 20
-148.7984971416198
 10
125.553059864445
 20
-148.6865315383492
 10
125.4607313054403
 20
-148.6229695266463
 10
125.3570339313343
 20
-148.5595797697177
 10
125.3570339313343
 20
-148.5595797697177
 10
125.4679660059594
 20
-148.4474419116729
 10
125.4679660059594
 20
-148.4474419116729
 10
125.5826876856182
 20
-148.4939507007237
 10
125.6791503592052
 20
-148.5511392857789
 10
125.7883598860876
 20
-148.6525973478195
 10
125.7883598860876
 20
-148.6525973478195
 10
125.6715711491376
 20
-148.7984971416198
 10
125.6715711491376
 20
-148.7984971416198
 97
        0
 97
        1
330
85
 92
        1
 93
        1
 72
     4
 94
        3
 73
     0
 74
     0
 95
       20
 96
       16
 40
0.0
 40
0.0
 40
0.0
 40
0.0
 40
1.0
 40
1.0
 40
1.0
 40
2.0
 40
2.0
 40
2.0
 40
3.0
 40
3.0
 40
3.0
 40
4.0
 40
4.0
 40
4.0
 40
5.0
 40
5.0
 40
5.0
 40
5.0
 10
125.1809895520381
 20
-147.7429198849393
 10
125.1475721258312
 20
-147.7916679860555
 10
125.0941731458098
 20
-147.8698716535707
 10
124.9718722560834
 20
-147.9799424543244
 10
125.0421522039825
 20
-147.9840765689067
 10
125.0679904201219
 20
-147.9840765689067
 10
125.0883164834849
 20
-147.9840765689067
 10
125.0883164834849
 20
-147.9840765689067
 10
125.2884765311779
 20
-147.9840765689067
 10
125.2884765311779
 20
-147.9840765689067
 10
125.3160372950599
 20
-147.9840765689067
 10
125.358756479077
 20
-147.9820095116156
 10
125.4235242741996
 20
-147.9799424543244
 10
125.32533905287
 20
-147.9058729013916
 10
125.2829643784015
 20
-147.8593641123407
 10
125.1809895520381
 20
-147.7429198849393
 97
        0
 97
        1
330
86
 92
        1
 93
        1
 72
     4
 94
        3
 73
     0
 74
     0
 95
       23
 96
       19
 40
0.0
 40
0.0
 40
0.0
 40
0.0
 40
1.0
 40
1.0
 40
1.0
 40
2.0
 40
2.0
 40
2.0
 40
3.0
 40
3.0
 40
3.0
 40
4.0
 40
4.0
 40
4.0
 40
5.0
 40
5.0
 40
5.0
 40
6.0
 40
6.0
 40
6.0
 40
6.0
 10
124.9198513142561
 20
-148.5849012215343
 10
124.9012477986358
 20
-148.6081556160598
 10
124.8161539401501
 20
-148.7202934741046
 10
124.6938530504237
 20
-148.8007364536852
 10
124.6938530504237
 20
-148.8007364536852
 10
124.5477810018492
 20
-148.6801581117015
 10
124.5477810018492
 20
-148.6801581117015
 10
124.6793836493857
 20
-148.6040215014774
 10
124.766200055614
 20
-148.5087646113103
 10
124.8089192396311
 20
-148.4558823956117
 10
124.8089192396311
 20
-148.4558823956117
 10
124.9605034409821
 20
-148.5383924324835
 10
124.9605034409821
 20
-148.5383924324835
 10
124.9680826510496
 20
-148.5425265470657
 10
124.9756618611172
 20
-148.5488999737134
 10
124.9756618611172
 20
-148.5595797697177
 10
124.9756618611172
 20
-148.5849012215343
 10
124.9439669826529
 20
-148.5849012215343
 10
124.9198513142561
 20
-148.5849012215343
 97
        0
 97
        1
330
87
 92
        1
 93
        1
 72
     4
 94
        3
 73
     0
 74
     0
 95
       17
 96
       13
 40
0.0
 40
0.0
 40
0.0
 40
0.0
 40
1.0
 40
1.0
 40
1.0
 40
2.0
 40
2.0
 40
2.0
 40
3.0
 40
3.0
 40
3.0
 40
4.0
 40
4.0
 40
4.0
 40
4.0
 10
124.5236653334524
 20
-147.8803791948007
 10
124.4699218438825
 20
-147.8042425845767
 10
124.3569227119663
 20
-147.7281059743527
 10
124.2663167007042
 20
-147.6984781531795
 10
124.2663167007042
 20
-147.6984781531795
 10
124.3496880114473
 20
-147.5334580794361
 10
124.3496880114473
 20
-147.5334580794361
 10
124.4385714749667
 20
-147.5694593272569
 10
124.53124454352
 20
-147.6266479123121
 10
124.6087591919381
 20
-147.7069186371184
 10
124.6087591919381
 20
-147.7069186371184
 10
124.5236653334524
 20
-147.8803791948007
 10
124.5236653334524
 20
-147.8803791948007
 97
        0
 97
        1
330
88
 92
        1
 93
        1
 72
     4
 94
        3
 73
     0
 74
     0
 95
       23
 96
       19
 40
0.0
 40
0.0
 40
0.0
 40
0.0
 40
1.0
 40
1.0
 40
1.0
 40
2.0
 40
2.0
 40
2.0
 40
3.0
 40
3.0
 40
3.0
 40
4.0
 40
4.0
 40
4.0
 40
5.0
 40
5.0
 40
5.0
 40
6.0
 40
6.0
 40
6.0
 40
6.0
 10
124.3014566746538
 20
-148.7752427470944
 10
124.3014566746538
 20
-148.7964300843287
 10
124.3031792223964
 20
-148.8344983894407
 10
124.2811306112908
 20
-148.8344983894407
 10
124.2718288534806
 20
-148.8344983894407
 10
124.2645941529616
 20
-148.8281249627929
 10
124.2552923951514
 20
-148.8112439949152
 10
124.2552923951514
 20
-148.8112439949152
 10
124.1643418743408
 20
-148.629342953294
 10
124.1643418743408
 20
-148.629342953294
 10
124.3534776164811
 20
-148.5003241273714
 10
124.525387881195
 20
-148.2231661955831
 10
124.5663845174695
 20
-148.1511636999414
 10
124.5663845174695
 20
-148.1511636999414
 10
124.629085255301
 20
-148.3309976842714
 10
124.629085255301
 20
-148.3309976842714
 10
124.5126410278996
 20
-148.5277126364792
 10
124.3589897692574
 20
-148.7118529901658
 10
124.3014566746538
 20
-148.7752427470944
 97
        0
 97
        1
330
89
 92
        1
 93
        1
 72
     4
 94
        3
 73
     0
 74
     0
 95
      182
 96
      178
 40
0.0
 40
0.0
 40
0.0
 40
0.0
 40
1.0
 40
1.0
 40
1.0
 40
2.0
 40
2.0
 40
2.0
 40
3.0
 40
3.0
 40
3.0
 40
4.0
 40
4.0
 40
4.0
 40
5.0
 40
5.0
 40
5.0
 40
6.0
 40
6.0
 40
6.0
 40
7.0
 40
7.0
 40
7.0
 40
8.0
 40
8.0
 40
8.0
 40
9.0
 40
9.0
 40
9.0
 40
10.0
 40
10.0
 40
10.0
 40
11.0
 40
11.0
 40
11.0
 40
12.0
 40
12.0
 40
12.0
 40
13.0
 40
13.0
 40
13.0
 40
14.0
 40
14.0
 40
14.0
 40
15.0
 40
15.0
 40
15.0
 40
16.0
 40
16.0
 40
16.0
 40
17.0
 40
17.0
 40
17.0
 40
18.0
 40
18.0
 40
18.0
 40
19.0
 40
19.0
 40
19.0
 40
20.0
 40
20.0
 40
20.0
 40
21.0
 40
21.0
 40
21.0
 40
22.0
 40
22.0
 40
22.0
 40
23.0
 40
23.0
 40
23.0
 40
24.0
 40
24.0
 40
24.0
 40
25.0
 40
25.0
 40
25.0
 40
26.0
 40
26.0
 40
26.0
 40
27.0
 40
27.0
 40
27.0
 40
28.0
 40
28.0
 40
28.0
 40
29.0
 40
29.0
 40
29.0
 40
30.0
 40
30.0
 40
30.0
 40
31.0
 40
31.0
 40
31.0
 40
32.0
 40
32.0
 40
32.0
 40
33.0
 40
33.0
 40
33.0
 40
34.0
 40
34.0
 40
34.0
 40
35.0
 40
35.0
 40
35.0
 40
36.0
 40
36.0
 40
36.0
 40
37.0
 40
37.0
 40
37.0
 40
38.0
 40
38.0
 40
38.0
 40
39.0
 40
39.0
 40
39.0
 40
40.0
 40
40.0
 40
40.0
 40
41.0
 40
41.0
 40
41.0
 40
42.0
 40
42.0
 40
42.0
 40
43.0
 40
43.0
 40
43.0
 40
44.0
 40
44.0
 40
44.0
 40
45.0
 40
45.0
 40
45.0
 40
46.0
 40
46.0
 40
46.0
 40
47.0
 40
47.0
 40
47.0
 40
48.0
 40
48.0
 40
48.0
 40
49.0
 40
49.0
 40
49.0
 40
50.0
 40
50.0
 40
50.0
 40
51.0
 40
51.0
 40
51.0
 40
52.0
 40
52.0
 40
52.0
 40
53.0
 40
53.0
 40
53.0
 40
54.0
 40
54.0
 40
54.0
 40
55.0
 40
55.0
 40
55.0
 40
56.0
 40
56.0
 40
56.0
 40
57.0
 40
57.0
 40
57.0
 40
58.0
 40
58.0
 40
58.0
 40
59.0
 40
59.0
 40
59.0
 40
59.0
 10
125.2808973211103
 20
-149.4038004183782
 10
125.2808973211103
 20
-149.4038004183782
 10
124.7234808715969
 20
-149.4038004183782
 10
124.7234808715969
 20
-149.4038004183782
 10
124.5367566962963
 20
-149.4038004183782
 10
124.3476209541561
 20
-149.4079345329605
 10
124.1605522693071
 20
-149.4206813862559
 10
124.1605522693071
 20
-149.4206813862559
 10
124.1605522693071
 20
-149.2132866380439
 10
124.1605522693071
 20
-149.2132866380439
 10
124.3552001642237
 20
-149.2260334913393
 10
124.6383870131112
 20
-149.2301676059216
 10
124.7234808715969
 20
-149.2301676059216
 10
124.7234808715969
 20
-149.2301676059216
 10
124.9164062187709
 20
-149.2301676059216
 10
124.9164062187709
 20
-149.2301676059216
 10
124.9164062187709
 20
-149.2301676059216
 10
124.9164062187709
 20
-149.0885741814778
 10
124.9164062187709
 20
-149.0885741814778
 10
124.9164062187709
 20
-149.0885741814778
 10
124.7755018134242
 20
-149.0885741814778
 10
124.7755018134242
 20
-149.0885741814778
 10
124.6311523125922
 20
-149.0885741814778
 10
124.4864583022117
 20
-149.0927082960601
 10
124.3421088013797
 20
-149.1075222066467
 10
124.3421088013797
 20
-149.1075222066467
 10
124.3421088013797
 20
-148.8980604011435
 10
124.3421088013797
 20
-148.8980604011435
 10
124.4923149645366
 20
-148.9128743117301
 10
124.7090114705588
 20
-148.9170084263124
 10
124.7755018134242
 20
-148.9170084263124
 10
124.7755018134242
 20
-148.9170084263124
 10
124.9164062187709
 20
-148.9170084263124
 10
124.9164062187709
 20
-148.9170084263124
 10
124.9126166137371
 20
-148.8451781854449
 10
124.9126166137371
 20
-148.8388047587972
 10
124.9071044609607
 20
-148.7859225430987
 10
124.9071044609607
 20
-148.7859225430987
 10
125.0290608411386
 20
-148.8007364536852
 10
125.0290608411386
 20
-148.8007364536852
 10
125.0290608411386
 20
-148.8007364536852
 10
124.9422444349103
 20
-148.629342953294
 10
124.9422444349103
 20
-148.629342953294
 10
124.9828965616362
 20
-148.6357163799418
 10
125.0476643567589
 20
-148.6441568638806
 10
125.0624782673455
 20
-148.6441568638806
 10
125.1069199991052
 20
-148.6441568638806
 10
125.1217339096918
 20
-148.6229695266463
 10
125.1217339096918
 20
-148.5659531963654
 10
125.1217339096918
 20
-148.5659531963654
 10
125.1217339096918
 20
-148.4283216317297
 10
125.1217339096918
 20
-148.4283216317297
 10
125.1217339096918
 20
-148.4283216317297
 10
125.0290608411386
 20
-148.4283216317297
 10
125.0290608411386
 20
-148.4283216317297
 10
124.9126166137371
 20
-148.4283216317297
 10
124.7755018134242
 20
-148.4283216317297
 10
124.6680148342844
 20
-148.4410684850251
 10
124.6680148342844
 20
-148.4410684850251
 10
124.6680148342844
 20
-148.2507269594651
 10
124.6680148342844
 20
-148.2507269594651
 10
124.8144313924075
 20
-148.2676079273428
 10
125.0163139878431
 20
-148.269674984634
 10
125.0290608411386
 20
-148.269674984634
 10
125.0290608411386
 20
-148.269674984634
 10
125.1217339096918
 20
-148.269674984634
 10
125.1217339096918
 20
-148.269674984634
 10
125.1217339096918
 20
-148.269674984634
 10
125.1217339096918
 20
-148.1385891014202
 10
125.1217339096918
 20
-148.1385891014202
 10
125.1217339096918
 20
-148.1385891014202
 10
125.0883164834849
 20
-148.1385891014202
 10
125.0883164834849
 20
-148.1385891014202
 10
125.0493869045015
 20
-148.1385891014202
 10
124.9401773776191
 20
-148.1427232160025
 10
124.862662729201
 20
-148.1511636999414
 10
124.862662729201
 20
-148.1511636999414
 10
124.862662729201
 20
-148.070892975135
 10
124.862662729201
 20
-148.070892975135
 10
124.8161539401501
 20
-148.108961280247
 10
124.7941053290445
 20
-148.1237751908336
 10
124.7568982978038
 20
-148.1470295853591
 10
124.7568982978038
 20
-148.1470295853591
 10
124.5922227336089
 20
-148.0180107594364
 10
124.5922227336089
 20
-148.0180107594364
 10
124.6607801337654
 20
-147.9840765689067
 10
124.7978949340783
 20
-147.9206868119781
 10
124.9346652248427
 20
-147.776854075469
 10
125.0070122300329
 20
-147.6984781531795
 10
125.0755696301894
 20
-147.6139010590167
 10
125.1217339096918
 20
-147.512442996976
 10
125.1217339096918
 20
-147.512442996976
 10
125.3070800467982
 20
-147.5737656966135
 10
125.3070800467982
 20
-147.5737656966135
 10
125.3236165051274
 20
-147.5799668684869
 10
125.3329182629376
 20
-147.5885796072001
 10
125.3329182629376
 20
-147.6011542057212
 10
125.3329182629376
 20
-147.6182074283732
 10
125.3218939573848
 20
-147.6244086002466
 10
125.2995008367307
 20
-147.6371554535421
 10
125.3697807846298
 20
-147.7344794010004
 10
125.5124077377191
 20
-147.8318033484587
 10
125.5420355588922
 20
-147.8507513736276
 10
125.6736382064288
 20
-147.939634837147
 10
125.773545975501
 20
-147.967195601029
 10
125.8421033756575
 20
-147.9861436261979
 10
125.8421033756575
 20
-147.9861436261979
 10
125.7384060015515
 20
-148.1554700692979
 10
125.7384060015515
 20
-148.1554700692979
 10
125.6643364486186
 20
-148.1258422481248
 10
125.6198947168589
 20
-148.1068942229559
 10
125.5161973427529
 20
-148.0412651539619
 10
125.5161973427529
 20
-148.0412651539619
 10
125.5161973427529
 20
-148.1511636999414
 10
125.5161973427529
 20
-148.1511636999414
 10
125.4438503375626
 20
-148.1427232160025
 10
125.3329182629376
 20
-148.1385891014202
 10
125.2864094738867
 20
-148.1385891014202
 10
125.2864094738867
 20
-148.1385891014202
 10
125.2864094738867
 20
-148.269674984634
 10
125.2864094738867
 20
-148.269674984634
 10
125.2864094738867
 20
-148.269674984634
 10
125.3921739052839
 20
-148.269674984634
 10
125.3921739052839
 20
-148.269674984634
 10
125.3938964530265
 20
-148.269674984634
 10
125.5978461057533
 20
-148.2676079273428
 10
125.7532199121381
 20
-148.2507269594651
 10
125.7532199121381
 20
-148.2507269594651
 10
125.7532199121381
 20
-148.4410684850251
 10
125.7532199121381
 20
-148.4410684850251
 10
125.6402207802219
 20
-148.4283216317297
 10
125.5031059799089
 20
-148.4283216317297
 10
125.3921739052839
 20
-148.4283216317297
 10
125.3921739052839
 20
-148.4283216317297
 10
125.2864094738867
 20
-148.4283216317297
 10
125.2864094738867
 20
-148.4283216317297
 10
125.2864094738867
 20
-148.4283216317297
 10
125.2864094738867
 20
-148.6546644051106
 10
125.2864094738867
 20
-148.6546644051106
 10
125.2864094738867
 20
-148.7731756898032
 10
125.2643608627811
 20
-148.8091769376241
 10
125.1238009669829
 20
-148.8239908482107
 10
125.1272460624682
 20
-148.8429388733795
 10
125.1217339096918
 20
-148.8536186693838
 10
125.0883164834849
 20
-148.8770453186835
 10
125.0865939357422
 20
-148.8959933438524
 10
125.0865939357422
 20
-148.9021945157258
 10
125.0848713879996
 20
-148.9170084263124
 10
125.0848713879996
 20
-148.9170084263124
 10
125.2051052204348
 20
-148.9170084263124
 10
125.2051052204348
 20
-148.9170084263124
 10
125.3494547212668
 20
-148.9170084263124
 10
125.4958712793899
 20
-148.9128743117301
 10
125.6419433279645
 20
-148.8980604011435
 10
125.6419433279645
 20
-148.8980604011435
 10
125.6419433279645
 20
-149.1054551493555
 10
125.6419433279645
 20
-149.1054551493555
 10
125.4531520953728
 20
-149.0885741814778
 10
125.221641678764
 20
-149.0885741814778
 10
125.2051052204348
 20
-149.0885741814778
 10
125.2051052204348
 20
-149.0885741814778
 10
125.0828043307084
 20
-149.0885741814778
 10
125.0828043307084
 20
-149.0885741814778
 10
125.0828043307084
 20
-149.0885741814778
 10
125.0828043307084
 20
-149.2301676059216
 10
125.0828043307084
 20
-149.2301676059216
 10
125.0828043307084
 20
-149.2301676059216
 10
125.2808973211103
 20
-149.2301676059216
 10
125.2808973211103
 20
-149.2301676059216
 10
125.4700330632505
 20
-149.2301676059216
 10
125.6605468435848
 20
-149.2260334913393
 10
125.8493380761765
 20
-149.2132866380439
 10
125.8493380761765
 20
-149.2132866380439
 10
125.8493380761765
 20
-149.4206813862559
 10
125.8493380761765
 20
-149.4206813862559
 10
125.6033582585297
 20
-149.4038004183782
 10
125.3015678940218
 20
-149.4038004183782
 10
125.2808973211103
 20
-149.4038004183782
 97
        0
 97
        1
330
8A
 92
        1
 93
        1
 72
     4
 94
        3
 73
     0
 74
     0
 95
       17
 96
       13
 40
0.0
 40
0.0
 40
0.0
 40
0.0
 40
1.0
 40
1.0
 40
1.0
 40
2.0
 40
2.0
 40
2.0
 40
3.0
 40
3.0
 40
3.0
 40
4.0
 40
4.0
 40
4.0
 40
4.0
 10
124.3662244697765
 20
-148.2252332528742
 10
124.2735514012233
 20
-148.1194688214771
 10
124.2032714533242
 20
-148.0814005163651
 10
124.1219671998723
 20
-148.0497056379008
 10
124.1219671998723
 20
-148.0497056379008
 10
124.2180853639107
 20
-147.8846855641573
 10
124.2180853639107
 20
-147.8846855641573
 10
124.3031792223964
 20
-147.9270602386258
 10
124.4089436537936
 20
-148.005263906141
 10
124.4551079332959
 20
-148.0602131791308
 10
124.4551079332959
 20
-148.0602131791308
 10
124.3662244697765
 20
-148.2252332528742
 10
124.3662244697765
 20
-148.2252332528742
 97
        0
 97
        1
330
8B
 75
     2
 76
     1
 98
        1
 10
0.0
 20
0.0
450
        0
451
        0
460
0.0
461
0.0
452
        0
462
0.0
453
        0
470

  0
SPLINE
  5
8D
330
81
100
AcDbEntity
  8
レイヤー 1
100
AcDbSpline
210
0.0
220
0.0
230
1.0
 70
    11
 71
     3
 72
    17
 73
    13
 74
     0
 42
0.0000000001
 43
0.0000000001
 40
0.0
 40
0.0
 40
0.0
 40
0.0
 40
1.0
 40
1.0
 40
1.0
 40
2.0
 40
2.0
 40
2.0
 40
3.0
 40
3.0
 40
3.0
 40
4.0
 40
4.0
 40
4.0
 40
4.0
 10
127.1371147685629
 20
-148.7731756898032
 30
0.0
 10
127.1371147685629
 20
-148.7731756898032
 30
0.0
 10
126.959347841524
 20
-148.7731756898032
 30
0.0
 10
126.959347841524
 20
-148.7731756898032
 30
0.0
 10
126.9834635099208
 20
-148.8324313321495
 30
0.0
 10
127.0313503371657
 20
-148.9046060825655
 30
0.0
 10
127.0554660055625
 20
-148.9338893941901
 30
0.0
 10
127.0795816739592
 20
-148.9194199931521
 30
0.0
 10
127.1794894430315
 20
-148.855685726675
 30
0.0
 10
127.2590711487408
 20
-148.7731756898032
 30
0.0
 10
127.2590711487408
 20
-148.7731756898032
 30
0.0
 10
127.1371147685629
 20
-148.7731756898032
 30
0.0
 10
127.1371147685629
 20
-148.7731756898032
 30
0.0
  0
SPLINE
  5
8E
330
81
100
AcDbEntity
  8
レイヤー 1
100
AcDbSpline
210
0.0
220
0.0
230
1.0
 70
     9
 71
     3
 72
    83
 73
    79
 74
     0
 42
0.0000000001
 43
0.0000000001
 40
0.0
 40
0.0
 40
0.0
 40
0.0
 40
1.0
 40
1.0
 40
1.0
 40
2.0
 40
2.0
 40
2.0
 40
3.0
 40
3.0
 40
3.0
 40
4.0
 40
4.0
 40
4.0
 40
5.0
 40
5.0
 40
5.0
 40
6.0
 40
6.0
 40
6.0
 40
7.0
 40
7.0
 40
7.0
 40
8.0
 40
8.0
 40
8.0
 40
9.0
 40
9.0
 40
9.0
 40
10.0
 40
10.0
 40
10.0
 40
11.0
 40
11.0
 40
11.0
 40
12.0
 40
12.0
 40
12.0
 40
13.0
 40
13.0
 40
13.0
 40
14.0
 40
14.0
 40
14.0
 40
15.0
 40
15.0
 40
15.0
 40
16.0
 40
16.0
 40
16.0
 40
17.0
 40
17.0
 40
17.0
 40
18.0
 40
18.0
 40
18.0
 40
19.0
 40
19.0
 40
19.0
 40
20.0
 40
20.0
 40
20.0
 40
21.0
 40
21.0
 40
21.0
 40
22.0
 40
22.0
 40
22.0
 40
23.0
 40
23.0
 40
23.0
 40
24.0
 40
24.0
 40
24.0
 40
25.0
 40
25.0
 40
25.0
 40
26.0
 40
26.0
 40
26.0
 40
26.0
 10
127.351744217294
 20
-147.9756360849679
 30
0.0
 10
127.351744217294
 20
-147.9756360849679
 30
0.0
 10
127.2666503588083
 20
-147.9756360849679
 30
0.0
 10
127.2666503588083
 20
-147.9756360849679
 30
0.0
 10
127.2666503588083
 20
-147.9756360849679
 30
0.0
 10
127.2666503588083
 20
-148.2231661955831
 30
0.0
 10
127.2666503588083
 20
-148.2231661955831
 30
0.0
 10
127.2666503588083
 20
-148.2231661955831
 30
0.0
 10
127.3389973639986
 20
-148.2231661955831
 30
0.0
 10
127.3389973639986
 20
-148.2231661955831
 30
0.0
 10
127.3961859490537
 20
-148.2231661955831
 30
0.0
 10
127.5184868387801
 20
-148.2188598262265
 30
0.0
 10
127.6056477545569
 20
-148.2104193422877
 30
0.0
 10
127.6056477545569
 20
-148.2104193422877
 30
0.0
 10
127.6056477545569
 20
-148.3902533266177
 30
0.0
 10
127.6056477545569
 20
-148.3902533266177
 30
0.0
 10
127.5239989915565
 20
-148.3818128426788
 30
0.0
 10
127.3927408535685
 20
-148.3776787280965
 30
0.0
 10
127.3389973639986
 20
-148.3776787280965
 30
0.0
 10
127.3389973639986
 20
-148.3776787280965
 30
0.0
 10
127.0723469734402
 20
-148.3776787280965
 30
0.0
 10
127.0723469734402
 20
-148.3776787280965
 30
0.0
 10
127.0258381843894
 20
-148.3776787280965
 30
0.0
 10
126.8980251418866
 20
-148.3818128426788
 30
0.0
 10
126.8056965828819
 20
-148.3902533266177
 30
0.0
 10
126.8056965828819
 20
-148.3902533266177
 30
0.0
 10
126.8056965828819
 20
-148.2104193422877
 30
0.0
 10
126.8056965828819
 20
-148.2104193422877
 30
0.0
 10
126.8925129891102
 20
-148.2188598262265
 30
0.0
 10
127.0148138788365
 20
-148.2231661955831
 30
0.0
 10
127.0723469734402
 20
-148.2231661955831
 30
0.0
 10
127.0723469734402
 20
-148.2231661955831
 30
0.0
 10
127.110932042875
 20
-148.2231661955831
 30
0.0
 10
127.110932042875
 20
-148.2231661955831
 30
0.0
 10
127.110932042875
 20
-148.2231661955831
 30
0.0
 10
127.110932042875
 20
-147.9756360849679
 30
0.0
 10
127.110932042875
 20
-147.9756360849679
 30
0.0
 10
127.110932042875
 20
-147.9756360849679
 30
0.0
 10
127.0461642477523
 20
-147.9756360849679
 30
0.0
 10
127.0461642477523
 20
-147.9756360849679
 30
0.0
 10
126.9924207581824
 20
-147.9756360849679
 30
0.0
 10
126.8463487096078
 20
-147.9799424543244
 30
0.0
 10
126.7409287877592
 20
-147.9883829382633
 30
0.0
 10
126.7409287877592
 20
-147.9883829382633
 30
0.0
 10
126.7409287877592
 20
-147.8106160112244
 30
0.0
 10
126.7409287877592
 20
-147.8106160112244
 30
0.0
 10
126.8408365568314
 20
-147.8169894378721
 30
0.0
 10
126.979673904887
 20
-147.8212958072287
 30
0.0
 10
127.0461642477523
 20
-147.8212958072287
 30
0.0
 10
127.0461642477523
 20
-147.8212958072287
 30
0.0
 10
127.1092094951324
 20
-147.8212958072287
 30
0.0
 10
127.1092094951324
 20
-147.8212958072287
 30
0.0
 10
127.1054198900986
 20
-147.6688503320064
 30
0.0
 10
127.103697342356
 20
-147.6350883962509
 30
0.0
 10
127.0981851895796
 20
-147.5418985633749
 30
0.0
 10
127.0981851895796
 20
-147.5418985633749
 30
0.0
 10
127.2831868171375
 20
-147.5653252126746
 30
0.0
 10
127.2831868171375
 20
-147.5653252126746
 30
0.0
 10
127.3055799377916
 20
-147.5673922699658
 30
0.0
 10
127.3259060011546
 20
-147.5715263845481
 30
0.0
 10
127.3259060011546
 20
-147.5947807790735
 30
0.0
 10
127.3259060011546
 20
-147.6266479123121
 30
0.0
 10
127.2869764221713
 20
-147.6435288801898
 30
0.0
 10
127.2666503588083
 20
-147.6519693641287
 30
0.0
 10
127.2666503588083
 20
-147.6519693641287
 30
0.0
 10
127.2666503588083
 20
-147.8212958072287
 30
0.0
 10
127.2666503588083
 20
-147.8212958072287
 30
0.0
 10
127.2666503588083
 20
-147.8212958072287
 30
0.0
 10
127.351744217294
 20
-147.8212958072287
 30
0.0
 10
127.351744217294
 20
-147.8212958072287
 30
0.0
 10
127.4185790697078
 20
-147.8212958072287
 30
0.0
 10
127.5574164177634
 20
-147.8169894378721
 30
0.0
 10
127.6593912441268
 20
-147.8106160112244
 30
0.0
 10
127.6593912441268
 20
-147.8106160112244
 30
0.0
 10
127.6593912441268
 20
-147.9883829382633
 30
0.0
 10
127.6593912441268
 20
-147.9883829382633
 30
0.0
 10
127.5646511182824
 20
-147.9820095116156
 30
0.0
 10
127.4130669169314
 20
-147.9756360849679
 30
0.0
 10
127.351744217294
 20
-147.9756360849679
 30
0.0
  0
SPLINE
  5
8F
330
81
100
AcDbEntity
  8
レイヤー 1
100
AcDbSpline
210
0.0
220
0.0
230
1.0
 70
     9
 71
     3
 72
    38
 73
    34
 74
     0
 42
0.0000000001
 43
0.0000000001
 40
0.0
 40
0.0
 40
0.0
 40
0.0
 40
1.0
 40
1.0
 40
1.0
 40
2.0
 40
2.0
 40
2.0
 40
3.0
 40
3.0
 40
3.0
 40
4.0
 40
4.0
 40
4.0
 40
5.0
 40
5.0
 40
5.0
 40
6.0
 40
6.0
 40
6.0
 40
7.0
 40
7.0
 40
7.0
 40
8.0
 40
8.0
 40
8.0
 40
9.0
 40
9.0
 40
9.0
 40
10.0
 40
10.0
 40
10.0
 40
11.0
 40
11.0
 40
11.0
 40
11.0
 10
126.6499782669486
 20
-147.6540364214198
 30
0.0
 10
126.648255719206
 20
-147.7007174652449
 30
0.0
 10
126.6461886619148
 20
-147.8169894378721
 30
0.0
 10
126.6461886619148
 20
-147.8614311696319
 30
0.0
 10
126.6461886619148
 20
-147.8614311696319
 30
0.0
 10
126.6461886619148
 20
-148.2083522849965
 30
0.0
 10
126.6461886619148
 20
-148.2083522849965
 30
0.0
 10
126.6461886619148
 20
-148.2951686912248
 30
0.0
 10
126.648255719206
 20
-148.4367621156686
 30
0.0
 10
126.6575574770161
 20
-148.5573404576523
 30
0.0
 10
126.6575574770161
 20
-148.5573404576523
 30
0.0
 10
126.4908148555301
 20
-148.5573404576523
 30
0.0
 10
126.4908148555301
 20
-148.5573404576523
 30
0.0
 10
126.4946044605638
 20
-148.4939507007237
 30
0.0
 10
126.4980495560491
 20
-148.4410684850251
 30
0.0
 10
126.5001166133402
 20
-148.3861192120354
 30
0.0
 10
126.5018391610829
 20
-148.2633015579862
 30
0.0
 10
126.503906218374
 20
-148.2484876473997
 30
0.0
 10
126.503906218374
 20
-148.2040459156399
 30
0.0
 10
126.503906218374
 20
-148.2040459156399
 30
0.0
 10
126.503906218374
 20
-147.8826185068661
 30
0.0
 10
126.503906218374
 20
-147.8826185068661
 30
0.0
 10
126.503906218374
 20
-147.8274969791021
 30
0.0
 10
126.4925374032727
 20
-147.5885796072001
 30
0.0
 10
126.4908148555301
 20
-147.5377644487926
 30
0.0
 10
126.4908148555301
 20
-147.5377644487926
 30
0.0
 10
126.6665147252778
 20
-147.5653252126746
 30
0.0
 10
126.6665147252778
 20
-147.5653252126746
 30
0.0
 10
126.6851182408982
 20
-147.5673922699658
 30
0.0
 10
126.7130235143287
 20
-147.5715263845481
 30
0.0
 10
126.7130235143287
 20
-147.5970200911389
 30
0.0
 10
126.7130235143287
 20
-147.6244086002466
 30
0.0
 10
126.668581782569
 20
-147.645595937481
 30
0.0
 10
126.6499782669486
 20
-147.6540364214198
 30
0.0
  0
SPLINE
  5
90
330
81
100
AcDbEntity
  8
レイヤー 1
100
AcDbSpline
210
0.0
220
0.0
230
1.0
 70
     9
 71
     3
 72
    17
 73
    13
 74
     0
 42
0.0000000001
 43
0.0000000001
 40
0.0
 40
0.0
 40
0.0
 40
0.0
 40
1.0
 40
1.0
 40
1.0
 40
2.0
 40
2.0
 40
2.0
 40
3.0
 40
3.0
 40
3.0
 40
4.0
 40
4.0
 40
4.0
 40
4.0
 10
126.3278618390778
 20
-147.9587551170902
 30
0.0
 10
126.3020236229384
 20
-147.918619754687
 30
0.0
 10
126.2427679805921
 20
-147.8212958072287
 30
0.0
 10
126.083260059625
 20
-147.711225006475
 30
0.0
 10
126.083260059625
 20
-147.711225006475
 30
0.0
 10
126.1945366437986
 20
-147.5778998111958
 30
0.0
 10
126.1945366437986
 20
-147.5778998111958
 30
0.0
 10
126.3574896602509
 20
-147.6795301280106
 30
0.0
 10
126.407443544787
 20
-147.7684135915301
 30
0.0
 10
126.4315592131838
 20
-147.8106160112244
 30
0.0
 10
126.4315592131838
 20
-147.8106160112244
 30
0.0
 10
126.3278618390778
 20
-147.9587551170902
 30
0.0
 10
126.3278618390778
 20
-147.9587551170902
 30
0.0
  0
SPLINE
  5
91
330
81
100
AcDbEntity
  8
レイヤー 1
100
AcDbSpline
210
0.0
220
0.0
230
1.0
 70
     9
 71
     3
 72
    23
 73
    19
 74
     0
 42
0.0000000001
 43
0.0000000001
 40
0.0
 40
0.0
 40
0.0
 40
0.0
 40
1.0
 40
1.0
 40
1.0
 40
2.0
 40
2.0
 40
2.0
 40
3.0
 40
3.0
 40
3.0
 40
4.0
 40
4.0
 40
4.0
 40
5.0
 40
5.0
 40
5.0
 40
6.0
 40
6.0
 40
6.0
 40
6.0
 10
126.1945366437986
 20
-148.4241875171474
 30
0.0
 10
126.179722733212
 20
-148.4643228795506
 30
0.0
 10
126.1742105804356
 20
-148.4812038474283
 30
0.0
 10
126.1556070648153
 20
-148.4812038474283
 30
0.0
 10
126.1425157019713
 20
-148.4812038474283
 30
0.0
 10
126.1332139441611
 20
-148.4643228795506
 30
0.0
 10
126.1277017913847
 20
-148.4515760262551
 30
0.0
 10
126.1277017913847
 20
-148.4515760262551
 30
0.0
 10
126.0408853851564
 20
-148.2865559525117
 30
0.0
 10
126.0408853851564
 20
-148.2865559525117
 30
0.0
 10
126.1297688486759
 20
-148.2548610740474
 30
0.0
 10
126.2610269866639
 20
-148.1999118010577
 30
0.0
 10
126.4353488182175
 20
-148.0369587846053
 30
0.0
 10
126.4353488182175
 20
-148.0369587846053
 30
0.0
 10
126.4853027027537
 20
-148.2104193422877
 30
0.0
 10
126.4853027027537
 20
-148.2104193422877
 30
0.0
 10
126.4036539397532
 20
-148.2929293791594
 30
0.0
 10
126.3261392913351
 20
-148.3501179642145
 30
0.0
 10
126.1945366437986
 20
-148.4241875171474
 30
0.0
  0
SPLINE
  5
92
330
81
100
AcDbEntity
  8
レイヤー 1
100
AcDbSpline
210
0.0
220
0.0
230
1.0
 70
     9
 71
     3
 72
   113
 73
   109
 74
     0
 42
0.0000000001
 43
0.0000000001
 40
0.0
 40
0.0
 40
0.0
 40
0.0
 40
1.0
 40
1.0
 40
1.0
 40
2.0
 40
2.0
 40
2.0
 40
3.0
 40
3.0
 40
3.0
 40
4.0
 40
4.0
 40
4.0
 40
5.0
 40
5.0
 40
5.0
 40
6.0
 40
6.0
 40
6.0
 40
7.0
 40
7.0
 40
7.0
 40
8.0
 40
8.0
 40
8.0
 40
9.0
 40
9.0
 40
9.0
 40
10.0
 40
10.0
 40
10.0
 40
11.0
 40
11.0
 40
11.0
 40
12.0
 40
12.0
 40
12.0
 40
13.0
 40
13.0
 40
13.0
 40
14.0
 40
14.0
 40
14.0
 40
15.0
 40
15.0
 40
15.0
 40
16.0
 40
16.0
 40
16.0
 40
17.0
 40
17.0
 40
17.0
 40
18.0
 40
18.0
 40
18.0
 40
19.0
 40
19.0
 40
19.0
 40
20.0
 40
20.0
 40
20.0
 40
21.0
 40
21.0
 40
21.0
 40
22.0
 40
22.0
 40
22.0
 40
23.0
 40
23.0
 40
23.0
 40
24.0
 40
24.0
 40
24.0
 40
25.0
 40
25.0
 40
25.0
 40
26.0
 40
26.0
 40
26.0
 40
27.0
 40
27.0
 40
27.0
 40
28.0
 40
28.0
 40
28.0
 40
29.0
 40
29.0
 40
29.0
 40
30.0
 40
30.0
 40
30.0
 40
31.0
 40
31.0
 40
31.0
 40
32.0
 40
32.0
 40
32.0
 40
33.0
 40
33.0
 40
33.0
 40
34.0
 40
34.0
 40
34.0
 40
35.0
 40
35.0
 40
35.0
 40
36.0
 40
36.0
 40
36.0
 40
36.0
 10
127.3183267910871
 20
-148.7752427470944
 30
0.0
 10
127.3183267910871
 20
-148.7752427470944
 30
0.0
 10
127.4054877068639
 20
-148.8749782613924
 30
0.0
 10
127.4054877068639
 20
-148.8749782613924
 30
0.0
 10
127.4147894646741
 20
-148.8853135478481
 30
0.0
 10
127.4240912224842
 20
-148.8980604011435
 30
0.0
 10
127.4240912224842
 20
-148.9128743117301
 30
0.0
 10
127.4240912224842
 20
-148.9149413690213
 30
0.0
 10
127.4240912224842
 20
-148.9445691901944
 30
0.0
 10
127.3906737962773
 20
-148.9445691901944
 30
0.0
 10
127.3834390957583
 20
-148.9445691901944
 30
0.0
 10
127.3479546122602
 20
-148.9404350756121
 30
0.0
 10
127.3424424594838
 20
-148.9404350756121
 30
0.0
 10
127.3073024855343
 20
-148.9721299540764
 30
0.0
 10
127.2666503588083
 20
-149.0058918898318
 30
0.0
 10
127.1794894430315
 20
-149.063080474887
 30
0.0
 10
127.3073024855343
 20
-149.1709119635753
 30
0.0
 10
127.4461398335898
 20
-149.2281005486305
 30
0.0
 10
127.6852294602662
 20
-149.2663411085167
 30
0.0
 10
127.6852294602662
 20
-149.2663411085167
 30
0.0
 10
127.5536268127296
 20
-149.4416964687159
 30
0.0
 10
127.5536268127296
 20
-149.4416964687159
 30
0.0
 10
127.324183453412
 20
-149.3696939730742
 30
0.0
 10
127.1870686530991
 20
-149.2811550191033
 30
0.0
 10
127.1202338006852
 20
-149.2281005486305
 30
0.0
 10
126.9889756626972
 20
-149.1264702318156
 30
0.0
 10
126.862885167937
 20
-148.9635172153633
 30
0.0
 10
126.7963948250717
 20
-148.7984971416198
 30
0.0
 10
126.7371391827254
 20
-148.8641262106138
 30
0.0
 10
126.6723713876027
 20
-148.9170084263124
 30
0.0
 10
126.6038139874462
 20
-148.965928782203
 30
0.0
 10
126.6038139874462
 20
-148.965928782203
 30
0.0
 10
126.6038139874462
 20
-149.2174207526262
 30
0.0
 10
126.6038139874462
 20
-149.2174207526262
 30
0.0
 10
126.7464409405356
 20
-149.1922715555839
 30
0.0
 10
126.9093939569879
 20
-149.1478298238241
 30
0.0
 10
126.9648599943004
 20
-149.1330159132376
 30
0.0
 10
126.9648599943004
 20
-149.1330159132376
 30
0.0
 10
126.939021778161
 20
-149.3021701015633
 30
0.0
 10
126.939021778161
 20
-149.3021701015633
 30
0.0
 10
126.9369547208699
 20
-149.3021701015633
 30
0.0
 10
126.9204182625407
 20
-149.3083712734368
 30
0.0
 10
126.9186957147981
 20
-149.3083712734368
 30
0.0
 10
126.7443738832444
 20
-149.346611833323
 30
0.0
 10
126.4666991871333
 20
-149.4120686475428
 30
0.0
 10
126.2944444128708
 20
-149.4482421501379
 30
0.0
 10
126.2851426550607
 20
-149.4651231180156
 30
0.0
 10
126.2648165916977
 20
-149.4968179964799
 30
0.0
 10
126.2444905283347
 20
-149.4968179964799
 30
0.0
 10
126.2203748599379
 20
-149.4968179964799
 30
0.0
 10
126.2165852549042
 20
-149.4778699713111
 30
0.0
 10
126.2148627071616
 20
-149.4585774365937
 30
0.0
 10
126.2148627071616
 20
-149.4585774365937
 30
0.0
 10
126.1924695865074
 20
-149.2852891336856
 30
0.0
 10
126.1924695865074
 20
-149.2852891336856
 30
0.0
 10
126.2575818911786
 20
-149.2766763949725
 30
0.0
 10
126.3519775074745
 20
-149.263929541677
 30
0.0
 10
126.4463731237703
 20
-149.242914459217
 30
0.0
 10
126.4463731237703
 20
-149.242914459217
 30
0.0
 10
126.4463731237703
 20
-149.0651475321781
 30
0.0
 10
126.4463731237703
 20
-149.0651475321781
 30
0.0
 10
126.3202826290102
 20
-149.1371500278199
 30
0.0
 10
126.2372558278157
 20
-149.166777848993
 30
0.0
 10
126.0925618174352
 20
-149.1964056701661
 30
0.0
 10
126.0925618174352
 20
-149.1964056701661
 30
0.0
 10
125.9871418955865
 20
-149.0272514818404
 30
0.0
 10
125.9871418955865
 20
-149.0272514818404
 30
0.0
 10
126.2648165916977
 20
-148.9996907179584
 30
0.0
 10
126.4332817609264
 20
-148.9066731398567
 30
0.0
 10
126.5890000768597
 20
-148.7731756898032
 30
0.0
 10
126.4611870343569
 20
-148.7731756898032
 30
0.0
 10
126.1983262488324
 20
-148.7774820591598
 30
0.0
 10
126.0260714745699
 20
-148.7838554858075
 30
0.0
 10
126.0260714745699
 20
-148.7838554858075
 30
0.0
 10
126.0260714745699
 20
-148.6060885587686
 30
0.0
 10
126.0260714745699
 20
-148.6060885587686
 30
0.0
 10
126.1611192175916
 20
-148.6124619854163
 30
0.0
 10
126.420534907631
 20
-148.618835412064
 30
0.0
 10
126.5814208667921
 20
-148.618835412064
 30
0.0
 10
126.5814208667921
 20
-148.618835412064
 30
0.0
 10
126.7667670038986
 20
-148.618835412064
 30
0.0
 10
126.7667670038986
 20
-148.618835412064
 30
0.0
 10
126.7667670038986
 20
-148.5235785218969
 30
0.0
 10
126.7646999466074
 20
-148.4727633634894
 30
0.0
 10
126.759187793831
 20
-148.4262545744386
 30
0.0
 10
126.759187793831
 20
-148.4262545744386
 30
0.0
 10
126.9483235359712
 20
-148.4431355423163
 30
0.0
 10
126.9483235359712
 20
-148.4431355423163
 30
0.0
 10
126.9906982104398
 20
-148.4474419116729
 30
0.0
 10
126.9982774205073
 20
-148.4622558222594
 30
0.0
 10
126.9982774205073
 20
-148.477069732846
 30
0.0
 10
126.9982774205073
 20
-148.5023911846626
 30
0.0
 10
126.9834635099208
 20
-148.5108316686014
 30
0.0
 10
126.939021778161
 20
-148.5363253751923
 30
0.0
 10
126.9369547208699
 20
-148.5616468270089
 30
0.0
 10
126.9369547208699
 20
-148.5680202536566
 30
0.0
 10
126.9352321731273
 20
-148.618835412064
 30
0.0
 10
126.9352321731273
 20
-148.618835412064
 30
0.0
 10
127.1371147685629
 20
-148.618835412064
 30
0.0
 10
127.1371147685629
 20
-148.618835412064
 30
0.0
 10
127.2814642693949
 20
-148.618835412064
 30
0.0
 10
127.5370903544004
 20
-148.6124619854163
 30
0.0
 10
127.6945312180764
 20
-148.6060885587686
 30
0.0
 10
127.6945312180764
 20
-148.6060885587686
 30
0.0
 10
127.6945312180764
 20
-148.7838554858075
 30
0.0
 10
127.6945312180764
 20
-148.7838554858075
 30
0.0
 10
127.5815320861602
 20
-148.7795491164509
 30
0.0
 10
127.5612060227972
 20
-148.7795491164509
 30
0.0
 10
127.3183267910871
 20
-148.7752427470944
 30
0.0
  0
HATCH
  5
93
330
81
100
AcDbEntity
  8
レイヤー 1
 62
   250
420
  2299925
440
 33554687
100
AcDbHatch
 10
0.0
 20
0.0
 30
0.0
210
0.0
220
0.0
230
1.0
  2
SOLID
 70
     1
 71
     1
 91
        6
 92
        1
 93
        1
 72
     4
 94
        3
 73
     0
 74
     0
 95
       17
 96
       13
 40
0.0
 40
0.0
 40
0.0
 40
0.0
 40
1.0
 40
1.0
 40
1.0
 40
2.0
 40
2.0
 40
2.0
 40
3.0
 40
3.0
 40
3.0
 40
4.0
 40
4.0
 40
4.0
 40
4.0
 10
127.1371147685629
 20
-148.7731756898032
 10
127.1371147685629
 20
-148.7731756898032
 10
126.959347841524
 20
-148.7731756898032
 10
126.959347841524
 20
-148.7731756898032
 10
126.9834635099208
 20
-148.8324313321495
 10
127.0313503371657
 20
-148.9046060825655
 10
127.0554660055625
 20
-148.9338893941901
 10
127.0795816739592
 20
-148.9194199931521
 10
127.1794894430315
 20
-148.855685726675
 10
127.2590711487408
 20
-148.7731756898032
 10
127.2590711487408
 20
-148.7731756898032
 10
127.1371147685629
 20
-148.7731756898032
 10
127.1371147685629
 20
-148.7731756898032
 97
        0
 97
        1
330
8D
 92
        1
 93
        1
 72
     4
 94
        3
 73
     0
 74
     0
 95
       83
 96
       79
 40
0.0
 40
0.0
 40
0.0
 40
0.0
 40
1.0
 40
1.0
 40
1.0
 40
2.0
 40
2.0
 40
2.0
 40
3.0
 40
3.0
 40
3.0
 40
4.0
 40
4.0
 40
4.0
 40
5.0
 40
5.0
 40
5.0
 40
6.0
 40
6.0
 40
6.0
 40
7.0
 40
7.0
 40
7.0
 40
8.0
 40
8.0
 40
8.0
 40
9.0
 40
9.0
 40
9.0
 40
10.0
 40
10.0
 40
10.0
 40
11.0
 40
11.0
 40
11.0
 40
12.0
 40
12.0
 40
12.0
 40
13.0
 40
13.0
 40
13.0
 40
14.0
 40
14.0
 40
14.0
 40
15.0
 40
15.0
 40
15.0
 40
16.0
 40
16.0
 40
16.0
 40
17.0
 40
17.0
 40
17.0
 40
18.0
 40
18.0
 40
18.0
 40
19.0
 40
19.0
 40
19.0
 40
20.0
 40
20.0
 40
20.0
 40
21.0
 40
21.0
 40
21.0
 40
22.0
 40
22.0
 40
22.0
 40
23.0
 40
23.0
 40
23.0
 40
24.0
 40
24.0
 40
24.0
 40
25.0
 40
25.0
 40
25.0
 40
26.0
 40
26.0
 40
26.0
 40
26.0
 10
127.351744217294
 20
-147.9756360849679
 10
127.351744217294
 20
-147.9756360849679
 10
127.2666503588083
 20
-147.9756360849679
 10
127.2666503588083
 20
-147.9756360849679
 10
127.2666503588083
 20
-147.9756360849679
 10
127.2666503588083
 20
-148.2231661955831
 10
127.2666503588083
 20
-148.2231661955831
 10
127.2666503588083
 20
-148.2231661955831
 10
127.3389973639986
 20
-148.2231661955831
 10
127.3389973639986
 20
-148.2231661955831
 10
127.3961859490537
 20
-148.2231661955831
 10
127.5184868387801
 20
-148.2188598262265
 10
127.6056477545569
 20
-148.2104193422877
 10
127.6056477545569
 20
-148.2104193422877
 10
127.6056477545569
 20
-148.3902533266177
 10
127.6056477545569
 20
-148.3902533266177
 10
127.5239989915565
 20
-148.3818128426788
 10
127.3927408535685
 20
-148.3776787280965
 10
127.3389973639986
 20
-148.3776787280965
 10
127.3389973639986
 20
-148.3776787280965
 10
127.0723469734402
 20
-148.3776787280965
 10
127.0723469734402
 20
-148.3776787280965
 10
127.0258381843894
 20
-148.3776787280965
 10
126.8980251418866
 20
-148.3818128426788
 10
126.8056965828819
 20
-148.3902533266177
 10
126.8056965828819
 20
-148.3902533266177
 10
126.8056965828819
 20
-148.2104193422877
 10
126.8056965828819
 20
-148.2104193422877
 10
126.8925129891102
 20
-148.2188598262265
 10
127.0148138788365
 20
-148.2231661955831
 10
127.0723469734402
 20
-148.2231661955831
 10
127.0723469734402
 20
-148.2231661955831
 10
127.110932042875
 20
-148.2231661955831
 10
127.110932042875
 20
-148.2231661955831
 10
127.110932042875
 20
-148.2231661955831
 10
127.110932042875
 20
-147.9756360849679
 10
127.110932042875
 20
-147.9756360849679
 10
127.110932042875
 20
-147.9756360849679
 10
127.0461642477523
 20
-147.9756360849679
 10
127.0461642477523
 20
-147.9756360849679
 10
126.9924207581824
 20
-147.9756360849679
 10
126.8463487096078
 20
-147.9799424543244
 10
126.7409287877592
 20
-147.9883829382633
 10
126.7409287877592
 20
-147.9883829382633
 10
126.7409287877592
 20
-147.8106160112244
 10
126.7409287877592
 20
-147.8106160112244
 10
126.8408365568314
 20
-147.8169894378721
 10
126.979673904887
 20
-147.8212958072287
 10
127.0461642477523
 20
-147.8212958072287
 10
127.0461642477523
 20
-147.8212958072287
 10
127.1092094951324
 20
-147.8212958072287
 10
127.1092094951324
 20
-147.8212958072287
 10
127.1054198900986
 20
-147.6688503320064
 10
127.103697342356
 20
-147.6350883962509
 10
127.0981851895796
 20
-147.5418985633749
 10
127.0981851895796
 20
-147.5418985633749
 10
127.2831868171375
 20
-147.5653252126746
 10
127.2831868171375
 20
-147.5653252126746
 10
127.3055799377916
 20
-147.5673922699658
 10
127.3259060011546
 20
-147.5715263845481
 10
127.3259060011546
 20
-147.5947807790735
 10
127.3259060011546
 20
-147.6266479123121
 10
127.2869764221713
 20
-147.6435288801898
 10
127.2666503588083
 20
-147.6519693641287
 10
127.2666503588083
 20
-147.6519693641287
 10
127.2666503588083
 20
-147.8212958072287
 10
127.2666503588083
 20
-147.8212958072287
 10
127.2666503588083
 20
-147.8212958072287
 10
127.351744217294
 20
-147.8212958072287
 10
127.351744217294
 20
-147.8212958072287
 10
127.4185790697078
 20
-147.8212958072287
 10
127.5574164177634
 20
-147.8169894378721
 10
127.6593912441268
 20
-147.8106160112244
 10
127.6593912441268
 20
-147.8106160112244
 10
127.6593912441268
 20
-147.9883829382633
 10
127.6593912441268
 20
-147.9883829382633
 10
127.5646511182824
 20
-147.9820095116156
 10
127.4130669169314
 20
-147.9756360849679
 10
127.351744217294
 20
-147.9756360849679
 97
        0
 97
        1
330
8E
 92
        1
 93
        1
 72
     4
 94
        3
 73
     0
 74
     0
 95
       38
 96
       34
 40
0.0
 40
0.0
 40
0.0
 40
0.0
 40
1.0
 40
1.0
 40
1.0
 40
2.0
 40
2.0
 40
2.0
 40
3.0
 40
3.0
 40
3.0
 40
4.0
 40
4.0
 40
4.0
 40
5.0
 40
5.0
 40
5.0
 40
6.0
 40
6.0
 40
6.0
 40
7.0
 40
7.0
 40
7.0
 40
8.0
 40
8.0
 40
8.0
 40
9.0
 40
9.0
 40
9.0
 40
10.0
 40
10.0
 40
10.0
 40
11.0
 40
11.0
 40
11.0
 40
11.0
 10
126.6499782669486
 20
-147.6540364214198
 10
126.648255719206
 20
-147.7007174652449
 10
126.6461886619148
 20
-147.8169894378721
 10
126.6461886619148
 20
-147.8614311696319
 10
126.6461886619148
 20
-147.8614311696319
 10
126.6461886619148
 20
-148.2083522849965
 10
126.6461886619148
 20
-148.2083522849965
 10
126.6461886619148
 20
-148.2951686912248
 10
126.648255719206
 20
-148.4367621156686
 10
126.6575574770161
 20
-148.5573404576523
 10
126.6575574770161
 20
-148.5573404576523
 10
126.4908148555301
 20
-148.5573404576523
 10
126.4908148555301
 20
-148.5573404576523
 10
126.4946044605638
 20
-148.4939507007237
 10
126.4980495560491
 20
-148.4410684850251
 10
126.5001166133402
 20
-148.3861192120354
 10
126.5018391610829
 20
-148.2633015579862
 10
126.503906218374
 20
-148.2484876473997
 10
126.503906218374
 20
-148.2040459156399
 10
126.503906218374
 20
-148.2040459156399
 10
126.503906218374
 20
-147.8826185068661
 10
126.503906218374
 20
-147.8826185068661
 10
126.503906218374
 20
-147.8274969791021
 10
126.4925374032727
 20
-147.5885796072001
 10
126.4908148555301
 20
-147.5377644487926
 10
126.4908148555301
 20
-147.5377644487926
 10
126.6665147252778
 20
-147.5653252126746
 10
126.6665147252778
 20
-147.5653252126746
 10
126.6851182408982
 20
-147.5673922699658
 10
126.7130235143287
 20
-147.5715263845481
 10
126.7130235143287
 20
-147.5970200911389
 10
126.7130235143287
 20
-147.6244086002466
 10
126.668581782569
 20
-147.645595937481
 10
126.6499782669486
 20
-147.6540364214198
 97
        0
 97
        1
330
8F
 92
        1
 93
        1
 72
     4
 94
        3
 73
     0
 74
     0
 95
       17
 96
       13
 40
0.0
 40
0.0
 40
0.0
 40
0.0
 40
1.0
 40
1.0
 40
1.0
 40
2.0
 40
2.0
 40
2.0
 40
3.0
 40
3.0
 40
3.0
 40
4.0
 40
4.0
 40
4.0
 40
4.0
 10
126.3278618390778
 20
-147.9587551170902
 10
126.3020236229384
 20
-147.918619754687
 10
126.2427679805921
 20
-147.8212958072287
 10
126.083260059625
 20
-147.711225006475
 10
126.083260059625
 20
-147.711225006475
 10
126.1945366437986
 20
-147.5778998111958
 10
126.1945366437986
 20
-147.5778998111958
 10
126.3574896602509
 20
-147.6795301280106
 10
126.407443544787
 20
-147.7684135915301
 10
126.4315592131838
 20
-147.8106160112244
 10
126.4315592131838
 20
-147.8106160112244
 10
126.3278618390778
 20
-147.9587551170902
 10
126.3278618390778
 20
-147.9587551170902
 97
        0
 97
        1
330
90
 92
        1
 93
        1
 72
     4
 94
        3
 73
     0
 74
     0
 95
       23
 96
       19
 40
0.0
 40
0.0
 40
0.0
 40
0.0
 40
1.0
 40
1.0
 40
1.0
 40
2.0
 40
2.0
 40
2.0
 40
3.0
 40
3.0
 40
3.0
 40
4.0
 40
4.0
 40
4.0
 40
5.0
 40
5.0
 40
5.0
 40
6.0
 40
6.0
 40
6.0
 40
6.0
 10
126.1945366437986
 20
-148.4241875171474
 10
126.179722733212
 20
-148.4643228795506
 10
126.1742105804356
 20
-148.4812038474283
 10
126.1556070648153
 20
-148.4812038474283
 10
126.1425157019713
 20
-148.4812038474283
 10
126.1332139441611
 20
-148.4643228795506
 10
126.1277017913847
 20
-148.4515760262551
 10
126.1277017913847
 20
-148.4515760262551
 10
126.0408853851564
 20
-148.2865559525117
 10
126.0408853851564
 20
-148.2865559525117
 10
126.1297688486759
 20
-148.2548610740474
 10
126.2610269866639
 20
-148.1999118010577
 10
126.4353488182175
 20
-148.0369587846053
 10
126.4353488182175
 20
-148.0369587846053
 10
126.4853027027537
 20
-148.2104193422877
 10
126.4853027027537
 20
-148.2104193422877
 10
126.4036539397532
 20
-148.2929293791594
 10
126.3261392913351
 20
-148.3501179642145
 10
126.1945366437986
 20
-148.4241875171474
 97
        0
 97
        1
330
91
 92
        1
 93
        1
 72
     4
 94
        3
 73
     0
 74
     0
 95
      113
 96
      109
 40
0.0
 40
0.0
 40
0.0
 40
0.0
 40
1.0
 40
1.0
 40
1.0
 40
2.0
 40
2.0
 40
2.0
 40
3.0
 40
3.0
 40
3.0
 40
4.0
 40
4.0
 40
4.0
 40
5.0
 40
5.0
 40
5.0
 40
6.0
 40
6.0
 40
6.0
 40
7.0
 40
7.0
 40
7.0
 40
8.0
 40
8.0
 40
8.0
 40
9.0
 40
9.0
 40
9.0
 40
10.0
 40
10.0
 40
10.0
 40
11.0
 40
11.0
 40
11.0
 40
12.0
 40
12.0
 40
12.0
 40
13.0
 40
13.0
 40
13.0
 40
14.0
 40
14.0
 40
14.0
 40
15.0
 40
15.0
 40
15.0
 40
16.0
 40
16.0
 40
16.0
 40
17.0
 40
17.0
 40
17.0
 40
18.0
 40
18.0
 40
18.0
 40
19.0
 40
19.0
 40
19.0
 40
20.0
 40
20.0
 40
20.0
 40
21.0
 40
21.0
 40
21.0
 40
22.0
 40
22.0
 40
22.0
 40
23.0
 40
23.0
 40
23.0
 40
24.0
 40
24.0
 40
24.0
 40
25.0
 40
25.0
 40
25.0
 40
26.0
 40
26.0
 40
26.0
 40
27.0
 40
27.0
 40
27.0
 40
28.0
 40
28.0
 40
28.0
 40
29.0
 40
29.0
 40
29.0
 40
30.0
 40
30.0
 40
30.0
 40
31.0
 40
31.0
 40
31.0
 40
32.0
 40
32.0
 40
32.0
 40
33.0
 40
33.0
 40
33.0
 40
34.0
 40
34.0
 40
34.0
 40
35.0
 40
35.0
 40
35.0
 40
36.0
 40
36.0
 40
36.0
 40
36.0
 10
127.3183267910871
 20
-148.7752427470944
 10
127.3183267910871
 20
-148.7752427470944
 10
127.4054877068639
 20
-148.8749782613924
 10
127.4054877068639
 20
-148.8749782613924
 10
127.4147894646741
 20
-148.8853135478481
 10
127.4240912224842
 20
-148.8980604011435
 10
127.4240912224842
 20
-148.9128743117301
 10
127.4240912224842
 20
-148.9149413690213
 10
127.4240912224842
 20
-148.9445691901944
 10
127.3906737962773
 20
-148.9445691901944
 10
127.3834390957583
 20
-148.9445691901944
 10
127.3479546122602
 20
-148.9404350756121
 10
127.3424424594838
 20
-148.9404350756121
 10
127.3073024855343
 20
-148.9721299540764
 10
127.2666503588083
 20
-149.0058918898318
 10
127.1794894430315
 20
-149.063080474887
 10
127.3073024855343
 20
-149.1709119635753
 10
127.4461398335898
 20
-149.2281005486305
 10
127.6852294602662
 20
-149.2663411085167
 10
127.6852294602662
 20
-149.2663411085167
 10
127.5536268127296
 20
-149.4416964687159
 10
127.5536268127296
 20
-149.4416964687159
 10
127.324183453412
 20
-149.3696939730742
 10
127.1870686530991
 20
-149.2811550191033
 10
127.1202338006852
 20
-149.2281005486305
 10
126.9889756626972
 20
-149.1264702318156
 10
126.862885167937
 20
-148.9635172153633
 10
126.7963948250717
 20
-148.7984971416198
 10
126.7371391827254
 20
-148.8641262106138
 10
126.6723713876027
 20
-148.9170084263124
 10
126.6038139874462
 20
-148.965928782203
 10
126.6038139874462
 20
-148.965928782203
 10
126.6038139874462
 20
-149.2174207526262
 10
126.6038139874462
 20
-149.2174207526262
 10
126.7464409405356
 20
-149.1922715555839
 10
126.9093939569879
 20
-149.1478298238241
 10
126.9648599943004
 20
-149.1330159132376
 10
126.9648599943004
 20
-149.1330159132376
 10
126.939021778161
 20
-149.3021701015633
 10
126.939021778161
 20
-149.3021701015633
 10
126.9369547208699
 20
-149.3021701015633
 10
126.9204182625407
 20
-149.3083712734368
 10
126.9186957147981
 20
-149.3083712734368
 10
126.7443738832444
 20
-149.346611833323
 10
126.4666991871333
 20
-149.4120686475428
 10
126.2944444128708
 20
-149.4482421501379
 10
126.2851426550607
 20
-149.4651231180156
 10
126.2648165916977
 20
-149.4968179964799
 10
126.2444905283347
 20
-149.4968179964799
 10
126.2203748599379
 20
-149.4968179964799
 10
126.2165852549042
 20
-149.4778699713111
 10
126.2148627071616
 20
-149.4585774365937
 10
126.2148627071616
 20
-149.4585774365937
 10
126.1924695865074
 20
-149.2852891336856
 10
126.1924695865074
 20
-149.2852891336856
 10
126.2575818911786
 20
-149.2766763949725
 10
126.3519775074745
 20
-149.263929541677
 10
126.4463731237703
 20
-149.242914459217
 10
126.4463731237703
 20
-149.242914459217
 10
126.4463731237703
 20
-149.0651475321781
 10
126.4463731237703
 20
-149.0651475321781
 10
126.3202826290102
 20
-149.1371500278199
 10
126.2372558278157
 20
-149.166777848993
 10
126.0925618174352
 20
-149.1964056701661
 10
126.0925618174352
 20
-149.1964056701661
 10
125.9871418955865
 20
-149.0272514818404
 10
125.9871418955865
 20
-149.0272514818404
 10
126.2648165916977
 20
-148.9996907179584
 10
126.4332817609264
 20
-148.9066731398567
 10
126.5890000768597
 20
-148.7731756898032
 10
126.4611870343569
 20
-148.7731756898032
 10
126.1983262488324
 20
-148.7774820591598
 10
126.0260714745699
 20
-148.7838554858075
 10
126.0260714745699
 20
-148.7838554858075
 10
126.0260714745699
 20
-148.6060885587686
 10
126.0260714745699
 20
-148.6060885587686
 10
126.1611192175916
 20
-148.6124619854163
 10
126.420534907631
 20
-148.618835412064
 10
126.5814208667921
 20
-148.618835412064
 10
126.5814208667921
 20
-148.618835412064
 10
126.7667670038986
 20
-148.618835412064
 10
126.7667670038986
 20
-148.618835412064
 10
126.7667670038986
 20
-148.5235785218969
 10
126.7646999466074
 20
-148.4727633634894
 10
126.759187793831
 20
-148.4262545744386
 10
126.759187793831
 20
-148.4262545744386
 10
126.9483235359712
 20
-148.4431355423163
 10
126.9483235359712
 20
-148.4431355423163
 10
126.9906982104398
 20
-148.4474419116729
 10
126.9982774205073
 20
-148.4622558222594
 10
126.9982774205073
 20
-148.477069732846
 10
126.9982774205073
 20
-148.5023911846626
 10
126.9834635099208
 20
-148.5108316686014
 10
126.939021778161
 20
-148.5363253751923
 10
126.9369547208699
 20
-148.5616468270089
 10
126.9369547208699
 20
-148.5680202536566
 10
126.9352321731273
 20
-148.618835412064
 10
126.9352321731273
 20
-148.618835412064
 10
127.1371147685629
 20
-148.618835412064
 10
127.1371147685629
 20
-148.618835412064
 10
127.2814642693949
 20
-148.618835412064
 10
127.5370903544004
 20
-148.6124619854163
 10
127.6945312180764
 20
-148.6060885587686
 10
127.6945312180764
 20
-148.6060885587686
 10
127.6945312180764
 20
-148.7838554858075
 10
127.6945312180764
 20
-148.7838554858075
 10
127.5815320861602
 20
-148.7795491164509
 10
127.5612060227972
 20
-148.7795491164509
 10
127.3183267910871
 20
-148.7752427470944
 97
        0
 97
        1
330
92
 75
     2
 76
     1
 98
        1
 10
0.0
 20
0.0
450
        0
451
        0
460
0.0
461
0.0
452
        0
462
0.0
453
        0
470

  0
SPLINE
  5
94
330
81
100
AcDbEntity
  8
レイヤー 1
100
AcDbSpline
210
0.0
220
0.0
230
1.0
 70
    11
 71
     3
 72
    17
 73
    13
 74
     0
 42
0.0000000001
 43
0.0000000001
 40
0.0
 40
0.0
 40
0.0
 40
0.0
 40
1.0
 40
1.0
 40
1.0
 40
2.0
 40
2.0
 40
2.0
 40
3.0
 40
3.0
 40
3.0
 40
4.0
 40
4.0
 40
4.0
 40
4.0
 10
129.2000379451305
 20
-148.2887952645771
 30
0.0
 10
129.2000379451305
 20
-148.2887952645771
 30
0.0
 10
128.7983398115504
 20
-148.2887952645771
 30
0.0
 10
128.7983398115504
 20
-148.2887952645771
 30
0.0
 10
128.7983398115504
 20
-148.2887952645771
 30
0.0
 10
128.7983398115504
 20
-148.5976480748297
 30
0.0
 10
128.7983398115504
 20
-148.5976480748297
 30
0.0
 10
128.7983398115504
 20
-148.5976480748297
 30
0.0
 10
129.2000379451305
 20
-148.5976480748297
 30
0.0
 10
129.2000379451305
 20
-148.5976480748297
 30
0.0
 10
129.2000379451305
 20
-148.5976480748297
 30
0.0
 10
129.2000379451305
 20
-148.2887952645771
 30
0.0
 10
129.2000379451305
 20
-148.2887952645771
 30
0.0
  0
SPLINE
  5
95
330
81
100
AcDbEntity
  8
レイヤー 1
100
AcDbSpline
210
0.0
220
0.0
230
1.0
 70
    11
 71
     3
 72
    17
 73
    13
 74
     0
 42
0.0000000001
 43
0.0000000001
 40
0.0
 40
0.0
 40
0.0
 40
0.0
 40
1.0
 40
1.0
 40
1.0
 40
2.0
 40
2.0
 40
2.0
 40
3.0
 40
3.0
 40
3.0
 40
4.0
 40
4.0
 40
4.0
 40
4.0
 10
129.2000379451305
 20
-147.8169894378721
 30
0.0
 10
129.2000379451305
 20
-147.8169894378721
 30
0.0
 10
128.7983398115504
 20
-147.8169894378721
 30
0.0
 10
128.7983398115504
 20
-147.8169894378721
 30
0.0
 10
128.7983398115504
 20
-147.8169894378721
 30
0.0
 10
128.7983398115504
 20
-148.1215358787682
 30
0.0
 10
128.7983398115504
 20
-148.1215358787682
 30
0.0
 10
128.7983398115504
 20
-148.1215358787682
 30
0.0
 10
129.2000379451305
 20
-148.1215358787682
 30
0.0
 10
129.2000379451305
 20
-148.1215358787682
 30
0.0
 10
129.2000379451305
 20
-148.1215358787682
 30
0.0
 10
129.2000379451305
 20
-147.8169894378721
 30
0.0
 10
129.2000379451305
 20
-147.8169894378721
 30
0.0
  0
SPLINE
  5
96
330
81
100
AcDbEntity
  8
レイヤー 1
100
AcDbSpline
210
0.0
220
0.0
230
1.0
 70
    11
 71
     3
 72
    17
 73
    13
 74
     0
 42
0.0000000001
 43
0.0000000001
 40
0.0
 40
0.0
 40
0.0
 40
0.0
 40
1.0
 40
1.0
 40
1.0
 40
2.0
 40
2.0
 40
2.0
 40
3.0
 40
3.0
 40
3.0
 40
4.0
 40
4.0
 40
4.0
 40
4.0
 10
128.6315971900643
 20
-148.2887952645771
 30
0.0
 10
128.6315971900643
 20
-148.2887952645771
 30
0.0
 10
128.248158062556
 20
-148.2887952645771
 30
0.0
 10
128.248158062556
 20
-148.2887952645771
 30
0.0
 10
128.248158062556
 20
-148.2887952645771
 30
0.0
 10
128.248158062556
 20
-148.5976480748297
 30
0.0
 10
128.248158062556
 20
-148.5976480748297
 30
0.0
 10
128.248158062556
 20
-148.5976480748297
 30
0.0
 10
128.6315971900643
 20
-148.5976480748297
 30
0.0
 10
128.6315971900643
 20
-148.5976480748297
 30
0.0
 10
128.6315971900643
 20
-148.5976480748297
 30
0.0
 10
128.6315971900643
 20
-148.2887952645771
 30
0.0
 10
128.6315971900643
 20
-148.2887952645771
 30
0.0
  0
SPLINE
  5
97
330
81
100
AcDbEntity
  8
レイヤー 1
100
AcDbSpline
210
0.0
220
0.0
230
1.0
 70
    11
 71
     3
 72
    17
 73
    13
 74
     0
 42
0.0000000001
 43
0.0000000001
 40
0.0
 40
0.0
 40
0.0
 40
0.0
 40
1.0
 40
1.0
 40
1.0
 40
2.0
 40
2.0
 40
2.0
 40
3.0
 40
3.0
 40
3.0
 40
4.0
 40
4.0
 40
4.0
 40
4.0
 10
128.6315971900643
 20
-147.8169894378721
 30
0.0
 10
128.6315971900643
 20
-147.8169894378721
 30
0.0
 10
128.248158062556
 20
-147.8169894378721
 30
0.0
 10
128.248158062556
 20
-147.8169894378721
 30
0.0
 10
128.248158062556
 20
-147.8169894378721
 30
0.0
 10
128.248158062556
 20
-148.1215358787682
 30
0.0
 10
128.248158062556
 20
-148.1215358787682
 30
0.0
 10
128.248158062556
 20
-148.1215358787682
 30
0.0
 10
128.6315971900643
 20
-148.1215358787682
 30
0.0
 10
128.6315971900643
 20
-148.1215358787682
 30
0.0
 10
128.6315971900643
 20
-148.1215358787682
 30
0.0
 10
128.6315971900643
 20
-147.8169894378721
 30
0.0
 10
128.6315971900643
 20
-147.8169894378721
 30
0.0
  0
SPLINE
  5
98
330
81
100
AcDbEntity
  8
レイヤー 1
100
AcDbSpline
210
0.0
220
0.0
230
1.0
 70
     9
 71
     3
 72
    77
 73
    73
 74
     0
 42
0.0000000001
 43
0.0000000001
 40
0.0
 40
0.0
 40
0.0
 40
0.0
 40
1.0
 40
1.0
 40
1.0
 40
2.0
 40
2.0
 40
2.0
 40
3.0
 40
3.0
 40
3.0
 40
4.0
 40
4.0
 40
4.0
 40
5.0
 40
5.0
 40
5.0
 40
6.0
 40
6.0
 40
6.0
 40
7.0
 40
7.0
 40
7.0
 40
8.0
 40
8.0
 40
8.0
 40
9.0
 40
9.0
 40
9.0
 40
10.0
 40
10.0
 40
10.0
 40
11.0
 40
11.0
 40
11.0
 40
12.0
 40
12.0
 40
12.0
 40
13.0
 40
13.0
 40
13.0
 40
14.0
 40
14.0
 40
14.0
 40
15.0
 40
15.0
 40
15.0
 40
16.0
 40
16.0
 40
16.0
 40
17.0
 40
17.0
 40
17.0
 40
18.0
 40
18.0
 40
18.0
 40
19.0
 40
19.0
 40
19.0
 40
20.0
 40
20.0
 40
20.0
 40
21.0
 40
21.0
 40
21.0
 40
22.0
 40
22.0
 40
22.0
 40
23.0
 40
23.0
 40
23.0
 40
24.0
 40
24.0
 40
24.0
 40
24.0
 10
129.3185492298231
 20
-149.4038004183782
 30
0.0
 10
129.2778971030972
 20
-149.4289496154205
 30
0.0
 10
129.1686875762148
 20
-149.4416964687159
 30
0.0
 10
129.1001301760583
 20
-149.4416964687159
 30
0.0
 10
129.0891058705055
 20
-149.4416964687159
 30
0.0
 10
129.0667127498513
 20
-149.4416964687159
 30
0.0
 10
129.0370849286782
 20
-149.4375623541336
 30
0.0
 10
129.0370849286782
 20
-149.4375623541336
 30
0.0
 10
128.9519910701925
 20
-149.2112195807527
 30
0.0
 10
128.9519910701925
 20
-149.2112195807527
 30
0.0
 10
128.9778292863319
 20
-149.2174207526262
 30
0.0
 10
129.027783170868
 20
-149.2260334913393
 30
0.0
 10
129.1297579972314
 20
-149.2260334913393
 30
0.0
 10
129.1983153973879
 20
-149.2260334913393
 30
0.0
 10
129.2000379451305
 20
-149.1836588168707
 30
0.0
 10
129.2000379451305
 20
-149.1264702318156
 30
0.0
 10
129.2000379451305
 20
-149.1264702318156
 30
0.0
 10
129.2000379451305
 20
-148.7774820591598
 30
0.0
 10
129.2000379451305
 20
-148.7774820591598
 30
0.0
 10
129.2000379451305
 20
-148.7774820591598
 30
0.0
 10
128.7983398115504
 20
-148.7774820591598
 30
0.0
 10
128.7983398115504
 20
-148.7774820591598
 30
0.0
 10
128.800062359293
 20
-148.9149413690213
 30
0.0
 10
128.8017849070357
 20
-149.1137233785202
 30
0.0
 10
128.807297059812
 20
-149.2470485737993
 30
0.0
 10
128.8093641171032
 20
-149.2746093376813
 30
0.0
 10
128.8093641171032
 20
-149.3190510694411
 30
0.0
 10
128.820388422656
 20
-149.3803737690785
 30
0.0
 10
128.820388422656
 20
-149.3803737690785
 30
0.0
 10
128.6092040694102
 20
-149.3803737690785
 30
0.0
 10
128.6092040694102
 20
-149.3803737690785
 30
0.0
 10
128.6315971900643
 20
-149.2556613125124
 30
0.0
 10
128.6315971900643
 20
-148.9149413690213
 30
0.0
 10
128.6315971900643
 20
-148.7774820591598
 30
0.0
 10
128.6315971900643
 20
-148.7774820591598
 30
0.0
 10
128.2443684575222
 20
-148.7774820591598
 30
0.0
 10
128.2443684575222
 20
-148.7774820591598
 30
0.0
 10
128.2240423941592
 20
-148.9848768073718
 30
0.0
 10
128.1668538091041
 20
-149.2535942552213
 30
0.0
 10
127.9945990348416
 20
-149.4375623541336
 30
0.0
 10
127.9945990348416
 20
-149.4375623541336
 30
0.0
 10
127.8295789610981
 20
-149.3149169548587
 30
0.0
 10
127.8295789610981
 20
-149.3149169548587
 30
0.0
 10
128.0521321294453
 20
-149.0947753533513
 30
0.0
 10
128.0796928933273
 20
-148.7626681485732
 30
0.0
 10
128.0796928933273
 20
-148.4305609437951
 30
0.0
 10
128.0796928933273
 20
-148.4305609437951
 30
0.0
 10
128.0796928933273
 20
-147.994756364911
 30
0.0
 10
128.0796928933273
 20
-147.994756364911
 30
0.0
 10
128.0796928933273
 20
-147.9587551170902
 30
0.0
 10
128.0779703455847
 20
-147.7260389170615
 30
0.0
 10
128.0703911355171
 20
-147.6244086002466
 30
0.0
 10
128.1926920252435
 20
-147.6350883962509
 30
0.0
 10
128.4038763784893
 20
-147.6350883962509
 30
0.0
 10
128.5296223637009
 20
-147.6350883962509
 30
0.0
 10
128.5296223637009
 20
-147.6350883962509
 30
0.0
 10
128.9316650068295
 20
-147.6350883962509
 30
0.0
 10
128.9316650068295
 20
-147.6350883962509
 30
0.0
 10
128.944411860125
 20
-147.6350883962509
 30
0.0
 10
129.2499918296666
 20
-147.6350883962509
 30
0.0
 10
129.3888291777222
 20
-147.6244086002466
 30
0.0
 10
129.3871066299796
 20
-147.6772908159452
 30
0.0
 10
129.3815944772032
 20
-147.8381767751064
 30
0.0
 10
129.3815944772032
 20
-147.8889919335138
 30
0.0
 10
129.3815944772032
 20
-147.8889919335138
 30
0.0
 10
129.3815944772032
 20
-148.4960177580149
 30
0.0
 10
129.3815944772032
 20
-148.4960177580149
 30
0.0
 10
129.3815944772032
 20
-148.515138037958
 30
0.0
 10
129.3908962350134
 20
-149.0865071241867
 30
0.0
 10
129.3908962350134
 20
-149.1984727274573
 30
0.0
 10
129.3908962350134
 20
-149.2556613125124
 30
0.0
 10
129.3908962350134
 20
-149.3572916293273
 30
0.0
 10
129.3185492298231
 20
-149.4038004183782
 30
0.0
  0
HATCH
  5
99
330
81
100
AcDbEntity
  8
レイヤー 1
 62
   250
420
  2299925
440
 33554687
100
AcDbHatch
 10
0.0
 20
0.0
 30
0.0
210
0.0
220
0.0
230
1.0
  2
SOLID
 70
     1
 71
     1
 91
        5
 92
        1
 93
        1
 72
     4
 94
        3
 73
     0
 74
     0
 95
       17
 96
       13
 40
0.0
 40
0.0
 40
0.0
 40
0.0
 40
1.0
 40
1.0
 40
1.0
 40
2.0
 40
2.0
 40
2.0
 40
3.0
 40
3.0
 40
3.0
 40
4.0
 40
4.0
 40
4.0
 40
4.0
 10
129.2000379451305
 20
-148.2887952645771
 10
129.2000379451305
 20
-148.2887952645771
 10
128.7983398115504
 20
-148.2887952645771
 10
128.7983398115504
 20
-148.2887952645771
 10
128.7983398115504
 20
-148.2887952645771
 10
128.7983398115504
 20
-148.5976480748297
 10
128.7983398115504
 20
-148.5976480748297
 10
128.7983398115504
 20
-148.5976480748297
 10
129.2000379451305
 20
-148.5976480748297
 10
129.2000379451305
 20
-148.5976480748297
 10
129.2000379451305
 20
-148.5976480748297
 10
129.2000379451305
 20
-148.2887952645771
 10
129.2000379451305
 20
-148.2887952645771
 97
        0
 97
        1
330
94
 92
        1
 93
        1
 72
     4
 94
        3
 73
     0
 74
     0
 95
       17
 96
       13
 40
0.0
 40
0.0
 40
0.0
 40
0.0
 40
1.0
 40
1.0
 40
1.0
 40
2.0
 40
2.0
 40
2.0
 40
3.0
 40
3.0
 40
3.0
 40
4.0
 40
4.0
 40
4.0
 40
4.0
 10
129.2000379451305
 20
-147.8169894378721
 10
129.2000379451305
 20
-147.8169894378721
 10
128.7983398115504
 20
-147.8169894378721
 10
128.7983398115504
 20
-147.8169894378721
 10
128.7983398115504
 20
-147.8169894378721
 10
128.7983398115504
 20
-148.1215358787682
 10
128.7983398115504
 20
-148.1215358787682
 10
128.7983398115504
 20
-148.1215358787682
 10
129.2000379451305
 20
-148.1215358787682
 10
129.2000379451305
 20
-148.1215358787682
 10
129.2000379451305
 20
-148.1215358787682
 10
129.2000379451305
 20
-147.8169894378721
 10
129.2000379451305
 20
-147.8169894378721
 97
        0
 97
        1
330
95
 92
        1
 93
        1
 72
     4
 94
        3
 73
     0
 74
     0
 95
       17
 96
       13
 40
0.0
 40
0.0
 40
0.0
 40
0.0
 40
1.0
 40
1.0
 40
1.0
 40
2.0
 40
2.0
 40
2.0
 40
3.0
 40
3.0
 40
3.0
 40
4.0
 40
4.0
 40
4.0
 40
4.0
 10
128.6315971900643
 20
-148.2887952645771
 10
128.6315971900643
 20
-148.2887952645771
 10
128.248158062556
 20
-148.2887952645771
 10
128.248158062556
 20
-148.2887952645771
 10
128.248158062556
 20
-148.2887952645771
 10
128.248158062556
 20
-148.5976480748297
 10
128.248158062556
 20
-148.5976480748297
 10
128.248158062556
 20
-148.5976480748297
 10
128.6315971900643
 20
-148.5976480748297
 10
128.6315971900643
 20
-148.5976480748297
 10
128.6315971900643
 20
-148.5976480748297
 10
128.6315971900643
 20
-148.2887952645771
 10
128.6315971900643
 20
-148.2887952645771
 97
        0
 97
        1
330
96
 92
        1
 93
        1
 72
     4
 94
        3
 73
     0
 74
     0
 95
       17
 96
       13
 40
0.0
 40
0.0
 40
0.0
 40
0.0
 40
1.0
 40
1.0
 40
1.0
 40
2.0
 40
2.0
 40
2.0
 40
3.0
 40
3.0
 40
3.0
 40
4.0
 40
4.0
 40
4.0
 40
4.0
 10
128.6315971900643
 20
-147.8169894378721
 10
128.6315971900643
 20
-147.8169894378721
 10
128.248158062556
 20
-147.8169894378721
 10
128.248158062556
 20
-147.8169894378721
 10
128.248158062556
 20
-147.8169894378721
 10
128.248158062556
 20
-148.1215358787682
 10
128.248158062556
 20
-148.1215358787682
 10
128.248158062556
 20
-148.1215358787682
 10
128.6315971900643
 20
-148.1215358787682
 10
128.6315971900643
 20
-148.1215358787682
 10
128.6315971900643
 20
-148.1215358787682
 10
128.6315971900643
 20
-147.8169894378721
 10
128.6315971900643
 20
-147.8169894378721
 97
        0
 97
        1
330
97
 92
        1
 93
        1
 72
     4
 94
        3
 73
     0
 74
     0
 95
       77
 96
       73
 40
0.0
 40
0.0
 40
0.0
 40
0.0
 40
1.0
 40
1.0
 40
1.0
 40
2.0
 40
2.0
 40
2.0
 40
3.0
 40
3.0
 40
3.0
 40
4.0
 40
4.0
 40
4.0
 40
5.0
 40
5.0
 40
5.0
 40
6.0
 40
6.0
 40
6.0
 40
7.0
 40
7.0
 40
7.0
 40
8.0
 40
8.0
 40
8.0
 40
9.0
 40
9.0
 40
9.0
 40
10.0
 40
10.0
 40
10.0
 40
11.0
 40
11.0
 40
11.0
 40
12.0
 40
12.0
 40
12.0
 40
13.0
 40
13.0
 40
13.0
 40
14.0
 40
14.0
 40
14.0
 40
15.0
 40
15.0
 40
15.0
 40
16.0
 40
16.0
 40
16.0
 40
17.0
 40
17.0
 40
17.0
 40
18.0
 40
18.0
 40
18.0
 40
19.0
 40
19.0
 40
19.0
 40
20.0
 40
20.0
 40
20.0
 40
21.0
 40
21.0
 40
21.0
 40
22.0
 40
22.0
 40
22.0
 40
23.0
 40
23.0
 40
23.0
 40
24.0
 40
24.0
 40
24.0
 40
24.0
 10
129.3185492298231
 20
-149.4038004183782
 10
129.2778971030972
 20
-149.4289496154205
 10
129.1686875762148
 20
-149.4416964687159
 10
129.1001301760583
 20
-149.4416964687159
 10
129.0891058705055
 20
-149.4416964687159
 10
129.0667127498513
 20
-149.4416964687159
 10
129.0370849286782
 20
-149.4375623541336
 10
129.0370849286782
 20
-149.4375623541336
 10
128.9519910701925
 20
-149.2112195807527
 10
128.9519910701925
 20
-149.2112195807527
 10
128.9778292863319
 20
-149.2174207526262
 10
129.027783170868
 20
-149.2260334913393
 10
129.1297579972314
 20
-149.2260334913393
 10
129.1983153973879
 20
-149.2260334913393
 10
129.2000379451305
 20
-149.1836588168707
 10
129.2000379451305
 20
-149.1264702318156
 10
129.2000379451305
 20
-149.1264702318156
 10
129.2000379451305
 20
-148.7774820591598
 10
129.2000379451305
 20
-148.7774820591598
 10
129.2000379451305
 20
-148.7774820591598
 10
128.7983398115504
 20
-148.7774820591598
 10
128.7983398115504
 20
-148.7774820591598
 10
128.800062359293
 20
-148.9149413690213
 10
128.8017849070357
 20
-149.1137233785202
 10
128.807297059812
 20
-149.2470485737993
 10
128.8093641171032
 20
-149.2746093376813
 10
128.8093641171032
 20
-149.3190510694411
 10
128.820388422656
 20
-149.3803737690785
 10
128.820388422656
 20
-149.3803737690785
 10
128.6092040694102
 20
-149.3803737690785
 10
128.6092040694102
 20
-149.3803737690785
 10
128.6315971900643
 20
-149.2556613125124
 10
128.6315971900643
 20
-148.9149413690213
 10
128.6315971900643
 20
-148.7774820591598
 10
128.6315971900643
 20
-148.7774820591598
 10
128.2443684575222
 20
-148.7774820591598
 10
128.2443684575222
 20
-148.7774820591598
 10
128.2240423941592
 20
-148.9848768073718
 10
128.1668538091041
 20
-149.2535942552213
 10
127.9945990348416
 20
-149.4375623541336
 10
127.9945990348416
 20
-149.4375623541336
 10
127.8295789610981
 20
-149.3149169548587
 10
127.8295789610981
 20
-149.3149169548587
 10
128.0521321294453
 20
-149.0947753533513
 10
128.0796928933273
 20
-148.7626681485732
 10
128.0796928933273
 20
-148.4305609437951
 10
128.0796928933273
 20
-148.4305609437951
 10
128.0796928933273
 20
-147.994756364911
 10
128.0796928933273
 20
-147.994756364911
 10
128.0796928933273
 20
-147.9587551170902
 10
128.0779703455847
 20
-147.7260389170615
 10
128.0703911355171
 20
-147.6244086002466
 10
128.1926920252435
 20
-147.6350883962509
 10
128.4038763784893
 20
-147.6350883962509
 10
128.5296223637009
 20
-147.6350883962509
 10
128.5296223637009
 20
-147.6350883962509
 10
128.9316650068295
 20
-147.6350883962509
 10
128.9316650068295
 20
-147.6350883962509
 10
128.944411860125
 20
-147.6350883962509
 10
129.2499918296666
 20
-147.6350883962509
 10
129.3888291777222
 20
-147.6244086002466
 10
129.3871066299796
 20
-147.6772908159452
 10
129.3815944772032
 20
-147.8381767751064
 10
129.3815944772032
 20
-147.8889919335138
 10
129.3815944772032
 20
-147.8889919335138
 10
129.3815944772032
 20
-148.4960177580149
 10
129.3815944772032
 20
-148.4960177580149
 10
129.3815944772032
 20
-148.515138037958
 10
129.3908962350134
 20
-149.0865071241867
 10
129.3908962350134
 20
-149.1984727274573
 10
129.3908962350134
 20
-149.2556613125124
 10
129.3908962350134
 20
-149.3572916293273
 10
129.3185492298231
 20
-149.4038004183782
 97
        0
 97
        1
330
98
 75
     2
 76
     1
 98
        1
 10
0.0
 20
0.0
450
        0
451
        0
460
0.0
461
0.0
452
        0
462
0.0
453
        0
470

  0
SPLINE
  5
9A
330
81
100
AcDbEntity
  8
レイヤー 1
100
AcDbSpline
210
0.0
220
0.0
230
1.0
 70
     9
 71
     3
 72
    17
 73
    13
 74
     0
 42
0.0000000001
 43
0.0000000001
 40
0.0
 40
0.0
 40
0.0
 40
0.0
 40
1.0
 40
1.0
 40
1.0
 40
2.0
 40
2.0
 40
2.0
 40
3.0
 40
3.0
 40
3.0
 40
4.0
 40
4.0
 40
4.0
 40
4.0
 10
125.6012912012385
 20
-150.1644775015214
 30
0.0
 10
125.553059864445
 20
-150.1644775015214
 30
0.0
 10
125.5141302854617
 20
-150.2089192332811
 30
0.0
 10
125.5141302854617
 20
-150.2640407610451
 30
0.0
 10
125.5141302854617
 20
-150.3212293461002
 30
0.0
 10
125.553059864445
 20
-150.3698051924422
 30
0.0
 10
125.6050808062723
 20
-150.3698051924422
 30
0.0
 10
125.6567572385511
 20
-150.3698051924422
 30
0.0
 10
125.6918972125006
 20
-150.3191622888091
 30
0.0
 10
125.6918972125006
 20
-150.2661078183362
 30
0.0
 10
125.6918972125006
 20
-150.2089192332811
 30
0.0
 10
125.6512450857747
 20
-150.1644775015214
 30
0.0
 10
125.6012912012385
 20
-150.1644775015214
 30
0.0
  0
SPLINE
  5
9B
330
81
100
AcDbEntity
  8
レイヤー 1
100
AcDbSpline
210
0.0
220
0.0
230
1.0
 70
     9
 71
     3
 72
    17
 73
    13
 74
     0
 42
0.0000000001
 43
0.0000000001
 40
0.0
 40
0.0
 40
0.0
 40
0.0
 40
1.0
 40
1.0
 40
1.0
 40
2.0
 40
2.0
 40
2.0
 40
3.0
 40
3.0
 40
3.0
 40
4.0
 40
4.0
 40
4.0
 40
4.0
 10
125.6030137489812
 20
-150.4945176490083
 30
0.0
 10
125.4920816743561
 20
-150.4945176490083
 30
0.0
 10
125.4031982108367
 20
-150.3932318417419
 30
0.0
 10
125.4031982108367
 20
-150.2661078183362
 30
0.0
 10
125.4031982108367
 20
-150.139328304479
 30
0.0
 10
125.4920816743561
 20
-150.035630930373
 30
0.0
 10
125.6030137489812
 20
-150.035630930373
 30
0.0
 10
125.7142903331547
 20
-150.035630930373
 30
0.0
 10
125.8048963444168
 20
-150.139328304479
 30
0.0
 10
125.8048963444168
 20
-150.2661078183362
 30
0.0
 10
125.8048963444168
 20
-150.3932318417419
 30
0.0
 10
125.7142903331547
 20
-150.4945176490083
 30
0.0
 10
125.6030137489812
 20
-150.4945176490083
 30
0.0
  0
SPLINE
  5
9C
330
81
100
AcDbEntity
  8
レイヤー 1
100
AcDbSpline
210
0.0
220
0.0
230
1.0
 70
     9
 71
     3
 72
    44
 73
    40
 74
     0
 42
0.0000000001
 43
0.0000000001
 40
0.0
 40
0.0
 40
0.0
 40
0.0
 40
1.0
 40
1.0
 40
1.0
 40
2.0
 40
2.0
 40
2.0
 40
3.0
 40
3.0
 40
3.0
 40
4.0
 40
4.0
 40
4.0
 40
5.0
 40
5.0
 40
5.0
 40
6.0
 40
6.0
 40
6.0
 40
7.0
 40
7.0
 40
7.0
 40
8.0
 40
8.0
 40
8.0
 40
9.0
 40
9.0
 40
9.0
 40
10.0
 40
10.0
 40
10.0
 40
11.0
 40
11.0
 40
11.0
 40
12.0
 40
12.0
 40
12.0
 40
13.0
 40
13.0
 40
13.0
 40
13.0
 10
125.4197346691659
 20
-150.6936441680557
 30
0.0
 10
125.3215494478363
 20
-151.0615803658804
 30
0.0
 10
125.2771077160765
 20
-151.2203992677504
 30
0.0
 10
125.1048529418141
 20
-151.4698241808825
 30
0.0
 10
124.9439669826529
 20
-151.7006455783943
 30
0.0
 10
124.7365722344408
 20
-151.8866807345977
 30
0.0
 10
124.4919704549881
 20
-151.9796983126995
 30
0.0
 10
124.4919704549881
 20
-151.9796983126995
 30
0.0
 10
124.3235052857594
 20
-151.7998643283695
 30
0.0
 10
124.3235052857594
 20
-151.7998643283695
 30
0.0
 10
124.8847113403066
 20
-151.6475911079214
 30
0.0
 10
125.1734103419705
 20
-151.0912081870536
 30
0.0
 10
125.2292208888316
 20
-150.6512694935872
 30
0.0
 10
125.2292208888316
 20
-150.6512694935872
 30
0.0
 10
124.5588053074019
 20
-150.6512694935872
 30
0.0
 10
124.5588053074019
 20
-150.6512694935872
 30
0.0
 10
124.4771565444015
 20
-150.6512694935872
 30
0.0
 10
124.3162705852404
 20
-150.6554036081695
 30
0.0
 10
124.1791557849274
 20
-150.6743516333384
 30
0.0
 10
124.1791557849274
 20
-150.6743516333384
 30
0.0
 10
124.1791557849274
 20
-150.4545545413794
 30
0.0
 10
124.1791557849274
 20
-150.4545545413794
 30
0.0
 10
124.2549478856029
 20
-150.4755696238394
 30
0.0
 10
124.4754339966589
 20
-150.4755696238394
 30
0.0
 10
124.5622504028872
 20
-150.4755696238394
 30
0.0
 10
124.5622504028872
 20
-150.4755696238394
 30
0.0
 10
124.9401773776191
 20
-150.4755696238394
 30
0.0
 10
124.9401773776191
 20
-150.4755696238394
 30
0.0
 10
124.9770398993113
 20
-150.4755696238394
 30
0.0
 10
125.1827120997807
 20
-150.4735025665483
 30
0.0
 10
125.2161295259876
 20
-150.4673013946748
 30
0.0
 10
125.2529920476798
 20
-150.4607557132528
 30
0.0
 10
125.2550591049709
 20
-150.4586886559617
 30
0.0
 10
125.3088025945408
 20
-150.4183810387843
 30
0.0
 10
125.3088025945408
 20
-150.4183810387843
 30
0.0
 10
125.4734781587358
 20
-150.573065826072
 30
0.0
 10
125.4734781587358
 20
-150.573065826072
 30
0.0
 10
125.4476399425964
 20
-150.6026936472451
 30
0.0
 10
125.4345485797524
 20
-150.6343885257094
 30
0.0
 10
125.4197346691659
 20
-150.6936441680557
 30
0.0
  0
HATCH
  5
9D
330
81
100
AcDbEntity
  8
レイヤー 1
 62
   250
420
  2299925
440
 33554687
100
AcDbHatch
 10
0.0
 20
0.0
 30
0.0
210
0.0
220
0.0
230
1.0
  2
SOLID
 70
     1
 71
     1
 91
        3
 92
        1
 93
        1
 72
     4
 94
        3
 73
     0
 74
     0
 95
       17
 96
       13
 40
0.0
 40
0.0
 40
0.0
 40
0.0
 40
1.0
 40
1.0
 40
1.0
 40
2.0
 40
2.0
 40
2.0
 40
3.0
 40
3.0
 40
3.0
 40
4.0
 40
4.0
 40
4.0
 40
4.0
 10
125.6012912012385
 20
-150.1644775015214
 10
125.553059864445
 20
-150.1644775015214
 10
125.5141302854617
 20
-150.2089192332811
 10
125.5141302854617
 20
-150.2640407610451
 10
125.5141302854617
 20
-150.3212293461002
 10
125.553059864445
 20
-150.3698051924422
 10
125.6050808062723
 20
-150.3698051924422
 10
125.6567572385511
 20
-150.3698051924422
 10
125.6918972125006
 20
-150.3191622888091
 10
125.6918972125006
 20
-150.2661078183362
 10
125.6918972125006
 20
-150.2089192332811
 10
125.6512450857747
 20
-150.1644775015214
 10
125.6012912012385
 20
-150.1644775015214
 97
        0
 97
        1
330
9A
 92
        1
 93
        1
 72
     4
 94
        3
 73
     0
 74
     0
 95
       17
 96
       13
 40
0.0
 40
0.0
 40
0.0
 40
0.0
 40
1.0
 40
1.0
 40
1.0
 40
2.0
 40
2.0
 40
2.0
 40
3.0
 40
3.0
 40
3.0
 40
4.0
 40
4.0
 40
4.0
 40
4.0
 10
125.6030137489812
 20
-150.4945176490083
 10
125.4920816743561
 20
-150.4945176490083
 10
125.4031982108367
 20
-150.3932318417419
 10
125.4031982108367
 20
-150.2661078183362
 10
125.4031982108367
 20
-150.139328304479
 10
125.4920816743561
 20
-150.035630930373
 10
125.6030137489812
 20
-150.035630930373
 10
125.7142903331547
 20
-150.035630930373
 10
125.8048963444168
 20
-150.139328304479
 10
125.8048963444168
 20
-150.2661078183362
 10
125.8048963444168
 20
-150.3932318417419
 10
125.7142903331547
 20
-150.4945176490083
 10
125.6030137489812
 20
-150.4945176490083
 97
        0
 97
        1
330
9B
 92
        1
 93
        1
 72
     4
 94
        3
 73
     0
 74
     0
 95
       44
 96
       40
 40
0.0
 40
0.0
 40
0.0
 40
0.0
 40
1.0
 40
1.0
 40
1.0
 40
2.0
 40
2.0
 40
2.0
 40
3.0
 40
3.0
 40
3.0
 40
4.0
 40
4.0
 40
4.0
 40
5.0
 40
5.0
 40
5.0
 40
6.0
 40
6.0
 40
6.0
 40
7.0
 40
7.0
 40
7.0
 40
8.0
 40
8.0
 40
8.0
 40
9.0
 40
9.0
 40
9.0
 40
10.0
 40
10.0
 40
10.0
 40
11.0
 40
11.0
 40
11.0
 40
12.0
 40
12.0
 40
12.0
 40
13.0
 40
13.0
 40
13.0
 40
13.0
 10
125.4197346691659
 20
-150.6936441680557
 10
125.3215494478363
 20
-151.0615803658804
 10
125.2771077160765
 20
-151.2203992677504
 10
125.1048529418141
 20
-151.4698241808825
 10
124.9439669826529
 20
-151.7006455783943
 10
124.7365722344408
 20
-151.8866807345977
 10
124.4919704549881
 20
-151.9796983126995
 10
124.4919704549881
 20
-151.9796983126995
 10
124.3235052857594
 20
-151.7998643283695
 10
124.3235052857594
 20
-151.7998643283695
 10
124.8847113403066
 20
-151.6475911079214
 10
125.1734103419705
 20
-151.0912081870536
 10
125.2292208888316
 20
-150.6512694935872
 10
125.2292208888316
 20
-150.6512694935872
 10
124.5588053074019
 20
-150.6512694935872
 10
124.5588053074019
 20
-150.6512694935872
 10
124.4771565444015
 20
-150.6512694935872
 10
124.3162705852404
 20
-150.6554036081695
 10
124.1791557849274
 20
-150.6743516333384
 10
124.1791557849274
 20
-150.6743516333384
 10
124.1791557849274
 20
-150.4545545413794
 10
124.1791557849274
 20
-150.4545545413794
 10
124.2549478856029
 20
-150.4755696238394
 10
124.4754339966589
 20
-150.4755696238394
 10
124.5622504028872
 20
-150.4755696238394
 10
124.5622504028872
 20
-150.4755696238394
 10
124.9401773776191
 20
-150.4755696238394
 10
124.9401773776191
 20
-150.4755696238394
 10
124.9770398993113
 20
-150.4755696238394
 10
125.1827120997807
 20
-150.4735025665483
 10
125.2161295259876
 20
-150.4673013946748
 10
125.2529920476798
 20
-150.4607557132528
 10
125.2550591049709
 20
-150.4586886559617
 10
125.3088025945408
 20
-150.4183810387843
 10
125.3088025945408
 20
-150.4183810387843
 10
125.4734781587358
 20
-150.573065826072
 10
125.4734781587358
 20
-150.573065826072
 10
125.4476399425964
 20
-150.6026936472451
 10
125.4345485797524
 20
-150.6343885257094
 10
125.4197346691659
 20
-150.6936441680557
 97
        0
 97
        1
330
9C
 75
     2
 76
     1
 98
        1
 10
0.0
 20
0.0
450
        0
451
        0
460
0.0
461
0.0
452
        0
462
0.0
453
        0
470

  0
SPLINE
  5
9E
330
81
100
AcDbEntity
  8
レイヤー 1
100
AcDbSpline
210
0.0
220
0.0
230
1.0
 70
     9
 71
     3
 72
    29
 73
    25
 74
     0
 42
0.0000000001
 43
0.0000000001
 40
0.0
 40
0.0
 40
0.0
 40
0.0
 40
1.0
 40
1.0
 40
1.0
 40
2.0
 40
2.0
 40
2.0
 40
3.0
 40
3.0
 40
3.0
 40
4.0
 40
4.0
 40
4.0
 40
5.0
 40
5.0
 40
5.0
 40
6.0
 40
6.0
 40
6.0
 40
7.0
 40
7.0
 40
7.0
 40
8.0
 40
8.0
 40
8.0
 40
8.0
 10
126.7440293736959
 20
-150.3763508738642
 30
0.0
 10
126.7440293736959
 20
-150.3763508738642
 30
0.0
 10
126.4460286142218
 20
-150.3763508738642
 30
0.0
 10
126.4460286142218
 20
-150.3763508738642
 30
0.0
 10
126.3461208451496
 20
-150.3763508738642
 30
0.0
 10
126.2441460187862
 20
-150.3804849884465
 30
0.0
 10
126.1442382497139
 20
-150.3952988990331
 30
0.0
 10
126.1442382497139
 20
-150.3952988990331
 30
0.0
 10
126.1442382497139
 20
-150.1858370935299
 30
0.0
 10
126.1442382497139
 20
-150.1858370935299
 30
0.0
 10
126.2479356238199
 20
-150.2006510041165
 30
0.0
 10
126.3998643347195
 20
-150.2047851186988
 30
0.0
 10
126.4460286142218
 20
-150.2047851186988
 30
0.0
 10
126.4460286142218
 20
-150.2047851186988
 30
0.0
 10
126.7440293736959
 20
-150.2047851186988
 30
0.0
 10
126.7440293736959
 20
-150.2047851186988
 30
0.0
 10
126.8460042000593
 20
-150.2047851186988
 30
0.0
 10
126.9476345168742
 20
-150.2006510041165
 30
0.0
 10
127.0496093432376
 20
-150.1858370935299
 30
0.0
 10
127.0496093432376
 20
-150.1858370935299
 30
0.0
 10
127.0496093432376
 20
-150.3952988990331
 30
0.0
 10
127.0496093432376
 20
-150.3952988990331
 30
0.0
 10
126.9180066957011
 20
-150.3763508738642
 30
0.0
 10
126.7571207365399
 20
-150.3763508738642
 30
0.0
 10
126.7440293736959
 20
-150.3763508738642
 30
0.0
  0
SPLINE
  5
9F
330
81
100
AcDbEntity
  8
レイヤー 1
100
AcDbSpline
210
0.0
220
0.0
230
1.0
 70
     9
 71
     3
 72
    50
 73
    46
 74
     0
 42
0.0000000001
 43
0.0000000001
 40
0.0
 40
0.0
 40
0.0
 40
0.0
 40
1.0
 40
1.0
 40
1.0
 40
2.0
 40
2.0
 40
2.0
 40
3.0
 40
3.0
 40
3.0
 40
4.0
 40
4.0
 40
4.0
 40
5.0
 40
5.0
 40
5.0
 40
6.0
 40
6.0
 40
6.0
 40
7.0
 40
7.0
 40
7.0
 40
8.0
 40
8.0
 40
8.0
 40
9.0
 40
9.0
 40
9.0
 40
10.0
 40
10.0
 40
10.0
 40
11.0
 40
11.0
 40
11.0
 40
12.0
 40
12.0
 40
12.0
 40
13.0
 40
13.0
 40
13.0
 40
14.0
 40
14.0
 40
14.0
 40
15.0
 40
15.0
 40
15.0
 40
15.0
 10
127.1756998379977
 20
-151.0023247235341
 30
0.0
 10
127.1071424378412
 20
-151.180091650573
 30
0.0
 10
126.9886311531487
 20
-151.3874863987851
 30
0.0
 10
126.8680528111649
 20
-151.5270127659377
 30
0.0
 10
126.7199137052992
 20
-151.6982340115546
 30
0.0
 10
126.5776312617584
 20
-151.787117475074
 30
0.0
 10
126.2978895083561
 20
-151.9290554090663
 30
0.0
 10
126.2978895083561
 20
-151.9290554090663
 30
0.0
 10
126.1497504024903
 20
-151.7406086860232
 30
0.0
 10
126.1497504024903
 20
-151.7406086860232
 30
0.0
 10
126.3127034189426
 20
-151.717526546272
 30
0.0
 10
126.462565072551
 20
-151.6307101400437
 30
0.0
 10
126.5958902678302
 20
-151.5249457086465
 30
0.0
 10
126.8256781366963
 20
-151.3430446670253
 30
0.0
 10
126.9924207581824
 20
-151.0298854874161
 30
0.0
 10
127.034795432651
 20
-150.8479844457949
 30
0.0
 10
127.034795432651
 20
-150.8479844457949
 30
0.0
 10
126.4477511619644
 20
-150.8479844457949
 30
0.0
 10
126.4477511619644
 20
-150.8479844457949
 30
0.0
 10
126.3089138139089
 20
-150.8479844457949
 30
0.0
 10
126.0532877289033
 20
-150.8562526749595
 30
0.0
 10
125.9199625336242
 20
-150.8734781523858
 30
0.0
 10
125.9199625336242
 20
-150.8734781523858
 30
0.0
 10
125.9199625336242
 20
-150.6447238121652
 30
0.0
 10
125.9199625336242
 20
-150.6447238121652
 30
0.0
 10
125.9495903547973
 20
-150.6512694935872
 30
0.0
 10
125.9719834754514
 20
-150.6574706654606
 30
0.0
 10
126.0181477549538
 20
-150.6616047800429
 30
0.0
 10
126.1070312184732
 20
-150.6681504614649
 30
0.0
 10
126.2792859927357
 20
-150.670217518756
 30
0.0
 10
126.3533555456686
 20
-150.670217518756
 30
0.0
 10
126.3533555456686
 20
-150.670217518756
 30
0.0
 10
126.7960503155232
 20
-150.670217518756
 30
0.0
 10
126.7960503155232
 20
-150.670217518756
 30
0.0
 10
126.8553059578695
 20
-150.670217518756
 30
0.0
 10
126.9831190003723
 20
-150.6660834041738
 30
0.0
 10
127.0365179803936
 20
-150.6595377227518
 30
0.0
 10
127.0995632277737
 20
-150.6512694935872
 30
0.0
 10
127.1236788961704
 20
-150.6364555830006
 30
0.0
 10
127.1533067173436
 20
-150.6130289337009
 30
0.0
 10
127.1533067173436
 20
-150.6130289337009
 30
0.0
 10
127.2976562181756
 20
-150.7801160647355
 30
0.0
 10
127.2976562181756
 20
-150.7801160647355
 30
0.0
 10
127.2366780280866
 20
-150.8479844457949
 30
0.0
 10
127.1960259013607
 20
-150.951681819901
 30
0.0
 10
127.1756998379977
 20
-151.0023247235341
 30
0.0
  0
HATCH
  5
A0
330
81
100
AcDbEntity
  8
レイヤー 1
 62
   250
420
  2299925
440
 33554687
100
AcDbHatch
 10
0.0
 20
0.0
 30
0.0
210
0.0
220
0.0
230
1.0
  2
SOLID
 70
     1
 71
     1
 91
        2
 92
        1
 93
        1
 72
     4
 94
        3
 73
     0
 74
     0
 95
       29
 96
       25
 40
0.0
 40
0.0
 40
0.0
 40
0.0
 40
1.0
 40
1.0
 40
1.0
 40
2.0
 40
2.0
 40
2.0
 40
3.0
 40
3.0
 40
3.0
 40
4.0
 40
4.0
 40
4.0
 40
5.0
 40
5.0
 40
5.0
 40
6.0
 40
6.0
 40
6.0
 40
7.0
 40
7.0
 40
7.0
 40
8.0
 40
8.0
 40
8.0
 40
8.0
 10
126.7440293736959
 20
-150.3763508738642
 10
126.7440293736959
 20
-150.3763508738642
 10
126.4460286142218
 20
-150.3763508738642
 10
126.4460286142218
 20
-150.3763508738642
 10
126.3461208451496
 20
-150.3763508738642
 10
126.2441460187862
 20
-150.3804849884465
 10
126.1442382497139
 20
-150.3952988990331
 10
126.1442382497139
 20
-150.3952988990331
 10
126.1442382497139
 20
-150.1858370935299
 10
126.1442382497139
 20
-150.1858370935299
 10
126.2479356238199
 20
-150.2006510041165
 10
126.3998643347195
 20
-150.2047851186988
 10
126.4460286142218
 20
-150.2047851186988
 10
126.4460286142218
 20
-150.2047851186988
 10
126.7440293736959
 20
-150.2047851186988
 10
126.7440293736959
 20
-150.2047851186988
 10
126.8460042000593
 20
-150.2047851186988
 10
126.9476345168742
 20
-150.2006510041165
 10
127.0496093432376
 20
-150.1858370935299
 10
127.0496093432376
 20
-150.1858370935299
 10
127.0496093432376
 20
-150.3952988990331
 10
127.0496093432376
 20
-150.3952988990331
 10
126.9180066957011
 20
-150.3763508738642
 10
126.7571207365399
 20
-150.3763508738642
 10
126.7440293736959
 20
-150.3763508738642
 97
        0
 97
        1
330
9E
 92
        1
 93
        1
 72
     4
 94
        3
 73
     0
 74
     0
 95
       50
 96
       46
 40
0.0
 40
0.0
 40
0.0
 40
0.0
 40
1.0
 40
1.0
 40
1.0
 40
2.0
 40
2.0
 40
2.0
 40
3.0
 40
3.0
 40
3.0
 40
4.0
 40
4.0
 40
4.0
 40
5.0
 40
5.0
 40
5.0
 40
6.0
 40
6.0
 40
6.0
 40
7.0
 40
7.0
 40
7.0
 40
8.0
 40
8.0
 40
8.0
 40
9.0
 40
9.0
 40
9.0
 40
10.0
 40
10.0
 40
10.0
 40
11.0
 40
11.0
 40
11.0
 40
12.0
 40
12.0
 40
12.0
 40
13.0
 40
13.0
 40
13.0
 40
14.0
 40
14.0
 40
14.0
 40
15.0
 40
15.0
 40
15.0
 40
15.0
 10
127.1756998379977
 20
-151.0023247235341
 10
127.1071424378412
 20
-151.180091650573
 10
126.9886311531487
 20
-151.3874863987851
 10
126.8680528111649
 20
-151.5270127659377
 10
126.7199137052992
 20
-151.6982340115546
 10
126.5776312617584
 20
-151.787117475074
 10
126.2978895083561
 20
-151.9290554090663
 10
126.2978895083561
 20
-151.9290554090663
 10
126.1497504024903
 20
-151.7406086860232
 10
126.1497504024903
 20
-151.7406086860232
 10
126.3127034189426
 20
-151.717526546272
 10
126.462565072551
 20
-151.6307101400437
 10
126.5958902678302
 20
-151.5249457086465
 10
126.8256781366963
 20
-151.3430446670253
 10
126.9924207581824
 20
-151.0298854874161
 10
127.034795432651
 20
-150.8479844457949
 10
127.034795432651
 20
-150.8479844457949
 10
126.4477511619644
 20
-150.8479844457949
 10
126.4477511619644
 20
-150.8479844457949
 10
126.3089138139089
 20
-150.8479844457949
 10
126.0532877289033
 20
-150.8562526749595
 10
125.9199625336242
 20
-150.8734781523858
 10
125.9199625336242
 20
-150.8734781523858
 10
125.9199625336242
 20
-150.6447238121652
 10
125.9199625336242
 20
-150.6447238121652
 10
125.9495903547973
 20
-150.6512694935872
 10
125.9719834754514
 20
-150.6574706654606
 10
126.0181477549538
 20
-150.6616047800429
 10
126.1070312184732
 20
-150.6681504614649
 10
126.2792859927357
 20
-150.670217518756
 10
126.3533555456686
 20
-150.670217518756
 10
126.3533555456686
 20
-150.670217518756
 10
126.7960503155232
 20
-150.670217518756
 10
126.7960503155232
 20
-150.670217518756
 10
126.8553059578695
 20
-150.670217518756
 10
126.9831190003723
 20
-150.6660834041738
 10
127.0365179803936
 20
-150.6595377227518
 10
127.0995632277737
 20
-150.6512694935872
 10
127.1236788961704
 20
-150.6364555830006
 10
127.1533067173436
 20
-150.6130289337009
 10
127.1533067173436
 20
-150.6130289337009
 10
127.2976562181756
 20
-150.7801160647355
 10
127.2976562181756
 20
-150.7801160647355
 10
127.2366780280866
 20
-150.8479844457949
 10
127.1960259013607
 20
-150.951681819901
 10
127.1756998379977
 20
-151.0023247235341
 97
        0
 97
        1
330
9F
 75
     2
 76
     1
 98
        1
 10
0.0
 20
0.0
450
        0
451
        0
460
0.0
461
0.0
452
        0
462
0.0
453
        0
470

  0
SPLINE
  5
A1
330
81
100
AcDbEntity
  8
レイヤー 1
100
AcDbSpline
210
0.0
220
0.0
230
1.0
 70
     9
 71
     3
 72
    50
 73
    46
 74
     0
 42
0.0000000001
 43
0.0000000001
 40
0.0
 40
0.0
 40
0.0
 40
0.0
 40
1.0
 40
1.0
 40
1.0
 40
2.0
 40
2.0
 40
2.0
 40
3.0
 40
3.0
 40
3.0
 40
4.0
 40
4.0
 40
4.0
 40
5.0
 40
5.0
 40
5.0
 40
6.0
 40
6.0
 40
6.0
 40
7.0
 40
7.0
 40
7.0
 40
8.0
 40
8.0
 40
8.0
 40
9.0
 40
9.0
 40
9.0
 40
10.0
 40
10.0
 40
10.0
 40
11.0
 40
11.0
 40
11.0
 40
12.0
 40
12.0
 40
12.0
 40
13.0
 40
13.0
 40
13.0
 40
14.0
 40
14.0
 40
14.0
 40
15.0
 40
15.0
 40
15.0
 40
15.0
 10
128.6736273549843
 20
-150.3615369632776
 30
0.0
 10
128.490348275169
 20
-150.5751328833632
 30
0.0
 10
128.4276475373375
 20
-150.6471353790049
 30
0.0
 10
128.30327959032
 20
-150.765302154149
 30
0.0
 10
128.30327959032
 20
-150.765302154149
 30
0.0
 10
128.30327959032
 20
-151.332364871021
 30
0.0
 10
128.30327959032
 20
-151.332364871021
 30
0.0
 10
128.30327959032
 20
-151.4825710341779
 30
0.0
 10
128.3091362526449
 20
-151.5015190593468
 30
0.0
 10
128.3125813481301
 20
-151.6792859863857
 30
0.0
 10
128.3146484054213
 20
-151.8105441243737
 30
0.0
 10
128.3201605581977
 20
-151.8591199707158
 30
0.0
 10
128.3256727109741
 20
-151.918375613062
 30
0.0
 10
128.3256727109741
 20
-151.918375613062
 30
0.0
 10
128.1275797205722
 20
-151.918375613062
 30
0.0
 10
128.1275797205722
 20
-151.918375613062
 30
0.0
 10
128.131369325606
 20
-151.8739338813023
 30
0.0
 10
128.1348144210913
 20
-151.8274250922514
 30
0.0
 10
128.1348144210913
 20
-151.8188123535383
 30
0.0
 10
128.1348144210913
 20
-151.738541628732
 30
0.0
 10
128.1386040261251
 20
-151.3874863987851
 30
0.0
 10
128.1386040261251
 20
-151.3154839031433
 30
0.0
 10
128.1386040261251
 20
-151.3154839031433
 30
0.0
 10
128.1386040261251
 20
-150.9093071454324
 30
0.0
 10
128.1386040261251
 20
-150.9093071454324
 30
0.0
 10
127.9794406147065
 20
-151.0340196019984
 30
0.0
 10
127.8089083881866
 20
-151.1442626575264
 30
0.0
 10
127.6311414611478
 20
-151.2307345542062
 30
0.0
 10
127.6311414611478
 20
-151.2307345542062
 30
0.0
 10
127.4533745341089
 20
-151.0677815377539
 30
0.0
 10
127.4533745341089
 20
-151.0677815377539
 30
0.0
 10
127.5608615132487
 20
-151.0319525447073
 30
0.0
 10
127.7847927197899
 20
-150.9578829917744
 30
0.0
 10
128.0865830842978
 20
-150.7019123972203
 30
0.0
 10
128.275718826438
 20
-150.5434380048988
 30
0.0
 10
128.4441839956667
 20
-150.3549912818557
 30
0.0
 10
128.5775091909459
 20
-150.1348496803482
 30
0.0
 10
128.5775091909459
 20
-150.1348496803482
 30
0.0
 10
128.7459743601746
 20
-150.2788546716317
 30
0.0
 10
128.7459743601746
 20
-150.2788546716317
 30
0.0
 10
128.7569986657274
 20
-150.2895344676359
 30
0.0
 10
128.764577875795
 20
-150.3043483782225
 30
0.0
 10
128.764577875795
 20
-150.3170952315179
 30
0.0
 10
128.764577875795
 20
-150.3570583391468
 30
0.0
 10
128.731160449588
 20
-150.3570583391468
 30
0.0
 10
128.6736273549843
 20
-150.3615369632776
 30
0.0
  0
HATCH
  5
A2
330
81
100
AcDbEntity
  8
レイヤー 1
 62
   250
420
  2299925
440
 33554687
100
AcDbHatch
 10
0.0
 20
0.0
 30
0.0
210
0.0
220
0.0
230
1.0
  2
SOLID
 70
     1
 71
     1
 91
        1
 92
        1
 93
        1
 72
     4
 94
        3
 73
     0
 74
     0
 95
       50
 96
       46
 40
0.0
 40
0.0
 40
0.0
 40
0.0
 40
1.0
 40
1.0
 40
1.0
 40
2.0
 40
2.0
 40
2.0
 40
3.0
 40
3.0
 40
3.0
 40
4.0
 40
4.0
 40
4.0
 40
5.0
 40
5.0
 40
5.0
 40
6.0
 40
6.0
 40
6.0
 40
7.0
 40
7.0
 40
7.0
 40
8.0
 40
8.0
 40
8.0
 40
9.0
 40
9.0
 40
9.0
 40
10.0
 40
10.0
 40
10.0
 40
11.0
 40
11.0
 40
11.0
 40
12.0
 40
12.0
 40
12.0
 40
13.0
 40
13.0
 40
13.0
 40
14.0
 40
14.0
 40
14.0
 40
15.0
 40
15.0
 40
15.0
 40
15.0
 10
128.6736273549843
 20
-150.3615369632776
 10
128.490348275169
 20
-150.5751328833632
 10
128.4276475373375
 20
-150.6471353790049
 10
128.30327959032
 20
-150.765302154149
 10
128.30327959032
 20
-150.765302154149
 10
128.30327959032
 20
-151.332364871021
 10
128.30327959032
 20
-151.332364871021
 10
128.30327959032
 20
-151.4825710341779
 10
128.3091362526449
 20
-151.5015190593468
 10
128.3125813481301
 20
-151.6792859863857
 10
128.3146484054213
 20
-151.8105441243737
 10
128.3201605581977
 20
-151.8591199707158
 10
128.3256727109741
 20
-151.918375613062
 10
128.3256727109741
 20
-151.918375613062
 10
128.1275797205722
 20
-151.918375613062
 10
128.1275797205722
 20
-151.918375613062
 10
128.131369325606
 20
-151.8739338813023
 10
128.1348144210913
 20
-151.8274250922514
 10
128.1348144210913
 20
-151.8188123535383
 10
128.1348144210913
 20
-151.738541628732
 10
128.1386040261251
 20
-151.3874863987851
 10
128.1386040261251
 20
-151.3154839031433
 10
128.1386040261251
 20
-151.3154839031433
 10
128.1386040261251
 20
-150.9093071454324
 10
128.1386040261251
 20
-150.9093071454324
 10
127.9794406147065
 20
-151.0340196019984
 10
127.8089083881866
 20
-151.1442626575264
 10
127.6311414611478
 20
-151.2307345542062
 10
127.6311414611478
 20
-151.2307345542062
 10
127.4533745341089
 20
-151.0677815377539
 10
127.4533745341089
 20
-151.0677815377539
 10
127.5608615132487
 20
-151.0319525447073
 10
127.7847927197899
 20
-150.9578829917744
 10
128.0865830842978
 20
-150.7019123972203
 10
128.275718826438
 20
-150.5434380048988
 10
128.4441839956667
 20
-150.3549912818557
 10
128.5775091909459
 20
-150.1348496803482
 10
128.5775091909459
 20
-150.1348496803482
 10
128.7459743601746
 20
-150.2788546716317
 10
128.7459743601746
 20
-150.2788546716317
 10
128.7569986657274
 20
-150.2895344676359
 10
128.764577875795
 20
-150.3043483782225
 10
128.764577875795
 20
-150.3170952315179
 10
128.764577875795
 20
-150.3570583391468
 10
128.731160449588
 20
-150.3570583391468
 10
128.6736273549843
 20
-150.3615369632776
 97
        0
 97
        1
330
A1
 75
     2
 76
     1
 98
        1
 10
0.0
 20
0.0
450
        0
451
        0
460
0.0
461
0.0
452
        0
462
0.0
453
        0
470

  0
SPLINE
  5
A3
330
81
100
AcDbEntity
  8
レイヤー 1
100
AcDbSpline
210
0.0
220
0.0
230
1.0
 70
     9
 71
     3
 72
    50
 73
    46
 74
     0
 42
0.0000000001
 43
0.0000000001
 40
0.0
 40
0.0
 40
0.0
 40
0.0
 40
1.0
 40
1.0
 40
1.0
 40
2.0
 40
2.0
 40
2.0
 40
3.0
 40
3.0
 40
3.0
 40
4.0
 40
4.0
 40
4.0
 40
5.0
 40
5.0
 40
5.0
 40
6.0
 40
6.0
 40
6.0
 40
7.0
 40
7.0
 40
7.0
 40
8.0
 40
8.0
 40
8.0
 40
9.0
 40
9.0
 40
9.0
 40
10.0
 40
10.0
 40
10.0
 40
11.0
 40
11.0
 40
11.0
 40
12.0
 40
12.0
 40
12.0
 40
13.0
 40
13.0
 40
13.0
 40
14.0
 40
14.0
 40
14.0
 40
15.0
 40
15.0
 40
15.0
 40
15.0
 10
130.1698323242284
 20
-150.8882920629723
 30
0.0
 10
130.116433344207
 20
-150.9599500490656
 30
0.0
 10
129.8883680230835
 20
-151.2772433432571
 30
0.0
 10
129.8384141385473
 20
-151.3409776097342
 30
0.0
 10
129.9124836914802
 20
-151.4381293024182
 30
0.0
 10
129.9569254232399
 20
-151.5015190593468
 30
0.0
 10
130.0144585178436
 20
-151.5924695801574
 30
0.0
 10
130.0144585178436
 20
-151.5924695801574
 30
0.0
 10
129.8532280491339
 20
-151.7302733995674
 30
0.0
 10
129.8532280491339
 20
-151.7302733995674
 30
0.0
 10
129.7347167644413
 20
-151.5184000272246
 30
0.0
 10
129.5848551108329
 20
-151.2944688206833
 30
0.0
 10
129.3275064780848
 20
-151.0953423016359
 30
0.0
 10
129.3275064780848
 20
-151.0953423016359
 30
0.0
 10
129.4570420683302
 20
-150.9410020238967
 30
0.0
 10
129.4570420683302
 20
-150.9410020238967
 30
0.0
 10
129.5535047419172
 20
-151.021272748703
 30
0.0
 10
129.6441107531792
 20
-151.1101562122225
 30
0.0
 10
129.7292046116649
 20
-151.2055853571639
 30
0.0
 10
129.7884602540112
 20
-151.1294487469398
 30
0.0
 10
129.9662271810501
 20
-150.8858804961327
 30
0.0
 10
130.0830159180001
 20
-150.6574706654606
 30
0.0
 10
130.0830159180001
 20
-150.6574706654606
 30
0.0
 10
129.4942490995709
 20
-150.6574706654606
 30
0.0
 10
129.4942490995709
 20
-150.6574706654606
 30
0.0
 10
129.3846950631399
 20
-150.6574706654606
 30
0.0
 10
129.1645534616324
 20
-150.6660834041738
 30
0.0
 10
128.9812743818172
 20
-150.6764186906295
 30
0.0
 10
128.9812743818172
 20
-150.6764186906295
 30
0.0
 10
128.9812743818172
 20
-150.4566215986706
 30
0.0
 10
128.9812743818172
 20
-150.4566215986706
 30
0.0
 10
129.1421603409783
 20
-150.4755696238394
 30
0.0
 10
129.3219943253084
 20
-150.4797037384217
 30
0.0
 10
129.4866698895033
 20
-150.4797037384217
 30
0.0
 10
129.4866698895033
 20
-150.4797037384217
 30
0.0
 10
129.9272976020668
 20
-150.4797037384217
 30
0.0
 10
129.9272976020668
 20
-150.4797037384217
 30
0.0
 10
130.2235758137983
 20
-150.4797037384217
 30
0.0
 10
130.2625053927816
 20
-150.4648898278352
 30
0.0
 10
130.3348523979718
 20
-150.4249267202063
 30
0.0
 10
130.3348523979718
 20
-150.4249267202063
 30
0.0
 10
130.4809244465464
 20
-150.5834011125278
 30
0.0
 10
130.4809244465464
 20
-150.5834011125278
 30
0.0
 10
130.3475992512672
 20
-150.6554036081695
 30
0.0
 10
130.2218532660556
 20
-150.8183566246218
 30
0.0
 10
130.1698323242284
 20
-150.8882920629723
 30
0.0
  0
HATCH
  5
A4
330
81
100
AcDbEntity
  8
レイヤー 1
 62
   250
420
  2299925
440
 33554687
100
AcDbHatch
 10
0.0
 20
0.0
 30
0.0
210
0.0
220
0.0
230
1.0
  2
SOLID
 70
     1
 71
     1
 91
        1
 92
        1
 93
        1
 72
     4
 94
        3
 73
     0
 74
     0
 95
       50
 96
       46
 40
0.0
 40
0.0
 40
0.0
 40
0.0
 40
1.0
 40
1.0
 40
1.0
 40
2.0
 40
2.0
 40
2.0
 40
3.0
 40
3.0
 40
3.0
 40
4.0
 40
4.0
 40
4.0
 40
5.0
 40
5.0
 40
5.0
 40
6.0
 40
6.0
 40
6.0
 40
7.0
 40
7.0
 40
7.0
 40
8.0
 40
8.0
 40
8.0
 40
9.0
 40
9.0
 40
9.0
 40
10.0
 40
10.0
 40
10.0
 40
11.0
 40
11.0
 40
11.0
 40
12.0
 40
12.0
 40
12.0
 40
13.0
 40
13.0
 40
13.0
 40
14.0
 40
14.0
 40
14.0
 40
15.0
 40
15.0
 40
15.0
 40
15.0
 10
130.1698323242284
 20
-150.8882920629723
 10
130.116433344207
 20
-150.9599500490656
 10
129.8883680230835
 20
-151.2772433432571
 10
129.8384141385473
 20
-151.3409776097342
 10
129.9124836914802
 20
-151.4381293024182
 10
129.9569254232399
 20
-151.5015190593468
 10
130.0144585178436
 20
-151.5924695801574
 10
130.0144585178436
 20
-151.5924695801574
 10
129.8532280491339
 20
-151.7302733995674
 10
129.8532280491339
 20
-151.7302733995674
 10
129.7347167644413
 20
-151.5184000272246
 10
129.5848551108329
 20
-151.2944688206833
 10
129.3275064780848
 20
-151.0953423016359
 10
129.3275064780848
 20
-151.0953423016359
 10
129.4570420683302
 20
-150.9410020238967
 10
129.4570420683302
 20
-150.9410020238967
 10
129.5535047419172
 20
-151.021272748703
 10
129.6441107531792
 20
-151.1101562122225
 10
129.7292046116649
 20
-151.2055853571639
 10
129.7884602540112
 20
-151.1294487469398
 10
129.9662271810501
 20
-150.8858804961327
 10
130.0830159180001
 20
-150.6574706654606
 10
130.0830159180001
 20
-150.6574706654606
 10
129.4942490995709
 20
-150.6574706654606
 10
129.4942490995709
 20
-150.6574706654606
 10
129.3846950631399
 20
-150.6574706654606
 10
129.1645534616324
 20
-150.6660834041738
 10
128.9812743818172
 20
-150.6764186906295
 10
128.9812743818172
 20
-150.6764186906295
 10
128.9812743818172
 20
-150.4566215986706
 10
128.9812743818172
 20
-150.4566215986706
 10
129.1421603409783
 20
-150.4755696238394
 10
129.3219943253084
 20
-150.4797037384217
 10
129.4866698895033
 20
-150.4797037384217
 10
129.4866698895033
 20
-150.4797037384217
 10
129.9272976020668
 20
-150.4797037384217
 10
129.9272976020668
 20
-150.4797037384217
 10
130.2235758137983
 20
-150.4797037384217
 10
130.2625053927816
 20
-150.4648898278352
 10
130.3348523979718
 20
-150.4249267202063
 10
130.3348523979718
 20
-150.4249267202063
 10
130.4809244465464
 20
-150.5834011125278
 10
130.4809244465464
 20
-150.5834011125278
 10
130.3475992512672
 20
-150.6554036081695
 10
130.2218532660556
 20
-150.8183566246218
 10
130.1698323242284
 20
-150.8882920629723
 97
        0
 97
        1
330
A3
 75
     2
 76
     1
 98
        1
 10
0.0
 20
0.0
450
        0
451
        0
460
0.0
461
0.0
452
        0
462
0.0
453
        0
470

  0
SPLINE
  5
A5
330
81
100
AcDbEntity
  8
レイヤー 1
100
AcDbSpline
210
0.0
220
0.0
230
1.0
 70
     9
 71
     3
 72
    29
 73
    25
 74
     0
 42
0.0000000001
 43
0.0000000001
 40
0.0
 40
0.0
 40
0.0
 40
0.0
 40
1.0
 40
1.0
 40
1.0
 40
2.0
 40
2.0
 40
2.0
 40
3.0
 40
3.0
 40
3.0
 40
4.0
 40
4.0
 40
4.0
 40
5.0
 40
5.0
 40
5.0
 40
6.0
 40
6.0
 40
6.0
 40
7.0
 40
7.0
 40
7.0
 40
8.0
 40
8.0
 40
8.0
 40
8.0
 10
131.592312250088
 20
-151.131515804231
 30
0.0
 10
131.592312250088
 20
-151.131515804231
 30
0.0
 10
131.1682209958537
 20
-151.131515804231
 30
0.0
 10
131.1682209958537
 20
-151.131515804231
 30
0.0
 10
131.144105327457
 20
-151.131515804231
 30
0.0
 10
130.8660861217973
 20
-151.131515804231
 30
0.0
 10
130.6810844942394
 20
-151.1566650012733
 30
0.0
 10
130.6810844942394
 20
-151.1566650012733
 30
0.0
 10
130.6810844942394
 20
-150.9261881133101
 30
0.0
 10
130.6810844942394
 20
-150.9261881133101
 30
0.0
 10
130.819921842295
 20
-150.9496147626098
 30
0.0
 10
130.9866644637811
 20
-150.951681819901
 30
0.0
 10
131.1682209958537
 20
-150.951681819901
 30
0.0
 10
131.1682209958537
 20
-150.951681819901
 30
0.0
 10
131.592312250088
 20
-150.951681819901
 30
0.0
 10
131.592312250088
 20
-150.951681819901
 30
0.0
 10
131.7549207569918
 20
-150.951681819901
 30
0.0
 10
131.9182182829927
 20
-150.9496147626098
 30
0.0
 10
132.0791042421538
 20
-150.9261881133101
 30
0.0
 10
132.0791042421538
 20
-150.9261881133101
 30
0.0
 10
132.0791042421538
 20
-151.1566650012733
 30
0.0
 10
132.0791042421538
 20
-151.1566650012733
 30
0.0
 10
131.9182182829927
 20
-151.1335828615221
 30
0.0
 10
131.7015217769704
 20
-151.131515804231
 30
0.0
 10
131.592312250088
 20
-151.131515804231
 30
0.0
  0
HATCH
  5
A6
330
81
100
AcDbEntity
  8
レイヤー 1
 62
   250
420
  2299925
440
 33554687
100
AcDbHatch
 10
0.0
 20
0.0
 30
0.0
210
0.0
220
0.0
230
1.0
  2
SOLID
 70
     1
 71
     1
 91
        1
 92
        1
 93
        1
 72
     4
 94
        3
 73
     0
 74
     0
 95
       29
 96
       25
 40
0.0
 40
0.0
 40
0.0
 40
0.0
 40
1.0
 40
1.0
 40
1.0
 40
2.0
 40
2.0
 40
2.0
 40
3.0
 40
3.0
 40
3.0
 40
4.0
 40
4.0
 40
4.0
 40
5.0
 40
5.0
 40
5.0
 40
6.0
 40
6.0
 40
6.0
 40
7.0
 40
7.0
 40
7.0
 40
8.0
 40
8.0
 40
8.0
 40
8.0
 10
131.592312250088
 20
-151.131515804231
 10
131.592312250088
 20
-151.131515804231
 10
131.1682209958537
 20
-151.131515804231
 10
131.1682209958537
 20
-151.131515804231
 10
131.144105327457
 20
-151.131515804231
 10
130.8660861217973
 20
-151.131515804231
 10
130.6810844942394
 20
-151.1566650012733
 10
130.6810844942394
 20
-151.1566650012733
 10
130.6810844942394
 20
-150.9261881133101
 10
130.6810844942394
 20
-150.9261881133101
 10
130.819921842295
 20
-150.9496147626098
 10
130.9866644637811
 20
-150.951681819901
 10
131.1682209958537
 20
-150.951681819901
 10
131.1682209958537
 20
-150.951681819901
 10
131.592312250088
 20
-150.951681819901
 10
131.592312250088
 20
-150.951681819901
 10
131.7549207569918
 20
-150.951681819901
 10
131.9182182829927
 20
-150.9496147626098
 10
132.0791042421538
 20
-150.9261881133101
 10
132.0791042421538
 20
-150.9261881133101
 10
132.0791042421538
 20
-151.1566650012733
 10
132.0791042421538
 20
-151.1566650012733
 10
131.9182182829927
 20
-151.1335828615221
 10
131.7015217769704
 20
-151.131515804231
 10
131.592312250088
 20
-151.131515804231
 97
        0
 97
        1
330
A5
 75
     2
 76
     1
 98
        1
 10
0.0
 20
0.0
450
        0
451
        0
460
0.0
461
0.0
452
        0
462
0.0
453
        0
470

  0
SPLINE
  5
A7
330
81
100
AcDbEntity
  8
レイヤー 1
100
AcDbSpline
210
0.0
220
0.0
230
1.0
 70
     9
 71
     3
 72
    20
 73
    16
 74
     0
 42
0.0000000001
 43
0.0000000001
 40
0.0
 40
0.0
 40
0.0
 40
0.0
 40
1.0
 40
1.0
 40
1.0
 40
2.0
 40
2.0
 40
2.0
 40
3.0
 40
3.0
 40
3.0
 40
4.0
 40
4.0
 40
4.0
 40
5.0
 40
5.0
 40
5.0
 40
5.0
 10
133.1680989250413
 20
-151.4825710341779
 30
0.0
 10
133.1274467983153
 20
-151.3048041071391
 30
0.0
 10
133.0423529398297
 20
-151.1632106826953
 30
0.0
 10
132.9200520501033
 20
-151.0533121367158
 30
0.0
 10
132.9200520501033
 20
-151.0533121367158
 30
0.0
 10
133.06095645545
 20
-150.9389349666055
 30
0.0
 10
133.06095645545
 20
-150.9389349666055
 30
0.0
 10
133.1143554354714
 20
-150.9813096410741
 30
0.0
 10
133.1498399189695
 20
-151.0150715768295
 30
0.0
 10
133.2163302618348
 20
-151.1229030655179
 30
0.0
 10
133.2866102097339
 20
-151.2393472929193
 30
0.0
 10
133.3052137253542
 20
-151.2920572538436
 30
0.0
 10
133.3276068460084
 20
-151.3578585776119
 30
0.0
 10
133.3276068460084
 20
-151.3578585776119
 30
0.0
 10
133.1680989250413
 20
-151.4825710341779
 30
0.0
 10
133.1680989250413
 20
-151.4825710341779
 30
0.0
  0
SPLINE
  5
A8
330
81
100
AcDbEntity
  8
レイヤー 1
100
AcDbSpline
210
0.0
220
0.0
230
1.0
 70
     9
 71
     3
 72
    77
 73
    73
 74
     0
 42
0.0000000001
 43
0.0000000001
 40
0.0
 40
0.0
 40
0.0
 40
0.0
 40
1.0
 40
1.0
 40
1.0
 40
2.0
 40
2.0
 40
2.0
 40
3.0
 40
3.0
 40
3.0
 40
4.0
 40
4.0
 40
4.0
 40
5.0
 40
5.0
 40
5.0
 40
6.0
 40
6.0
 40
6.0
 40
7.0
 40
7.0
 40
7.0
 40
8.0
 40
8.0
 40
8.0
 40
9.0
 40
9.0
 40
9.0
 40
10.0
 40
10.0
 40
10.0
 40
11.0
 40
11.0
 40
11.0
 40
12.0
 40
12.0
 40
12.0
 40
13.0
 40
13.0
 40
13.0
 40
14.0
 40
14.0
 40
14.0
 40
15.0
 40
15.0
 40
15.0
 40
16.0
 40
16.0
 40
16.0
 40
17.0
 40
17.0
 40
17.0
 40
18.0
 40
18.0
 40
18.0
 40
19.0
 40
19.0
 40
19.0
 40
20.0
 40
20.0
 40
20.0
 40
21.0
 40
21.0
 40
21.0
 40
22.0
 40
22.0
 40
22.0
 40
23.0
 40
23.0
 40
23.0
 40
24.0
 40
24.0
 40
24.0
 40
24.0
 10
133.8423041115047
 20
-150.7570339249843
 30
0.0
 10
133.7813259214158
 20
-150.752899810402
 30
0.0
 10
133.7220702790695
 20
-150.752899810402
 30
0.0
 10
133.6628146367232
 20
-150.752899810402
 30
0.0
 10
133.6628146367232
 20
-150.752899810402
 30
0.0
 10
133.6628146367232
 20
-151.5270127659377
 30
0.0
 10
133.6628146367232
 20
-151.5270127659377
 30
0.0
 10
133.6628146367232
 20
-151.7915960992049
 30
0.0
 10
133.660747579432
 20
-151.821223920378
 30
0.0
 10
133.6552354266556
 20
-151.8508517415512
 30
0.0
 10
133.6256076054825
 20
-151.9838324272818
 30
0.0
 10
133.536724141963
 20
-151.9924451659949
 30
0.0
 10
133.3830728833209
 20
-151.9924451659949
 30
0.0
 10
133.3479329093713
 20
-151.9924451659949
 30
0.0
 10
133.3331189987848
 20
-151.9924451659949
 30
0.0
 10
133.2979790248352
 20
-151.9883110514126
 30
0.0
 10
133.2979790248352
 20
-151.9883110514126
 30
0.0
 10
133.1887694979528
 20
-151.7471543674451
 30
0.0
 10
133.1887694979528
 20
-151.7471543674451
 30
0.0
 10
133.2903998147677
 20
-151.7788492459095
 30
0.0
 10
133.3627468199579
 20
-151.7788492459095
 30
0.0
 10
133.3830728833209
 20
-151.7788492459095
 30
0.0
 10
133.4440510734098
 20
-151.7788492459095
 30
0.0
 10
133.4736788945829
 20
-151.7619682780317
 30
0.0
 10
133.4774684996167
 20
-151.7047796929766
 30
0.0
 10
133.4774684996167
 20
-151.6920328396811
 30
0.0
 10
133.4791910473593
 20
-151.5948811469971
 30
0.0
 10
133.4791910473593
 20
-151.537692561942
 30
0.0
 10
133.4791910473593
 20
-151.537692561942
 30
0.0
 10
133.4791910473593
 20
-150.7504882435624
 30
0.0
 10
133.4791910473593
 20
-150.7504882435624
 30
0.0
 10
133.4791910473593
 20
-150.7504882435624
 30
0.0
 10
133.2218424146112
 20
-150.7504882435624
 30
0.0
 10
133.2218424146112
 20
-150.7504882435624
 30
0.0
 10
133.0940293721084
 20
-150.7504882435624
 30
0.0
 10
132.9662163296057
 20
-150.7570339249843
 30
0.0
 10
132.840470344394
 20
-150.7697807782798
 30
0.0
 10
132.840470344394
 20
-150.7697807782798
 30
0.0
 10
132.840470344394
 20
-150.5623860300677
 30
0.0
 10
132.840470344394
 20
-150.5623860300677
 30
0.0
 10
132.9720729919306
 20
-150.5751328833632
 30
0.0
 10
133.1625867722649
 20
-150.5792669979454
 30
0.0
 10
133.2218424146112
 20
-150.5792669979454
 30
0.0
 10
133.2218424146112
 20
-150.5792669979454
 30
0.0
 10
133.4791910473593
 20
-150.5792669979454
 30
0.0
 10
133.4791910473593
 20
-150.5792669979454
 30
0.0
 10
133.4774684996167
 20
-150.3105495500959
 30
0.0
 10
133.4774684996167
 20
-150.2344129398719
 30
0.0
 10
133.4698892895492
 20
-150.0862738340062
 30
0.0
 10
133.4698892895492
 20
-150.0862738340062
 30
0.0
 10
133.6958875533816
 20
-150.1245143938925
 30
0.0
 10
133.6958875533816
 20
-150.1245143938925
 30
0.0
 10
133.7089789162255
 20
-150.1265814511836
 30
0.0
 10
133.7220702790695
 20
-150.1327826230571
 30
0.0
 10
133.7220702790695
 20
-150.1541422150656
 30
0.0
 10
133.7220702790695
 20
-150.1730902402345
 30
0.0
 10
133.7162136167445
 20
-150.1751572975256
 30
0.0
 10
133.6662597322084
 20
-150.2089192332811
 30
0.0
 10
133.6628146367232
 20
-150.2874674103448
 30
0.0
 10
133.6628146367232
 20
-150.3022813209313
 30
0.0
 10
133.6628146367232
 20
-150.5792669979454
 30
0.0
 10
133.8181884431079
 20
-150.5751328833632
 30
0.0
 10
133.8347249014371
 20
-150.5751328833632
 30
0.0
 10
133.8643527226103
 20
-150.5706542592323
 30
0.0
 10
133.90879445437
 20
-150.56652014465
 30
0.0
 10
133.9125840594038
 20
-150.5644530873589
 30
0.0
 10
133.9515136383871
 20
-150.5623860300677
 30
0.0
 10
133.9515136383871
 20
-150.5623860300677
 30
0.0
 10
133.9515136383871
 20
-150.7697807782798
 30
0.0
 10
133.9515136383871
 20
-150.7697807782798
 30
0.0
 10
133.9256754222477
 20
-150.7677137209886
 30
0.0
 10
133.8774440854542
 20
-150.7591009822755
 30
0.0
 10
133.8423041115047
 20
-150.7570339249843
 30
0.0
  0
SPLINE
  5
A9
330
81
100
AcDbEntity
  8
レイヤー 1
100
AcDbSpline
210
0.0
220
0.0
230
1.0
 70
     9
 71
     3
 72
    53
 73
    49
 74
     0
 42
0.0000000001
 43
0.0000000001
 40
0.0
 40
0.0
 40
0.0
 40
0.0
 40
1.0
 40
1.0
 40
1.0
 40
2.0
 40
2.0
 40
2.0
 40
3.0
 40
3.0
 40
3.0
 40
4.0
 40
4.0
 40
4.0
 40
5.0
 40
5.0
 40
5.0
 40
6.0
 40
6.0
 40
6.0
 40
7.0
 40
7.0
 40
7.0
 40
8.0
 40
8.0
 40
8.0
 40
9.0
 40
9.0
 40
9.0
 40
10.0
 40
10.0
 40
10.0
 40
11.0
 40
11.0
 40
11.0
 40
12.0
 40
12.0
 40
12.0
 40
13.0
 40
13.0
 40
13.0
 40
14.0
 40
14.0
 40
14.0
 40
15.0
 40
15.0
 40
15.0
 40
16.0
 40
16.0
 40
16.0
 40
16.0
 10
132.8349581916176
 20
-150.2578395891716
 30
0.0
 10
132.7757025492713
 20
-150.4101128096197
 30
0.0
 10
132.7384955180306
 20
-150.4883164771348
 30
0.0
 10
132.7054226013722
 20
-150.5558403486458
 30
0.0
 10
132.7422851230644
 20
-150.5771999406543
 30
0.0
 10
132.7460747280982
 20
-150.5792669979454
 30
0.0
 10
132.7460747280982
 20
-150.594080908532
 30
0.0
 10
132.7460747280982
 20
-150.6068277618274
 30
0.0
 10
132.716446906925
 20
-150.6405896975829
 30
0.0
 10
132.7071451491149
 20
-150.649202436296
 30
0.0
 10
132.7054226013722
 20
-150.8459173885038
 30
0.0
 10
132.7054226013722
 20
-150.8669324709638
 30
0.0
 10
132.7054226013722
 20
-151.000257666243
 30
0.0
 10
132.7033555440811
 20
-151.0130045195384
 30
0.0
 10
132.7033555440811
 20
-151.027818430125
 30
0.0
 10
132.7033555440811
 20
-151.0426323407116
 30
0.0
 10
132.7033555440811
 20
-151.0426323407116
 30
0.0
 10
132.7033555440811
 20
-151.5776556695709
 30
0.0
 10
132.7033555440811
 20
-151.5776556695709
 30
0.0
 10
132.7033555440811
 20
-151.6496581652126
 30
0.0
 10
132.7071451491149
 20
-151.8846136773066
 30
0.0
 10
132.7147243591824
 20
-151.9945122232861
 30
0.0
 10
132.7147243591824
 20
-151.9945122232861
 30
0.0
 10
132.5014729486454
 20
-151.9945122232861
 30
0.0
 10
132.5014729486454
 20
-151.9945122232861
 30
0.0
 10
132.5217990120084
 20
-151.8360378309646
 30
0.0
 10
132.5276556743333
 20
-151.5948811469971
 30
0.0
 10
132.5276556743333
 20
-151.5735215549885
 30
0.0
 10
132.5276556743333
 20
-151.5735215549885
 30
0.0
 10
132.5276556743333
 20
-150.8562526749595
 30
0.0
 10
132.5276556743333
 20
-150.8562526749595
 30
0.0
 10
132.4480739686241
 20
-150.9706298450698
 30
0.0
 10
132.3943304790542
 20
-151.0298854874161
 30
0.0
 10
132.3571234478135
 20
-151.0722601618847
 30
0.0
 10
132.3571234478135
 20
-151.0722601618847
 30
0.0
 10
132.1903808263274
 20
-150.9348008520232
 30
0.0
 10
132.1903808263274
 20
-150.9348008520232
 30
0.0
 10
132.4367051535228
 20
-150.7187933650981
 30
0.0
 10
132.6051703227515
 20
-150.4101128096197
 30
0.0
 10
132.7033555440811
 20
-150.0735269807108
 30
0.0
 10
132.7033555440811
 20
-150.0735269807108
 30
0.0
 10
132.8959363817066
 20
-150.1879041508211
 30
0.0
 10
132.8959363817066
 20
-150.1879041508211
 30
0.0
 10
132.9069606872594
 20
-150.1941053226945
 30
0.0
 10
132.9145398973269
 20
-150.1985839468253
 30
0.0
 10
132.9145398973269
 20
-150.2133978574119
 30
0.0
 10
132.9145398973269
 20
-150.2385470544543
 30
0.0
 10
132.8997259867403
 20
-150.243025678585
 30
0.0
 10
132.8349581916176
 20
-150.2578395891716
 30
0.0
  0
HATCH
  5
AA
330
81
100
AcDbEntity
  8
レイヤー 1
 62
   250
420
  2299925
440
 33554687
100
AcDbHatch
 10
0.0
 20
0.0
 30
0.0
210
0.0
220
0.0
230
1.0
  2
SOLID
 70
     1
 71
     1
 91
        3
 92
        1
 93
        1
 72
     4
 94
        3
 73
     0
 74
     0
 95
       20
 96
       16
 40
0.0
 40
0.0
 40
0.0
 40
0.0
 40
1.0
 40
1.0
 40
1.0
 40
2.0
 40
2.0
 40
2.0
 40
3.0
 40
3.0
 40
3.0
 40
4.0
 40
4.0
 40
4.0
 40
5.0
 40
5.0
 40
5.0
 40
5.0
 10
133.1680989250413
 20
-151.4825710341779
 10
133.1274467983153
 20
-151.3048041071391
 10
133.0423529398297
 20
-151.1632106826953
 10
132.9200520501033
 20
-151.0533121367158
 10
132.9200520501033
 20
-151.0533121367158
 10
133.06095645545
 20
-150.9389349666055
 10
133.06095645545
 20
-150.9389349666055
 10
133.1143554354714
 20
-150.9813096410741
 10
133.1498399189695
 20
-151.0150715768295
 10
133.2163302618348
 20
-151.1229030655179
 10
133.2866102097339
 20
-151.2393472929193
 10
133.3052137253542
 20
-151.2920572538436
 10
133.3276068460084
 20
-151.3578585776119
 10
133.3276068460084
 20
-151.3578585776119
 10
133.1680989250413
 20
-151.4825710341779
 10
133.1680989250413
 20
-151.4825710341779
 97
        0
 97
        1
330
A7
 92
        1
 93
        1
 72
     4
 94
        3
 73
     0
 74
     0
 95
       77
 96
       73
 40
0.0
 40
0.0
 40
0.0
 40
0.0
 40
1.0
 40
1.0
 40
1.0
 40
2.0
 40
2.0
 40
2.0
 40
3.0
 40
3.0
 40
3.0
 40
4.0
 40
4.0
 40
4.0
 40
5.0
 40
5.0
 40
5.0
 40
6.0
 40
6.0
 40
6.0
 40
7.0
 40
7.0
 40
7.0
 40
8.0
 40
8.0
 40
8.0
 40
9.0
 40
9.0
 40
9.0
 40
10.0
 40
10.0
 40
10.0
 40
11.0
 40
11.0
 40
11.0
 40
12.0
 40
12.0
 40
12.0
 40
13.0
 40
13.0
 40
13.0
 40
14.0
 40
14.0
 40
14.0
 40
15.0
 40
15.0
 40
15.0
 40
16.0
 40
16.0
 40
16.0
 40
17.0
 40
17.0
 40
17.0
 40
18.0
 40
18.0
 40
18.0
 40
19.0
 40
19.0
 40
19.0
 40
20.0
 40
20.0
 40
20.0
 40
21.0
 40
21.0
 40
21.0
 40
22.0
 40
22.0
 40
22.0
 40
23.0
 40
23.0
 40
23.0
 40
24.0
 40
24.0
 40
24.0
 40
24.0
 10
133.8423041115047
 20
-150.7570339249843
 10
133.7813259214158
 20
-150.752899810402
 10
133.7220702790695
 20
-150.752899810402
 10
133.6628146367232
 20
-150.752899810402
 10
133.6628146367232
 20
-150.752899810402
 10
133.6628146367232
 20
-151.5270127659377
 10
133.6628146367232
 20
-151.5270127659377
 10
133.6628146367232
 20
-151.7915960992049
 10
133.660747579432
 20
-151.821223920378
 10
133.6552354266556
 20
-151.8508517415512
 10
133.6256076054825
 20
-151.9838324272818
 10
133.536724141963
 20
-151.9924451659949
 10
133.3830728833209
 20
-151.9924451659949
 10
133.3479329093713
 20
-151.9924451659949
 10
133.3331189987848
 20
-151.9924451659949
 10
133.2979790248352
 20
-151.9883110514126
 10
133.2979790248352
 20
-151.9883110514126
 10
133.1887694979528
 20
-151.7471543674451
 10
133.1887694979528
 20
-151.7471543674451
 10
133.2903998147677
 20
-151.7788492459095
 10
133.3627468199579
 20
-151.7788492459095
 10
133.3830728833209
 20
-151.7788492459095
 10
133.4440510734098
 20
-151.7788492459095
 10
133.4736788945829
 20
-151.7619682780317
 10
133.4774684996167
 20
-151.7047796929766
 10
133.4774684996167
 20
-151.6920328396811
 10
133.4791910473593
 20
-151.5948811469971
 10
133.4791910473593
 20
-151.537692561942
 10
133.4791910473593
 20
-151.537692561942
 10
133.4791910473593
 20
-150.7504882435624
 10
133.4791910473593
 20
-150.7504882435624
 10
133.4791910473593
 20
-150.7504882435624
 10
133.2218424146112
 20
-150.7504882435624
 10
133.2218424146112
 20
-150.7504882435624
 10
133.0940293721084
 20
-150.7504882435624
 10
132.9662163296057
 20
-150.7570339249843
 10
132.840470344394
 20
-150.7697807782798
 10
132.840470344394
 20
-150.7697807782798
 10
132.840470344394
 20
-150.5623860300677
 10
132.840470344394
 20
-150.5623860300677
 10
132.9720729919306
 20
-150.5751328833632
 10
133.1625867722649
 20
-150.5792669979454
 10
133.2218424146112
 20
-150.5792669979454
 10
133.2218424146112
 20
-150.5792669979454
 10
133.4791910473593
 20
-150.5792669979454
 10
133.4791910473593
 20
-150.5792669979454
 10
133.4774684996167
 20
-150.3105495500959
 10
133.4774684996167
 20
-150.2344129398719
 10
133.4698892895492
 20
-150.0862738340062
 10
133.4698892895492
 20
-150.0862738340062
 10
133.6958875533816
 20
-150.1245143938925
 10
133.6958875533816
 20
-150.1245143938925
 10
133.7089789162255
 20
-150.1265814511836
 10
133.7220702790695
 20
-150.1327826230571
 10
133.7220702790695
 20
-150.1541422150656
 10
133.7220702790695
 20
-150.1730902402345
 10
133.7162136167445
 20
-150.1751572975256
 10
133.6662597322084
 20
-150.2089192332811
 10
133.6628146367232
 20
-150.2874674103448
 10
133.6628146367232
 20
-150.3022813209313
 10
133.6628146367232
 20
-150.5792669979454
 10
133.8181884431079
 20
-150.5751328833632
 10
133.8347249014371
 20
-150.5751328833632
 10
133.8643527226103
 20
-150.5706542592323
 10
133.90879445437
 20
-150.56652014465
 10
133.9125840594038
 20
-150.5644530873589
 10
133.9515136383871
 20
-150.5623860300677
 10
133.9515136383871
 20
-150.5623860300677
 10
133.9515136383871
 20
-150.7697807782798
 10
133.9515136383871
 20
-150.7697807782798
 10
133.9256754222477
 20
-150.7677137209886
 10
133.8774440854542
 20
-150.7591009822755
 10
133.8423041115047
 20
-150.7570339249843
 97
        0
 97
        1
330
A8
 92
        1
 93
        1
 72
     4
 94
        3
 73
     0
 74
     0
 95
       53
 96
       49
 40
0.0
 40
0.0
 40
0.0
 40
0.0
 40
1.0
 40
1.0
 40
1.0
 40
2.0
 40
2.0
 40
2.0
 40
3.0
 40
3.0
 40
3.0
 40
4.0
 40
4.0
 40
4.0
 40
5.0
 40
5.0
 40
5.0
 40
6.0
 40
6.0
 40
6.0
 40
7.0
 40
7.0
 40
7.0
 40
8.0
 40
8.0
 40
8.0
 40
9.0
 40
9.0
 40
9.0
 40
10.0
 40
10.0
 40
10.0
 40
11.0
 40
11.0
 40
11.0
 40
12.0
 40
12.0
 40
12.0
 40
13.0
 40
13.0
 40
13.0
 40
14.0
 40
14.0
 40
14.0
 40
15.0
 40
15.0
 40
15.0
 40
16.0
 40
16.0
 40
16.0
 40
16.0
 10
132.8349581916176
 20
-150.2578395891716
 10
132.7757025492713
 20
-150.4101128096197
 10
132.7384955180306
 20
-150.4883164771348
 10
132.7054226013722
 20
-150.5558403486458
 10
132.7422851230644
 20
-150.5771999406543
 10
132.7460747280982
 20
-150.5792669979454
 10
132.7460747280982
 20
-150.594080908532
 10
132.7460747280982
 20
-150.6068277618274
 10
132.716446906925
 20
-150.6405896975829
 10
132.7071451491149
 20
-150.649202436296
 10
132.7054226013722
 20
-150.8459173885038
 10
132.7054226013722
 20
-150.8669324709638
 10
132.7054226013722
 20
-151.000257666243
 10
132.7033555440811
 20
-151.0130045195384
 10
132.7033555440811
 20
-151.027818430125
 10
132.7033555440811
 20
-151.0426323407116
 10
132.7033555440811
 20
-151.0426323407116
 10
132.7033555440811
 20
-151.5776556695709
 10
132.7033555440811
 20
-151.5776556695709
 10
132.7033555440811
 20
-151.6496581652126
 10
132.7071451491149
 20
-151.8846136773066
 10
132.7147243591824
 20
-151.9945122232861
 10
132.7147243591824
 20
-151.9945122232861
 10
132.5014729486454
 20
-151.9945122232861
 10
132.5014729486454
 20
-151.9945122232861
 10
132.5217990120084
 20
-151.8360378309646
 10
132.5276556743333
 20
-151.5948811469971
 10
132.5276556743333
 20
-151.5735215549885
 10
132.5276556743333
 20
-151.5735215549885
 10
132.5276556743333
 20
-150.8562526749595
 10
132.5276556743333
 20
-150.8562526749595
 10
132.4480739686241
 20
-150.9706298450698
 10
132.3943304790542
 20
-151.0298854874161
 10
132.3571234478135
 20
-151.0722601618847
 10
132.3571234478135
 20
-151.0722601618847
 10
132.1903808263274
 20
-150.9348008520232
 10
132.1903808263274
 20
-150.9348008520232
 10
132.4367051535228
 20
-150.7187933650981
 10
132.6051703227515
 20
-150.4101128096197
 10
132.7033555440811
 20
-150.0735269807108
 10
132.7033555440811
 20
-150.0735269807108
 10
132.8959363817066
 20
-150.1879041508211
 10
132.8959363817066
 20
-150.1879041508211
 10
132.9069606872594
 20
-150.1941053226945
 10
132.9145398973269
 20
-150.1985839468253
 10
132.9145398973269
 20
-150.2133978574119
 10
132.9145398973269
 20
-150.2385470544543
 10
132.8997259867403
 20
-150.243025678585
 10
132.8349581916176
 20
-150.2578395891716
 97
        0
 97
        1
330
A9
 75
     2
 76
     1
 98
        1
 10
0.0
 20
0.0
450
        0
451
        0
460
0.0
461
0.0
452
        0
462
0.0
453
        0
470

  0
ENDBLK
  5
84
330
81
100
AcDbEntity
  8
0
100
AcDbBlockEnd
  0
BLOCK
  5
AD
330
AB
100
AcDbEntity
  8
0
100
AcDbBlockBegin
  2
Block_3
 70
     0
 10
0.0
 20
0.0
 30
0.0
  3
Block_3
  1

  0
LWPOLYLINE
  5
AF
330
AB
100
AcDbEntity
  8
レイヤー 1
 62
   250
420
  2299925
370
     9
100
AcDbPolyline
 90
        3
 70
     0
 43
0.0
 10
117.8996792013015
 20
-144.3571634099049
 10
124.0732901549107
 20
-152.4706995189879
 10
134.7151843278578
 20
-152.4706995189879
  0
LWPOLYLINE
  5
B0
330
AB
100
AcDbEntity
  8
レイヤー 1
  6
AI-Linetype-0
 62
   154
420
    23468
370
    25
100
AcDbPolyline
 90
        6
 70
     0
 43
0.0
 10
80.15268632846028
 20
-144.827416187565
 10
101.7897821563842
 20
-144.0043856322153
 10
101.7897821563842
 20
-152.3535772967948
 10
109.7856154877191
 20
-152.3535772967948
 10
109.7856154877191
 20
-143.945471743341
 10
131.305234442668
 20
-144.827416187565
  0
INSERT
  5
B3
330
AB
100
AcDbEntity
  8
レイヤー 1
100
AcDbBlockReference
  2
Block_4
 10
0.0
 20
0.0
 30
0.0
  0
ENDBLK
  5
AE
330
AB
100
AcDbEntity
  8
0
100
AcDbBlockEnd
  0
BLOCK
  5
B4
330
B2
100
AcDbEntity
  8
0
100
AcDbBlockBegin
  2
Block_4
 70
     0
 10
0.0
 20
0.0
 30
0.0
  3
Block_4
  1

  0
LINE
  5
B6
330
B2
100
AcDbEntity
  8
レイヤー 1
 62
   250
420
  2299925
370
    25
100
AcDbLine
 10
111.1996532889381
 20
-153.9283067408454
 30
0.0
 11
100.199670539277
 21
-153.9283067408454
 31
0.0
  0
LINE
  5
B7
330
B2
100
AcDbEntity
  8
レイヤー 1
 62
   250
420
  2299925
370
    25
100
AcDbLine
 10
80.19882966178204
 20
-145.4282320207483
 30
0.0
 11
80.19882966178204
 21
-145.928470909512
 31
0.0
  0
LINE
  5
B8
330
B2
100
AcDbEntity
  8
レイヤー 1
 62
   250
420
  2299925
370
    25
100
AcDbLine
 10
100.199670539277
 20
-145.928470909512
 30
0.0
 11
80.19882966178204
 21
-145.928470909512
 31
0.0
  0
LINE
  5
B9
330
B2
100
AcDbEntity
  8
レイヤー 1
 62
   250
420
  2299925
370
    25
100
AcDbLine
 10
80.19882966178204
 20
-145.4282320207483
 30
0.0
 11
80.71250938387596
 21
-145.810290353986
 31
0.0
  0
LINE
  5
BA
330
B2
100
AcDbEntity
  8
レイヤー 1
 62
   250
420
  2299925
370
    25
100
AcDbLine
 10
80.71250938387596
 20
-145.810290353986
 30
0.0
 11
81.19793160597689
 21
-145.3927425763128
 31
0.0
  0
LINE
  5
BB
330
B2
100
AcDbEntity
  8
レイヤー 1
 62
   250
420
  2299925
370
    25
100
AcDbLine
 10
81.71192882807041
 20
-145.7748009095508
 30
0.0
 11
82.19735105017134
 21
-145.3569356318771
 31
0.0
  0
LINE
  5
BC
330
B2
100
AcDbEntity
  8
レイヤー 1
 62
   250
420
  2299925
370
    25
100
AcDbLine
 10
81.19793160597689
 20
-145.3927425763128
 30
0.0
 11
81.71192882807041
 21
-145.7748009095508
 31
0.0
  0
LINE
  5
BD
330
B2
100
AcDbEntity
  8
レイヤー 1
 62
   250
420
  2299925
370
    25
100
AcDbLine
 10
82.19735105017134
 20
-145.3569356318771
 30
0.0
 11
82.71134827226552
 21
-145.7389939651151
 31
0.0
  0
LINE
  5
BE
330
B2
100
AcDbEntity
  8
レイヤー 1
 62
   250
420
  2299925
370
    25
100
AcDbLine
 10
82.71134827226552
 20
-145.7389939651151
 30
0.0
 11
83.19677049436581
 21
-145.3214461874416
 31
0.0
  0
LINE
  5
BF
330
B2
100
AcDbEntity
  8
レイヤー 1
 62
   250
420
  2299925
370
    25
100
AcDbLine
 10
83.19677049436581
 20
-145.3214461874416
 30
0.0
 11
83.71076771645965
 21
-145.7031517429019
 31
0.0
  0
LINE
  5
C0
330
B2
100
AcDbEntity
  8
レイヤー 1
 62
   250
420
  2299925
370
    25
100
AcDbLine
 10
83.71076771645965
 20
-145.7031517429019
 30
0.0
 11
84.19583716078284
 21
-145.2856039652287
 31
0.0
  0
LINE
  5
C1
330
B2
100
AcDbEntity
  8
レイヤー 1
 62
   250
420
  2299925
370
    25
100
AcDbLine
 10
84.19583716078284
 20
-145.2856039652287
 30
0.0
 11
84.70983438287635
 21
-145.6673095206886
 31
0.0
  0
LINE
  5
C2
330
B2
100
AcDbEntity
  8
レイヤー 1
 62
   250
420
  2299925
370
    25
100
AcDbLine
 10
84.70983438287635
 20
-145.6673095206886
 30
0.0
 11
85.19560938275505
 21
-145.2497617430151
 31
0.0
  0
LINE
  5
C3
330
B2
100
AcDbEntity
  8
レイヤー 1
 62
   250
420
  2299925
370
    25
100
AcDbLine
 10
85.19560938275505
 20
-145.2497617430151
 30
0.0
 11
85.70960660484889
 21
-145.6318553540306
 31
0.0
  0
LINE
  5
C4
330
B2
100
AcDbEntity
  8
レイヤー 1
 62
   250
420
  2299925
370
    25
100
AcDbLine
 10
85.70960660484889
 20
-145.6318553540306
 30
0.0
 11
86.19467604917208
 21
-145.2143075763571
 31
0.0
  0
LINE
  5
C5
330
B2
100
AcDbEntity
  8
レイヤー 1
 62
   250
420
  2299925
370
    25
100
AcDbLine
 10
86.19467604917208
 20
-145.2143075763571
 30
0.0
 11
86.70870854904343
 21
-145.5963659095952
 31
0.0
  0
LINE
  5
C6
330
B2
100
AcDbEntity
  8
レイヤー 1
 62
   250
420
  2299925
370
    25
100
AcDbLine
 10
86.70870854904343
 20
-145.5963659095952
 30
0.0
 11
87.19409549336653
 21
-145.1784653541439
 31
0.0
  0
LINE
  5
C7
330
B2
100
AcDbEntity
  8
レイヤー 1
 62
   250
420
  2299925
370
    25
100
AcDbLine
 10
87.7081279932379
 20
-145.5605236873819
 30
0.0
 11
88.193514937561
 21
-145.1429759097084
 31
0.0
  0
LINE
  5
C8
330
B2
100
AcDbEntity
  8
レイヤー 1
 62
   250
420
  2299925
370
    25
100
AcDbLine
 10
87.19409549336653
 20
-145.1784653541439
 30
0.0
 11
87.7081279932379
 21
-145.5605236873819
 31
0.0
  0
LINE
  5
C9
330
B2
100
AcDbEntity
  8
レイヤー 1
 62
   250
420
  2299925
370
    25
100
AcDbLine
 10
88.193514937561
 20
-145.1429759097084
 30
0.0
 11
88.70754743743267
 21
-145.5246814651687
 31
0.0
  0
LINE
  5
CA
330
B2
100
AcDbEntity
  8
レイヤー 1
 62
   250
420
  2299925
370
    25
100
AcDbLine
 10
88.70754743743267
 20
-145.5246814651687
 30
0.0
 11
89.19293438175577
 21
-145.1071336874952
 31
0.0
  0
LINE
  5
CB
330
B2
100
AcDbEntity
  8
レイヤー 1
 62
   250
420
  2299925
370
    25
100
AcDbLine
 10
89.70661410384968
 20
-145.4888745207329
 30
0.0
 11
90.19238910372806
 21
-145.0713267430598
 31
0.0
  0
LINE
  5
CC
330
B2
100
AcDbEntity
  8
レイヤー 1
 62
   250
420
  2299925
370
    25
100
AcDbLine
 10
89.19293438175577
 20
-145.1071336874952
 30
0.0
 11
89.70661410384968
 21
-145.4888745207329
 31
0.0
  0
LINE
  5
CD
330
B2
100
AcDbEntity
  8
レイヤー 1
 62
   250
420
  2299925
370
    25
100
AcDbLine
 10
90.70638632582191
 20
-145.4533850762975
 30
0.0
 11
91.19145577014508
 21
-145.0358372986243
 31
0.0
  0
LINE
  5
CE
330
B2
100
AcDbEntity
  8
レイヤー 1
 62
   250
420
  2299925
370
    25
100
AcDbLine
 10
90.19238910372806
 20
-145.0713267430598
 30
0.0
 11
90.70638632582191
 21
-145.4533850762975
 31
0.0
  0
LINE
  5
CF
330
B2
100
AcDbEntity
  8
レイヤー 1
 62
   250
420
  2299925
370
    25
100
AcDbLine
 10
91.19145577014508
 20
-145.0358372986243
 30
0.0
 11
91.70545299223894
 21
-145.4178956318623
 31
0.0
  0
LINE
  5
D0
330
B2
100
AcDbEntity
  8
レイヤー 1
 62
   250
420
  2299925
370
    25
100
AcDbLine
 10
91.70545299223894
 20
-145.4178956318623
 30
0.0
 11
92.1912279921173
 21
-144.9999950764107
 31
0.0
  0
LINE
  5
D1
330
B2
100
AcDbEntity
  8
レイヤー 1
 62
   250
420
  2299925
370
    25
100
AcDbLine
 10
92.1912279921173
 20
-144.9999950764107
 30
0.0
 11
92.70487243643339
 21
-145.3820534096487
 31
0.0
  0
LINE
  5
D2
330
B2
100
AcDbEntity
  8
レイヤー 1
 62
   250
420
  2299925
370
    25
100
AcDbLine
 10
92.70487243643339
 20
-145.3820534096487
 30
0.0
 11
93.19029465853432
 21
-144.9645409097527
 31
0.0
  0
LINE
  5
D3
330
B2
100
AcDbEntity
  8
レイヤー 1
 62
   250
420
  2299925
370
    25
100
AcDbLine
 10
93.19029465853432
 20
-144.9645409097527
 30
0.0
 11
93.70429098276575
 21
-145.3462464652133
 31
0.0
  0
LINE
  5
D4
330
B2
100
AcDbEntity
  8
レイヤー 1
 62
   250
420
  2299925
370
    25
100
AcDbLine
 10
93.70429098276575
 20
-145.3462464652133
 30
0.0
 11
94.18971319260384
 21
-144.9286986875401
 31
0.0
  0
LINE
  5
D5
330
B2
100
AcDbEntity
  8
レイヤー 1
 62
   250
420
  2299925
370
    25
100
AcDbLine
 10
94.18971319260384
 20
-144.9286986875401
 30
0.0
 11
94.70371040171288
 21
-145.3104042430001
 31
0.0
  0
LINE
  5
D6
330
B2
100
AcDbEntity
  8
レイヤー 1
 62
   250
420
  2299925
370
    25
100
AcDbLine
 10
94.70371040171288
 20
-145.3104042430001
 30
0.0
 11
95.18913261155127
 21
-144.8928564653269
 31
0.0
  0
LINE
  5
D7
330
B2
100
AcDbEntity
  8
レイヤー 1
 62
   250
420
  2299925
370
    25
100
AcDbLine
 10
95.18913261155127
 20
-144.8928564653269
 30
0.0
 11
95.7031650984369
 21
-145.2749147985643
 31
0.0
  0
LINE
  5
D8
330
B2
100
AcDbEntity
  8
レイヤー 1
 62
   250
420
  2299925
370
    25
100
AcDbLine
 10
95.7031650984369
 20
-145.2749147985643
 30
0.0
 11
96.1882345305062
 21
-144.8573670208911
 31
0.0
  0
LINE
  5
D9
330
B2
100
AcDbEntity
  8
レイヤー 1
 62
   250
420
  2299925
370
    25
100
AcDbLine
 10
96.1882345305062
 20
-144.8573670208911
 30
0.0
 11
96.70223173961524
 21
-145.2394253541288
 31
0.0
  0
LINE
  5
DA
330
B2
100
AcDbEntity
  8
レイヤー 1
 62
   250
420
  2299925
370
    25
100
AcDbLine
 10
96.70223173961524
 20
-145.2394253541288
 30
0.0
 11
97.18797144944554
 21
-144.8215600764553
 31
0.0
  0
LINE
  5
DB
330
B2
100
AcDbEntity
  8
レイヤー 1
 62
   250
420
  2299925
370
    25
100
AcDbLine
 10
97.18797144944554
 20
-144.8215600764553
 30
0.0
 11
97.70200393633116
 21
-145.2036184096933
 31
0.0
  0
LINE
  5
DC
330
B2
100
AcDbEntity
  8
レイヤー 1
 62
   250
420
  2299925
370
    25
100
AcDbLine
 10
97.70200393633116
 20
-145.2036184096933
 30
0.0
 11
98.18707336840013
 21
-144.7860706320199
 31
0.0
  0
LINE
  5
DD
330
B2
100
AcDbEntity
  8
レイヤー 1
 62
   250
420
  2299925
370
    25
100
AcDbLine
 10
98.18707336840013
 20
-144.7860706320199
 30
0.0
 11
98.70107057750951
 21
-145.1677761874801
 31
0.0
  0
LINE
  5
DE
330
B2
100
AcDbEntity
  8
レイヤー 1
 62
   250
420
  2299925
370
    25
100
AcDbLine
 10
98.70107057750951
 20
-145.1677761874801
 30
0.0
 11
99.1861400095788
 21
-144.7502284098066
 31
0.0
  0
LINE
  5
DF
330
B2
100
AcDbEntity
  8
レイヤー 1
 62
   250
420
  2299925
370
    25
100
AcDbLine
 10
99.1861400095788
 20
-144.7502284098066
 30
0.0
 11
99.70013721868786
 21
-145.1319692430447
 31
0.0
  0
LINE
  5
E0
330
B2
100
AcDbEntity
  8
レイヤー 1
 62
   250
420
  2299925
370
    25
100
AcDbLine
 10
99.70013721868786
 20
-145.1319692430447
 30
0.0
 11
100.1859122062944
 21
-144.7144214653712
 31
0.0
  0
LINE
  5
E1
330
B2
100
AcDbEntity
  8
レイヤー 1
 62
   250
420
  2299925
370
    25
100
AcDbLine
 10
100.2434837668456
 20
-144.6661614653832
 30
0.0
 11
101.2001482915305
 21
-144.6661614653832
 31
0.0
  0
LINE
  5
E2
330
B2
100
AcDbEntity
  8
レイヤー 1
 62
   250
420
  2299925
370
    25
100
AcDbLine
 10
101.2001482915305
 20
-144.6661614653832
 30
0.0
 11
101.2001482915305
 21
-152.9282170188733
 31
0.0
  0
LINE
  5
E3
330
B2
100
AcDbEntity
  8
レイヤー 1
 62
   250
420
  2299925
370
    25
100
AcDbLine
 10
100.199670539277
 20
-145.928470909512
 30
0.0
 11
100.199670539277
 21
-153.9283067408454
 31
0.0
  0
LINE
  5
E4
330
B2
100
AcDbEntity
  8
レイヤー 1
 62
   250
420
  2299925
370
    25
100
AcDbLine
 10
110.1998810922215
 20
-152.9282170188733
 30
0.0
 11
101.2001482915305
 21
-152.9282170188733
 31
0.0
  0
LINE
  5
E5
330
B2
100
AcDbEntity
  8
レイヤー 1
 62
   250
420
  2299925
370
    25
100
AcDbLine
 10
121.2076410613528
 20
-145.0713267430598
 30
0.0
 11
120.6936438522438
 21
-145.4533850762975
 31
0.0
  0
LINE
  5
E6
330
B2
100
AcDbEntity
  8
レイヤー 1
 62
   250
420
  2299925
370
    25
100
AcDbLine
 10
126.2044206560966
 20
-145.2497617430151
 30
0.0
 11
125.6903881692106
 21
-145.6318553540306
 31
0.0
  0
LINE
  5
E7
330
B2
100
AcDbEntity
  8
レイヤー 1
 62
   250
420
  2299925
370
    25
100
AcDbLine
 10
121.6927104934221
 20
-145.4888745207329
 30
0.0
 11
121.2076410613528
 21
-145.0713267430598
 31
0.0
  0
LINE
  5
E8
330
B2
100
AcDbEntity
  8
レイヤー 1
 62
   250
420
  2299925
370
    25
100
AcDbLine
 10
122.692482690138
 20
-145.5246814651687
 30
0.0
 11
122.2067077025312
 21
-145.1071336874952
 31
0.0
  0
LINE
  5
E9
330
B2
100
AcDbEntity
  8
レイヤー 1
 62
   250
420
  2299925
370
    25
100
AcDbLine
 10
120.6936438522438
 20
-145.4533850762975
 30
0.0
 11
120.2078688646369
 21
-145.0358372986243
 31
0.0
  0
LINE
  5
EA
330
B2
100
AcDbEntity
  8
レイヤー 1
 62
   250
420
  2299925
370
    25
100
AcDbLine
 10
122.2067077025312
 20
-145.1071336874952
 30
0.0
 11
121.6927104934221
 21
-145.4888745207329
 31
0.0
  0
LINE
  5
EB
330
B2
100
AcDbEntity
  8
レイヤー 1
 62
   250
420
  2299925
370
    25
100
AcDbLine
 10
130.2020983318851
 20
-145.3927425763128
 30
0.0
 11
129.6881011227761
 21
-145.7748009095508
 31
0.0
  0
LINE
  5
EC
330
B2
100
AcDbEntity
  8
レイヤー 1
 62
   250
420
  2299925
370
    25
100
AcDbLine
 10
123.2064798992471
 20
-145.1429759097084
 30
0.0
 11
122.692482690138
 21
-145.5246814651687
 31
0.0
  0
LINE
  5
ED
330
B2
100
AcDbEntity
  8
レイヤー 1
 62
   250
420
  2299925
370
    25
100
AcDbLine
 10
124.2055818182023
 20
-145.1784653541439
 30
0.0
 11
123.6915493313164
 21
-145.5605236873819
 31
0.0
  0
LINE
  5
EE
330
B2
100
AcDbEntity
  8
レイヤー 1
 62
   250
420
  2299925
370
    25
100
AcDbLine
 10
110.1998810644064
 20
-144.6661614653832
 30
0.0
 11
110.1998810644064
 21
-152.9282170188733
 31
0.0
  0
LINE
  5
EF
330
B2
100
AcDbEntity
  8
レイヤー 1
 62
   250
420
  2299925
370
    25
100
AcDbLine
 10
123.6915493313164
 20
-145.5605236873819
 30
0.0
 11
123.2064798992471
 21
-145.1429759097084
 31
0.0
  0
LINE
  5
F0
330
B2
100
AcDbEntity
  8
レイヤー 1
 62
   250
420
  2299925
370
    25
100
AcDbLine
 10
124.6913215280323
 20
-145.5963659095952
 30
0.0
 11
124.2055818182023
 21
-145.1784653541439
 31
0.0
  0
LINE
  5
F1
330
B2
100
AcDbEntity
  8
レイヤー 1
 62
   250
420
  2299925
370
    25
100
AcDbLine
 10
129.6881011227761
 20
-145.7748009095508
 30
0.0
 11
129.2023261351692
 21
-145.3569356318771
 31
0.0
  0
LINE
  5
F2
330
B2
100
AcDbEntity
  8
レイヤー 1
 62
   250
420
  2299925
370
    25
100
AcDbLine
 10
125.2046484593807
 20
-145.2143075763571
 30
0.0
 11
124.6913215280323
 21
-145.5963659095952
 31
0.0
  0
LINE
  5
F3
330
B2
100
AcDbEntity
  8
レイヤー 1
 62
   250
420
  2299925
370
    25
100
AcDbLine
 10
125.6903881692106
 20
-145.6318553540306
 30
0.0
 11
125.2046484593807
 21
-145.2143075763571
 31
0.0
  0
LINE
  5
F4
330
B2
100
AcDbEntity
  8
レイヤー 1
 62
   250
420
  2299925
370
    25
100
AcDbLine
 10
130.6871677639544
 20
-145.810290353986
 30
0.0
 11
130.2020983318851
 21
-145.3927425763128
 31
0.0
  0
LINE
  5
F5
330
B2
100
AcDbEntity
  8
レイヤー 1
 62
   250
420
  2299925
370
    25
100
AcDbLine
 10
127.2034872972749
 20
-145.2856039652287
 30
0.0
 11
126.6894900881659
 21
-145.6673095206886
 31
0.0
  0
LINE
  5
F6
330
B2
100
AcDbEntity
  8
レイヤー 1
 62
   250
420
  2299925
370
    25
100
AcDbLine
 10
128.2032594939909
 20
-145.3214461874416
 30
0.0
 11
127.6892622848818
 21
-145.7031517429019
 31
0.0
  0
LINE
  5
F7
330
B2
100
AcDbEntity
  8
レイヤー 1
 62
   250
420
  2299925
370
    25
100
AcDbLine
 10
127.6892622848818
 20
-145.7031517429019
 30
0.0
 11
127.2034872972749
 21
-145.2856039652287
 31
0.0
  0
LINE
  5
F8
330
B2
100
AcDbEntity
  8
レイヤー 1
 62
   250
420
  2299925
370
    25
100
AcDbLine
 10
131.2011649730635
 20
-145.4282320207483
 30
0.0
 11
130.6871677639544
 21
-145.810290353986
 31
0.0
  0
LINE
  5
F9
330
B2
100
AcDbEntity
  8
レイヤー 1
 62
   250
420
  2299925
370
    25
100
AcDbLine
 10
126.6894900881659
 20
-145.6673095206886
 30
0.0
 11
126.2044206560966
 21
-145.2497617430151
 31
0.0
  0
LINE
  5
FA
330
B2
100
AcDbEntity
  8
レイヤー 1
 62
   250
420
  2299925
370
    25
100
AcDbLine
 10
129.2023261351692
 20
-145.3569356318771
 30
0.0
 11
128.6883289260601
 21
-145.7389939651151
 31
0.0
  0
LINE
  5
FB
330
B2
100
AcDbEntity
  8
レイヤー 1
 62
   250
420
  2299925
370
    25
100
AcDbLine
 10
128.6883289260601
 20
-145.7389939651151
 30
0.0
 11
128.2032594939909
 21
-145.3214461874416
 31
0.0
  0
LINE
  5
FC
330
B2
100
AcDbEntity
  8
レイヤー 1
 62
   250
420
  2299925
370
    25
100
AcDbLine
 10
131.2011649730635
 20
-145.4282320207483
 30
0.0
 11
131.2011649730635
 21
-145.928470909512
 31
0.0
  0
LINE
  5
FD
330
B2
100
AcDbEntity
  8
レイヤー 1
 62
   250
420
  2299925
370
    25
100
AcDbLine
 10
111.1996532611223
 20
-145.928470909512
 30
0.0
 11
131.2011649730635
 21
-145.928470909512
 31
0.0
  0
LINE
  5
FE
330
B2
100
AcDbEntity
  8
レイヤー 1
 62
   250
420
  2299925
370
    25
100
AcDbLine
 10
120.2078688646369
 20
-145.0358372986243
 30
0.0
 11
119.6938716555279
 21
-145.4178956318623
 31
0.0
  0
LINE
  5
FF
330
B2
100
AcDbEntity
  8
レイヤー 1
 62
   250
420
  2299925
370
    25
100
AcDbLine
 10
119.6938716555279
 20
-145.4178956318623
 30
0.0
 11
119.2088022234586
 21
-144.9999950764107
 31
0.0
  0
LINE
  5
100
330
B2
100
AcDbEntity
  8
レイヤー 1
 62
   250
420
  2299925
370
    25
100
AcDbLine
 10
119.2088022234586
 20
-144.9999950764107
 30
0.0
 11
118.6948050143495
 21
-145.3820534096487
 31
0.0
  0
LINE
  5
101
330
B2
100
AcDbEntity
  8
レイヤー 1
 62
   250
420
  2299925
370
    25
100
AcDbLine
 10
118.6948050143495
 20
-145.3820534096487
 30
0.0
 11
118.2097355822802
 21
-144.9645409097527
 31
0.0
  0
LINE
  5
102
330
B2
100
AcDbEntity
  8
レイヤー 1
 62
   250
420
  2299925
370
    25
100
AcDbLine
 10
118.2097355822802
 20
-144.9645409097527
 30
0.0
 11
117.6957030953943
 21
-145.3462464652133
 31
0.0
  0
LINE
  5
103
330
B2
100
AcDbEntity
  8
レイヤー 1
 62
   250
420
  2299925
370
    25
100
AcDbLine
 10
117.6957030953943
 20
-145.3462464652133
 30
0.0
 11
117.2099633855643
 21
-144.9286986875401
 31
0.0
  0
LINE
  5
104
330
B2
100
AcDbEntity
  8
レイヤー 1
 62
   250
420
  2299925
370
    25
100
AcDbLine
 10
117.2099633855643
 20
-144.9286986875401
 30
0.0
 11
116.6959308986784
 21
-145.3104042430001
 31
0.0
  0
LINE
  5
105
330
B2
100
AcDbEntity
  8
レイヤー 1
 62
   250
420
  2299925
370
    25
100
AcDbLine
 10
116.6959308986784
 20
-145.3104042430001
 30
0.0
 11
116.2108614666091
 21
-144.8928564653269
 31
0.0
  0
LINE
  5
106
330
B2
100
AcDbEntity
  8
レイヤー 1
 62
   250
420
  2299925
370
    25
100
AcDbLine
 10
116.2108614666091
 20
-144.8928564653269
 30
0.0
 11
115.6968642575
 21
-145.2749147985643
 31
0.0
  0
LINE
  5
107
330
B2
100
AcDbEntity
  8
レイヤー 1
 62
   250
420
  2299925
370
    25
100
AcDbLine
 10
115.6968642575
 20
-145.2749147985643
 30
0.0
 11
115.2111245476701
 21
-144.8573670208911
 31
0.0
  0
LINE
  5
108
330
B2
100
AcDbEntity
  8
レイヤー 1
 62
   250
420
  2299925
370
    25
100
AcDbLine
 10
115.2111245476701
 20
-144.8573670208911
 30
0.0
 11
114.6970920607835
 21
-145.2394253541288
 31
0.0
  0
LINE
  5
109
330
B2
100
AcDbEntity
  8
レイヤー 1
 62
   250
420
  2299925
370
    25
100
AcDbLine
 10
114.6970920607835
 20
-145.2394253541288
 30
0.0
 11
114.2120226287142
 21
-144.8215600764553
 31
0.0
  0
LINE
  5
10A
330
B2
100
AcDbEntity
  8
レイヤー 1
 62
   250
420
  2299925
370
    25
100
AcDbLine
 10
114.2120226287142
 20
-144.8215600764553
 30
0.0
 11
113.6980254196058
 21
-145.2036184096933
 31
0.0
  0
LINE
  5
10B
330
B2
100
AcDbEntity
  8
レイヤー 1
 62
   250
420
  2299925
370
    25
100
AcDbLine
 10
113.6980254196058
 20
-145.2036184096933
 30
0.0
 11
113.2129559875365
 21
-144.7860706320199
 31
0.0
  0
LINE
  5
10C
330
B2
100
AcDbEntity
  8
レイヤー 1
 62
   250
420
  2299925
370
    25
100
AcDbLine
 10
113.2129559875365
 20
-144.7860706320199
 30
0.0
 11
112.6989587784274
 21
-145.1677761874801
 31
0.0
  0
LINE
  5
10D
330
B2
100
AcDbEntity
  8
レイヤー 1
 62
   250
420
  2299925
370
    25
100
AcDbLine
 10
112.6989587784274
 20
-145.1677761874801
 30
0.0
 11
112.2131837908206
 21
-144.7502284098066
 31
0.0
  0
LINE
  5
10E
330
B2
100
AcDbEntity
  8
レイヤー 1
 62
   250
420
  2299925
370
    25
100
AcDbLine
 10
112.2131837908206
 20
-144.7502284098066
 30
0.0
 11
111.6991865817115
 21
-145.1319692430447
 31
0.0
  0
LINE
  5
10F
330
B2
100
AcDbEntity
  8
レイヤー 1
 62
   250
420
  2299925
370
    25
100
AcDbLine
 10
111.6991865817115
 20
-145.1319692430447
 30
0.0
 11
111.2141171496422
 21
-144.7144214653712
 31
0.0
  0
LINE
  5
110
330
B2
100
AcDbEntity
  8
レイヤー 1
 62
   250
420
  2299925
370
    25
100
AcDbLine
 10
111.1377129727166
 20
-144.6661614653832
 30
0.0
 11
110.1998810644064
 21
-144.6661614653832
 31
0.0
  0
LINE
  5
111
330
B2
100
AcDbEntity
  8
レイヤー 1
 62
   250
420
  2299925
370
    25
100
AcDbLine
 10
111.1996532611223
 20
-145.928470909512
 30
0.0
 11
111.1996532611223
 21
-153.9283067408454
 31
0.0
  0
SPLINE
  5
112
330
B2
100
AcDbEntity
  8
レイヤー 1
 62
   250
420
  2299925
370
     9
100
AcDbSpline
210
0.0
220
0.0
230
1.0
 70
     9
 71
     3
 72
    17
 73
    13
 74
     0
 42
0.0000000001
 43
0.0000000001
 40
0.0
 40
0.0
 40
0.0
 40
0.0
 40
1.0
 40
1.0
 40
1.0
 40
2.0
 40
2.0
 40
2.0
 40
3.0
 40
3.0
 40
3.0
 40
4.0
 40
4.0
 40
4.0
 40
4.0
 10
80.29873632842367
 20
-140.6664375774941
 30
0.0
 10
80.29873632842367
 20
-140.6109456330636
 30
0.0
 10
80.25396882843512
 20
-140.5661781330747
 30
0.0
 10
80.19882966178204
 20
-140.5661781330747
 30
0.0
 10
80.14337299512936
 20
-140.5661781330747
 30
0.0
 10
80.09860549514048
 20
-140.6109456330636
 30
0.0
 10
80.09860549514048
 20
-140.6664375774941
 30
0.0
 10
80.09860549514048
 20
-140.7215414663697
 30
0.0
 10
80.14337299512936
 20
-140.7663442441361
 30
0.0
 10
80.19882966178204
 20
-140.7663442441361
 30
0.0
 10
80.25396882843512
 20
-140.7663442441361
 30
0.0
 10
80.29873632842367
 20
-140.7215414663697
 30
0.0
 10
80.29873632842367
 20
-140.6664375774941
 30
0.0
  0
SPLINE
  5
113
330
B2
100
AcDbEntity
  8
レイヤー 1
 62
   250
420
  2299925
370
     9
100
AcDbSpline
210
0.0
220
0.0
230
1.0
 70
     9
 71
     3
 72
    17
 73
    13
 74
     0
 42
0.0000000001
 43
0.0000000001
 40
0.0
 40
0.0
 40
0.0
 40
0.0
 40
1.0
 40
1.0
 40
1.0
 40
2.0
 40
2.0
 40
2.0
 40
3.0
 40
3.0
 40
3.0
 40
4.0
 40
4.0
 40
4.0
 40
4.0
 10
78.06907494009209
 20
-145.4282320207483
 30
0.0
 10
78.06907494009209
 20
-145.3731281318731
 30
0.0
 10
78.02430744010353
 20
-145.3283253541067
 30
0.0
 10
77.96881549567301
 20
-145.3283253541067
 30
0.0
 10
77.91371160679777
 20
-145.3283253541067
 30
0.0
 10
77.86890882903169
 20
-145.3731281318731
 30
0.0
 10
77.86890882903169
 20
-145.4282320207483
 30
0.0
 10
77.86890882903169
 20
-145.4833711874011
 30
0.0
 10
77.91371160679777
 20
-145.5281386873903
 30
0.0
 10
77.96881549567301
 20
-145.5281386873903
 30
0.0
 10
78.02430744010353
 20
-145.5281386873903
 30
0.0
 10
78.06907494009209
 20
-145.4833711874011
 30
0.0
 10
78.06907494009209
 20
-145.4282320207483
 30
0.0
  0
SPLINE
  5
114
330
B2
100
AcDbEntity
  8
レイヤー 1
 62
   250
420
  2299925
370
     9
100
AcDbSpline
210
0.0
220
0.0
230
1.0
 70
     9
 71
     3
 72
    17
 73
    13
 74
     0
 42
0.0000000001
 43
0.0000000001
 40
0.0
 40
0.0
 40
0.0
 40
0.0
 40
1.0
 40
1.0
 40
1.0
 40
2.0
 40
2.0
 40
2.0
 40
3.0
 40
3.0
 40
3.0
 40
4.0
 40
4.0
 40
4.0
 40
4.0
 10
78.06907494009209
 20
-145.928470909512
 30
0.0
 10
78.06907494009209
 20
-145.8733317428593
 30
0.0
 10
78.02430744010353
 20
-145.8285642428704
 30
0.0
 10
77.96881549567301
 20
-145.8285642428704
 30
0.0
 10
77.91371160679777
 20
-145.8285642428704
 30
0.0
 10
77.86890882903169
 20
-145.8733317428593
 30
0.0
 10
77.86890882903169
 20
-145.928470909512
 30
0.0
 10
77.86890882903169
 20
-145.9835747983873
 30
0.0
 10
77.91371160679777
 20
-146.0283775761537
 30
0.0
 10
77.96881549567301
 20
-146.0283775761537
 30
0.0
 10
78.02430744010353
 20
-146.0283775761537
 30
0.0
 10
78.06907494009209
 20
-145.9835747983873
 30
0.0
 10
78.06907494009209
 20
-145.928470909512
 30
0.0
  0
SPLINE
  5
115
330
B2
100
AcDbEntity
  8
レイヤー 1
 62
   250
420
  2299925
370
     9
100
AcDbSpline
210
0.0
220
0.0
230
1.0
 70
     9
 71
     3
 72
    17
 73
    13
 74
     0
 42
0.0000000001
 43
0.0000000001
 40
0.0
 40
0.0
 40
0.0
 40
0.0
 40
1.0
 40
1.0
 40
1.0
 40
2.0
 40
2.0
 40
2.0
 40
3.0
 40
3.0
 40
3.0
 40
4.0
 40
4.0
 40
4.0
 40
4.0
 10
78.06907494009209
 20
-153.9283067408454
 30
0.0
 10
78.06907494009209
 20
-153.8732028519705
 30
0.0
 10
78.02430744010353
 20
-153.8284000742038
 30
0.0
 10
77.96881549567301
 20
-153.8284000742038
 30
0.0
 10
77.91371160679777
 20
-153.8284000742038
 30
0.0
 10
77.86890882903169
 20
-153.8732028519705
 30
0.0
 10
77.86890882903169
 20
-153.9283067408454
 30
0.0
 10
77.86890882903169
 20
-153.9836222963874
 30
0.0
 10
77.91371160679777
 20
-154.0283897963759
 30
0.0
 10
77.96881549567301
 20
-154.0283897963759
 30
0.0
 10
78.02430744010353
 20
-154.0283897963759
 30
0.0
 10
78.06907494009209
 20
-153.9836222963874
 30
0.0
 10
78.06907494009209
 20
-153.9283067408454
 30
0.0
  0
SPLINE
  5
116
330
B2
100
AcDbEntity
  8
レイヤー 1
 62
   250
420
  2299925
370
     9
100
AcDbSpline
210
0.0
220
0.0
230
1.0
 70
     9
 71
     3
 72
    17
 73
    13
 74
     0
 42
0.0000000001
 43
0.0000000001
 40
0.0
 40
0.0
 40
0.0
 40
0.0
 40
1.0
 40
1.0
 40
1.0
 40
2.0
 40
2.0
 40
2.0
 40
3.0
 40
3.0
 40
3.0
 40
4.0
 40
4.0
 40
4.0
 40
4.0
 10
101.3000549556483
 20
-140.6664375774941
 30
0.0
 10
101.3000549556483
 20
-140.6109456330636
 30
0.0
 10
101.2552521790136
 20
-140.5661781330747
 30
0.0
 10
101.2001482915305
 20
-140.5661781330747
 30
0.0
 10
101.1443388485099
 20
-140.5661781330747
 30
0.0
 10
101.0995360718751
 20
-140.6109456330636
 30
0.0
 10
101.0995360718751
 20
-140.6664375774941
 30
0.0
 10
101.0995360718751
 20
-140.7215414663697
 30
0.0
 10
101.1443388485099
 20
-140.7663442441361
 30
0.0
 10
101.2001482915305
 20
-140.7663442441361
 30
0.0
 10
101.2552521790136
 20
-140.7663442441361
 30
0.0
 10
101.3000549556483
 20
-140.7215414663697
 30
0.0
 10
101.3000549556483
 20
-140.6664375774941
 30
0.0
  0
SPLINE
  5
117
330
B2
100
AcDbEntity
  8
レイヤー 1
 62
   250
420
  2299925
370
     9
100
AcDbSpline
210
0.0
220
0.0
230
1.0
 70
     9
 71
     3
 72
    17
 73
    13
 74
     0
 42
0.0000000001
 43
0.0000000001
 40
0.0
 40
0.0
 40
0.0
 40
0.0
 40
1.0
 40
1.0
 40
1.0
 40
2.0
 40
2.0
 40
2.0
 40
3.0
 40
3.0
 40
3.0
 40
4.0
 40
4.0
 40
4.0
 40
4.0
 10
131.3010716371813
 20
-140.6664375774941
 30
0.0
 10
131.3010716371813
 20
-140.6109456330636
 30
0.0
 10
131.2563041383234
 20
-140.5661781330747
 30
0.0
 10
131.2011649730635
 20
-140.5661781330747
 30
0.0
 10
131.1460610855804
 20
-140.5661781330747
 30
0.0
 10
131.1012583089456
 20
-140.6109456330636
 30
0.0
 10
131.1012583089456
 20
-140.6664375774941
 30
0.0
 10
131.1012583089456
 20
-140.7215414663697
 30
0.0
 10
131.1460610855804
 20
-140.7663442441361
 30
0.0
 10
131.2011649730635
 20
-140.7663442441361
 30
0.0
 10
131.2563041383234
 20
-140.7663442441361
 30
0.0
 10
131.3010716371813
 20
-140.7215414663697
 30
0.0
 10
131.3010716371813
 20
-140.6664375774941
 30
0.0
  0
SPLINE
  5
118
330
B2
100
AcDbEntity
  8
レイヤー 1
 62
   250
420
  2299925
370
     9
100
AcDbSpline
210
0.0
220
0.0
230
1.0
 70
     9
 71
     3
 72
    17
 73
    13
 74
     0
 42
0.0000000001
 43
0.0000000001
 40
0.0
 40
0.0
 40
0.0
 40
0.0
 40
1.0
 40
1.0
 40
1.0
 40
2.0
 40
2.0
 40
2.0
 40
3.0
 40
3.0
 40
3.0
 40
4.0
 40
4.0
 40
4.0
 40
4.0
 10
110.2997877285243
 20
-140.6664375774941
 30
0.0
 10
110.2997877285243
 20
-140.6109456330636
 30
0.0
 10
110.2549849518895
 20
-140.5661781330747
 30
0.0
 10
110.1998810644064
 20
-140.5661781330747
 30
0.0
 10
110.1447432375908
 20
-140.5661781330747
 30
0.0
 10
110.0999744002886
 20
-140.6109456330636
 30
0.0
 10
110.0999744002886
 20
-140.6664375774941
 30
0.0
 10
110.0999744002886
 20
-140.7215414663697
 30
0.0
 10
110.1447432375908
 20
-140.7663442441361
 30
0.0
 10
110.1998810644064
 20
-140.7663442441361
 30
0.0
 10
110.2549849518895
 20
-140.7663442441361
 30
0.0
 10
110.2997877285243
 20
-140.7215414663697
 30
0.0
 10
110.2997877285243
 20
-140.6664375774941
 30
0.0
  0
LINE
  5
119
330
B2
100
AcDbEntity
  8
レイヤー 1
 62
   250
420
  2299925
370
     9
100
AcDbLine
 10
77.96881549567301
 20
-145.4282320207483
 30
0.0
 11
77.96881549567301
 21
-140.1706789665072
 31
0.0
  0
LINE
  5
11A
330
B2
100
AcDbEntity
  8
レイヤー 1
 62
   250
420
  2299925
370
     9
100
AcDbLine
 10
77.96881549567301
 20
-145.4282320207483
 30
0.0
 11
77.96881549567301
 21
-145.928470909512
 31
0.0
  0
LINE
  5
11B
330
B2
100
AcDbEntity
  8
レイヤー 1
 62
   250
420
  2299925
370
     9
100
AcDbLine
 10
79.42885688419671
 20
-145.4282320207483
 30
0.0
 11
76.96907855147832
 21
-145.4282320207483
 31
0.0
  0
LINE
  5
11C
330
B2
100
AcDbEntity
  8
レイヤー 1
 62
   250
420
  2299925
370
     9
100
AcDbLine
 10
79.42885688419671
 20
-145.928470909512
 30
0.0
 11
76.96907855147832
 21
-145.928470909512
 31
0.0
  0
INSERT
  5
11E
330
B2
100
AcDbEntity
  8
レイヤー 1
100
AcDbBlockReference
  2
Block_5
 10
0.0
 20
0.0
 30
0.0
  0
LINE
  5
12C
330
B2
100
AcDbEntity
  8
レイヤー 1
 62
   250
420
  2299925
370
     9
100
AcDbLine
 10
80.19882966178204
 20
-140.6664375774941
 30
0.0
 11
101.2001482915305
 21
-140.6664375774941
 31
0.0
  0
LINE
  5
12D
330
B2
100
AcDbEntity
  8
レイヤー 1
 62
   250
420
  2299925
370
     9
100
AcDbLine
 10
80.19882966178204
 20
-142.8885142436055
 30
0.0
 11
80.19882966178204
 21
-139.6663125777442
 31
0.0
  0
INSERT
  5
12F
330
B2
100
AcDbEntity
  8
レイヤー 1
100
AcDbBlockReference
  2
Block_7
 10
0.0
 20
0.0
 30
0.0
  0
LINE
  5
13A
330
B2
100
AcDbEntity
  8
レイヤー 1
 62
   250
420
  2299925
370
     9
100
AcDbLine
 10
77.96881549567301
 20
-145.928470909512
 30
0.0
 11
77.96881549567301
 21
-153.9283067408454
 31
0.0
  0
LINE
  5
13B
330
B2
100
AcDbEntity
  8
レイヤー 1
 62
   250
420
  2299925
370
     9
100
AcDbLine
 10
99.43040437919627
 20
-153.9283067408454
 30
0.0
 11
76.96907855147832
 21
-153.9283067408454
 31
0.0
  0
INSERT
  5
13D
330
B2
100
AcDbEntity
  8
レイヤー 1
100
AcDbBlockReference
  2
Block_9
 10
0.0
 20
0.0
 30
0.0
  0
LINE
  5
144
330
B2
100
AcDbEntity
  8
レイヤー 1
 62
   250
420
  2299925
370
     9
100
AcDbLine
 10
131.2011649730635
 20
-140.6664375774941
 30
0.0
 11
110.1998810644064
 21
-140.6664375774941
 31
0.0
  0
LINE
  5
145
330
B2
100
AcDbEntity
  8
レイヤー 1
 62
   250
420
  2299925
370
     9
100
AcDbLine
 10
131.2011649730635
 20
-142.8885142436055
 30
0.0
 11
131.2011649730635
 21
-139.6663125777442
 31
0.0
  0
INSERT
  5
147
330
B2
100
AcDbEntity
  8
レイヤー 1
100
AcDbBlockReference
  2
Block_10
 10
0.0
 20
0.0
 30
0.0
  0
LINE
  5
152
330
B2
100
AcDbEntity
  8
レイヤー 1
 62
   250
420
  2299925
370
     9
100
AcDbLine
 10
101.2001482915305
 20
-140.6664375774941
 30
0.0
 11
110.1998810922215
 21
-140.6664375774941
 31
0.0
  0
LINE
  5
153
330
B2
100
AcDbEntity
  8
レイヤー 1
 62
   250
420
  2299925
370
     9
100
AcDbLine
 10
101.2001482915305
 20
-142.1264436882403
 30
0.0
 11
101.2001482915305
 21
-139.6663125777442
 31
0.0
  0
LINE
  5
154
330
B2
100
AcDbEntity
  8
レイヤー 1
 62
   250
420
  2299925
370
     9
100
AcDbLine
 10
110.1998810644064
 20
-142.1264436882403
 30
0.0
 11
110.1998810644064
 21
-139.6663125777442
 31
0.0
  0
INSERT
  5
156
330
B2
100
AcDbEntity
  8
レイヤー 1
100
AcDbBlockReference
  2
Block_12
 10
0.0
 20
0.0
 30
0.0
  0
LINE
  5
15C
330
B2
100
AcDbEntity
  8
レイヤー 1
 62
   250
420
  2299925
370
     9
100
AcDbLine
 10
108.1758904603058
 20
-150.0736097973646
 30
0.0
 11
116.1760775786076
 21
-150.0736097973646
 31
0.0
  0
INSERT
  5
15E
330
B2
100
AcDbEntity
  8
レイヤー 1
100
AcDbBlockReference
  2
Block_13
 10
0.0
 20
0.0
 30
0.0
  0
ENDBLK
  5
B5
330
B2
100
AcDbEntity
  8
0
100
AcDbBlockEnd
  0
BLOCK
  5
11F
330
11D
100
AcDbEntity
  8
0
100
AcDbBlockBegin
  2
Block_5
 70
     0
 10
0.0
 20
0.0
 30
0.0
  3
Block_5
  1

  0
INSERT
  5
122
330
11D
100
AcDbEntity
  8
レイヤー 1
100
AcDbBlockReference
  2
Block_6
 10
0.0
 20
0.0
 30
0.0
  0
ENDBLK
  5
120
330
11D
100
AcDbEntity
  8
0
100
AcDbBlockEnd
  0
BLOCK
  5
123
330
121
100
AcDbEntity
  8
0
100
AcDbBlockBegin
  2
Block_6
 70
     0
 10
0.0
 20
0.0
 30
0.0
  3
Block_6
  1

  0
SPLINE
  5
125
330
121
100
AcDbEntity
  8
レイヤー 1
100
AcDbSpline
210
0.0
220
0.0
230
1.0
 70
     9
 71
     3
 72
    17
 73
    13
 74
     0
 42
0.0000000001
 43
0.0000000001
 40
0.0
 40
0.0
 40
0.0
 40
0.0
 40
1.0
 40
1.0
 40
1.0
 40
2.0
 40
2.0
 40
2.0
 40
3.0
 40
3.0
 40
3.0
 40
4.0
 40
4.0
 40
4.0
 40
4.0
 10
75.12461342522927
 20
-146.5829562350556
 30
0.0
 10
75.12461342522927
 20
-146.8327256577362
 30
0.0
 10
75.40797252889106
 20
-146.8792344467871
 30
0.0
 10
75.75282658696457
 20
-146.8792344467871
 30
0.0
 10
76.0723591932215
 20
-146.8792344467871
 30
0.0
 10
76.38121200347415
 20
-146.843060944192
 30
0.0
 10
76.38121200347415
 20
-146.5829562350556
 30
0.0
 10
76.38121200347415
 20
-146.3352538696662
 30
0.0
 10
76.09974770232923
 20
-146.2866780233241
 30
0.0
 10
75.75282658696457
 20
-146.2866780233241
 30
0.0
 10
75.43346623548192
 20
-146.2866780233241
 30
0.0
 10
75.12461342522927
 20
-146.3249185832104
 30
0.0
 10
75.12461342522927
 20
-146.5829562350556
 30
0.0
  0
SPLINE
  5
126
330
121
100
AcDbEntity
  8
レイヤー 1
100
AcDbSpline
210
0.0
220
0.0
230
1.0
 70
     9
 71
     3
 72
    29
 73
    25
 74
     0
 42
0.0000000001
 43
0.0000000001
 40
0.0
 40
0.0
 40
0.0
 40
0.0
 40
1.0
 40
1.0
 40
1.0
 40
2.0
 40
2.0
 40
2.0
 40
3.0
 40
3.0
 40
3.0
 40
4.0
 40
4.0
 40
4.0
 40
5.0
 40
5.0
 40
5.0
 40
6.0
 40
6.0
 40
6.0
 40
7.0
 40
7.0
 40
7.0
 40
8.0
 40
8.0
 40
8.0
 40
8.0
 10
76.34727781294444
 20
-146.1850477065093
 30
0.0
 10
76.55673961844762
 20
-146.2932237047461
 30
0.0
 10
76.57585989839076
 20
-146.4665120076542
 30
0.0
 10
76.57585989839076
 20
-146.5829562350556
 30
0.0
 10
76.57585989839076
 20
-146.7438421942168
 30
0.0
 10
76.52935110933988
 20
-146.8854356186606
 30
0.0
 10
76.34727781294444
 20
-146.9805202540535
 30
0.0
 10
76.15280217280208
 20
-147.0842176281595
 30
0.0
 10
75.91577960341689
 20
-147.1035101628769
 30
0.0
 10
75.75282658696457
 20
-147.1035101628769
 30
0.0
 10
75.60899385045539
 20
-147.1035101628769
 30
0.0
 10
75.35732962525789
 20
-147.0862846854506
 30
0.0
 10
75.15837536098472
 20
-146.9805202540535
 30
0.0
 10
74.95528698212924
 20
-146.8726887653651
 30
0.0
 10
74.9320325876038
 20
-146.711802806204
 30
0.0
 10
74.9320325876038
 20
-146.5829562350556
 30
0.0
 10
74.9320325876038
 20
-146.4241373331856
 30
0.0
 10
74.97647431936352
 20
-146.2804768514507
 30
0.0
 10
75.15837536098472
 20
-146.1850477065093
 30
0.0
 10
75.35095619861017
 20
-146.0858289565341
 30
0.0
 10
75.57936602928224
 20
-146.0624023072344
 30
0.0
 10
75.75282658696457
 20
-146.0624023072344
 30
0.0
 10
75.92422008735574
 20
-146.0624023072344
 30
0.0
 10
76.15486923009322
 20
-146.0837618992429
 30
0.0
 10
76.34727781294444
 20
-146.1850477065093
 30
0.0
  0
HATCH
  5
127
330
121
100
AcDbEntity
  8
レイヤー 1
 62
   250
420
  2299925
440
 33554687
100
AcDbHatch
 10
0.0
 20
0.0
 30
0.0
210
0.0
220
0.0
230
1.0
  2
SOLID
 70
     1
 71
     1
 91
        2
 92
        1
 93
        1
 72
     4
 94
        3
 73
     0
 74
     0
 95
       17
 96
       13
 40
0.0
 40
0.0
 40
0.0
 40
0.0
 40
1.0
 40
1.0
 40
1.0
 40
2.0
 40
2.0
 40
2.0
 40
3.0
 40
3.0
 40
3.0
 40
4.0
 40
4.0
 40
4.0
 40
4.0
 10
75.12461342522927
 20
-146.5829562350556
 10
75.12461342522927
 20
-146.8327256577362
 10
75.40797252889106
 20
-146.8792344467871
 10
75.75282658696457
 20
-146.8792344467871
 10
76.0723591932215
 20
-146.8792344467871
 10
76.38121200347415
 20
-146.843060944192
 10
76.38121200347415
 20
-146.5829562350556
 10
76.38121200347415
 20
-146.3352538696662
 10
76.09974770232923
 20
-146.2866780233241
 10
75.75282658696457
 20
-146.2866780233241
 10
75.43346623548192
 20
-146.2866780233241
 10
75.12461342522927
 20
-146.3249185832104
 10
75.12461342522927
 20
-146.5829562350556
 97
        0
 97
        1
330
125
 92
        1
 93
        1
 72
     4
 94
        3
 73
     0
 74
     0
 95
       29
 96
       25
 40
0.0
 40
0.0
 40
0.0
 40
0.0
 40
1.0
 40
1.0
 40
1.0
 40
2.0
 40
2.0
 40
2.0
 40
3.0
 40
3.0
 40
3.0
 40
4.0
 40
4.0
 40
4.0
 40
5.0
 40
5.0
 40
5.0
 40
6.0
 40
6.0
 40
6.0
 40
7.0
 40
7.0
 40
7.0
 40
8.0
 40
8.0
 40
8.0
 40
8.0
 10
76.34727781294444
 20
-146.1850477065093
 10
76.55673961844762
 20
-146.2932237047461
 10
76.57585989839076
 20
-146.4665120076542
 10
76.57585989839076
 20
-146.5829562350556
 10
76.57585989839076
 20
-146.7438421942168
 10
76.52935110933988
 20
-146.8854356186606
 10
76.34727781294444
 20
-146.9805202540535
 10
76.15280217280208
 20
-147.0842176281595
 10
75.91577960341689
 20
-147.1035101628769
 10
75.75282658696457
 20
-147.1035101628769
 10
75.60899385045539
 20
-147.1035101628769
 10
75.35732962525789
 20
-147.0862846854506
 10
75.15837536098472
 20
-146.9805202540535
 10
74.95528698212924
 20
-146.8726887653651
 10
74.9320325876038
 20
-146.711802806204
 10
74.9320325876038
 20
-146.5829562350556
 10
74.9320325876038
 20
-146.4241373331856
 10
74.97647431936352
 20
-146.2804768514507
 10
75.15837536098472
 20
-146.1850477065093
 10
75.35095619861017
 20
-146.0858289565341
 10
75.57936602928224
 20
-146.0624023072344
 10
75.75282658696457
 20
-146.0624023072344
 10
75.92422008735574
 20
-146.0624023072344
 10
76.15486923009322
 20
-146.0837618992429
 10
76.34727781294444
 20
-146.1850477065093
 97
        0
 97
        1
330
126
 75
     2
 76
     1
 98
        1
 10
0.0
 20
0.0
450
        0
451
        0
460
0.0
461
0.0
452
        0
462
0.0
453
        0
470

  0
SPLINE
  5
128
330
121
100
AcDbEntity
  8
レイヤー 1
100
AcDbSpline
210
0.0
220
0.0
230
1.0
 70
    11
 71
     3
 72
    17
 73
    13
 74
     0
 42
0.0000000001
 43
0.0000000001
 40
0.0
 40
0.0
 40
0.0
 40
0.0
 40
1.0
 40
1.0
 40
1.0
 40
2.0
 40
2.0
 40
2.0
 40
3.0
 40
3.0
 40
3.0
 40
4.0
 40
4.0
 40
4.0
 40
4.0
 10
76.52504473998333
 20
-145.8460503107607
 30
0.0
 10
76.52504473998333
 20
-145.8460503107607
 30
0.0
 10
76.27338051478583
 20
-145.8460503107607
 30
0.0
 10
76.27338051478583
 20
-145.8460503107607
 30
0.0
 10
76.27338051478583
 20
-145.8460503107607
 30
0.0
 10
76.27338051478583
 20
-145.5942138307889
 30
0.0
 10
76.27338051478583
 20
-145.5942138307889
 30
0.0
 10
76.27338051478583
 20
-145.5942138307889
 30
0.0
 10
76.52504473998333
 20
-145.5942138307889
 30
0.0
 10
76.52504473998333
 20
-145.5942138307889
 30
0.0
 10
76.52504473998333
 20
-145.5942138307889
 30
0.0
 10
76.52504473998333
 20
-145.8460503107607
 30
0.0
 10
76.52504473998333
 20
-145.8460503107607
 30
0.0
  0
HATCH
  5
129
330
121
100
AcDbEntity
  8
レイヤー 1
 62
   250
420
  2299925
440
 33554687
100
AcDbHatch
 10
0.0
 20
0.0
 30
0.0
210
0.0
220
0.0
230
1.0
  2
SOLID
 70
     1
 71
     1
 91
        1
 92
        1
 93
        1
 72
     4
 94
        3
 73
     0
 74
     0
 95
       17
 96
       13
 40
0.0
 40
0.0
 40
0.0
 40
0.0
 40
1.0
 40
1.0
 40
1.0
 40
2.0
 40
2.0
 40
2.0
 40
3.0
 40
3.0
 40
3.0
 40
4.0
 40
4.0
 40
4.0
 40
4.0
 10
76.52504473998333
 20
-145.8460503107607
 10
76.52504473998333
 20
-145.8460503107607
 10
76.27338051478583
 20
-145.8460503107607
 10
76.27338051478583
 20
-145.8460503107607
 10
76.27338051478583
 20
-145.8460503107607
 10
76.27338051478583
 20
-145.5942138307889
 10
76.27338051478583
 20
-145.5942138307889
 10
76.27338051478583
 20
-145.5942138307889
 10
76.52504473998333
 20
-145.5942138307889
 10
76.52504473998333
 20
-145.5942138307889
 10
76.52504473998333
 20
-145.5942138307889
 10
76.52504473998333
 20
-145.8460503107607
 10
76.52504473998333
 20
-145.8460503107607
 97
        0
 97
        1
330
128
 75
     2
 76
     1
 98
        1
 10
0.0
 20
0.0
450
        0
451
        0
460
0.0
461
0.0
452
        0
462
0.0
453
        0
470

  0
SPLINE
  5
12A
330
121
100
AcDbEntity
  8
レイヤー 1
100
AcDbSpline
210
0.0
220
0.0
230
1.0
 70
     9
 71
     3
 72
    53
 73
    49
 74
     0
 42
0.0000000001
 43
0.0000000001
 40
0.0
 40
0.0
 40
0.0
 40
0.0
 40
1.0
 40
1.0
 40
1.0
 40
2.0
 40
2.0
 40
2.0
 40
3.0
 40
3.0
 40
3.0
 40
4.0
 40
4.0
 40
4.0
 40
5.0
 40
5.0
 40
5.0
 40
6.0
 40
6.0
 40
6.0
 40
7.0
 40
7.0
 40
7.0
 40
8.0
 40
8.0
 40
8.0
 40
9.0
 40
9.0
 40
9.0
 40
10.0
 40
10.0
 40
10.0
 40
11.0
 40
11.0
 40
11.0
 40
12.0
 40
12.0
 40
12.0
 40
13.0
 40
13.0
 40
13.0
 40
14.0
 40
14.0
 40
14.0
 40
15.0
 40
15.0
 40
15.0
 40
16.0
 40
16.0
 40
16.0
 40
16.0
 10
76.57585989839076
 20
-144.8769449507599
 30
0.0
 10
76.57585989839076
 20
-144.9551486182751
 30
0.0
 10
76.55897893051303
 20
-145.0567789350899
 30
0.0
 10
76.49541691881018
 20
-145.1584092519048
 30
0.0
 10
76.38534611805645
 20
-145.3316975548129
 30
0.0
 10
76.25426023484269
 20
-145.3530571468214
 30
0.0
 10
76.14642874615437
 20
-145.3720051719903
 30
0.0
 10
76.14642874615437
 20
-145.3720051719903
 30
0.0
 10
76.14642874615437
 20
-145.1497965131917
 30
0.0
 10
76.14642874615437
 20
-145.1497965131917
 30
0.0
 10
76.34521075565328
 20
-145.0950194949762
 30
0.0
 10
76.37483857682643
 20
-144.9678954715705
 30
0.0
 10
76.37483857682643
 20
-144.8748778934688
 30
0.0
 10
76.37483857682643
 20
-144.7353515263162
 30
0.0
 10
76.27544757207697
 20
-144.5830783058681
 30
0.0
 10
76.04273137204835
 20
-144.5830783058681
 30
0.0
 10
75.78676077749427
 20
-144.5830783058681
 30
0.0
 10
75.71699759391798
 20
-144.7629122901981
 30
0.0
 10
75.71699759391798
 20
-144.8834906321819
 30
0.0
 10
75.71699759391798
 20
-144.9151855106462
 30
0.0
 10
75.71699759391798
 20
-145.0567789350899
 30
0.0
 10
75.84601641984058
 20
-145.1456623986094
 30
0.0
 10
75.84601641984058
 20
-145.1456623986094
 30
0.0
 10
75.82689613989744
 20
-145.3213622683572
 30
0.0
 10
75.82689613989744
 20
-145.3213622683572
 30
0.0
 10
75.82689613989744
 20
-145.3213622683572
 30
0.0
 10
74.98078068872009
 20
-145.2007839263734
 30
0.0
 10
74.98078068872009
 20
-145.2007839263734
 30
0.0
 10
74.98078068872009
 20
-145.2007839263734
 30
0.0
 10
74.98078068872009
 20
-144.4221923467069
 30
0.0
 10
74.98078068872009
 20
-144.4221923467069
 30
0.0
 10
74.98078068872009
 20
-144.4221923467069
 30
0.0
 10
75.1754285836367
 20
-144.4221923467069
 30
0.0
 10
75.1754285836367
 20
-144.4221923467069
 30
0.0
 10
75.1754285836367
 20
-144.4221923467069
 30
0.0
 10
75.1754285836367
 20
-145.0378309099211
 30
0.0
 10
75.1754285836367
 20
-145.0378309099211
 30
0.0
 10
75.1754285836367
 20
-145.0378309099211
 30
0.0
 10
75.59848630922537
 20
-145.1032877241408
 30
0.0
 10
75.59848630922537
 20
-145.1032877241408
 30
0.0
 10
75.56455211869567
 20
-145.0419650245034
 30
0.0
 10
75.52441675629251
 20
-144.9596272424059
 30
0.0
 10
75.52441675629251
 20
-144.8411159577133
 30
0.0
 10
75.52441675629251
 20
-144.5872124204504
 30
0.0
 10
75.71062416727027
 20
-144.3501898510652
 30
0.0
 10
76.02361109210521
 20
-144.3501898510652
 30
0.0
 10
76.34107664107098
 20
-144.3501898510652
 30
0.0
 10
76.57585989839076
 20
-144.574465567155
 30
0.0
 10
76.57585989839076
 20
-144.8769449507599
 30
0.0
  0
HATCH
  5
12B
330
121
100
AcDbEntity
  8
レイヤー 1
 62
   250
420
  2299925
440
 33554687
100
AcDbHatch
 10
0.0
 20
0.0
 30
0.0
210
0.0
220
0.0
230
1.0
  2
SOLID
 70
     1
 71
     1
 91
        1
 92
        1
 93
        1
 72
     4
 94
        3
 73
     0
 74
     0
 95
       53
 96
       49
 40
0.0
 40
0.0
 40
0.0
 40
0.0
 40
1.0
 40
1.0
 40
1.0
 40
2.0
 40
2.0
 40
2.0
 40
3.0
 40
3.0
 40
3.0
 40
4.0
 40
4.0
 40
4.0
 40
5.0
 40
5.0
 40
5.0
 40
6.0
 40
6.0
 40
6.0
 40
7.0
 40
7.0
 40
7.0
 40
8.0
 40
8.0
 40
8.0
 40
9.0
 40
9.0
 40
9.0
 40
10.0
 40
10.0
 40
10.0
 40
11.0
 40
11.0
 40
11.0
 40
12.0
 40
12.0
 40
12.0
 40
13.0
 40
13.0
 40
13.0
 40
14.0
 40
14.0
 40
14.0
 40
15.0
 40
15.0
 40
15.0
 40
16.0
 40
16.0
 40
16.0
 40
16.0
 10
76.57585989839076
 20
-144.8769449507599
 10
76.57585989839076
 20
-144.9551486182751
 10
76.55897893051303
 20
-145.0567789350899
 10
76.49541691881018
 20
-145.1584092519048
 10
76.38534611805645
 20
-145.3316975548129
 10
76.25426023484269
 20
-145.3530571468214
 10
76.14642874615437
 20
-145.3720051719903
 10
76.14642874615437
 20
-145.3720051719903
 10
76.14642874615437
 20
-145.1497965131917
 10
76.14642874615437
 20
-145.1497965131917
 10
76.34521075565328
 20
-145.0950194949762
 10
76.37483857682643
 20
-144.9678954715705
 10
76.37483857682643
 20
-144.8748778934688
 10
76.37483857682643
 20
-144.7353515263162
 10
76.27544757207697
 20
-144.5830783058681
 10
76.04273137204835
 20
-144.5830783058681
 10
75.78676077749427
 20
-144.5830783058681
 10
75.71699759391798
 20
-144.7629122901981
 10
75.71699759391798
 20
-144.8834906321819
 10
75.71699759391798
 20
-144.9151855106462
 10
75.71699759391798
 20
-145.0567789350899
 10
75.84601641984058
 20
-145.1456623986094
 10
75.84601641984058
 20
-145.1456623986094
 10
75.82689613989744
 20
-145.3213622683572
 10
75.82689613989744
 20
-145.3213622683572
 10
75.82689613989744
 20
-145.3213622683572
 10
74.98078068872009
 20
-145.2007839263734
 10
74.98078068872009
 20
-145.2007839263734
 10
74.98078068872009
 20
-145.2007839263734
 10
74.98078068872009
 20
-144.4221923467069
 10
74.98078068872009
 20
-144.4221923467069
 10
74.98078068872009
 20
-144.4221923467069
 10
75.1754285836367
 20
-144.4221923467069
 10
75.1754285836367
 20
-144.4221923467069
 10
75.1754285836367
 20
-144.4221923467069
 10
75.1754285836367
 20
-145.0378309099211
 10
75.1754285836367
 20
-145.0378309099211
 10
75.1754285836367
 20
-145.0378309099211
 10
75.59848630922537
 20
-145.1032877241408
 10
75.59848630922537
 20
-145.1032877241408
 10
75.56455211869567
 20
-145.0419650245034
 10
75.52441675629251
 20
-144.9596272424059
 10
75.52441675629251
 20
-144.8411159577133
 10
75.52441675629251
 20
-144.5872124204504
 10
75.71062416727027
 20
-144.3501898510652
 10
76.02361109210521
 20
-144.3501898510652
 10
76.34107664107098
 20
-144.3501898510652
 10
76.57585989839076
 20
-144.574465567155
 10
76.57585989839076
 20
-144.8769449507599
 97
        0
 97
        1
330
12A
 75
     2
 76
     1
 98
        1
 10
0.0
 20
0.0
450
        0
451
        0
460
0.0
461
0.0
452
        0
462
0.0
453
        0
470

  0
ENDBLK
  5
124
330
121
100
AcDbEntity
  8
0
100
AcDbBlockEnd
  0
BLOCK
  5
130
330
12E
100
AcDbEntity
  8
0
100
AcDbBlockBegin
  2
Block_7
 70
     0
 10
0.0
 20
0.0
 30
0.0
  3
Block_7
  1

  0
INSERT
  5
133
330
12E
100
AcDbEntity
  8
レイヤー 1
100
AcDbBlockReference
  2
Block_8
 10
0.0
 20
0.0
 30
0.0
  0
ENDBLK
  5
131
330
12E
100
AcDbEntity
  8
0
100
AcDbBlockEnd
  0
BLOCK
  5
134
330
132
100
AcDbEntity
  8
0
100
AcDbBlockBegin
  2
Block_8
 70
     0
 10
0.0
 20
0.0
 30
0.0
  3
Block_8
  1

  0
SPLINE
  5
136
330
132
100
AcDbEntity
  8
レイヤー 1
100
AcDbSpline
210
0.0
220
0.0
230
1.0
 70
     9
 71
     3
 72
    44
 73
    40
 74
     0
 42
0.0000000001
 43
0.0000000001
 40
0.0
 40
0.0
 40
0.0
 40
0.0
 40
1.0
 40
1.0
 40
1.0
 40
2.0
 40
2.0
 40
2.0
 40
3.0
 40
3.0
 40
3.0
 40
4.0
 40
4.0
 40
4.0
 40
5.0
 40
5.0
 40
5.0
 40
6.0
 40
6.0
 40
6.0
 40
7.0
 40
7.0
 40
7.0
 40
8.0
 40
8.0
 40
8.0
 40
9.0
 40
9.0
 40
9.0
 40
10.0
 40
10.0
 40
10.0
 40
11.0
 40
11.0
 40
11.0
 40
12.0
 40
12.0
 40
12.0
 40
13.0
 40
13.0
 40
13.0
 40
13.0
 10
90.12783200871805
 20
-139.3706488366851
 30
0.0
 10
89.909929719276
 20
-139.5292954837809
 30
0.0
 10
89.81673988639998
 20
-139.6033650367137
 30
0.0
 10
89.76816404005797
 20
-139.7471977732229
 30
0.0
 10
89.76816404005797
 20
-139.7471977732229
 30
0.0
 10
90.54658336495016
 20
-139.7471977732229
 30
0.0
 10
90.54658336495016
 20
-139.7471977732229
 30
0.0
 10
90.54658336495016
 20
-139.7471977732229
 30
0.0
 10
90.54658336495016
 20
-139.9523532093695
 30
0.0
 10
90.54658336495016
 20
-139.9523532093695
 30
0.0
 10
90.54658336495016
 20
-139.9523532093695
 30
0.0
 10
89.5185668721516
 20
-139.9523532093695
 30
0.0
 10
89.5185668721516
 20
-139.9523532093695
 30
0.0
 10
89.55026175061592
 20
-139.5947522980006
 30
0.0
 10
89.61589081960992
 20
-139.5165486304854
 30
0.0
 10
90.00088024008659
 20
-139.2182033614628
 30
0.0
 10
90.25685083464066
 20
-139.0194213519639
 30
0.0
 10
90.3223076488604
 20
-138.9517252256787
 30
0.0
 10
90.3223076488604
 20
-138.8142659158172
 30
0.0
 10
90.3223076488604
 20
-138.6957546311247
 30
0.0
 10
90.25047740799294
 20
-138.5644964931366
 30
0.0
 10
90.05376245578517
 20
-138.5644964931366
 30
0.0
 10
89.79348549187454
 20
-138.5644964931366
 30
0.0
 10
89.78504500793569
 20
-138.7951456358741
 30
0.0
 10
89.78073863857913
 20
-138.9115898632756
 30
0.0
 10
89.78073863857913
 20
-138.9115898632756
 30
0.0
 10
89.55663517726362
 20
-138.9115898632756
 30
0.0
 10
89.55663517726362
 20
-138.9115898632756
 30
0.0
 10
89.56507566120249
 20
-138.7846380946441
 30
0.0
 10
89.57558320243249
 20
-138.6725002365992
 30
0.0
 10
89.65602618201307
 20
-138.5539889519066
 30
0.0
 10
89.76592472799255
 20
-138.3932752475197
 30
0.0
 10
89.95213213897029
 20
-138.35934105699
 30
0.0
 10
90.06857636637175
 20
-138.35934105699
 30
0.0
 10
90.3457342981601
 20
-138.35934105699
 30
0.0
 10
90.55295679159788
 20
-138.5434814106766
 30
0.0
 10
90.55295679159788
 20
-138.8163329731084
 30
0.0
 10
90.55295679159788
 20
-139.0447428037804
 30
0.0
 10
90.4366848189707
 20
-139.1443060633042
 30
0.0
 10
90.12783200871805
 20
-139.3706488366851
 30
0.0
  0
HATCH
  5
137
330
132
100
AcDbEntity
  8
レイヤー 1
 62
   250
420
  2299925
440
 33554687
100
AcDbHatch
 10
0.0
 20
0.0
 30
0.0
210
0.0
220
0.0
230
1.0
  2
SOLID
 70
     1
 71
     1
 91
        1
 92
        1
 93
        1
 72
     4
 94
        3
 73
     0
 74
     0
 95
       44
 96
       40
 40
0.0
 40
0.0
 40
0.0
 40
0.0
 40
1.0
 40
1.0
 40
1.0
 40
2.0
 40
2.0
 40
2.0
 40
3.0
 40
3.0
 40
3.0
 40
4.0
 40
4.0
 40
4.0
 40
5.0
 40
5.0
 40
5.0
 40
6.0
 40
6.0
 40
6.0
 40
7.0
 40
7.0
 40
7.0
 40
8.0
 40
8.0
 40
8.0
 40
9.0
 40
9.0
 40
9.0
 40
10.0
 40
10.0
 40
10.0
 40
11.0
 40
11.0
 40
11.0
 40
12.0
 40
12.0
 40
12.0
 40
13.0
 40
13.0
 40
13.0
 40
13.0
 10
90.12783200871805
 20
-139.3706488366851
 10
89.909929719276
 20
-139.5292954837809
 10
89.81673988639998
 20
-139.6033650367137
 10
89.76816404005797
 20
-139.7471977732229
 10
89.76816404005797
 20
-139.7471977732229
 10
90.54658336495016
 20
-139.7471977732229
 10
90.54658336495016
 20
-139.7471977732229
 10
90.54658336495016
 20
-139.7471977732229
 10
90.54658336495016
 20
-139.9523532093695
 10
90.54658336495016
 20
-139.9523532093695
 10
90.54658336495016
 20
-139.9523532093695
 10
89.5185668721516
 20
-139.9523532093695
 10
89.5185668721516
 20
-139.9523532093695
 10
89.55026175061592
 20
-139.5947522980006
 10
89.61589081960992
 20
-139.5165486304854
 10
90.00088024008659
 20
-139.2182033614628
 10
90.25685083464066
 20
-139.0194213519639
 10
90.3223076488604
 20
-138.9517252256787
 10
90.3223076488604
 20
-138.8142659158172
 10
90.3223076488604
 20
-138.6957546311247
 10
90.25047740799294
 20
-138.5644964931366
 10
90.05376245578517
 20
-138.5644964931366
 10
89.79348549187454
 20
-138.5644964931366
 10
89.78504500793569
 20
-138.7951456358741
 10
89.78073863857913
 20
-138.9115898632756
 10
89.78073863857913
 20
-138.9115898632756
 10
89.55663517726362
 20
-138.9115898632756
 10
89.55663517726362
 20
-138.9115898632756
 10
89.56507566120249
 20
-138.7846380946441
 10
89.57558320243249
 20
-138.6725002365992
 10
89.65602618201307
 20
-138.5539889519066
 10
89.76592472799255
 20
-138.3932752475197
 10
89.95213213897029
 20
-138.35934105699
 10
90.06857636637175
 20
-138.35934105699
 10
90.3457342981601
 20
-138.35934105699
 10
90.55295679159788
 20
-138.5434814106766
 10
90.55295679159788
 20
-138.8163329731084
 10
90.55295679159788
 20
-139.0447428037804
 10
90.4366848189707
 20
-139.1443060633042
 10
90.12783200871805
 20
-139.3706488366851
 97
        0
 97
        1
330
136
 75
     2
 76
     1
 98
        1
 10
0.0
 20
0.0
450
        0
451
        0
460
0.0
461
0.0
452
        0
462
0.0
453
        0
470

  0
SPLINE
  5
138
330
132
100
AcDbEntity
  8
レイヤー 1
100
AcDbSpline
210
0.0
220
0.0
230
1.0
 70
    11
 71
     3
 72
    26
 73
    22
 74
     0
 42
0.0000000001
 43
0.0000000001
 40
0.0
 40
0.0
 40
0.0
 40
0.0
 40
1.0
 40
1.0
 40
1.0
 40
2.0
 40
2.0
 40
2.0
 40
3.0
 40
3.0
 40
3.0
 40
4.0
 40
4.0
 40
4.0
 40
5.0
 40
5.0
 40
5.0
 40
6.0
 40
6.0
 40
6.0
 40
7.0
 40
7.0
 40
7.0
 40
7.0
 10
91.16291094726136
 20
-139.9523532093695
 30
0.0
 10
91.16291094726136
 20
-139.9523532093695
 30
0.0
 10
91.16291094726136
 20
-138.8480278515727
 30
0.0
 10
91.16291094726136
 20
-138.8480278515727
 30
0.0
 10
91.16291094726136
 20
-138.8480278515727
 30
0.0
 10
90.83287079977443
 20
-138.8480278515727
 30
0.0
 10
90.83287079977443
 20
-138.8480278515727
 30
0.0
 10
90.83287079977443
 20
-138.8480278515727
 30
0.0
 10
90.83287079977443
 20
-138.6998887457069
 30
0.0
 10
90.83287079977443
 20
-138.6998887457069
 30
0.0
 10
91.16497800455251
 20
-138.6852470898946
 30
0.0
 10
91.21148679360338
 20
-138.5222940734423
 30
0.0
 10
91.24111461477653
 20
-138.4080891581063
 30
0.0
 10
91.24111461477653
 20
-138.4080891581063
 30
0.0
 10
91.38718666335114
 20
-138.4080891581063
 30
0.0
 10
91.38718666335114
 20
-138.4080891581063
 30
0.0
 10
91.38718666335114
 20
-138.4080891581063
 30
0.0
 10
91.38718666335114
 20
-139.9523532093695
 30
0.0
 10
91.38718666335114
 20
-139.9523532093695
 30
0.0
 10
91.38718666335114
 20
-139.9523532093695
 30
0.0
 10
91.16291094726136
 20
-139.9523532093695
 30
0.0
 10
91.16291094726136
 20
-139.9523532093695
 30
0.0
  0
HATCH
  5
139
330
132
100
AcDbEntity
  8
レイヤー 1
 62
   250
420
  2299925
440
 33554687
100
AcDbHatch
 10
0.0
 20
0.0
 30
0.0
210
0.0
220
0.0
230
1.0
  2
SOLID
 70
     1
 71
     1
 91
        1
 92
        1
 93
        1
 72
     4
 94
        3
 73
     0
 74
     0
 95
       26
 96
       22
 40
0.0
 40
0.0
 40
0.0
 40
0.0
 40
1.0
 40
1.0
 40
1.0
 40
2.0
 40
2.0
 40
2.0
 40
3.0
 40
3.0
 40
3.0
 40
4.0
 40
4.0
 40
4.0
 40
5.0
 40
5.0
 40
5.0
 40
6.0
 40
6.0
 40
6.0
 40
7.0
 40
7.0
 40
7.0
 40
7.0
 10
91.16291094726136
 20
-139.9523532093695
 10
91.16291094726136
 20
-139.9523532093695
 10
91.16291094726136
 20
-138.8480278515727
 10
91.16291094726136
 20
-138.8480278515727
 10
91.16291094726136
 20
-138.8480278515727
 10
90.83287079977443
 20
-138.8480278515727
 10
90.83287079977443
 20
-138.8480278515727
 10
90.83287079977443
 20
-138.8480278515727
 10
90.83287079977443
 20
-138.6998887457069
 10
90.83287079977443
 20
-138.6998887457069
 10
91.16497800455251
 20
-138.6852470898946
 10
91.21148679360338
 20
-138.5222940734423
 10
91.24111461477653
 20
-138.4080891581063
 10
91.24111461477653
 20
-138.4080891581063
 10
91.38718666335114
 20
-138.4080891581063
 10
91.38718666335114
 20
-138.4080891581063
 10
91.38718666335114
 20
-138.4080891581063
 10
91.38718666335114
 20
-139.9523532093695
 10
91.38718666335114
 20
-139.9523532093695
 10
91.38718666335114
 20
-139.9523532093695
 10
91.16291094726136
 20
-139.9523532093695
 10
91.16291094726136
 20
-139.9523532093695
 97
        0
 97
        1
330
138
 75
     2
 76
     1
 98
        1
 10
0.0
 20
0.0
450
        0
451
        0
460
0.0
461
0.0
452
        0
462
0.0
453
        0
470

  0
ENDBLK
  5
135
330
132
100
AcDbEntity
  8
0
100
AcDbBlockEnd
  0
BLOCK
  5
13E
330
13C
100
AcDbEntity
  8
0
100
AcDbBlockBegin
  2
Block_9
 70
     0
 10
0.0
 20
0.0
 30
0.0
  3
Block_9
  1

  0
SPLINE
  5
140
330
13C
100
AcDbEntity
  8
レイヤー 1
100
AcDbSpline
210
0.0
220
0.0
230
1.0
 70
     9
 71
     3
 72
    17
 73
    13
 74
     0
 42
0.0000000001
 43
0.0000000001
 40
0.0
 40
0.0
 40
0.0
 40
0.0
 40
1.0
 40
1.0
 40
1.0
 40
2.0
 40
2.0
 40
2.0
 40
3.0
 40
3.0
 40
3.0
 40
4.0
 40
4.0
 40
4.0
 40
4.0
 10
76.51539847262462
 20
-149.9260768939421
 30
0.0
 10
76.51539847262462
 20
-150.069737375677
 30
0.0
 10
76.60204262407866
 20
-150.2223551056736
 30
0.0
 10
76.80513100293413
 20
-150.2223551056736
 30
0.0
 10
77.01028643908076
 20
-150.2223551056736
 30
0.0
 10
77.11191675589564
 20
-150.0952310822678
 30
0.0
 10
77.11191675589564
 20
-149.9260768939421
 30
0.0
 10
77.11191675589564
 20
-149.7400417377386
 30
0.0
 10
76.98927135662074
 20
-149.6297986822106
 30
0.0
 10
76.81150442958184
 20
-149.6297986822106
 30
0.0
 10
76.58929577078324
 20
-149.6297986822106
 30
0.0
 10
76.51539847262462
 20
-149.7927516986629
 30
0.0
 10
76.51539847262462
 20
-149.9260768939421
 30
0.0
  0
SPLINE
  5
141
330
13C
100
AcDbEntity
  8
レイヤー 1
100
AcDbSpline
210
0.0
220
0.0
230
1.0
 70
     9
 71
     3
 72
    17
 73
    13
 74
     0
 42
0.0000000001
 43
0.0000000001
 40
0.0
 40
0.0
 40
0.0
 40
0.0
 40
1.0
 40
1.0
 40
1.0
 40
2.0
 40
2.0
 40
2.0
 40
3.0
 40
3.0
 40
3.0
 40
4.0
 40
4.0
 40
4.0
 40
4.0
 10
75.85531817765076
 20
-149.9260768939421
 30
0.0
 10
75.85531817765076
 20
-150.0910969676855
 30
0.0
 10
75.95040281304365
 20
-150.1758463166227
 30
0.0
 10
76.08579506561397
 20
-150.1758463166227
 30
0.0
 10
76.20861271966312
 20
-150.1758463166227
 30
0.0
 10
76.32712400435572
 20
-150.103843820981
 30
0.0
 10
76.32712400435572
 20
-149.9260768939421
 30
0.0
 10
76.32712400435572
 20
-149.7483099669032
 30
0.0
 10
76.20861271966312
 20
-149.6763074712615
 30
0.0
 10
76.08579506561397
 20
-149.6763074712615
 30
0.0
 10
75.95040281304365
 20
-149.6763074712615
 30
0.0
 10
75.85531817765076
 20
-149.7631238774898
 30
0.0
 10
75.85531817765076
 20
-149.9260768939421
 30
0.0
  0
SPLINE
  5
142
330
13C
100
AcDbEntity
  8
レイヤー 1
100
AcDbSpline
210
0.0
220
0.0
230
1.0
 70
     9
 71
     3
 72
    29
 73
    25
 74
     0
 42
0.0000000001
 43
0.0000000001
 40
0.0
 40
0.0
 40
0.0
 40
0.0
 40
1.0
 40
1.0
 40
1.0
 40
2.0
 40
2.0
 40
2.0
 40
3.0
 40
3.0
 40
3.0
 40
4.0
 40
4.0
 40
4.0
 40
5.0
 40
5.0
 40
5.0
 40
6.0
 40
6.0
 40
6.0
 40
7.0
 40
7.0
 40
7.0
 40
8.0
 40
8.0
 40
8.0
 40
8.0
 10
77.30656465081224
 20
-149.9260768939421
 30
0.0
 10
77.30656465081224
 20
-150.1927272845004
 30
0.0
 10
77.16893308617652
 20
-150.4466308217633
 30
0.0
 10
76.81994491352071
 20
-150.4466308217633
 30
0.0
 10
76.56397431896664
 20
-150.4466308217633
 30
0.0
 10
76.46871742879949
 20
-150.304692887771
 30
0.0
 10
76.40739472916205
 20
-150.1989284563739
 30
0.0
 10
76.34813908681575
 20
-150.3236409129399
 30
0.0
 10
76.23393417147972
 20
-150.3997775231639
 30
0.0
 10
76.07322046709281
 20
-150.3997775231639
 30
0.0
 10
75.79812959259561
 20
-150.3997775231639
 30
0.0
 10
75.66273734002528
 20
-150.200995513665
 30
0.0
 10
75.66273734002528
 20
-149.9260768939421
 30
0.0
 10
75.66273734002528
 20
-149.642545535506
 30
0.0
 10
75.80657007653447
 20
-149.4520317551717
 30
0.0
 10
76.07322046709281
 20
-149.4520317551717
 30
0.0
 10
76.23393417147972
 20
-149.4520317551717
 30
0.0
 10
76.34813908681575
 20
-149.5305799322354
 30
0.0
 10
76.40739472916205
 20
-149.6552923888014
 30
0.0
 10
76.45820988756948
 20
-149.566408925282
 30
0.0
 10
76.55346677773663
 20
-149.407590023412
 30
0.0
 10
76.81563854416414
 20
-149.407590023412
 30
0.0
 10
77.19012042341081
 20
-149.407590023412
 30
0.0
 10
77.30656465081224
 20
-149.6869872672657
 30
0.0
 10
77.30656465081224
 20
-149.9260768939421
 30
0.0
  0
HATCH
  5
143
330
13C
100
AcDbEntity
  8
レイヤー 1
 62
   250
420
  2299925
440
 33554687
100
AcDbHatch
 10
0.0
 20
0.0
 30
0.0
210
0.0
220
0.0
230
1.0
  2
SOLID
 70
     1
 71
     1
 91
        3
 92
        1
 93
        1
 72
     4
 94
        3
 73
     0
 74
     0
 95
       17
 96
       13
 40
0.0
 40
0.0
 40
0.0
 40
0.0
 40
1.0
 40
1.0
 40
1.0
 40
2.0
 40
2.0
 40
2.0
 40
3.0
 40
3.0
 40
3.0
 40
4.0
 40
4.0
 40
4.0
 40
4.0
 10
76.51539847262462
 20
-149.9260768939421
 10
76.51539847262462
 20
-150.069737375677
 10
76.60204262407866
 20
-150.2223551056736
 10
76.80513100293413
 20
-150.2223551056736
 10
77.01028643908076
 20
-150.2223551056736
 10
77.11191675589564
 20
-150.0952310822678
 10
77.11191675589564
 20
-149.9260768939421
 10
77.11191675589564
 20
-149.7400417377386
 10
76.98927135662074
 20
-149.6297986822106
 10
76.81150442958184
 20
-149.6297986822106
 10
76.58929577078324
 20
-149.6297986822106
 10
76.51539847262462
 20
-149.7927516986629
 10
76.51539847262462
 20
-149.9260768939421
 97
        0
 97
        1
330
140
 92
        1
 93
        1
 72
     4
 94
        3
 73
     0
 74
     0
 95
       17
 96
       13
 40
0.0
 40
0.0
 40
0.0
 40
0.0
 40
1.0
 40
1.0
 40
1.0
 40
2.0
 40
2.0
 40
2.0
 40
3.0
 40
3.0
 40
3.0
 40
4.0
 40
4.0
 40
4.0
 40
4.0
 10
75.85531817765076
 20
-149.9260768939421
 10
75.85531817765076
 20
-150.0910969676855
 10
75.95040281304365
 20
-150.1758463166227
 10
76.08579506561397
 20
-150.1758463166227
 10
76.20861271966312
 20
-150.1758463166227
 10
76.32712400435572
 20
-150.103843820981
 10
76.32712400435572
 20
-149.9260768939421
 10
76.32712400435572
 20
-149.7483099669032
 10
76.20861271966312
 20
-149.6763074712615
 10
76.08579506561397
 20
-149.6763074712615
 10
75.95040281304365
 20
-149.6763074712615
 10
75.85531817765076
 20
-149.7631238774898
 10
75.85531817765076
 20
-149.9260768939421
 97
        0
 97
        1
330
141
 92
        1
 93
        1
 72
     4
 94
        3
 73
     0
 74
     0
 95
       29
 96
       25
 40
0.0
 40
0.0
 40
0.0
 40
0.0
 40
1.0
 40
1.0
 40
1.0
 40
2.0
 40
2.0
 40
2.0
 40
3.0
 40
3.0
 40
3.0
 40
4.0
 40
4.0
 40
4.0
 40
5.0
 40
5.0
 40
5.0
 40
6.0
 40
6.0
 40
6.0
 40
7.0
 40
7.0
 40
7.0
 40
8.0
 40
8.0
 40
8.0
 40
8.0
 10
77.30656465081224
 20
-149.9260768939421
 10
77.30656465081224
 20
-150.1927272845004
 10
77.16893308617652
 20
-150.4466308217633
 10
76.81994491352071
 20
-150.4466308217633
 10
76.56397431896664
 20
-150.4466308217633
 10
76.46871742879949
 20
-150.304692887771
 10
76.40739472916205
 20
-150.1989284563739
 10
76.34813908681575
 20
-150.3236409129399
 10
76.23393417147972
 20
-150.3997775231639
 10
76.07322046709281
 20
-150.3997775231639
 10
75.79812959259561
 20
-150.3997775231639
 10
75.66273734002528
 20
-150.200995513665
 10
75.66273734002528
 20
-149.9260768939421
 10
75.66273734002528
 20
-149.642545535506
 10
75.80657007653447
 20
-149.4520317551717
 10
76.07322046709281
 20
-149.4520317551717
 10
76.23393417147972
 20
-149.4520317551717
 10
76.34813908681575
 20
-149.5305799322354
 10
76.40739472916205
 20
-149.6552923888014
 10
76.45820988756948
 20
-149.566408925282
 10
76.55346677773663
 20
-149.407590023412
 10
76.81563854416414
 20
-149.407590023412
 10
77.19012042341081
 20
-149.407590023412
 10
77.30656465081224
 20
-149.6869872672657
 10
77.30656465081224
 20
-149.9260768939421
 97
        0
 97
        1
330
142
 75
     2
 76
     1
 98
        1
 10
0.0
 20
0.0
450
        0
451
        0
460
0.0
461
0.0
452
        0
462
0.0
453
        0
470

  0
ENDBLK
  5
13F
330
13C
100
AcDbEntity
  8
0
100
AcDbBlockEnd
  0
BLOCK
  5
148
330
146
100
AcDbEntity
  8
0
100
AcDbBlockBegin
  2
Block_10
 70
     0
 10
0.0
 20
0.0
 30
0.0
  3
Block_10
  1

  0
INSERT
  5
14B
330
146
100
AcDbEntity
  8
レイヤー 1
100
AcDbBlockReference
  2
Block_11
 10
0.0
 20
0.0
 30
0.0
  0
ENDBLK
  5
149
330
146
100
AcDbEntity
  8
0
100
AcDbBlockEnd
  0
BLOCK
  5
14C
330
14A
100
AcDbEntity
  8
0
100
AcDbBlockBegin
  2
Block_11
 70
     0
 10
0.0
 20
0.0
 30
0.0
  3
Block_11
  1

  0
SPLINE
  5
14E
330
14A
100
AcDbEntity
  8
レイヤー 1
100
AcDbSpline
210
0.0
220
0.0
230
1.0
 70
     9
 71
     3
 72
    44
 73
    40
 74
     0
 42
0.0000000001
 43
0.0000000001
 40
0.0
 40
0.0
 40
0.0
 40
0.0
 40
1.0
 40
1.0
 40
1.0
 40
2.0
 40
2.0
 40
2.0
 40
3.0
 40
3.0
 40
3.0
 40
4.0
 40
4.0
 40
4.0
 40
5.0
 40
5.0
 40
5.0
 40
6.0
 40
6.0
 40
6.0
 40
7.0
 40
7.0
 40
7.0
 40
8.0
 40
8.0
 40
8.0
 40
9.0
 40
9.0
 40
9.0
 40
10.0
 40
10.0
 40
10.0
 40
11.0
 40
11.0
 40
11.0
 40
12.0
 40
12.0
 40
12.0
 40
13.0
 40
13.0
 40
13.0
 40
13.0
 10
120.1287570229192
 20
-139.3706488366851
 30
0.0
 10
119.9110269882514
 20
-139.5292954837809
 30
0.0
 10
119.8180094101497
 20
-139.6033650367137
 30
0.0
 10
119.7690890542591
 20
-139.7471977732229
 30
0.0
 10
119.7690890542591
 20
-139.7471977732229
 30
0.0
 10
120.5476806339256
 20
-139.7471977732229
 30
0.0
 10
120.5476806339256
 20
-139.7471977732229
 30
0.0
 10
120.5476806339256
 20
-139.7471977732229
 30
0.0
 10
120.5476806339256
 20
-139.9523532093695
 30
0.0
 10
120.5476806339256
 20
-139.9523532093695
 30
0.0
 10
120.5476806339256
 20
-139.9523532093695
 30
0.0
 10
119.519664141127
 20
-139.9523532093695
 30
0.0
 10
119.519664141127
 20
-139.9523532093695
 30
0.0
 10
119.5513590195913
 20
-139.5947522980006
 30
0.0
 10
119.616815833811
 20
-139.5165486304854
 30
0.0
 10
120.001977509062
 20
-139.2182033614628
 30
0.0
 10
120.257948103616
 20
-139.0194213519639
 30
0.0
 10
120.3234049178358
 20
-138.9517252256787
 30
0.0
 10
120.3234049178358
 20
-138.8142659158172
 30
0.0
 10
120.3234049178358
 20
-138.6957546311247
 30
0.0
 10
120.2514024221941
 20
-138.5644964931366
 30
0.0
 10
120.0546874699863
 20
-138.5644964931366
 30
0.0
 10
119.7945827608499
 20
-138.5644964931366
 30
0.0
 10
119.7863145316854
 20
-138.7951456358741
 30
0.0
 10
119.7818359075545
 20
-138.9115898632756
 30
0.0
 10
119.7818359075545
 20
-138.9115898632756
 30
0.0
 10
119.5575601914648
 20
-138.9115898632756
 30
0.0
 10
119.5575601914648
 20
-138.9115898632756
 30
0.0
 10
119.5661729301779
 20
-138.7846380946441
 30
0.0
 10
119.5768527261822
 20
-138.6725002365992
 30
0.0
 10
119.6571234509885
 20
-138.5539889519066
 30
0.0
 10
119.767021996968
 20
-138.3932752475197
 30
0.0
 10
119.95340166272
 20
-138.35934105699
 30
0.0
 10
120.0695013805729
 20
-138.35934105699
 30
0.0
 10
120.3468315671355
 20
-138.35934105699
 30
0.0
 10
120.5542263153475
 20
-138.5434814106766
 30
0.0
 10
120.5542263153475
 20
-138.8163329731084
 30
0.0
 10
120.5542263153475
 20
-139.0447428037804
 30
0.0
 10
120.4377820879461
 20
-139.1443060633042
 30
0.0
 10
120.1287570229192
 20
-139.3706488366851
 30
0.0
  0
HATCH
  5
14F
330
14A
100
AcDbEntity
  8
レイヤー 1
 62
   250
420
  2299925
440
 33554687
100
AcDbHatch
 10
0.0
 20
0.0
 30
0.0
210
0.0
220
0.0
230
1.0
  2
SOLID
 70
     1
 71
     1
 91
        1
 92
        1
 93
        1
 72
     4
 94
        3
 73
     0
 74
     0
 95
       44
 96
       40
 40
0.0
 40
0.0
 40
0.0
 40
0.0
 40
1.0
 40
1.0
 40
1.0
 40
2.0
 40
2.0
 40
2.0
 40
3.0
 40
3.0
 40
3.0
 40
4.0
 40
4.0
 40
4.0
 40
5.0
 40
5.0
 40
5.0
 40
6.0
 40
6.0
 40
6.0
 40
7.0
 40
7.0
 40
7.0
 40
8.0
 40
8.0
 40
8.0
 40
9.0
 40
9.0
 40
9.0
 40
10.0
 40
10.0
 40
10.0
 40
11.0
 40
11.0
 40
11.0
 40
12.0
 40
12.0
 40
12.0
 40
13.0
 40
13.0
 40
13.0
 40
13.0
 10
120.1287570229192
 20
-139.3706488366851
 10
119.9110269882514
 20
-139.5292954837809
 10
119.8180094101497
 20
-139.6033650367137
 10
119.7690890542591
 20
-139.7471977732229
 10
119.7690890542591
 20
-139.7471977732229
 10
120.5476806339256
 20
-139.7471977732229
 10
120.5476806339256
 20
-139.7471977732229
 10
120.5476806339256
 20
-139.7471977732229
 10
120.5476806339256
 20
-139.9523532093695
 10
120.5476806339256
 20
-139.9523532093695
 10
120.5476806339256
 20
-139.9523532093695
 10
119.519664141127
 20
-139.9523532093695
 10
119.519664141127
 20
-139.9523532093695
 10
119.5513590195913
 20
-139.5947522980006
 10
119.616815833811
 20
-139.5165486304854
 10
120.001977509062
 20
-139.2182033614628
 10
120.257948103616
 20
-139.0194213519639
 10
120.3234049178358
 20
-138.9517252256787
 10
120.3234049178358
 20
-138.8142659158172
 10
120.3234049178358
 20
-138.6957546311247
 10
120.2514024221941
 20
-138.5644964931366
 10
120.0546874699863
 20
-138.5644964931366
 10
119.7945827608499
 20
-138.5644964931366
 10
119.7863145316854
 20
-138.7951456358741
 10
119.7818359075545
 20
-138.9115898632756
 10
119.7818359075545
 20
-138.9115898632756
 10
119.5575601914648
 20
-138.9115898632756
 10
119.5575601914648
 20
-138.9115898632756
 10
119.5661729301779
 20
-138.7846380946441
 10
119.5768527261822
 20
-138.6725002365992
 10
119.6571234509885
 20
-138.5539889519066
 10
119.767021996968
 20
-138.3932752475197
 10
119.95340166272
 20
-138.35934105699
 10
120.0695013805729
 20
-138.35934105699
 10
120.3468315671355
 20
-138.35934105699
 10
120.5542263153475
 20
-138.5434814106766
 10
120.5542263153475
 20
-138.8163329731084
 10
120.5542263153475
 20
-139.0447428037804
 10
120.4377820879461
 20
-139.1443060633042
 10
120.1287570229192
 20
-139.3706488366851
 97
        0
 97
        1
330
14E
 75
     2
 76
     1
 98
        1
 10
0.0
 20
0.0
450
        0
451
        0
460
0.0
461
0.0
452
        0
462
0.0
453
        0
470

  0
SPLINE
  5
150
330
14A
100
AcDbEntity
  8
レイヤー 1
100
AcDbSpline
210
0.0
220
0.0
230
1.0
 70
    11
 71
     3
 72
    26
 73
    22
 74
     0
 42
0.0000000001
 43
0.0000000001
 40
0.0
 40
0.0
 40
0.0
 40
0.0
 40
1.0
 40
1.0
 40
1.0
 40
2.0
 40
2.0
 40
2.0
 40
3.0
 40
3.0
 40
3.0
 40
4.0
 40
4.0
 40
4.0
 40
5.0
 40
5.0
 40
5.0
 40
6.0
 40
6.0
 40
6.0
 40
7.0
 40
7.0
 40
7.0
 40
7.0
 10
121.1640082162368
 20
-139.9523532093695
 30
0.0
 10
121.1640082162368
 20
-139.9523532093695
 30
0.0
 10
121.1640082162368
 20
-138.8480278515727
 30
0.0
 10
121.1640082162368
 20
-138.8480278515727
 30
0.0
 10
121.1640082162368
 20
-138.8480278515727
 30
0.0
 10
120.8339680687498
 20
-138.8480278515727
 30
0.0
 10
120.8339680687498
 20
-138.8480278515727
 30
0.0
 10
120.8339680687498
 20
-138.8480278515727
 30
0.0
 10
120.8339680687498
 20
-138.6998887457069
 30
0.0
 10
120.8339680687498
 20
-138.6998887457069
 30
0.0
 10
121.1660752735279
 20
-138.6852470898946
 30
0.0
 10
121.2125840625788
 20
-138.5222940734423
 30
0.0
 10
121.2422118837519
 20
-138.4080891581063
 30
0.0
 10
121.2422118837519
 20
-138.4080891581063
 30
0.0
 10
121.3882839323265
 20
-138.4080891581063
 30
0.0
 10
121.3882839323265
 20
-138.4080891581063
 30
0.0
 10
121.3882839323265
 20
-138.4080891581063
 30
0.0
 10
121.3882839323265
 20
-139.9523532093695
 30
0.0
 10
121.3882839323265
 20
-139.9523532093695
 30
0.0
 10
121.3882839323265
 20
-139.9523532093695
 30
0.0
 10
121.1640082162368
 20
-139.9523532093695
 30
0.0
 10
121.1640082162368
 20
-139.9523532093695
 30
0.0
  0
HATCH
  5
151
330
14A
100
AcDbEntity
  8
レイヤー 1
 62
   250
420
  2299925
440
 33554687
100
AcDbHatch
 10
0.0
 20
0.0
 30
0.0
210
0.0
220
0.0
230
1.0
  2
SOLID
 70
     1
 71
     1
 91
        1
 92
        1
 93
        1
 72
     4
 94
        3
 73
     0
 74
     0
 95
       26
 96
       22
 40
0.0
 40
0.0
 40
0.0
 40
0.0
 40
1.0
 40
1.0
 40
1.0
 40
2.0
 40
2.0
 40
2.0
 40
3.0
 40
3.0
 40
3.0
 40
4.0
 40
4.0
 40
4.0
 40
5.0
 40
5.0
 40
5.0
 40
6.0
 40
6.0
 40
6.0
 40
7.0
 40
7.0
 40
7.0
 40
7.0
 10
121.1640082162368
 20
-139.9523532093695
 10
121.1640082162368
 20
-139.9523532093695
 10
121.1640082162368
 20
-138.8480278515727
 10
121.1640082162368
 20
-138.8480278515727
 10
121.1640082162368
 20
-138.8480278515727
 10
120.8339680687498
 20
-138.8480278515727
 10
120.8339680687498
 20
-138.8480278515727
 10
120.8339680687498
 20
-138.8480278515727
 10
120.8339680687498
 20
-138.6998887457069
 10
120.8339680687498
 20
-138.6998887457069
 10
121.1660752735279
 20
-138.6852470898946
 10
121.2125840625788
 20
-138.5222940734423
 10
121.2422118837519
 20
-138.4080891581063
 10
121.2422118837519
 20
-138.4080891581063
 10
121.3882839323265
 20
-138.4080891581063
 10
121.3882839323265
 20
-138.4080891581063
 10
121.3882839323265
 20
-138.4080891581063
 10
121.3882839323265
 20
-139.9523532093695
 10
121.3882839323265
 20
-139.9523532093695
 10
121.3882839323265
 20
-139.9523532093695
 10
121.1640082162368
 20
-139.9523532093695
 10
121.1640082162368
 20
-139.9523532093695
 97
        0
 97
        1
330
150
 75
     2
 76
     1
 98
        1
 10
0.0
 20
0.0
450
        0
451
        0
460
0.0
461
0.0
452
        0
462
0.0
453
        0
470

  0
ENDBLK
  5
14D
330
14A
100
AcDbEntity
  8
0
100
AcDbBlockEnd
  0
BLOCK
  5
157
330
155
100
AcDbEntity
  8
0
100
AcDbBlockBegin
  2
Block_12
 70
     0
 10
0.0
 20
0.0
 30
0.0
  3
Block_12
  1

  0
SPLINE
  5
159
330
155
100
AcDbEntity
  8
レイヤー 1
100
AcDbSpline
210
0.0
220
0.0
230
1.0
 70
     9
 71
     3
 72
    17
 73
    13
 74
     0
 42
0.0000000001
 43
0.0000000001
 40
0.0
 40
0.0
 40
0.0
 40
0.0
 40
1.0
 40
1.0
 40
1.0
 40
2.0
 40
2.0
 40
2.0
 40
3.0
 40
3.0
 40
3.0
 40
4.0
 40
4.0
 40
4.0
 40
4.0
 10
105.8133517530605
 20
-138.5519218946155
 30
0.0
 10
105.6948404683679
 20
-138.5519218946155
 30
0.0
 10
105.5191405986202
 20
-138.6089382248963
 30
0.0
 10
105.5191405986202
 20
-138.8945366406236
 30
0.0
 10
105.5191405986202
 20
-139.1208794140045
 30
0.0
 10
105.6590114753213
 20
-139.2161363041716
 30
0.0
 10
105.7944037278917
 20
-139.2161363041716
 30
0.0
 10
106.0565754943192
 20
-139.2161363041716
 30
0.0
 10
106.0948160542054
 20
-139.0066744986685
 30
0.0
 10
106.0948160542054
 20
-138.8904025260413
 30
0.0
 10
106.0948160542054
 20
-138.7147026562935
 30
0.0
 10
105.999386909264
 20
-138.5519218946155
 30
0.0
 10
105.8133517530605
 20
-138.5519218946155
 30
0.0
  0
SPLINE
  5
15A
330
155
100
AcDbEntity
  8
レイヤー 1
100
AcDbSpline
210
0.0
220
0.0
230
1.0
 70
     9
 71
     3
 72
    32
 73
    28
 74
     0
 42
0.0000000001
 43
0.0000000001
 40
0.0
 40
0.0
 40
0.0
 40
0.0
 40
1.0
 40
1.0
 40
1.0
 40
2.0
 40
2.0
 40
2.0
 40
3.0
 40
3.0
 40
3.0
 40
4.0
 40
4.0
 40
4.0
 40
5.0
 40
5.0
 40
5.0
 40
6.0
 40
6.0
 40
6.0
 40
7.0
 40
7.0
 40
7.0
 40
8.0
 40
8.0
 40
8.0
 40
9.0
 40
9.0
 40
9.0
 40
9.0
 10
105.7730441358831
 20
-140.003168367777
 30
0.0
 10
105.599755832975
 20
-140.003168367777
 30
0.0
 10
105.3539482701025
 20
-139.9332329294264
 30
0.0
 10
105.3160522197647
 20
-139.6011257246483
 30
0.0
 10
105.3160522197647
 20
-139.6011257246483
 30
0.0
 10
105.5298203946245
 20
-139.6011257246483
 30
0.0
 10
105.5298203946245
 20
-139.6011257246483
 30
0.0
 10
105.5405001906287
 20
-139.6603813669946
 30
0.0
 10
105.572195069093
 20
-139.8085204728604
 30
0.0
 10
105.7751111931743
 20
-139.8085204728604
 30
0.0
 10
106.0672552903235
 20
-139.8085204728604
 30
0.0
 10
106.1051513406612
 20
-139.4784803253734
 30
0.0
 10
106.1178981939566
 20
-139.2733248892268
 30
0.0
 10
106.026947673146
 20
-139.3535956140331
 30
0.0
 10
105.9594238016351
 20
-139.4107841990883
 30
0.0
 10
105.7775227600139
 20
-139.4107841990883
 30
0.0
 10
105.5976887756839
 20
-139.4107841990883
 30
0.0
 10
105.2946926277562
 20
-139.3050197676911
 30
0.0
 10
105.2946926277562
 20
-138.8988430099801
 30
0.0
 10
105.2946926277562
 20
-138.5793104037232
 30
0.0
 10
105.4939914015779
 20
-138.35934105699
 30
0.0
 10
105.8112846957694
 20
-138.35934105699
 30
0.0
 10
106.3252929421687
 20
-138.35934105699
 30
0.0
 10
106.3359727381729
 20
-138.9136569205667
 30
0.0
 10
106.3359727381729
 20
-139.1272528406522
 30
0.0
 10
106.3359727381729
 20
-139.3579019833897
 30
0.0
 10
106.3166802034555
 20
-140.003168367777
 30
0.0
 10
105.7730441358831
 20
-140.003168367777
 30
0.0
  0
HATCH
  5
15B
330
155
100
AcDbEntity
  8
レイヤー 1
 62
   250
420
  2299925
440
 33554687
100
AcDbHatch
 10
0.0
 20
0.0
 30
0.0
210
0.0
220
0.0
230
1.0
  2
SOLID
 70
     1
 71
     1
 91
        2
 92
        1
 93
        1
 72
     4
 94
        3
 73
     0
 74
     0
 95
       17
 96
       13
 40
0.0
 40
0.0
 40
0.0
 40
0.0
 40
1.0
 40
1.0
 40
1.0
 40
2.0
 40
2.0
 40
2.0
 40
3.0
 40
3.0
 40
3.0
 40
4.0
 40
4.0
 40
4.0
 40
4.0
 10
105.8133517530605
 20
-138.5519218946155
 10
105.6948404683679
 20
-138.5519218946155
 10
105.5191405986202
 20
-138.6089382248963
 10
105.5191405986202
 20
-138.8945366406236
 10
105.5191405986202
 20
-139.1208794140045
 10
105.6590114753213
 20
-139.2161363041716
 10
105.7944037278917
 20
-139.2161363041716
 10
106.0565754943192
 20
-139.2161363041716
 10
106.0948160542054
 20
-139.0066744986685
 10
106.0948160542054
 20
-138.8904025260413
 10
106.0948160542054
 20
-138.7147026562935
 10
105.999386909264
 20
-138.5519218946155
 10
105.8133517530605
 20
-138.5519218946155
 97
        0
 97
        1
330
159
 92
        1
 93
        1
 72
     4
 94
        3
 73
     0
 74
     0
 95
       32
 96
       28
 40
0.0
 40
0.0
 40
0.0
 40
0.0
 40
1.0
 40
1.0
 40
1.0
 40
2.0
 40
2.0
 40
2.0
 40
3.0
 40
3.0
 40
3.0
 40
4.0
 40
4.0
 40
4.0
 40
5.0
 40
5.0
 40
5.0
 40
6.0
 40
6.0
 40
6.0
 40
7.0
 40
7.0
 40
7.0
 40
8.0
 40
8.0
 40
8.0
 40
9.0
 40
9.0
 40
9.0
 40
9.0
 10
105.7730441358831
 20
-140.003168367777
 10
105.599755832975
 20
-140.003168367777
 10
105.3539482701025
 20
-139.9332329294264
 10
105.3160522197647
 20
-139.6011257246483
 10
105.3160522197647
 20
-139.6011257246483
 10
105.5298203946245
 20
-139.6011257246483
 10
105.5298203946245
 20
-139.6011257246483
 10
105.5405001906287
 20
-139.6603813669946
 10
105.572195069093
 20
-139.8085204728604
 10
105.7751111931743
 20
-139.8085204728604
 10
106.0672552903235
 20
-139.8085204728604
 10
106.1051513406612
 20
-139.4784803253734
 10
106.1178981939566
 20
-139.2733248892268
 10
106.026947673146
 20
-139.3535956140331
 10
105.9594238016351
 20
-139.4107841990883
 10
105.7775227600139
 20
-139.4107841990883
 10
105.5976887756839
 20
-139.4107841990883
 10
105.2946926277562
 20
-139.3050197676911
 10
105.2946926277562
 20
-138.8988430099801
 10
105.2946926277562
 20
-138.5793104037232
 10
105.4939914015779
 20
-138.35934105699
 10
105.8112846957694
 20
-138.35934105699
 10
106.3252929421687
 20
-138.35934105699
 10
106.3359727381729
 20
-138.9136569205667
 10
106.3359727381729
 20
-139.1272528406522
 10
106.3359727381729
 20
-139.3579019833897
 10
106.3166802034555
 20
-140.003168367777
 10
105.7730441358831
 20
-140.003168367777
 97
        0
 97
        1
330
15A
 75
     2
 76
     1
 98
        1
 10
0.0
 20
0.0
450
        0
451
        0
460
0.0
461
0.0
452
        0
462
0.0
453
        0
470

  0
ENDBLK
  5
158
330
155
100
AcDbEntity
  8
0
100
AcDbBlockEnd
  0
BLOCK
  5
15F
330
15D
100
AcDbEntity
  8
0
100
AcDbBlockBegin
  2
Block_13
 70
     0
 10
0.0
 20
0.0
 30
0.0
  3
Block_13
  1

  0
SPLINE
  5
161
330
15D
100
AcDbEntity
  8
レイヤー 1
100
AcDbSpline
210
0.0
220
0.0
230
1.0
 70
    11
 71
     3
 72
    26
 73
    22
 74
     0
 42
0.0000000001
 43
0.0000000001
 40
0.0
 40
0.0
 40
0.0
 40
0.0
 40
1.0
 40
1.0
 40
1.0
 40
2.0
 40
2.0
 40
2.0
 40
3.0
 40
3.0
 40
3.0
 40
4.0
 40
4.0
 40
4.0
 40
5.0
 40
5.0
 40
5.0
 40
6.0
 40
6.0
 40
6.0
 40
7.0
 40
7.0
 40
7.0
 40
7.0
 10
113.1359022069591
 20
-149.3052706875
 30
0.0
 10
113.1359022069591
 20
-149.3052706875
 30
0.0
 10
113.1359022069591
 20
-148.2007730749289
 30
0.0
 10
113.1359022069591
 20
-148.2007730749289
 30
0.0
 10
113.1359022069591
 20
-148.2007730749289
 30
0.0
 10
112.8058620594721
 20
-148.2007730749289
 30
0.0
 10
112.8058620594721
 20
-148.2007730749289
 30
0.0
 10
112.8058620594721
 20
-148.2007730749289
 30
0.0
 10
112.8058620594721
 20
-148.0526339690632
 30
0.0
 10
112.8058620594721
 20
-148.0526339690632
 30
0.0
 10
113.1379692642502
 20
-148.0379923132509
 30
0.0
 10
113.1844780533011
 20
-147.8750392967986
 30
0.0
 10
113.2141058744742
 20
-147.7608343814626
 30
0.0
 10
113.2141058744742
 20
-147.7608343814626
 30
0.0
 10
113.3601779230488
 20
-147.7608343814626
 30
0.0
 10
113.3601779230488
 20
-147.7608343814626
 30
0.0
 10
113.3601779230488
 20
-147.7608343814626
 30
0.0
 10
113.3601779230488
 20
-149.3052706875
 30
0.0
 10
113.3601779230488
 20
-149.3052706875
 30
0.0
 10
113.3601779230488
 20
-149.3052706875
 30
0.0
 10
113.1359022069591
 20
-149.3052706875
 30
0.0
 10
113.1359022069591
 20
-149.3052706875
 30
0.0
  0
HATCH
  5
162
330
15D
100
AcDbEntity
  8
レイヤー 1
 62
   250
420
  2299925
440
 33554687
100
AcDbHatch
 10
0.0
 20
0.0
 30
0.0
210
0.0
220
0.0
230
1.0
  2
SOLID
 70
     1
 71
     1
 91
        1
 92
        1
 93
        1
 72
     4
 94
        3
 73
     0
 74
     0
 95
       26
 96
       22
 40
0.0
 40
0.0
 40
0.0
 40
0.0
 40
1.0
 40
1.0
 40
1.0
 40
2.0
 40
2.0
 40
2.0
 40
3.0
 40
3.0
 40
3.0
 40
4.0
 40
4.0
 40
4.0
 40
5.0
 40
5.0
 40
5.0
 40
6.0
 40
6.0
 40
6.0
 40
7.0
 40
7.0
 40
7.0
 40
7.0
 10
113.1359022069591
 20
-149.3052706875
 10
113.1359022069591
 20
-149.3052706875
 10
113.1359022069591
 20
-148.2007730749289
 10
113.1359022069591
 20
-148.2007730749289
 10
113.1359022069591
 20
-148.2007730749289
 10
112.8058620594721
 20
-148.2007730749289
 10
112.8058620594721
 20
-148.2007730749289
 10
112.8058620594721
 20
-148.2007730749289
 10
112.8058620594721
 20
-148.0526339690632
 10
112.8058620594721
 20
-148.0526339690632
 10
113.1379692642502
 20
-148.0379923132509
 10
113.1844780533011
 20
-147.8750392967986
 10
113.2141058744742
 20
-147.7608343814626
 10
113.2141058744742
 20
-147.7608343814626
 10
113.3601779230488
 20
-147.7608343814626
 10
113.3601779230488
 20
-147.7608343814626
 10
113.3601779230488
 20
-147.7608343814626
 10
113.3601779230488
 20
-149.3052706875
 10
113.3601779230488
 20
-149.3052706875
 10
113.3601779230488
 20
-149.3052706875
 10
113.1359022069591
 20
-149.3052706875
 10
113.1359022069591
 20
-149.3052706875
 97
        0
 97
        1
330
161
 75
     2
 76
     1
 98
        1
 10
0.0
 20
0.0
450
        0
451
        0
460
0.0
461
0.0
452
        0
462
0.0
453
        0
470

  0
ENDBLK
  5
160
330
15D
100
AcDbEntity
  8
0
100
AcDbBlockEnd
  0
BLOCK
  5
16C
330
16A
100
AcDbEntity
  8
0
100
AcDbBlockBegin
  2
Block_14
 70
     0
 10
0.0
 20
0.0
 30
0.0
  3
Block_14
  1

  0
INSERT
  5
16F
330
16A
100
AcDbEntity
  8
レイヤー 1
100
AcDbBlockReference
  2
Block_15
 10
0.0
 20
0.0
 30
0.0
  0
ENDBLK
  5
16D
330
16A
100
AcDbEntity
  8
0
100
AcDbBlockEnd
  0
BLOCK
  5
170
330
16E
100
AcDbEntity
  8
0
100
AcDbBlockBegin
  2
Block_15
 70
     0
 10
0.0
 20
0.0
 30
0.0
  3
Block_15
  1

  0
SPLINE
  5
172
330
16E
100
AcDbEntity
  8
レイヤー 1
100
AcDbSpline
210
0.0
220
0.0
230
1.0
 70
    11
 71
     3
 72
    26
 73
    22
 74
     0
 42
0.0000000001
 43
0.0000000001
 40
0.0
 40
0.0
 40
0.0
 40
0.0
 40
1.0
 40
1.0
 40
1.0
 40
2.0
 40
2.0
 40
2.0
 40
3.0
 40
3.0
 40
3.0
 40
4.0
 40
4.0
 40
4.0
 40
5.0
 40
5.0
 40
5.0
 40
6.0
 40
6.0
 40
6.0
 40
7.0
 40
7.0
 40
7.0
 40
7.0
 10
105.3041666403406
 20
-157.3278645440014
 30
0.0
 10
105.3041666403406
 20
-157.3278645440014
 30
0.0
 10
105.3041666403406
 20
-156.2237114409788
 30
0.0
 10
105.3041666403406
 20
-156.2237114409788
 30
0.0
 10
105.3041666403406
 20
-156.2237114409788
 30
0.0
 10
104.9741264928537
 20
-156.2237114409788
 30
0.0
 10
104.9741264928537
 20
-156.2237114409788
 30
0.0
 10
104.9741264928537
 20
-156.2237114409788
 30
0.0
 10
104.9741264928537
 20
-156.075572335113
 30
0.0
 10
104.9741264928537
 20
-156.075572335113
 30
0.0
 10
105.3062336976318
 20
-156.0607584245265
 30
0.0
 10
105.3527424866826
 20
-155.8978054080741
 30
0.0
 10
105.3823703078558
 20
-155.7834282379638
 30
0.0
 10
105.3823703078558
 20
-155.7834282379638
 30
0.0
 10
105.5284423564304
 20
-155.7834282379638
 30
0.0
 10
105.5284423564304
 20
-155.7834282379638
 30
0.0
 10
105.5284423564304
 20
-155.7834282379638
 30
0.0
 10
105.5284423564304
 20
-157.3278645440014
 30
0.0
 10
105.5284423564304
 20
-157.3278645440014
 30
0.0
 10
105.5284423564304
 20
-157.3278645440014
 30
0.0
 10
105.3041666403406
 20
-157.3278645440014
 30
0.0
 10
105.3041666403406
 20
-157.3278645440014
 30
0.0
  0
HATCH
  5
173
330
16E
100
AcDbEntity
  8
レイヤー 1
 62
   250
420
  2299925
440
 33554687
100
AcDbHatch
 10
0.0
 20
0.0
 30
0.0
210
0.0
220
0.0
230
1.0
  2
SOLID
 70
     1
 71
     1
 91
        1
 92
        1
 93
        1
 72
     4
 94
        3
 73
     0
 74
     0
 95
       26
 96
       22
 40
0.0
 40
0.0
 40
0.0
 40
0.0
 40
1.0
 40
1.0
 40
1.0
 40
2.0
 40
2.0
 40
2.0
 40
3.0
 40
3.0
 40
3.0
 40
4.0
 40
4.0
 40
4.0
 40
5.0
 40
5.0
 40
5.0
 40
6.0
 40
6.0
 40
6.0
 40
7.0
 40
7.0
 40
7.0
 40
7.0
 10
105.3041666403406
 20
-157.3278645440014
 10
105.3041666403406
 20
-157.3278645440014
 10
105.3041666403406
 20
-156.2237114409788
 10
105.3041666403406
 20
-156.2237114409788
 10
105.3041666403406
 20
-156.2237114409788
 10
104.9741264928537
 20
-156.2237114409788
 10
104.9741264928537
 20
-156.2237114409788
 10
104.9741264928537
 20
-156.2237114409788
 10
104.9741264928537
 20
-156.075572335113
 10
104.9741264928537
 20
-156.075572335113
 10
105.3062336976318
 20
-156.0607584245265
 10
105.3527424866826
 20
-155.8978054080741
 10
105.3823703078558
 20
-155.7834282379638
 10
105.3823703078558
 20
-155.7834282379638
 10
105.5284423564304
 20
-155.7834282379638
 10
105.5284423564304
 20
-155.7834282379638
 10
105.5284423564304
 20
-155.7834282379638
 10
105.5284423564304
 20
-157.3278645440014
 10
105.5284423564304
 20
-157.3278645440014
 10
105.5284423564304
 20
-157.3278645440014
 10
105.3041666403406
 20
-157.3278645440014
 10
105.3041666403406
 20
-157.3278645440014
 97
        0
 97
        1
330
172
 75
     2
 76
     1
 98
        1
 10
0.0
 20
0.0
450
        0
451
        0
460
0.0
461
0.0
452
        0
462
0.0
453
        0
470

  0
SPLINE
  5
174
330
16E
100
AcDbEntity
  8
レイヤー 1
100
AcDbSpline
210
0.0
220
0.0
230
1.0
 70
    11
 71
     3
 72
    26
 73
    22
 74
     0
 42
0.0000000001
 43
0.0000000001
 40
0.0
 40
0.0
 40
0.0
 40
0.0
 40
1.0
 40
1.0
 40
1.0
 40
2.0
 40
2.0
 40
2.0
 40
3.0
 40
3.0
 40
3.0
 40
4.0
 40
4.0
 40
4.0
 40
5.0
 40
5.0
 40
5.0
 40
6.0
 40
6.0
 40
6.0
 40
7.0
 40
7.0
 40
7.0
 40
7.0
 10
106.4810112581019
 20
-157.3278645440014
 30
0.0
 10
106.4810112581019
 20
-157.3278645440014
 30
0.0
 10
106.4810112581019
 20
-156.2237114409788
 30
0.0
 10
106.4810112581019
 20
-156.2237114409788
 30
0.0
 10
106.4810112581019
 20
-156.2237114409788
 30
0.0
 10
106.150971110615
 20
-156.2237114409788
 30
0.0
 10
106.150971110615
 20
-156.2237114409788
 30
0.0
 10
106.150971110615
 20
-156.2237114409788
 30
0.0
 10
106.150971110615
 20
-156.075572335113
 30
0.0
 10
106.150971110615
 20
-156.075572335113
 30
0.0
 10
106.4830783153931
 20
-156.0607584245265
 30
0.0
 10
106.529587104444
 20
-155.8978054080741
 30
0.0
 10
106.5592149256171
 20
-155.7834282379638
 30
0.0
 10
106.5592149256171
 20
-155.7834282379638
 30
0.0
 10
106.7052869741917
 20
-155.7834282379638
 30
0.0
 10
106.7052869741917
 20
-155.7834282379638
 30
0.0
 10
106.7052869741917
 20
-155.7834282379638
 30
0.0
 10
106.7052869741917
 20
-157.3278645440014
 30
0.0
 10
106.7052869741917
 20
-157.3278645440014
 30
0.0
 10
106.7052869741917
 20
-157.3278645440014
 30
0.0
 10
106.4810112581019
 20
-157.3278645440014
 30
0.0
 10
106.4810112581019
 20
-157.3278645440014
 30
0.0
  0
HATCH
  5
175
330
16E
100
AcDbEntity
  8
レイヤー 1
 62
   250
420
  2299925
440
 33554687
100
AcDbHatch
 10
0.0
 20
0.0
 30
0.0
210
0.0
220
0.0
230
1.0
  2
SOLID
 70
     1
 71
     1
 91
        1
 92
        1
 93
        1
 72
     4
 94
        3
 73
     0
 74
     0
 95
       26
 96
       22
 40
0.0
 40
0.0
 40
0.0
 40
0.0
 40
1.0
 40
1.0
 40
1.0
 40
2.0
 40
2.0
 40
2.0
 40
3.0
 40
3.0
 40
3.0
 40
4.0
 40
4.0
 40
4.0
 40
5.0
 40
5.0
 40
5.0
 40
6.0
 40
6.0
 40
6.0
 40
7.0
 40
7.0
 40
7.0
 40
7.0
 10
106.4810112581019
 20
-157.3278645440014
 10
106.4810112581019
 20
-157.3278645440014
 10
106.4810112581019
 20
-156.2237114409788
 10
106.4810112581019
 20
-156.2237114409788
 10
106.4810112581019
 20
-156.2237114409788
 10
106.150971110615
 20
-156.2237114409788
 10
106.150971110615
 20
-156.2237114409788
 10
106.150971110615
 20
-156.2237114409788
 10
106.150971110615
 20
-156.075572335113
 10
106.150971110615
 20
-156.075572335113
 10
106.4830783153931
 20
-156.0607584245265
 10
106.529587104444
 20
-155.8978054080741
 10
106.5592149256171
 20
-155.7834282379638
 10
106.5592149256171
 20
-155.7834282379638
 10
106.7052869741917
 20
-155.7834282379638
 10
106.7052869741917
 20
-155.7834282379638
 10
106.7052869741917
 20
-155.7834282379638
 10
106.7052869741917
 20
-157.3278645440014
 10
106.7052869741917
 20
-157.3278645440014
 10
106.7052869741917
 20
-157.3278645440014
 10
106.4810112581019
 20
-157.3278645440014
 10
106.4810112581019
 20
-157.3278645440014
 97
        0
 97
        1
330
174
 75
     2
 76
     1
 98
        1
 10
0.0
 20
0.0
450
        0
451
        0
460
0.0
461
0.0
452
        0
462
0.0
453
        0
470

  0
ENDBLK
  5
171
330
16E
100
AcDbEntity
  8
0
100
AcDbBlockEnd
  0
ENDSEC
  0
SECTION
  2
ENTITIES
  0
INSERT
  5
7A
330
70
100
AcDbEntity
  8
レイヤー 1
100
AcDbBlockReference
  2
Block_0
 10
0.0
 20
0.0
 30
0.0
  0
SPLINE
  5
163
330
70
100
AcDbEntity
  8
レイヤー 1
 62
   250
420
  2299925
370
     9
100
AcDbSpline
210
0.0
220
0.0
230
1.0
 70
     9
 71
     3
 72
    17
 73
    13
 74
     0
 42
0.0000000001
 43
0.0000000001
 40
0.0
 40
0.0
 40
0.0
 40
0.0
 40
1.0
 40
1.0
 40
1.0
 40
2.0
 40
2.0
 40
2.0
 40
3.0
 40
3.0
 40
3.0
 40
4.0
 40
4.0
 40
4.0
 40
4.0
 10
100.427853386963
 20
-158.0415897714181
 30
0.0
 10
100.427853386963
 20
-157.9864506047656
 30
0.0
 10
100.3828738495227
 20
-157.9416478269989
 30
0.0
 10
100.3274822058705
 20
-157.9416478269989
 30
0.0
 10
100.2728329244526
 20
-157.9416478269989
 30
0.0
 10
100.227853387012
 20
-157.9864506047656
 30
0.0
 10
100.227853387012
 20
-158.0415897714181
 30
0.0
 10
100.227853387012
 20
-158.0966936602936
 30
0.0
 10
100.2728329244526
 20
-158.1414964380604
 30
0.0
 10
100.3274822058705
 20
-158.1414964380604
 30
0.0
 10
100.3828738495227
 20
-158.1414964380604
 30
0.0
 10
100.427853386963
 20
-158.0966936602936
 30
0.0
 10
100.427853386963
 20
-158.0415897714181
 30
0.0
  0
HATCH
  5
164
330
70
100
AcDbEntity
  8
レイヤー 1
 62
   250
420
  2299925
440
 33554687
100
AcDbHatch
 10
0.0
 20
0.0
 30
0.0
210
0.0
220
0.0
230
1.0
  2
SOLID
 70
     1
 71
     1
 91
        1
 92
        1
 93
        1
 72
     4
 94
        3
 73
     0
 74
     0
 95
       17
 96
       13
 40
0.0
 40
0.0
 40
0.0
 40
0.0
 40
1.0
 40
1.0
 40
1.0
 40
2.0
 40
2.0
 40
2.0
 40
3.0
 40
3.0
 40
3.0
 40
4.0
 40
4.0
 40
4.0
 40
4.0
 10
100.427853386963
 20
-158.0415897714181
 10
100.427853386963
 20
-157.9864506047656
 10
100.3828738495227
 20
-157.9416478269989
 10
100.3274822058705
 20
-157.9416478269989
 10
100.2728329244526
 20
-157.9416478269989
 10
100.227853387012
 20
-157.9864506047656
 10
100.227853387012
 20
-158.0415897714181
 10
100.227853387012
 20
-158.0966936602936
 10
100.2728329244526
 20
-158.1414964380604
 10
100.3274822058705
 20
-158.1414964380604
 10
100.3828738495227
 20
-158.1414964380604
 10
100.427853386963
 20
-158.0966936602936
 10
100.427853386963
 20
-158.0415897714181
 97
        0
 97
        1
330
163
 75
     2
 76
     1
 98
        1
 10
0.0
 20
0.0
450
        0
451
        0
460
0.0
461
0.0
452
        0
462
0.0
453
        0
470

  0
SPLINE
  5
165
330
70
100
AcDbEntity
  8
レイヤー 1
 62
   250
420
  2299925
370
     9
100
AcDbSpline
210
0.0
220
0.0
230
1.0
 70
     9
 71
     3
 72
    17
 73
    13
 74
     0
 42
0.0000000001
 43
0.0000000001
 40
0.0
 40
0.0
 40
0.0
 40
0.0
 40
1.0
 40
1.0
 40
1.0
 40
2.0
 40
2.0
 40
2.0
 40
3.0
 40
3.0
 40
3.0
 40
4.0
 40
4.0
 40
4.0
 40
4.0
 10
111.4705398577181
 20
-158.0415897714181
 30
0.0
 10
111.4705398577181
 20
-157.9864506047656
 30
0.0
 10
111.4259262300171
 20
-157.9416478269989
 30
0.0
 10
111.3709014869779
 20
-157.9416478269989
 30
0.0
 10
111.3151534854699
 20
-157.9416478269989
 30
0.0
 10
111.2705398577676
 20
-157.9864506047656
 30
0.0
 10
111.2705398577676
 20
-158.0415897714181
 30
0.0
 10
111.2705398577676
 20
-158.0966936602936
 30
0.0
 10
111.3151534854699
 20
-158.1414964380604
 30
0.0
 10
111.3709014869779
 20
-158.1414964380604
 30
0.0
 10
111.4259262300171
 20
-158.1414964380604
 30
0.0
 10
111.4705398577181
 20
-158.0966936602936
 30
0.0
 10
111.4705398577181
 20
-158.0415897714181
 30
0.0
  0
HATCH
  5
166
330
70
100
AcDbEntity
  8
レイヤー 1
 62
   250
420
  2299925
440
 33554687
100
AcDbHatch
 10
0.0
 20
0.0
 30
0.0
210
0.0
220
0.0
230
1.0
  2
SOLID
 70
     1
 71
     1
 91
        1
 92
        1
 93
        1
 72
     4
 94
        3
 73
     0
 74
     0
 95
       17
 96
       13
 40
0.0
 40
0.0
 40
0.0
 40
0.0
 40
1.0
 40
1.0
 40
1.0
 40
2.0
 40
2.0
 40
2.0
 40
3.0
 40
3.0
 40
3.0
 40
4.0
 40
4.0
 40
4.0
 40
4.0
 10
111.4705398577181
 20
-158.0415897714181
 10
111.4705398577181
 20
-157.9864506047656
 10
111.4259262300171
 20
-157.9416478269989
 10
111.3709014869779
 20
-157.9416478269989
 10
111.3151534854699
 20
-157.9416478269989
 10
111.2705398577676
 20
-157.9864506047656
 10
111.2705398577676
 20
-158.0415897714181
 10
111.2705398577676
 20
-158.0966936602936
 10
111.3151534854699
 20
-158.1414964380604
 10
111.3709014869779
 20
-158.1414964380604
 10
111.4259262300171
 20
-158.1414964380604
 10
111.4705398577181
 20
-158.0966936602936
 10
111.4705398577181
 20
-158.0415897714181
 97
        0
 97
        1
330
165
 75
     2
 76
     1
 98
        1
 10
0.0
 20
0.0
450
        0
451
        0
460
0.0
461
0.0
452
        0
462
0.0
453
        0
470

  0
LINE
  5
167
330
70
100
AcDbEntity
  8
レイヤー 1
 62
   250
420
  2299925
370
     9
100
AcDbLine
 10
111.3712101633193
 20
-158.0415897714181
 30
0.0
 11
100.3271654703385
 21
-158.0415897714181
 31
0.0
  0
LINE
  5
168
330
70
100
AcDbEntity
  8
レイヤー 1
 62
   250
420
  2299925
370
     9
100
AcDbLine
 10
111.3712101355042
 20
-156.5815483828944
 30
0.0
 11
111.3712101355042
 21
-159.0416794933909
 31
0.0
  0
LINE
  5
169
330
70
100
AcDbEntity
  8
レイヤー 1
 62
   250
420
  2299925
370
     9
100
AcDbLine
 10
100.3271654703385
 20
-156.5815483828944
 30
0.0
 11
100.3271654703385
 21
-159.0416794933909
 31
0.0
  0
INSERT
  5
16B
330
70
100
AcDbEntity
  8
レイヤー 1
100
AcDbBlockReference
  2
Block_14
 10
0.0
 20
0.0
 30
0.0
  0
ENDSEC
  0
SECTION
  2
OBJECTS
  0
DICTIONARY
  5
C
330
0
100
AcDbDictionary
281
     1
  3
ACAD_COLOR
350
63
  3
ACAD_DETAILVIEWSTYLE
350
6A
  3
ACAD_GROUP
350
D
  3
ACAD_LAYOUT
350
62
  3
ACAD_MATERIAL
350
10
  3
ACAD_MLEADERSTYLE
350
66
  3
ACAD_MLINESTYLE
350
5F
  3
ACAD_PLOTSETTINGS
350
61
  3
ACAD_PLOTSTYLENAME
350
E
  3
ACAD_SCALELIST
350
42
  3
ACAD_SECTIONVIEWSTYLE
350
68
  3
ACAD_TABLESTYLE
350
64
  3
ACAD_VISUALSTYLE
350
29
  3
ACDB_RECOMPOSE_DATA
350
17E
  3
AcDbVariableDictionary
350
176
  0
DICTIONARY
  5
63
102
{ACAD_REACTORS
330
C
102
}
330
C
100
AcDbDictionary
281
     1
  0
DICTIONARY
  5
6A
102
{ACAD_REACTORS
330
C
102
}
330
C
100
AcDbDictionary
281
     1
  3
Imperial24
350
6B
  0
DICTIONARY
  5
D
102
{ACAD_REACTORS
330
C
102
}
330
C
100
AcDbDictionary
281
     1
  0
DICTIONARY
  5
62
102
{ACAD_REACTORS
330
C
102
}
330
C
100
AcDbDictionary
281
     1
  3
Layout1
350
6F
  3
Layout2
350
77
  3
Model
350
73
  0
DICTIONARY
  5
10
102
{ACAD_REACTORS
330
C
102
}
330
C
100
AcDbDictionary
281
     1
  3
ByBlock
350
19
  3
ByLayer
350
11
  3
Global
350
21
  0
DICTIONARY
  5
66
102
{ACAD_REACTORS
330
C
102
}
330
C
100
AcDbDictionary
281
     1
  3
Standard
350
67
  0
DICTIONARY
  5
5F
102
{ACAD_REACTORS
330
C
102
}
330
C
100
AcDbDictionary
281
     1
  3
Standard
350
60
  0
DICTIONARY
  5
61
102
{ACAD_REACTORS
330
C
102
}
330
C
100
AcDbDictionary
281
     1
  0
ACDBDICTIONARYWDFLT
  5
E
102
{ACAD_REACTORS
330
C
102
}
330
C
100
AcDbDictionary
281
     1
  3
Normal
350
F
100
AcDbDictionaryWithDefault
340
F
  0
DICTIONARY
  5
42
102
{ACAD_REACTORS
330
C
102
}
330
C
100
AcDbDictionary
281
     1
  3
A0
350
43
  3
A1
350
44
  3
A2
350
45
  3
A3
350
46
  3
A4
350
47
  3
A5
350
48
  3
A6
350
49
  3
A7
350
4A
  3
A8
350
4B
  3
A9
350
4C
  3
B0
350
4D
  3
B1
350
4E
  3
B2
350
4F
  3
B3
350
50
  3
B4
350
51
  3
B5
350
52
  3
B6
350
53
  0
DICTIONARY
  5
68
102
{ACAD_REACTORS
330
C
102
}
330
C
100
AcDbDictionary
281
     1
  3
Imperial24
350
69
  0
DICTIONARY
  5
64
102
{ACAD_REACTORS
330
C
102
}
330
C
100
AcDbDictionary
281
     1
  3
Standard
350
65
  0
DICTIONARY
  5
29
102
{ACAD_REACTORS
330
C
102
}
330
C
100
AcDbDictionary
281
     1
  3
2dWireframe
350
2F
  3
Basic
350
2E
  3
Brighten
350
35
  3
ColorChange
350
39
  3
Conceptual
350
32
  3
Dim
350
34
  3
EdgeColorOff
350
41
  3
Facepattern
350
38
  3
Flat
350
2A
  3
FlatWithEdges
350
2B
  3
Gouraud
350
2C
  3
GouraudWithEdges
350
2D
  3
Hidden
350
31
  3
JitterOff
350
3F
  3
Linepattern
350
37
  3
OverhangOff
350
40
  3
Realistic
350
33
  3
Shaded
350
3E
  3
Shaded with edges
350
3D
  3
Shades of Gray
350
3A
  3
Sketchy
350
3B
  3
Thicken
350
36
  3
Wireframe
350
30
  3
X-Ray
350
3C
  0
XRECORD
  5
17E
102
{ACAD_REACTORS
330
C
102
}
330
C
100
AcDbXrecord
280
     1
 90
        1
330
65
  0
DICTIONARY
  5
176
102
{ACAD_REACTORS
330
C
102
}
330
C
100
AcDbDictionary
281
     1
  3
CANNOSCALE
350
17B
  3
CMLEADERSTYLE
350
178
  3
CTABLESTYLE
350
177
  3
CVIEWDETAILSTYLE
350
179
  3
CVIEWSECTIONSTYLE
350
17A
  0
ACDBDETAILVIEWSTYLE
  5
6B
102
{ACAD_XDICTIONARY
360
1B3
102
}
102
{ACAD_REACTORS
330
6A
102
}
330
6A
100
AcDbModelDocViewStyle
 70
     0
  3
Imperial24
290
     0
100
AcDbDetailViewStyle
 70
     0
 71
     0
 90
        3
 71
     1
340
55
 62
   256
 40
0.24
340
0
 62
   256
 40
0.24
300

 40
0.36
280
     3
 71
     2
340
5D
 90
       25
 62
   256
 71
     3
340
55
 62
   256
 40
0.24
 90
        1
 40
0.75
 90
        1
300
%<\AcVar ViewType \f "%tc1">% %<\AcVar ViewDetailId>%\PSCALE %<\AcVar ViewScale \f "%sn">%
 71
     4
340
5D
 90
       25
 62
   256
340
5D
 90
       25
 62
   256
280
     0
  0
LAYOUT
  5
6F
102
{ACAD_REACTORS
330
62
102
}
330
62
100
AcDbPlotSettings
  1

  2

  4

  6

 40
0.0
 41
0.0
 42
0.0
 43
0.0
 44
0.0
 45
0.0
 46
0.0
 47
0.0
 48
0.0
 49
0.0
140
0.0
141
0.0
142
1.0
143
1.0
 70
   688
 72
     0
 73
     0
 74
     5
  7

 75
    16
147
1.0
 76
     0
 77
     2
 78
   300
148
0.0
149
0.0
100
AcDbLayout
  1
Layout1
 70
     1
 71
     1
 10
0.0
 20
0.0
 11
12.0
 21
9.0
 12
0.0
 22
0.0
 32
0.0
 14
0.0
 24
0.0
 34
0.0
 15
0.0
 25
0.0
 35
0.0
146
0.0
 13
0.0
 23
0.0
 33
0.0
 16
1.0
 26
0.0
 36
0.0
 17
0.0
 27
1.0
 37
0.0
 76
     0
330
6C
  0
LAYOUT
  5
77
102
{ACAD_REACTORS
330
62
102
}
330
62
100
AcDbPlotSettings
  1

  2

  4

  6

 40
0.0
 41
0.0
 42
0.0
 43
0.0
 44
0.0
 45
0.0
 46
0.0
 47
0.0
 48
0.0
 49
0.0
140
0.0
141
0.0
142
1.0
143
1.0
 70
   688
 72
     0
 73
     0
 74
     5
  7

 75
    16
147
1.0
 76
     0
 77
     2
 78
   300
148
0.0
149
0.0
100
AcDbLayout
  1
Layout2
 70
     1
 71
     2
 10
0.0
 20
0.0
 11
12.0
 21
9.0
 12
0.0
 22
0.0
 32
0.0
 14
0.0
 24
0.0
 34
0.0
 15
0.0
 25
0.0
 35
0.0
146
0.0
 13
0.0
 23
0.0
 33
0.0
 16
1.0
 26
0.0
 36
0.0
 17
0.0
 27
1.0
 37
0.0
 76
     0
330
74
  0
LAYOUT
  5
73
102
{ACAD_REACTORS
330
62
102
}
330
62
100
AcDbPlotSettings
  1

  2

  4

  6

 40
0.0
 41
0.0
 42
0.0
 43
0.0
 44
0.0
 45
0.0
 46
0.0
 47
0.0
 48
0.0
 49
0.0
140
0.0
141
0.0
142
1.0
143
1.0
 70
  1712
 72
     0
 73
     0
 74
     0
  7

 75
     0
147
1.0
 76
     0
 77
     2
 78
   300
148
0.0
149
0.0
100
AcDbLayout
  1
Model
 70
     1
 71
     0
 10
0.0
 20
0.0
 11
12.0
 21
9.0
 12
0.0
 22
0.0
 32
0.0
 14
0.0
 24
0.0
 34
0.0
 15
0.0
 25
0.0
 35
0.0
146
0.0
 13
0.0
 23
0.0
 33
0.0
 16
1.0
 26
0.0
 36
0.0
 17
0.0
 27
1.0
 37
0.0
 76
     0
330
70
  0
MATERIAL
  5
19
102
{ACAD_XDICTIONARY
360
1A
102
}
102
{ACAD_REACTORS
330
10
102
}
330
10
100
AcDbMaterial
  1
ByBlock
 72
     0
 43
0.0208333333333333
 43
0.0
 43
0.0
 43
0.0
 43
0.0
 43
0.0208333333333333
 43
0.0
 43
0.0
 43
0.0
 43
0.0
 43
1.0
 43
0.0
 43
0.0
 43
0.0
 43
0.0
 43
1.0
 77
     0
 47
0.0208333333333333
 47
0.0
 47
0.0
 47
0.0
 47
0.0
 47
0.0208333333333333
 47
0.0
 47
0.0
 47
0.0
 47
0.0
 47
1.0
 47
0.0
 47
0.0
 47
0.0
 47
0.0
 47
1.0
171
     0
 49
0.0208333333333333
 49
0.0
 49
0.0
 49
0.0
 49
0.0
 49
0.0208333333333333
 49
0.0
 49
0.0
 49
0.0
 49
0.0
 49
1.0
 49
0.0
 49
0.0
 49
0.0
 49
0.0
 49
1.0
175
     0
142
0.0208333333333333
142
0.0
142
0.0
142
0.0
142
0.0
142
0.0208333333333333
142
0.0
142
0.0
142
0.0
142
0.0
142
1.0
142
0.0
142
0.0
142
0.0
142
0.0
142
1.0
179
     0
144
0.0208333333333333
144
0.0
144
0.0
144
0.0
144
0.0
144
0.0208333333333333
144
0.0
144
0.0
144
0.0
144
0.0
144
1.0
144
0.0
144
0.0
144
0.0
144
0.0
144
1.0
147
0.0208333333333333
147
0.0
147
0.0
147
0.0
147
0.0
147
0.0208333333333333
147
0.0
147
0.0
147
0.0
147
0.0
147
1.0
147
0.0
147
0.0
147
0.0
147
0.0
147
1.0
  0
MATERIAL
  5
11
102
{ACAD_XDICTIONARY
360
12
102
}
102
{ACAD_REACTORS
330
10
102
}
330
10
100
AcDbMaterial
  1
ByLayer
 72
     0
 43
0.0208333333333333
 43
0.0
 43
0.0
 43
0.0
 43
0.0
 43
0.0208333333333333
 43
0.0
 43
0.0
 43
0.0
 43
0.0
 43
1.0
 43
0.0
 43
0.0
 43
0.0
 43
0.0
 43
1.0
 77
     0
 47
0.0208333333333333
 47
0.0
 47
0.0
 47
0.0
 47
0.0
 47
0.0208333333333333
 47
0.0
 47
0.0
 47
0.0
 47
0.0
 47
1.0
 47
0.0
 47
0.0
 47
0.0
 47
0.0
 47
1.0
171
     0
 49
0.0208333333333333
 49
0.0
 49
0.0
 49
0.0
 49
0.0
 49
0.0208333333333333
 49
0.0
 49
0.0
 49
0.0
 49
0.0
 49
1.0
 49
0.0
 49
0.0
 49
0.0
 49
0.0
 49
1.0
175
     0
142
0.0208333333333333
142
0.0
142
0.0
142
0.0
142
0.0
142
0.0208333333333333
142
0.0
142
0.0
142
0.0
142
0.0
142
1.0
142
0.0
142
0.0
142
0.0
142
0.0
142
1.0
179
     0
144
0.0208333333333333
144
0.0
144
0.0
144
0.0
144
0.0
144
0.0208333333333333
144
0.0
144
0.0
144
0.0
144
0.0
144
1.0
144
0.0
144
0.0
144
0.0
144
0.0
144
1.0
147
0.0208333333333333
147
0.0
147
0.0
147
0.0
147
0.0
147
0.0208333333333333
147
0.0
147
0.0
147
0.0
147
0.0
147
1.0
147
0.0
147
0.0
147
0.0
147
0.0
147
1.0
  0
MATERIAL
  5
21
102
{ACAD_XDICTIONARY
360
22
102
}
102
{ACAD_REACTORS
330
10
102
}
330
10
100
AcDbMaterial
  1
Global
 72
     0
 43
0.0208333333333333
 43
0.0
 43
0.0
 43
0.0
 43
0.0
 43
0.0208333333333333
 43
0.0
 43
0.0
 43
0.0
 43
0.0
 43
1.0
 43
0.0
 43
0.0
 43
0.0
 43
0.0
 43
1.0
 77
     0
 47
0.0208333333333333
 47
0.0
 47
0.0
 47
0.0
 47
0.0
 47
0.0208333333333333
 47
0.0
 47
0.0
 47
0.0
 47
0.0
 47
1.0
 47
0.0
 47
0.0
 47
0.0
 47
0.0
 47
1.0
171
     0
 49
0.0208333333333333
 49
0.0
 49
0.0
 49
0.0
 49
0.0
 49
0.0208333333333333
 49
0.0
 49
0.0
 49
0.0
 49
0.0
 49
1.0
 49
0.0
 49
0.0
 49
0.0
 49
0.0
 49
1.0
175
     0
142
0.0208333333333333
142
0.0
142
0.0
142
0.0
142
0.0
142
0.0208333333333333
142
0.0
142
0.0
142
0.0
142
0.0
142
1.0
142
0.0
142
0.0
142
0.0
142
0.0
142
1.0
179
     0
144
0.0208333333333333
144
0.0
144
0.0
144
0.0
144
0.0
144
0.0208333333333333
144
0.0
144
0.0
144
0.0
144
0.0
144
1.0
144
0.0
144
0.0
144
0.0
144
0.0
144
1.0
147
0.0208333333333333
147
0.0
147
0.0
147
0.0
147
0.0
147
0.0208333333333333
147
0.0
147
0.0
147
0.0
147
0.0
147
1.0
147
0.0
147
0.0
147
0.0
147
0.0
147
1.0
  0
MLEADERSTYLE
  5
67
102
{ACAD_XDICTIONARY
360
1AF
102
}
102
{ACAD_REACTORS
330
66
102
}
330
66
100
AcDbMLeaderStyle
179
     2
170
     2
171
     1
172
     0
 90
        2
 40
0.0
 41
0.0
173
     1
 91
-1056964608
340
5B
 92
       -2
290
     1
 42
0.09
291
     1
 43
0.36
  3
Standard
 44
0.18
300

342
55
174
     1
178
     6
175
     1
176
     0
 93
-1056964608
 45
0.18
292
     0
297
     0
 46
0.18
 94
-1056964608
 47
1.0
 49
1.0
140
1.0
293
     1
141
0.0
294
     1
177
     0
142
1.0
295
     0
296
     0
143
0.125
271
     0
272
     9
273
     9
  0
MLINESTYLE
  5
60
102
{ACAD_REACTORS
330
5F
102
}
330
5F
100
AcDbMlineStyle
  2
STANDARD
 70
     0
  3

 62
   256
 51
90.0
 52
90.0
 71
     2
 49
0.5
 62
   256
  6
BYLAYER
 49
-0.5
 62
   256
  6
BYLAYER
  0
ACDBPLACEHOLDER
  5
F
102
{ACAD_REACTORS
330
E
102
}
330
E
  0
SCALE
  5
43
102
{ACAD_REACTORS
330
42
102
}
330
42
100
AcDbScale
 70
     0
300
1:1
140
1.0
141
1.0
290
     1
  0
SCALE
  5
44
102
{ACAD_REACTORS
330
42
102
}
330
42
100
AcDbScale
 70
     0
300
1/128" = 1'-0"
140
0.0078125
141
12.0
290
     0
  0
SCALE
  5
45
102
{ACAD_REACTORS
330
42
102
}
330
42
100
AcDbScale
 70
     0
300
1/64" = 1'-0"
140
0.015625
141
12.0
290
     0
  0
SCALE
  5
46
102
{ACAD_REACTORS
330
42
102
}
330
42
100
AcDbScale
 70
     0
300
1/32" = 1'-0"
140
0.03125
141
12.0
290
     0
  0
SCALE
  5
47
102
{ACAD_REACTORS
330
42
102
}
330
42
100
AcDbScale
 70
     0
300
1/16" = 1'-0"
140
0.0625
141
12.0
290
     0
  0
SCALE
  5
48
102
{ACAD_REACTORS
330
42
102
}
330
42
100
AcDbScale
 70
     0
300
3/32" = 1'-0"
140
0.09375
141
12.0
290
     0
  0
SCALE
  5
49
102
{ACAD_REACTORS
330
42
102
}
330
42
100
AcDbScale
 70
     0
300
1/8" = 1'-0"
140
0.125
141
12.0
290
     0
  0
SCALE
  5
4A
102
{ACAD_REACTORS
330
42
102
}
330
42
100
AcDbScale
 70
     0
300
3/16" = 1'-0"
140
0.1875
141
12.0
290
     0
  0
SCALE
  5
4B
102
{ACAD_REACTORS
330
42
102
}
330
42
100
AcDbScale
 70
     0
300
1/4" = 1'-0"
140
0.25
141
12.0
290
     0
  0
SCALE
  5
4C
102
{ACAD_REACTORS
330
42
102
}
330
42
100
AcDbScale
 70
     0
300
3/8" = 1'-0"
140
0.375
141
12.0
290
     0
  0
SCALE
  5
4D
102
{ACAD_REACTORS
330
42
102
}
330
42
100
AcDbScale
 70
     0
300
1/2" = 1'-0"
140
0.5
141
12.0
290
     0
  0
SCALE
  5
4E
102
{ACAD_REACTORS
330
42
102
}
330
42
100
AcDbScale
 70
     0
300
3/4" = 1'-0"
140
0.75
141
12.0
290
     0
  0
SCALE
  5
4F
102
{ACAD_REACTORS
330
42
102
}
330
42
100
AcDbScale
 70
     0
300
1" = 1'-0"
140
1.0
141
12.0
290
     0
  0
SCALE
  5
50
102
{ACAD_REACTORS
330
42
102
}
330
42
100
AcDbScale
 70
     0
300
1-1/2" = 1'-0"
140
1.5
141
12.0
290
     0
  0
SCALE
  5
51
102
{ACAD_REACTORS
330
42
102
}
330
42
100
AcDbScale
 70
     0
300
3" = 1'-0"
140
3.0
141
12.0
290
     0
  0
SCALE
  5
52
102
{ACAD_REACTORS
330
42
102
}
330
42
100
AcDbScale
 70
     0
300
6" = 1'-0"
140
6.0
141
12.0
290
     0
  0
SCALE
  5
53
102
{ACAD_REACTORS
330
42
102
}
330
42
100
AcDbScale
 70
     0
300
1'-0" = 1'-0"
140
12.0
141
12.0
290
     0
  0
ACDBSECTIONVIEWSTYLE
  5
69
102
{ACAD_XDICTIONARY
360
1B1
102
}
102
{ACAD_REACTORS
330
68
102
}
330
68
100
AcDbModelDocViewStyle
 70
     0
  3
Imperial24
290
     0
100
AcDbSectionViewStyle
 70
     0
 71
     0
 90
       78
 71
     1
340
55
 62
   256
 40
0.24
340
0
340
0
 62
   256
 40
0.24
300
I, O, Q, S, X, Z
 40
0.48
 90
        3
 40
0.18
 90
        1
 71
     2
340
5D
 90
       25
 62
   256
340
5D
 90
       50
 62
   256
 40
0.24
 40
0.0
 40
0.24
 71
     3
340
55
 62
   256
 40
0.24
 90
        1
 40
0.75
 90
        1
300
%<\AcVar ViewType \f "%tc1">% %<\AcVar ViewSectionStartId>%-%<\AcVar ViewSectionEndId>%\PSCALE %<\AcVar ViewScale \f "%sn">%
 71
     4
 62
   256
 62
   257
300
ANSI31
 40
1.0
 90
        0
290
     0
290
     0
 90
        6
 40
0.0
 40
1.570796326794896
 40
0.2617993877991494
 40
1.308996938995747
 40
-0.2617993877991494
 40
1.832595714594046
  0
TABLESTYLE
  5
65
102
{ACAD_XDICTIONARY
360
17C
102
}
102
{ACAD_REACTORS
330
64
102
}
330
64
100
AcDbTableStyle
280
     0
  3
Standard
 70
     0
 71
     0
 40
0.06
 41
0.06
280
     0
281
     0
  7
Standard
140
0.18
170
     2
 62
     0
 63
     7
283
     0
 90
      512
 91
        0
  1

274
    -2
284
     1
 64
     0
275
    -2
285
     1
 65
     0
276
    -2
286
     1
 66
     0
277
    -2
287
     1
 67
     0
278
    -2
288
     1
 68
     0
279
    -2
289
     1
 69
     0
  7
Standard
140
0.25
170
     5
 62
     0
 63
     7
283
     0
 90
      512
 91
        0
  1

274
    -2
284
     1
 64
     0
275
    -2
285
     1
 65
     0
276
    -2
286
     1
 66
     0
277
    -2
287
     1
 67
     0
278
    -2
288
     1
 68
     0
279
    -2
289
     1
 69
     0
  7
Standard
140
0.18
170
     5
 62
     0
 63
     7
283
     0
 90
      512
 91
        0
  1

274
    -2
284
     1
 64
     0
275
    -2
285
     1
 65
     0
276
    -2
286
     1
 66
     0
277
    -2
287
     1
 67
     0
278
    -2
288
     1
 68
     0
279
    -2
289
     1
 69
     0
  0
VISUALSTYLE
  5
2F
102
{ACAD_XDICTIONARY
360
189
102
}
102
{ACAD_REACTORS
330
29
102
}
330
29
100
AcDbVisualStyle
  2
2dWireframe
 70
     4
177
     2
291
     0
 71
     0
176
     1
 72
     2
176
     1
 73
     0
176
     1
 90
        0
176
     1
 40
0.6
176
     1
 41
30.0
176
     1
 63
     7
421
 16777215
176
     1
 74
     1
176
     1
 91
        4
176
     1
 64
     7
176
     1
 65
   257
176
     1
 75
     1
176
     1
175
     1
176
     1
 42
1.0
176
     1
 92
        0
176
     1
 66
   257
176
     1
 43
1.0
176
     1
 76
     1
176
     1
 77
     6
176
     1
 78
     2
176
     1
 67
     7
176
     1
 79
     5
176
     1
170
     0
176
     1
171
     0
176
     1
290
     0
176
     1
 93
        1
176
     1
 44
0.0
176
     1
173
     0
176
     1
1001
ACAD
1000
AcDbSavedByObjectVersion
1070
     0
  0
VISUALSTYLE
  5
2E
102
{ACAD_XDICTIONARY
360
187
102
}
102
{ACAD_REACTORS
330
29
102
}
330
29
100
AcDbVisualStyle
  2
Basic
 70
     7
177
     2
291
     1
 71
     1
176
     1
 72
     0
176
     1
 73
     1
176
     1
 90
        0
176
     1
 40
0.6
176
     1
 41
30.0
176
     1
 63
     7
421
 16777215
176
     1
 74
     0
176
     1
 91
        4
176
     1
 64
     7
176
     1
 65
   257
176
     1
 75
     1
176
     1
175
     1
176
     1
 42
1.0
176
     1
 92
        8
176
     1
 66
     7
176
     1
 43
1.0
176
     1
 76
     1
176
     1
 77
     6
176
     1
 78
     2
176
     1
 67
     7
176
     1
 79
     5
176
     1
170
     0
176
     1
171
     0
176
     1
290
     0
176
     1
 93
        1
176
     1
 44
0.0
176
     1
173
     0
176
     1
1001
ACAD
1000
AcDbSavedByObjectVersion
1070
     0
  0
VISUALSTYLE
  5
35
102
{ACAD_XDICTIONARY
360
195
102
}
102
{ACAD_REACTORS
330
29
102
}
330
29
100
AcDbVisualStyle
  2
Brighten
 70
    12
177
     2
291
     1
 71
     2
176
     1
 72
     2
176
     1
 73
     0
176
     1
 90
        0
176
     1
 40
0.6
176
     1
 41
30.0
176
     1
 63
     7
421
 16777215
176
     1
 74
     1
176
     1
 91
        4
176
     1
 64
     7
176
     1
 65
   257
176
     1
 75
     1
176
     1
175
     1
176
     1
 42
1.0
176
     1
 92
        8
176
     1
 66
     7
176
     1
 43
1.0
176
     1
 76
     1
176
     1
 77
     6
176
     1
 78
     2
176
     1
 67
     7
176
     1
 79
     5
176
     1
170
     0
176
     1
171
     0
176
     1
290
     0
176
     1
 93
        1
176
     1
 44
50.0
176
     1
173
     0
176
     1
1001
ACAD
1000
AcDbSavedByObjectVersion
1070
     0
  0
VISUALSTYLE
  5
39
102
{ACAD_XDICTIONARY
360
19D
102
}
102
{ACAD_REACTORS
330
29
102
}
330
29
100
AcDbVisualStyle
  2
ColorChange
 70
    16
177
     2
291
     1
 71
     2
176
     1
 72
     2
176
     1
 73
     3
176
     1
 90
        0
176
     1
 40
0.6
176
     1
 41
30.0
176
     1
 63
     8
421
  8421504
176
     1
 74
     1
176
     1
 91
        4
176
     1
 64
     7
176
     1
 65
   257
176
     1
 75
     1
176
     1
175
     1
176
     1
 42
1.0
176
     1
 92
        8
176
     1
 66
     8
424
  8421504
176
     1
 43
1.0
176
     1
 76
     1
176
     1
 77
     6
176
     1
 78
     2
176
     1
 67
     7
176
     1
 79
     5
176
     1
170
     0
176
     1
171
     0
176
     1
290
     0
176
     1
 93
        1
176
     1
 44
0.0
176
     1
173
     0
176
     1
1001
ACAD
1000
AcDbSavedByObjectVersion
1070
     0
  0
VISUALSTYLE
  5
32
102
{ACAD_XDICTIONARY
360
18F
102
}
102
{ACAD_REACTORS
330
29
102
}
330
29
100
AcDbVisualStyle
  2
Conceptual
 70
     9
177
     2
291
     0
 71
     3
176
     1
 72
     2
176
     1
 73
     0
176
     1
 90
        0
176
     1
 40
0.6
176
     1
 41
30.0
176
     1
 63
     7
421
 16777215
176
     1
 74
     2
176
     1
 91
        2
176
     1
 64
     7
176
     1
 65
   257
176
     1
 75
     1
176
     1
175
     1
176
     1
 42
179.0
176
     1
 92
        8
176
     1
 66
     7
176
     1
 43
1.0
176
     1
 76
     1
176
     1
 77
     6
176
     1
 78
     2
176
     1
 67
     7
176
     1
 79
     3
176
     1
170
     0
176
     1
171
     0
176
     1
290
     0
176
     1
 93
        1
176
     1
 44
0.0
176
     1
173
     0
176
     1
1001
ACAD
1000
AcDbSavedByObjectVersion
1070
     0
  0
VISUALSTYLE
  5
34
102
{ACAD_XDICTIONARY
360
193
102
}
102
{ACAD_REACTORS
330
29
102
}
330
29
100
AcDbVisualStyle
  2
Dim
 70
    11
177
     2
291
     1
 71
     2
176
     1
 72
     2
176
     1
 73
     0
176
     1
 90
        0
176
     1
 40
0.6
176
     1
 41
30.0
176
     1
 63
     7
421
 16777215
176
     1
 74
     1
176
     1
 91
        4
176
     1
 64
     7
176
     1
 65
   257
176
     1
 75
     1
176
     1
175
     1
176
     1
 42
1.0
176
     1
 92
        8
176
     1
 66
     7
176
     1
 43
1.0
176
     1
 76
     1
176
     1
 77
     6
176
     1
 78
     2
176
     1
 67
     7
176
     1
 79
     5
176
     1
170
     0
176
     1
171
     0
176
     1
290
     0
176
     1
 93
        1
176
     1
 44
-50.0
176
     1
173
     0
176
     1
1001
ACAD
1000
AcDbSavedByObjectVersion
1070
     0
  0
VISUALSTYLE
  5
41
102
{ACAD_XDICTIONARY
360
1AD
102
}
102
{ACAD_REACTORS
330
29
102
}
330
29
100
AcDbVisualStyle
  2
EdgeColorOff
 70
    22
177
     2
291
     1
 71
     2
176
     0
 72
     2
176
     0
 73
     0
176
     0
 90
        0
176
     0
 40
0.6
176
     0
 41
30.0
176
     0
 63
     7
421
 16777215
176
     0
 74
     1
176
     0
 91
        4
176
     0
 64
     7
176
     0
 65
   257
176
     0
 75
     1
176
     0
175
     1
176
     0
 42
1.0
176
     0
 92
        8
176
     2
 66
     7
176
     0
 43
1.0
176
     0
 76
     1
176
     0
 77
     6
176
     0
 78
     2
176
     0
 67
     7
176
     0
 79
     5
176
     0
170
     0
176
     0
171
     0
176
     0
290
     0
176
     0
 93
        1
176
     0
 44
0.0
176
     0
173
     0
176
     0
1001
ACAD
1000
AcDbSavedByObjectVersion
1070
     0
  0
VISUALSTYLE
  5
38
102
{ACAD_XDICTIONARY
360
19B
102
}
102
{ACAD_REACTORS
330
29
102
}
330
29
100
AcDbVisualStyle
  2
Facepattern
 70
    15
177
     2
291
     1
 71
     2
176
     1
 72
     2
176
     1
 73
     0
176
     1
 90
        0
176
     1
 40
0.6
176
     1
 41
30.0
176
     1
 63
     7
421
 16777215
176
     1
 74
     1
176
     1
 91
        4
176
     1
 64
     7
176
     1
 65
   257
176
     1
 75
     1
176
     1
175
     1
176
     1
 42
1.0
176
     1
 92
        8
176
     1
 66
     7
176
     1
 43
1.0
176
     1
 76
     1
176
     1
 77
     6
176
     1
 78
     2
176
     1
 67
     7
176
     1
 79
     5
176
     1
170
     0
176
     1
171
     0
176
     1
290
     0
176
     1
 93
        1
176
     1
 44
0.0
176
     1
173
     0
176
     1
1001
ACAD
1000
AcDbSavedByObjectVersion
1070
     0
  0
VISUALSTYLE
  5
2A
102
{ACAD_XDICTIONARY
360
17F
102
}
102
{ACAD_REACTORS
330
29
102
}
330
29
100
AcDbVisualStyle
  2
Flat
 70
     0
177
     2
291
     1
 71
     2
176
     1
 72
     1
176
     1
 73
     1
176
     1
 90
        2
176
     1
 40
0.6
176
     1
 41
30.0
176
     1
 63
     7
421
 16777215
176
     1
 74
     0
176
     1
 91
        0
176
     1
 64
     7
176
     1
 65
   257
176
     1
 75
     1
176
     1
175
     1
176
     1
 42
1.0
176
     1
 92
        8
176
     1
 66
     7
176
     1
 43
1.0
176
     1
 76
     1
176
     1
 77
     6
176
     1
 78
     2
176
     1
 67
     7
176
     1
 79
     5
176
     1
170
     0
176
     1
171
     0
176
     1
290
     0
176
     1
 93
       13
176
     1
 44
0.0
176
     1
173
     0
176
     1
1001
ACAD
1000
AcDbSavedByObjectVersion
1070
     0
  0
VISUALSTYLE
  5
2B
102
{ACAD_XDICTIONARY
360
181
102
}
102
{ACAD_REACTORS
330
29
102
}
330
29
100
AcDbVisualStyle
  2
FlatWithEdges
 70
     1
177
     2
291
     1
 71
     2
176
     1
 72
     1
176
     1
 73
     1
176
     1
 90
        2
176
     1
 40
0.6
176
     1
 41
30.0
176
     1
 63
     7
421
 16777215
176
     1
 74
     1
176
     1
 91
        0
176
     1
 64
     7
176
     1
 65
   257
176
     1
 75
     1
176
     1
175
     1
176
     1
 42
1.0
176
     1
 92
        0
176
     1
 66
   257
176
     1
 43
1.0
176
     1
 76
     1
176
     1
 77
     6
176
     1
 78
     2
176
     1
 67
     7
176
     1
 79
     5
176
     1
170
     0
176
     1
171
     0
176
     1
290
     0
176
     1
 93
       13
176
     1
 44
0.0
176
     1
173
     0
176
     1
1001
ACAD
1000
AcDbSavedByObjectVersion
1070
     0
  0
VISUALSTYLE
  5
2C
102
{ACAD_XDICTIONARY
360
183
102
}
102
{ACAD_REACTORS
330
29
102
}
330
29
100
AcDbVisualStyle
  2
Gouraud
 70
     2
177
     2
291
     1
 71
     2
176
     1
 72
     2
176
     1
 73
     1
176
     1
 90
        2
176
     1
 40
0.6
176
     1
 41
30.0
176
     1
 63
     7
421
 16777215
176
     1
 74
     0
176
     1
 91
        0
176
     1
 64
     7
176
     1
 65
   257
176
     1
 75
     1
176
     1
175
     1
176
     1
 42
1.0
176
     1
 92
        0
176
     1
 66
     7
176
     1
 43
1.0
176
     1
 76
     1
176
     1
 77
     6
176
     1
 78
     2
176
     1
 67
     7
176
     1
 79
     5
176
     1
170
     0
176
     1
171
     0
176
     1
290
     0
176
     1
 93
       13
176
     1
 44
0.0
176
     1
173
     0
176
     1
1001
ACAD
1000
AcDbSavedByObjectVersion
1070
     0
  0
VISUALSTYLE
  5
2D
102
{ACAD_XDICTIONARY
360
185
102
}
102
{ACAD_REACTORS
330
29
102
}
330
29
100
AcDbVisualStyle
  2
GouraudWithEdges
 70
     3
177
     2
291
     1
 71
     2
176
     1
 72
     2
176
     1
 73
     1
176
     1
 90
        2
176
     1
 40
0.6
176
     1
 41
30.0
176
     1
 63
     7
421
 16777215
176
     1
 74
     1
176
     1
 91
        0
176
     1
 64
     7
176
     1
 65
   257
176
     1
 75
     1
176
     1
175
     1
176
     1
 42
1.0
176
     1
 92
        0
176
     1
 66
   257
176
     1
 43
1.0
176
     1
 76
     1
176
     1
 77
     6
176
     1
 78
     2
176
     1
 67
     7
176
     1
 79
     5
176
     1
170
     0
176
     1
171
     0
176
     1
290
     0
176
     1
 93
       13
176
     1
 44
0.0
176
     1
173
     0
176
     1
1001
ACAD
1000
AcDbSavedByObjectVersion
1070
     0
  0
VISUALSTYLE
  5
31
102
{ACAD_XDICTIONARY
360
18D
102
}
102
{ACAD_REACTORS
330
29
102
}
330
29
100
AcDbVisualStyle
  2
Hidden
 70
     6
177
     2
291
     0
 71
     1
176
     1
 72
     2
176
     1
 73
     2
176
     1
 90
        0
176
     1
 40
0.6
176
     1
 41
30.0
176
     1
 63
     7
421
 16777215
176
     1
 74
     2
176
     1
 91
        2
176
     1
 64
     7
176
     1
 65
   257
176
     1
 75
     2
176
     1
175
     1
176
     1
 42
40.0
176
     1
 92
        0
176
     1
 66
   257
176
     1
 43
1.0
176
     1
 76
     1
176
     1
 77
     6
176
     1
 78
     2
176
     1
 67
     7
176
     1
 79
     3
176
     1
170
     0
176
     1
171
     0
176
     1
290
     0
176
     1
 93
        1
176
     1
 44
0.0
176
     1
173
     0
176
     1
1001
ACAD
1000
AcDbSavedByObjectVersion
1070
     0
  0
VISUALSTYLE
  5
3F
102
{ACAD_XDICTIONARY
360
1A9
102
}
102
{ACAD_REACTORS
330
29
102
}
330
29
100
AcDbVisualStyle
  2
JitterOff
 70
    20
177
     2
291
     1
 71
     2
176
     0
 72
     2
176
     0
 73
     0
176
     0
 90
        0
176
     0
 40
0.6
176
     0
 41
30.0
176
     0
 63
     7
421
 16777215
176
     0
 74
     1
176
     0
 91
        4
176
     0
 64
     7
176
     0
 65
   257
176
     0
 75
     1
176
     0
175
     1
176
     0
 42
1.0
176
     0
 92
       10
176
     2
 66
     7
176
     0
 43
1.0
176
     0
 76
     1
176
     0
 77
     6
176
     0
 78
     2
176
     0
 67
     7
176
     0
 79
     5
176
     0
170
     0
176
     0
171
     0
176
     0
290
     0
176
     0
 93
        1
176
     0
 44
0.0
176
     0
173
     0
176
     0
1001
ACAD
1000
AcDbSavedByObjectVersion
1070
     0
  0
VISUALSTYLE
  5
37
102
{ACAD_XDICTIONARY
360
199
102
}
102
{ACAD_REACTORS
330
29
102
}
330
29
100
AcDbVisualStyle
  2
Linepattern
 70
    14
177
     2
291
     1
 71
     2
176
     1
 72
     2
176
     1
 73
     0
176
     1
 90
        0
176
     1
 40
0.6
176
     1
 41
30.0
176
     1
 63
     7
421
 16777215
176
     1
 74
     1
176
     1
 91
        4
176
     1
 64
     7
176
     1
 65
   257
176
     1
 75
     7
176
     1
175
     7
176
     1
 42
1.0
176
     1
 92
        8
176
     1
 66
     7
176
     1
 43
1.0
176
     1
 76
     1
176
     1
 77
     6
176
     1
 78
     2
176
     1
 67
     7
176
     1
 79
     5
176
     1
170
     0
176
     1
171
     0
176
     1
290
     0
176
     1
 93
        1
176
     1
 44
0.0
176
     1
173
     0
176
     1
1001
ACAD
1000
AcDbSavedByObjectVersion
1070
     0
  0
VISUALSTYLE
  5
40
102
{ACAD_XDICTIONARY
360
1AB
102
}
102
{ACAD_REACTORS
330
29
102
}
330
29
100
AcDbVisualStyle
  2
OverhangOff
 70
    21
177
     2
291
     1
 71
     2
176
     0
 72
     2
176
     0
 73
     0
176
     0
 90
        0
176
     0
 40
0.6
176
     0
 41
30.0
176
     0
 63
     7
421
 16777215
176
     0
 74
     1
176
     0
 91
        4
176
     0
 64
     7
176
     0
 65
   257
176
     0
 75
     1
176
     0
175
     1
176
     0
 42
1.0
176
     0
 92
        9
176
     2
 66
     7
176
     0
 43
1.0
176
     0
 76
     1
176
     0
 77
     6
176
     0
 78
     2
176
     0
 67
     7
176
     0
 79
     5
176
     0
170
     0
176
     0
171
     0
176
     0
290
     0
176
     0
 93
        1
176
     0
 44
0.0
176
     0
173
     0
176
     0
1001
ACAD
1000
AcDbSavedByObjectVersion
1070
     0
  0
VISUALSTYLE
  5
33
102
{ACAD_XDICTIONARY
360
191
102
}
102
{ACAD_REACTORS
330
29
102
}
330
29
100
AcDbVisualStyle
  2
Realistic
 70
     8
177
     2
291
     0
 71
     2
176
     1
 72
     3
176
     1
 73
     0
176
     1
 90
        2
176
     1
 40
0.6
176
     1
 41
30.0
176
     1
 63
     7
421
 16777215
176
     1
 74
     0
176
     1
 91
        0
176
     1
 64
     7
176
     1
 65
   257
176
     1
 75
     1
176
     1
175
     1
176
     1
 42
1.0
176
     1
 92
        8
176
     1
 66
   257
176
     1
 43
1.0
176
     1
 76
     1
176
     1
 77
     6
176
     1
 78
     2
176
     1
 67
     7
176
     1
 79
     3
176
     1
170
     0
176
     1
171
     0
176
     1
290
     0
176
     1
 93
       13
176
     1
 44
0.0
176
     1
173
     0
176
     1
1001
ACAD
1000
AcDbSavedByObjectVersion
1070
     0
  0
VISUALSTYLE
  5
3E
102
{ACAD_XDICTIONARY
360
1A7
102
}
102
{ACAD_REACTORS
330
29
102
}
330
29
100
AcDbVisualStyle
  2
Shaded
 70
    27
177
     2
291
     0
 71
     2
176
     1
 72
     2
176
     1
 73
     1
176
     1
 90
        2
176
     1
 40
0.6
176
     1
 41
30.0
176
     1
 63
     7
421
 16777215
176
     1
 74
     0
176
     1
 91
        4
176
     1
 64
     7
176
     1
 65
   257
176
     1
 75
     1
176
     1
175
     1
176
     1
 42
1.0
176
     1
 92
        8
176
     1
 66
   257
176
     1
 43
1.0
176
     1
 76
     1
176
     1
 77
     6
176
     1
 78
     2
176
     1
 67
     8
425
  7895160
176
     1
 79
     3
176
     1
170
     0
176
     1
171
     0
176
     1
290
     0
176
     1
 93
        5
176
     1
 44
0.0
176
     1
173
     0
176
     1
1001
ACAD
1000
AcDbSavedByObjectVersion
1070
     0
  0
VISUALSTYLE
  5
3D
102
{ACAD_XDICTIONARY
360
1A5
102
}
102
{ACAD_REACTORS
330
29
102
}
330
29
100
AcDbVisualStyle
  2
Shaded with edges
 70
    26
177
     2
291
     0
 71
     2
176
     1
 72
     2
176
     1
 73
     1
176
     1
 90
        2
176
     1
 40
0.6
176
     1
 41
30.0
176
     1
 63
     7
421
 16777215
176
     1
 74
     1
176
     1
 91
        2
176
     1
 64
     7
176
     1
 65
   257
176
     1
 75
     2
176
     1
175
     1
176
     1
 42
1.0
176
     1
 92
        8
176
     1
 66
   257
176
     1
 43
1.0
176
     1
 76
     1
176
     1
 77
     6
176
     1
 78
     2
176
     1
 67
     7
176
     1
 79
     3
176
     1
170
     0
176
     1
171
     0
176
     1
290
     0
176
     1
 93
        5
176
     1
 44
0.0
176
     1
173
     0
176
     1
1001
ACAD
1000
AcDbSavedByObjectVersion
1070
     0
  0
VISUALSTYLE
  5
3A
102
{ACAD_XDICTIONARY
360
19F
102
}
102
{ACAD_REACTORS
330
29
102
}
330
29
100
AcDbVisualStyle
  2
Shades of Gray
 70
    23
177
     2
291
     0
 71
     2
176
     1
 72
     2
176
     1
 73
     3
176
     1
 90
        0
176
     1
 40
0.6
176
     1
 41
30.0
176
     1
 63
     7
421
 16777215
176
     1
 74
     2
176
     1
 91
        2
176
     1
 64
     7
176
     1
 65
     7
176
     1
 75
     1
176
     1
175
     1
176
     1
 42
40.0
176
     1
 92
        8
176
     1
 66
     7
176
     1
 43
1.0
176
     1
 76
     1
176
     1
 77
     6
176
     1
 78
     2
176
     1
 67
     7
176
     1
 79
     3
176
     1
170
     0
176
     1
171
     0
176
     1
290
     0
176
     1
 93
        1
176
     1
 44
0.0
176
     1
173
     0
176
     1
1001
ACAD
1000
AcDbSavedByObjectVersion
1070
     0
  0
VISUALSTYLE
  5
3B
102
{ACAD_XDICTIONARY
360
1A1
102
}
102
{ACAD_REACTORS
330
29
102
}
330
29
100
AcDbVisualStyle
  2
Sketchy
 70
    24
177
     2
291
     0
 71
     1
176
     1
 72
     2
176
     1
 73
     2
176
     1
 90
        0
176
     1
 40
0.6
176
     1
 41
30.0
176
     1
 63
     7
421
 16777215
176
     1
 74
     2
176
     1
 91
        2
176
     1
 64
     7
176
     1
 65
     7
176
     1
 75
     1
176
     1
175
     1
176
     1
 42
40.0
176
     1
 92
       11
176
     1
 66
     7
176
     1
 43
1.0
176
     1
 76
     1
176
     1
 77
     6
176
     1
 78
     2
176
     1
 67
     7
176
     1
 79
     6
176
     1
170
     0
176
     1
171
     0
176
     1
290
     0
176
     1
 93
        1
176
     1
 44
0.0
176
     1
173
     0
176
     1
1001
ACAD
1000
AcDbSavedByObjectVersion
1070
     0
  0
VISUALSTYLE
  5
36
102
{ACAD_XDICTIONARY
360
197
102
}
102
{ACAD_REACTORS
330
29
102
}
330
29
100
AcDbVisualStyle
  2
Thicken
 70
    13
177
     2
291
     1
 71
     2
176
     1
 72
     2
176
     1
 73
     0
176
     1
 90
        0
176
     1
 40
0.6
176
     1
 41
30.0
176
     1
 63
     7
421
 16777215
176
     1
 74
     1
176
     1
 91
        4
176
     1
 64
     7
176
     1
 65
   257
176
     1
 75
     1
176
     1
175
     1
176
     1
 42
1.0
176
     1
 92
       12
176
     1
 66
     7
176
     1
 43
1.0
176
     1
 76
     1
176
     1
 77
     6
176
     1
 78
     2
176
     1
 67
     7
176
     1
 79
     5
176
     1
170
     0
176
     1
171
     0
176
     1
290
     0
176
     1
 93
        1
176
     1
 44
0.0
176
     1
173
     0
176
     1
1001
ACAD
1000
AcDbSavedByObjectVersion
1070
     0
  0
VISUALSTYLE
  5
30
102
{ACAD_XDICTIONARY
360
18B
102
}
102
{ACAD_REACTORS
330
29
102
}
330
29
100
AcDbVisualStyle
  2
Wireframe
 70
     5
177
     2
291
     0
 71
     0
176
     1
 72
     2
176
     1
 73
     0
176
     1
 90
        0
176
     1
 40
0.6
176
     1
 41
30.0
176
     1
 63
     7
421
 16777215
176
     1
 74
     1
176
     1
 91
        4
176
     1
 64
     7
176
     1
 65
   257
176
     1
 75
     1
176
     1
175
     1
176
     1
 42
1.0
176
     1
 92
        0
176
     1
 66
   257
176
     1
 43
1.0
176
     1
 76
     1
176
     1
 77
     6
176
     1
 78
     2
176
     1
 67
     7
176
     1
 79
     3
176
     1
170
     0
176
     1
171
     0
176
     1
290
     0
176
     1
 93
        1
176
     1
 44
0.0
176
     1
173
     0
176
     1
1001
ACAD
1000
AcDbSavedByObjectVersion
1070
     0
  0
VISUALSTYLE
  5
3C
102
{ACAD_XDICTIONARY
360
1A3
102
}
102
{ACAD_REACTORS
330
29
102
}
330
29
100
AcDbVisualStyle
  2
X-Ray
 70
    25
177
     2
291
     0
 71
     2
176
     1
 72
     2
176
     1
 73
     1
176
     1
 90
        1
176
     1
 40
0.5
176
     1
 41
30.0
176
     1
 63
     7
421
 16777215
176
     1
 74
     1
176
     1
 91
        0
176
     1
 64
     7
176
     1
 65
   257
176
     1
 75
     1
176
     1
175
     1
176
     1
 42
1.0
176
     1
 92
        8
176
     1
 66
     7
176
     1
 43
1.0
176
     1
 76
     1
176
     1
 77
     6
176
     1
 78
     2
176
     1
 67
     7
176
     1
 79
     3
176
     1
170
     0
176
     1
171
     0
176
     1
290
     0
176
     1
 93
       13
176
     1
 44
0.0
176
     1
173
     0
176
     1
1001
ACAD
1000
AcDbSavedByObjectVersion
1070
     0
  0
DICTIONARYVAR
  5
17B
102
{ACAD_REACTORS
330
176
102
}
330
176
100
DictionaryVariables
280
     0
  1
1:1
  0
DICTIONARYVAR
  5
178
102
{ACAD_REACTORS
330
176
102
}
330
176
100
DictionaryVariables
280
     0
  1
STANDARD
  0
DICTIONARYVAR
  5
177
102
{ACAD_REACTORS
330
176
102
}
330
176
100
DictionaryVariables
280
     0
  1
STANDARD
  0
DICTIONARYVAR
  5
179
102
{ACAD_REACTORS
330
176
102
}
330
176
100
DictionaryVariables
280
     0
  1
Imperial24
  0
DICTIONARYVAR
  5
17A
102
{ACAD_REACTORS
330
176
102
}
330
176
100
DictionaryVariables
280
     0
  1
Imperial24
  0
DICTIONARY
  5
1B3
330
6B
100
AcDbDictionary
280
     1
281
     1
  3
ACAD_XREC_ROUNDTRIP
360
1B4
  0
DICTIONARY
  5
1A
330
19
100
AcDbDictionary
280
     1
281
     1
  3
BUMPTILE
360
1C
  3
DIFFUSETILE
360
1B
  3
OPACITYTILE
360
1F
  3
REFLECTIONTILE
360
1E
  3
REFRACTIONTILE
360
20
  3
SPECULARTILE
360
1D
  0
DICTIONARY
  5
12
330
11
100
AcDbDictionary
280
     1
281
     1
  3
BUMPTILE
360
14
  3
DIFFUSETILE
360
13
  3
OPACITYTILE
360
17
  3
REFLECTIONTILE
360
16
  3
REFRACTIONTILE
360
18
  3
SPECULARTILE
360
15
  0
DICTIONARY
  5
22
330
21
100
AcDbDictionary
280
     1
281
     1
  3
BUMPTILE
360
24
  3
DIFFUSETILE
360
23
  3
OPACITYTILE
360
27
  3
REFLECTIONTILE
360
26
  3
REFRACTIONTILE
360
28
  3
SPECULARTILE
360
25
  0
DICTIONARY
  5
1AF
330
67
100
AcDbDictionary
280
     1
281
     1
  3
ACAD_XREC_ROUNDTRIP
360
1B0
  0
DICTIONARY
  5
1B1
330
69
100
AcDbDictionary
280
     1
281
     1
  3
ACAD_XREC_ROUNDTRIP
360
1B2
  0
DICTIONARY
  5
17C
330
65
100
AcDbDictionary
280
     1
281
     1
  3
ACAD_ROUNDTRIP_2008_TABLESTYLE_CELLSTYLEMAP
360
17D
  0
DICTIONARY
  5
189
330
2F
100
AcDbDictionary
280
     1
281
     1
  3
ACAD_XREC_ROUNDTRIP
360
18A
  0
DICTIONARY
  5
187
330
2E
100
AcDbDictionary
280
     1
281
     1
  3
ACAD_XREC_ROUNDTRIP
360
188
  0
DICTIONARY
  5
195
330
35
100
AcDbDictionary
280
     1
281
     1
  3
ACAD_XREC_ROUNDTRIP
360
196
  0
DICTIONARY
  5
19D
330
39
100
AcDbDictionary
280
     1
281
     1
  3
ACAD_XREC_ROUNDTRIP
360
19E
  0
DICTIONARY
  5
18F
330
32
100
AcDbDictionary
280
     1
281
     1
  3
ACAD_XREC_ROUNDTRIP
360
190
  0
DICTIONARY
  5
193
330
34
100
AcDbDictionary
280
     1
281
     1
  3
ACAD_XREC_ROUNDTRIP
360
194
  0
DICTIONARY
  5
1AD
330
41
100
AcDbDictionary
280
     1
281
     1
  3
ACAD_XREC_ROUNDTRIP
360
1AE
  0
DICTIONARY
  5
19B
330
38
100
AcDbDictionary
280
     1
281
     1
  3
ACAD_XREC_ROUNDTRIP
360
19C
  0
DICTIONARY
  5
17F
330
2A
100
AcDbDictionary
280
     1
281
     1
  3
ACAD_XREC_ROUNDTRIP
360
180
  0
DICTIONARY
  5
181
330
2B
100
AcDbDictionary
280
     1
281
     1
  3
ACAD_XREC_ROUNDTRIP
360
182
  0
DICTIONARY
  5
183
330
2C
100
AcDbDictionary
280
     1
281
     1
  3
ACAD_XREC_ROUNDTRIP
360
184
  0
DICTIONARY
  5
185
330
2D
100
AcDbDictionary
280
     1
281
     1
  3
ACAD_XREC_ROUNDTRIP
360
186
  0
DICTIONARY
  5
18D
330
31
100
AcDbDictionary
280
     1
281
     1
  3
ACAD_XREC_ROUNDTRIP
360
18E
  0
DICTIONARY
  5
1A9
330
3F
100
AcDbDictionary
280
     1
281
     1
  3
ACAD_XREC_ROUNDTRIP
360
1AA
  0
DICTIONARY
  5
199
330
37
100
AcDbDictionary
280
     1
281
     1
  3
ACAD_XREC_ROUNDTRIP
360
19A
  0
DICTIONARY
  5
1AB
330
40
100
AcDbDictionary
280
     1
281
     1
  3
ACAD_XREC_ROUNDTRIP
360
1AC
  0
DICTIONARY
  5
191
330
33
100
AcDbDictionary
280
     1
281
     1
  3
ACAD_XREC_ROUNDTRIP
360
192
  0
DICTIONARY
  5
1A7
330
3E
100
AcDbDictionary
280
     1
281
     1
  3
ACAD_XREC_ROUNDTRIP
360
1A8
  0
DICTIONARY
  5
1A5
330
3D
100
AcDbDictionary
280
     1
281
     1
  3
ACAD_XREC_ROUNDTRIP
360
1A6
  0
DICTIONARY
  5
19F
330
3A
100
AcDbDictionary
280
     1
281
     1
  3
ACAD_XREC_ROUNDTRIP
360
1A0
  0
DICTIONARY
  5
1A1
330
3B
100
AcDbDictionary
280
     1
281
     1
  3
ACAD_XREC_ROUNDTRIP
360
1A2
  0
DICTIONARY
  5
197
330
36
100
AcDbDictionary
280
     1
281
     1
  3
ACAD_XREC_ROUNDTRIP
360
198
  0
DICTIONARY
  5
18B
330
30
100
AcDbDictionary
280
     1
281
     1
  3
ACAD_XREC_ROUNDTRIP
360
18C
  0
DICTIONARY
  5
1A3
330
3C
100
AcDbDictionary
280
     1
281
     1
  3
ACAD_XREC_ROUNDTRIP
360
1A4
  0
XRECORD
  5
1B4
102
{ACAD_REACTORS
330
1B3
102
}
330
1B3
100
AcDbXrecord
280
     1
102
DISPLAYNAME
  1
Imperial24
102
FLAGS
 90
        0
  0
XRECORD
  5
1C
102
{ACAD_REACTORS
330
1A
102
}
330
1A
100
AcDbXrecord
280
     1
270
     1
271
     1
  0
XRECORD
  5
1B
102
{ACAD_REACTORS
330
1A
102
}
330
1A
100
AcDbXrecord
280
     1
270
     1
271
     1
  0
XRECORD
  5
1F
102
{ACAD_REACTORS
330
1A
102
}
330
1A
100
AcDbXrecord
280
     1
270
     1
271
     1
  0
XRECORD
  5
1E
102
{ACAD_REACTORS
330
1A
102
}
330
1A
100
AcDbXrecord
280
     1
270
     1
271
     1
  0
XRECORD
  5
20
102
{ACAD_REACTORS
330
1A
102
}
330
1A
100
AcDbXrecord
280
     1
270
     1
271
     1
  0
XRECORD
  5
1D
102
{ACAD_REACTORS
330
1A
102
}
330
1A
100
AcDbXrecord
280
     1
270
     1
271
     1
  0
XRECORD
  5
14
102
{ACAD_REACTORS
330
12
102
}
330
12
100
AcDbXrecord
280
     1
270
     1
271
     1
  0
XRECORD
  5
13
102
{ACAD_REACTORS
330
12
102
}
330
12
100
AcDbXrecord
280
     1
270
     1
271
     1
  0
XRECORD
  5
17
102
{ACAD_REACTORS
330
12
102
}
330
12
100
AcDbXrecord
280
     1
270
     1
271
     1
  0
XRECORD
  5
16
102
{ACAD_REACTORS
330
12
102
}
330
12
100
AcDbXrecord
280
     1
270
     1
271
     1
  0
XRECORD
  5
18
102
{ACAD_REACTORS
330
12
102
}
330
12
100
AcDbXrecord
280
     1
270
     1
271
     1
  0
XRECORD
  5
15
102
{ACAD_REACTORS
330
12
102
}
330
12
100
AcDbXrecord
280
     1
270
     1
271
     1
  0
XRECORD
  5
24
102
{ACAD_REACTORS
330
22
102
}
330
22
100
AcDbXrecord
280
     1
270
     1
271
     1
  0
XRECORD
  5
23
102
{ACAD_REACTORS
330
22
102
}
330
22
100
AcDbXrecord
280
     1
270
     1
271
     1
  0
XRECORD
  5
27
102
{ACAD_REACTORS
330
22
102
}
330
22
100
AcDbXrecord
280
     1
270
     1
271
     1
  0
XRECORD
  5
26
102
{ACAD_REACTORS
330
22
102
}
330
22
100
AcDbXrecord
280
     1
270
     1
271
     1
  0
XRECORD
  5
28
102
{ACAD_REACTORS
330
22
102
}
330
22
100
AcDbXrecord
280
     1
270
     1
271
     1
  0
XRECORD
  5
25
102
{ACAD_REACTORS
330
22
102
}
330
22
100
AcDbXrecord
280
     1
270
     1
271
     1
  0
XRECORD
  5
1B0
102
{ACAD_REACTORS
330
1AF
102
}
330
1AF
100
AcDbXrecord
280
     1
102
ACAD_ROUNDTRIP_2012_MLEADER_STYLE
298
     1
  0
XRECORD
  5
1B2
102
{ACAD_REACTORS
330
1B1
102
}
330
1B1
100
AcDbXrecord
280
     1
102
DISPLAYNAME
  1
Imperial24
102
FLAGS
 90
        0
  0
CELLSTYLEMAP
  5
17D
102
{ACAD_REACTORS
330
17C
102
}
330
17C
100
AcDbCellStyleMap
 90
        3
300
CELLSTYLE
  1
TABLEFORMAT_BEGIN
 90
        5
170
     1
 91
        0
 92
    32768
 62
   257
 93
        1
300
CONTENTFORMAT
  1
CONTENTFORMAT_BEGIN
 90
        0
 91
        0
 92
      512
 93
        0
300

 40
0.0
140
1.0
 94
        5
 62
     0
340
55
144
0.25
309
CONTENTFORMAT_END
171
     0
 94
        0
309
TABLEFORMAT_END
  1
CELLSTYLE_BEGIN
 90
        1
 91
        1
300
_TITLE
309
CELLSTYLE_END
300
CELLSTYLE
  1
TABLEFORMAT_BEGIN
 90
        5
170
     1
 91
        0
 92
        0
 62
   257
 93
        1
300
CONTENTFORMAT
  1
CONTENTFORMAT_BEGIN
 90
        0
 91
        0
 92
      512
 93
        0
300

 40
0.0
140
1.0
 94
        5
 62
     0
340
55
144
0.18
309
CONTENTFORMAT_END
171
     0
 94
        0
309
TABLEFORMAT_END
  1
CELLSTYLE_BEGIN
 90
        2
 91
        1
300
_HEADER
309
CELLSTYLE_END
300
CELLSTYLE
  1
TABLEFORMAT_BEGIN
 90
        5
170
     1
 91
        0
 92
        0
 62
   257
 93
        1
300
CONTENTFORMAT
  1
CONTENTFORMAT_BEGIN
 90
        0
 91
        0
 92
      512
 93
        0
300

 40
0.0
140
1.0
 94
        2
 62
     0
340
55
144
0.18
309
CONTENTFORMAT_END
171
     0
 94
        0
309
TABLEFORMAT_END
  1
CELLSTYLE_BEGIN
 90
        3
 91
        2
300
_DATA
309
CELLSTYLE_END
  0
XRECORD
  5
18A
102
{ACAD_REACTORS
330
189
102
}
330
189
100
AcDbXrecord
280
     1
102
RTVSPost2010Prop28
280
     1
102
RTVSPost2010PropOp28
 70
     1
102
RTVSPost2010Prop29
280
     1
102
RTVSPost2010PropOp29
 70
     1
102
RTVSPost2010Prop30
280
     0
102
RTVSPost2010PropOp30
 70
     1
102
RTVSPost2010Prop31
280
     0
102
RTVSPost2010PropOp31
 70
     1
102
RTVSPost2010Prop32
280
     0
102
RTVSPost2010PropOp32
 70
     1
102
RTVSPost2010Prop33
280
     0
102
RTVSPost2010PropOp33
 70
     1
102
RTVSPost2010Prop34
280
     0
102
RTVSPost2010PropOp34
 70
     1
102
RTVSPost2010Prop35
280
     0
102
RTVSPost2010PropOp35
 70
     1
102
RTVSPost2010Prop36
280
     0
102
RTVSPost2010PropOp36
 70
     1
102
RTVSPost2010Prop37
 90
       50
102
RTVSPost2010PropOp37
 70
     1
102
RTVSPost2010Prop38
140
0.0
102
RTVSPost2010PropOp38
 70
     1
102
RTVSPost2010Prop39
140
1.0
102
RTVSPost2010PropOp39
 70
     1
102
RTVSPost2010Prop40
 90
        0
102
RTVSPost2010PropOp40
 70
     1
102
RTVSPost2010Prop41ColorIndex
 90
       18
102
RTVSPost2010Prop41ColorRGB
 90
        0
102
RTVSPost2010PropOp41
 70
     1
102
RTVSPost2010Prop42
 90
       50
102
RTVSPost2010PropOp42
 70
     1
102
RTVSPost2010Prop43
 90
        3
102
RTVSPost2010PropOp43
 70
     1
102
RTVSPost2010Prop44ColorIndex
 90
        5
102
RTVSPost2010Prop44ColorRGB
 90
      255
102
RTVSPost2010PropOp44
 70
     1
102
RTVSPost2010Prop45
280
     0
102
RTVSPost2010PropOp45
 70
     1
102
RTVSPost2010Prop46
 90
       50
102
RTVSPost2010PropOp46
 70
     1
102
RTVSPost2010Prop47
 90
       50
102
RTVSPost2010PropOp47
 70
     1
102
RTVSPost2010Prop48
 90
       50
102
RTVSPost2010PropOp48
 70
     1
102
RTVSPost2010Prop49
280
     0
102
RTVSPost2010PropOp49
 70
     1
102
RTVSPost2010Prop50
 90
       50
102
RTVSPost2010PropOp50
 70
     1
102
RTVSPost2010Prop51ColorIndex
 90
      256
102
RTVSPost2010Prop51ColorRGB
 90
-16777216
102
RTVSPost2010PropOp51
 70
     0
102
RTVSPost2010Prop52
140
1.0
102
RTVSPost2010PropOp52
 70
     0
102
RTVSPost2010Prop53
 90
        2
102
RTVSPost2010PropOp53
 70
     1
102
RTVSPost2010Prop54
  1
strokes_ogs.tif
102
RTVSPost2010PropOp54
 70
     1
102
RTVSPost2010Prop55
280
     0
102
RTVSPost2010PropOp55
 70
     1
102
RTVSPost2010Prop56
140
1.0
102
RTVSPost2010PropOp56
 70
     1
102
RTVSPost2010Prop57
140
1.0
102
RTVSPost2010PropOp57
 70
     1
  0
XRECORD
  5
188
102
{ACAD_REACTORS
330
187
102
}
330
187
100
AcDbXrecord
280
     1
102
RTVSPost2010Prop28
280
     0
102
RTVSPost2010PropOp28
 70
     1
102
RTVSPost2010Prop29
280
     1
102
RTVSPost2010PropOp29
 70
     1
102
RTVSPost2010Prop30
280
     1
102
RTVSPost2010PropOp30
 70
     1
102
RTVSPost2010Prop31
280
     0
102
RTVSPost2010PropOp31
 70
     1
102
RTVSPost2010Prop32
280
     0
102
RTVSPost2010PropOp32
 70
     1
102
RTVSPost2010Prop33
280
     0
102
RTVSPost2010PropOp33
 70
     1
102
RTVSPost2010Prop34
280
     0
102
RTVSPost2010PropOp34
 70
     1
102
RTVSPost2010Prop35
280
     0
102
RTVSPost2010PropOp35
 70
     1
102
RTVSPost2010Prop36
280
     0
102
RTVSPost2010PropOp36
 70
     1
102
RTVSPost2010Prop37
 90
       50
102
RTVSPost2010PropOp37
 70
     1
102
RTVSPost2010Prop38
140
0.0
102
RTVSPost2010PropOp38
 70
     1
102
RTVSPost2010Prop39
140
1.0
102
RTVSPost2010PropOp39
 70
     1
102
RTVSPost2010Prop40
 90
        0
102
RTVSPost2010PropOp40
 70
     1
102
RTVSPost2010Prop41ColorIndex
 90
       18
102
RTVSPost2010Prop41ColorRGB
 90
        0
102
RTVSPost2010PropOp41
 70
     1
102
RTVSPost2010Prop42
 90
       50
102
RTVSPost2010PropOp42
 70
     1
102
RTVSPost2010Prop43
 90
        3
102
RTVSPost2010PropOp43
 70
     1
102
RTVSPost2010Prop44ColorIndex
 90
        5
102
RTVSPost2010Prop44ColorRGB
 90
      255
102
RTVSPost2010PropOp44
 70
     1
102
RTVSPost2010Prop45
280
     0
102
RTVSPost2010PropOp45
 70
     1
102
RTVSPost2010Prop46
 90
       50
102
RTVSPost2010PropOp46
 70
     1
102
RTVSPost2010Prop47
 90
       50
102
RTVSPost2010PropOp47
 70
     1
102
RTVSPost2010Prop48
 90
       50
102
RTVSPost2010PropOp48
 70
     1
102
RTVSPost2010Prop49
280
     0
102
RTVSPost2010PropOp49
 70
     1
102
RTVSPost2010Prop50
 90
       50
102
RTVSPost2010PropOp50
 70
     1
102
RTVSPost2010Prop51ColorIndex
 90
      256
102
RTVSPost2010Prop51ColorRGB
 90
-16777216
102
RTVSPost2010PropOp51
 70
     0
102
RTVSPost2010Prop52
140
1.0
102
RTVSPost2010PropOp52
 70
     0
102
RTVSPost2010Prop53
 90
        2
102
RTVSPost2010PropOp53
 70
     1
102
RTVSPost2010Prop54
  1
strokes_ogs.tif
102
RTVSPost2010PropOp54
 70
     1
102
RTVSPost2010Prop55
280
     0
102
RTVSPost2010PropOp55
 70
     1
102
RTVSPost2010Prop56
140
1.0
102
RTVSPost2010PropOp56
 70
     1
102
RTVSPost2010Prop57
140
1.0
102
RTVSPost2010PropOp57
 70
     1
  0
XRECORD
  5
196
102
{ACAD_REACTORS
330
195
102
}
330
195
100
AcDbXrecord
280
     1
102
RTVSPost2010Prop28
280
     0
102
RTVSPost2010PropOp28
 70
     1
102
RTVSPost2010Prop29
280
     1
102
RTVSPost2010PropOp29
 70
     1
102
RTVSPost2010Prop30
280
     1
102
RTVSPost2010PropOp30
 70
     1
102
RTVSPost2010Prop31
280
     0
102
RTVSPost2010PropOp31
 70
     1
102
RTVSPost2010Prop32
280
     0
102
RTVSPost2010PropOp32
 70
     1
102
RTVSPost2010Prop33
280
     0
102
RTVSPost2010PropOp33
 70
     1
102
RTVSPost2010Prop34
280
     0
102
RTVSPost2010PropOp34
 70
     1
102
RTVSPost2010Prop35
280
     0
102
RTVSPost2010PropOp35
 70
     1
102
RTVSPost2010Prop36
280
     0
102
RTVSPost2010PropOp36
 70
     1
102
RTVSPost2010Prop37
 90
       50
102
RTVSPost2010PropOp37
 70
     1
102
RTVSPost2010Prop38
140
0.0
102
RTVSPost2010PropOp38
 70
     1
102
RTVSPost2010Prop39
140
1.0
102
RTVSPost2010PropOp39
 70
     1
102
RTVSPost2010Prop40
 90
        0
102
RTVSPost2010PropOp40
 70
     1
102
RTVSPost2010Prop41ColorIndex
 90
       18
102
RTVSPost2010Prop41ColorRGB
 90
        0
102
RTVSPost2010PropOp41
 70
     1
102
RTVSPost2010Prop42
 90
       50
102
RTVSPost2010PropOp42
 70
     1
102
RTVSPost2010Prop43
 90
        3
102
RTVSPost2010PropOp43
 70
     1
102
RTVSPost2010Prop44ColorIndex
 90
        5
102
RTVSPost2010Prop44ColorRGB
 90
      255
102
RTVSPost2010PropOp44
 70
     1
102
RTVSPost2010Prop45
280
     0
102
RTVSPost2010PropOp45
 70
     1
102
RTVSPost2010Prop46
 90
       50
102
RTVSPost2010PropOp46
 70
     1
102
RTVSPost2010Prop47
 90
       50
102
RTVSPost2010PropOp47
 70
     1
102
RTVSPost2010Prop48
 90
       50
102
RTVSPost2010PropOp48
 70
     1
102
RTVSPost2010Prop49
280
     0
102
RTVSPost2010PropOp49
 70
     1
102
RTVSPost2010Prop50
 90
       50
102
RTVSPost2010PropOp50
 70
     1
102
RTVSPost2010Prop51ColorIndex
 90
      256
102
RTVSPost2010Prop51ColorRGB
 90
-16777216
102
RTVSPost2010PropOp51
 70
     0
102
RTVSPost2010Prop52
140
1.0
102
RTVSPost2010PropOp52
 70
     0
102
RTVSPost2010Prop53
 90
        2
102
RTVSPost2010PropOp53
 70
     1
102
RTVSPost2010Prop54
  1
strokes_ogs.tif
102
RTVSPost2010PropOp54
 70
     1
102
RTVSPost2010Prop55
280
     0
102
RTVSPost2010PropOp55
 70
     1
102
RTVSPost2010Prop56
140
1.0
102
RTVSPost2010PropOp56
 70
     1
102
RTVSPost2010Prop57
140
1.0
102
RTVSPost2010PropOp57
 70
     1
  0
XRECORD
  5
19E
102
{ACAD_REACTORS
330
19D
102
}
330
19D
100
AcDbXrecord
280
     1
102
RTVSPost2010Prop28
280
     0
102
RTVSPost2010PropOp28
 70
     1
102
RTVSPost2010Prop29
280
     1
102
RTVSPost2010PropOp29
 70
     1
102
RTVSPost2010Prop30
280
     1
102
RTVSPost2010PropOp30
 70
     1
102
RTVSPost2010Prop31
280
     0
102
RTVSPost2010PropOp31
 70
     1
102
RTVSPost2010Prop32
280
     0
102
RTVSPost2010PropOp32
 70
     1
102
RTVSPost2010Prop33
280
     0
102
RTVSPost2010PropOp33
 70
     1
102
RTVSPost2010Prop34
280
     0
102
RTVSPost2010PropOp34
 70
     1
102
RTVSPost2010Prop35
280
     0
102
RTVSPost2010PropOp35
 70
     1
102
RTVSPost2010Prop36
280
     0
102
RTVSPost2010PropOp36
 70
     1
102
RTVSPost2010Prop37
 90
       50
102
RTVSPost2010PropOp37
 70
     1
102
RTVSPost2010Prop38
140
0.0
102
RTVSPost2010PropOp38
 70
     1
102
RTVSPost2010Prop39
140
1.0
102
RTVSPost2010PropOp39
 70
     1
102
RTVSPost2010Prop40
 90
        0
102
RTVSPost2010PropOp40
 70
     1
102
RTVSPost2010Prop41ColorIndex
 90
       18
102
RTVSPost2010Prop41ColorRGB
 90
        0
102
RTVSPost2010PropOp41
 70
     1
102
RTVSPost2010Prop42
 90
       50
102
RTVSPost2010PropOp42
 70
     1
102
RTVSPost2010Prop43
 90
        3
102
RTVSPost2010PropOp43
 70
     1
102
RTVSPost2010Prop44ColorIndex
 90
        5
102
RTVSPost2010Prop44ColorRGB
 90
      255
102
RTVSPost2010PropOp44
 70
     1
102
RTVSPost2010Prop45
280
     0
102
RTVSPost2010PropOp45
 70
     1
102
RTVSPost2010Prop46
 90
       50
102
RTVSPost2010PropOp46
 70
     1
102
RTVSPost2010Prop47
 90
       50
102
RTVSPost2010PropOp47
 70
     1
102
RTVSPost2010Prop48
 90
       50
102
RTVSPost2010PropOp48
 70
     1
102
RTVSPost2010Prop49
280
     0
102
RTVSPost2010PropOp49
 70
     1
102
RTVSPost2010Prop50
 90
       50
102
RTVSPost2010PropOp50
 70
     1
102
RTVSPost2010Prop51ColorIndex
 90
      256
102
RTVSPost2010Prop51ColorRGB
 90
-16777216
102
RTVSPost2010PropOp51
 70
     0
102
RTVSPost2010Prop52
140
1.0
102
RTVSPost2010PropOp52
 70
     0
102
RTVSPost2010Prop53
 90
        2
102
RTVSPost2010PropOp53
 70
     1
102
RTVSPost2010Prop54
  1
strokes_ogs.tif
102
RTVSPost2010PropOp54
 70
     1
102
RTVSPost2010Prop55
280
     0
102
RTVSPost2010PropOp55
 70
     1
102
RTVSPost2010Prop56
140
1.0
102
RTVSPost2010PropOp56
 70
     1
102
RTVSPost2010Prop57
140
1.0
102
RTVSPost2010PropOp57
 70
     1
  0
XRECORD
  5
190
102
{ACAD_REACTORS
330
18F
102
}
330
18F
100
AcDbXrecord
280
     1
102
RTVSPost2010Prop28
280
     0
102
RTVSPost2010PropOp28
 70
     1
102
RTVSPost2010Prop29
280
     1
102
RTVSPost2010PropOp29
 70
     1
102
RTVSPost2010Prop30
280
     1
102
RTVSPost2010PropOp30
 70
     1
102
RTVSPost2010Prop31
280
     0
102
RTVSPost2010PropOp31
 70
     1
102
RTVSPost2010Prop32
280
     0
102
RTVSPost2010PropOp32
 70
     1
102
RTVSPost2010Prop33
280
     0
102
RTVSPost2010PropOp33
 70
     1
102
RTVSPost2010Prop34
280
     0
102
RTVSPost2010PropOp34
 70
     1
102
RTVSPost2010Prop35
280
     0
102
RTVSPost2010PropOp35
 70
     1
102
RTVSPost2010Prop36
280
     0
102
RTVSPost2010PropOp36
 70
     1
102
RTVSPost2010Prop37
 90
       50
102
RTVSPost2010PropOp37
 70
     1
102
RTVSPost2010Prop38
140
0.0
102
RTVSPost2010PropOp38
 70
     1
102
RTVSPost2010Prop39
140
1.0
102
RTVSPost2010PropOp39
 70
     1
102
RTVSPost2010Prop40
 90
        0
102
RTVSPost2010PropOp40
 70
     1
102
RTVSPost2010Prop41ColorIndex
 90
       18
102
RTVSPost2010Prop41ColorRGB
 90
        0
102
RTVSPost2010PropOp41
 70
     1
102
RTVSPost2010Prop42
 90
       50
102
RTVSPost2010PropOp42
 70
     1
102
RTVSPost2010Prop43
 90
        3
102
RTVSPost2010PropOp43
 70
     1
102
RTVSPost2010Prop44ColorIndex
 90
        5
102
RTVSPost2010Prop44ColorRGB
 90
      255
102
RTVSPost2010PropOp44
 70
     1
102
RTVSPost2010Prop45
280
     0
102
RTVSPost2010PropOp45
 70
     1
102
RTVSPost2010Prop46
 90
       50
102
RTVSPost2010PropOp46
 70
     1
102
RTVSPost2010Prop47
 90
       50
102
RTVSPost2010PropOp47
 70
     1
102
RTVSPost2010Prop48
 90
       50
102
RTVSPost2010PropOp48
 70
     1
102
RTVSPost2010Prop49
280
     0
102
RTVSPost2010PropOp49
 70
     1
102
RTVSPost2010Prop50
 90
       50
102
RTVSPost2010PropOp50
 70
     1
102
RTVSPost2010Prop51ColorIndex
 90
      256
102
RTVSPost2010Prop51ColorRGB
 90
-16777216
102
RTVSPost2010PropOp51
 70
     0
102
RTVSPost2010Prop52
140
1.0
102
RTVSPost2010PropOp52
 70
     0
102
RTVSPost2010Prop53
 90
        2
102
RTVSPost2010PropOp53
 70
     1
102
RTVSPost2010Prop54
  1
strokes_ogs.tif
102
RTVSPost2010PropOp54
 70
     1
102
RTVSPost2010Prop55
280
     0
102
RTVSPost2010PropOp55
 70
     1
102
RTVSPost2010Prop56
140
1.0
102
RTVSPost2010PropOp56
 70
     1
102
RTVSPost2010Prop57
140
1.0
102
RTVSPost2010PropOp57
 70
     1
  0
XRECORD
  5
194
102
{ACAD_REACTORS
330
193
102
}
330
193
100
AcDbXrecord
280
     1
102
RTVSPost2010Prop28
280
     0
102
RTVSPost2010PropOp28
 70
     1
102
RTVSPost2010Prop29
280
     1
102
RTVSPost2010PropOp29
 70
     1
102
RTVSPost2010Prop30
280
     1
102
RTVSPost2010PropOp30
 70
     1
102
RTVSPost2010Prop31
280
     0
102
RTVSPost2010PropOp31
 70
     1
102
RTVSPost2010Prop32
280
     0
102
RTVSPost2010PropOp32
 70
     1
102
RTVSPost2010Prop33
280
     0
102
RTVSPost2010PropOp33
 70
     1
102
RTVSPost2010Prop34
280
     0
102
RTVSPost2010PropOp34
 70
     1
102
RTVSPost2010Prop35
280
     0
102
RTVSPost2010PropOp35
 70
     1
102
RTVSPost2010Prop36
280
     0
102
RTVSPost2010PropOp36
 70
     1
102
RTVSPost2010Prop37
 90
       50
102
RTVSPost2010PropOp37
 70
     1
102
RTVSPost2010Prop38
140
0.0
102
RTVSPost2010PropOp38
 70
     1
102
RTVSPost2010Prop39
140
1.0
102
RTVSPost2010PropOp39
 70
     1
102
RTVSPost2010Prop40
 90
        0
102
RTVSPost2010PropOp40
 70
     1
102
RTVSPost2010Prop41ColorIndex
 90
       18
102
RTVSPost2010Prop41ColorRGB
 90
        0
102
RTVSPost2010PropOp41
 70
     1
102
RTVSPost2010Prop42
 90
       50
102
RTVSPost2010PropOp42
 70
     1
102
RTVSPost2010Prop43
 90
        3
102
RTVSPost2010PropOp43
 70
     1
102
RTVSPost2010Prop44ColorIndex
 90
        5
102
RTVSPost2010Prop44ColorRGB
 90
      255
102
RTVSPost2010PropOp44
 70
     1
102
RTVSPost2010Prop45
280
     0
102
RTVSPost2010PropOp45
 70
     1
102
RTVSPost2010Prop46
 90
       50
102
RTVSPost2010PropOp46
 70
     1
102
RTVSPost2010Prop47
 90
       50
102
RTVSPost2010PropOp47
 70
     1
102
RTVSPost2010Prop48
 90
       50
102
RTVSPost2010PropOp48
 70
     1
102
RTVSPost2010Prop49
280
     0
102
RTVSPost2010PropOp49
 70
     1
102
RTVSPost2010Prop50
 90
       50
102
RTVSPost2010PropOp50
 70
     1
102
RTVSPost2010Prop51ColorIndex
 90
      256
102
RTVSPost2010Prop51ColorRGB
 90
-16777216
102
RTVSPost2010PropOp51
 70
     0
102
RTVSPost2010Prop52
140
1.0
102
RTVSPost2010PropOp52
 70
     0
102
RTVSPost2010Prop53
 90
        2
102
RTVSPost2010PropOp53
 70
     1
102
RTVSPost2010Prop54
  1
strokes_ogs.tif
102
RTVSPost2010PropOp54
 70
     1
102
RTVSPost2010Prop55
280
     0
102
RTVSPost2010PropOp55
 70
     1
102
RTVSPost2010Prop56
140
1.0
102
RTVSPost2010PropOp56
 70
     1
102
RTVSPost2010Prop57
140
1.0
102
RTVSPost2010PropOp57
 70
     1
  0
XRECORD
  5
1AE
102
{ACAD_REACTORS
330
1AD
102
}
330
1AD
100
AcDbXrecord
280
     1
102
RTVSPost2010Prop28
280
     0
102
RTVSPost2010PropOp28
 70
     0
102
RTVSPost2010Prop29
280
     1
102
RTVSPost2010PropOp29
 70
     0
102
RTVSPost2010Prop30
280
     1
102
RTVSPost2010PropOp30
 70
     0
102
RTVSPost2010Prop31
280
     0
102
RTVSPost2010PropOp31
 70
     0
102
RTVSPost2010Prop32
280
     0
102
RTVSPost2010PropOp32
 70
     0
102
RTVSPost2010Prop33
280
     0
102
RTVSPost2010PropOp33
 70
     0
102
RTVSPost2010Prop34
280
     0
102
RTVSPost2010PropOp34
 70
     0
102
RTVSPost2010Prop35
280
     0
102
RTVSPost2010PropOp35
 70
     0
102
RTVSPost2010Prop36
280
     0
102
RTVSPost2010PropOp36
 70
     0
102
RTVSPost2010Prop37
 90
       50
102
RTVSPost2010PropOp37
 70
     0
102
RTVSPost2010Prop38
140
0.0
102
RTVSPost2010PropOp38
 70
     0
102
RTVSPost2010Prop39
140
1.0
102
RTVSPost2010PropOp39
 70
     0
102
RTVSPost2010Prop40
 90
        0
102
RTVSPost2010PropOp40
 70
     0
102
RTVSPost2010Prop41ColorIndex
 90
       18
102
RTVSPost2010Prop41ColorRGB
 90
        0
102
RTVSPost2010PropOp41
 70
     0
102
RTVSPost2010Prop42
 90
       50
102
RTVSPost2010PropOp42
 70
     0
102
RTVSPost2010Prop43
 90
        3
102
RTVSPost2010PropOp43
 70
     0
102
RTVSPost2010Prop44ColorIndex
 90
        5
102
RTVSPost2010Prop44ColorRGB
 90
      255
102
RTVSPost2010PropOp44
 70
     0
102
RTVSPost2010Prop45
280
     0
102
RTVSPost2010PropOp45
 70
     0
102
RTVSPost2010Prop46
 90
       50
102
RTVSPost2010PropOp46
 70
     0
102
RTVSPost2010Prop47
 90
       50
102
RTVSPost2010PropOp47
 70
     0
102
RTVSPost2010Prop48
 90
       50
102
RTVSPost2010PropOp48
 70
     0
102
RTVSPost2010Prop49
280
     0
102
RTVSPost2010PropOp49
 70
     0
102
RTVSPost2010Prop50
 90
       50
102
RTVSPost2010PropOp50
 70
     0
102
RTVSPost2010Prop51ColorIndex
 90
      256
102
RTVSPost2010Prop51ColorRGB
 90
-16777216
102
RTVSPost2010PropOp51
 70
     0
102
RTVSPost2010Prop52
140
1.0
102
RTVSPost2010PropOp52
 70
     0
102
RTVSPost2010Prop53
 90
        2
102
RTVSPost2010PropOp53
 70
     0
102
RTVSPost2010Prop54
  1
strokes_ogs.tif
102
RTVSPost2010PropOp54
 70
     0
102
RTVSPost2010Prop55
280
     0
102
RTVSPost2010PropOp55
 70
     0
102
RTVSPost2010Prop56
140
1.0
102
RTVSPost2010PropOp56
 70
     0
102
RTVSPost2010Prop57
140
1.0
102
RTVSPost2010PropOp57
 70
     0
  0
XRECORD
  5
19C
102
{ACAD_REACTORS
330
19B
102
}
330
19B
100
AcDbXrecord
280
     1
102
RTVSPost2010Prop28
280
     0
102
RTVSPost2010PropOp28
 70
     1
102
RTVSPost2010Prop29
280
     1
102
RTVSPost2010PropOp29
 70
     1
102
RTVSPost2010Prop30
280
     1
102
RTVSPost2010PropOp30
 70
     1
102
RTVSPost2010Prop31
280
     0
102
RTVSPost2010PropOp31
 70
     1
102
RTVSPost2010Prop32
280
     0
102
RTVSPost2010PropOp32
 70
     1
102
RTVSPost2010Prop33
280
     0
102
RTVSPost2010PropOp33
 70
     1
102
RTVSPost2010Prop34
280
     0
102
RTVSPost2010PropOp34
 70
     1
102
RTVSPost2010Prop35
280
     0
102
RTVSPost2010PropOp35
 70
     1
102
RTVSPost2010Prop36
280
     0
102
RTVSPost2010PropOp36
 70
     1
102
RTVSPost2010Prop37
 90
       50
102
RTVSPost2010PropOp37
 70
     1
102
RTVSPost2010Prop38
140
0.0
102
RTVSPost2010PropOp38
 70
     1
102
RTVSPost2010Prop39
140
1.0
102
RTVSPost2010PropOp39
 70
     1
102
RTVSPost2010Prop40
 90
        0
102
RTVSPost2010PropOp40
 70
     1
102
RTVSPost2010Prop41ColorIndex
 90
       18
102
RTVSPost2010Prop41ColorRGB
 90
        0
102
RTVSPost2010PropOp41
 70
     1
102
RTVSPost2010Prop42
 90
       50
102
RTVSPost2010PropOp42
 70
     1
102
RTVSPost2010Prop43
 90
        3
102
RTVSPost2010PropOp43
 70
     1
102
RTVSPost2010Prop44ColorIndex
 90
        5
102
RTVSPost2010Prop44ColorRGB
 90
      255
102
RTVSPost2010PropOp44
 70
     1
102
RTVSPost2010Prop45
280
     0
102
RTVSPost2010PropOp45
 70
     1
102
RTVSPost2010Prop46
 90
       50
102
RTVSPost2010PropOp46
 70
     1
102
RTVSPost2010Prop47
 90
       50
102
RTVSPost2010PropOp47
 70
     1
102
RTVSPost2010Prop48
 90
       50
102
RTVSPost2010PropOp48
 70
     1
102
RTVSPost2010Prop49
280
     0
102
RTVSPost2010PropOp49
 70
     1
102
RTVSPost2010Prop50
 90
       50
102
RTVSPost2010PropOp50
 70
     1
102
RTVSPost2010Prop51ColorIndex
 90
      256
102
RTVSPost2010Prop51ColorRGB
 90
-16777216
102
RTVSPost2010PropOp51
 70
     0
102
RTVSPost2010Prop52
140
1.0
102
RTVSPost2010PropOp52
 70
     0
102
RTVSPost2010Prop53
 90
        2
102
RTVSPost2010PropOp53
 70
     1
102
RTVSPost2010Prop54
  1
strokes_ogs.tif
102
RTVSPost2010PropOp54
 70
     1
102
RTVSPost2010Prop55
280
     0
102
RTVSPost2010PropOp55
 70
     1
102
RTVSPost2010Prop56
140
1.0
102
RTVSPost2010PropOp56
 70
     1
102
RTVSPost2010Prop57
140
1.0
102
RTVSPost2010PropOp57
 70
     1
  0
XRECORD
  5
180
102
{ACAD_REACTORS
330
17F
102
}
330
17F
100
AcDbXrecord
280
     1
102
RTVSPost2010Prop28
280
     0
102
RTVSPost2010PropOp28
 70
     1
102
RTVSPost2010Prop29
280
     1
102
RTVSPost2010PropOp29
 70
     1
102
RTVSPost2010Prop30
280
     1
102
RTVSPost2010PropOp30
 70
     1
102
RTVSPost2010Prop31
280
     0
102
RTVSPost2010PropOp31
 70
     1
102
RTVSPost2010Prop32
280
     0
102
RTVSPost2010PropOp32
 70
     1
102
RTVSPost2010Prop33
280
     0
102
RTVSPost2010PropOp33
 70
     1
102
RTVSPost2010Prop34
280
     0
102
RTVSPost2010PropOp34
 70
     1
102
RTVSPost2010Prop35
280
     0
102
RTVSPost2010PropOp35
 70
     1
102
RTVSPost2010Prop36
280
     0
102
RTVSPost2010PropOp36
 70
     1
102
RTVSPost2010Prop37
 90
       50
102
RTVSPost2010PropOp37
 70
     1
102
RTVSPost2010Prop38
140
0.0
102
RTVSPost2010PropOp38
 70
     1
102
RTVSPost2010Prop39
140
1.0
102
RTVSPost2010PropOp39
 70
     1
102
RTVSPost2010Prop40
 90
        0
102
RTVSPost2010PropOp40
 70
     1
102
RTVSPost2010Prop41ColorIndex
 90
       18
102
RTVSPost2010Prop41ColorRGB
 90
        0
102
RTVSPost2010PropOp41
 70
     1
102
RTVSPost2010Prop42
 90
       50
102
RTVSPost2010PropOp42
 70
     1
102
RTVSPost2010Prop43
 90
        3
102
RTVSPost2010PropOp43
 70
     1
102
RTVSPost2010Prop44ColorIndex
 90
        5
102
RTVSPost2010Prop44ColorRGB
 90
      255
102
RTVSPost2010PropOp44
 70
     1
102
RTVSPost2010Prop45
280
     0
102
RTVSPost2010PropOp45
 70
     1
102
RTVSPost2010Prop46
 90
       50
102
RTVSPost2010PropOp46
 70
     1
102
RTVSPost2010Prop47
 90
       50
102
RTVSPost2010PropOp47
 70
     1
102
RTVSPost2010Prop48
 90
       50
102
RTVSPost2010PropOp48
 70
     1
102
RTVSPost2010Prop49
280
     0
102
RTVSPost2010PropOp49
 70
     1
102
RTVSPost2010Prop50
 90
       50
102
RTVSPost2010PropOp50
 70
     1
102
RTVSPost2010Prop51ColorIndex
 90
      256
102
RTVSPost2010Prop51ColorRGB
 90
-16777216
102
RTVSPost2010PropOp51
 70
     0
102
RTVSPost2010Prop52
140
1.0
102
RTVSPost2010PropOp52
 70
     0
102
RTVSPost2010Prop53
 90
        2
102
RTVSPost2010PropOp53
 70
     1
102
RTVSPost2010Prop54
  1
strokes_ogs.tif
102
RTVSPost2010PropOp54
 70
     1
102
RTVSPost2010Prop55
280
     0
102
RTVSPost2010PropOp55
 70
     1
102
RTVSPost2010Prop56
140
1.0
102
RTVSPost2010PropOp56
 70
     1
102
RTVSPost2010Prop57
140
1.0
102
RTVSPost2010PropOp57
 70
     1
  0
XRECORD
  5
182
102
{ACAD_REACTORS
330
181
102
}
330
181
100
AcDbXrecord
280
     1
102
RTVSPost2010Prop28
280
     0
102
RTVSPost2010PropOp28
 70
     1
102
RTVSPost2010Prop29
280
     1
102
RTVSPost2010PropOp29
 70
     1
102
RTVSPost2010Prop30
280
     1
102
RTVSPost2010PropOp30
 70
     1
102
RTVSPost2010Prop31
280
     0
102
RTVSPost2010PropOp31
 70
     1
102
RTVSPost2010Prop32
280
     0
102
RTVSPost2010PropOp32
 70
     1
102
RTVSPost2010Prop33
280
     0
102
RTVSPost2010PropOp33
 70
     1
102
RTVSPost2010Prop34
280
     0
102
RTVSPost2010PropOp34
 70
     1
102
RTVSPost2010Prop35
280
     0
102
RTVSPost2010PropOp35
 70
     1
102
RTVSPost2010Prop36
280
     0
102
RTVSPost2010PropOp36
 70
     1
102
RTVSPost2010Prop37
 90
       50
102
RTVSPost2010PropOp37
 70
     1
102
RTVSPost2010Prop38
140
0.0
102
RTVSPost2010PropOp38
 70
     1
102
RTVSPost2010Prop39
140
1.0
102
RTVSPost2010PropOp39
 70
     1
102
RTVSPost2010Prop40
 90
        0
102
RTVSPost2010PropOp40
 70
     1
102
RTVSPost2010Prop41ColorIndex
 90
       18
102
RTVSPost2010Prop41ColorRGB
 90
        0
102
RTVSPost2010PropOp41
 70
     1
102
RTVSPost2010Prop42
 90
       50
102
RTVSPost2010PropOp42
 70
     1
102
RTVSPost2010Prop43
 90
        3
102
RTVSPost2010PropOp43
 70
     1
102
RTVSPost2010Prop44ColorIndex
 90
        5
102
RTVSPost2010Prop44ColorRGB
 90
      255
102
RTVSPost2010PropOp44
 70
     1
102
RTVSPost2010Prop45
280
     0
102
RTVSPost2010PropOp45
 70
     1
102
RTVSPost2010Prop46
 90
       50
102
RTVSPost2010PropOp46
 70
     1
102
RTVSPost2010Prop47
 90
       50
102
RTVSPost2010PropOp47
 70
     1
102
RTVSPost2010Prop48
 90
       50
102
RTVSPost2010PropOp48
 70
     1
102
RTVSPost2010Prop49
280
     0
102
RTVSPost2010PropOp49
 70
     1
102
RTVSPost2010Prop50
 90
       50
102
RTVSPost2010PropOp50
 70
     1
102
RTVSPost2010Prop51ColorIndex
 90
      256
102
RTVSPost2010Prop51ColorRGB
 90
-16777216
102
RTVSPost2010PropOp51
 70
     0
102
RTVSPost2010Prop52
140
1.0
102
RTVSPost2010PropOp52
 70
     0
102
RTVSPost2010Prop53
 90
        2
102
RTVSPost2010PropOp53
 70
     1
102
RTVSPost2010Prop54
  1
strokes_ogs.tif
102
RTVSPost2010PropOp54
 70
     1
102
RTVSPost2010Prop55
280
     0
102
RTVSPost2010PropOp55
 70
     1
102
RTVSPost2010Prop56
140
1.0
102
RTVSPost2010PropOp56
 70
     1
102
RTVSPost2010Prop57
140
1.0
102
RTVSPost2010PropOp57
 70
     1
  0
XRECORD
  5
184
102
{ACAD_REACTORS
330
183
102
}
330
183
100
AcDbXrecord
280
     1
102
RTVSPost2010Prop28
280
     0
102
RTVSPost2010PropOp28
 70
     1
102
RTVSPost2010Prop29
280
     1
102
RTVSPost2010PropOp29
 70
     1
102
RTVSPost2010Prop30
280
     1
102
RTVSPost2010PropOp30
 70
     1
102
RTVSPost2010Prop31
280
     0
102
RTVSPost2010PropOp31
 70
     1
102
RTVSPost2010Prop32
280
     0
102
RTVSPost2010PropOp32
 70
     1
102
RTVSPost2010Prop33
280
     0
102
RTVSPost2010PropOp33
 70
     1
102
RTVSPost2010Prop34
280
     0
102
RTVSPost2010PropOp34
 70
     1
102
RTVSPost2010Prop35
280
     0
102
RTVSPost2010PropOp35
 70
     1
102
RTVSPost2010Prop36
280
     0
102
RTVSPost2010PropOp36
 70
     1
102
RTVSPost2010Prop37
 90
       50
102
RTVSPost2010PropOp37
 70
     1
102
RTVSPost2010Prop38
140
0.0
102
RTVSPost2010PropOp38
 70
     1
102
RTVSPost2010Prop39
140
1.0
102
RTVSPost2010PropOp39
 70
     1
102
RTVSPost2010Prop40
 90
        0
102
RTVSPost2010PropOp40
 70
     1
102
RTVSPost2010Prop41ColorIndex
 90
       18
102
RTVSPost2010Prop41ColorRGB
 90
        0
102
RTVSPost2010PropOp41
 70
     1
102
RTVSPost2010Prop42
 90
       50
102
RTVSPost2010PropOp42
 70
     1
102
RTVSPost2010Prop43
 90
        3
102
RTVSPost2010PropOp43
 70
     1
102
RTVSPost2010Prop44ColorIndex
 90
        5
102
RTVSPost2010Prop44ColorRGB
 90
      255
102
RTVSPost2010PropOp44
 70
     1
102
RTVSPost2010Prop45
280
     0
102
RTVSPost2010PropOp45
 70
     1
102
RTVSPost2010Prop46
 90
       50
102
RTVSPost2010PropOp46
 70
     1
102
RTVSPost2010Prop47
 90
       50
102
RTVSPost2010PropOp47
 70
     1
102
RTVSPost2010Prop48
 90
       50
102
RTVSPost2010PropOp48
 70
     1
102
RTVSPost2010Prop49
280
     0
102
RTVSPost2010PropOp49
 70
     1
102
RTVSPost2010Prop50
 90
       50
102
RTVSPost2010PropOp50
 70
     1
102
RTVSPost2010Prop51ColorIndex
 90
      256
102
RTVSPost2010Prop51ColorRGB
 90
-16777216
102
RTVSPost2010PropOp51
 70
     0
102
RTVSPost2010Prop52
140
1.0
102
RTVSPost2010PropOp52
 70
     0
102
RTVSPost2010Prop53
 90
        2
102
RTVSPost2010PropOp53
 70
     1
102
RTVSPost2010Prop54
  1
strokes_ogs.tif
102
RTVSPost2010PropOp54
 70
     1
102
RTVSPost2010Prop55
280
     0
102
RTVSPost2010PropOp55
 70
     1
102
RTVSPost2010Prop56
140
1.0
102
RTVSPost2010PropOp56
 70
     1
102
RTVSPost2010Prop57
140
1.0
102
RTVSPost2010PropOp57
 70
     1
  0
XRECORD
  5
186
102
{ACAD_REACTORS
330
185
102
}
330
185
100
AcDbXrecord
280
     1
102
RTVSPost2010Prop28
280
     0
102
RTVSPost2010PropOp28
 70
     1
102
RTVSPost2010Prop29
280
     1
102
RTVSPost2010PropOp29
 70
     1
102
RTVSPost2010Prop30
280
     1
102
RTVSPost2010PropOp30
 70
     1
102
RTVSPost2010Prop31
280
     0
102
RTVSPost2010PropOp31
 70
     1
102
RTVSPost2010Prop32
280
     0
102
RTVSPost2010PropOp32
 70
     1
102
RTVSPost2010Prop33
280
     0
102
RTVSPost2010PropOp33
 70
     1
102
RTVSPost2010Prop34
280
     0
102
RTVSPost2010PropOp34
 70
     1
102
RTVSPost2010Prop35
280
     0
102
RTVSPost2010PropOp35
 70
     1
102
RTVSPost2010Prop36
280
     0
102
RTVSPost2010PropOp36
 70
     1
102
RTVSPost2010Prop37
 90
       50
102
RTVSPost2010PropOp37
 70
     1
102
RTVSPost2010Prop38
140
0.0
102
RTVSPost2010PropOp38
 70
     1
102
RTVSPost2010Prop39
140
1.0
102
RTVSPost2010PropOp39
 70
     1
102
RTVSPost2010Prop40
 90
        0
102
RTVSPost2010PropOp40
 70
     1
102
RTVSPost2010Prop41ColorIndex
 90
       18
102
RTVSPost2010Prop41ColorRGB
 90
        0
102
RTVSPost2010PropOp41
 70
     1
102
RTVSPost2010Prop42
 90
       50
102
RTVSPost2010PropOp42
 70
     1
102
RTVSPost2010Prop43
 90
        3
102
RTVSPost2010PropOp43
 70
     1
102
RTVSPost2010Prop44ColorIndex
 90
        5
102
RTVSPost2010Prop44ColorRGB
 90
      255
102
RTVSPost2010PropOp44
 70
     1
102
RTVSPost2010Prop45
280
     0
102
RTVSPost2010PropOp45
 70
     1
102
RTVSPost2010Prop46
 90
       50
102
RTVSPost2010PropOp46
 70
     1
102
RTVSPost2010Prop47
 90
       50
102
RTVSPost2010PropOp47
 70
     1
102
RTVSPost2010Prop48
 90
       50
102
RTVSPost2010PropOp48
 70
     1
102
RTVSPost2010Prop49
280
     0
102
RTVSPost2010PropOp49
 70
     1
102
RTVSPost2010Prop50
 90
       50
102
RTVSPost2010PropOp50
 70
     1
102
RTVSPost2010Prop51ColorIndex
 90
      256
102
RTVSPost2010Prop51ColorRGB
 90
-16777216
102
RTVSPost2010PropOp51
 70
     0
102
RTVSPost2010Prop52
140
1.0
102
RTVSPost2010PropOp52
 70
     0
102
RTVSPost2010Prop53
 90
        2
102
RTVSPost2010PropOp53
 70
     1
102
RTVSPost2010Prop54
  1
strokes_ogs.tif
102
RTVSPost2010PropOp54
 70
     1
102
RTVSPost2010Prop55
280
     0
102
RTVSPost2010PropOp55
 70
     1
102
RTVSPost2010Prop56
140
1.0
102
RTVSPost2010PropOp56
 70
     1
102
RTVSPost2010Prop57
140
1.0
102
RTVSPost2010PropOp57
 70
     1
  0
XRECORD
  5
18E
102
{ACAD_REACTORS
330
18D
102
}
330
18D
100
AcDbXrecord
280
     1
102
RTVSPost2010Prop28
280
     0
102
RTVSPost2010PropOp28
 70
     1
102
RTVSPost2010Prop29
280
     1
102
RTVSPost2010PropOp29
 70
     1
102
RTVSPost2010Prop30
280
     1
102
RTVSPost2010PropOp30
 70
     1
102
RTVSPost2010Prop31
280
     0
102
RTVSPost2010PropOp31
 70
     1
102
RTVSPost2010Prop32
280
     0
102
RTVSPost2010PropOp32
 70
     1
102
RTVSPost2010Prop33
280
     0
102
RTVSPost2010PropOp33
 70
     1
102
RTVSPost2010Prop34
280
     0
102
RTVSPost2010PropOp34
 70
     1
102
RTVSPost2010Prop35
280
     0
102
RTVSPost2010PropOp35
 70
     1
102
RTVSPost2010Prop36
280
     0
102
RTVSPost2010PropOp36
 70
     1
102
RTVSPost2010Prop37
 90
       50
102
RTVSPost2010PropOp37
 70
     1
102
RTVSPost2010Prop38
140
0.0
102
RTVSPost2010PropOp38
 70
     1
102
RTVSPost2010Prop39
140
1.0
102
RTVSPost2010PropOp39
 70
     1
102
RTVSPost2010Prop40
 90
        0
102
RTVSPost2010PropOp40
 70
     1
102
RTVSPost2010Prop41ColorIndex
 90
       18
102
RTVSPost2010Prop41ColorRGB
 90
        0
102
RTVSPost2010PropOp41
 70
     1
102
RTVSPost2010Prop42
 90
       50
102
RTVSPost2010PropOp42
 70
     1
102
RTVSPost2010Prop43
 90
        3
102
RTVSPost2010PropOp43
 70
     1
102
RTVSPost2010Prop44ColorIndex
 90
        5
102
RTVSPost2010Prop44ColorRGB
 90
      255
102
RTVSPost2010PropOp44
 70
     1
102
RTVSPost2010Prop45
280
     0
102
RTVSPost2010PropOp45
 70
     1
102
RTVSPost2010Prop46
 90
       50
102
RTVSPost2010PropOp46
 70
     1
102
RTVSPost2010Prop47
 90
       50
102
RTVSPost2010PropOp47
 70
     1
102
RTVSPost2010Prop48
 90
       50
102
RTVSPost2010PropOp48
 70
     1
102
RTVSPost2010Prop49
280
     0
102
RTVSPost2010PropOp49
 70
     1
102
RTVSPost2010Prop50
 90
       50
102
RTVSPost2010PropOp50
 70
     1
102
RTVSPost2010Prop51ColorIndex
 90
      256
102
RTVSPost2010Prop51ColorRGB
 90
-16777216
102
RTVSPost2010PropOp51
 70
     0
102
RTVSPost2010Prop52
140
1.0
102
RTVSPost2010PropOp52
 70
     0
102
RTVSPost2010Prop53
 90
        2
102
RTVSPost2010PropOp53
 70
     1
102
RTVSPost2010Prop54
  1
strokes_ogs.tif
102
RTVSPost2010PropOp54
 70
     1
102
RTVSPost2010Prop55
280
     0
102
RTVSPost2010PropOp55
 70
     1
102
RTVSPost2010Prop56
140
1.0
102
RTVSPost2010PropOp56
 70
     1
102
RTVSPost2010Prop57
140
1.0
102
RTVSPost2010PropOp57
 70
     1
  0
XRECORD
  5
1AA
102
{ACAD_REACTORS
330
1A9
102
}
330
1A9
100
AcDbXrecord
280
     1
102
RTVSPost2010Prop28
280
     0
102
RTVSPost2010PropOp28
 70
     0
102
RTVSPost2010Prop29
280
     1
102
RTVSPost2010PropOp29
 70
     0
102
RTVSPost2010Prop30
280
     1
102
RTVSPost2010PropOp30
 70
     0
102
RTVSPost2010Prop31
280
     0
102
RTVSPost2010PropOp31
 70
     0
102
RTVSPost2010Prop32
280
     0
102
RTVSPost2010PropOp32
 70
     0
102
RTVSPost2010Prop33
280
     0
102
RTVSPost2010PropOp33
 70
     0
102
RTVSPost2010Prop34
280
     0
102
RTVSPost2010PropOp34
 70
     0
102
RTVSPost2010Prop35
280
     0
102
RTVSPost2010PropOp35
 70
     0
102
RTVSPost2010Prop36
280
     0
102
RTVSPost2010PropOp36
 70
     0
102
RTVSPost2010Prop37
 90
       50
102
RTVSPost2010PropOp37
 70
     0
102
RTVSPost2010Prop38
140
0.0
102
RTVSPost2010PropOp38
 70
     0
102
RTVSPost2010Prop39
140
1.0
102
RTVSPost2010PropOp39
 70
     0
102
RTVSPost2010Prop40
 90
        0
102
RTVSPost2010PropOp40
 70
     0
102
RTVSPost2010Prop41ColorIndex
 90
       18
102
RTVSPost2010Prop41ColorRGB
 90
        0
102
RTVSPost2010PropOp41
 70
     0
102
RTVSPost2010Prop42
 90
       50
102
RTVSPost2010PropOp42
 70
     0
102
RTVSPost2010Prop43
 90
        3
102
RTVSPost2010PropOp43
 70
     0
102
RTVSPost2010Prop44ColorIndex
 90
        5
102
RTVSPost2010Prop44ColorRGB
 90
      255
102
RTVSPost2010PropOp44
 70
     0
102
RTVSPost2010Prop45
280
     0
102
RTVSPost2010PropOp45
 70
     0
102
RTVSPost2010Prop46
 90
       50
102
RTVSPost2010PropOp46
 70
     0
102
RTVSPost2010Prop47
 90
       50
102
RTVSPost2010PropOp47
 70
     0
102
RTVSPost2010Prop48
 90
       50
102
RTVSPost2010PropOp48
 70
     0
102
RTVSPost2010Prop49
280
     0
102
RTVSPost2010PropOp49
 70
     0
102
RTVSPost2010Prop50
 90
       50
102
RTVSPost2010PropOp50
 70
     0
102
RTVSPost2010Prop51ColorIndex
 90
      256
102
RTVSPost2010Prop51ColorRGB
 90
-16777216
102
RTVSPost2010PropOp51
 70
     0
102
RTVSPost2010Prop52
140
1.0
102
RTVSPost2010PropOp52
 70
     0
102
RTVSPost2010Prop53
 90
        2
102
RTVSPost2010PropOp53
 70
     0
102
RTVSPost2010Prop54
  1
strokes_ogs.tif
102
RTVSPost2010PropOp54
 70
     0
102
RTVSPost2010Prop55
280
     0
102
RTVSPost2010PropOp55
 70
     0
102
RTVSPost2010Prop56
140
1.0
102
RTVSPost2010PropOp56
 70
     0
102
RTVSPost2010Prop57
140
1.0
102
RTVSPost2010PropOp57
 70
     0
  0
XRECORD
  5
19A
102
{ACAD_REACTORS
330
199
102
}
330
199
100
AcDbXrecord
280
     1
102
RTVSPost2010Prop28
280
     0
102
RTVSPost2010PropOp28
 70
     1
102
RTVSPost2010Prop29
280
     1
102
RTVSPost2010PropOp29
 70
     1
102
RTVSPost2010Prop30
280
     1
102
RTVSPost2010PropOp30
 70
     1
102
RTVSPost2010Prop31
280
     0
102
RTVSPost2010PropOp31
 70
     1
102
RTVSPost2010Prop32
280
     0
102
RTVSPost2010PropOp32
 70
     1
102
RTVSPost2010Prop33
280
     0
102
RTVSPost2010PropOp33
 70
     1
102
RTVSPost2010Prop34
280
     0
102
RTVSPost2010PropOp34
 70
     1
102
RTVSPost2010Prop35
280
     0
102
RTVSPost2010PropOp35
 70
     1
102
RTVSPost2010Prop36
280
     0
102
RTVSPost2010PropOp36
 70
     1
102
RTVSPost2010Prop37
 90
       50
102
RTVSPost2010PropOp37
 70
     1
102
RTVSPost2010Prop38
140
0.0
102
RTVSPost2010PropOp38
 70
     1
102
RTVSPost2010Prop39
140
1.0
102
RTVSPost2010PropOp39
 70
     1
102
RTVSPost2010Prop40
 90
        0
102
RTVSPost2010PropOp40
 70
     1
102
RTVSPost2010Prop41ColorIndex
 90
       18
102
RTVSPost2010Prop41ColorRGB
 90
        0
102
RTVSPost2010PropOp41
 70
     1
102
RTVSPost2010Prop42
 90
       50
102
RTVSPost2010PropOp42
 70
     1
102
RTVSPost2010Prop43
 90
        3
102
RTVSPost2010PropOp43
 70
     1
102
RTVSPost2010Prop44ColorIndex
 90
        5
102
RTVSPost2010Prop44ColorRGB
 90
      255
102
RTVSPost2010PropOp44
 70
     1
102
RTVSPost2010Prop45
280
     0
102
RTVSPost2010PropOp45
 70
     1
102
RTVSPost2010Prop46
 90
       50
102
RTVSPost2010PropOp46
 70
     1
102
RTVSPost2010Prop47
 90
       50
102
RTVSPost2010PropOp47
 70
     1
102
RTVSPost2010Prop48
 90
       50
102
RTVSPost2010PropOp48
 70
     1
102
RTVSPost2010Prop49
280
     0
102
RTVSPost2010PropOp49
 70
     1
102
RTVSPost2010Prop50
 90
       50
102
RTVSPost2010PropOp50
 70
     1
102
RTVSPost2010Prop51ColorIndex
 90
      256
102
RTVSPost2010Prop51ColorRGB
 90
-16777216
102
RTVSPost2010PropOp51
 70
     0
102
RTVSPost2010Prop52
140
1.0
102
RTVSPost2010PropOp52
 70
     0
102
RTVSPost2010Prop53
 90
        2
102
RTVSPost2010PropOp53
 70
     1
102
RTVSPost2010Prop54
  1
strokes_ogs.tif
102
RTVSPost2010PropOp54
 70
     1
102
RTVSPost2010Prop55
280
     0
102
RTVSPost2010PropOp55
 70
     1
102
RTVSPost2010Prop56
140
1.0
102
RTVSPost2010PropOp56
 70
     1
102
RTVSPost2010Prop57
140
1.0
102
RTVSPost2010PropOp57
 70
     1
  0
XRECORD
  5
1AC
102
{ACAD_REACTORS
330
1AB
102
}
330
1AB
100
AcDbXrecord
280
     1
102
RTVSPost2010Prop28
280
     0
102
RTVSPost2010PropOp28
 70
     0
102
RTVSPost2010Prop29
280
     1
102
RTVSPost2010PropOp29
 70
     0
102
RTVSPost2010Prop30
280
     1
102
RTVSPost2010PropOp30
 70
     0
102
RTVSPost2010Prop31
280
     0
102
RTVSPost2010PropOp31
 70
     0
102
RTVSPost2010Prop32
280
     0
102
RTVSPost2010PropOp32
 70
     0
102
RTVSPost2010Prop33
280
     0
102
RTVSPost2010PropOp33
 70
     0
102
RTVSPost2010Prop34
280
     0
102
RTVSPost2010PropOp34
 70
     0
102
RTVSPost2010Prop35
280
     0
102
RTVSPost2010PropOp35
 70
     0
102
RTVSPost2010Prop36
280
     0
102
RTVSPost2010PropOp36
 70
     0
102
RTVSPost2010Prop37
 90
       50
102
RTVSPost2010PropOp37
 70
     0
102
RTVSPost2010Prop38
140
0.0
102
RTVSPost2010PropOp38
 70
     0
102
RTVSPost2010Prop39
140
1.0
102
RTVSPost2010PropOp39
 70
     0
102
RTVSPost2010Prop40
 90
        0
102
RTVSPost2010PropOp40
 70
     0
102
RTVSPost2010Prop41ColorIndex
 90
       18
102
RTVSPost2010Prop41ColorRGB
 90
        0
102
RTVSPost2010PropOp41
 70
     0
102
RTVSPost2010Prop42
 90
       50
102
RTVSPost2010PropOp42
 70
     0
102
RTVSPost2010Prop43
 90
        3
102
RTVSPost2010PropOp43
 70
     0
102
RTVSPost2010Prop44ColorIndex
 90
        5
102
RTVSPost2010Prop44ColorRGB
 90
      255
102
RTVSPost2010PropOp44
 70
     0
102
RTVSPost2010Prop45
280
     0
102
RTVSPost2010PropOp45
 70
     0
102
RTVSPost2010Prop46
 90
       50
102
RTVSPost2010PropOp46
 70
     0
102
RTVSPost2010Prop47
 90
       50
102
RTVSPost2010PropOp47
 70
     0
102
RTVSPost2010Prop48
 90
       50
102
RTVSPost2010PropOp48
 70
     0
102
RTVSPost2010Prop49
280
     0
102
RTVSPost2010PropOp49
 70
     0
102
RTVSPost2010Prop50
 90
       50
102
RTVSPost2010PropOp50
 70
     0
102
RTVSPost2010Prop51ColorIndex
 90
      256
102
RTVSPost2010Prop51ColorRGB
 90
-16777216
102
RTVSPost2010PropOp51
 70
     0
102
RTVSPost2010Prop52
140
1.0
102
RTVSPost2010PropOp52
 70
     0
102
RTVSPost2010Prop53
 90
        2
102
RTVSPost2010PropOp53
 70
     0
102
RTVSPost2010Prop54
  1
strokes_ogs.tif
102
RTVSPost2010PropOp54
 70
     0
102
RTVSPost2010Prop55
280
     0
102
RTVSPost2010PropOp55
 70
     0
102
RTVSPost2010Prop56
140
1.0
102
RTVSPost2010PropOp56
 70
     0
102
RTVSPost2010Prop57
140
1.0
102
RTVSPost2010PropOp57
 70
     0
  0
XRECORD
  5
192
102
{ACAD_REACTORS
330
191
102
}
330
191
100
AcDbXrecord
280
     1
102
RTVSPost2010Prop28
280
     0
102
RTVSPost2010PropOp28
 70
     1
102
RTVSPost2010Prop29
280
     1
102
RTVSPost2010PropOp29
 70
     1
102
RTVSPost2010Prop30
280
     1
102
RTVSPost2010PropOp30
 70
     1
102
RTVSPost2010Prop31
280
     0
102
RTVSPost2010PropOp31
 70
     1
102
RTVSPost2010Prop32
280
     0
102
RTVSPost2010PropOp32
 70
     1
102
RTVSPost2010Prop33
280
     0
102
RTVSPost2010PropOp33
 70
     1
102
RTVSPost2010Prop34
280
     0
102
RTVSPost2010PropOp34
 70
     1
102
RTVSPost2010Prop35
280
     0
102
RTVSPost2010PropOp35
 70
     1
102
RTVSPost2010Prop36
280
     0
102
RTVSPost2010PropOp36
 70
     1
102
RTVSPost2010Prop37
 90
       50
102
RTVSPost2010PropOp37
 70
     1
102
RTVSPost2010Prop38
140
0.0
102
RTVSPost2010PropOp38
 70
     1
102
RTVSPost2010Prop39
140
1.0
102
RTVSPost2010PropOp39
 70
     1
102
RTVSPost2010Prop40
 90
        0
102
RTVSPost2010PropOp40
 70
     1
102
RTVSPost2010Prop41ColorIndex
 90
       18
102
RTVSPost2010Prop41ColorRGB
 90
        0
102
RTVSPost2010PropOp41
 70
     1
102
RTVSPost2010Prop42
 90
       50
102
RTVSPost2010PropOp42
 70
     1
102
RTVSPost2010Prop43
 90
        3
102
RTVSPost2010PropOp43
 70
     1
102
RTVSPost2010Prop44ColorIndex
 90
        5
102
RTVSPost2010Prop44ColorRGB
 90
      255
102
RTVSPost2010PropOp44
 70
     1
102
RTVSPost2010Prop45
280
     0
102
RTVSPost2010PropOp45
 70
     1
102
RTVSPost2010Prop46
 90
       50
102
RTVSPost2010PropOp46
 70
     1
102
RTVSPost2010Prop47
 90
       50
102
RTVSPost2010PropOp47
 70
     1
102
RTVSPost2010Prop48
 90
       50
102
RTVSPost2010PropOp48
 70
     1
102
RTVSPost2010Prop49
280
     0
102
RTVSPost2010PropOp49
 70
     1
102
RTVSPost2010Prop50
 90
       50
102
RTVSPost2010PropOp50
 70
     1
102
RTVSPost2010Prop51ColorIndex
 90
      256
102
RTVSPost2010Prop51ColorRGB
 90
-16777216
102
RTVSPost2010PropOp51
 70
     0
102
RTVSPost2010Prop52
140
1.0
102
RTVSPost2010PropOp52
 70
     0
102
RTVSPost2010Prop53
 90
        2
102
RTVSPost2010PropOp53
 70
     1
102
RTVSPost2010Prop54
  1
strokes_ogs.tif
102
RTVSPost2010PropOp54
 70
     1
102
RTVSPost2010Prop55
280
     0
102
RTVSPost2010PropOp55
 70
     1
102
RTVSPost2010Prop56
140
1.0
102
RTVSPost2010PropOp56
 70
     1
102
RTVSPost2010Prop57
140
1.0
102
RTVSPost2010PropOp57
 70
     1
  0
XRECORD
  5
1A8
102
{ACAD_REACTORS
330
1A7
102
}
330
1A7
100
AcDbXrecord
280
     1
102
RTVSPost2010Prop28
280
     0
102
RTVSPost2010PropOp28
 70
     1
102
RTVSPost2010Prop29
280
     1
102
RTVSPost2010PropOp29
 70
     1
102
RTVSPost2010Prop30
280
     1
102
RTVSPost2010PropOp30
 70
     1
102
RTVSPost2010Prop31
280
     0
102
RTVSPost2010PropOp31
 70
     1
102
RTVSPost2010Prop32
280
     0
102
RTVSPost2010PropOp32
 70
     1
102
RTVSPost2010Prop33
280
     0
102
RTVSPost2010PropOp33
 70
     1
102
RTVSPost2010Prop34
280
     0
102
RTVSPost2010PropOp34
 70
     1
102
RTVSPost2010Prop35
280
     0
102
RTVSPost2010PropOp35
 70
     1
102
RTVSPost2010Prop36
280
     0
102
RTVSPost2010PropOp36
 70
     1
102
RTVSPost2010Prop37
 90
       50
102
RTVSPost2010PropOp37
 70
     1
102
RTVSPost2010Prop38
140
0.0
102
RTVSPost2010PropOp38
 70
     1
102
RTVSPost2010Prop39
140
1.0
102
RTVSPost2010PropOp39
 70
     1
102
RTVSPost2010Prop40
 90
        0
102
RTVSPost2010PropOp40
 70
     1
102
RTVSPost2010Prop41ColorIndex
 90
       18
102
RTVSPost2010Prop41ColorRGB
 90
        0
102
RTVSPost2010PropOp41
 70
     1
102
RTVSPost2010Prop42
 90
       50
102
RTVSPost2010PropOp42
 70
     1
102
RTVSPost2010Prop43
 90
        3
102
RTVSPost2010PropOp43
 70
     1
102
RTVSPost2010Prop44ColorIndex
 90
        5
102
RTVSPost2010Prop44ColorRGB
 90
      255
102
RTVSPost2010PropOp44
 70
     1
102
RTVSPost2010Prop45
280
     0
102
RTVSPost2010PropOp45
 70
     1
102
RTVSPost2010Prop46
 90
       50
102
RTVSPost2010PropOp46
 70
     1
102
RTVSPost2010Prop47
 90
       50
102
RTVSPost2010PropOp47
 70
     1
102
RTVSPost2010Prop48
 90
       50
102
RTVSPost2010PropOp48
 70
     1
102
RTVSPost2010Prop49
280
     0
102
RTVSPost2010PropOp49
 70
     1
102
RTVSPost2010Prop50
 90
       50
102
RTVSPost2010PropOp50
 70
     1
102
RTVSPost2010Prop51ColorIndex
 90
      256
102
RTVSPost2010Prop51ColorRGB
 90
-16777216
102
RTVSPost2010PropOp51
 70
     0
102
RTVSPost2010Prop52
140
1.0
102
RTVSPost2010PropOp52
 70
     0
102
RTVSPost2010Prop53
 90
        2
102
RTVSPost2010PropOp53
 70
     1
102
RTVSPost2010Prop54
  1
strokes_ogs.tif
102
RTVSPost2010PropOp54
 70
     1
102
RTVSPost2010Prop55
280
     0
102
RTVSPost2010PropOp55
 70
     1
102
RTVSPost2010Prop56
140
1.0
102
RTVSPost2010PropOp56
 70
     1
102
RTVSPost2010Prop57
140
1.0
102
RTVSPost2010PropOp57
 70
     1
  0
XRECORD
  5
1A6
102
{ACAD_REACTORS
330
1A5
102
}
330
1A5
100
AcDbXrecord
280
     1
102
RTVSPost2010Prop28
280
     0
102
RTVSPost2010PropOp28
 70
     1
102
RTVSPost2010Prop29
280
     1
102
RTVSPost2010PropOp29
 70
     1
102
RTVSPost2010Prop30
280
     1
102
RTVSPost2010PropOp30
 70
     1
102
RTVSPost2010Prop31
280
     0
102
RTVSPost2010PropOp31
 70
     1
102
RTVSPost2010Prop32
280
     0
102
RTVSPost2010PropOp32
 70
     1
102
RTVSPost2010Prop33
280
     0
102
RTVSPost2010PropOp33
 70
     1
102
RTVSPost2010Prop34
280
     0
102
RTVSPost2010PropOp34
 70
     1
102
RTVSPost2010Prop35
280
     0
102
RTVSPost2010PropOp35
 70
     1
102
RTVSPost2010Prop36
280
     0
102
RTVSPost2010PropOp36
 70
     1
102
RTVSPost2010Prop37
 90
       50
102
RTVSPost2010PropOp37
 70
     1
102
RTVSPost2010Prop38
140
0.0
102
RTVSPost2010PropOp38
 70
     1
102
RTVSPost2010Prop39
140
1.0
102
RTVSPost2010PropOp39
 70
     1
102
RTVSPost2010Prop40
 90
        0
102
RTVSPost2010PropOp40
 70
     1
102
RTVSPost2010Prop41ColorIndex
 90
       18
102
RTVSPost2010Prop41ColorRGB
 90
        0
102
RTVSPost2010PropOp41
 70
     1
102
RTVSPost2010Prop42
 90
       50
102
RTVSPost2010PropOp42
 70
     1
102
RTVSPost2010Prop43
 90
        3
102
RTVSPost2010PropOp43
 70
     1
102
RTVSPost2010Prop44ColorIndex
 90
        5
102
RTVSPost2010Prop44ColorRGB
 90
      255
102
RTVSPost2010PropOp44
 70
     1
102
RTVSPost2010Prop45
280
     0
102
RTVSPost2010PropOp45
 70
     1
102
RTVSPost2010Prop46
 90
       50
102
RTVSPost2010PropOp46
 70
     1
102
RTVSPost2010Prop47
 90
       50
102
RTVSPost2010PropOp47
 70
     1
102
RTVSPost2010Prop48
 90
       50
102
RTVSPost2010PropOp48
 70
     1
102
RTVSPost2010Prop49
280
     0
102
RTVSPost2010PropOp49
 70
     1
102
RTVSPost2010Prop50
 90
       50
102
RTVSPost2010PropOp50
 70
     1
102
RTVSPost2010Prop51ColorIndex
 90
      256
102
RTVSPost2010Prop51ColorRGB
 90
-16777216
102
RTVSPost2010PropOp51
 70
     0
102
RTVSPost2010Prop52
140
1.0
102
RTVSPost2010PropOp52
 70
     0
102
RTVSPost2010Prop53
 90
        2
102
RTVSPost2010PropOp53
 70
     1
102
RTVSPost2010Prop54
  1
strokes_ogs.tif
102
RTVSPost2010PropOp54
 70
     1
102
RTVSPost2010Prop55
280
     0
102
RTVSPost2010PropOp55
 70
     1
102
RTVSPost2010Prop56
140
1.0
102
RTVSPost2010PropOp56
 70
     1
102
RTVSPost2010Prop57
140
1.0
102
RTVSPost2010PropOp57
 70
     1
  0
XRECORD
  5
1A0
102
{ACAD_REACTORS
330
19F
102
}
330
19F
100
AcDbXrecord
280
     1
102
RTVSPost2010Prop28
280
     0
102
RTVSPost2010PropOp28
 70
     1
102
RTVSPost2010Prop29
280
     1
102
RTVSPost2010PropOp29
 70
     1
102
RTVSPost2010Prop30
280
     1
102
RTVSPost2010PropOp30
 70
     1
102
RTVSPost2010Prop31
280
     0
102
RTVSPost2010PropOp31
 70
     1
102
RTVSPost2010Prop32
280
     0
102
RTVSPost2010PropOp32
 70
     1
102
RTVSPost2010Prop33
280
     0
102
RTVSPost2010PropOp33
 70
     1
102
RTVSPost2010Prop34
280
     0
102
RTVSPost2010PropOp34
 70
     1
102
RTVSPost2010Prop35
280
     0
102
RTVSPost2010PropOp35
 70
     1
102
RTVSPost2010Prop36
280
     0
102
RTVSPost2010PropOp36
 70
     1
102
RTVSPost2010Prop37
 90
       50
102
RTVSPost2010PropOp37
 70
     1
102
RTVSPost2010Prop38
140
0.0
102
RTVSPost2010PropOp38
 70
     1
102
RTVSPost2010Prop39
140
1.0
102
RTVSPost2010PropOp39
 70
     1
102
RTVSPost2010Prop40
 90
        0
102
RTVSPost2010PropOp40
 70
     1
102
RTVSPost2010Prop41ColorIndex
 90
       18
102
RTVSPost2010Prop41ColorRGB
 90
        0
102
RTVSPost2010PropOp41
 70
     1
102
RTVSPost2010Prop42
 90
       50
102
RTVSPost2010PropOp42
 70
     1
102
RTVSPost2010Prop43
 90
        3
102
RTVSPost2010PropOp43
 70
     1
102
RTVSPost2010Prop44ColorIndex
 90
        5
102
RTVSPost2010Prop44ColorRGB
 90
      255
102
RTVSPost2010PropOp44
 70
     1
102
RTVSPost2010Prop45
280
     0
102
RTVSPost2010PropOp45
 70
     1
102
RTVSPost2010Prop46
 90
       50
102
RTVSPost2010PropOp46
 70
     1
102
RTVSPost2010Prop47
 90
       50
102
RTVSPost2010PropOp47
 70
     1
102
RTVSPost2010Prop48
 90
       50
102
RTVSPost2010PropOp48
 70
     1
102
RTVSPost2010Prop49
280
     0
102
RTVSPost2010PropOp49
 70
     1
102
RTVSPost2010Prop50
 90
       50
102
RTVSPost2010PropOp50
 70
     1
102
RTVSPost2010Prop51ColorIndex
 90
      256
102
RTVSPost2010Prop51ColorRGB
 90
-16777216
102
RTVSPost2010PropOp51
 70
     0
102
RTVSPost2010Prop52
140
1.0
102
RTVSPost2010PropOp52
 70
     0
102
RTVSPost2010Prop53
 90
        2
102
RTVSPost2010PropOp53
 70
     1
102
RTVSPost2010Prop54
  1
strokes_ogs.tif
102
RTVSPost2010PropOp54
 70
     1
102
RTVSPost2010Prop55
280
     0
102
RTVSPost2010PropOp55
 70
     1
102
RTVSPost2010Prop56
140
1.0
102
RTVSPost2010PropOp56
 70
     1
102
RTVSPost2010Prop57
140
1.0
102
RTVSPost2010PropOp57
 70
     1
  0
XRECORD
  5
1A2
102
{ACAD_REACTORS
330
1A1
102
}
330
1A1
100
AcDbXrecord
280
     1
102
RTVSPost2010Prop28
280
     0
102
RTVSPost2010PropOp28
 70
     1
102
RTVSPost2010Prop29
280
     1
102
RTVSPost2010PropOp29
 70
     1
102
RTVSPost2010Prop30
280
     1
102
RTVSPost2010PropOp30
 70
     1
102
RTVSPost2010Prop31
280
     0
102
RTVSPost2010PropOp31
 70
     1
102
RTVSPost2010Prop32
280
     0
102
RTVSPost2010PropOp32
 70
     1
102
RTVSPost2010Prop33
280
     0
102
RTVSPost2010PropOp33
 70
     1
102
RTVSPost2010Prop34
280
     0
102
RTVSPost2010PropOp34
 70
     1
102
RTVSPost2010Prop35
280
     0
102
RTVSPost2010PropOp35
 70
     1
102
RTVSPost2010Prop36
280
     0
102
RTVSPost2010PropOp36
 70
     1
102
RTVSPost2010Prop37
 90
       50
102
RTVSPost2010PropOp37
 70
     1
102
RTVSPost2010Prop38
140
0.0
102
RTVSPost2010PropOp38
 70
     1
102
RTVSPost2010Prop39
140
1.0
102
RTVSPost2010PropOp39
 70
     1
102
RTVSPost2010Prop40
 90
        0
102
RTVSPost2010PropOp40
 70
     1
102
RTVSPost2010Prop41ColorIndex
 90
       18
102
RTVSPost2010Prop41ColorRGB
 90
        0
102
RTVSPost2010PropOp41
 70
     1
102
RTVSPost2010Prop42
 90
       50
102
RTVSPost2010PropOp42
 70
     1
102
RTVSPost2010Prop43
 90
        3
102
RTVSPost2010PropOp43
 70
     1
102
RTVSPost2010Prop44ColorIndex
 90
        5
102
RTVSPost2010Prop44ColorRGB
 90
      255
102
RTVSPost2010PropOp44
 70
     1
102
RTVSPost2010Prop45
280
     0
102
RTVSPost2010PropOp45
 70
     1
102
RTVSPost2010Prop46
 90
       50
102
RTVSPost2010PropOp46
 70
     1
102
RTVSPost2010Prop47
 90
       50
102
RTVSPost2010PropOp47
 70
     1
102
RTVSPost2010Prop48
 90
       50
102
RTVSPost2010PropOp48
 70
     1
102
RTVSPost2010Prop49
280
     0
102
RTVSPost2010PropOp49
 70
     1
102
RTVSPost2010Prop50
 90
       50
102
RTVSPost2010PropOp50
 70
     1
102
RTVSPost2010Prop51ColorIndex
 90
      256
102
RTVSPost2010Prop51ColorRGB
 90
-16777216
102
RTVSPost2010PropOp51
 70
     0
102
RTVSPost2010Prop52
140
1.0
102
RTVSPost2010PropOp52
 70
     0
102
RTVSPost2010Prop53
 90
        2
102
RTVSPost2010PropOp53
 70
     1
102
RTVSPost2010Prop54
  1
strokes_ogs.tif
102
RTVSPost2010PropOp54
 70
     1
102
RTVSPost2010Prop55
280
     0
102
RTVSPost2010PropOp55
 70
     1
102
RTVSPost2010Prop56
140
1.0
102
RTVSPost2010PropOp56
 70
     1
102
RTVSPost2010Prop57
140
1.0
102
RTVSPost2010PropOp57
 70
     1
  0
XRECORD
  5
198
102
{ACAD_REACTORS
330
197
102
}
330
197
100
AcDbXrecord
280
     1
102
RTVSPost2010Prop28
280
     0
102
RTVSPost2010PropOp28
 70
     1
102
RTVSPost2010Prop29
280
     1
102
RTVSPost2010PropOp29
 70
     1
102
RTVSPost2010Prop30
280
     1
102
RTVSPost2010PropOp30
 70
     1
102
RTVSPost2010Prop31
280
     0
102
RTVSPost2010PropOp31
 70
     1
102
RTVSPost2010Prop32
280
     0
102
RTVSPost2010PropOp32
 70
     1
102
RTVSPost2010Prop33
280
     0
102
RTVSPost2010PropOp33
 70
     1
102
RTVSPost2010Prop34
280
     0
102
RTVSPost2010PropOp34
 70
     1
102
RTVSPost2010Prop35
280
     0
102
RTVSPost2010PropOp35
 70
     1
102
RTVSPost2010Prop36
280
     0
102
RTVSPost2010PropOp36
 70
     1
102
RTVSPost2010Prop37
 90
       50
102
RTVSPost2010PropOp37
 70
     1
102
RTVSPost2010Prop38
140
0.0
102
RTVSPost2010PropOp38
 70
     1
102
RTVSPost2010Prop39
140
1.0
102
RTVSPost2010PropOp39
 70
     1
102
RTVSPost2010Prop40
 90
        0
102
RTVSPost2010PropOp40
 70
     1
102
RTVSPost2010Prop41ColorIndex
 90
       18
102
RTVSPost2010Prop41ColorRGB
 90
        0
102
RTVSPost2010PropOp41
 70
     1
102
RTVSPost2010Prop42
 90
       50
102
RTVSPost2010PropOp42
 70
     1
102
RTVSPost2010Prop43
 90
        3
102
RTVSPost2010PropOp43
 70
     1
102
RTVSPost2010Prop44ColorIndex
 90
        5
102
RTVSPost2010Prop44ColorRGB
 90
      255
102
RTVSPost2010PropOp44
 70
     1
102
RTVSPost2010Prop45
280
     0
102
RTVSPost2010PropOp45
 70
     1
102
RTVSPost2010Prop46
 90
       50
102
RTVSPost2010PropOp46
 70
     1
102
RTVSPost2010Prop47
 90
       50
102
RTVSPost2010PropOp47
 70
     1
102
RTVSPost2010Prop48
 90
       50
102
RTVSPost2010PropOp48
 70
     1
102
RTVSPost2010Prop49
280
     0
102
RTVSPost2010PropOp49
 70
     1
102
RTVSPost2010Prop50
 90
       50
102
RTVSPost2010PropOp50
 70
     1
102
RTVSPost2010Prop51ColorIndex
 90
      256
102
RTVSPost2010Prop51ColorRGB
 90
-16777216
102
RTVSPost2010PropOp51
 70
     0
102
RTVSPost2010Prop52
140
1.0
102
RTVSPost2010PropOp52
 70
     0
102
RTVSPost2010Prop53
 90
        2
102
RTVSPost2010PropOp53
 70
     1
102
RTVSPost2010Prop54
  1
strokes_ogs.tif
102
RTVSPost2010PropOp54
 70
     1
102
RTVSPost2010Prop55
280
     0
102
RTVSPost2010PropOp55
 70
     1
102
RTVSPost2010Prop56
140
1.0
102
RTVSPost2010PropOp56
 70
     1
102
RTVSPost2010Prop57
140
1.0
102
RTVSPost2010PropOp57
 70
     1
  0
XRECORD
  5
18C
102
{ACAD_REACTORS
330
18B
102
}
330
18B
100
AcDbXrecord
280
     1
102
RTVSPost2010Prop28
280
     0
102
RTVSPost2010PropOp28
 70
     1
102
RTVSPost2010Prop29
280
     1
102
RTVSPost2010PropOp29
 70
     1
102
RTVSPost2010Prop30
280
     1
102
RTVSPost2010PropOp30
 70
     1
102
RTVSPost2010Prop31
280
     0
102
RTVSPost2010PropOp31
 70
     1
102
RTVSPost2010Prop32
280
     0
102
RTVSPost2010PropOp32
 70
     1
102
RTVSPost2010Prop33
280
     0
102
RTVSPost2010PropOp33
 70
     1
102
RTVSPost2010Prop34
280
     0
102
RTVSPost2010PropOp34
 70
     1
102
RTVSPost2010Prop35
280
     0
102
RTVSPost2010PropOp35
 70
     1
102
RTVSPost2010Prop36
280
     0
102
RTVSPost2010PropOp36
 70
     1
102
RTVSPost2010Prop37
 90
       50
102
RTVSPost2010PropOp37
 70
     1
102
RTVSPost2010Prop38
140
0.0
102
RTVSPost2010PropOp38
 70
     1
102
RTVSPost2010Prop39
140
1.0
102
RTVSPost2010PropOp39
 70
     1
102
RTVSPost2010Prop40
 90
        0
102
RTVSPost2010PropOp40
 70
     1
102
RTVSPost2010Prop41ColorIndex
 90
       18
102
RTVSPost2010Prop41ColorRGB
 90
        0
102
RTVSPost2010PropOp41
 70
     1
102
RTVSPost2010Prop42
 90
       50
102
RTVSPost2010PropOp42
 70
     1
102
RTVSPost2010Prop43
 90
        3
102
RTVSPost2010PropOp43
 70
     1
102
RTVSPost2010Prop44ColorIndex
 90
        5
102
RTVSPost2010Prop44ColorRGB
 90
      255
102
RTVSPost2010PropOp44
 70
     1
102
RTVSPost2010Prop45
280
     0
102
RTVSPost2010PropOp45
 70
     1
102
RTVSPost2010Prop46
 90
       50
102
RTVSPost2010PropOp46
 70
     1
102
RTVSPost2010Prop47
 90
       50
102
RTVSPost2010PropOp47
 70
     1
102
RTVSPost2010Prop48
 90
       50
102
RTVSPost2010PropOp48
 70
     1
102
RTVSPost2010Prop49
280
     0
102
RTVSPost2010PropOp49
 70
     1
102
RTVSPost2010Prop50
 90
       50
102
RTVSPost2010PropOp50
 70
     1
102
RTVSPost2010Prop51ColorIndex
 90
      256
102
RTVSPost2010Prop51ColorRGB
 90
-16777216
102
RTVSPost2010PropOp51
 70
     0
102
RTVSPost2010Prop52
140
1.0
102
RTVSPost2010PropOp52
 70
     0
102
RTVSPost2010Prop53
 90
        2
102
RTVSPost2010PropOp53
 70
     1
102
RTVSPost2010Prop54
  1
strokes_ogs.tif
102
RTVSPost2010PropOp54
 70
     1
102
RTVSPost2010Prop55
280
     0
102
RTVSPost2010PropOp55
 70
     1
102
RTVSPost2010Prop56
140
1.0
102
RTVSPost2010PropOp56
 70
     1
102
RTVSPost2010Prop57
140
1.0
102
RTVSPost2010PropOp57
 70
     1
  0
XRECORD
  5
1A4
102
{ACAD_REACTORS
330
1A3
102
}
330
1A3
100
AcDbXrecord
280
     1
102
RTVSPost2010Prop28
280
     0
102
RTVSPost2010PropOp28
 70
     1
102
RTVSPost2010Prop29
280
     1
102
RTVSPost2010PropOp29
 70
     1
102
RTVSPost2010Prop30
280
     1
102
RTVSPost2010PropOp30
 70
     1
102
RTVSPost2010Prop31
280
     0
102
RTVSPost2010PropOp31
 70
     1
102
RTVSPost2010Prop32
280
     0
102
RTVSPost2010PropOp32
 70
     1
102
RTVSPost2010Prop33
280
     0
102
RTVSPost2010PropOp33
 70
     1
102
RTVSPost2010Prop34
280
     0
102
RTVSPost2010PropOp34
 70
     1
102
RTVSPost2010Prop35
280
     0
102
RTVSPost2010PropOp35
 70
     1
102
RTVSPost2010Prop36
280
     0
102
RTVSPost2010PropOp36
 70
     1
102
RTVSPost2010Prop37
 90
       50
102
RTVSPost2010PropOp37
 70
     1
102
RTVSPost2010Prop38
140
0.0
102
RTVSPost2010PropOp38
 70
     1
102
RTVSPost2010Prop39
140
1.0
102
RTVSPost2010PropOp39
 70
     1
102
RTVSPost2010Prop40
 90
        0
102
RTVSPost2010PropOp40
 70
     1
102
RTVSPost2010Prop41ColorIndex
 90
       18
102
RTVSPost2010Prop41ColorRGB
 90
        0
102
RTVSPost2010PropOp41
 70
     1
102
RTVSPost2010Prop42
 90
       50
102
RTVSPost2010PropOp42
 70
     1
102
RTVSPost2010Prop43
 90
        3
102
RTVSPost2010PropOp43
 70
     1
102
RTVSPost2010Prop44ColorIndex
 90
        5
102
RTVSPost2010Prop44ColorRGB
 90
      255
102
RTVSPost2010PropOp44
 70
     1
102
RTVSPost2010Prop45
280
     0
102
RTVSPost2010PropOp45
 70
     1
102
RTVSPost2010Prop46
 90
       50
102
RTVSPost2010PropOp46
 70
     1
102
RTVSPost2010Prop47
 90
       50
102
RTVSPost2010PropOp47
 70
     1
102
RTVSPost2010Prop48
 90
       50
102
RTVSPost2010PropOp48
 70
     1
102
RTVSPost2010Prop49
280
     0
102
RTVSPost2010PropOp49
 70
     1
102
RTVSPost2010Prop50
 90
       50
102
RTVSPost2010PropOp50
 70
     1
102
RTVSPost2010Prop51ColorIndex
 90
      256
102
RTVSPost2010Prop51ColorRGB
 90
-16777216
102
RTVSPost2010PropOp51
 70
     0
102
RTVSPost2010Prop52
140
1.0
102
RTVSPost2010PropOp52
 70
     0
102
RTVSPost2010Prop53
 90
        2
102
RTVSPost2010PropOp53
 70
     1
102
RTVSPost2010Prop54
  1
strokes_ogs.tif
102
RTVSPost2010PropOp54
 70
     1
102
RTVSPost2010Prop55
280
     0
102
RTVSPost2010PropOp55
 70
     1
102
RTVSPost2010Prop56
140
1.0
102
RTVSPost2010PropOp56
 70
     1
102
RTVSPost2010Prop57
140
1.0
102
RTVSPost2010PropOp57
 70
     1
  0
ENDSEC
  0
EOF
