  0
SECTION
  2
HEADER
  9
$ACADVER
  1
AC1024
  9
$ACADMAINTVER
 70
   226
  9
$DWGCODEPAGE
  3
ANSI_932
  9
$INSBASE
 10
0.0
 20
0.0
 30
0.0
  9
$EXTMIN
 10
1.000000000000000E+20
 20
1.000000000000000E+20
 30
1.000000000000000E+20
  9
$EXTMAX
 10
-1.000000000000000E+20
 20
-1.000000000000000E+20
 30
-1.000000000000000E+20
  9
$LIMMIN
 10
0.0
 20
0.0
  9
$LIMMAX
 10
12.0
 20
9.0
  9
$ORTHOMODE
 70
     0
  9
$REGENMODE
 70
     1
  9
$FILLMODE
 70
     1
  9
$QTEXTMODE
 70
     0
  9
$MIRRTEXT
 70
     0
  9
$LTSCALE
 40
1.0
  9
$ATTMODE
 70
     1
  9
$TEXTSIZE
 40
0.2
  9
$TRACEWID
 40
0.05
  9
$TEXTSTYLE
  7
Standard
  9
$CLAYER
  8
0
  9
$CELTYPE
  6
ByLayer
  9
$CECOLOR
 62
   256
  9
$CELTSCALE
 40
1.0
  9
$DISPSILH
 70
     0
  9
$DIMSCALE
 40
1.0
  9
$DIMASZ
 40
0.18
  9
$DIMEXO
 40
0.0625
  9
$DIMDLI
 40
0.38
  9
$DIMRND
 40
0.0
  9
$DIMDLE
 40
0.0
  9
$DIMEXE
 40
0.18
  9
$DIMTP
 40
0.0
  9
$DIMTM
 40
0.0
  9
$DIMTXT
 40
0.18
  9
$DIMCEN
 40
0.09
  9
$DIMTSZ
 40
0.0
  9
$DIMTOL
 70
     0
  9
$DIMLIM
 70
     0
  9
$DIMTIH
 70
     1
  9
$DIMTOH
 70
     1
  9
$DIMSE1
 70
     0
  9
$DIMSE2
 70
     0
  9
$DIMTAD
 70
     0
  9
$DIMZIN
 70
     0
  9
$DIMBLK
  1

  9
$DIMASO
 70
     1
  9
$DIMSHO
 70
     1
  9
$DIMPOST
  1

  9
$DIMAPOST
  1

  9
$DIMALT
 70
     0
  9
$DIMALTD
 70
     2
  9
$DIMALTF
 40
25.4
  9
$DIMLFAC
 40
1.0
  9
$DIMTOFL
 70
     0
  9
$DIMTVP
 40
0.0
  9
$DIMTIX
 70
     0
  9
$DIMSOXD
 70
     0
  9
$DIMSAH
 70
     0
  9
$DIMBLK1
  1

  9
$DIMBLK2
  1

  9
$DIMSTYLE
  2
Standard
  9
$DIMCLRD
 70
     0
  9
$DIMCLRE
 70
     0
  9
$DIMCLRT
 70
     0
  9
$DIMTFAC
 40
1.0
  9
$DIMGAP
 40
0.09
  9
$DIMJUST
 70
     0
  9
$DIMSD1
 70
     0
  9
$DIMSD2
 70
     0
  9
$DIMTOLJ
 70
     1
  9
$DIMTZIN
 70
     0
  9
$DIMALTZ
 70
     0
  9
$DIMALTTZ
 70
     0
  9
$DIMUPT
 70
     0
  9
$DIMDEC
 70
     4
  9
$DIMTDEC
 70
     4
  9
$DIMALTU
 70
     2
  9
$DIMALTTD
 70
     2
  9
$DIMTXSTY
  7
Standard
  9
$DIMAUNIT
 70
     0
  9
$DIMADEC
 70
     0
  9
$DIMALTRND
 40
0.0
  9
$DIMAZIN
 70
     0
  9
$DIMDSEP
 70
    46
  9
$DIMATFIT
 70
     3
  9
$DIMFRAC
 70
     0
  9
$DIMLDRBLK
  1

  9
$DIMLUNIT
 70
     2
  9
$DIMLWD
 70
    -2
  9
$DIMLWE
 70
    -2
  9
$DIMTMOVE
 70
     0
  9
$DIMFXL
 40
1.0
  9
$DIMFXLON
 70
     0
  9
$DIMJOGANG
 40
0.7853981633974483
  9
$DIMTFILL
 70
     0
  9
$DIMTFILLCLR
 70
     0
  9
$DIMARCSYM
 70
     0
  9
$DIMLTYPE
  6

  9
$DIMLTEX1
  6

  9
$DIMLTEX2
  6

  9
$DIMTXTDIRECTION
 70
     0
  9
$LUNITS
 70
     2
  9
$LUPREC
 70
     4
  9
$SKETCHINC
 40
0.1
  9
$FILLETRAD
 40
0.0
  9
$AUNITS
 70
     0
  9
$AUPREC
 70
     0
  9
$MENU
  1
.
  9
$ELEVATION
 40
0.0
  9
$PELEVATION
 40
0.0
  9
$THICKNESS
 40
0.0
  9
$LIMCHECK
 70
     0
  9
$CHAMFERA
 40
0.0
  9
$CHAMFERB
 40
0.0
  9
$CHAMFERC
 40
0.0
  9
$CHAMFERD
 40
0.0
  9
$SKPOLY
 70
     0
  9
$TDCREATE
 40
2459569.489108797
  9
$TDUCREATE
 40
2459569.114108796
  9
$TDUPDATE
 40
2459569.489108797
  9
$TDUUPDATE
 40
2459569.114108796
  9
$TDINDWG
 40
0.0000000000
  9
$TDUSRTIMER
 40
0.0000000000
  9
$USRTIMER
 70
     1
  9
$ANGBASE
 50
0.0
  9
$ANGDIR
 70
     0
  9
$PDMODE
 70
     0
  9
$PDSIZE
 40
0.0
  9
$PLINEWID
 40
0.0
  9
$SPLFRAME
 70
     0
  9
$SPLINETYPE
 70
     6
  9
$SPLINESEGS
 70
     8
  9
$HANDSEED
  5
1E0
  9
$SURFTAB1
 70
     6
  9
$SURFTAB2
 70
     6
  9
$SURFTYPE
 70
     6
  9
$SURFU
 70
     6
  9
$SURFV
 70
     6
  9
$UCSBASE
  2

  9
$UCSNAME
  2

  9
$UCSORG
 10
0.0
 20
0.0
 30
0.0
  9
$UCSXDIR
 10
1.0
 20
0.0
 30
0.0
  9
$UCSYDIR
 10
0.0
 20
1.0
 30
0.0
  9
$UCSORTHOREF
  2

  9
$UCSORTHOVIEW
 70
     0
  9
$UCSORGTOP
 10
0.0
 20
0.0
 30
0.0
  9
$UCSORGBOTTOM
 10
0.0
 20
0.0
 30
0.0
  9
$UCSORGLEFT
 10
0.0
 20
0.0
 30
0.0
  9
$UCSORGRIGHT
 10
0.0
 20
0.0
 30
0.0
  9
$UCSORGFRONT
 10
0.0
 20
0.0
 30
0.0
  9
$UCSORGBACK
 10
0.0
 20
0.0
 30
0.0
  9
$PUCSBASE
  2

  9
$PUCSNAME
  2

  9
$PUCSORG
 10
0.0
 20
0.0
 30
0.0
  9
$PUCSXDIR
 10
1.0
 20
0.0
 30
0.0
  9
$PUCSYDIR
 10
0.0
 20
1.0
 30
0.0
  9
$PUCSORTHOREF
  2

  9
$PUCSORTHOVIEW
 70
     0
  9
$PUCSORGTOP
 10
0.0
 20
0.0
 30
0.0
  9
$PUCSORGBOTTOM
 10
0.0
 20
0.0
 30
0.0
  9
$PUCSORGLEFT
 10
0.0
 20
0.0
 30
0.0
  9
$PUCSORGRIGHT
 10
0.0
 20
0.0
 30
0.0
  9
$PUCSORGFRONT
 10
0.0
 20
0.0
 30
0.0
  9
$PUCSORGBACK
 10
0.0
 20
0.0
 30
0.0
  9
$USERI1
 70
     0
  9
$USERI2
 70
     0
  9
$USERI3
 70
     0
  9
$USERI4
 70
     0
  9
$USERI5
 70
     0
  9
$USERR1
 40
0.0
  9
$USERR2
 40
0.0
  9
$USERR3
 40
0.0
  9
$USERR4
 40
0.0
  9
$USERR5
 40
0.0
  9
$WORLDVIEW
 70
     1
  9
$SHADEDGE
 70
     3
  9
$SHADEDIF
 70
    70
  9
$TILEMODE
 70
     1
  9
$MAXACTVP
 70
    64
  9
$PINSBASE
 10
0.0
 20
0.0
 30
0.0
  9
$PLIMCHECK
 70
     0
  9
$PEXTMIN
 10
1.000000000000000E+20
 20
1.000000000000000E+20
 30
1.000000000000000E+20
  9
$PEXTMAX
 10
-1.000000000000000E+20
 20
-1.000000000000000E+20
 30
-1.000000000000000E+20
  9
$PLIMMIN
 10
0.0
 20
0.0
  9
$PLIMMAX
 10
12.0
 20
9.0
  9
$UNITMODE
 70
     0
  9
$VISRETAIN
 70
     1
  9
$PLINEGEN
 70
     0
  9
$PSLTSCALE
 70
     1
  9
$TREEDEPTH
 70
  3020
  9
$CMLSTYLE
  2
Standard
  9
$CMLJUST
 70
     0
  9
$CMLSCALE
 40
1.0
  9
$PROXYGRAPHICS
 70
     1
  9
$MEASUREMENT
 70
     0
  9
$CELWEIGHT
370
    -1
  9
$ENDCAPS
280
     0
  9
$JOINSTYLE
280
     0
  9
$LWDISPLAY
290
     1
  9
$INSUNITS
 70
     4
  9
$HYPERLINKBASE
  1

  9
$STYLESHEET
  1

  9
$XEDIT
290
     1
  9
$CEPSNTYPE
380
     0
  9
$PSTYLEMODE
290
     1
  9
$FINGERPRINTGUID
  2
{0E88F842-89AB-B841-8AD6-844876912F70}
  9
$VERSIONGUID
  2
{4C0826CE-0BF9-764C-BE1C-C632EB008369}
  9
$EXTNAMES
290
     1
  9
$PSVPSCALE
 40
0.0
  9
$OLESTARTUP
290
     0
  9
$SORTENTS
280
   127
  9
$INDEXCTL
280
     0
  9
$HIDETEXT
280
     1
  9
$XCLIPFRAME
280
     2
  9
$HALOGAP
280
     0
  9
$OBSCOLOR
 70
   257
  9
$OBSLTYPE
280
     0
  9
$INTERSECTIONDISPLAY
280
     0
  9
$INTERSECTIONCOLOR
 70
   257
  9
$DIMASSOC
280
     2
  9
$PROJECTNAME
  1

  9
$CAMERADISPLAY
290
     0
  9
$LENSLENGTH
 40
50.0
  9
$CAMERAHEIGHT
 40
0.0
  9
$STEPSPERSEC
 40
2.0
  9
$STEPSIZE
 40
6.0
  9
$3DDWFPREC
 40
2.0
  9
$PSOLWIDTH
 40
0.25
  9
$PSOLHEIGHT
 40
4.0
  9
$LOFTANG1
 40
1.570796326794896
  9
$LOFTANG2
 40
1.570796326794896
  9
$LOFTMAG1
 40
0.0
  9
$LOFTMAG2
 40
0.0
  9
$LOFTPARAM
 70
     7
  9
$LOFTNORMALS
280
     1
  9
$LATITUDE
 40
37.795
  9
$LONGITUDE
 40
-122.394
  9
$NORTHDIRECTION
 40
0.0
  9
$TIMEZONE
 70
 -8000
  9
$LIGHTGLYPHDISPLAY
280
     1
  9
$TILEMODELIGHTSYNCH
280
     1
  9
$CMATERIAL
347
11
  9
$SOLIDHIST
280
     0
  9
$SHOWHIST
280
     1
  9
$DWFFRAME
280
     2
  9
$DGNFRAME
280
     0
  9
$REALWORLDSCALE
290
     1
  9
$INTERFERECOLOR
 62
     1
  9
$INTERFEREOBJVS
345
33
  9
$INTERFEREVPVS
346
30
  9
$CSHADOW
280
     0
  9
$SHADOWPLANELOCATION
 40
0.0
  0
ENDSEC
  0
SECTION
  2
CLASSES
  0
CLASS
  1
ACDBDICTIONARYWDFLT
  2
AcDbDictionaryWithDefault
  3
ObjectDBX Classes
 90
        0
 91
        1
280
     0
281
     0
  0
CLASS
  1
MATERIAL
  2
AcDbMaterial
  3
ObjectDBX Classes
 90
     1153
 91
        3
280
     0
281
     0
  0
CLASS
  1
VISUALSTYLE
  2
AcDbVisualStyle
  3
ObjectDBX Classes
 90
     4095
 91
       24
280
     0
281
     0
  0
CLASS
  1
SCALE
  2
AcDbScale
  3
ObjectDBX Classes
 90
     1153
 91
       17
280
     0
281
     0
  0
CLASS
  1
TABLESTYLE
  2
AcDbTableStyle
  3
ObjectDBX Classes
 90
     4095
 91
        1
280
     0
281
     0
  0
CLASS
  1
MLEADERSTYLE
  2
AcDbMLeaderStyle
  3
ACDB_MLEADERSTYLE_CLASS
 90
     4095
 91
        1
280
     0
281
     0
  0
CLASS
  1
ACDBSECTIONVIEWSTYLE
  2
AcDbSectionViewStyle
  3
ObjectDBX Classes
 90
     1025
 91
        1
280
     0
281
     0
  0
CLASS
  1
ACDBDETAILVIEWSTYLE
  2
AcDbDetailViewStyle
  3
ObjectDBX Classes
 90
     1025
 91
        1
280
     0
281
     0
  0
CLASS
  1
DICTIONARYVAR
  2
AcDbDictionaryVar
  3
ObjectDBX Classes
 90
        0
 91
        5
280
     0
281
     0
  0
CLASS
  1
CELLSTYLEMAP
  2
AcDbCellStyleMap
  3
ObjectDBX Classes
 90
     1152
 91
        1
280
     0
281
     0
  0
ENDSEC
  0
SECTION
  2
TABLES
  0
TABLE
  2
VPORT
  5
8
330
0
100
AcDbSymbolTable
 70
     1
  0
VPORT
  5
57
330
8
100
AcDbSymbolTableRecord
100
AcDbViewportTableRecord
  2
*Active
 70
     0
 10
0.0
 20
0.0
 11
1.0
 21
1.0
 12
0.0
 22
0.0
 13
0.0
 23
0.0
 14
1.0
 24
1.0
 15
0.0
 25
0.0
 16
0.0
 26
0.0
 36
1.0
 17
104.9999999737534
 27
-148.4999999628701
 37
0.0
 40
302.939999924255
 41
0.7070707070707534
 42
50.0
 43
0.0
 44
0.0
 50
0.0
 51
0.0
 71
     0
 72
   100
 73
     1
 74
     0
 75
     1
 76
     0
 77
     0
 78
     0
281
     0
 65
     1
110
0.0
120
0.0
130
0.0
111
1.0
121
0.0
131
0.0
112
0.0
122
1.0
132
0.0
 79
     0
146
0.0
 60
     3
 61
     5
292
     1
282
     1
141
0.0
142
0.0
 63
   250
421
  3355443
  0
ENDTAB
  0
TABLE
  2
LTYPE
  5
5
330
0
100
AcDbSymbolTable
 70
     3
  0
LTYPE
  5
5B
330
5
100
AcDbSymbolTableRecord
100
AcDbLinetypeTableRecord
  2
ByBlock
 70
     0
  3

 72
    65
 73
     0
 40
0.0
  0
LTYPE
  5
5C
330
5
100
AcDbSymbolTableRecord
100
AcDbLinetypeTableRecord
  2
ByLayer
 70
     0
  3

 72
    65
 73
     0
 40
0.0
  0
LTYPE
  5
5D
330
5
100
AcDbSymbolTableRecord
100
AcDbLinetypeTableRecord
  2
Continuous
 70
     0
  3
Solid line
 72
    65
 73
     0
 40
0.0
  0
LTYPE
  5
B8
330
5
100
AcDbSymbolTableRecord
100
AcDbLinetypeTableRecord
  2
AI-Linetype-0
 70
     0
  3
Adobe Illustrator Linetype No. 0
 72
    65
 73
     2
 40
1.411111110758333
 49
0.7055555553791667
 74
     0
 49
-0.7055555553791667
 74
     0
  0
LTYPE
  5
BA
330
5
100
AcDbSymbolTableRecord
100
AcDbLinetypeTableRecord
  2
AI-Linetype-1
 70
     0
  3
Adobe Illustrator Linetype No. 1
 72
    65
 73
     2
 40
1.411111110758333
 49
0.7055555553791667
 74
     0
 49
-0.7055555553791667
 74
     0
  0
ENDTAB
  0
TABLE
  2
LAYER
  5
2
330
0
100
AcDbSymbolTable
 70
     2
  0
LAYER
  5
54
330
2
100
AcDbSymbolTableRecord
100
AcDbLayerTableRecord
  2
0
 70
     0
 62
     7
  6
Continuous
370
    -3
390
F
347
21
  0
LAYER
  5
78
330
2
100
AcDbSymbolTableRecord
100
AcDbLayerTableRecord
  2
レイヤー 1
 70
     0
 62
     7
  6
Continuous
370
     0
390
F
347
21
  0
ENDTAB
  0
TABLE
  2
STYLE
  5
3
330
0
100
AcDbSymbolTable
 70
     2
  0
STYLE
  5
55
330
3
100
AcDbSymbolTableRecord
100
AcDbTextStyleTableRecord
  2
Standard
 70
     0
 40
0.0
 41
1.0
 50
0.0
 71
     0
 42
0.2
  3
txt
  4

  0
STYLE
  5
5A
330
3
100
AcDbSymbolTableRecord
100
AcDbTextStyleTableRecord
  2
Annotative
 70
     0
 40
0.0
 41
1.0
 50
0.0
 71
     0
 42
0.2
  3
txt
  4

1001
AcadAnnotative
1000
AnnotativeData
1002
{
1070
     1
1070
     1
1002
}
  0
ENDTAB
  0
TABLE
  2
VIEW
  5
6
330
0
100
AcDbSymbolTable
 70
     0
  0
ENDTAB
  0
TABLE
  2
UCS
  5
7
330
0
100
AcDbSymbolTable
 70
     0
  0
ENDTAB
  0
TABLE
  2
APPID
  5
9
330
0
100
AcDbSymbolTable
 70
     2
  0
APPID
  5
56
330
9
100
AcDbSymbolTableRecord
100
AcDbRegAppTableRecord
  2
ACAD
 70
     0
  0
APPID
  5
5E
330
9
100
AcDbSymbolTableRecord
100
AcDbRegAppTableRecord
  2
AcadAnnotative
 70
     0
  0
ENDTAB
  0
TABLE
  2
DIMSTYLE
  5
A
330
0
100
AcDbSymbolTable
 70
     2
100
AcDbDimStyleTable
 71
     0
  0
DIMSTYLE
105
58
330
A
100
AcDbSymbolTableRecord
100
AcDbDimStyleTableRecord
  2
Standard
 70
     0
340
55
  0
DIMSTYLE
105
59
330
A
100
AcDbSymbolTableRecord
100
AcDbDimStyleTableRecord
  2
Annotative
 70
     0
340
55
1001
AcadAnnotative
1000
AnnotativeData
1002
{
1070
     1
1070
     1
1002
}
  0
ENDTAB
  0
TABLE
  2
BLOCK_RECORD
  5
1
330
0
100
AcDbSymbolTable
 70
    18
  0
BLOCK_RECORD
  5
70
330
1
100
AcDbSymbolTableRecord
100
AcDbBlockTableRecord
  2
*Model_Space
340
73
 70
     0
280
     1
281
     0
  0
BLOCK_RECORD
  5
6C
330
1
100
AcDbSymbolTableRecord
100
AcDbBlockTableRecord
  2
*Paper_Space
340
6F
 70
     0
280
     1
281
     0
  0
BLOCK_RECORD
  5
74
330
1
100
AcDbSymbolTableRecord
100
AcDbBlockTableRecord
  2
*Paper_Space0
340
77
 70
     0
280
     1
281
     0
  0
BLOCK_RECORD
  5
79
330
1
100
AcDbSymbolTableRecord
100
AcDbBlockTableRecord
  2
Block_0
340
0
102
{BLKREFS
331
7A
102
}
 70
     0
280
     1
281
     0
  0
BLOCK_RECORD
  5
B3
330
1
100
AcDbSymbolTableRecord
100
AcDbBlockTableRecord
  2
Block_1
340
0
102
{BLKREFS
331
B4
102
}
 70
     0
280
     1
281
     0
  0
BLOCK_RECORD
  5
122
330
1
100
AcDbSymbolTableRecord
100
AcDbBlockTableRecord
  2
Block_2
340
0
102
{BLKREFS
331
123
102
}
 70
     0
280
     1
281
     0
  0
BLOCK_RECORD
  5
126
330
1
100
AcDbSymbolTableRecord
100
AcDbBlockTableRecord
  2
Block_3
340
0
102
{BLKREFS
331
127
102
}
 70
     0
280
     1
281
     0
  0
BLOCK_RECORD
  5
133
330
1
100
AcDbSymbolTableRecord
100
AcDbBlockTableRecord
  2
Block_4
340
0
102
{BLKREFS
331
134
102
}
 70
     0
280
     1
281
     0
  0
BLOCK_RECORD
  5
137
330
1
100
AcDbSymbolTableRecord
100
AcDbBlockTableRecord
  2
Block_5
340
0
102
{BLKREFS
331
138
102
}
 70
     0
280
     1
281
     0
  0
BLOCK_RECORD
  5
141
330
1
100
AcDbSymbolTableRecord
100
AcDbBlockTableRecord
  2
Block_6
340
0
102
{BLKREFS
331
142
102
}
 70
     0
280
     1
281
     0
  0
BLOCK_RECORD
  5
14B
330
1
100
AcDbSymbolTableRecord
100
AcDbBlockTableRecord
  2
Block_7
340
0
102
{BLKREFS
331
14C
102
}
 70
     0
280
     1
281
     0
  0
BLOCK_RECORD
  5
14F
330
1
100
AcDbSymbolTableRecord
100
AcDbBlockTableRecord
  2
Block_8
340
0
102
{BLKREFS
331
150
102
}
 70
     0
280
     1
281
     0
  0
BLOCK_RECORD
  5
15A
330
1
100
AcDbSymbolTableRecord
100
AcDbBlockTableRecord
  2
Block_9
340
0
102
{BLKREFS
331
15B
102
}
 70
     0
280
     1
281
     0
  0
BLOCK_RECORD
  5
162
330
1
100
AcDbSymbolTableRecord
100
AcDbBlockTableRecord
  2
Block_10
340
0
102
{BLKREFS
331
163
102
}
 70
     0
280
     1
281
     0
  0
BLOCK_RECORD
  5
168
330
1
100
AcDbSymbolTableRecord
100
AcDbBlockTableRecord
  2
Block_11
340
0
102
{BLKREFS
331
169
102
}
 70
     0
280
     1
281
     0
  0
BLOCK_RECORD
  5
16C
330
1
100
AcDbSymbolTableRecord
100
AcDbBlockTableRecord
  2
Block_12
340
0
102
{BLKREFS
331
16D
102
}
 70
     0
280
     1
281
     0
  0
BLOCK_RECORD
  5
173
330
1
100
AcDbSymbolTableRecord
100
AcDbBlockTableRecord
  2
Block_13
340
0
102
{BLKREFS
331
174
102
}
 70
     0
280
     1
281
     0
  0
BLOCK_RECORD
  5
177
330
1
100
AcDbSymbolTableRecord
100
AcDbBlockTableRecord
  2
Block_14
340
0
102
{BLKREFS
331
178
102
}
 70
     0
280
     1
281
     0
  0
BLOCK_RECORD
  5
195
330
1
100
AcDbSymbolTableRecord
100
AcDbBlockTableRecord
  2
Block_15
340
0
102
{BLKREFS
331
196
102
}
 70
     0
280
     1
281
     0
  0
BLOCK_RECORD
  5
199
330
1
100
AcDbSymbolTableRecord
100
AcDbBlockTableRecord
  2
Block_16
340
0
102
{BLKREFS
331
19A
102
}
 70
     0
280
     1
281
     0
  0
ENDTAB
  0
ENDSEC
  0
SECTION
  2
BLOCKS
  0
BLOCK
  5
71
330
70
100
AcDbEntity
  8
0
100
AcDbBlockBegin
  2
*Model_Space
 70
     0
 10
0.0
 20
0.0
 30
0.0
  3
*Model_Space
  1

  0
ENDBLK
  5
72
330
70
100
AcDbEntity
  8
0
100
AcDbBlockEnd
  0
BLOCK
  5
6D
330
6C
100
AcDbEntity
 67
     1
  8
0
100
AcDbBlockBegin
  2
*Paper_Space
 70
     0
 10
0.0
 20
0.0
 30
0.0
  3
*Paper_Space
  1

  0
ENDBLK
  5
6E
330
6C
100
AcDbEntity
 67
     1
  8
0
100
AcDbBlockEnd
  0
BLOCK
  5
75
330
74
100
AcDbEntity
 67
     1
  8
0
100
AcDbBlockBegin
  2
*Paper_Space0
 70
     0
 10
0.0
 20
0.0
 30
0.0
  3
*Paper_Space0
  1

  0
ENDBLK
  5
76
330
74
100
AcDbEntity
 67
     1
  8
0
100
AcDbBlockEnd
  0
BLOCK
  5
7B
330
79
100
AcDbEntity
  8
0
100
AcDbBlockBegin
  2
Block_0
 70
     0
 10
0.0
 20
0.0
 30
0.0
  3
Block_0
  1

  0
SPLINE
  5
7D
330
79
100
AcDbEntity
  8
レイヤー 1
 62
   250
420
  2299925
370
     9
100
AcDbSpline
210
0.0
220
0.0
230
1.0
 70
     8
 71
     3
 72
     8
 73
     4
 74
     0
 42
0.0000000001
 43
0.0000000001
 40
0.0
 40
0.0
 40
0.0
 40
0.0
 40
1.0
 40
1.0
 40
1.0
 40
1.0
 10
133.6521408501431
 20
-150.2950262096035
 30
0.0
 10
133.6521408501431
 20
-150.2950262096035
 30
0.0
 10
132.9483139236548
 20
-149.8199756541664
 30
0.0
 10
132.834260871009
 20
-150.2378409318402
 30
0.0
  0
SPLINE
  5
7E
330
79
100
AcDbEntity
  8
レイヤー 1
 62
   250
420
  2299925
370
     9
100
AcDbSpline
210
0.0
220
0.0
230
1.0
 70
     8
 71
     3
 72
    26
 73
    22
 74
     0
 42
0.0000000001
 43
0.0000000001
 40
0.0
 40
0.0
 40
0.0
 40
0.0
 40
1.0
 40
1.0
 40
1.0
 40
2.0
 40
2.0
 40
2.0
 40
3.0
 40
3.0
 40
3.0
 40
4.0
 40
4.0
 40
4.0
 40
5.0
 40
5.0
 40
5.0
 40
6.0
 40
6.0
 40
6.0
 40
7.0
 40
7.0
 40
7.0
 40
7.0
 10
134.1844119476749
 20
-143.2808162113573
 30
0.0
 10
134.1844119476749
 20
-143.2808162113573
 30
0.0
 10
125.5923330002104
 20
-146.3035573217127
 30
0.0
 10
125.5923330002104
 20
-146.3035573217127
 30
0.0
 10
125.5923330002104
 20
-146.3035573217127
 30
0.0
 10
124.2239433128987
 20
-146.5691637105351
 30
0.0
 10
124.7369174664783
 20
-147.0256581548653
 30
0.0
 10
124.7369174664783
 20
-147.0256581548653
 30
0.0
 10
125.0411177364953
 20
-147.2154525992625
 30
0.0
 10
125.5737416117958
 20
-147.4249320436544
 30
0.0
 10
125.5737416117958
 20
-147.4249320436544
 30
0.0
 10
130.6104556499652
 20
-149.4589075987014
 30
0.0
 10
130.6104556499652
 20
-149.4589075987014
 30
0.0
 10
130.6104556499652
 20
-149.4589075987014
 30
0.0
 10
130.5725673175985
 20
-152.5185139868259
 30
0.0
 10
130.5725673175985
 20
-152.5185139868259
 30
0.0
 10
130.5725673175985
 20
-152.5185139868259
 30
0.0
 10
133.214943361297
 20
-153.7925003753964
 30
0.0
 10
133.214943361297
 20
-153.7925003753964
 30
0.0
 10
133.214943361297
 20
-153.7925003753964
 30
0.0
 10
136.9211913222983
 20
-152.2146312091235
 30
0.0
 10
136.9211913222983
 20
-152.2146312091235
 30
0.0
  0
LINE
  5
7F
330
79
100
AcDbEntity
  8
レイヤー 1
 62
   250
420
  2299925
370
     9
100
AcDbLine
 10
132.9100728135193
 20
-150.1048789874286
 30
0.0
 11
142.2052731319346
 21
-146.1130220439825
 31
0.0
  0
SPLINE
  5
80
330
79
100
AcDbEntity
  8
レイヤー 1
 62
   250
420
  2299925
370
     9
100
AcDbSpline
210
0.0
220
0.0
230
1.0
 70
     8
 71
     3
 72
    26
 73
    22
 74
     0
 42
0.0000000001
 43
0.0000000001
 40
0.0
 40
0.0
 40
0.0
 40
0.0
 40
1.0
 40
1.0
 40
1.0
 40
2.0
 40
2.0
 40
2.0
 40
3.0
 40
3.0
 40
3.0
 40
4.0
 40
4.0
 40
4.0
 40
5.0
 40
5.0
 40
5.0
 40
6.0
 40
6.0
 40
6.0
 40
7.0
 40
7.0
 40
7.0
 40
7.0
 10
134.2788152785998
 20
-143.4517017668702
 30
0.0
 10
134.2788152785998
 20
-143.4517017668702
 30
0.0
 10
125.3835591166478
 20
-146.5691637105351
 30
0.0
 10
125.3835591166478
 20
-146.5691637105351
 30
0.0
 10
125.3835591166478
 20
-146.5691637105351
 30
0.0
 10
124.9084732954349
 20
-146.6452931549604
 30
0.0
 10
124.9463969055785
 20
-146.8161787104737
 30
0.0
 10
124.9463969055785
 20
-146.8161787104737
 30
0.0
 10
124.9274527393951
 20
-146.8923081548991
 30
0.0
 10
125.2316530094121
 20
-146.987417043764
 30
0.0
 10
125.2316530094121
 20
-146.987417043764
 30
0.0
 10
130.9143384199903
 20
-149.2301664876481
 30
0.0
 10
130.9143384199903
 20
-149.2301664876481
 30
0.0
 10
130.9143384199903
 20
-149.2301664876481
 30
0.0
 10
130.9143384199903
 20
-152.1960398202392
 30
0.0
 10
130.9143384199903
 20
-152.1960398202392
 30
0.0
 10
130.9143384199903
 20
-152.1960398202392
 30
0.0
 10
132.7205958739088
 20
-153.0511025978034
 30
0.0
 10
132.7205958739088
 20
-153.0511025978034
 30
0.0
 10
132.7205958739088
 20
-153.0511025978034
 30
0.0
 10
132.8532403149692
 20
-150.2378409318402
 30
0.0
 10
132.8532403149692
 20
-150.2378409318402
 30
0.0
  0
LINE
  5
81
330
79
100
AcDbEntity
  8
レイヤー 1
 62
   250
420
  2299925
370
     9
100
AcDbLine
 10
140.2291884601264
 20
-145.5046214885792
 30
0.0
 11
130.9143384199903
 21
-149.2877045431885
 31
0.0
  0
SPLINE
  5
82
330
79
100
AcDbEntity
  8
レイヤー 1
 62
   250
420
  2299925
370
     9
100
AcDbSpline
210
0.0
220
0.0
230
1.0
 70
     8
 71
     3
 72
    20
 73
    16
 74
     0
 42
0.0000000001
 43
0.0000000001
 40
0.0
 40
0.0
 40
0.0
 40
0.0
 40
1.0
 40
1.0
 40
1.0
 40
2.0
 40
2.0
 40
2.0
 40
3.0
 40
3.0
 40
3.0
 40
4.0
 40
4.0
 40
4.0
 40
5.0
 40
5.0
 40
5.0
 40
5.0
 10
133.214943361297
 20
-153.7925003753964
 30
0.0
 10
133.214943361297
 20
-153.7925003753964
 30
0.0
 10
133.214943361297
 20
-150.8651856539055
 30
0.0
 10
133.214943361297
 20
-150.8651856539055
 30
0.0
 10
133.214943361297
 20
-150.8651856539055
 30
0.0
 10
133.214943361297
 20
-150.5234498206579
 30
0.0
 10
133.4430182834535
 20
-150.6564117650688
 30
0.0
 10
133.4430182834535
 20
-150.6564117650688
 30
0.0
 10
138.7081518322646
 20
-152.9560289867166
 30
0.0
 10
138.7081518322646
 20
-152.9560289867166
 30
0.0
 10
138.7081518322646
 20
-152.9560289867166
 30
0.0
 10
139.449196813359
 20
-153.4124881532687
 30
0.0
 10
140.1520006843179
 20
-153.2030439866546
 30
0.0
 10
140.1520006843179
 20
-153.2030439866546
 30
0.0
 10
149.6952743297376
 20
-149.1543545432223
 30
0.0
 10
149.6952743297376
 20
-149.1543545432223
 30
0.0
  0
SPLINE
  5
83
330
79
100
AcDbEntity
  8
レイヤー 1
 62
   250
420
  2299925
370
     9
100
AcDbSpline
210
0.0
220
0.0
230
1.0
 70
     8
 71
     3
 72
    20
 73
    16
 74
     0
 42
0.0000000001
 43
0.0000000001
 40
0.0
 40
0.0
 40
0.0
 40
0.0
 40
1.0
 40
1.0
 40
1.0
 40
2.0
 40
2.0
 40
2.0
 40
3.0
 40
3.0
 40
3.0
 40
4.0
 40
4.0
 40
4.0
 40
5.0
 40
5.0
 40
5.0
 40
5.0
 10
133.3858289124929
 20
-150.1617114874148
 30
0.0
 10
133.3858289124929
 20
-150.1617114874148
 30
0.0
 10
136.9025999338837
 20
-151.7774689870106
 30
0.0
 10
137.0741599492129
 20
-151.8728953758758
 30
0.0
 10
137.0741599492129
 20
-151.8728953758758
 30
0.0
 10
139.2211259858443
 20
-152.8802523200683
 30
0.0
 10
139.2211259858443
 20
-152.8802523200683
 30
0.0
 10
139.2211259858443
 20
-152.8802523200683
 30
0.0
 10
139.6397320862758
 20
-153.2226937088721
 30
0.0
 10
140.551980118558
 20
-152.7661992645412
 30
0.0
 10
140.551980118558
 20
-152.7661992645412
 30
0.0
 10
147.8514460434442
 20
-149.5919048208905
 30
0.0
 10
147.8514460434442
 20
-149.5919048208905
 30
0.0
 10
147.8514460434442
 20
-149.5919048208905
 30
0.0
 10
149.5050918345896
 20
-148.8880425988445
 30
0.0
 10
149.5050918345896
 20
-148.8880425988445
 30
0.0
  0
LINE
  5
84
330
79
100
AcDbEntity
  8
レイヤー 1
 62
   250
420
  2299925
370
     9
100
AcDbLine
 10
130.9143384199903
 20
-152.1960398202392
 30
0.0
 11
132.7588369840443
 21
-151.5301012092948
 31
0.0
  0
SPLINE
  5
85
330
79
100
AcDbEntity
  8
レイヤー 1
 62
   250
420
  2299925
370
     9
100
AcDbSpline
210
0.0
220
0.0
230
1.0
 70
     9
 71
     3
 72
    17
 73
    13
 74
     0
 42
0.0000000001
 43
0.0000000001
 40
0.0
 40
0.0
 40
0.0
 40
0.0
 40
1.0
 40
1.0
 40
1.0
 40
2.0
 40
2.0
 40
2.0
 40
3.0
 40
3.0
 40
3.0
 40
4.0
 40
4.0
 40
4.0
 40
4.0
 10
137.5089190850819
 20
-145.2858639886339
 30
0.0
 10
137.5089190850819
 20
-145.5208139885749
 30
0.0
 10
137.1802713156886
 20
-145.7116667663047
 30
0.0
 10
136.775811603785
 20
-145.7116667663047
 30
0.0
 10
136.3693099493893
 20
-145.7116667663047
 30
0.0
 10
136.0416457891818
 20
-145.5208139885749
 30
0.0
 10
136.0416457891818
 20
-145.2858639886339
 30
0.0
 10
136.0416457891818
 20
-145.0505612109148
 30
0.0
 10
136.3693099493893
 20
-144.8607314887401
 30
0.0
 10
136.775811603785
 20
-144.8607314887401
 30
0.0
 10
137.1802713156886
 20
-144.8607314887401
 30
0.0
 10
137.5089190850819
 20
-145.0505612109148
 30
0.0
 10
137.5089190850819
 20
-145.2858639886339
 30
0.0
  0
SPLINE
  5
86
330
79
100
AcDbEntity
  8
レイヤー 1
 62
   250
420
  2299925
370
     9
100
AcDbSpline
210
0.0
220
0.0
230
1.0
 70
     8
 71
     3
 72
    11
 73
     7
 74
     0
 42
0.0000000001
 43
0.0000000001
 40
0.0
 40
0.0
 40
0.0
 40
0.0
 40
1.0
 40
1.0
 40
1.0
 40
2.0
 40
2.0
 40
2.0
 40
2.0
 10
136.169139674818
 20
-145.5201437107975
 30
0.0
 10
136.169139674818
 20
-145.5201437107975
 30
0.0
 10
136.1470910642694
 20
-145.0088981553698
 30
0.0
 10
136.9770007653189
 20
-145.0522898220258
 30
0.0
 10
136.9770007653189
 20
-145.0522898220258
 30
0.0
 10
137.465880197291
 20
-145.1156839886762
 30
0.0
 10
137.3814604772225
 20
-145.4987653774693
 30
0.0
  0
SPLINE
  5
87
330
79
100
AcDbEntity
  8
レイヤー 1
 62
   250
420
  2299925
370
     9
100
AcDbSpline
210
0.0
220
0.0
230
1.0
 70
    11
 71
     3
 72
    17
 73
    13
 74
     0
 42
0.0000000001
 43
0.0000000001
 40
0.0
 40
0.0
 40
0.0
 40
0.0
 40
1.0
 40
1.0
 40
1.0
 40
2.0
 40
2.0
 40
2.0
 40
3.0
 40
3.0
 40
3.0
 40
4.0
 40
4.0
 40
4.0
 40
4.0
 10
137.2725932577777
 20
-144.2054820444595
 30
0.0
 10
137.2725932577777
 20
-144.4404320444005
 30
0.0
 10
136.9435927106156
 20
-144.6312848221303
 30
0.0
 10
136.539132998712
 20
-144.6312848221303
 30
0.0
 10
136.1333016161144
 20
-144.6312848221303
 30
0.0
 10
135.8053199618776
 20
-144.4404320444005
 30
0.0
 10
135.8053199618776
 20
-144.2054820444595
 30
0.0
 10
135.8053199618776
 20
-143.9705320445182
 30
0.0
 10
136.1333016161144
 20
-143.7796792667881
 30
0.0
 10
136.539132998712
 20
-143.7796792667881
 30
0.0
 10
136.9435927106156
 20
-143.7796792667881
 30
0.0
 10
137.2725932577777
 20
-143.9705320445182
 30
0.0
 10
137.2725932577777
 20
-144.2054820444595
 30
0.0
  0
SPLINE
  5
88
330
79
100
AcDbEntity
  8
レイヤー 1
 62
   250
420
  2299925
370
     9
100
AcDbSpline
210
0.0
220
0.0
230
1.0
 70
     8
 71
     3
 72
    11
 73
     7
 74
     0
 42
0.0000000001
 43
0.0000000001
 40
0.0
 40
0.0
 40
0.0
 40
0.0
 40
1.0
 40
1.0
 40
1.0
 40
2.0
 40
2.0
 40
2.0
 40
2.0
 10
135.932778569737
 20
-144.4390562110676
 30
0.0
 10
135.932778569737
 20
-144.4390562110676
 30
0.0
 10
135.9114355147259
 20
-143.9281634334177
 30
0.0
 10
136.7410277157835
 20
-143.9715551000734
 30
0.0
 10
136.7410277157835
 20
-143.9715551000734
 30
0.0
 10
137.2298718699787
 20
-144.0345964889466
 30
0.0
 10
137.1451346499183
 20
-144.4183834332949
 30
0.0
  0
SPLINE
  5
89
330
79
100
AcDbEntity
  8
レイヤー 1
 62
   250
420
  2299925
370
     9
100
AcDbSpline
210
0.0
220
0.0
230
1.0
 70
     9
 71
     3
 72
    17
 73
    13
 74
     0
 42
0.0000000001
 43
0.0000000001
 40
0.0
 40
0.0
 40
0.0
 40
0.0
 40
1.0
 40
1.0
 40
1.0
 40
2.0
 40
2.0
 40
2.0
 40
3.0
 40
3.0
 40
3.0
 40
4.0
 40
4.0
 40
4.0
 40
4.0
 10
127.6156546152578
 20
-146.8051720438093
 30
0.0
 10
127.6156546152578
 20
-147.0401220437507
 30
0.0
 10
127.2869715680877
 20
-147.230622043703
 30
0.0
 10
126.8821943561922
 20
-147.230622043703
 30
0.0
 10
126.4767155074175
 20
-147.230622043703
 30
0.0
 10
126.1483813193578
 20
-147.0401220437507
 30
0.0
 10
126.1483813193578
 20
-146.8051720438093
 30
0.0
 10
126.1483813193578
 20
-146.5701867660905
 30
0.0
 10
126.4767155074175
 20
-146.3793339883604
 30
0.0
 10
126.8821943561922
 20
-146.3793339883604
 30
0.0
 10
127.2869715680877
 20
-146.3793339883604
 30
0.0
 10
127.6156546152578
 20
-146.5701867660905
 30
0.0
 10
127.6156546152578
 20
-146.8051720438093
 30
0.0
  0
SPLINE
  5
8A
330
79
100
AcDbEntity
  8
レイヤー 1
 62
   250
420
  2299925
370
     9
100
AcDbSpline
210
0.0
220
0.0
230
1.0
 70
     8
 71
     3
 72
    11
 73
     7
 74
     0
 42
0.0000000001
 43
0.0000000001
 40
0.0
 40
0.0
 40
0.0
 40
0.0
 40
1.0
 40
1.0
 40
1.0
 40
2.0
 40
2.0
 40
2.0
 40
2.0
 10
126.2765454827547
 20
-147.0390637104177
 30
0.0
 10
126.2765454827547
 20
-147.0390637104177
 30
0.0
 10
126.2544968722061
 20
-146.5281709327677
 30
0.0
 10
127.0840537954868
 20
-146.5712450994234
 30
0.0
 10
127.0840537954868
 20
-146.5712450994234
 30
0.0
 10
127.5729332274589
 20
-146.6349567660744
 30
0.0
 10
127.4885135073904
 20
-147.0180734326451
 30
0.0
  0
SPLINE
  5
8B
330
79
100
AcDbEntity
  8
レイヤー 1
 62
   250
420
  2299925
370
     9
100
AcDbSpline
210
0.0
220
0.0
230
1.0
 70
     9
 71
     3
 72
    17
 73
    13
 74
     0
 42
0.0000000001
 43
0.0000000001
 40
0.0
 40
0.0
 40
0.0
 40
0.0
 40
1.0
 40
1.0
 40
1.0
 40
2.0
 40
2.0
 40
2.0
 40
3.0
 40
3.0
 40
3.0
 40
4.0
 40
4.0
 40
4.0
 40
4.0
 10
135.3140416410778
 20
-146.3662459328082
 30
0.0
 10
135.3140416410778
 20
-146.6011959327492
 30
0.0
 10
134.9840180383863
 20
-146.792048710479
 30
0.0
 10
134.5799111042515
 20
-146.792048710479
 30
0.0
 10
134.1750986145791
 20
-146.792048710479
 30
0.0
 10
133.8468036229546
 20
-146.6011959327492
 30
0.0
 10
133.8468036229546
 20
-146.3662459328082
 30
0.0
 10
133.8468036229546
 20
-146.1316487106447
 30
0.0
 10
134.1750986145791
 20
-145.9411134329145
 30
0.0
 10
134.5799111042515
 20
-145.9411134329145
 30
0.0
 10
134.9840180383863
 20
-145.9411134329145
 30
0.0
 10
135.3140416410778
 20
-146.1316487106447
 30
0.0
 10
135.3140416410778
 20
-146.3662459328082
 30
0.0
  0
SPLINE
  5
8C
330
79
100
AcDbEntity
  8
レイヤー 1
 62
   250
420
  2299925
370
     9
100
AcDbSpline
210
0.0
220
0.0
230
1.0
 70
     8
 71
     3
 72
    11
 73
     7
 74
     0
 42
0.0000000001
 43
0.0000000001
 40
0.0
 40
0.0
 40
0.0
 40
0.0
 40
1.0
 40
1.0
 40
1.0
 40
2.0
 40
2.0
 40
2.0
 40
2.0
 10
133.9739094530452
 20
-146.6005256549719
 30
0.0
 10
133.9739094530452
 20
-146.6005256549719
 30
0.0
 10
133.9528838980261
 20
-146.0892800995441
 30
0.0
 10
134.7821233213149
 20
-146.1326717662001
 30
0.0
 10
134.7821233213149
 20
-146.1326717662001
 30
0.0
 10
135.2713202532789
 20
-146.1960659328505
 30
0.0
 10
135.1859127554578
 20
-146.5791473216436
 30
0.0
  0
SPLINE
  5
8D
330
79
100
AcDbEntity
  8
レイヤー 1
 62
   250
420
  2299925
370
     9
100
AcDbSpline
210
0.0
220
0.0
230
1.0
 70
     9
 71
     3
 72
    17
 73
    13
 74
     0
 42
0.0000000001
 43
0.0000000001
 40
0.0
 40
0.0
 40
0.0
 40
0.0
 40
1.0
 40
1.0
 40
1.0
 40
2.0
 40
2.0
 40
2.0
 40
3.0
 40
3.0
 40
3.0
 40
4.0
 40
4.0
 40
4.0
 40
4.0
 10
135.077045536013
 20
-145.2858639886339
 30
0.0
 10
135.077045536013
 20
-145.5208139885749
 30
0.0
 10
134.7483624888428
 20
-145.7116667663047
 30
0.0
 10
134.3435852769474
 20
-145.7116667663047
 30
0.0
 10
133.938772787275
 20
-145.7116667663047
 30
0.0
 10
133.6097722401129
 20
-145.5208139885749
 30
0.0
 10
133.6097722401129
 20
-145.2858639886339
 30
0.0
 10
133.6097722401129
 20
-145.0505612109148
 30
0.0
 10
133.938772787275
 20
-144.8607314887401
 30
0.0
 10
134.3435852769474
 20
-144.8607314887401
 30
0.0
 10
134.7483624888428
 20
-144.8607314887401
 30
0.0
 10
135.077045536013
 20
-145.0505612109148
 30
0.0
 10
135.077045536013
 20
-145.2858639886339
 30
0.0
  0
SPLINE
  5
8E
330
79
100
AcDbEntity
  8
レイヤー 1
 62
   250
420
  2299925
370
     9
100
AcDbSpline
210
0.0
220
0.0
230
1.0
 70
     8
 71
     3
 72
    11
 73
     7
 74
     0
 42
0.0000000001
 43
0.0000000001
 40
0.0
 40
0.0
 40
0.0
 40
0.0
 40
1.0
 40
1.0
 40
1.0
 40
2.0
 40
2.0
 40
2.0
 40
2.0
 10
133.7382539035018
 20
-145.5201437107975
 30
0.0
 10
133.7382539035018
 20
-145.5201437107975
 30
0.0
 10
133.7165580707219
 20
-145.0088981553698
 30
0.0
 10
134.5454488387334
 20
-145.0522898220258
 30
0.0
 10
134.5454488387334
 20
-145.0522898220258
 30
0.0
 10
135.0346769259828
 20
-145.1156839886762
 30
0.0
 10
134.9499044281455
 20
-145.4987653774693
 30
0.0
  0
SPLINE
  5
8F
330
79
100
AcDbEntity
  8
レイヤー 1
 62
   250
420
  2299925
370
     9
100
AcDbSpline
210
0.0
220
0.0
230
1.0
 70
    11
 71
     3
 72
    17
 73
    13
 74
     0
 42
0.0000000001
 43
0.0000000001
 40
0.0
 40
0.0
 40
0.0
 40
0.0
 40
1.0
 40
1.0
 40
1.0
 40
2.0
 40
2.0
 40
2.0
 40
3.0
 40
3.0
 40
3.0
 40
4.0
 40
4.0
 40
4.0
 40
4.0
 10
134.5375424942213
 20
-144.3405253777589
 30
0.0
 10
134.5375424942213
 20
-144.5754753777002
 30
0.0
 10
134.2081932832628
 20
-144.7663634332082
 30
0.0
 10
133.8040822351557
 20
-144.7663634332082
 30
0.0
 10
133.3985994677226
 20
-144.7663634332082
 30
0.0
 10
133.0695636427837
 20
-144.5754753777002
 30
0.0
 10
133.0695636427837
 20
-144.3405253777589
 30
0.0
 10
133.0695636427837
 20
-144.1055753778176
 30
0.0
 10
133.3985994677226
 20
-143.9150753778652
 30
0.0
 10
133.8040822351557
 20
-143.9150753778652
 30
0.0
 10
134.2081932832628
 20
-143.9150753778652
 30
0.0
 10
134.5375424942213
 20
-144.1055753778176
 30
0.0
 10
134.5375424942213
 20
-144.3405253777589
 30
0.0
  0
SPLINE
  5
90
330
79
100
AcDbEntity
  8
レイヤー 1
 62
   250
420
  2299925
370
     9
100
AcDbSpline
210
0.0
220
0.0
230
1.0
 70
     8
 71
     3
 72
    11
 73
     7
 74
     0
 42
0.0000000001
 43
0.0000000001
 40
0.0
 40
0.0
 40
0.0
 40
0.0
 40
1.0
 40
1.0
 40
1.0
 40
2.0
 40
2.0
 40
2.0
 40
2.0
 10
133.1977278061806
 20
-144.5748050999226
 30
0.0
 10
133.1977278061806
 20
-144.5748050999226
 30
0.0
 10
133.1767022511615
 20
-144.0635595444948
 30
0.0
 10
134.0052713966896
 20
-144.106598433373
 30
0.0
 10
134.0052713966896
 20
-144.106598433373
 30
0.0
 10
134.4944683286536
 20
-144.1703453778018
 30
0.0
 10
134.4097311085932
 20
-144.5534267665946
 30
0.0
  0
SPLINE
  5
91
330
79
100
AcDbEntity
  8
レイヤー 1
 62
   250
420
  2299925
370
     9
100
AcDbSpline
210
0.0
220
0.0
230
1.0
 70
    11
 71
     3
 72
    17
 73
    13
 74
     0
 42
0.0000000001
 43
0.0000000001
 40
0.0
 40
0.0
 40
0.0
 40
0.0
 40
1.0
 40
1.0
 40
1.0
 40
2.0
 40
2.0
 40
2.0
 40
3.0
 40
3.0
 40
3.0
 40
4.0
 40
4.0
 40
4.0
 40
4.0
 10
133.0175682835605
 20
-147.1765412103832
 30
0.0
 10
133.0175682835605
 20
-147.4114912103249
 30
0.0
 10
132.688210874735
 20
-147.6023439880547
 30
0.0
 10
132.2837511628314
 20
-147.6023439880547
 30
0.0
 10
131.8782683953984
 20
-147.6023439880547
 30
0.0
 10
131.5506436815345
 20
-147.4114912103249
 30
0.0
 10
131.5506436815345
 20
-147.1765412103832
 30
0.0
 10
131.5506436815345
 20
-146.9415912104419
 30
0.0
 10
131.8782683953984
 20
-146.7514087104895
 30
0.0
 10
132.2837511628314
 20
-146.7514087104895
 30
0.0
 10
132.688210874735
 20
-146.7514087104895
 30
0.0
 10
133.0175682835605
 20
-146.9415912104419
 30
0.0
 10
133.0175682835605
 20
-147.1765412103832
 30
0.0
  0
SPLINE
  5
92
330
79
100
AcDbEntity
  8
レイヤー 1
 62
   250
420
  2299925
370
     9
100
AcDbSpline
210
0.0
220
0.0
230
1.0
 70
     8
 71
     3
 72
    11
 73
     7
 74
     0
 42
0.0000000001
 43
0.0000000001
 40
0.0
 40
0.0
 40
0.0
 40
0.0
 40
1.0
 40
1.0
 40
1.0
 40
2.0
 40
2.0
 40
2.0
 40
2.0
 10
131.6781022893939
 20
-147.4104681547694
 30
0.0
 10
131.6781022893939
 20
-147.4104681547694
 30
0.0
 10
131.6564064566141
 20
-146.8995400993416
 30
0.0
 10
132.4863161576636
 20
-146.9429670437751
 30
0.0
 10
132.4863161576636
 20
-146.9429670437751
 30
0.0
 10
132.9748428118669
 20
-147.0063612104261
 30
0.0
 10
132.8897528140377
 20
-147.3894425992193
 30
0.0
  0
SPLINE
  5
93
330
79
100
AcDbEntity
  8
レイヤー 1
 62
   250
420
  2299925
370
     9
100
AcDbSpline
210
0.0
220
0.0
230
1.0
 70
     9
 71
     3
 72
    17
 73
    13
 74
     0
 42
0.0000000001
 43
0.0000000001
 40
0.0
 40
0.0
 40
0.0
 40
0.0
 40
1.0
 40
1.0
 40
1.0
 40
2.0
 40
2.0
 40
2.0
 40
3.0
 40
3.0
 40
3.0
 40
4.0
 40
4.0
 40
4.0
 40
4.0
 10
132.7808855945929
 20
-146.0961592662089
 30
0.0
 10
132.7808855945929
 20
-146.3311092661505
 30
0.0
 10
132.4522025474228
 20
-146.5216092661026
 30
0.0
 10
132.0474293949141
 20
-146.5216092661026
 30
0.0
 10
131.6426128458549
 20
-146.5216092661026
 30
0.0
 10
131.3139650764616
 20
-146.3311092661505
 30
0.0
 10
131.3139650764616
 20
-146.0961592662089
 30
0.0
 10
131.3139650764616
 20
-145.8615267662675
 30
0.0
 10
131.6426128458549
 20
-145.6703564885378
 30
0.0
 10
132.0474293949141
 20
-145.6703564885378
 30
0.0
 10
132.4522025474228
 20
-145.6703564885378
 30
0.0
 10
132.7808855945929
 20
-145.8615267662675
 30
0.0
 10
132.7808855945929
 20
-146.0961592662089
 30
0.0
  0
SPLINE
  5
94
330
79
100
AcDbEntity
  8
レイヤー 1
 62
   250
420
  2299925
370
     9
100
AcDbSpline
210
0.0
220
0.0
230
1.0
 70
     8
 71
     3
 72
    11
 73
     7
 74
     0
 42
0.0000000001
 43
0.0000000001
 40
0.0
 40
0.0
 40
0.0
 40
0.0
 40
1.0
 40
1.0
 40
1.0
 40
2.0
 40
2.0
 40
2.0
 40
2.0
 10
131.4417764620898
 20
-146.3297334328173
 30
0.0
 10
131.4417764620898
 20
-146.3297334328173
 30
0.0
 10
131.4203981293019
 20
-145.8191581551672
 30
0.0
 10
132.2492847748219
 20
-145.862232321823
 30
0.0
 10
132.2492847748219
 20
-145.862232321823
 30
0.0
 10
132.7388344845546
 20
-145.9259792662518
 30
0.0
 10
132.6534269867335
 20
-146.3090606550449
 30
0.0
  0
SPLINE
  5
95
330
79
100
AcDbEntity
  8
レイヤー 1
 62
   250
420
  2299925
370
     9
100
AcDbSpline
210
0.0
220
0.0
230
1.0
 70
    11
 71
     3
 72
    17
 73
    13
 74
     0
 42
0.0000000001
 43
0.0000000001
 40
0.0
 40
0.0
 40
0.0
 40
0.0
 40
1.0
 40
1.0
 40
1.0
 40
2.0
 40
2.0
 40
2.0
 40
3.0
 40
3.0
 40
3.0
 40
4.0
 40
4.0
 40
4.0
 40
4.0
 10
132.2413825528012
 20
-145.1508206553342
 30
0.0
 10
132.2413825528012
 20
-145.3857706552755
 30
0.0
 10
131.9120292278704
 20
-145.5759531552279
 30
0.0
 10
131.5079222937356
 20
-145.5759531552279
 30
0.0
 10
131.1024395263025
 20
-145.5759531552279
 30
0.0
 10
130.7737564791324
 20
-145.3857706552755
 30
0.0
 10
130.7737564791324
 20
-145.1508206553342
 30
0.0
 10
130.7737564791324
 20
-144.9158706553929
 30
0.0
 10
131.1024395263025
 20
-144.7256881554404
 30
0.0
 10
131.5079222937356
 20
-144.7256881554404
 30
0.0
 10
131.9120292278704
 20
-144.7256881554404
 30
0.0
 10
132.2413825528012
 20
-144.9158706553929
 30
0.0
 10
132.2413825528012
 20
-145.1508206553342
 30
0.0
  0
SPLINE
  5
96
330
79
100
AcDbEntity
  8
レイヤー 1
 62
   250
420
  2299925
370
     9
100
AcDbSpline
210
0.0
220
0.0
230
1.0
 70
     8
 71
     3
 72
    11
 73
     7
 74
     0
 42
0.0000000001
 43
0.0000000001
 40
0.0
 40
0.0
 40
0.0
 40
0.0
 40
1.0
 40
1.0
 40
1.0
 40
2.0
 40
2.0
 40
2.0
 40
2.0
 10
130.9015678647605
 20
-145.3843948219423
 30
0.0
 10
130.9015678647605
 20
-145.3843948219423
 30
0.0
 10
130.8802248097495
 20
-144.8735020442923
 30
0.0
 10
131.7087627283311
 20
-144.9172464887258
 30
0.0
 10
131.7087627283311
 20
-144.9172464887258
 30
0.0
 10
132.1983083872335
 20
-144.980287877599
 30
0.0
 10
132.1139239449419
 20
-145.3633692663922
 30
0.0
  0
SPLINE
  5
97
330
79
100
AcDbEntity
  8
レイヤー 1
 62
   250
420
  2299925
370
     9
100
AcDbSpline
210
0.0
220
0.0
230
1.0
 70
     9
 71
     3
 72
    17
 73
    13
 74
     0
 42
0.0000000001
 43
0.0000000001
 40
0.0
 40
0.0
 40
0.0
 40
0.0
 40
1.0
 40
1.0
 40
1.0
 40
2.0
 40
2.0
 40
2.0
 40
3.0
 40
3.0
 40
3.0
 40
4.0
 40
4.0
 40
4.0
 40
4.0
 10
130.5860081505889
 20
-147.9871539879584
 30
0.0
 10
130.5860081505889
 20
-148.2217864878998
 30
0.0
 10
130.2573603811956
 20
-148.41263926563
 30
0.0
 10
129.8525478915232
 20
-148.41263926563
 30
0.0
 10
129.4470651240902
 20
-148.41263926563
 30
0.0
 10
129.1187348546888
 20
-148.2217864878998
 30
0.0
 10
129.1187348546888
 20
-147.9871539879584
 30
0.0
 10
129.1187348546888
 20
-147.7522039880174
 30
0.0
 10
129.4470651240902
 20
-147.5617039880648
 30
0.0
 10
129.8525478915232
 20
-147.5617039880648
 30
0.0
 10
130.2573603811956
 20
-147.5617039880648
 30
0.0
 10
130.5860081505889
 20
-147.7522039880174
 30
0.0
 10
130.5860081505889
 20
-147.9871539879584
 30
0.0
  0
SPLINE
  5
98
330
79
100
AcDbEntity
  8
レイヤー 1
 62
   250
420
  2299925
370
     9
100
AcDbSpline
210
0.0
220
0.0
230
1.0
 70
     8
 71
     3
 72
    11
 73
     7
 74
     0
 42
0.0000000001
 43
0.0000000001
 40
0.0
 40
0.0
 40
0.0
 40
0.0
 40
1.0
 40
1.0
 40
1.0
 40
2.0
 40
2.0
 40
2.0
 40
2.0
 10
129.246546240317
 20
-148.2207281545666
 30
0.0
 10
129.246546240317
 20
-148.2207281545666
 30
0.0
 10
129.2248543956197
 20
-147.7101881546943
 30
0.0
 10
130.0551128863554
 20
-147.7532623213501
 30
0.0
 10
130.0551128863554
 20
-147.7532623213501
 30
0.0
 10
130.5436395405587
 20
-147.8163037102233
 30
0.0
 10
130.4592238397555
 20
-148.200090654572
 30
0.0
  0
SPLINE
  5
99
330
79
100
AcDbEntity
  8
レイヤー 1
 62
   250
420
  2299925
370
     9
100
AcDbSpline
210
0.0
220
0.0
230
1.0
 70
     9
 71
     3
 72
    17
 73
    13
 74
     0
 42
0.0000000001
 43
0.0000000001
 40
0.0
 40
0.0
 40
0.0
 40
0.0
 40
1.0
 40
1.0
 40
1.0
 40
2.0
 40
2.0
 40
2.0
 40
3.0
 40
3.0
 40
3.0
 40
4.0
 40
4.0
 40
4.0
 40
4.0
 10
130.3503526010454
 20
-146.9064545437842
 30
0.0
 10
130.3503526010454
 20
-147.1414045437255
 30
0.0
 10
130.0206817761227
 20
-147.3319045436778
 30
0.0
 10
129.6162220642191
 20
-147.3319045436778
 30
0.0
 10
129.211056796778
 20
-147.3319045436778
 30
0.0
 10
128.8827618051534
 20
-147.1414045437255
 30
0.0
 10
128.8827618051534
 20
-146.9064545437842
 30
0.0
 10
128.8827618051534
 20
-146.671469266065
 30
0.0
 10
129.211056796778
 20
-146.4809692661127
 30
0.0
 10
129.6162220642191
 20
-146.4809692661127
 30
0.0
 10
130.0206817761227
 20
-146.4809692661127
 30
0.0
 10
130.3503526010454
 20
-146.671469266065
 30
0.0
 10
130.3503526010454
 20
-146.9064545437842
 30
0.0
  0
SPLINE
  5
9A
330
79
100
AcDbEntity
  8
レイヤー 1
 62
   250
420
  2299925
370
     9
100
AcDbSpline
210
0.0
220
0.0
230
1.0
 70
     8
 71
     3
 72
    11
 73
     7
 74
     0
 42
0.0000000001
 43
0.0000000001
 40
0.0
 40
0.0
 40
0.0
 40
0.0
 40
1.0
 40
1.0
 40
1.0
 40
2.0
 40
2.0
 40
2.0
 40
2.0
 10
129.009867635244
 20
-147.1403462103922
 30
0.0
 10
129.009867635244
 20
-147.1403462103922
 30
0.0
 10
128.9891988401225
 20
-146.6294534327422
 30
0.0
 10
129.8184342812825
 20
-146.6728803771757
 30
0.0
 10
129.8184342812825
 20
-146.6728803771757
 30
0.0
 10
130.3076312132465
 20
-146.7362392660489
 30
0.0
 10
130.2221884376485
 20
-147.1193559326199
 30
0.0
  0
SPLINE
  5
9B
330
79
100
AcDbEntity
  8
レイヤー 1
 62
   250
420
  2299925
370
     9
100
AcDbSpline
210
0.0
220
0.0
230
1.0
 70
     9
 71
     3
 72
    17
 73
    13
 74
     0
 42
0.0000000001
 43
0.0000000001
 40
0.0
 40
0.0
 40
0.0
 40
0.0
 40
1.0
 40
1.0
 40
1.0
 40
2.0
 40
2.0
 40
2.0
 40
3.0
 40
3.0
 40
3.0
 40
4.0
 40
4.0
 40
4.0
 40
4.0
 10
129.8094737259555
 20
-145.9611159329095
 30
0.0
 10
129.8094737259555
 20
-146.1960659328505
 30
0.0
 10
129.4808259565622
 20
-146.3869187105806
 30
0.0
 10
129.0763662446586
 20
-146.3869187105806
 30
0.0
 10
128.6705306994568
 20
-146.3869187105806
 30
0.0
 10
128.342557173618
 20
-146.1960659328505
 30
0.0
 10
128.342557173618
 20
-145.9611159329095
 30
0.0
 10
128.342557173618
 20
-145.7261659329682
 30
0.0
 10
128.6705306994568
 20
-145.5359834330157
 30
0.0
 10
129.0763662446586
 20
-145.5359834330157
 30
0.0
 10
129.4808259565622
 20
-145.5359834330157
 30
0.0
 10
129.8094737259555
 20
-145.7261659329682
 30
0.0
 10
129.8094737259555
 20
-145.9611159329095
 30
0.0
  0
SPLINE
  5
9C
330
79
100
AcDbEntity
  8
レイヤー 1
 62
   250
420
  2299925
370
     9
100
AcDbSpline
210
0.0
220
0.0
230
1.0
 70
     8
 71
     3
 72
    11
 73
     7
 74
     0
 42
0.0000000001
 43
0.0000000001
 40
0.0
 40
0.0
 40
0.0
 40
0.0
 40
1.0
 40
1.0
 40
1.0
 40
2.0
 40
2.0
 40
2.0
 40
2.0
 10
128.4707173712211
 20
-146.1950428772954
 30
0.0
 10
128.4707173712211
 20
-146.1950428772954
 30
0.0
 10
128.4490215384413
 20
-145.6841148218676
 30
0.0
 10
129.2782609617301
 20
-145.7271889885233
 30
0.0
 10
129.2782609617301
 20
-145.7271889885233
 30
0.0
 10
129.7674578936941
 20
-145.7909359329518
 30
0.0
 10
129.6823678958649
 20
-146.1740173217449
 30
0.0
  0
SPLINE
  5
9D
330
79
100
AcDbEntity
  8
レイヤー 1
 62
   250
420
  2299925
370
     9
100
AcDbSpline
210
0.0
220
0.0
230
1.0
 70
     9
 71
     3
 72
    17
 73
    13
 74
     0
 42
0.0000000001
 43
0.0000000001
 40
0.0
 40
0.0
 40
0.0
 40
0.0
 40
1.0
 40
1.0
 40
1.0
 40
2.0
 40
2.0
 40
2.0
 40
3.0
 40
3.0
 40
3.0
 40
4.0
 40
4.0
 40
4.0
 40
4.0
 10
140.1426873512221
 20
-150.6887967650607
 30
0.0
 10
140.1426873512221
 20
-150.9237820427799
 30
0.0
 10
139.8133340262913
 20
-151.114282042732
 30
0.0
 10
139.4085568143959
 20
-151.114282042732
 30
0.0
 10
139.0034268247315
 20
-151.114282042732
 30
0.0
 10
138.675449333099
 20
-150.9237820427799
 30
0.0
 10
138.675449333099
 20
-150.6887967650607
 30
0.0
 10
138.675449333099
 20
-150.4538467651191
 30
0.0
 10
139.0034268247315
 20
-150.2633467651671
 30
0.0
 10
139.4085568143959
 20
-150.2633467651671
 30
0.0
 10
139.8133340262913
 20
-150.2633467651671
 30
0.0
 10
140.1426873512221
 20
-150.4538467651191
 30
0.0
 10
140.1426873512221
 20
-150.6887967650607
 30
0.0
  0
SPLINE
  5
9E
330
79
100
AcDbEntity
  8
レイヤー 1
 62
   250
420
  2299925
370
     9
100
AcDbSpline
210
0.0
220
0.0
230
1.0
 70
     8
 71
     3
 72
    11
 73
     7
 74
     0
 42
0.0000000001
 43
0.0000000001
 40
0.0
 40
0.0
 40
0.0
 40
0.0
 40
1.0
 40
1.0
 40
1.0
 40
2.0
 40
2.0
 40
2.0
 40
2.0
 10
138.8025551631896
 20
-150.9224062094464
 30
0.0
 10
138.8025551631896
 20
-150.9224062094464
 30
0.0
 10
138.7812121081785
 20
-150.4118309317963
 30
0.0
 10
139.6104515314673
 20
-150.4545523206746
 30
0.0
 10
139.6104515314673
 20
-150.4545523206746
 30
0.0
 10
140.0999659634232
 20
-150.5182639873253
 30
0.0
 10
140.0152287433628
 20
-150.9010278761188
 30
0.0
  0
SPLINE
  5
9F
330
79
100
AcDbEntity
  8
レイヤー 1
 62
   250
420
  2299925
370
     9
100
AcDbSpline
210
0.0
220
0.0
230
1.0
 70
     9
 71
     3
 72
    17
 73
    13
 74
     0
 42
0.0000000001
 43
0.0000000001
 40
0.0
 40
0.0
 40
0.0
 40
0.0
 40
1.0
 40
1.0
 40
1.0
 40
2.0
 40
2.0
 40
2.0
 40
3.0
 40
3.0
 40
3.0
 40
4.0
 40
4.0
 40
4.0
 40
4.0
 10
140.1426873512221
 20
-152.0051870425094
 30
0.0
 10
140.1426873512221
 20
-152.2408425980059
 30
0.0
 10
139.8133340262913
 20
-152.4309898201808
 30
0.0
 10
139.4085568143959
 20
-152.4309898201808
 30
0.0
 10
139.0034268247315
 20
-152.4309898201808
 30
0.0
 10
138.675449333099
 20
-152.2408425980059
 30
0.0
 10
138.675449333099
 20
-152.0051870425094
 30
0.0
 10
138.675449333099
 20
-151.770554542568
 30
0.0
 10
139.0034268247315
 20
-151.5800545426153
 30
0.0
 10
139.4085568143959
 20
-151.5800545426153
 30
0.0
 10
139.8133340262913
 20
-151.5800545426153
 30
0.0
 10
140.1426873512221
 20
-151.770554542568
 30
0.0
 10
140.1426873512221
 20
-152.0051870425094
 30
0.0
  0
SPLINE
  5
A0
330
79
100
AcDbEntity
  8
レイヤー 1
 62
   250
420
  2299925
370
     9
100
AcDbSpline
210
0.0
220
0.0
230
1.0
 70
     8
 71
     3
 72
    11
 73
     7
 74
     0
 42
0.0000000001
 43
0.0000000001
 40
0.0
 40
0.0
 40
0.0
 40
0.0
 40
1.0
 40
1.0
 40
1.0
 40
2.0
 40
2.0
 40
2.0
 40
2.0
 10
138.8025551631896
 20
-152.2394314868955
 30
0.0
 10
138.8025551631896
 20
-152.2394314868955
 30
0.0
 10
138.7812121081785
 20
-151.7281859314674
 30
0.0
 10
139.6104515314673
 20
-151.771965653679
 30
0.0
 10
139.6104515314673
 20
-151.771965653679
 30
0.0
 10
140.0999659634232
 20
-151.8350070425523
 30
0.0
 10
140.0152287433628
 20
-152.2180884313448
 30
0.0
  0
SPLINE
  5
A1
330
79
100
AcDbEntity
  8
レイヤー 1
 62
   250
420
  2299925
370
     9
100
AcDbSpline
210
0.0
220
0.0
230
1.0
 70
     9
 71
     3
 72
    17
 73
    13
 74
     0
 42
0.0000000001
 43
0.0000000001
 40
0.0
 40
0.0
 40
0.0
 40
0.0
 40
1.0
 40
1.0
 40
1.0
 40
2.0
 40
2.0
 40
2.0
 40
3.0
 40
3.0
 40
3.0
 40
4.0
 40
4.0
 40
4.0
 40
4.0
 10
140.1426873512221
 20
-149.4730539875868
 30
0.0
 10
140.1426873512221
 20
-149.708321487528
 30
0.0
 10
139.8133340262913
 20
-149.8985039874805
 30
0.0
 10
139.4085568143959
 20
-149.8985039874805
 30
0.0
 10
139.0034268247315
 20
-149.8985039874805
 30
0.0
 10
138.675449333099
 20
-149.708321487528
 30
0.0
 10
138.675449333099
 20
-149.4730539875868
 30
0.0
 10
138.675449333099
 20
-149.237751209868
 30
0.0
 10
139.0034268247315
 20
-149.0475687099156
 30
0.0
 10
139.4085568143959
 20
-149.0475687099156
 30
0.0
 10
139.8133340262913
 20
-149.0475687099156
 30
0.0
 10
140.1426873512221
 20
-149.237751209868
 30
0.0
 10
140.1426873512221
 20
-149.4730539875868
 30
0.0
  0
SPLINE
  5
A2
330
79
100
AcDbEntity
  8
レイヤー 1
 62
   250
420
  2299925
370
     9
100
AcDbSpline
210
0.0
220
0.0
230
1.0
 70
     8
 71
     3
 72
    11
 73
     7
 74
     0
 42
0.0000000001
 43
0.0000000001
 40
0.0
 40
0.0
 40
0.0
 40
0.0
 40
1.0
 40
1.0
 40
1.0
 40
2.0
 40
2.0
 40
2.0
 40
2.0
 10
138.8025551631896
 20
-149.7069456541952
 30
0.0
 10
138.8025551631896
 20
-149.7069456541952
 30
0.0
 10
138.7812121081785
 20
-149.1957000987671
 30
0.0
 10
139.6104515314673
 20
-149.2391270432009
 30
0.0
 10
139.6104515314673
 20
-149.2391270432009
 30
0.0
 10
140.0999659634232
 20
-149.3028387098516
 30
0.0
 10
140.0152287433628
 20
-149.6859553764222
 30
0.0
  0
SPLINE
  5
A3
330
79
100
AcDbEntity
  8
レイヤー 1
 62
   250
420
  2299925
370
     9
100
AcDbSpline
210
0.0
220
0.0
230
1.0
 70
     9
 71
     3
 72
    17
 73
    13
 74
     0
 42
0.0000000001
 43
0.0000000001
 40
0.0
 40
0.0
 40
0.0
 40
0.0
 40
1.0
 40
1.0
 40
1.0
 40
2.0
 40
2.0
 40
2.0
 40
3.0
 40
3.0
 40
3.0
 40
4.0
 40
4.0
 40
4.0
 40
4.0
 10
142.3541100725818
 20
-149.8616387097121
 30
0.0
 10
142.3541100725818
 20
-150.0962712096535
 30
0.0
 10
142.0251095254198
 20
-150.2867712096062
 30
0.0
 10
141.6199442579786
 20
-150.2867712096062
 30
0.0
 10
141.2148142683144
 20
-150.2867712096062
 30
0.0
 10
140.886483998913
 20
-150.0962712096535
 30
0.0
 10
140.886483998913
 20
-149.8616387097121
 30
0.0
 10
140.886483998913
 20
-149.6263359319933
 30
0.0
 10
141.2148142683144
 20
-149.4358359320407
 30
0.0
 10
141.6199442579786
 20
-149.4358359320407
 30
0.0
 10
142.0251095254198
 20
-149.4358359320407
 30
0.0
 10
142.3541100725818
 20
-149.6263359319933
 30
0.0
 10
142.3541100725818
 20
-149.8616387097121
 30
0.0
  0
SPLINE
  5
A4
330
79
100
AcDbEntity
  8
レイヤー 1
 62
   250
420
  2299925
370
     9
100
AcDbSpline
210
0.0
220
0.0
230
1.0
 70
     8
 71
     3
 72
    11
 73
     7
 74
     0
 42
0.0000000001
 43
0.0000000001
 40
0.0
 40
0.0
 40
0.0
 40
0.0
 40
1.0
 40
1.0
 40
1.0
 40
2.0
 40
2.0
 40
2.0
 40
2.0
 10
141.0139821704494
 20
-150.0952128763202
 30
0.0
 10
141.0139821704494
 20
-150.0952128763202
 30
0.0
 10
140.9925995517613
 20
-149.5846728764483
 30
0.0
 10
141.8221960591367
 20
-149.6277117653263
 30
0.0
 10
141.8221960591367
 20
-149.6277117653263
 30
0.0
 10
142.3113886847828
 20
-149.6911059319773
 30
0.0
 10
142.2266514647225
 20
-150.0745400985475
 30
0.0
  0
SPLINE
  5
A5
330
79
100
AcDbEntity
  8
レイヤー 1
 62
   250
420
  2299925
370
     9
100
AcDbSpline
210
0.0
220
0.0
230
1.0
 70
     9
 71
     3
 72
    17
 73
    13
 74
     0
 42
0.0000000001
 43
0.0000000001
 40
0.0
 40
0.0
 40
0.0
 40
0.0
 40
1.0
 40
1.0
 40
1.0
 40
2.0
 40
2.0
 40
2.0
 40
3.0
 40
3.0
 40
3.0
 40
4.0
 40
4.0
 40
4.0
 40
4.0
 10
142.3541100725818
 20
-151.1783464871603
 30
0.0
 10
142.3541100725818
 20
-151.4133317648795
 30
0.0
 10
142.0251095254198
 20
-151.6038317648322
 30
0.0
 10
141.6199442579786
 20
-151.6038317648322
 30
0.0
 10
141.2148142683144
 20
-151.6038317648322
 30
0.0
 10
140.886483998913
 20
-151.4133317648795
 30
0.0
 10
140.886483998913
 20
-151.1783464871603
 30
0.0
 10
140.886483998913
 20
-150.9437492649971
 30
0.0
 10
141.2148142683144
 20
-150.7525437094896
 30
0.0
 10
141.6199442579786
 20
-150.7525437094896
 30
0.0
 10
142.0251095254198
 20
-150.7525437094896
 30
0.0
 10
142.3541100725818
 20
-150.9437492649971
 30
0.0
 10
142.3541100725818
 20
-151.1783464871603
 30
0.0
  0
SPLINE
  5
A6
330
79
100
AcDbEntity
  8
レイヤー 1
 62
   250
420
  2299925
370
     9
100
AcDbSpline
210
0.0
220
0.0
230
1.0
 70
     8
 71
     3
 72
    11
 73
     7
 74
     0
 42
0.0000000001
 43
0.0000000001
 40
0.0
 40
0.0
 40
0.0
 40
0.0
 40
1.0
 40
1.0
 40
1.0
 40
2.0
 40
2.0
 40
2.0
 40
2.0
 10
141.0139821704494
 20
-151.4122734315469
 30
0.0
 10
141.0139821704494
 20
-151.4122734315469
 30
0.0
 10
140.9925995517613
 20
-150.9010278761188
 30
0.0
 10
141.8221960591367
 20
-150.9447723205522
 30
0.0
 10
141.8221960591367
 20
-150.9447723205522
 30
0.0
 10
142.3113886847828
 20
-151.0081664872032
 30
0.0
 10
142.2266514647225
 20
-151.3916006537741
 30
0.0
  0
SPLINE
  5
A7
330
79
100
AcDbEntity
  8
レイヤー 1
 62
   250
420
  2299925
370
     9
100
AcDbSpline
210
0.0
220
0.0
230
1.0
 70
     9
 71
     3
 72
    17
 73
    13
 74
     0
 42
0.0000000001
 43
0.0000000001
 40
0.0
 40
0.0
 40
0.0
 40
0.0
 40
1.0
 40
1.0
 40
1.0
 40
2.0
 40
2.0
 40
2.0
 40
3.0
 40
3.0
 40
3.0
 40
4.0
 40
4.0
 40
4.0
 40
4.0
 10
142.3541100725818
 20
-148.6462134322384
 30
0.0
 10
142.3541100725818
 20
-148.8804931544021
 30
0.0
 10
142.0251095254198
 20
-149.0713459321318
 30
0.0
 10
141.6199442579786
 20
-149.0713459321318
 30
0.0
 10
141.2148142683144
 20
-149.0713459321318
 30
0.0
 10
140.886483998913
 20
-148.8804931544021
 30
0.0
 10
140.886483998913
 20
-148.6462134322384
 30
0.0
 10
140.886483998913
 20
-148.4116162100745
 30
0.0
 10
141.2148142683144
 20
-148.2204106545666
 30
0.0
 10
141.6199442579786
 20
-148.2204106545666
 30
0.0
 10
142.0251095254198
 20
-148.2204106545666
 30
0.0
 10
142.3541100725818
 20
-148.4116162100745
 30
0.0
 10
142.3541100725818
 20
-148.6462134322384
 30
0.0
  0
SPLINE
  5
A8
330
79
100
AcDbEntity
  8
レイヤー 1
 62
   250
420
  2299925
370
     9
100
AcDbSpline
210
0.0
220
0.0
230
1.0
 70
     8
 71
     3
 72
    11
 73
     7
 74
     0
 42
0.0000000001
 43
0.0000000001
 40
0.0
 40
0.0
 40
0.0
 40
0.0
 40
1.0
 40
1.0
 40
1.0
 40
2.0
 40
2.0
 40
2.0
 40
2.0
 10
141.0139821704494
 20
-148.8797875988465
 30
0.0
 10
141.0139821704494
 20
-148.8797875988465
 30
0.0
 10
140.9925995517613
 20
-148.3685420434188
 30
0.0
 10
141.8221960591367
 20
-148.4119337100744
 30
0.0
 10
141.8221960591367
 20
-148.4119337100744
 30
0.0
 10
142.3113886847828
 20
-148.4753278767251
 30
0.0
 10
142.2266514647225
 20
-148.858762043296
 30
0.0
  0
SPLINE
  5
A9
330
79
100
AcDbEntity
  8
レイヤー 1
 62
   250
420
  2299925
370
     9
100
AcDbSpline
210
0.0
220
0.0
230
1.0
 70
     9
 71
     3
 72
    17
 73
    13
 74
     0
 42
0.0000000001
 43
0.0000000001
 40
0.0
 40
0.0
 40
0.0
 40
0.0
 40
1.0
 40
1.0
 40
1.0
 40
2.0
 40
2.0
 40
2.0
 40
3.0
 40
3.0
 40
3.0
 40
4.0
 40
4.0
 40
4.0
 40
4.0
 10
144.8018586212457
 20
-148.9328453766106
 30
0.0
 10
144.8018586212457
 20
-149.1681481543299
 30
0.0
 10
144.4728580740836
 20
-149.3586481542826
 30
0.0
 10
144.0687158621719
 20
-149.3586481542826
 30
0.0
 10
143.6632330947389
 20
-149.3586481542826
 30
0.0
 10
143.3342325475768
 20
-149.1681481543299
 30
0.0
 10
143.3342325475768
 20
-148.9328453766106
 30
0.0
 10
143.3342325475768
 20
-148.6978953766695
 30
0.0
 10
143.6632330947389
 20
-148.5073600989393
 30
0.0
 10
144.0687158621719
 20
-148.5073600989393
 30
0.0
 10
144.4728580740836
 20
-148.5073600989393
 30
0.0
 10
144.8018586212457
 20
-148.6978953766695
 30
0.0
 10
144.8018586212457
 20
-148.9328453766106
 30
0.0
  0
SPLINE
  5
AA
330
79
100
AcDbEntity
  8
レイヤー 1
 62
   250
420
  2299925
370
     9
100
AcDbSpline
210
0.0
220
0.0
230
1.0
 70
     8
 71
     3
 72
    11
 73
     7
 74
     0
 42
0.0000000001
 43
0.0000000001
 40
0.0
 40
0.0
 40
0.0
 40
0.0
 40
1.0
 40
1.0
 40
1.0
 40
2.0
 40
2.0
 40
2.0
 40
2.0
 10
143.462043933205
 20
-149.1667723209971
 30
0.0
 10
143.462043933205
 20
-149.1667723209971
 30
0.0
 10
143.4407008781939
 20
-148.655526765569
 30
0.0
 10
144.2699403014827
 20
-148.698918432225
 30
0.0
 10
144.2699403014827
 20
-148.698918432225
 30
0.0
 10
144.7591372334467
 20
-148.762312598876
 30
0.0
 10
144.6740516139788
 20
-149.1453939876688
 30
0.0
  0
SPLINE
  5
AB
330
79
100
AcDbEntity
  8
レイヤー 1
 62
   250
420
  2299925
370
     9
100
AcDbSpline
210
0.0
220
0.0
230
1.0
 70
    11
 71
     3
 72
    17
 73
    13
 74
     0
 42
0.0000000001
 43
0.0000000001
 40
0.0
 40
0.0
 40
0.0
 40
0.0
 40
1.0
 40
1.0
 40
1.0
 40
2.0
 40
2.0
 40
2.0
 40
3.0
 40
3.0
 40
3.0
 40
4.0
 40
4.0
 40
4.0
 40
4.0
 10
144.8018586212457
 20
-150.2499059318372
 30
0.0
 10
144.8018586212457
 20
-150.4852087095566
 30
0.0
 10
144.4728580740836
 20
-150.6753912095084
 30
0.0
 10
144.0687158621719
 20
-150.6753912095084
 30
0.0
 10
143.6632330947389
 20
-150.6753912095084
 30
0.0
 10
143.3342325475768
 20
-150.4852087095566
 30
0.0
 10
143.3342325475768
 20
-150.2499059318372
 30
0.0
 10
143.3342325475768
 20
-150.0146031541178
 30
0.0
 10
143.6632330947389
 20
-149.824420654166
 30
0.0
 10
144.0687158621719
 20
-149.824420654166
 30
0.0
 10
144.4728580740836
 20
-149.824420654166
 30
0.0
 10
144.8018586212457
 20
-150.0146031541178
 30
0.0
 10
144.8018586212457
 20
-150.2499059318372
 30
0.0
  0
SPLINE
  5
AC
330
79
100
AcDbEntity
  8
レイヤー 1
 62
   250
420
  2299925
370
     9
100
AcDbSpline
210
0.0
220
0.0
230
1.0
 70
     8
 71
     3
 72
    11
 73
     7
 74
     0
 42
0.0000000001
 43
0.0000000001
 40
0.0
 40
0.0
 40
0.0
 40
0.0
 40
1.0
 40
1.0
 40
1.0
 40
2.0
 40
2.0
 40
2.0
 40
2.0
 10
143.462043933205
 20
-150.4838328762231
 30
0.0
 10
143.462043933205
 20
-150.4838328762231
 30
0.0
 10
143.4407008781939
 20
-149.972587320795
 30
0.0
 10
144.2699403014827
 20
-150.0156262096735
 30
0.0
 10
144.2699403014827
 20
-150.0156262096735
 30
0.0
 10
144.7591372334467
 20
-150.0793731541017
 30
0.0
 10
144.6740516139788
 20
-150.4624545428955
 30
0.0
  0
SPLINE
  5
AD
330
79
100
AcDbEntity
  8
レイヤー 1
 62
   250
420
  2299925
370
     9
100
AcDbSpline
210
0.0
220
0.0
230
1.0
 70
     9
 71
     3
 72
    17
 73
    13
 74
     0
 42
0.0000000001
 43
0.0000000001
 40
0.0
 40
0.0
 40
0.0
 40
0.0
 40
1.0
 40
1.0
 40
1.0
 40
2.0
 40
2.0
 40
2.0
 40
3.0
 40
3.0
 40
3.0
 40
4.0
 40
4.0
 40
4.0
 40
4.0
 10
144.8018586212457
 20
-147.7174200991368
 30
0.0
 10
144.8018586212457
 20
-147.9520173213007
 30
0.0
 10
144.4728580740836
 20
-148.1425525990306
 30
0.0
 10
144.0687158621719
 20
-148.1425525990306
 30
0.0
 10
143.6632330947389
 20
-148.1425525990306
 30
0.0
 10
143.3342325475768
 20
-147.9520173213007
 30
0.0
 10
143.3342325475768
 20
-147.7174200991368
 30
0.0
 10
143.3342325475768
 20
-147.4824700991958
 30
0.0
 10
143.6632330947389
 20
-147.2919348214656
 30
0.0
 10
144.0687158621719
 20
-147.2919348214656
 30
0.0
 10
144.4728580740836
 20
-147.2919348214656
 30
0.0
 10
144.8018586212457
 20
-147.4824700991958
 30
0.0
 10
144.8018586212457
 20
-147.7174200991368
 30
0.0
  0
SPLINE
  5
AE
330
79
100
AcDbEntity
  8
レイヤー 1
 62
   250
420
  2299925
370
     9
100
AcDbSpline
210
0.0
220
0.0
230
1.0
 70
     8
 71
     3
 72
    11
 73
     7
 74
     0
 42
0.0000000001
 43
0.0000000001
 40
0.0
 40
0.0
 40
0.0
 40
0.0
 40
1.0
 40
1.0
 40
1.0
 40
2.0
 40
2.0
 40
2.0
 40
2.0
 10
143.462043933205
 20
-147.951347043523
 30
0.0
 10
143.462043933205
 20
-147.951347043523
 30
0.0
 10
143.4407008781939
 20
-147.4404189880952
 30
0.0
 10
144.2699403014827
 20
-147.4834931547513
 30
0.0
 10
144.2699403014827
 20
-147.4834931547513
 30
0.0
 10
144.7591372334467
 20
-147.546887321402
 30
0.0
 10
144.6740516139788
 20
-147.9303214879726
 30
0.0
  0
SPLINE
  5
AF
330
79
100
AcDbEntity
  8
レイヤー 1
 62
   250
420
  2299925
370
     9
100
AcDbSpline
210
0.0
220
0.0
230
1.0
 70
     9
 71
     3
 72
    17
 73
    13
 74
     0
 42
0.0000000001
 43
0.0000000001
 40
0.0
 40
0.0
 40
0.0
 40
0.0
 40
1.0
 40
1.0
 40
1.0
 40
2.0
 40
2.0
 40
2.0
 40
3.0
 40
3.0
 40
3.0
 40
4.0
 40
4.0
 40
4.0
 40
4.0
 10
147.1658577276017
 20
-149.4730539875868
 30
0.0
 10
147.1658577276017
 20
-149.708321487528
 30
0.0
 10
146.836186902679
 20
-149.8985039874805
 30
0.0
 10
146.4320799685441
 20
-149.8985039874805
 30
0.0
 10
146.0262488358639
 20
-149.8985039874805
 30
0.0
 10
145.6982669317097
 20
-149.708321487528
 30
0.0
 10
145.6982669317097
 20
-149.4730539875868
 30
0.0
 10
145.6982669317097
 20
-149.237751209868
 30
0.0
 10
146.0262488358639
 20
-149.0475687099156
 30
0.0
 10
146.4320799685441
 20
-149.0475687099156
 30
0.0
 10
146.836186902679
 20
-149.0475687099156
 30
0.0
 10
147.1658577276017
 20
-149.237751209868
 30
0.0
 10
147.1658577276017
 20
-149.4730539875868
 30
0.0
  0
SPLINE
  5
B0
330
79
100
AcDbEntity
  8
レイヤー 1
 62
   250
420
  2299925
370
     9
100
AcDbSpline
210
0.0
220
0.0
230
1.0
 70
     8
 71
     3
 72
    11
 73
     7
 74
     0
 42
0.0000000001
 43
0.0000000001
 40
0.0
 40
0.0
 40
0.0
 40
0.0
 40
1.0
 40
1.0
 40
1.0
 40
2.0
 40
2.0
 40
2.0
 40
2.0
 10
145.8257255395691
 20
-149.7069456541952
 30
0.0
 10
145.8257255395691
 20
-149.7069456541952
 30
0.0
 10
145.8043824845581
 20
-149.1957000987671
 30
0.0
 10
146.6339394078388
 20
-149.2391270432009
 30
0.0
 10
146.6339394078388
 20
-149.2391270432009
 30
0.0
 10
147.1231716175796
 20
-149.3028387098516
 30
0.0
 10
147.0380463419736
 20
-149.6859553764222
 30
0.0
  0
SPLINE
  5
B1
330
79
100
AcDbEntity
  8
レイヤー 1
 62
   250
420
  2299925
370
     9
100
AcDbSpline
210
0.0
220
0.0
230
1.0
 70
     9
 71
     3
 72
    17
 73
    13
 74
     0
 42
0.0000000001
 43
0.0000000001
 40
0.0
 40
0.0
 40
0.0
 40
0.0
 40
1.0
 40
1.0
 40
1.0
 40
2.0
 40
2.0
 40
2.0
 40
3.0
 40
3.0
 40
3.0
 40
4.0
 40
4.0
 40
4.0
 40
4.0
 10
147.1658577276017
 20
-148.2575934323353
 30
0.0
 10
147.1658577276017
 20
-148.4922259322767
 30
0.0
 10
146.836186902679
 20
-148.6830787100068
 30
0.0
 10
146.4320799685441
 20
-148.6830787100068
 30
0.0
 10
146.0262488358639
 20
-148.6830787100068
 30
0.0
 10
145.6982669317097
 20
-148.4922259322767
 30
0.0
 10
145.6982669317097
 20
-148.2575934323353
 30
0.0
 10
145.6982669317097
 20
-148.0226434323939
 30
0.0
 10
146.0262488358639
 20
-147.8321434324412
 30
0.0
 10
146.4320799685441
 20
-147.8321434324412
 30
0.0
 10
146.836186902679
 20
-147.8321434324412
 30
0.0
 10
147.1658577276017
 20
-148.0226434323939
 30
0.0
 10
147.1658577276017
 20
-148.2575934323353
 30
0.0
  0
SPLINE
  5
B2
330
79
100
AcDbEntity
  8
レイヤー 1
 62
   250
420
  2299925
370
     9
100
AcDbSpline
210
0.0
220
0.0
230
1.0
 70
     8
 71
     3
 72
    11
 73
     7
 74
     0
 42
0.0000000001
 43
0.0000000001
 40
0.0
 40
0.0
 40
0.0
 40
0.0
 40
1.0
 40
1.0
 40
1.0
 40
2.0
 40
2.0
 40
2.0
 40
2.0
 10
145.8257255395691
 20
-148.4915203767211
 30
0.0
 10
145.8257255395691
 20
-148.4915203767211
 30
0.0
 10
145.8043824845581
 20
-147.9806275990712
 30
0.0
 10
146.6339394078388
 20
-148.0237017657272
 30
0.0
 10
146.6339394078388
 20
-148.0237017657272
 30
0.0
 10
147.1231716175796
 20
-148.0870606546001
 30
0.0
 10
147.0380463419736
 20
-148.4698245433936
 30
0.0
  0
ENDBLK
  5
7C
330
79
100
AcDbEntity
  8
0
100
AcDbBlockEnd
  0
BLOCK
  5
B5
330
B3
100
AcDbEntity
  8
0
100
AcDbBlockBegin
  2
Block_1
 70
     0
 10
0.0
 20
0.0
 30
0.0
  3
Block_1
  1

  0
LINE
  5
B7
330
B3
100
AcDbEntity
  8
レイヤー 1
  6
AI-Linetype-0
 62
   154
420
    23468
370
    25
100
AcDbLine
 10
65.89330341214813
 20
-146.6670242660661
 30
0.0
 11
75.89338899035801
 21
-146.6670242660661
 31
0.0
  0
LINE
  5
B9
330
B3
100
AcDbEntity
  8
レイヤー 1
  6
AI-Linetype-1
 62
   154
420
    23468
370
    25
100
AcDbLine
 10
106.395702881324
 20
-146.6670242660661
 30
0.0
 11
116.895639280115
 21
-146.6670242660661
 31
0.0
  0
LINE
  5
BB
330
B3
100
AcDbEntity
  8
レイヤー 1
 62
   250
420
  2299925
370
    25
100
AcDbLine
 10
96.89412759598866
 20
-153.9282492642513
 30
0.0
 11
85.89418012410547
 21
-153.9282492642513
 31
0.0
  0
LINE
  5
BC
330
B3
100
AcDbEntity
  8
レイヤー 1
 62
   250
420
  2299925
370
    25
100
AcDbLine
 10
65.89330341214813
 20
-145.4281392663761
 30
0.0
 11
65.89330341214813
 21
-145.9283781551398
 31
0.0
  0
LINE
  5
BD
330
B3
100
AcDbEntity
  8
レイヤー 1
 62
   250
420
  2299925
370
    25
100
AcDbLine
 10
85.89418012410547
 20
-145.9283781551398
 30
0.0
 11
65.89330341214813
 21
-145.9283781551398
 31
0.0
  0
LINE
  5
BE
330
B3
100
AcDbEntity
  8
レイヤー 1
 62
   250
420
  2299925
370
    25
100
AcDbLine
 10
65.89330341214813
 20
-145.4281392663761
 30
0.0
 11
66.40698312126528
 21
-145.8101975996138
 31
0.0
  0
LINE
  5
BF
330
B3
100
AcDbEntity
  8
レイヤー 1
 62
   250
420
  2299925
370
    25
100
AcDbLine
 10
66.40698312126528
 20
-145.8101975996138
 30
0.0
 11
66.89240533110335
 21
-145.3926498219403
 31
0.0
  0
LINE
  5
C0
330
B3
100
AcDbEntity
  8
レイヤー 1
 62
   250
420
  2299925
370
    25
100
AcDbLine
 10
67.40640254021241
 20
-145.7747434329561
 30
0.0
 11
67.89182475005048
 21
-145.3568428775048
 31
0.0
  0
LINE
  5
C1
330
B3
100
AcDbEntity
  8
レイヤー 1
 62
   250
420
  2299925
370
    25
100
AcDbLine
 10
66.89240533110335
 20
-145.3926498219403
 30
0.0
 11
67.40640254021241
 21
-145.7747434329561
 31
0.0
  0
LINE
  5
C2
330
B3
100
AcDbEntity
  8
レイヤー 1
 62
   250
420
  2299925
370
    25
100
AcDbLine
 10
67.89182475005048
 20
-145.3568428775048
 30
0.0
 11
68.40582195915986
 21
-145.7389012107429
 31
0.0
  0
LINE
  5
C3
330
B3
100
AcDbEntity
  8
レイヤー 1
 62
   250
420
  2299925
370
    25
100
AcDbLine
 10
68.40582195915986
 20
-145.7389012107429
 30
0.0
 11
68.89124416899761
 21
-145.3213534330694
 31
0.0
  0
LINE
  5
C4
330
B3
100
AcDbEntity
  8
レイヤー 1
 62
   250
420
  2299925
370
    25
100
AcDbLine
 10
68.89124416899761
 20
-145.3213534330694
 30
0.0
 11
69.40524137810668
 21
-145.7030589885296
 31
0.0
  0
LINE
  5
C5
330
B3
100
AcDbEntity
  8
レイヤー 1
 62
   250
420
  2299925
370
    25
100
AcDbLine
 10
69.40524137810668
 20
-145.7030589885296
 30
0.0
 11
69.89031081017628
 21
-145.2855112108561
 31
0.0
  0
LINE
  5
C6
330
B3
100
AcDbEntity
  8
レイヤー 1
 62
   250
420
  2299925
370
    25
100
AcDbLine
 10
69.89031081017628
 20
-145.2855112108561
 30
0.0
 11
70.40430801928502
 21
-145.6672520440939
 31
0.0
  0
LINE
  5
C7
330
B3
100
AcDbEntity
  8
レイヤー 1
 62
   250
420
  2299925
370
    25
100
AcDbLine
 10
70.40430801928502
 20
-145.6672520440939
 30
0.0
 11
70.89008300689187
 21
-145.2497042664207
 31
0.0
  0
LINE
  5
C8
330
B3
100
AcDbEntity
  8
レイヤー 1
 62
   250
420
  2299925
370
    25
100
AcDbLine
 10
70.89008300689187
 20
-145.2497042664207
 30
0.0
 11
71.40408021600094
 21
-145.6317625996584
 31
0.0
  0
LINE
  5
C9
330
B3
100
AcDbEntity
  8
レイヤー 1
 62
   250
420
  2299925
370
    25
100
AcDbLine
 10
71.40408021600094
 20
-145.6317625996584
 30
0.0
 11
71.88914964807023
 21
-145.2142148219849
 31
0.0
  0
LINE
  5
CA
330
B3
100
AcDbEntity
  8
レイヤー 1
 62
   250
420
  2299925
370
    25
100
AcDbLine
 10
71.88914964807023
 20
-145.2142148219849
 30
0.0
 11
72.40318213495616
 21
-145.5962731552229
 31
0.0
  0
LINE
  5
CB
330
B3
100
AcDbEntity
  8
レイヤー 1
 62
   250
420
  2299925
370
    25
100
AcDbLine
 10
72.40318213495616
 20
-145.5962731552229
 30
0.0
 11
72.88856906701735
 21
-145.1783725997717
 31
0.0
  0
LINE
  5
CC
330
B3
100
AcDbEntity
  8
レイヤー 1
 62
   250
420
  2299925
370
    25
100
AcDbLine
 10
73.40260155390329
 20
-145.5604309330096
 30
0.0
 11
73.8879884859645
 21
-145.1428831553362
 31
0.0
  0
LINE
  5
CD
330
B3
100
AcDbEntity
  8
レイヤー 1
 62
   250
420
  2299925
370
    25
100
AcDbLine
 10
72.88856906701735
 20
-145.1783725997717
 30
0.0
 11
73.40260155390329
 21
-145.5604309330096
 31
0.0
  0
LINE
  5
CE
330
B3
100
AcDbEntity
  8
レイヤー 1
 62
   250
420
  2299925
370
    25
100
AcDbLine
 10
73.8879884859645
 20
-145.1428831553362
 30
0.0
 11
74.40202097285044
 21
-145.5246239885739
 31
0.0
  0
LINE
  5
CF
330
B3
100
AcDbEntity
  8
レイヤー 1
 62
   250
420
  2299925
370
    25
100
AcDbLine
 10
74.40202097285044
 20
-145.5246239885739
 30
0.0
 11
74.8874431826885
 21
-145.1070762109008
 31
0.0
  0
LINE
  5
D0
330
B3
100
AcDbEntity
  8
レイヤー 1
 62
   250
420
  2299925
370
    25
100
AcDbLine
 10
75.40108761402878
 20
-145.4887817663607
 30
0.0
 11
75.88686260163562
 21
-145.0712339886875
 31
0.0
  0
LINE
  5
D1
330
B3
100
AcDbEntity
  8
レイヤー 1
 62
   250
420
  2299925
370
    25
100
AcDbLine
 10
74.8874431826885
 20
-145.1070762109008
 30
0.0
 11
75.40108761402878
 21
-145.4887817663607
 31
0.0
  0
LINE
  5
D2
330
B3
100
AcDbEntity
  8
レイヤー 1
 62
   250
420
  2299925
370
    25
100
AcDbLine
 10
76.40085981074502
 20
-145.4532923219252
 30
0.0
 11
76.88592924281398
 21
-145.0357445442517
 31
0.0
  0
LINE
  5
D3
330
B3
100
AcDbEntity
  8
レイヤー 1
 62
   250
420
  2299925
370
    25
100
AcDbLine
 10
75.88686260163562
 20
-145.0712339886875
 30
0.0
 11
76.40085981074502
 21
-145.4532923219252
 31
0.0
  0
LINE
  5
D4
330
B3
100
AcDbEntity
  8
レイヤー 1
 62
   250
420
  2299925
370
    25
100
AcDbLine
 10
76.88592924281398
 20
-145.0357445442517
 30
0.0
 11
77.39992645192305
 21
-145.4178028774897
 31
0.0
  0
LINE
  5
D5
330
B3
100
AcDbEntity
  8
レイヤー 1
 62
   250
420
  2299925
370
    25
100
AcDbLine
 10
77.39992645192305
 20
-145.4178028774897
 30
0.0
 11
77.88570143952989
 21
-144.9999375998166
 31
0.0
  0
LINE
  5
D6
330
B3
100
AcDbEntity
  8
レイヤー 1
 62
   250
420
  2299925
370
    25
100
AcDbLine
 10
77.88570143952989
 20
-144.9999375998166
 30
0.0
 11
78.39934587087049
 21
-145.3819959330543
 31
0.0
  0
LINE
  5
D7
330
B3
100
AcDbEntity
  8
レイヤー 1
 62
   250
420
  2299925
370
    25
100
AcDbLine
 10
78.39934587087049
 20
-145.3819959330543
 30
0.0
 11
78.88476808070824
 21
-144.9644481553808
 31
0.0
  0
LINE
  5
D8
330
B3
100
AcDbEntity
  8
レイヤー 1
 62
   250
420
  2299925
370
    25
100
AcDbLine
 10
78.88476808070824
 20
-144.9644481553808
 30
0.0
 11
79.39876528981731
 21
-145.3461537108407
 31
0.0
  0
LINE
  5
D9
330
B3
100
AcDbEntity
  8
レイヤー 1
 62
   250
420
  2299925
370
    25
100
AcDbLine
 10
79.39876528981731
 20
-145.3461537108407
 30
0.0
 11
79.88418749965538
 21
-144.9286059331676
 31
0.0
  0
LINE
  5
DA
330
B3
100
AcDbEntity
  8
レイヤー 1
 62
   250
420
  2299925
370
    25
100
AcDbLine
 10
79.88418749965538
 20
-144.9286059331676
 30
0.0
 11
80.39821998654131
 21
-145.3103114886275
 31
0.0
  0
LINE
  5
DB
330
B3
100
AcDbEntity
  8
レイヤー 1
 62
   250
420
  2299925
370
    25
100
AcDbLine
 10
80.39821998654131
 20
-145.3103114886275
 30
0.0
 11
80.8836069186025
 21
-144.8927989887321
 31
0.0
  0
LINE
  5
DC
330
B3
100
AcDbEntity
  8
レイヤー 1
 62
   250
420
  2299925
370
    25
100
AcDbLine
 10
80.8836069186025
 20
-144.8927989887321
 30
0.0
 11
81.39763940548844
 21
-145.2748573219698
 31
0.0
  0
LINE
  5
DD
330
B3
100
AcDbEntity
  8
レイヤー 1
 62
   250
420
  2299925
370
    25
100
AcDbLine
 10
81.39763940548844
 20
-145.2748573219698
 30
0.0
 11
81.88270883755775
 21
-144.8573095442964
 31
0.0
  0
LINE
  5
DE
330
B3
100
AcDbEntity
  8
レイヤー 1
 62
   250
420
  2299925
370
    25
100
AcDbLine
 10
81.88270883755775
 20
-144.8573095442964
 30
0.0
 11
82.39670604666679
 21
-145.2393678775344
 31
0.0
  0
LINE
  5
DF
330
B3
100
AcDbEntity
  8
レイヤー 1
 62
   250
420
  2299925
370
    25
100
AcDbLine
 10
82.39670604666679
 20
-145.2393678775344
 30
0.0
 11
82.88244575649676
 21
-144.8214673220831
 31
0.0
  0
LINE
  5
E0
330
B3
100
AcDbEntity
  8
レイヤー 1
 62
   250
420
  2299925
370
    25
100
AcDbLine
 10
82.88244575649676
 20
-144.8214673220831
 30
0.0
 11
83.39647824338269
 21
-145.2035256553211
 31
0.0
  0
LINE
  5
E1
330
B3
100
AcDbEntity
  8
レイヤー 1
 62
   250
420
  2299925
370
    25
100
AcDbLine
 10
83.39647824338269
 20
-145.2035256553211
 30
0.0
 11
83.881547675452
 21
-144.7859778776476
 31
0.0
  0
LINE
  5
E2
330
B3
100
AcDbEntity
  8
レイヤー 1
 62
   250
420
  2299925
370
    25
100
AcDbLine
 10
83.881547675452
 20
-144.7859778776476
 30
0.0
 11
84.39554488456106
 21
-145.1677187108854
 31
0.0
  0
LINE
  5
E3
330
B3
100
AcDbEntity
  8
レイヤー 1
 62
   250
420
  2299925
370
    25
100
AcDbLine
 10
84.39554488456106
 20
-145.1677187108854
 30
0.0
 11
84.88061431663036
 21
-144.7501709332122
 31
0.0
  0
LINE
  5
E4
330
B3
100
AcDbEntity
  8
レイヤー 1
 62
   250
420
  2299925
370
    25
100
AcDbLine
 10
84.88061431663036
 20
-144.7501709332122
 30
0.0
 11
85.39461152573942
 21
-145.1318764886721
 31
0.0
  0
LINE
  5
E5
330
B3
100
AcDbEntity
  8
レイヤー 1
 62
   250
420
  2299925
370
    25
100
AcDbLine
 10
85.39461152573942
 20
-145.1318764886721
 30
0.0
 11
85.88038651334626
 21
-144.714328710999
 31
0.0
  0
LINE
  5
E6
330
B3
100
AcDbEntity
  8
レイヤー 1
 62
   250
420
  2299925
370
    25
100
AcDbLine
 10
85.9943837225952
 20
-144.6661039887888
 30
0.0
 11
86.89462259858206
 21
-144.6661039887888
 31
0.0
  0
LINE
  5
E7
330
B3
100
AcDbEntity
  8
レイヤー 1
 62
   250
420
  2299925
370
    25
100
AcDbLine
 10
86.89462259858206
 20
-144.6661039887888
 30
0.0
 11
86.89462259858206
 21
-152.928124264501
 31
0.0
  0
LINE
  5
E8
330
B3
100
AcDbEntity
  8
レイヤー 1
 62
   250
420
  2299925
370
    25
100
AcDbLine
 10
85.89418012410547
 20
-145.9283781551398
 30
0.0
 11
85.89418012410547
 21
-153.9282492642513
 31
0.0
  0
LINE
  5
E9
330
B3
100
AcDbEntity
  8
レイヤー 1
 62
   250
420
  2299925
370
    25
100
AcDbLine
 10
95.89435539927276
 20
-152.928124264501
 30
0.0
 11
86.89462259858206
 21
-152.928124264501
 31
0.0
  0
LINE
  5
EA
330
B3
100
AcDbEntity
  8
レイヤー 1
 62
   250
420
  2299925
370
    25
100
AcDbLine
 10
106.9021153684044
 20
-145.0712339886875
 30
0.0
 11
106.3881181592953
 21
-145.4532923219252
 31
0.0
  0
LINE
  5
EB
330
B3
100
AcDbEntity
  8
レイヤー 1
 62
   250
420
  2299925
370
    25
100
AcDbLine
 10
111.8988949631481
 20
-145.2497042664207
 30
0.0
 11
111.3848624762622
 21
-145.6317625996584
 31
0.0
  0
LINE
  5
EC
330
B3
100
AcDbEntity
  8
レイヤー 1
 62
   250
420
  2299925
370
    25
100
AcDbLine
 10
107.3871848004737
 20
-145.4887817663607
 30
0.0
 11
106.9021153684044
 21
-145.0712339886875
 31
0.0
  0
LINE
  5
ED
330
B3
100
AcDbEntity
  8
レイヤー 1
 62
   250
420
  2299925
370
    25
100
AcDbLine
 10
108.3869569971896
 20
-145.5246239885739
 30
0.0
 11
107.9011820095827
 21
-145.1070762109008
 31
0.0
  0
LINE
  5
EE
330
B3
100
AcDbEntity
  8
レイヤー 1
 62
   250
420
  2299925
370
    25
100
AcDbLine
 10
106.3881181592953
 20
-145.4532923219252
 30
0.0
 11
105.9023431716885
 21
-145.0357445442517
 31
0.0
  0
LINE
  5
EF
330
B3
100
AcDbEntity
  8
レイヤー 1
 62
   250
420
  2299925
370
    25
100
AcDbLine
 10
107.9011820095827
 20
-145.1070762109008
 30
0.0
 11
107.3871848004737
 21
-145.4887817663607
 31
0.0
  0
LINE
  5
F0
330
B3
100
AcDbEntity
  8
レイヤー 1
 62
   250
420
  2299925
370
    25
100
AcDbLine
 10
115.8965726389367
 20
-145.3926498219403
 30
0.0
 11
115.3825754298276
 21
-145.7747434329561
 31
0.0
  0
LINE
  5
F1
330
B3
100
AcDbEntity
  8
レイヤー 1
 62
   250
420
  2299925
370
    25
100
AcDbLine
 10
108.9009542062987
 20
-145.1428831553362
 30
0.0
 11
108.3869569971896
 21
-145.5246239885739
 31
0.0
  0
LINE
  5
F2
330
B3
100
AcDbEntity
  8
レイヤー 1
 62
   250
420
  2299925
370
    25
100
AcDbLine
 10
109.9000561252539
 20
-145.1783725997717
 30
0.0
 11
109.386023638368
 21
-145.5604309330096
 31
0.0
  0
LINE
  5
F3
330
B3
100
AcDbEntity
  8
レイヤー 1
 62
   250
420
  2299925
370
    25
100
AcDbLine
 10
95.89435537145767
 20
-144.6661039887888
 30
0.0
 11
95.89435537145767
 21
-152.928124264501
 31
0.0
  0
LINE
  5
F4
330
B3
100
AcDbEntity
  8
レイヤー 1
 62
   250
420
  2299925
370
    25
100
AcDbLine
 10
109.386023638368
 20
-145.5604309330096
 30
0.0
 11
108.9009542062987
 21
-145.1428831553362
 31
0.0
  0
LINE
  5
F5
330
B3
100
AcDbEntity
  8
レイヤー 1
 62
   250
420
  2299925
370
    25
100
AcDbLine
 10
110.3857958350838
 20
-145.5962731552229
 30
0.0
 11
109.9000561252539
 21
-145.1783725997717
 31
0.0
  0
LINE
  5
F6
330
B3
100
AcDbEntity
  8
レイヤー 1
 62
   250
420
  2299925
370
    25
100
AcDbLine
 10
115.3825754298276
 20
-145.7747434329561
 30
0.0
 11
114.8968004422208
 21
-145.3568428775048
 31
0.0
  0
LINE
  5
F7
330
B3
100
AcDbEntity
  8
レイヤー 1
 62
   250
420
  2299925
370
    25
100
AcDbLine
 10
110.8991227664322
 20
-145.2142148219849
 30
0.0
 11
110.3857958350838
 21
-145.5962731552229
 31
0.0
  0
LINE
  5
F8
330
B3
100
AcDbEntity
  8
レイヤー 1
 62
   250
420
  2299925
370
    25
100
AcDbLine
 10
111.3848624762622
 20
-145.6317625996584
 30
0.0
 11
110.8991227664322
 21
-145.2142148219849
 31
0.0
  0
LINE
  5
F9
330
B3
100
AcDbEntity
  8
レイヤー 1
 62
   250
420
  2299925
370
    25
100
AcDbLine
 10
116.381642071006
 20
-145.8101975996138
 30
0.0
 11
115.8965726389367
 21
-145.3926498219403
 31
0.0
  0
LINE
  5
FA
330
B3
100
AcDbEntity
  8
レイヤー 1
 62
   250
420
  2299925
370
    25
100
AcDbLine
 10
112.8979616043265
 20
-145.2855112108561
 30
0.0
 11
112.3839643952174
 21
-145.6672520440939
 31
0.0
  0
LINE
  5
FB
330
B3
100
AcDbEntity
  8
レイヤー 1
 62
   250
420
  2299925
370
    25
100
AcDbLine
 10
113.8977338010424
 20
-145.3213534330694
 30
0.0
 11
113.3837365919333
 21
-145.7030589885296
 31
0.0
  0
LINE
  5
FC
330
B3
100
AcDbEntity
  8
レイヤー 1
 62
   250
420
  2299925
370
    25
100
AcDbLine
 10
113.3837365919333
 20
-145.7030589885296
 30
0.0
 11
112.8979616043265
 21
-145.2855112108561
 31
0.0
  0
LINE
  5
FD
330
B3
100
AcDbEntity
  8
レイヤー 1
 62
   250
420
  2299925
370
    25
100
AcDbLine
 10
116.895639280115
 20
-145.4281392663761
 30
0.0
 11
116.381642071006
 21
-145.8101975996138
 31
0.0
  0
LINE
  5
FE
330
B3
100
AcDbEntity
  8
レイヤー 1
 62
   250
420
  2299925
370
    25
100
AcDbLine
 10
112.3839643952174
 20
-145.6672520440939
 30
0.0
 11
111.8988949631481
 21
-145.2497042664207
 31
0.0
  0
LINE
  5
FF
330
B3
100
AcDbEntity
  8
レイヤー 1
 62
   250
420
  2299925
370
    25
100
AcDbLine
 10
114.8968004422208
 20
-145.3568428775048
 30
0.0
 11
114.3828032331117
 21
-145.7389012107429
 31
0.0
  0
LINE
  5
100
330
B3
100
AcDbEntity
  8
レイヤー 1
 62
   250
420
  2299925
370
    25
100
AcDbLine
 10
114.3828032331117
 20
-145.7389012107429
 30
0.0
 11
113.8977338010424
 21
-145.3213534330694
 31
0.0
  0
LINE
  5
101
330
B3
100
AcDbEntity
  8
レイヤー 1
 62
   250
420
  2299925
370
    25
100
AcDbLine
 10
116.895639280115
 20
-145.4281392663761
 30
0.0
 11
116.895639280115
 21
-145.9283781551398
 31
0.0
  0
LINE
  5
102
330
B3
100
AcDbEntity
  8
レイヤー 1
 62
   250
420
  2299925
370
    25
100
AcDbLine
 10
96.89412756817359
 20
-145.9283781551398
 30
0.0
 11
116.895639280115
 21
-145.9283781551398
 31
0.0
  0
LINE
  5
103
330
B3
100
AcDbEntity
  8
レイヤー 1
 62
   250
420
  2299925
370
    25
100
AcDbLine
 10
105.9023431716885
 20
-145.0357445442517
 30
0.0
 11
105.3883459625791
 21
-145.4178028774897
 31
0.0
  0
LINE
  5
104
330
B3
100
AcDbEntity
  8
レイヤー 1
 62
   250
420
  2299925
370
    25
100
AcDbLine
 10
105.3883459625791
 20
-145.4178028774897
 30
0.0
 11
104.9032765305098
 21
-144.9999375998166
 31
0.0
  0
LINE
  5
105
330
B3
100
AcDbEntity
  8
レイヤー 1
 62
   250
420
  2299925
370
    25
100
AcDbLine
 10
104.9032765305098
 20
-144.9999375998166
 30
0.0
 11
104.3892793214008
 21
-145.3819959330543
 31
0.0
  0
LINE
  5
106
330
B3
100
AcDbEntity
  8
レイヤー 1
 62
   250
420
  2299925
370
    25
100
AcDbLine
 10
104.3892793214008
 20
-145.3819959330543
 30
0.0
 11
103.9042098893315
 21
-144.9644481553808
 31
0.0
  0
LINE
  5
107
330
B3
100
AcDbEntity
  8
レイヤー 1
 62
   250
420
  2299925
370
    25
100
AcDbLine
 10
103.9042098893315
 20
-144.9644481553808
 30
0.0
 11
103.3901774024455
 21
-145.3461537108407
 31
0.0
  0
LINE
  5
108
330
B3
100
AcDbEntity
  8
レイヤー 1
 62
   250
420
  2299925
370
    25
100
AcDbLine
 10
103.3901774024455
 20
-145.3461537108407
 30
0.0
 11
102.9044376926159
 21
-144.9286059331676
 31
0.0
  0
LINE
  5
109
330
B3
100
AcDbEntity
  8
レイヤー 1
 62
   250
420
  2299925
370
    25
100
AcDbLine
 10
102.9044376926159
 20
-144.9286059331676
 30
0.0
 11
102.3904404835062
 21
-145.3103114886275
 31
0.0
  0
LINE
  5
10A
330
B3
100
AcDbEntity
  8
レイヤー 1
 62
   250
420
  2299925
370
    25
100
AcDbLine
 10
102.3904404835062
 20
-145.3103114886275
 30
0.0
 11
101.9053710514372
 21
-144.8927989887321
 31
0.0
  0
LINE
  5
10B
330
B3
100
AcDbEntity
  8
レイヤー 1
 62
   250
420
  2299925
370
    25
100
AcDbLine
 10
101.9053710514372
 20
-144.8927989887321
 30
0.0
 11
101.3913385645512
 21
-145.2748573219698
 31
0.0
  0
LINE
  5
10C
330
B3
100
AcDbEntity
  8
レイヤー 1
 62
   250
420
  2299925
370
    25
100
AcDbLine
 10
101.3913385645512
 20
-145.2748573219698
 30
0.0
 11
100.9055988547213
 21
-144.8573095442964
 31
0.0
  0
LINE
  5
10D
330
B3
100
AcDbEntity
  8
レイヤー 1
 62
   250
420
  2299925
370
    25
100
AcDbLine
 10
100.9055988547213
 20
-144.8573095442964
 30
0.0
 11
100.3915663678353
 21
-145.2393678775344
 31
0.0
  0
LINE
  5
10E
330
B3
100
AcDbEntity
  8
レイヤー 1
 62
   250
420
  2299925
370
    25
100
AcDbLine
 10
100.3915663678353
 20
-145.2393678775344
 30
0.0
 11
99.90649693576608
 21
-144.8214673220831
 31
0.0
  0
LINE
  5
10F
330
B3
100
AcDbEntity
  8
レイヤー 1
 62
   250
420
  2299925
370
    25
100
AcDbLine
 10
99.90649693576608
 20
-144.8214673220831
 30
0.0
 11
99.39249972665734
 21
-145.2035256553211
 31
0.0
  0
LINE
  5
110
330
B3
100
AcDbEntity
  8
レイヤー 1
 62
   250
420
  2299925
370
    25
100
AcDbLine
 10
99.39249972665734
 20
-145.2035256553211
 30
0.0
 11
98.90743029458773
 21
-144.7859778776476
 31
0.0
  0
LINE
  5
111
330
B3
100
AcDbEntity
  8
レイヤー 1
 62
   250
420
  2299925
370
    25
100
AcDbLine
 10
98.90743029458773
 20
-144.7859778776476
 30
0.0
 11
98.39343308547867
 21
-145.1677187108854
 31
0.0
  0
LINE
  5
112
330
B3
100
AcDbEntity
  8
レイヤー 1
 62
   250
420
  2299925
370
    25
100
AcDbLine
 10
98.39343308547867
 20
-145.1677187108854
 30
0.0
 11
97.90765809787181
 21
-144.7501709332122
 31
0.0
  0
LINE
  5
113
330
B3
100
AcDbEntity
  8
レイヤー 1
 62
   250
420
  2299925
370
    25
100
AcDbLine
 10
97.90765809787181
 20
-144.7501709332122
 30
0.0
 11
97.39366088876275
 21
-145.1318764886721
 31
0.0
  0
LINE
  5
114
330
B3
100
AcDbEntity
  8
レイヤー 1
 62
   250
420
  2299925
370
    25
100
AcDbLine
 10
97.39366088876275
 20
-145.1318764886721
 30
0.0
 11
96.90859145669348
 21
-144.714328710999
 31
0.0
  0
LINE
  5
115
330
B3
100
AcDbEntity
  8
レイヤー 1
 62
   250
420
  2299925
370
    25
100
AcDbLine
 10
96.79459424744486
 20
-144.6661039887888
 30
0.0
 11
95.89435537145767
 21
-144.6661039887888
 31
0.0
  0
LINE
  5
116
330
B3
100
AcDbEntity
  8
レイヤー 1
 62
   250
420
  2299925
370
    25
100
AcDbLine
 10
96.89412756817359
 20
-145.9283781551398
 30
0.0
 11
96.89412756817359
 21
-153.9282492642513
 31
0.0
  0
SPLINE
  5
117
330
B3
100
AcDbEntity
  8
レイヤー 1
 62
   250
420
  2299925
370
     9
100
AcDbSpline
210
0.0
220
0.0
230
1.0
 70
     9
 71
     3
 72
    17
 73
    13
 74
     0
 42
0.0000000001
 43
0.0000000001
 40
0.0
 40
0.0
 40
0.0
 40
0.0
 40
1.0
 40
1.0
 40
1.0
 40
2.0
 40
2.0
 40
2.0
 40
3.0
 40
3.0
 40
3.0
 40
4.0
 40
4.0
 40
4.0
 40
4.0
 10
65.99321007626596
 20
-140.6663448231216
 30
0.0
 10
65.99321007626596
 20
-140.6108881564692
 30
0.0
 10
65.94844257740807
 20
-140.5660853787025
 30
0.0
 10
65.89330341214813
 20
-140.5660853787025
 30
0.0
 10
65.83784674689628
 20
-140.5660853787025
 30
0.0
 10
65.79307924803838
 20
-140.6108881564692
 30
0.0
 10
65.79307924803838
 20
-140.6663448231216
 30
0.0
 10
65.79307924803838
 20
-140.7214487119971
 30
0.0
 10
65.83784674689628
 20
-140.7662514897635
 30
0.0
 10
65.89330341214813
 20
-140.7662514897635
 30
0.0
 10
65.94844257740807
 20
-140.7662514897635
 30
0.0
 10
65.99321007626596
 20
-140.7214487119971
 30
0.0
 10
65.99321007626596
 20
-140.6663448231216
 30
0.0
  0
SPLINE
  5
118
330
B3
100
AcDbEntity
  8
レイヤー 1
 62
   250
420
  2299925
370
     9
100
AcDbSpline
210
0.0
220
0.0
230
1.0
 70
     9
 71
     3
 72
    17
 73
    13
 74
     0
 42
0.0000000001
 43
0.0000000001
 40
0.0
 40
0.0
 40
0.0
 40
0.0
 40
1.0
 40
1.0
 40
1.0
 40
2.0
 40
2.0
 40
2.0
 40
3.0
 40
3.0
 40
3.0
 40
4.0
 40
4.0
 40
4.0
 40
4.0
 10
63.76354874426047
 20
-145.4281392663761
 30
0.0
 10
63.76354874426047
 20
-145.3730353775008
 30
0.0
 10
63.71878124540258
 20
-145.3282325997344
 30
0.0
 10
63.66332458015073
 20
-145.3282325997344
 30
0.0
 10
63.60818774535689
 20
-145.3282325997344
 30
0.0
 10
63.56338496759049
 20
-145.3730353775008
 30
0.0
 10
63.56338496759049
 20
-145.4281392663761
 30
0.0
 10
63.56338496759049
 20
-145.4832784330288
 30
0.0
 10
63.60818774535689
 20
-145.5280459330177
 30
0.0
 10
63.66332458015073
 20
-145.5280459330177
 30
0.0
 10
63.71878124540258
 20
-145.5280459330177
 30
0.0
 10
63.76354874426047
 20
-145.4832784330288
 30
0.0
 10
63.76354874426047
 20
-145.4281392663761
 30
0.0
  0
SPLINE
  5
119
330
B3
100
AcDbEntity
  8
レイヤー 1
 62
   250
420
  2299925
370
     9
100
AcDbSpline
210
0.0
220
0.0
230
1.0
 70
     9
 71
     3
 72
    17
 73
    13
 74
     0
 42
0.0000000001
 43
0.0000000001
 40
0.0
 40
0.0
 40
0.0
 40
0.0
 40
1.0
 40
1.0
 40
1.0
 40
2.0
 40
2.0
 40
2.0
 40
3.0
 40
3.0
 40
3.0
 40
4.0
 40
4.0
 40
4.0
 40
4.0
 10
63.76354874426047
 20
-145.9283781551398
 30
0.0
 10
63.76354874426047
 20
-145.8732742662646
 30
0.0
 10
63.71878124540258
 20
-145.8284714884982
 30
0.0
 10
63.66332458015073
 20
-145.8284714884982
 30
0.0
 10
63.60818774535689
 20
-145.8284714884982
 30
0.0
 10
63.56338496759049
 20
-145.8732742662646
 30
0.0
 10
63.56338496759049
 20
-145.9283781551398
 30
0.0
 10
63.56338496759049
 20
-145.9835173217925
 30
0.0
 10
63.60818774535689
 20
-146.0282848217817
 30
0.0
 10
63.66332458015073
 20
-146.0282848217817
 30
0.0
 10
63.71878124540258
 20
-146.0282848217817
 30
0.0
 10
63.76354874426047
 20
-145.9835173217925
 30
0.0
 10
63.76354874426047
 20
-145.9283781551398
 30
0.0
  0
SPLINE
  5
11A
330
B3
100
AcDbEntity
  8
レイヤー 1
 62
   250
420
  2299925
370
     9
100
AcDbSpline
210
0.0
220
0.0
230
1.0
 70
     9
 71
     3
 72
    17
 73
    13
 74
     0
 42
0.0000000001
 43
0.0000000001
 40
0.0
 40
0.0
 40
0.0
 40
0.0
 40
1.0
 40
1.0
 40
1.0
 40
2.0
 40
2.0
 40
2.0
 40
3.0
 40
3.0
 40
3.0
 40
4.0
 40
4.0
 40
4.0
 40
4.0
 10
63.76354874426047
 20
-153.9282492642513
 30
0.0
 10
63.76354874426047
 20
-153.8731100975976
 30
0.0
 10
63.71878124540258
 20
-153.828342597609
 30
0.0
 10
63.66332458015073
 20
-153.828342597609
 30
0.0
 10
63.60818774535689
 20
-153.828342597609
 30
0.0
 10
63.56338496759049
 20
-153.8731100975976
 30
0.0
 10
63.56338496759049
 20
-153.9282492642513
 30
0.0
 10
63.56338496759049
 20
-153.9833531531256
 30
0.0
 10
63.60818774535689
 20
-154.0281559308923
 30
0.0
 10
63.66332458015073
 20
-154.0281559308923
 30
0.0
 10
63.71878124540258
 20
-154.0281559308923
 30
0.0
 10
63.76354874426047
 20
-153.9833531531256
 30
0.0
 10
63.76354874426047
 20
-153.9282492642513
 30
0.0
  0
SPLINE
  5
11B
330
B3
100
AcDbEntity
  8
レイヤー 1
 62
   250
420
  2299925
370
     9
100
AcDbSpline
210
0.0
220
0.0
230
1.0
 70
     9
 71
     3
 72
    17
 73
    13
 74
     0
 42
0.0000000001
 43
0.0000000001
 40
0.0
 40
0.0
 40
0.0
 40
0.0
 40
1.0
 40
1.0
 40
1.0
 40
2.0
 40
2.0
 40
2.0
 40
3.0
 40
3.0
 40
3.0
 40
4.0
 40
4.0
 40
4.0
 40
4.0
 10
86.99453218395456
 20
-140.6663448231216
 30
0.0
 10
86.99453218395456
 20
-140.6108881564692
 30
0.0
 10
86.94972940618848
 20
-140.5660853787025
 30
0.0
 10
86.89462259858206
 20
-140.5660853787025
 30
0.0
 10
86.83881315556142
 20
-140.5660853787025
 30
0.0
 10
86.79401037892699
 20
-140.6108881564692
 30
0.0
 10
86.79401037892699
 20
-140.6663448231216
 30
0.0
 10
86.79401037892699
 20
-140.7214487119971
 30
0.0
 10
86.83881315556142
 20
-140.7662514897635
 30
0.0
 10
86.89462259858206
 20
-140.7662514897635
 30
0.0
 10
86.94972940618848
 20
-140.7662514897635
 30
0.0
 10
86.99453218395456
 20
-140.7214487119971
 30
0.0
 10
86.99453218395456
 20
-140.6663448231216
 30
0.0
  0
SPLINE
  5
11C
330
B3
100
AcDbEntity
  8
レイヤー 1
 62
   250
420
  2299925
370
     9
100
AcDbSpline
210
0.0
220
0.0
230
1.0
 70
     9
 71
     3
 72
    17
 73
    13
 74
     0
 42
0.0000000001
 43
0.0000000001
 40
0.0
 40
0.0
 40
0.0
 40
0.0
 40
1.0
 40
1.0
 40
1.0
 40
2.0
 40
2.0
 40
2.0
 40
3.0
 40
3.0
 40
3.0
 40
4.0
 40
4.0
 40
4.0
 40
4.0
 10
116.9955459442329
 20
-140.6663448231216
 30
0.0
 10
116.9955459442329
 20
-140.6108881564692
 30
0.0
 10
116.9507821486497
 20
-140.5660853787025
 30
0.0
 10
116.895639280115
 20
-140.5660853787025
 30
0.0
 10
116.8405353926319
 20
-140.5660853787025
 30
0.0
 10
116.7957326159972
 20
-140.6108881564692
 30
0.0
 10
116.7957326159972
 20
-140.6663448231216
 30
0.0
 10
116.7957326159972
 20
-140.7214487119971
 30
0.0
 10
116.8405353926319
 20
-140.7662514897635
 30
0.0
 10
116.895639280115
 20
-140.7662514897635
 30
0.0
 10
116.9507821486497
 20
-140.7662514897635
 30
0.0
 10
116.9955459442329
 20
-140.7214487119971
 30
0.0
 10
116.9955459442329
 20
-140.6663448231216
 30
0.0
  0
SPLINE
  5
11D
330
B3
100
AcDbEntity
  8
レイヤー 1
 62
   250
420
  2299925
370
     9
100
AcDbSpline
210
0.0
220
0.0
230
1.0
 70
     9
 71
     3
 72
    17
 73
    13
 74
     0
 42
0.0000000001
 43
0.0000000001
 40
0.0
 40
0.0
 40
0.0
 40
0.0
 40
1.0
 40
1.0
 40
1.0
 40
2.0
 40
2.0
 40
2.0
 40
3.0
 40
3.0
 40
3.0
 40
4.0
 40
4.0
 40
4.0
 40
4.0
 10
95.99426203557582
 20
-140.6663448231216
 30
0.0
 10
95.99426203557582
 20
-140.6108881564692
 30
0.0
 10
95.94945925894075
 20
-140.5660853787025
 30
0.0
 10
95.89435537145767
 20
-140.5660853787025
 30
0.0
 10
95.83921620619772
 20
-140.5660853787025
 30
0.0
 10
95.79444870733984
 20
-140.6108881564692
 30
0.0
 10
95.79444870733984
 20
-140.6663448231216
 30
0.0
 10
95.79444870733984
 20
-140.7214487119971
 30
0.0
 10
95.83921620619772
 20
-140.7662514897635
 30
0.0
 10
95.89435537145767
 20
-140.7662514897635
 30
0.0
 10
95.94945925894075
 20
-140.7662514897635
 30
0.0
 10
95.99426203557582
 20
-140.7214487119971
 30
0.0
 10
95.99426203557582
 20
-140.6663448231216
 30
0.0
  0
LINE
  5
11E
330
B3
100
AcDbEntity
  8
レイヤー 1
 62
   250
420
  2299925
370
     9
100
AcDbLine
 10
63.66332458015073
 20
-145.4281392663761
 30
0.0
 11
63.66332458015073
 21
-140.1705862121349
 31
0.0
  0
LINE
  5
11F
330
B3
100
AcDbEntity
  8
レイヤー 1
 62
   250
420
  2299925
370
     9
100
AcDbLine
 10
63.66332458015073
 20
-145.4281392663761
 30
0.0
 11
63.66332458015073
 21
-145.9283781551398
 31
0.0
  0
LINE
  5
120
330
B3
100
AcDbEntity
  8
レイヤー 1
 62
   250
420
  2299925
370
     9
100
AcDbLine
 10
65.12333065401398
 20
-145.4281392663761
 30
0.0
 11
62.66355238343482
 21
-145.4281392663761
 31
0.0
  0
LINE
  5
121
330
B3
100
AcDbEntity
  8
レイヤー 1
 62
   250
420
  2299925
370
     9
100
AcDbLine
 10
65.12333065401398
 20
-145.9283781551398
 30
0.0
 11
62.66355238343482
 21
-145.9283781551398
 31
0.0
  0
INSERT
  5
123
330
B3
100
AcDbEntity
  8
レイヤー 1
100
AcDbBlockReference
  2
Block_2
 10
0.0
 20
0.0
 30
0.0
  0
LINE
  5
131
330
B3
100
AcDbEntity
  8
レイヤー 1
 62
   250
420
  2299925
370
     9
100
AcDbLine
 10
65.89330341214813
 20
-140.6663448231216
 30
0.0
 11
86.89462259858206
 21
-140.6663448231216
 31
0.0
  0
LINE
  5
132
330
B3
100
AcDbEntity
  8
レイヤー 1
 62
   250
420
  2299925
370
     9
100
AcDbLine
 10
65.89330341214813
 20
-142.8884214892332
 30
0.0
 11
65.89330341214813
 21
-139.6662198233719
 31
0.0
  0
INSERT
  5
134
330
B3
100
AcDbEntity
  8
レイヤー 1
100
AcDbBlockReference
  2
Block_4
 10
0.0
 20
0.0
 30
0.0
  0
LINE
  5
13F
330
B3
100
AcDbEntity
  8
レイヤー 1
 62
   250
420
  2299925
370
     9
100
AcDbLine
 10
63.66332458015073
 20
-145.9283781551398
 30
0.0
 11
63.66332458015073
 21
-153.9282492642513
 31
0.0
  0
LINE
  5
140
330
B3
100
AcDbEntity
  8
レイヤー 1
 62
   250
420
  2299925
370
     9
100
AcDbLine
 10
85.12487764373201
 20
-153.9282492642513
 30
0.0
 11
62.66355238343482
 21
-153.9282492642513
 31
0.0
  0
INSERT
  5
142
330
B3
100
AcDbEntity
  8
レイヤー 1
100
AcDbBlockReference
  2
Block_6
 10
0.0
 20
0.0
 30
0.0
  0
LINE
  5
149
330
B3
100
AcDbEntity
  8
レイヤー 1
 62
   250
420
  2299925
370
     9
100
AcDbLine
 10
116.895639280115
 20
-140.6663448231216
 30
0.0
 11
95.89435537145767
 21
-140.6663448231216
 31
0.0
  0
LINE
  5
14A
330
B3
100
AcDbEntity
  8
レイヤー 1
 62
   250
420
  2299925
370
     9
100
AcDbLine
 10
116.895639280115
 20
-142.8884214892332
 30
0.0
 11
116.895639280115
 21
-139.6662198233719
 31
0.0
  0
INSERT
  5
14C
330
B3
100
AcDbEntity
  8
レイヤー 1
100
AcDbBlockReference
  2
Block_7
 10
0.0
 20
0.0
 30
0.0
  0
LINE
  5
157
330
B3
100
AcDbEntity
  8
レイヤー 1
 62
   250
420
  2299925
370
     9
100
AcDbLine
 10
86.89462259858206
 20
-140.6663448231216
 30
0.0
 11
95.89435539927276
 21
-140.6663448231216
 31
0.0
  0
LINE
  5
158
330
B3
100
AcDbEntity
  8
レイヤー 1
 62
   250
420
  2299925
370
     9
100
AcDbLine
 10
86.89462259858206
 20
-142.1263862116459
 30
0.0
 11
86.89462259858206
 21
-139.6662198233719
 31
0.0
  0
LINE
  5
159
330
B3
100
AcDbEntity
  8
レイヤー 1
 62
   250
420
  2299925
370
     9
100
AcDbLine
 10
95.89435537145767
 20
-142.1263862116459
 30
0.0
 11
95.89435537145767
 21
-139.6662198233719
 31
0.0
  0
INSERT
  5
15B
330
B3
100
AcDbEntity
  8
レイヤー 1
100
AcDbBlockReference
  2
Block_9
 10
0.0
 20
0.0
 30
0.0
  0
LINE
  5
161
330
B3
100
AcDbEntity
  8
レイヤー 1
 62
   250
420
  2299925
370
     9
100
AcDbLine
 10
93.87036347864956
 20
-150.0735170429924
 30
0.0
 11
101.8705518856588
 21
-150.0735170429924
 31
0.0
  0
INSERT
  5
163
330
B3
100
AcDbEntity
  8
レイヤー 1
100
AcDbBlockReference
  2
Block_10
 10
0.0
 20
0.0
 30
0.0
  0
ENDBLK
  5
B6
330
B3
100
AcDbEntity
  8
0
100
AcDbBlockEnd
  0
BLOCK
  5
124
330
122
100
AcDbEntity
  8
0
100
AcDbBlockBegin
  2
Block_2
 70
     0
 10
0.0
 20
0.0
 30
0.0
  3
Block_2
  1

  0
INSERT
  5
127
330
122
100
AcDbEntity
  8
レイヤー 1
100
AcDbBlockReference
  2
Block_3
 10
0.0
 20
0.0
 30
0.0
  0
ENDBLK
  5
125
330
122
100
AcDbEntity
  8
0
100
AcDbBlockEnd
  0
BLOCK
  5
128
330
126
100
AcDbEntity
  8
0
100
AcDbBlockBegin
  2
Block_3
 70
     0
 10
0.0
 20
0.0
 30
0.0
  3
Block_3
  1

  0
SPLINE
  5
12A
330
126
100
AcDbEntity
  8
レイヤー 1
100
AcDbSpline
210
0.0
220
0.0
230
1.0
 70
     9
 71
     3
 72
    17
 73
    13
 74
     0
 42
0.0000000001
 43
0.0000000001
 40
0.0
 40
0.0
 40
0.0
 40
0.0
 40
1.0
 40
1.0
 40
1.0
 40
2.0
 40
2.0
 40
2.0
 40
3.0
 40
3.0
 40
3.0
 40
4.0
 40
4.0
 40
4.0
 40
4.0
 10
60.81902667750358
 20
-146.5829562350556
 30
0.0
 10
60.81902667750358
 20
-146.8327256577362
 30
0.0
 10
61.10238578116538
 20
-146.8792344467871
 30
0.0
 10
61.44723983923888
 20
-146.8792344467871
 30
0.0
 10
61.76677244549581
 20
-146.8792344467871
 30
0.0
 10
62.07562525574846
 20
-146.843060944192
 30
0.0
 10
62.07562525574846
 20
-146.5829562350556
 30
0.0
 10
62.07562525574846
 20
-146.3352538696662
 30
0.0
 10
61.79416095460354
 20
-146.2866780233241
 30
0.0
 10
61.44723983923888
 20
-146.2866780233241
 30
0.0
 10
61.12787948775622
 20
-146.2866780233241
 30
0.0
 10
60.81902667750358
 20
-146.3249185832104
 30
0.0
 10
60.81902667750358
 20
-146.5829562350556
 30
0.0
  0
SPLINE
  5
12B
330
126
100
AcDbEntity
  8
レイヤー 1
100
AcDbSpline
210
0.0
220
0.0
230
1.0
 70
     9
 71
     3
 72
    29
 73
    25
 74
     0
 42
0.0000000001
 43
0.0000000001
 40
0.0
 40
0.0
 40
0.0
 40
0.0
 40
1.0
 40
1.0
 40
1.0
 40
2.0
 40
2.0
 40
2.0
 40
3.0
 40
3.0
 40
3.0
 40
4.0
 40
4.0
 40
4.0
 40
5.0
 40
5.0
 40
5.0
 40
6.0
 40
6.0
 40
6.0
 40
7.0
 40
7.0
 40
7.0
 40
8.0
 40
8.0
 40
8.0
 40
8.0
 10
62.04169106521875
 20
-146.1850477065093
 30
0.0
 10
62.25115287072194
 20
-146.2932237047461
 30
0.0
 10
62.27027315066507
 20
-146.4665120076542
 30
0.0
 10
62.27027315066507
 20
-146.5829562350556
 30
0.0
 10
62.27027315066507
 20
-146.7438421942168
 30
0.0
 10
62.2237643616142
 20
-146.8854356186606
 30
0.0
 10
62.04169106521875
 20
-146.9805202540535
 30
0.0
 10
61.84721542507639
 20
-147.0842176281595
 30
0.0
 10
61.6101928556912
 20
-147.1035101628769
 30
0.0
 10
61.44723983923888
 20
-147.1035101628769
 30
0.0
 10
61.30340710272971
 20
-147.1035101628769
 30
0.0
 10
61.05174287753221
 20
-147.0862846854506
 30
0.0
 10
60.85278861325903
 20
-146.9805202540535
 30
0.0
 10
60.64970023440355
 20
-146.8726887653651
 30
0.0
 10
60.62644583987811
 20
-146.711802806204
 30
0.0
 10
60.62644583987811
 20
-146.5829562350556
 30
0.0
 10
60.62644583987811
 20
-146.4241373331856
 30
0.0
 10
60.67088757163784
 20
-146.2804768514507
 30
0.0
 10
60.85278861325903
 20
-146.1850477065093
 30
0.0
 10
61.04536945088449
 20
-146.0858289565341
 30
0.0
 10
61.27377928155656
 20
-146.0624023072344
 30
0.0
 10
61.44723983923888
 20
-146.0624023072344
 30
0.0
 10
61.61863333963006
 20
-146.0624023072344
 30
0.0
 10
61.84928248236754
 20
-146.0837618992429
 30
0.0
 10
62.04169106521875
 20
-146.1850477065093
 30
0.0
  0
HATCH
  5
12C
330
126
100
AcDbEntity
  8
レイヤー 1
 62
   250
420
  2299925
440
 33554687
100
AcDbHatch
 10
0.0
 20
0.0
 30
0.0
210
0.0
220
0.0
230
1.0
  2
SOLID
 70
     1
 71
     1
 91
        2
 92
        1
 93
        1
 72
     4
 94
        3
 73
     0
 74
     0
 95
       17
 96
       13
 40
0.0
 40
0.0
 40
0.0
 40
0.0
 40
1.0
 40
1.0
 40
1.0
 40
2.0
 40
2.0
 40
2.0
 40
3.0
 40
3.0
 40
3.0
 40
4.0
 40
4.0
 40
4.0
 40
4.0
 10
60.81902667750358
 20
-146.5829562350556
 10
60.81902667750358
 20
-146.8327256577362
 10
61.10238578116538
 20
-146.8792344467871
 10
61.44723983923888
 20
-146.8792344467871
 10
61.76677244549581
 20
-146.8792344467871
 10
62.07562525574846
 20
-146.843060944192
 10
62.07562525574846
 20
-146.5829562350556
 10
62.07562525574846
 20
-146.3352538696662
 10
61.79416095460354
 20
-146.2866780233241
 10
61.44723983923888
 20
-146.2866780233241
 10
61.12787948775622
 20
-146.2866780233241
 10
60.81902667750358
 20
-146.3249185832104
 10
60.81902667750358
 20
-146.5829562350556
 97
        0
 97
        1
330
12A
 92
        1
 93
        1
 72
     4
 94
        3
 73
     0
 74
     0
 95
       29
 96
       25
 40
0.0
 40
0.0
 40
0.0
 40
0.0
 40
1.0
 40
1.0
 40
1.0
 40
2.0
 40
2.0
 40
2.0
 40
3.0
 40
3.0
 40
3.0
 40
4.0
 40
4.0
 40
4.0
 40
5.0
 40
5.0
 40
5.0
 40
6.0
 40
6.0
 40
6.0
 40
7.0
 40
7.0
 40
7.0
 40
8.0
 40
8.0
 40
8.0
 40
8.0
 10
62.04169106521875
 20
-146.1850477065093
 10
62.25115287072194
 20
-146.2932237047461
 10
62.27027315066507
 20
-146.4665120076542
 10
62.27027315066507
 20
-146.5829562350556
 10
62.27027315066507
 20
-146.7438421942168
 10
62.2237643616142
 20
-146.8854356186606
 10
62.04169106521875
 20
-146.9805202540535
 10
61.84721542507639
 20
-147.0842176281595
 10
61.6101928556912
 20
-147.1035101628769
 10
61.44723983923888
 20
-147.1035101628769
 10
61.30340710272971
 20
-147.1035101628769
 10
61.05174287753221
 20
-147.0862846854506
 10
60.85278861325903
 20
-146.9805202540535
 10
60.64970023440355
 20
-146.8726887653651
 10
60.62644583987811
 20
-146.711802806204
 10
60.62644583987811
 20
-146.5829562350556
 10
60.62644583987811
 20
-146.4241373331856
 10
60.67088757163784
 20
-146.2804768514507
 10
60.85278861325903
 20
-146.1850477065093
 10
61.04536945088449
 20
-146.0858289565341
 10
61.27377928155656
 20
-146.0624023072344
 10
61.44723983923888
 20
-146.0624023072344
 10
61.61863333963006
 20
-146.0624023072344
 10
61.84928248236754
 20
-146.0837618992429
 10
62.04169106521875
 20
-146.1850477065093
 97
        0
 97
        1
330
12B
 75
     2
 76
     1
 98
        1
 10
0.0
 20
0.0
450
        0
451
        0
460
0.0
461
0.0
452
        0
462
0.0
453
        0
470

  0
SPLINE
  5
12D
330
126
100
AcDbEntity
  8
レイヤー 1
100
AcDbSpline
210
0.0
220
0.0
230
1.0
 70
    11
 71
     3
 72
    17
 73
    13
 74
     0
 42
0.0000000001
 43
0.0000000001
 40
0.0
 40
0.0
 40
0.0
 40
0.0
 40
1.0
 40
1.0
 40
1.0
 40
2.0
 40
2.0
 40
2.0
 40
3.0
 40
3.0
 40
3.0
 40
4.0
 40
4.0
 40
4.0
 40
4.0
 10
62.21945799225764
 20
-145.8460503107607
 30
0.0
 10
62.21945799225764
 20
-145.8460503107607
 30
0.0
 10
61.96779376706014
 20
-145.8460503107607
 30
0.0
 10
61.96779376706014
 20
-145.8460503107607
 30
0.0
 10
61.96779376706014
 20
-145.8460503107607
 30
0.0
 10
61.96779376706014
 20
-145.5942138307889
 30
0.0
 10
61.96779376706014
 20
-145.5942138307889
 30
0.0
 10
61.96779376706014
 20
-145.5942138307889
 30
0.0
 10
62.21945799225764
 20
-145.5942138307889
 30
0.0
 10
62.21945799225764
 20
-145.5942138307889
 30
0.0
 10
62.21945799225764
 20
-145.5942138307889
 30
0.0
 10
62.21945799225764
 20
-145.8460503107607
 30
0.0
 10
62.21945799225764
 20
-145.8460503107607
 30
0.0
  0
HATCH
  5
12E
330
126
100
AcDbEntity
  8
レイヤー 1
 62
   250
420
  2299925
440
 33554687
100
AcDbHatch
 10
0.0
 20
0.0
 30
0.0
210
0.0
220
0.0
230
1.0
  2
SOLID
 70
     1
 71
     1
 91
        1
 92
        1
 93
        1
 72
     4
 94
        3
 73
     0
 74
     0
 95
       17
 96
       13
 40
0.0
 40
0.0
 40
0.0
 40
0.0
 40
1.0
 40
1.0
 40
1.0
 40
2.0
 40
2.0
 40
2.0
 40
3.0
 40
3.0
 40
3.0
 40
4.0
 40
4.0
 40
4.0
 40
4.0
 10
62.21945799225764
 20
-145.8460503107607
 10
62.21945799225764
 20
-145.8460503107607
 10
61.96779376706014
 20
-145.8460503107607
 10
61.96779376706014
 20
-145.8460503107607
 10
61.96779376706014
 20
-145.8460503107607
 10
61.96779376706014
 20
-145.5942138307889
 10
61.96779376706014
 20
-145.5942138307889
 10
61.96779376706014
 20
-145.5942138307889
 10
62.21945799225764
 20
-145.5942138307889
 10
62.21945799225764
 20
-145.5942138307889
 10
62.21945799225764
 20
-145.5942138307889
 10
62.21945799225764
 20
-145.8460503107607
 10
62.21945799225764
 20
-145.8460503107607
 97
        0
 97
        1
330
12D
 75
     2
 76
     1
 98
        1
 10
0.0
 20
0.0
450
        0
451
        0
460
0.0
461
0.0
452
        0
462
0.0
453
        0
470

  0
SPLINE
  5
12F
330
126
100
AcDbEntity
  8
レイヤー 1
100
AcDbSpline
210
0.0
220
0.0
230
1.0
 70
     9
 71
     3
 72
    53
 73
    49
 74
     0
 42
0.0000000001
 43
0.0000000001
 40
0.0
 40
0.0
 40
0.0
 40
0.0
 40
1.0
 40
1.0
 40
1.0
 40
2.0
 40
2.0
 40
2.0
 40
3.0
 40
3.0
 40
3.0
 40
4.0
 40
4.0
 40
4.0
 40
5.0
 40
5.0
 40
5.0
 40
6.0
 40
6.0
 40
6.0
 40
7.0
 40
7.0
 40
7.0
 40
8.0
 40
8.0
 40
8.0
 40
9.0
 40
9.0
 40
9.0
 40
10.0
 40
10.0
 40
10.0
 40
11.0
 40
11.0
 40
11.0
 40
12.0
 40
12.0
 40
12.0
 40
13.0
 40
13.0
 40
13.0
 40
14.0
 40
14.0
 40
14.0
 40
15.0
 40
15.0
 40
15.0
 40
16.0
 40
16.0
 40
16.0
 40
16.0
 10
62.27027315066507
 20
-144.8769449507599
 30
0.0
 10
62.27027315066507
 20
-144.9551486182751
 30
0.0
 10
62.25339218278735
 20
-145.0567789350899
 30
0.0
 10
62.18983017108449
 20
-145.1584092519048
 30
0.0
 10
62.07975937033076
 20
-145.3316975548129
 30
0.0
 10
61.94867348711699
 20
-145.3530571468214
 30
0.0
 10
61.84084199842867
 20
-145.3720051719903
 30
0.0
 10
61.84084199842867
 20
-145.3720051719903
 30
0.0
 10
61.84084199842867
 20
-145.1497965131917
 30
0.0
 10
61.84084199842867
 20
-145.1497965131917
 30
0.0
 10
62.0396240079276
 20
-145.0950194949762
 30
0.0
 10
62.06925182910074
 20
-144.9678954715705
 30
0.0
 10
62.06925182910074
 20
-144.8748778934688
 30
0.0
 10
62.06925182910074
 20
-144.7353515263162
 30
0.0
 10
61.96986082435128
 20
-144.5830783058681
 30
0.0
 10
61.73714462432266
 20
-144.5830783058681
 30
0.0
 10
61.48117402976859
 20
-144.5830783058681
 30
0.0
 10
61.41141084619229
 20
-144.7629122901981
 30
0.0
 10
61.41141084619229
 20
-144.8834906321819
 30
0.0
 10
61.41141084619229
 20
-144.9151855106462
 30
0.0
 10
61.41141084619229
 20
-145.0567789350899
 30
0.0
 10
61.5404296721149
 20
-145.1456623986094
 30
0.0
 10
61.5404296721149
 20
-145.1456623986094
 30
0.0
 10
61.52130939217176
 20
-145.3213622683572
 30
0.0
 10
61.52130939217176
 20
-145.3213622683572
 30
0.0
 10
61.52130939217176
 20
-145.3213622683572
 30
0.0
 10
60.6751939409944
 20
-145.2007839263734
 30
0.0
 10
60.6751939409944
 20
-145.2007839263734
 30
0.0
 10
60.6751939409944
 20
-145.2007839263734
 30
0.0
 10
60.6751939409944
 20
-144.4221923467069
 30
0.0
 10
60.6751939409944
 20
-144.4221923467069
 30
0.0
 10
60.6751939409944
 20
-144.4221923467069
 30
0.0
 10
60.86984183591102
 20
-144.4221923467069
 30
0.0
 10
60.86984183591102
 20
-144.4221923467069
 30
0.0
 10
60.86984183591102
 20
-144.4221923467069
 30
0.0
 10
60.86984183591102
 20
-145.0378309099211
 30
0.0
 10
60.86984183591102
 20
-145.0378309099211
 30
0.0
 10
60.86984183591102
 20
-145.0378309099211
 30
0.0
 10
61.29289956149969
 20
-145.1032877241408
 30
0.0
 10
61.29289956149969
 20
-145.1032877241408
 30
0.0
 10
61.25896537096998
 20
-145.0419650245034
 30
0.0
 10
61.21883000856683
 20
-144.9596272424059
 30
0.0
 10
61.21883000856683
 20
-144.8411159577133
 30
0.0
 10
61.21883000856683
 20
-144.5872124204504
 30
0.0
 10
61.40503741954457
 20
-144.3501898510652
 30
0.0
 10
61.71802434437952
 20
-144.3501898510652
 30
0.0
 10
62.0354898933453
 20
-144.3501898510652
 30
0.0
 10
62.27027315066507
 20
-144.574465567155
 30
0.0
 10
62.27027315066507
 20
-144.8769449507599
 30
0.0
  0
HATCH
  5
130
330
126
100
AcDbEntity
  8
レイヤー 1
 62
   250
420
  2299925
440
 33554687
100
AcDbHatch
 10
0.0
 20
0.0
 30
0.0
210
0.0
220
0.0
230
1.0
  2
SOLID
 70
     1
 71
     1
 91
        1
 92
        1
 93
        1
 72
     4
 94
        3
 73
     0
 74
     0
 95
       53
 96
       49
 40
0.0
 40
0.0
 40
0.0
 40
0.0
 40
1.0
 40
1.0
 40
1.0
 40
2.0
 40
2.0
 40
2.0
 40
3.0
 40
3.0
 40
3.0
 40
4.0
 40
4.0
 40
4.0
 40
5.0
 40
5.0
 40
5.0
 40
6.0
 40
6.0
 40
6.0
 40
7.0
 40
7.0
 40
7.0
 40
8.0
 40
8.0
 40
8.0
 40
9.0
 40
9.0
 40
9.0
 40
10.0
 40
10.0
 40
10.0
 40
11.0
 40
11.0
 40
11.0
 40
12.0
 40
12.0
 40
12.0
 40
13.0
 40
13.0
 40
13.0
 40
14.0
 40
14.0
 40
14.0
 40
15.0
 40
15.0
 40
15.0
 40
16.0
 40
16.0
 40
16.0
 40
16.0
 10
62.27027315066507
 20
-144.8769449507599
 10
62.27027315066507
 20
-144.9551486182751
 10
62.25339218278735
 20
-145.0567789350899
 10
62.18983017108449
 20
-145.1584092519048
 10
62.07975937033076
 20
-145.3316975548129
 10
61.94867348711699
 20
-145.3530571468214
 10
61.84084199842867
 20
-145.3720051719903
 10
61.84084199842867
 20
-145.3720051719903
 10
61.84084199842867
 20
-145.1497965131917
 10
61.84084199842867
 20
-145.1497965131917
 10
62.0396240079276
 20
-145.0950194949762
 10
62.06925182910074
 20
-144.9678954715705
 10
62.06925182910074
 20
-144.8748778934688
 10
62.06925182910074
 20
-144.7353515263162
 10
61.96986082435128
 20
-144.5830783058681
 10
61.73714462432266
 20
-144.5830783058681
 10
61.48117402976859
 20
-144.5830783058681
 10
61.41141084619229
 20
-144.7629122901981
 10
61.41141084619229
 20
-144.8834906321819
 10
61.41141084619229
 20
-144.9151855106462
 10
61.41141084619229
 20
-145.0567789350899
 10
61.5404296721149
 20
-145.1456623986094
 10
61.5404296721149
 20
-145.1456623986094
 10
61.52130939217176
 20
-145.3213622683572
 10
61.52130939217176
 20
-145.3213622683572
 10
61.52130939217176
 20
-145.3213622683572
 10
60.6751939409944
 20
-145.2007839263734
 10
60.6751939409944
 20
-145.2007839263734
 10
60.6751939409944
 20
-145.2007839263734
 10
60.6751939409944
 20
-144.4221923467069
 10
60.6751939409944
 20
-144.4221923467069
 10
60.6751939409944
 20
-144.4221923467069
 10
60.86984183591102
 20
-144.4221923467069
 10
60.86984183591102
 20
-144.4221923467069
 10
60.86984183591102
 20
-144.4221923467069
 10
60.86984183591102
 20
-145.0378309099211
 10
60.86984183591102
 20
-145.0378309099211
 10
60.86984183591102
 20
-145.0378309099211
 10
61.29289956149969
 20
-145.1032877241408
 10
61.29289956149969
 20
-145.1032877241408
 10
61.25896537096998
 20
-145.0419650245034
 10
61.21883000856683
 20
-144.9596272424059
 10
61.21883000856683
 20
-144.8411159577133
 10
61.21883000856683
 20
-144.5872124204504
 10
61.40503741954457
 20
-144.3501898510652
 10
61.71802434437952
 20
-144.3501898510652
 10
62.0354898933453
 20
-144.3501898510652
 10
62.27027315066507
 20
-144.574465567155
 10
62.27027315066507
 20
-144.8769449507599
 97
        0
 97
        1
330
12F
 75
     2
 76
     1
 98
        1
 10
0.0
 20
0.0
450
        0
451
        0
460
0.0
461
0.0
452
        0
462
0.0
453
        0
470

  0
ENDBLK
  5
129
330
126
100
AcDbEntity
  8
0
100
AcDbBlockEnd
  0
BLOCK
  5
135
330
133
100
AcDbEntity
  8
0
100
AcDbBlockBegin
  2
Block_4
 70
     0
 10
0.0
 20
0.0
 30
0.0
  3
Block_4
  1

  0
INSERT
  5
138
330
133
100
AcDbEntity
  8
レイヤー 1
100
AcDbBlockReference
  2
Block_5
 10
0.0
 20
0.0
 30
0.0
  0
ENDBLK
  5
136
330
133
100
AcDbEntity
  8
0
100
AcDbBlockEnd
  0
BLOCK
  5
139
330
137
100
AcDbEntity
  8
0
100
AcDbBlockBegin
  2
Block_5
 70
     0
 10
0.0
 20
0.0
 30
0.0
  3
Block_5
  1

  0
SPLINE
  5
13B
330
137
100
AcDbEntity
  8
レイヤー 1
100
AcDbSpline
210
0.0
220
0.0
230
1.0
 70
     9
 71
     3
 72
    44
 73
    40
 74
     0
 42
0.0000000001
 43
0.0000000001
 40
0.0
 40
0.0
 40
0.0
 40
0.0
 40
1.0
 40
1.0
 40
1.0
 40
2.0
 40
2.0
 40
2.0
 40
3.0
 40
3.0
 40
3.0
 40
4.0
 40
4.0
 40
4.0
 40
5.0
 40
5.0
 40
5.0
 40
6.0
 40
6.0
 40
6.0
 40
7.0
 40
7.0
 40
7.0
 40
8.0
 40
8.0
 40
8.0
 40
9.0
 40
9.0
 40
9.0
 40
10.0
 40
10.0
 40
10.0
 40
11.0
 40
11.0
 40
11.0
 40
12.0
 40
12.0
 40
12.0
 40
13.0
 40
13.0
 40
13.0
 40
13.0
 10
75.82224526099236
 20
-139.3706488366851
 30
0.0
 10
75.60434297155031
 20
-139.5292954837809
 30
0.0
 10
75.5111531386743
 20
-139.6033650367137
 30
0.0
 10
75.46257729233227
 20
-139.7471977732229
 30
0.0
 10
75.46257729233227
 20
-139.7471977732229
 30
0.0
 10
76.24099661722448
 20
-139.7471977732229
 30
0.0
 10
76.24099661722448
 20
-139.7471977732229
 30
0.0
 10
76.24099661722448
 20
-139.7471977732229
 30
0.0
 10
76.24099661722448
 20
-139.9523532093695
 30
0.0
 10
76.24099661722448
 20
-139.9523532093695
 30
0.0
 10
76.24099661722448
 20
-139.9523532093695
 30
0.0
 10
75.21298012442592
 20
-139.9523532093695
 30
0.0
 10
75.21298012442592
 20
-139.9523532093695
 30
0.0
 10
75.24467500289022
 20
-139.5947522980006
 30
0.0
 10
75.31030407188423
 20
-139.5165486304854
 30
0.0
 10
75.6952934923609
 20
-139.2182033614628
 30
0.0
 10
75.95126408691496
 20
-139.0194213519639
 30
0.0
 10
76.01672090113472
 20
-138.9517252256787
 30
0.0
 10
76.01672090113472
 20
-138.8142659158172
 30
0.0
 10
76.01672090113472
 20
-138.6957546311247
 30
0.0
 10
75.94489066026724
 20
-138.5644964931366
 30
0.0
 10
75.74817570805949
 20
-138.5644964931366
 30
0.0
 10
75.48789874414886
 20
-138.5644964931366
 30
0.0
 10
75.47945826020999
 20
-138.7951456358741
 30
0.0
 10
75.47515189085344
 20
-138.9115898632756
 30
0.0
 10
75.47515189085344
 20
-138.9115898632756
 30
0.0
 10
75.25104842953793
 20
-138.9115898632756
 30
0.0
 10
75.25104842953793
 20
-138.9115898632756
 30
0.0
 10
75.2594889134768
 20
-138.7846380946441
 30
0.0
 10
75.26999645470681
 20
-138.6725002365992
 30
0.0
 10
75.35043943428739
 20
-138.5539889519066
 30
0.0
 10
75.46033798026686
 20
-138.3932752475197
 30
0.0
 10
75.64654539124461
 20
-138.35934105699
 30
0.0
 10
75.76298961864606
 20
-138.35934105699
 30
0.0
 10
76.04014755043441
 20
-138.35934105699
 30
0.0
 10
76.2473700438722
 20
-138.5434814106766
 30
0.0
 10
76.2473700438722
 20
-138.8163329731084
 30
0.0
 10
76.2473700438722
 20
-139.0447428037804
 30
0.0
 10
76.13109807124501
 20
-139.1443060633042
 30
0.0
 10
75.82224526099236
 20
-139.3706488366851
 30
0.0
  0
HATCH
  5
13C
330
137
100
AcDbEntity
  8
レイヤー 1
 62
   250
420
  2299925
440
 33554687
100
AcDbHatch
 10
0.0
 20
0.0
 30
0.0
210
0.0
220
0.0
230
1.0
  2
SOLID
 70
     1
 71
     1
 91
        1
 92
        1
 93
        1
 72
     4
 94
        3
 73
     0
 74
     0
 95
       44
 96
       40
 40
0.0
 40
0.0
 40
0.0
 40
0.0
 40
1.0
 40
1.0
 40
1.0
 40
2.0
 40
2.0
 40
2.0
 40
3.0
 40
3.0
 40
3.0
 40
4.0
 40
4.0
 40
4.0
 40
5.0
 40
5.0
 40
5.0
 40
6.0
 40
6.0
 40
6.0
 40
7.0
 40
7.0
 40
7.0
 40
8.0
 40
8.0
 40
8.0
 40
9.0
 40
9.0
 40
9.0
 40
10.0
 40
10.0
 40
10.0
 40
11.0
 40
11.0
 40
11.0
 40
12.0
 40
12.0
 40
12.0
 40
13.0
 40
13.0
 40
13.0
 40
13.0
 10
75.82224526099236
 20
-139.3706488366851
 10
75.60434297155031
 20
-139.5292954837809
 10
75.5111531386743
 20
-139.6033650367137
 10
75.46257729233227
 20
-139.7471977732229
 10
75.46257729233227
 20
-139.7471977732229
 10
76.24099661722448
 20
-139.7471977732229
 10
76.24099661722448
 20
-139.7471977732229
 10
76.24099661722448
 20
-139.7471977732229
 10
76.24099661722448
 20
-139.9523532093695
 10
76.24099661722448
 20
-139.9523532093695
 10
76.24099661722448
 20
-139.9523532093695
 10
75.21298012442592
 20
-139.9523532093695
 10
75.21298012442592
 20
-139.9523532093695
 10
75.24467500289022
 20
-139.5947522980006
 10
75.31030407188423
 20
-139.5165486304854
 10
75.6952934923609
 20
-139.2182033614628
 10
75.95126408691496
 20
-139.0194213519639
 10
76.01672090113472
 20
-138.9517252256787
 10
76.01672090113472
 20
-138.8142659158172
 10
76.01672090113472
 20
-138.6957546311247
 10
75.94489066026724
 20
-138.5644964931366
 10
75.74817570805949
 20
-138.5644964931366
 10
75.48789874414886
 20
-138.5644964931366
 10
75.47945826020999
 20
-138.7951456358741
 10
75.47515189085344
 20
-138.9115898632756
 10
75.47515189085344
 20
-138.9115898632756
 10
75.25104842953793
 20
-138.9115898632756
 10
75.25104842953793
 20
-138.9115898632756
 10
75.2594889134768
 20
-138.7846380946441
 10
75.26999645470681
 20
-138.6725002365992
 10
75.35043943428739
 20
-138.5539889519066
 10
75.46033798026686
 20
-138.3932752475197
 10
75.64654539124461
 20
-138.35934105699
 10
75.76298961864606
 20
-138.35934105699
 10
76.04014755043441
 20
-138.35934105699
 10
76.2473700438722
 20
-138.5434814106766
 10
76.2473700438722
 20
-138.8163329731084
 10
76.2473700438722
 20
-139.0447428037804
 10
76.13109807124501
 20
-139.1443060633042
 10
75.82224526099236
 20
-139.3706488366851
 97
        0
 97
        1
330
13B
 75
     2
 76
     1
 98
        1
 10
0.0
 20
0.0
450
        0
451
        0
460
0.0
461
0.0
452
        0
462
0.0
453
        0
470

  0
SPLINE
  5
13D
330
137
100
AcDbEntity
  8
レイヤー 1
100
AcDbSpline
210
0.0
220
0.0
230
1.0
 70
    11
 71
     3
 72
    26
 73
    22
 74
     0
 42
0.0000000001
 43
0.0000000001
 40
0.0
 40
0.0
 40
0.0
 40
0.0
 40
1.0
 40
1.0
 40
1.0
 40
2.0
 40
2.0
 40
2.0
 40
3.0
 40
3.0
 40
3.0
 40
4.0
 40
4.0
 40
4.0
 40
5.0
 40
5.0
 40
5.0
 40
6.0
 40
6.0
 40
6.0
 40
7.0
 40
7.0
 40
7.0
 40
7.0
 10
76.85732419953566
 20
-139.9523532093695
 30
0.0
 10
76.85732419953566
 20
-139.9523532093695
 30
0.0
 10
76.85732419953566
 20
-138.8480278515727
 30
0.0
 10
76.85732419953566
 20
-138.8480278515727
 30
0.0
 10
76.85732419953566
 20
-138.8480278515727
 30
0.0
 10
76.52728405204874
 20
-138.8480278515727
 30
0.0
 10
76.52728405204874
 20
-138.8480278515727
 30
0.0
 10
76.52728405204874
 20
-138.8480278515727
 30
0.0
 10
76.52728405204874
 20
-138.6998887457069
 30
0.0
 10
76.52728405204874
 20
-138.6998887457069
 30
0.0
 10
76.85939125682683
 20
-138.6852470898946
 30
0.0
 10
76.9059000458777
 20
-138.5222940734423
 30
0.0
 10
76.93552786705083
 20
-138.4080891581063
 30
0.0
 10
76.93552786705083
 20
-138.4080891581063
 30
0.0
 10
77.08159991562543
 20
-138.4080891581063
 30
0.0
 10
77.08159991562543
 20
-138.4080891581063
 30
0.0
 10
77.08159991562543
 20
-138.4080891581063
 30
0.0
 10
77.08159991562543
 20
-139.9523532093695
 30
0.0
 10
77.08159991562543
 20
-139.9523532093695
 30
0.0
 10
77.08159991562543
 20
-139.9523532093695
 30
0.0
 10
76.85732419953566
 20
-139.9523532093695
 30
0.0
 10
76.85732419953566
 20
-139.9523532093695
 30
0.0
  0
HATCH
  5
13E
330
137
100
AcDbEntity
  8
レイヤー 1
 62
   250
420
  2299925
440
 33554687
100
AcDbHatch
 10
0.0
 20
0.0
 30
0.0
210
0.0
220
0.0
230
1.0
  2
SOLID
 70
     1
 71
     1
 91
        1
 92
        1
 93
        1
 72
     4
 94
        3
 73
     0
 74
     0
 95
       26
 96
       22
 40
0.0
 40
0.0
 40
0.0
 40
0.0
 40
1.0
 40
1.0
 40
1.0
 40
2.0
 40
2.0
 40
2.0
 40
3.0
 40
3.0
 40
3.0
 40
4.0
 40
4.0
 40
4.0
 40
5.0
 40
5.0
 40
5.0
 40
6.0
 40
6.0
 40
6.0
 40
7.0
 40
7.0
 40
7.0
 40
7.0
 10
76.85732419953566
 20
-139.9523532093695
 10
76.85732419953566
 20
-139.9523532093695
 10
76.85732419953566
 20
-138.8480278515727
 10
76.85732419953566
 20
-138.8480278515727
 10
76.85732419953566
 20
-138.8480278515727
 10
76.52728405204874
 20
-138.8480278515727
 10
76.52728405204874
 20
-138.8480278515727
 10
76.52728405204874
 20
-138.8480278515727
 10
76.52728405204874
 20
-138.6998887457069
 10
76.52728405204874
 20
-138.6998887457069
 10
76.85939125682683
 20
-138.6852470898946
 10
76.9059000458777
 20
-138.5222940734423
 10
76.93552786705083
 20
-138.4080891581063
 10
76.93552786705083
 20
-138.4080891581063
 10
77.08159991562543
 20
-138.4080891581063
 10
77.08159991562543
 20
-138.4080891581063
 10
77.08159991562543
 20
-138.4080891581063
 10
77.08159991562543
 20
-139.9523532093695
 10
77.08159991562543
 20
-139.9523532093695
 10
77.08159991562543
 20
-139.9523532093695
 10
76.85732419953566
 20
-139.9523532093695
 10
76.85732419953566
 20
-139.9523532093695
 97
        0
 97
        1
330
13D
 75
     2
 76
     1
 98
        1
 10
0.0
 20
0.0
450
        0
451
        0
460
0.0
461
0.0
452
        0
462
0.0
453
        0
470

  0
ENDBLK
  5
13A
330
137
100
AcDbEntity
  8
0
100
AcDbBlockEnd
  0
BLOCK
  5
143
330
141
100
AcDbEntity
  8
0
100
AcDbBlockBegin
  2
Block_6
 70
     0
 10
0.0
 20
0.0
 30
0.0
  3
Block_6
  1

  0
SPLINE
  5
145
330
141
100
AcDbEntity
  8
レイヤー 1
100
AcDbSpline
210
0.0
220
0.0
230
1.0
 70
     9
 71
     3
 72
    17
 73
    13
 74
     0
 42
0.0000000001
 43
0.0000000001
 40
0.0
 40
0.0
 40
0.0
 40
0.0
 40
1.0
 40
1.0
 40
1.0
 40
2.0
 40
2.0
 40
2.0
 40
3.0
 40
3.0
 40
3.0
 40
4.0
 40
4.0
 40
4.0
 40
4.0
 10
62.20981172489894
 20
-149.9257323843935
 30
0.0
 10
62.20981172489894
 20
-150.0693928661284
 30
0.0
 10
62.29645587635297
 20
-150.222010596125
 30
0.0
 10
62.49954425520845
 20
-150.222010596125
 30
0.0
 10
62.70469969135508
 20
-150.222010596125
 30
0.0
 10
62.80633000816995
 20
-150.0948865727193
 30
0.0
 10
62.80633000816995
 20
-149.9257323843935
 30
0.0
 10
62.80633000816995
 20
-149.7396972281901
 30
0.0
 10
62.68368460889505
 20
-149.6294541726621
 30
0.0
 10
62.50591768185616
 20
-149.6294541726621
 30
0.0
 10
62.28370902305755
 20
-149.6294541726621
 30
0.0
 10
62.20981172489894
 20
-149.7924071891144
 30
0.0
 10
62.20981172489894
 20
-149.9257323843935
 30
0.0
  0
SPLINE
  5
146
330
141
100
AcDbEntity
  8
レイヤー 1
100
AcDbSpline
210
0.0
220
0.0
230
1.0
 70
     9
 71
     3
 72
    17
 73
    13
 74
     0
 42
0.0000000001
 43
0.0000000001
 40
0.0
 40
0.0
 40
0.0
 40
0.0
 40
1.0
 40
1.0
 40
1.0
 40
2.0
 40
2.0
 40
2.0
 40
3.0
 40
3.0
 40
3.0
 40
4.0
 40
4.0
 40
4.0
 40
4.0
 10
61.54973142992506
 20
-149.9257323843935
 30
0.0
 10
61.54973142992506
 20
-150.090752458137
 30
0.0
 10
61.64481606531797
 20
-150.1751572975256
 30
0.0
 10
61.78020831788828
 20
-150.1751572975256
 30
0.0
 10
61.90302597193744
 20
-150.1751572975256
 30
0.0
 10
62.02153725663003
 20
-150.1034993114324
 30
0.0
 10
62.02153725663003
 20
-149.9257323843935
 30
0.0
 10
62.02153725663003
 20
-149.7479654573547
 30
0.0
 10
61.90302597193744
 20
-149.6759629617129
 30
0.0
 10
61.78020831788828
 20
-149.6759629617129
 30
0.0
 10
61.64481606531797
 20
-149.6759629617129
 30
0.0
 10
61.54973142992506
 20
-149.7627793679412
 30
0.0
 10
61.54973142992506
 20
-149.9257323843935
 30
0.0
  0
SPLINE
  5
147
330
141
100
AcDbEntity
  8
レイヤー 1
100
AcDbSpline
210
0.0
220
0.0
230
1.0
 70
     9
 71
     3
 72
    29
 73
    25
 74
     0
 42
0.0000000001
 43
0.0000000001
 40
0.0
 40
0.0
 40
0.0
 40
0.0
 40
1.0
 40
1.0
 40
1.0
 40
2.0
 40
2.0
 40
2.0
 40
3.0
 40
3.0
 40
3.0
 40
4.0
 40
4.0
 40
4.0
 40
5.0
 40
5.0
 40
5.0
 40
6.0
 40
6.0
 40
6.0
 40
7.0
 40
7.0
 40
7.0
 40
8.0
 40
8.0
 40
8.0
 40
8.0
 10
63.00097790308656
 20
-149.9257323843935
 30
0.0
 10
63.00097790308656
 20
-150.1923827749519
 30
0.0
 10
62.86334633845083
 20
-150.4459418026663
 30
0.0
 10
62.51435816579502
 20
-150.4459418026663
 30
0.0
 10
62.25838757124096
 20
-150.4459418026663
 30
0.0
 10
62.1631306810738
 20
-150.3043483782225
 30
0.0
 10
62.10180798143635
 20
-150.1985839468253
 30
0.0
 10
62.04255233909005
 20
-150.3232964033914
 30
0.0
 10
61.92834742375403
 20
-150.3994330136154
 30
0.0
 10
61.76763371936711
 20
-150.3994330136154
 30
0.0
 10
61.49254284486993
 20
-150.3994330136154
 30
0.0
 10
61.3571505922996
 20
-150.2006510041165
 30
0.0
 10
61.3571505922996
 20
-149.9257323843935
 30
0.0
 10
61.3571505922996
 20
-149.6422010259575
 30
0.0
 10
61.50098332880879
 20
-149.4516872456232
 30
0.0
 10
61.76763371936711
 20
-149.4516872456232
 30
0.0
 10
61.92834742375403
 20
-149.4516872456232
 30
0.0
 10
62.04255233909005
 20
-149.5302354226869
 30
0.0
 10
62.10180798143635
 20
-149.6549478792529
 30
0.0
 10
62.15262313984379
 20
-149.5660644157335
 30
0.0
 10
62.24788003001094
 20
-149.4072455138635
 30
0.0
 10
62.51022405121272
 20
-149.4072455138635
 30
0.0
 10
62.88453367568512
 20
-149.4072455138635
 30
0.0
 10
63.00097790308656
 20
-149.6866427577172
 30
0.0
 10
63.00097790308656
 20
-149.9257323843935
 30
0.0
  0
HATCH
  5
148
330
141
100
AcDbEntity
  8
レイヤー 1
 62
   250
420
  2299925
440
 33554687
100
AcDbHatch
 10
0.0
 20
0.0
 30
0.0
210
0.0
220
0.0
230
1.0
  2
SOLID
 70
     1
 71
     1
 91
        3
 92
        1
 93
        1
 72
     4
 94
        3
 73
     0
 74
     0
 95
       17
 96
       13
 40
0.0
 40
0.0
 40
0.0
 40
0.0
 40
1.0
 40
1.0
 40
1.0
 40
2.0
 40
2.0
 40
2.0
 40
3.0
 40
3.0
 40
3.0
 40
4.0
 40
4.0
 40
4.0
 40
4.0
 10
62.20981172489894
 20
-149.9257323843935
 10
62.20981172489894
 20
-150.0693928661284
 10
62.29645587635297
 20
-150.222010596125
 10
62.49954425520845
 20
-150.222010596125
 10
62.70469969135508
 20
-150.222010596125
 10
62.80633000816995
 20
-150.0948865727193
 10
62.80633000816995
 20
-149.9257323843935
 10
62.80633000816995
 20
-149.7396972281901
 10
62.68368460889505
 20
-149.6294541726621
 10
62.50591768185616
 20
-149.6294541726621
 10
62.28370902305755
 20
-149.6294541726621
 10
62.20981172489894
 20
-149.7924071891144
 10
62.20981172489894
 20
-149.9257323843935
 97
        0
 97
        1
330
145
 92
        1
 93
        1
 72
     4
 94
        3
 73
     0
 74
     0
 95
       17
 96
       13
 40
0.0
 40
0.0
 40
0.0
 40
0.0
 40
1.0
 40
1.0
 40
1.0
 40
2.0
 40
2.0
 40
2.0
 40
3.0
 40
3.0
 40
3.0
 40
4.0
 40
4.0
 40
4.0
 40
4.0
 10
61.54973142992506
 20
-149.9257323843935
 10
61.54973142992506
 20
-150.090752458137
 10
61.64481606531797
 20
-150.1751572975256
 10
61.78020831788828
 20
-150.1751572975256
 10
61.90302597193744
 20
-150.1751572975256
 10
62.02153725663003
 20
-150.1034993114324
 10
62.02153725663003
 20
-149.9257323843935
 10
62.02153725663003
 20
-149.7479654573547
 10
61.90302597193744
 20
-149.6759629617129
 10
61.78020831788828
 20
-149.6759629617129
 10
61.64481606531797
 20
-149.6759629617129
 10
61.54973142992506
 20
-149.7627793679412
 10
61.54973142992506
 20
-149.9257323843935
 97
        0
 97
        1
330
146
 92
        1
 93
        1
 72
     4
 94
        3
 73
     0
 74
     0
 95
       29
 96
       25
 40
0.0
 40
0.0
 40
0.0
 40
0.0
 40
1.0
 40
1.0
 40
1.0
 40
2.0
 40
2.0
 40
2.0
 40
3.0
 40
3.0
 40
3.0
 40
4.0
 40
4.0
 40
4.0
 40
5.0
 40
5.0
 40
5.0
 40
6.0
 40
6.0
 40
6.0
 40
7.0
 40
7.0
 40
7.0
 40
8.0
 40
8.0
 40
8.0
 40
8.0
 10
63.00097790308656
 20
-149.9257323843935
 10
63.00097790308656
 20
-150.1923827749519
 10
62.86334633845083
 20
-150.4459418026663
 10
62.51435816579502
 20
-150.4459418026663
 10
62.25838757124096
 20
-150.4459418026663
 10
62.1631306810738
 20
-150.3043483782225
 10
62.10180798143635
 20
-150.1985839468253
 10
62.04255233909005
 20
-150.3232964033914
 10
61.92834742375403
 20
-150.3994330136154
 10
61.76763371936711
 20
-150.3994330136154
 10
61.49254284486993
 20
-150.3994330136154
 10
61.3571505922996
 20
-150.2006510041165
 10
61.3571505922996
 20
-149.9257323843935
 10
61.3571505922996
 20
-149.6422010259575
 10
61.50098332880879
 20
-149.4516872456232
 10
61.76763371936711
 20
-149.4516872456232
 10
61.92834742375403
 20
-149.4516872456232
 10
62.04255233909005
 20
-149.5302354226869
 10
62.10180798143635
 20
-149.6549478792529
 10
62.15262313984379
 20
-149.5660644157335
 10
62.24788003001094
 20
-149.4072455138635
 10
62.51022405121272
 20
-149.4072455138635
 10
62.88453367568512
 20
-149.4072455138635
 10
63.00097790308656
 20
-149.6866427577172
 10
63.00097790308656
 20
-149.9257323843935
 97
        0
 97
        1
330
147
 75
     2
 76
     1
 98
        1
 10
0.0
 20
0.0
450
        0
451
        0
460
0.0
461
0.0
452
        0
462
0.0
453
        0
470

  0
ENDBLK
  5
144
330
141
100
AcDbEntity
  8
0
100
AcDbBlockEnd
  0
BLOCK
  5
14D
330
14B
100
AcDbEntity
  8
0
100
AcDbBlockBegin
  2
Block_7
 70
     0
 10
0.0
 20
0.0
 30
0.0
  3
Block_7
  1

  0
INSERT
  5
150
330
14B
100
AcDbEntity
  8
レイヤー 1
100
AcDbBlockReference
  2
Block_8
 10
0.0
 20
0.0
 30
0.0
  0
ENDBLK
  5
14E
330
14B
100
AcDbEntity
  8
0
100
AcDbBlockEnd
  0
BLOCK
  5
151
330
14F
100
AcDbEntity
  8
0
100
AcDbBlockBegin
  2
Block_8
 70
     0
 10
0.0
 20
0.0
 30
0.0
  3
Block_8
  1

  0
SPLINE
  5
153
330
14F
100
AcDbEntity
  8
レイヤー 1
100
AcDbSpline
210
0.0
220
0.0
230
1.0
 70
     9
 71
     3
 72
    44
 73
    40
 74
     0
 42
0.0000000001
 43
0.0000000001
 40
0.0
 40
0.0
 40
0.0
 40
0.0
 40
1.0
 40
1.0
 40
1.0
 40
2.0
 40
2.0
 40
2.0
 40
3.0
 40
3.0
 40
3.0
 40
4.0
 40
4.0
 40
4.0
 40
5.0
 40
5.0
 40
5.0
 40
6.0
 40
6.0
 40
6.0
 40
7.0
 40
7.0
 40
7.0
 40
8.0
 40
8.0
 40
8.0
 40
9.0
 40
9.0
 40
9.0
 40
10.0
 40
10.0
 40
10.0
 40
11.0
 40
11.0
 40
11.0
 40
12.0
 40
12.0
 40
12.0
 40
13.0
 40
13.0
 40
13.0
 40
13.0
 10
105.8233425299677
 20
-139.3706488366851
 30
0.0
 10
105.6056124953
 20
-139.5292954837809
 30
0.0
 10
105.5125949171982
 20
-139.6033650367137
 30
0.0
 10
105.4636745613077
 20
-139.7471977732229
 30
0.0
 10
105.4636745613077
 20
-139.7471977732229
 30
0.0
 10
106.2422661409741
 20
-139.7471977732229
 30
0.0
 10
106.2422661409741
 20
-139.7471977732229
 30
0.0
 10
106.2422661409741
 20
-139.7471977732229
 30
0.0
 10
106.2422661409741
 20
-139.9523532093695
 30
0.0
 10
106.2422661409741
 20
-139.9523532093695
 30
0.0
 10
106.2422661409741
 20
-139.9523532093695
 30
0.0
 10
105.2142496481756
 20
-139.9523532093695
 30
0.0
 10
105.2142496481756
 20
-139.9523532093695
 30
0.0
 10
105.2459445266399
 20
-139.5947522980006
 30
0.0
 10
105.3114013408596
 20
-139.5165486304854
 30
0.0
 10
105.6965630161106
 20
-139.2182033614628
 30
0.0
 10
105.9525336106646
 20
-139.0194213519639
 30
0.0
 10
106.0179904248844
 20
-138.9517252256787
 30
0.0
 10
106.0179904248844
 20
-138.8142659158172
 30
0.0
 10
106.0179904248844
 20
-138.6957546311247
 30
0.0
 10
105.9459879292427
 20
-138.5644964931366
 30
0.0
 10
105.7492729770349
 20
-138.5644964931366
 30
0.0
 10
105.4891682678985
 20
-138.5644964931366
 30
0.0
 10
105.4809000387339
 20
-138.7951456358741
 30
0.0
 10
105.4764214146031
 20
-138.9115898632756
 30
0.0
 10
105.4764214146031
 20
-138.9115898632756
 30
0.0
 10
105.2521456985133
 20
-138.9115898632756
 30
0.0
 10
105.2521456985133
 20
-138.9115898632756
 30
0.0
 10
105.2607584372265
 20
-138.7846380946441
 30
0.0
 10
105.2714382332307
 20
-138.6725002365992
 30
0.0
 10
105.351708958037
 20
-138.5539889519066
 30
0.0
 10
105.4616075040165
 20
-138.3932752475197
 30
0.0
 10
105.6479871697685
 20
-138.35934105699
 30
0.0
 10
105.7640868876215
 20
-138.35934105699
 30
0.0
 10
106.0414170741841
 20
-138.35934105699
 30
0.0
 10
106.2488118223961
 20
-138.5434814106766
 30
0.0
 10
106.2488118223961
 20
-138.8163329731084
 30
0.0
 10
106.2488118223961
 20
-139.0447428037804
 30
0.0
 10
106.1323675949947
 20
-139.1443060633042
 30
0.0
 10
105.8233425299677
 20
-139.3706488366851
 30
0.0
  0
HATCH
  5
154
330
14F
100
AcDbEntity
  8
レイヤー 1
 62
   250
420
  2299925
440
 33554687
100
AcDbHatch
 10
0.0
 20
0.0
 30
0.0
210
0.0
220
0.0
230
1.0
  2
SOLID
 70
     1
 71
     1
 91
        1
 92
        1
 93
        1
 72
     4
 94
        3
 73
     0
 74
     0
 95
       44
 96
       40
 40
0.0
 40
0.0
 40
0.0
 40
0.0
 40
1.0
 40
1.0
 40
1.0
 40
2.0
 40
2.0
 40
2.0
 40
3.0
 40
3.0
 40
3.0
 40
4.0
 40
4.0
 40
4.0
 40
5.0
 40
5.0
 40
5.0
 40
6.0
 40
6.0
 40
6.0
 40
7.0
 40
7.0
 40
7.0
 40
8.0
 40
8.0
 40
8.0
 40
9.0
 40
9.0
 40
9.0
 40
10.0
 40
10.0
 40
10.0
 40
11.0
 40
11.0
 40
11.0
 40
12.0
 40
12.0
 40
12.0
 40
13.0
 40
13.0
 40
13.0
 40
13.0
 10
105.8233425299677
 20
-139.3706488366851
 10
105.6056124953
 20
-139.5292954837809
 10
105.5125949171982
 20
-139.6033650367137
 10
105.4636745613077
 20
-139.7471977732229
 10
105.4636745613077
 20
-139.7471977732229
 10
106.2422661409741
 20
-139.7471977732229
 10
106.2422661409741
 20
-139.7471977732229
 10
106.2422661409741
 20
-139.7471977732229
 10
106.2422661409741
 20
-139.9523532093695
 10
106.2422661409741
 20
-139.9523532093695
 10
106.2422661409741
 20
-139.9523532093695
 10
105.2142496481756
 20
-139.9523532093695
 10
105.2142496481756
 20
-139.9523532093695
 10
105.2459445266399
 20
-139.5947522980006
 10
105.3114013408596
 20
-139.5165486304854
 10
105.6965630161106
 20
-139.2182033614628
 10
105.9525336106646
 20
-139.0194213519639
 10
106.0179904248844
 20
-138.9517252256787
 10
106.0179904248844
 20
-138.8142659158172
 10
106.0179904248844
 20
-138.6957546311247
 10
105.9459879292427
 20
-138.5644964931366
 10
105.7492729770349
 20
-138.5644964931366
 10
105.4891682678985
 20
-138.5644964931366
 10
105.4809000387339
 20
-138.7951456358741
 10
105.4764214146031
 20
-138.9115898632756
 10
105.4764214146031
 20
-138.9115898632756
 10
105.2521456985133
 20
-138.9115898632756
 10
105.2521456985133
 20
-138.9115898632756
 10
105.2607584372265
 20
-138.7846380946441
 10
105.2714382332307
 20
-138.6725002365992
 10
105.351708958037
 20
-138.5539889519066
 10
105.4616075040165
 20
-138.3932752475197
 10
105.6479871697685
 20
-138.35934105699
 10
105.7640868876215
 20
-138.35934105699
 10
106.0414170741841
 20
-138.35934105699
 10
106.2488118223961
 20
-138.5434814106766
 10
106.2488118223961
 20
-138.8163329731084
 10
106.2488118223961
 20
-139.0447428037804
 10
106.1323675949947
 20
-139.1443060633042
 10
105.8233425299677
 20
-139.3706488366851
 97
        0
 97
        1
330
153
 75
     2
 76
     1
 98
        1
 10
0.0
 20
0.0
450
        0
451
        0
460
0.0
461
0.0
452
        0
462
0.0
453
        0
470

  0
SPLINE
  5
155
330
14F
100
AcDbEntity
  8
レイヤー 1
100
AcDbSpline
210
0.0
220
0.0
230
1.0
 70
    11
 71
     3
 72
    26
 73
    22
 74
     0
 42
0.0000000001
 43
0.0000000001
 40
0.0
 40
0.0
 40
0.0
 40
0.0
 40
1.0
 40
1.0
 40
1.0
 40
2.0
 40
2.0
 40
2.0
 40
3.0
 40
3.0
 40
3.0
 40
4.0
 40
4.0
 40
4.0
 40
5.0
 40
5.0
 40
5.0
 40
6.0
 40
6.0
 40
6.0
 40
7.0
 40
7.0
 40
7.0
 40
7.0
 10
106.8585937232853
 20
-139.9523532093695
 30
0.0
 10
106.8585937232853
 20
-139.9523532093695
 30
0.0
 10
106.8585937232853
 20
-138.8480278515727
 30
0.0
 10
106.8585937232853
 20
-138.8480278515727
 30
0.0
 10
106.8585937232853
 20
-138.8480278515727
 30
0.0
 10
106.5285535757984
 20
-138.8480278515727
 30
0.0
 10
106.5285535757984
 20
-138.8480278515727
 30
0.0
 10
106.5285535757984
 20
-138.8480278515727
 30
0.0
 10
106.5285535757984
 20
-138.6998887457069
 30
0.0
 10
106.5285535757984
 20
-138.6998887457069
 30
0.0
 10
106.8606607805765
 20
-138.6852470898946
 30
0.0
 10
106.9071695696274
 20
-138.5222940734423
 30
0.0
 10
106.9367973908005
 20
-138.4080891581063
 30
0.0
 10
106.9367973908005
 20
-138.4080891581063
 30
0.0
 10
107.0828694393751
 20
-138.4080891581063
 30
0.0
 10
107.0828694393751
 20
-138.4080891581063
 30
0.0
 10
107.0828694393751
 20
-138.4080891581063
 30
0.0
 10
107.0828694393751
 20
-139.9523532093695
 30
0.0
 10
107.0828694393751
 20
-139.9523532093695
 30
0.0
 10
107.0828694393751
 20
-139.9523532093695
 30
0.0
 10
106.8585937232853
 20
-139.9523532093695
 30
0.0
 10
106.8585937232853
 20
-139.9523532093695
 30
0.0
  0
HATCH
  5
156
330
14F
100
AcDbEntity
  8
レイヤー 1
 62
   250
420
  2299925
440
 33554687
100
AcDbHatch
 10
0.0
 20
0.0
 30
0.0
210
0.0
220
0.0
230
1.0
  2
SOLID
 70
     1
 71
     1
 91
        1
 92
        1
 93
        1
 72
     4
 94
        3
 73
     0
 74
     0
 95
       26
 96
       22
 40
0.0
 40
0.0
 40
0.0
 40
0.0
 40
1.0
 40
1.0
 40
1.0
 40
2.0
 40
2.0
 40
2.0
 40
3.0
 40
3.0
 40
3.0
 40
4.0
 40
4.0
 40
4.0
 40
5.0
 40
5.0
 40
5.0
 40
6.0
 40
6.0
 40
6.0
 40
7.0
 40
7.0
 40
7.0
 40
7.0
 10
106.8585937232853
 20
-139.9523532093695
 10
106.8585937232853
 20
-139.9523532093695
 10
106.8585937232853
 20
-138.8480278515727
 10
106.8585937232853
 20
-138.8480278515727
 10
106.8585937232853
 20
-138.8480278515727
 10
106.5285535757984
 20
-138.8480278515727
 10
106.5285535757984
 20
-138.8480278515727
 10
106.5285535757984
 20
-138.8480278515727
 10
106.5285535757984
 20
-138.6998887457069
 10
106.5285535757984
 20
-138.6998887457069
 10
106.8606607805765
 20
-138.6852470898946
 10
106.9071695696274
 20
-138.5222940734423
 10
106.9367973908005
 20
-138.4080891581063
 10
106.9367973908005
 20
-138.4080891581063
 10
107.0828694393751
 20
-138.4080891581063
 10
107.0828694393751
 20
-138.4080891581063
 10
107.0828694393751
 20
-138.4080891581063
 10
107.0828694393751
 20
-139.9523532093695
 10
107.0828694393751
 20
-139.9523532093695
 10
107.0828694393751
 20
-139.9523532093695
 10
106.8585937232853
 20
-139.9523532093695
 10
106.8585937232853
 20
-139.9523532093695
 97
        0
 97
        1
330
155
 75
     2
 76
     1
 98
        1
 10
0.0
 20
0.0
450
        0
451
        0
460
0.0
461
0.0
452
        0
462
0.0
453
        0
470

  0
ENDBLK
  5
152
330
14F
100
AcDbEntity
  8
0
100
AcDbBlockEnd
  0
BLOCK
  5
15C
330
15A
100
AcDbEntity
  8
0
100
AcDbBlockBegin
  2
Block_9
 70
     0
 10
0.0
 20
0.0
 30
0.0
  3
Block_9
  1

  0
SPLINE
  5
15E
330
15A
100
AcDbEntity
  8
レイヤー 1
100
AcDbSpline
210
0.0
220
0.0
230
1.0
 70
     9
 71
     3
 72
    17
 73
    13
 74
     0
 42
0.0000000001
 43
0.0000000001
 40
0.0
 40
0.0
 40
0.0
 40
0.0
 40
1.0
 40
1.0
 40
1.0
 40
2.0
 40
2.0
 40
2.0
 40
3.0
 40
3.0
 40
3.0
 40
4.0
 40
4.0
 40
4.0
 40
4.0
 10
91.50776500533487
 20
-138.5519218946155
 30
0.0
 10
91.38925372064226
 20
-138.5519218946155
 30
0.0
 10
91.21355385089453
 20
-138.6089382248963
 30
0.0
 10
91.21355385089453
 20
-138.8945366406236
 30
0.0
 10
91.21355385089453
 20
-139.1208794140045
 30
0.0
 10
91.35342472759568
 20
-139.2161363041716
 30
0.0
 10
91.488816980166
 20
-139.2161363041716
 30
0.0
 10
91.75098874659351
 20
-139.2161363041716
 30
0.0
 10
91.78922930647978
 20
-139.0066744986685
 30
0.0
 10
91.78922930647978
 20
-138.8904025260413
 30
0.0
 10
91.78922930647978
 20
-138.7147026562935
 30
0.0
 10
91.69380016153835
 20
-138.5519218946155
 30
0.0
 10
91.50776500533487
 20
-138.5519218946155
 30
0.0
  0
SPLINE
  5
15F
330
15A
100
AcDbEntity
  8
レイヤー 1
100
AcDbSpline
210
0.0
220
0.0
230
1.0
 70
     9
 71
     3
 72
    32
 73
    28
 74
     0
 42
0.0000000001
 43
0.0000000001
 40
0.0
 40
0.0
 40
0.0
 40
0.0
 40
1.0
 40
1.0
 40
1.0
 40
2.0
 40
2.0
 40
2.0
 40
3.0
 40
3.0
 40
3.0
 40
4.0
 40
4.0
 40
4.0
 40
5.0
 40
5.0
 40
5.0
 40
6.0
 40
6.0
 40
6.0
 40
7.0
 40
7.0
 40
7.0
 40
8.0
 40
8.0
 40
8.0
 40
9.0
 40
9.0
 40
9.0
 40
9.0
 10
91.46745738815743
 20
-140.003168367777
 30
0.0
 10
91.29416908524937
 20
-140.003168367777
 30
0.0
 10
91.04853377715107
 20
-139.9332329294264
 30
0.0
 10
91.01063772681332
 20
-139.6011257246483
 30
0.0
 10
91.01063772681332
 20
-139.6011257246483
 30
0.0
 10
91.22423364689881
 20
-139.6011257246483
 30
0.0
 10
91.22423364689881
 20
-139.6011257246483
 30
0.0
 10
91.23491344290307
 20
-139.6603813669946
 30
0.0
 10
91.26660832136739
 20
-139.8085204728604
 30
0.0
 10
91.4695244454486
 20
-139.8085204728604
 30
0.0
 10
91.76166854259777
 20
-139.8085204728604
 30
0.0
 10
91.79956459293553
 20
-139.4784803253734
 30
0.0
 10
91.81231144623096
 20
-139.2733248892268
 30
0.0
 10
91.72136092542036
 20
-139.3535956140331
 30
0.0
 10
91.65383705390945
 20
-139.4107841990883
 30
0.0
 10
91.47193601228826
 20
-139.4107841990883
 30
0.0
 10
91.29210202795823
 20
-139.4107841990883
 30
0.0
 10
90.98927813480477
 20
-139.3050197676911
 30
0.0
 10
90.98927813480477
 20
-138.8988430099801
 30
0.0
 10
90.98927813480477
 20
-138.5793104037232
 30
0.0
 10
91.1884046538522
 20
-138.35934105699
 30
0.0
 10
91.50569794804372
 20
-138.35934105699
 30
0.0
 10
92.01970619444299
 20
-138.35934105699
 30
0.0
 10
92.03038599044727
 20
-138.9136569205667
 30
0.0
 10
92.03038599044727
 20
-139.1272528406522
 30
0.0
 10
92.03038599044727
 20
-139.3579019833897
 30
0.0
 10
92.01109345572985
 20
-140.003168367777
 30
0.0
 10
91.46745738815743
 20
-140.003168367777
 30
0.0
  0
HATCH
  5
160
330
15A
100
AcDbEntity
  8
レイヤー 1
 62
   250
420
  2299925
440
 33554687
100
AcDbHatch
 10
0.0
 20
0.0
 30
0.0
210
0.0
220
0.0
230
1.0
  2
SOLID
 70
     1
 71
     1
 91
        2
 92
        1
 93
        1
 72
     4
 94
        3
 73
     0
 74
     0
 95
       17
 96
       13
 40
0.0
 40
0.0
 40
0.0
 40
0.0
 40
1.0
 40
1.0
 40
1.0
 40
2.0
 40
2.0
 40
2.0
 40
3.0
 40
3.0
 40
3.0
 40
4.0
 40
4.0
 40
4.0
 40
4.0
 10
91.50776500533487
 20
-138.5519218946155
 10
91.38925372064226
 20
-138.5519218946155
 10
91.21355385089453
 20
-138.6089382248963
 10
91.21355385089453
 20
-138.8945366406236
 10
91.21355385089453
 20
-139.1208794140045
 10
91.35342472759568
 20
-139.2161363041716
 10
91.488816980166
 20
-139.2161363041716
 10
91.75098874659351
 20
-139.2161363041716
 10
91.78922930647978
 20
-139.0066744986685
 10
91.78922930647978
 20
-138.8904025260413
 10
91.78922930647978
 20
-138.7147026562935
 10
91.69380016153835
 20
-138.5519218946155
 10
91.50776500533487
 20
-138.5519218946155
 97
        0
 97
        1
330
15E
 92
        1
 93
        1
 72
     4
 94
        3
 73
     0
 74
     0
 95
       32
 96
       28
 40
0.0
 40
0.0
 40
0.0
 40
0.0
 40
1.0
 40
1.0
 40
1.0
 40
2.0
 40
2.0
 40
2.0
 40
3.0
 40
3.0
 40
3.0
 40
4.0
 40
4.0
 40
4.0
 40
5.0
 40
5.0
 40
5.0
 40
6.0
 40
6.0
 40
6.0
 40
7.0
 40
7.0
 40
7.0
 40
8.0
 40
8.0
 40
8.0
 40
9.0
 40
9.0
 40
9.0
 40
9.0
 10
91.46745738815743
 20
-140.003168367777
 10
91.29416908524937
 20
-140.003168367777
 10
91.04853377715107
 20
-139.9332329294264
 10
91.01063772681332
 20
-139.6011257246483
 10
91.01063772681332
 20
-139.6011257246483
 10
91.22423364689881
 20
-139.6011257246483
 10
91.22423364689881
 20
-139.6011257246483
 10
91.23491344290307
 20
-139.6603813669946
 10
91.26660832136739
 20
-139.8085204728604
 10
91.4695244454486
 20
-139.8085204728604
 10
91.76166854259777
 20
-139.8085204728604
 10
91.79956459293553
 20
-139.4784803253734
 10
91.81231144623096
 20
-139.2733248892268
 10
91.72136092542036
 20
-139.3535956140331
 10
91.65383705390945
 20
-139.4107841990883
 10
91.47193601228826
 20
-139.4107841990883
 10
91.29210202795823
 20
-139.4107841990883
 10
90.98927813480477
 20
-139.3050197676911
 10
90.98927813480477
 20
-138.8988430099801
 10
90.98927813480477
 20
-138.5793104037232
 10
91.1884046538522
 20
-138.35934105699
 10
91.50569794804372
 20
-138.35934105699
 10
92.01970619444299
 20
-138.35934105699
 10
92.03038599044727
 20
-138.9136569205667
 10
92.03038599044727
 20
-139.1272528406522
 10
92.03038599044727
 20
-139.3579019833897
 10
92.01109345572985
 20
-140.003168367777
 10
91.46745738815743
 20
-140.003168367777
 97
        0
 97
        1
330
15F
 75
     2
 76
     1
 98
        1
 10
0.0
 20
0.0
450
        0
451
        0
460
0.0
461
0.0
452
        0
462
0.0
453
        0
470

  0
ENDBLK
  5
15D
330
15A
100
AcDbEntity
  8
0
100
AcDbBlockEnd
  0
BLOCK
  5
164
330
162
100
AcDbEntity
  8
0
100
AcDbBlockBegin
  2
Block_10
 70
     0
 10
0.0
 20
0.0
 30
0.0
  3
Block_10
  1

  0
SPLINE
  5
166
330
162
100
AcDbEntity
  8
レイヤー 1
100
AcDbSpline
210
0.0
220
0.0
230
1.0
 70
    11
 71
     3
 72
    26
 73
    22
 74
     0
 42
0.0000000001
 43
0.0000000001
 40
0.0
 40
0.0
 40
0.0
 40
0.0
 40
1.0
 40
1.0
 40
1.0
 40
2.0
 40
2.0
 40
2.0
 40
3.0
 40
3.0
 40
3.0
 40
4.0
 40
4.0
 40
4.0
 40
5.0
 40
5.0
 40
5.0
 40
6.0
 40
6.0
 40
6.0
 40
7.0
 40
7.0
 40
7.0
 40
7.0
 10
98.83031545923341
 20
-149.3049261779515
 30
0.0
 10
98.83031545923341
 20
-149.3049261779515
 30
0.0
 10
98.83031545923341
 20
-148.2007730749289
 30
0.0
 10
98.83031545923341
 20
-148.2007730749289
 30
0.0
 10
98.83031545923341
 20
-148.2007730749289
 30
0.0
 10
98.50027531174646
 20
-148.2007730749289
 30
0.0
 10
98.50027531174646
 20
-148.2007730749289
 30
0.0
 10
98.50027531174646
 20
-148.2007730749289
 30
0.0
 10
98.50027531174646
 20
-148.0526339690632
 30
0.0
 10
98.50027531174646
 20
-148.0526339690632
 30
0.0
 10
98.83238251652455
 20
-148.0379923132509
 30
0.0
 10
98.87889130557542
 20
-147.8750392967986
 30
0.0
 10
98.90851912674857
 20
-147.7608343814626
 30
0.0
 10
98.90851912674857
 20
-147.7608343814626
 30
0.0
 10
99.05459117532316
 20
-147.7608343814626
 30
0.0
 10
99.05459117532316
 20
-147.7608343814626
 30
0.0
 10
99.05459117532316
 20
-147.7608343814626
 30
0.0
 10
99.05459117532316
 20
-149.3049261779515
 30
0.0
 10
99.05459117532316
 20
-149.3049261779515
 30
0.0
 10
99.05459117532316
 20
-149.3049261779515
 30
0.0
 10
98.83031545923341
 20
-149.3049261779515
 30
0.0
 10
98.83031545923341
 20
-149.3049261779515
 30
0.0
  0
HATCH
  5
167
330
162
100
AcDbEntity
  8
レイヤー 1
 62
   250
420
  2299925
440
 33554687
100
AcDbHatch
 10
0.0
 20
0.0
 30
0.0
210
0.0
220
0.0
230
1.0
  2
SOLID
 70
     1
 71
     1
 91
        1
 92
        1
 93
        1
 72
     4
 94
        3
 73
     0
 74
     0
 95
       26
 96
       22
 40
0.0
 40
0.0
 40
0.0
 40
0.0
 40
1.0
 40
1.0
 40
1.0
 40
2.0
 40
2.0
 40
2.0
 40
3.0
 40
3.0
 40
3.0
 40
4.0
 40
4.0
 40
4.0
 40
5.0
 40
5.0
 40
5.0
 40
6.0
 40
6.0
 40
6.0
 40
7.0
 40
7.0
 40
7.0
 40
7.0
 10
98.83031545923341
 20
-149.3049261779515
 10
98.83031545923341
 20
-149.3049261779515
 10
98.83031545923341
 20
-148.2007730749289
 10
98.83031545923341
 20
-148.2007730749289
 10
98.83031545923341
 20
-148.2007730749289
 10
98.50027531174646
 20
-148.2007730749289
 10
98.50027531174646
 20
-148.2007730749289
 10
98.50027531174646
 20
-148.2007730749289
 10
98.50027531174646
 20
-148.0526339690632
 10
98.50027531174646
 20
-148.0526339690632
 10
98.83238251652455
 20
-148.0379923132509
 10
98.87889130557542
 20
-147.8750392967986
 10
98.90851912674857
 20
-147.7608343814626
 10
98.90851912674857
 20
-147.7608343814626
 10
99.05459117532316
 20
-147.7608343814626
 10
99.05459117532316
 20
-147.7608343814626
 10
99.05459117532316
 20
-147.7608343814626
 10
99.05459117532316
 20
-149.3049261779515
 10
99.05459117532316
 20
-149.3049261779515
 10
99.05459117532316
 20
-149.3049261779515
 10
98.83031545923341
 20
-149.3049261779515
 10
98.83031545923341
 20
-149.3049261779515
 97
        0
 97
        1
330
166
 75
     2
 76
     1
 98
        1
 10
0.0
 20
0.0
450
        0
451
        0
460
0.0
461
0.0
452
        0
462
0.0
453
        0
470

  0
ENDBLK
  5
165
330
162
100
AcDbEntity
  8
0
100
AcDbBlockEnd
  0
BLOCK
  5
16A
330
168
100
AcDbEntity
  8
0
100
AcDbBlockBegin
  2
Block_11
 70
     0
 10
0.0
 20
0.0
 30
0.0
  3
Block_11
  1

  0
INSERT
  5
16D
330
168
100
AcDbEntity
  8
レイヤー 1
100
AcDbBlockReference
  2
Block_12
 10
0.0
 20
0.0
 30
0.0
  0
INSERT
  5
174
330
168
100
AcDbEntity
  8
レイヤー 1
100
AcDbBlockReference
  2
Block_13
 10
0.0
 20
0.0
 30
0.0
  0
ENDBLK
  5
16B
330
168
100
AcDbEntity
  8
0
100
AcDbBlockEnd
  0
BLOCK
  5
16E
330
16C
100
AcDbEntity
  8
0
100
AcDbBlockBegin
  2
Block_12
 70
     0
 10
0.0
 20
0.0
 30
0.0
  3
Block_12
  1

  0
LINE
  5
170
330
16C
100
AcDbEntity
  8
レイヤー 1
 62
    18
420
        0
370
     9
100
AcDbLine
 10
108.2477861674068
 20
-147.1021050992909
 30
0.0
 11
109.0591044800417
 21
-147.6867637102558
 31
0.0
  0
LINE
  5
171
330
16C
100
AcDbEntity
  8
レイヤー 1
 62
    18
420
        0
370
     9
100
AcDbLine
 10
108.2477861674068
 20
-147.1021050992909
 30
0.0
 11
110.8253922127577
 21
-150.2592192651678
 31
0.0
  0
LINE
  5
172
330
16C
100
AcDbEntity
  8
レイヤー 1
 62
    18
420
        0
370
     9
100
AcDbLine
 10
108.2477861674068
 20
-147.1021050992909
 30
0.0
 11
108.6581019902721
 21
-148.0140356546182
 31
0.0
  0
ENDBLK
  5
16F
330
16C
100
AcDbEntity
  8
0
100
AcDbBlockEnd
  0
BLOCK
  5
175
330
173
100
AcDbEntity
  8
0
100
AcDbBlockBegin
  2
Block_13
 70
     0
 10
0.0
 20
0.0
 30
0.0
  3
Block_13
  1

  0
INSERT
  5
178
330
173
100
AcDbEntity
  8
レイヤー 1
100
AcDbBlockReference
  2
Block_14
 10
0.0
 20
0.0
 30
0.0
  0
ENDBLK
  5
176
330
173
100
AcDbEntity
  8
0
100
AcDbBlockEnd
  0
BLOCK
  5
179
330
177
100
AcDbEntity
  8
0
100
AcDbBlockBegin
  2
Block_14
 70
     0
 10
0.0
 20
0.0
 30
0.0
  3
Block_14
  1

  0
SPLINE
  5
17B
330
177
100
AcDbEntity
  8
レイヤー 1
100
AcDbSpline
210
0.0
220
0.0
230
1.0
 70
     9
 71
     3
 72
    17
 73
    13
 74
     0
 42
0.0000000001
 43
0.0000000001
 40
0.0
 40
0.0
 40
0.0
 40
0.0
 40
1.0
 40
1.0
 40
1.0
 40
2.0
 40
2.0
 40
2.0
 40
3.0
 40
3.0
 40
3.0
 40
4.0
 40
4.0
 40
4.0
 40
4.0
 10
112.4920138607659
 20
-150.7063910213512
 30
0.0
 10
112.4751328928881
 20
-150.7360188425243
 30
0.0
 10
112.424489989255
 20
-150.8293809301746
 30
0.0
 10
112.4138101932507
 20
-150.8483289553435
 30
0.0
 10
112.604323973585
 20
-150.9075845976898
 30
0.0
 10
112.625339056045
 20
-150.9137857695632
 30
0.0
 10
112.6973415516868
 20
-150.9413465334452
 30
0.0
 10
112.7521185699022
 20
-150.8545301272169
 30
0.0
 10
112.7755452192019
 20
-150.780460574284
 30
0.0
 10
112.7903591297885
 20
-150.7063910213512
 30
0.0
 10
112.7903591297885
 20
-150.7063910213512
 30
0.0
 10
112.4920138607659
 20
-150.7063910213512
 30
0.0
 10
112.4920138607659
 20
-150.7063910213512
 30
0.0
  0
SPLINE
  5
17C
330
177
100
AcDbEntity
  8
レイヤー 1
100
AcDbSpline
210
0.0
220
0.0
230
1.0
 70
    11
 71
     3
 72
    20
 73
    16
 74
     0
 42
0.0000000001
 43
0.0000000001
 40
0.0
 40
0.0
 40
0.0
 40
0.0
 40
1.0
 40
1.0
 40
1.0
 40
2.0
 40
2.0
 40
2.0
 40
3.0
 40
3.0
 40
3.0
 40
4.0
 40
4.0
 40
4.0
 40
5.0
 40
5.0
 40
5.0
 40
5.0
 10
112.4286241038373
 20
-149.8561414555915
 30
0.0
 10
112.4286241038373
 20
-149.8561414555915
 30
0.0
 10
112.396929225373
 20
-149.8561414555915
 30
0.0
 10
112.396929225373
 20
-149.8561414555915
 30
0.0
 10
112.4434380144238
 20
-149.9553602055667
 30
0.0
 10
112.4751328928881
 20
-150.0359754399215
 30
0.0
 10
112.5088948286436
 20
-150.1627549537787
 30
0.0
 10
112.5088948286436
 20
-150.1627549537787
 30
0.0
 10
112.7162895768556
 20
-150.1627549537787
 30
0.0
 10
112.7162895768556
 20
-150.1627549537787
 30
0.0
 10
112.7479844553199
 20
-150.069737375677
 30
0.0
 10
112.7714111046196
 20
-149.9849880267398
 30
0.0
 10
112.7944932443708
 20
-149.8561414555915
 30
0.0
 10
112.7944932443708
 20
-149.8561414555915
 30
0.0
 10
112.4286241038373
 20
-149.8561414555915
 30
0.0
 10
112.4286241038373
 20
-149.8561414555915
 30
0.0
  0
SPLINE
  5
17D
330
177
100
AcDbEntity
  8
レイヤー 1
100
AcDbSpline
210
0.0
220
0.0
230
1.0
 70
     9
 71
     3
 72
   242
 73
   238
 74
     0
 42
0.0000000001
 43
0.0000000001
 40
0.0
 40
0.0
 40
0.0
 40
0.0
 40
1.0
 40
1.0
 40
1.0
 40
2.0
 40
2.0
 40
2.0
 40
3.0
 40
3.0
 40
3.0
 40
4.0
 40
4.0
 40
4.0
 40
5.0
 40
5.0
 40
5.0
 40
6.0
 40
6.0
 40
6.0
 40
7.0
 40
7.0
 40
7.0
 40
8.0
 40
8.0
 40
8.0
 40
9.0
 40
9.0
 40
9.0
 40
10.0
 40
10.0
 40
10.0
 40
11.0
 40
11.0
 40
11.0
 40
12.0
 40
12.0
 40
12.0
 40
13.0
 40
13.0
 40
13.0
 40
14.0
 40
14.0
 40
14.0
 40
15.0
 40
15.0
 40
15.0
 40
16.0
 40
16.0
 40
16.0
 40
17.0
 40
17.0
 40
17.0
 40
18.0
 40
18.0
 40
18.0
 40
19.0
 40
19.0
 40
19.0
 40
20.0
 40
20.0
 40
20.0
 40
21.0
 40
21.0
 40
21.0
 40
22.0
 40
22.0
 40
22.0
 40
23.0
 40
23.0
 40
23.0
 40
24.0
 40
24.0
 40
24.0
 40
25.0
 40
25.0
 40
25.0
 40
26.0
 40
26.0
 40
26.0
 40
27.0
 40
27.0
 40
27.0
 40
28.0
 40
28.0
 40
28.0
 40
29.0
 40
29.0
 40
29.0
 40
30.0
 40
30.0
 40
30.0
 40
31.0
 40
31.0
 40
31.0
 40
32.0
 40
32.0
 40
32.0
 40
33.0
 40
33.0
 40
33.0
 40
34.0
 40
34.0
 40
34.0
 40
35.0
 40
35.0
 40
35.0
 40
36.0
 40
36.0
 40
36.0
 40
37.0
 40
37.0
 40
37.0
 40
38.0
 40
38.0
 40
38.0
 40
39.0
 40
39.0
 40
39.0
 40
40.0
 40
40.0
 40
40.0
 40
41.0
 40
41.0
 40
41.0
 40
42.0
 40
42.0
 40
42.0
 40
43.0
 40
43.0
 40
43.0
 40
44.0
 40
44.0
 40
44.0
 40
45.0
 40
45.0
 40
45.0
 40
46.0
 40
46.0
 40
46.0
 40
47.0
 40
47.0
 40
47.0
 40
48.0
 40
48.0
 40
48.0
 40
49.0
 40
49.0
 40
49.0
 40
50.0
 40
50.0
 40
50.0
 40
51.0
 40
51.0
 40
51.0
 40
52.0
 40
52.0
 40
52.0
 40
53.0
 40
53.0
 40
53.0
 40
54.0
 40
54.0
 40
54.0
 40
55.0
 40
55.0
 40
55.0
 40
56.0
 40
56.0
 40
56.0
 40
57.0
 40
57.0
 40
57.0
 40
58.0
 40
58.0
 40
58.0
 40
59.0
 40
59.0
 40
59.0
 40
60.0
 40
60.0
 40
60.0
 40
61.0
 40
61.0
 40
61.0
 40
62.0
 40
62.0
 40
62.0
 40
63.0
 40
63.0
 40
63.0
 40
64.0
 40
64.0
 40
64.0
 40
65.0
 40
65.0
 40
65.0
 40
66.0
 40
66.0
 40
66.0
 40
67.0
 40
67.0
 40
67.0
 40
68.0
 40
68.0
 40
68.0
 40
69.0
 40
69.0
 40
69.0
 40
70.0
 40
70.0
 40
70.0
 40
71.0
 40
71.0
 40
71.0
 40
72.0
 40
72.0
 40
72.0
 40
73.0
 40
73.0
 40
73.0
 40
74.0
 40
74.0
 40
74.0
 40
75.0
 40
75.0
 40
75.0
 40
76.0
 40
76.0
 40
76.0
 40
77.0
 40
77.0
 40
77.0
 40
78.0
 40
78.0
 40
78.0
 40
79.0
 40
79.0
 40
79.0
 40
79.0
 10
113.0570095203468
 20
-150.3215738556488
 30
0.0
 10
113.0570095203468
 20
-150.3215738556488
 30
0.0
 10
112.8031059830839
 20
-150.3215738556488
 30
0.0
 10
112.8031059830839
 20
-150.3215738556488
 30
0.0
 10
112.8031059830839
 20
-150.3215738556488
 30
0.0
 10
112.5257757965213
 20
-150.3215738556488
 30
0.0
 10
112.5257757965213
 20
-150.3215738556488
 30
0.0
 10
112.5257757965213
 20
-150.3215738556488
 30
0.0
 10
112.652899819927
 20
-150.3639485301173
 30
0.0
 10
112.652899819927
 20
-150.3639485301173
 30
0.0
 10
112.6635796159313
 20
-150.3680826446996
 30
0.0
 10
112.6759819596782
 20
-150.3742838165731
 30
0.0
 10
112.6759819596782
 20
-150.3870306698685
 30
0.0
 10
112.6759819596782
 20
-150.4083902618771
 30
0.0
 10
112.6442870812139
 20
-150.4145914337505
 30
0.0
 10
112.6232719987539
 20
-150.4187255483328
 30
0.0
 10
112.6125922027496
 20
-150.4421521976325
 30
0.0
 10
112.5829643815765
 20
-150.5076090118523
 30
0.0
 10
112.5640163564076
 20
-150.552050743612
 30
0.0
 10
112.5640163564076
 20
-150.552050743612
 30
0.0
 10
112.8348008615482
 20
-150.552050743612
 30
0.0
 10
112.8348008615482
 20
-150.552050743612
 30
0.0
 10
112.9257513823588
 20
-150.552050743612
 30
0.0
 10
113.1224663345666
 20
-150.5479166290297
 30
0.0
 10
113.2640597590103
 20
-150.5393038903165
 30
0.0
 10
113.2640597590103
 20
-150.5393038903165
 30
0.0
 10
113.2640597590103
 20
-150.7170708173554
 30
0.0
 10
113.2640597590103
 20
-150.7170708173554
 30
0.0
 10
113.1817219769129
 20
-150.7129367027731
 30
0.0
 10
113.1607068944529
 20
-150.7129367027731
 30
0.0
 10
112.9808729101228
 20
-150.7088025881908
 30
0.0
 10
112.9491780316585
 20
-150.86314286593
 30
0.0
 10
112.9047362998988
 20
-150.9434135907364
 30
0.0
 10
112.8602945681391
 20
-151.0133490290869
 30
0.0
 10
112.9808729101228
 20
-151.0726046714332
 30
0.0
 10
113.08663734152
 20
-151.1401285429441
 30
0.0
 10
113.190334715626
 20
-151.2228108345901
 30
0.0
 10
113.190334715626
 20
-151.2228108345901
 30
0.0
 10
113.0718234309334
 20
-151.3898979656247
 30
0.0
 10
113.0718234309334
 20
-151.3898979656247
 30
0.0
 10
113.0483967816337
 20
-151.3709499404559
 30
0.0
 10
113.0356499283383
 20
-151.3623372017427
 30
0.0
 10
112.9236843250677
 20
-151.2775878528056
 30
0.0
 10
112.8751084787257
 20
-151.2396918024678
 30
0.0
 10
112.8158528363794
 20
-151.2035182998727
 30
0.0
 10
112.7352376020245
 20
-151.159076568113
 30
0.0
 10
112.5237087392302
 20
-151.345456233865
 30
0.0
 10
112.3187255578578
 20
-151.3685383736162
 30
0.0
 10
112.0286485179998
 20
-151.3981661947893
 30
0.0
 10
112.0286485179998
 20
-151.3981661947893
 30
0.0
 10
111.9249511438937
 20
-151.2183322104593
 30
0.0
 10
111.9249511438937
 20
-151.2183322104593
 30
0.0
 10
112.2425889476338
 20
-151.214198095877
 30
0.0
 10
112.417944307833
 20
-151.1887043892861
 30
0.0
 10
112.570217528281
 20
-151.0788058433067
 30
0.0
 10
112.4517062435884
 20
-151.0281629396735
 30
0.0
 10
112.3631672896175
 20
-151.0006021757915
 30
0.0
 10
112.3269937870224
 20
-150.9878553224961
 30
0.0
 10
112.3080457618535
 20
-151.0154160863781
 30
0.0
 10
112.293231851267
 20
-151.0343641115469
 30
0.0
 10
112.2656710873849
 20
-151.0681260473024
 30
0.0
 10
112.2656710873849
 20
-151.0681260473024
 30
0.0
 10
112.0689561351772
 20
-150.9857882652049
 30
0.0
 10
112.0689561351772
 20
-150.9857882652049
 30
0.0
 10
112.1516384268232
 20
-150.9055175403986
 30
0.0
 10
112.2129611264606
 20
-150.8100883954572
 30
0.0
 10
112.2698052019672
 20
-150.7088025881908
 30
0.0
 10
112.0796359311815
 20
-150.7129367027731
 30
0.0
 10
112.0582763391729
 20
-150.7129367027731
 30
0.0
 10
111.9759385570754
 20
-150.7170708173554
 30
0.0
 10
111.9759385570754
 20
-150.7170708173554
 30
0.0
 10
111.9759385570754
 20
-150.5393038903165
 30
0.0
 10
111.9759385570754
 20
-150.5393038903165
 30
0.0
 10
112.1154649242281
 20
-150.5458495717385
 30
0.0
 10
112.3249267297312
 20
-150.5499836863208
 30
0.0
 10
112.3504204363221
 20
-150.5499836863208
 30
0.0
 10
112.3673014041998
 20
-150.5162217505654
 30
0.0
 10
112.4224229319638
 20
-150.3956434085816
 30
0.0
 10
112.4413709571327
 20
-150.3215738556488
 30
0.0
 10
112.4224229319638
 20
-150.3215738556488
 30
0.0
 10
112.2446560049249
 20
-150.3277750275222
 30
0.0
 10
112.0500081100083
 20
-150.3405218808176
 30
0.0
 10
112.0500081100083
 20
-150.3405218808176
 30
0.0
 10
112.0500081100083
 20
-150.4738470760968
 30
0.0
 10
112.0500081100083
 20
-150.4738470760968
 30
0.0
 10
112.0014322636663
 20
-150.4993407826877
 30
0.0
 10
111.94217662132
 20
-150.531035661152
 30
0.0
 10
111.8088514260408
 20
-150.5964924753717
 30
0.0
 10
111.8088514260408
 20
-150.5964924753717
 30
0.0
 10
111.8088514260408
 20
-150.7425645239463
 30
0.0
 10
111.8088514260408
 20
-150.7425645239463
 30
0.0
 10
111.8088514260408
 20
-150.7425645239463
 30
0.0
 10
111.8088514260408
 20
-151.2100639812947
 30
0.0
 10
111.8088514260408
 20
-151.2100639812947
 30
0.0
 10
111.8088514260408
 20
-151.3368434951519
 30
0.0
 10
111.7726779234457
 20
-151.3960991374982
 30
0.0
 10
111.4891465650096
 20
-151.3878309083336
 30
0.0
 10
111.4891465650096
 20
-151.3878309083336
 30
0.0
 10
111.3857937004521
 20
-151.1804361601215
 30
0.0
 10
111.3857937004521
 20
-151.1804361601215
 30
0.0
 10
111.4491834573807
 20
-151.193183013417
 30
0.0
 10
111.4977593037228
 20
-151.1973171279993
 30
0.0
 10
111.5380669209002
 20
-151.1973171279993
 30
0.0
 10
111.6142035311242
 20
-151.1973171279993
 30
0.0
 10
111.62453881758
 20
-151.1738904786995
 30
0.0
 10
111.62453881758
 20
-151.1084336644798
 30
0.0
 10
111.62453881758
 20
-151.1084336644798
 30
0.0
 10
111.62453881758
 20
-150.6791747670177
 30
0.0
 10
111.62453881758
 20
-150.6791747670177
 30
0.0
 10
111.5273871248959
 20
-150.7191378746466
 30
0.0
 10
111.5105061570182
 20
-150.7256835560686
 30
0.0
 10
111.4639973679673
 20
-150.7446315812374
 30
0.0
 10
111.459863253385
 20
-150.7656466636975
 30
0.0
 10
111.4553846292542
 20
-150.7952744848706
 30
0.0
 10
111.4364366040853
 20
-150.7952744848706
 30
0.0
 10
111.4278238653722
 20
-150.7952744848706
 30
0.0
 10
111.4174885789164
 20
-150.7911403702883
 30
0.0
 10
111.4109428974945
 20
-150.7677137209886
 30
0.0
 10
111.4109428974945
 20
-150.7677137209886
 30
0.0
 10
111.3582329365701
 20
-150.5754773929117
 30
0.0
 10
111.3582329365701
 20
-150.5754773929117
 30
0.0
 10
111.5039604755962
 20
-150.5289686038608
 30
0.0
 10
111.5697617993645
 20
-150.5055419545611
 30
0.0
 10
111.62453881758
 20
-150.4845268721011
 30
0.0
 10
111.62453881758
 20
-150.4845268721011
 30
0.0
 10
111.62453881758
 20
-150.0718044329682
 30
0.0
 10
111.62453881758
 20
-150.0718044329682
 30
0.0
 10
111.62453881758
 20
-150.0718044329682
 30
0.0
 10
111.5718288566556
 20
-150.0718044329682
 30
0.0
 10
111.5718288566556
 20
-150.0718044329682
 30
0.0
 10
111.5718288566556
 20
-150.0718044329682
 30
0.0
 10
111.4936251891405
 20
-150.0718044329682
 30
0.0
 10
111.4936251891405
 20
-150.0718044329682
 30
0.0
 10
111.425756808081
 20
-150.0718044329682
 30
0.0
 10
111.4174885789164
 20
-150.0718044329682
 30
0.0
 10
111.3813150763213
 20
-150.0783501143901
 30
0.0
 10
111.3813150763213
 20
-150.0783501143901
 30
0.0
 10
111.3813150763213
 20
-149.8837022194735
 30
0.0
 10
111.3813150763213
 20
-149.8837022194735
 30
0.0
 10
111.4088758402033
 20
-149.8899033913469
 30
0.0
 10
111.4174885789164
 20
-149.8899033913469
 30
0.0
 10
111.4870795077185
 20
-149.8899033913469
 30
0.0
 10
111.4870795077185
 20
-149.8899033913469
 30
0.0
 10
111.6204047029976
 20
-149.8899033913469
 30
0.0
 10
111.6204047029976
 20
-149.8899033913469
 30
0.0
 10
111.6204047029976
 20
-149.8199679529964
 30
0.0
 10
111.6204047029976
 20
-149.7376301708989
 30
0.0
 10
111.6183376457065
 20
-149.7334960563166
 30
0.0
 10
111.6100694165419
 20
-149.5536620719866
 30
0.0
 10
111.6100694165419
 20
-149.5343695372692
 30
0.0
 10
111.6076578497022
 20
-149.4878607482183
 30
0.0
 10
111.6076578497022
 20
-149.4878607482183
 30
0.0
 10
111.8236653366274
 20
-149.4964734869314
 30
0.0
 10
111.8236653366274
 20
-149.4964734869314
 30
0.0
 10
111.8340006230831
 20
-149.4964734869314
 30
0.0
 10
111.8553602150917
 20
-149.4985405442226
 30
0.0
 10
111.8553602150917
 20
-149.5154215121003
 30
0.0
 10
111.8553602150917
 20
-149.5343695372692
 30
0.0
 10
111.8405463045051
 20
-149.5450493332734
 30
0.0
 10
111.8150525979143
 20
-149.5639973584423
 30
0.0
 10
111.8150525979143
 20
-149.614984771624
 30
0.0
 10
111.8088514260408
 20
-149.8433946022961
 30
0.0
 10
111.810918483332
 20
-149.8899033913469
 30
0.0
 10
111.9397650544803
 20
-149.8899033913469
 30
0.0
 10
111.9525119077757
 20
-149.8899033913469
 30
0.0
 10
112.0500081100083
 20
-149.8816351621823
 30
0.0
 10
112.0500081100083
 20
-149.8816351621823
 30
0.0
 10
112.0500081100083
 20
-150.0759385475504
 30
0.0
 10
112.0500081100083
 20
-150.0759385475504
 30
0.0
 10
112.011767550122
 20
-150.0738714902593
 30
0.0
 10
111.9442436786111
 20
-150.069737375677
 30
0.0
 10
111.8088514260408
 20
-150.0718044329682
 30
0.0
 10
111.8088514260408
 20
-150.0718044329682
 30
0.0
 10
111.8088514260408
 20
-150.4104573191682
 30
0.0
 10
111.8088514260408
 20
-150.4104573191682
 30
0.0
 10
111.8636284442563
 20
-150.3870306698685
 30
0.0
 10
111.9294297680246
 20
-150.3594699059865
 30
0.0
 10
111.9780056143666
 20
-150.3363877662353
 30
0.0
 10
111.9780056143666
 20
-150.3363877662353
 30
0.0
 10
111.9780056143666
 20
-150.1586208391964
 30
0.0
 10
111.9780056143666
 20
-150.1586208391964
 30
0.0
 10
112.0923827844769
 20
-150.1713676924919
 30
0.0
 10
112.2105495596209
 20
-150.1713676924919
 30
0.0
 10
112.3269937870224
 20
-150.1713676924919
 30
0.0
 10
112.3039116472712
 20
-150.0759385475504
 30
0.0
 10
112.2763508833892
 20
-149.993600765453
 30
0.0
 10
112.2129611264606
 20
-149.8602755701738
 30
0.0
 10
112.1685193947009
 20
-149.862342627465
 30
0.0
 10
112.0858371030549
 20
-149.8668212515958
 30
0.0
 10
112.0479410527172
 20
-149.8688883088869
 30
0.0
 10
112.0479410527172
 20
-149.8688883088869
 30
0.0
 10
112.0479410527172
 20
-149.6890543245569
 30
0.0
 10
112.0479410527172
 20
-149.6890543245569
 30
0.0
 10
112.1726535092832
 20
-149.6973225537215
 30
0.0
 10
112.3459418121913
 20
-149.7018011778523
 30
0.0
 10
112.4286241038373
 20
-149.7018011778523
 30
0.0
 10
112.4286241038373
 20
-149.7018011778523
 30
0.0
 10
112.5109618859347
 20
-149.7018011778523
 30
0.0
 10
112.5109618859347
 20
-149.7018011778523
 30
0.0
 10
112.5109618859347
 20
-149.5388481614
 30
0.0
 10
112.5109618859347
 20
-149.5281683653957
 30
0.0
 10
112.5088948286436
 20
-149.4730468376317
 30
0.0
 10
112.5088948286436
 20
-149.4730468376317
 30
0.0
 10
112.7331705447334
 20
-149.4985405442226
 30
0.0
 10
112.7331705447334
 20
-149.4985405442226
 30
0.0
 10
112.7373046593157
 20
-149.4985405442226
 30
0.0
 10
112.7586642513242
 20
-149.5006076015137
 30
0.0
 10
112.7586642513242
 20
-149.5174885693915
 30
0.0
 10
112.7586642513242
 20
-149.532302479978
 30
0.0
 10
112.7479844553199
 20
-149.5409152186911
 30
0.0
 10
112.7204236914379
 20
-149.5557291292777
 30
0.0
 10
112.7142225195645
 20
-149.6211859434975
 30
0.0
 10
112.7121554622733
 20
-149.642545535506
 30
0.0
 10
112.7121554622733
 20
-149.7018011778523
 30
0.0
 10
112.7121554622733
 20
-149.7018011778523
 30
0.0
 10
112.8072400976662
 20
-149.7018011778523
 30
0.0
 10
112.8072400976662
 20
-149.7018011778523
 30
0.0
 10
112.8899223893122
 20
-149.7018011778523
 30
0.0
 10
113.0632106922203
 20
-149.6973225537215
 30
0.0
 10
113.1879231487863
 20
-149.6890543245569
 30
0.0
 10
113.1879231487863
 20
-149.6890543245569
 30
0.0
 10
113.1879231487863
 20
-149.8688883088869
 30
0.0
 10
113.1879231487863
 20
-149.8688883088869
 30
0.0
 10
113.1582953276132
 20
-149.8668212515958
 30
0.0
 10
113.0401285524691
 20
-149.862342627465
 30
0.0
 10
112.9998209352917
 20
-149.8602755701738
 30
0.0
 10
112.9850070247051
 20
-149.9112629833555
 30
0.0
 10
112.9512450889497
 20
-150.0232285866261
 30
0.0
 10
112.8854437651814
 20
-150.1627549537787
 30
0.0
 10
112.92781843965
 20
-150.1627549537787
 30
0.0
 10
113.2051486262126
 20
-150.1438069286099
 30
0.0
 10
113.26647132585
 20
-150.1417398713187
 30
0.0
 10
113.26647132585
 20
-150.1417398713187
 30
0.0
 10
113.26647132585
 20
-150.3257079702311
 30
0.0
 10
113.26647132585
 20
-150.3257079702311
 30
0.0
 10
113.2368435046769
 20
-150.3257079702311
 30
0.0
 10
113.2199625367992
 20
-150.3215738556488
 30
0.0
 10
113.0570095203468
 20
-150.3215738556488
 30
0.0
  0
HATCH
  5
17E
330
177
100
AcDbEntity
  8
レイヤー 1
 62
    18
420
        0
440
 33554687
100
AcDbHatch
 10
0.0
 20
0.0
 30
0.0
210
0.0
220
0.0
230
1.0
  2
SOLID
 70
     1
 71
     1
 91
        3
 92
        1
 93
        1
 72
     4
 94
        3
 73
     0
 74
     0
 95
       17
 96
       13
 40
0.0
 40
0.0
 40
0.0
 40
0.0
 40
1.0
 40
1.0
 40
1.0
 40
2.0
 40
2.0
 40
2.0
 40
3.0
 40
3.0
 40
3.0
 40
4.0
 40
4.0
 40
4.0
 40
4.0
 10
112.4920138607659
 20
-150.7063910213512
 10
112.4751328928881
 20
-150.7360188425243
 10
112.424489989255
 20
-150.8293809301746
 10
112.4138101932507
 20
-150.8483289553435
 10
112.604323973585
 20
-150.9075845976898
 10
112.625339056045
 20
-150.9137857695632
 10
112.6973415516868
 20
-150.9413465334452
 10
112.7521185699022
 20
-150.8545301272169
 10
112.7755452192019
 20
-150.780460574284
 10
112.7903591297885
 20
-150.7063910213512
 10
112.7903591297885
 20
-150.7063910213512
 10
112.4920138607659
 20
-150.7063910213512
 10
112.4920138607659
 20
-150.7063910213512
 97
        0
 97
        1
330
17B
 92
        1
 93
        1
 72
     4
 94
        3
 73
     0
 74
     0
 95
       20
 96
       16
 40
0.0
 40
0.0
 40
0.0
 40
0.0
 40
1.0
 40
1.0
 40
1.0
 40
2.0
 40
2.0
 40
2.0
 40
3.0
 40
3.0
 40
3.0
 40
4.0
 40
4.0
 40
4.0
 40
5.0
 40
5.0
 40
5.0
 40
5.0
 10
112.4286241038373
 20
-149.8561414555915
 10
112.4286241038373
 20
-149.8561414555915
 10
112.396929225373
 20
-149.8561414555915
 10
112.396929225373
 20
-149.8561414555915
 10
112.4434380144238
 20
-149.9553602055667
 10
112.4751328928881
 20
-150.0359754399215
 10
112.5088948286436
 20
-150.1627549537787
 10
112.5088948286436
 20
-150.1627549537787
 10
112.7162895768556
 20
-150.1627549537787
 10
112.7162895768556
 20
-150.1627549537787
 10
112.7479844553199
 20
-150.069737375677
 10
112.7714111046196
 20
-149.9849880267398
 10
112.7944932443708
 20
-149.8561414555915
 10
112.7944932443708
 20
-149.8561414555915
 10
112.4286241038373
 20
-149.8561414555915
 10
112.4286241038373
 20
-149.8561414555915
 97
        0
 97
        1
330
17C
 92
        1
 93
        1
 72
     4
 94
        3
 73
     0
 74
     0
 95
      242
 96
      238
 40
0.0
 40
0.0
 40
0.0
 40
0.0
 40
1.0
 40
1.0
 40
1.0
 40
2.0
 40
2.0
 40
2.0
 40
3.0
 40
3.0
 40
3.0
 40
4.0
 40
4.0
 40
4.0
 40
5.0
 40
5.0
 40
5.0
 40
6.0
 40
6.0
 40
6.0
 40
7.0
 40
7.0
 40
7.0
 40
8.0
 40
8.0
 40
8.0
 40
9.0
 40
9.0
 40
9.0
 40
10.0
 40
10.0
 40
10.0
 40
11.0
 40
11.0
 40
11.0
 40
12.0
 40
12.0
 40
12.0
 40
13.0
 40
13.0
 40
13.0
 40
14.0
 40
14.0
 40
14.0
 40
15.0
 40
15.0
 40
15.0
 40
16.0
 40
16.0
 40
16.0
 40
17.0
 40
17.0
 40
17.0
 40
18.0
 40
18.0
 40
18.0
 40
19.0
 40
19.0
 40
19.0
 40
20.0
 40
20.0
 40
20.0
 40
21.0
 40
21.0
 40
21.0
 40
22.0
 40
22.0
 40
22.0
 40
23.0
 40
23.0
 40
23.0
 40
24.0
 40
24.0
 40
24.0
 40
25.0
 40
25.0
 40
25.0
 40
26.0
 40
26.0
 40
26.0
 40
27.0
 40
27.0
 40
27.0
 40
28.0
 40
28.0
 40
28.0
 40
29.0
 40
29.0
 40
29.0
 40
30.0
 40
30.0
 40
30.0
 40
31.0
 40
31.0
 40
31.0
 40
32.0
 40
32.0
 40
32.0
 40
33.0
 40
33.0
 40
33.0
 40
34.0
 40
34.0
 40
34.0
 40
35.0
 40
35.0
 40
35.0
 40
36.0
 40
36.0
 40
36.0
 40
37.0
 40
37.0
 40
37.0
 40
38.0
 40
38.0
 40
38.0
 40
39.0
 40
39.0
 40
39.0
 40
40.0
 40
40.0
 40
40.0
 40
41.0
 40
41.0
 40
41.0
 40
42.0
 40
42.0
 40
42.0
 40
43.0
 40
43.0
 40
43.0
 40
44.0
 40
44.0
 40
44.0
 40
45.0
 40
45.0
 40
45.0
 40
46.0
 40
46.0
 40
46.0
 40
47.0
 40
47.0
 40
47.0
 40
48.0
 40
48.0
 40
48.0
 40
49.0
 40
49.0
 40
49.0
 40
50.0
 40
50.0
 40
50.0
 40
51.0
 40
51.0
 40
51.0
 40
52.0
 40
52.0
 40
52.0
 40
53.0
 40
53.0
 40
53.0
 40
54.0
 40
54.0
 40
54.0
 40
55.0
 40
55.0
 40
55.0
 40
56.0
 40
56.0
 40
56.0
 40
57.0
 40
57.0
 40
57.0
 40
58.0
 40
58.0
 40
58.0
 40
59.0
 40
59.0
 40
59.0
 40
60.0
 40
60.0
 40
60.0
 40
61.0
 40
61.0
 40
61.0
 40
62.0
 40
62.0
 40
62.0
 40
63.0
 40
63.0
 40
63.0
 40
64.0
 40
64.0
 40
64.0
 40
65.0
 40
65.0
 40
65.0
 40
66.0
 40
66.0
 40
66.0
 40
67.0
 40
67.0
 40
67.0
 40
68.0
 40
68.0
 40
68.0
 40
69.0
 40
69.0
 40
69.0
 40
70.0
 40
70.0
 40
70.0
 40
71.0
 40
71.0
 40
71.0
 40
72.0
 40
72.0
 40
72.0
 40
73.0
 40
73.0
 40
73.0
 40
74.0
 40
74.0
 40
74.0
 40
75.0
 40
75.0
 40
75.0
 40
76.0
 40
76.0
 40
76.0
 40
77.0
 40
77.0
 40
77.0
 40
78.0
 40
78.0
 40
78.0
 40
79.0
 40
79.0
 40
79.0
 40
79.0
 10
113.0570095203468
 20
-150.3215738556488
 10
113.0570095203468
 20
-150.3215738556488
 10
112.8031059830839
 20
-150.3215738556488
 10
112.8031059830839
 20
-150.3215738556488
 10
112.8031059830839
 20
-150.3215738556488
 10
112.5257757965213
 20
-150.3215738556488
 10
112.5257757965213
 20
-150.3215738556488
 10
112.5257757965213
 20
-150.3215738556488
 10
112.652899819927
 20
-150.3639485301173
 10
112.652899819927
 20
-150.3639485301173
 10
112.6635796159313
 20
-150.3680826446996
 10
112.6759819596782
 20
-150.3742838165731
 10
112.6759819596782
 20
-150.3870306698685
 10
112.6759819596782
 20
-150.4083902618771
 10
112.6442870812139
 20
-150.4145914337505
 10
112.6232719987539
 20
-150.4187255483328
 10
112.6125922027496
 20
-150.4421521976325
 10
112.5829643815765
 20
-150.5076090118523
 10
112.5640163564076
 20
-150.552050743612
 10
112.5640163564076
 20
-150.552050743612
 10
112.8348008615482
 20
-150.552050743612
 10
112.8348008615482
 20
-150.552050743612
 10
112.9257513823588
 20
-150.552050743612
 10
113.1224663345666
 20
-150.5479166290297
 10
113.2640597590103
 20
-150.5393038903165
 10
113.2640597590103
 20
-150.5393038903165
 10
113.2640597590103
 20
-150.7170708173554
 10
113.2640597590103
 20
-150.7170708173554
 10
113.1817219769129
 20
-150.7129367027731
 10
113.1607068944529
 20
-150.7129367027731
 10
112.9808729101228
 20
-150.7088025881908
 10
112.9491780316585
 20
-150.86314286593
 10
112.9047362998988
 20
-150.9434135907364
 10
112.8602945681391
 20
-151.0133490290869
 10
112.9808729101228
 20
-151.0726046714332
 10
113.08663734152
 20
-151.1401285429441
 10
113.190334715626
 20
-151.2228108345901
 10
113.190334715626
 20
-151.2228108345901
 10
113.0718234309334
 20
-151.3898979656247
 10
113.0718234309334
 20
-151.3898979656247
 10
113.0483967816337
 20
-151.3709499404559
 10
113.0356499283383
 20
-151.3623372017427
 10
112.9236843250677
 20
-151.2775878528056
 10
112.8751084787257
 20
-151.2396918024678
 10
112.8158528363794
 20
-151.2035182998727
 10
112.7352376020245
 20
-151.159076568113
 10
112.5237087392302
 20
-151.345456233865
 10
112.3187255578578
 20
-151.3685383736162
 10
112.0286485179998
 20
-151.3981661947893
 10
112.0286485179998
 20
-151.3981661947893
 10
111.9249511438937
 20
-151.2183322104593
 10
111.9249511438937
 20
-151.2183322104593
 10
112.2425889476338
 20
-151.214198095877
 10
112.417944307833
 20
-151.1887043892861
 10
112.570217528281
 20
-151.0788058433067
 10
112.4517062435884
 20
-151.0281629396735
 10
112.3631672896175
 20
-151.0006021757915
 10
112.3269937870224
 20
-150.9878553224961
 10
112.3080457618535
 20
-151.0154160863781
 10
112.293231851267
 20
-151.0343641115469
 10
112.2656710873849
 20
-151.0681260473024
 10
112.2656710873849
 20
-151.0681260473024
 10
112.0689561351772
 20
-150.9857882652049
 10
112.0689561351772
 20
-150.9857882652049
 10
112.1516384268232
 20
-150.9055175403986
 10
112.2129611264606
 20
-150.8100883954572
 10
112.2698052019672
 20
-150.7088025881908
 10
112.0796359311815
 20
-150.7129367027731
 10
112.0582763391729
 20
-150.7129367027731
 10
111.9759385570754
 20
-150.7170708173554
 10
111.9759385570754
 20
-150.7170708173554
 10
111.9759385570754
 20
-150.5393038903165
 10
111.9759385570754
 20
-150.5393038903165
 10
112.1154649242281
 20
-150.5458495717385
 10
112.3249267297312
 20
-150.5499836863208
 10
112.3504204363221
 20
-150.5499836863208
 10
112.3673014041998
 20
-150.5162217505654
 10
112.4224229319638
 20
-150.3956434085816
 10
112.4413709571327
 20
-150.3215738556488
 10
112.4224229319638
 20
-150.3215738556488
 10
112.2446560049249
 20
-150.3277750275222
 10
112.0500081100083
 20
-150.3405218808176
 10
112.0500081100083
 20
-150.3405218808176
 10
112.0500081100083
 20
-150.4738470760968
 10
112.0500081100083
 20
-150.4738470760968
 10
112.0014322636663
 20
-150.4993407826877
 10
111.94217662132
 20
-150.531035661152
 10
111.8088514260408
 20
-150.5964924753717
 10
111.8088514260408
 20
-150.5964924753717
 10
111.8088514260408
 20
-150.7425645239463
 10
111.8088514260408
 20
-150.7425645239463
 10
111.8088514260408
 20
-150.7425645239463
 10
111.8088514260408
 20
-151.2100639812947
 10
111.8088514260408
 20
-151.2100639812947
 10
111.8088514260408
 20
-151.3368434951519
 10
111.7726779234457
 20
-151.3960991374982
 10
111.4891465650096
 20
-151.3878309083336
 10
111.4891465650096
 20
-151.3878309083336
 10
111.3857937004521
 20
-151.1804361601215
 10
111.3857937004521
 20
-151.1804361601215
 10
111.4491834573807
 20
-151.193183013417
 10
111.4977593037228
 20
-151.1973171279993
 10
111.5380669209002
 20
-151.1973171279993
 10
111.6142035311242
 20
-151.1973171279993
 10
111.62453881758
 20
-151.1738904786995
 10
111.62453881758
 20
-151.1084336644798
 10
111.62453881758
 20
-151.1084336644798
 10
111.62453881758
 20
-150.6791747670177
 10
111.62453881758
 20
-150.6791747670177
 10
111.5273871248959
 20
-150.7191378746466
 10
111.5105061570182
 20
-150.7256835560686
 10
111.4639973679673
 20
-150.7446315812374
 10
111.459863253385
 20
-150.7656466636975
 10
111.4553846292542
 20
-150.7952744848706
 10
111.4364366040853
 20
-150.7952744848706
 10
111.4278238653722
 20
-150.7952744848706
 10
111.4174885789164
 20
-150.7911403702883
 10
111.4109428974945
 20
-150.7677137209886
 10
111.4109428974945
 20
-150.7677137209886
 10
111.3582329365701
 20
-150.5754773929117
 10
111.3582329365701
 20
-150.5754773929117
 10
111.5039604755962
 20
-150.5289686038608
 10
111.5697617993645
 20
-150.5055419545611
 10
111.62453881758
 20
-150.4845268721011
 10
111.62453881758
 20
-150.4845268721011
 10
111.62453881758
 20
-150.0718044329682
 10
111.62453881758
 20
-150.0718044329682
 10
111.62453881758
 20
-150.0718044329682
 10
111.5718288566556
 20
-150.0718044329682
 10
111.5718288566556
 20
-150.0718044329682
 10
111.5718288566556
 20
-150.0718044329682
 10
111.4936251891405
 20
-150.0718044329682
 10
111.4936251891405
 20
-150.0718044329682
 10
111.425756808081
 20
-150.0718044329682
 10
111.4174885789164
 20
-150.0718044329682
 10
111.3813150763213
 20
-150.0783501143901
 10
111.3813150763213
 20
-150.0783501143901
 10
111.3813150763213
 20
-149.8837022194735
 10
111.3813150763213
 20
-149.8837022194735
 10
111.4088758402033
 20
-149.8899033913469
 10
111.4174885789164
 20
-149.8899033913469
 10
111.4870795077185
 20
-149.8899033913469
 10
111.4870795077185
 20
-149.8899033913469
 10
111.6204047029976
 20
-149.8899033913469
 10
111.6204047029976
 20
-149.8899033913469
 10
111.6204047029976
 20
-149.8199679529964
 10
111.6204047029976
 20
-149.7376301708989
 10
111.6183376457065
 20
-149.7334960563166
 10
111.6100694165419
 20
-149.5536620719866
 10
111.6100694165419
 20
-149.5343695372692
 10
111.6076578497022
 20
-149.4878607482183
 10
111.6076578497022
 20
-149.4878607482183
 10
111.8236653366274
 20
-149.4964734869314
 10
111.8236653366274
 20
-149.4964734869314
 10
111.8340006230831
 20
-149.4964734869314
 10
111.8553602150917
 20
-149.4985405442226
 10
111.8553602150917
 20
-149.5154215121003
 10
111.8553602150917
 20
-149.5343695372692
 10
111.8405463045051
 20
-149.5450493332734
 10
111.8150525979143
 20
-149.5639973584423
 10
111.8150525979143
 20
-149.614984771624
 10
111.8088514260408
 20
-149.8433946022961
 10
111.810918483332
 20
-149.8899033913469
 10
111.9397650544803
 20
-149.8899033913469
 10
111.9525119077757
 20
-149.8899033913469
 10
112.0500081100083
 20
-149.8816351621823
 10
112.0500081100083
 20
-149.8816351621823
 10
112.0500081100083
 20
-150.0759385475504
 10
112.0500081100083
 20
-150.0759385475504
 10
112.011767550122
 20
-150.0738714902593
 10
111.9442436786111
 20
-150.069737375677
 10
111.8088514260408
 20
-150.0718044329682
 10
111.8088514260408
 20
-150.0718044329682
 10
111.8088514260408
 20
-150.4104573191682
 10
111.8088514260408
 20
-150.4104573191682
 10
111.8636284442563
 20
-150.3870306698685
 10
111.9294297680246
 20
-150.3594699059865
 10
111.9780056143666
 20
-150.3363877662353
 10
111.9780056143666
 20
-150.3363877662353
 10
111.9780056143666
 20
-150.1586208391964
 10
111.9780056143666
 20
-150.1586208391964
 10
112.0923827844769
 20
-150.1713676924919
 10
112.2105495596209
 20
-150.1713676924919
 10
112.3269937870224
 20
-150.1713676924919
 10
112.3039116472712
 20
-150.0759385475504
 10
112.2763508833892
 20
-149.993600765453
 10
112.2129611264606
 20
-149.8602755701738
 10
112.1685193947009
 20
-149.862342627465
 10
112.0858371030549
 20
-149.8668212515958
 10
112.0479410527172
 20
-149.8688883088869
 10
112.0479410527172
 20
-149.8688883088869
 10
112.0479410527172
 20
-149.6890543245569
 10
112.0479410527172
 20
-149.6890543245569
 10
112.1726535092832
 20
-149.6973225537215
 10
112.3459418121913
 20
-149.7018011778523
 10
112.4286241038373
 20
-149.7018011778523
 10
112.4286241038373
 20
-149.7018011778523
 10
112.5109618859347
 20
-149.7018011778523
 10
112.5109618859347
 20
-149.7018011778523
 10
112.5109618859347
 20
-149.5388481614
 10
112.5109618859347
 20
-149.5281683653957
 10
112.5088948286436
 20
-149.4730468376317
 10
112.5088948286436
 20
-149.4730468376317
 10
112.7331705447334
 20
-149.4985405442226
 10
112.7331705447334
 20
-149.4985405442226
 10
112.7373046593157
 20
-149.4985405442226
 10
112.7586642513242
 20
-149.5006076015137
 10
112.7586642513242
 20
-149.5174885693915
 10
112.7586642513242
 20
-149.532302479978
 10
112.7479844553199
 20
-149.5409152186911
 10
112.7204236914379
 20
-149.5557291292777
 10
112.7142225195645
 20
-149.6211859434975
 10
112.7121554622733
 20
-149.642545535506
 10
112.7121554622733
 20
-149.7018011778523
 10
112.7121554622733
 20
-149.7018011778523
 10
112.8072400976662
 20
-149.7018011778523
 10
112.8072400976662
 20
-149.7018011778523
 10
112.8899223893122
 20
-149.7018011778523
 10
113.0632106922203
 20
-149.6973225537215
 10
113.1879231487863
 20
-149.6890543245569
 10
113.1879231487863
 20
-149.6890543245569
 10
113.1879231487863
 20
-149.8688883088869
 10
113.1879231487863
 20
-149.8688883088869
 10
113.1582953276132
 20
-149.8668212515958
 10
113.0401285524691
 20
-149.862342627465
 10
112.9998209352917
 20
-149.8602755701738
 10
112.9850070247051
 20
-149.9112629833555
 10
112.9512450889497
 20
-150.0232285866261
 10
112.8854437651814
 20
-150.1627549537787
 10
112.92781843965
 20
-150.1627549537787
 10
113.2051486262126
 20
-150.1438069286099
 10
113.26647132585
 20
-150.1417398713187
 10
113.26647132585
 20
-150.1417398713187
 10
113.26647132585
 20
-150.3257079702311
 10
113.26647132585
 20
-150.3257079702311
 10
113.2368435046769
 20
-150.3257079702311
 10
113.2199625367992
 20
-150.3215738556488
 10
113.0570095203468
 20
-150.3215738556488
 97
        0
 97
        1
330
17D
 75
     2
 76
     1
 98
        1
 10
0.0
 20
0.0
450
        0
451
        0
460
0.0
461
0.0
452
        0
462
0.0
453
        0
470

  0
SPLINE
  5
17F
330
177
100
AcDbEntity
  8
レイヤー 1
100
AcDbSpline
210
0.0
220
0.0
230
1.0
 70
    11
 71
     3
 72
    17
 73
    13
 74
     0
 42
0.0000000001
 43
0.0000000001
 40
0.0
 40
0.0
 40
0.0
 40
0.0
 40
1.0
 40
1.0
 40
1.0
 40
2.0
 40
2.0
 40
2.0
 40
3.0
 40
3.0
 40
3.0
 40
4.0
 40
4.0
 40
4.0
 40
4.0
 10
114.9132269677995
 20
-151.1211805177752
 30
0.0
 10
114.9132269677995
 20
-151.1211805177752
 30
0.0
 10
114.2066378837747
 20
-151.1211805177752
 30
0.0
 10
114.2066378837747
 20
-151.1211805177752
 30
0.0
 10
114.2066378837747
 20
-151.1211805177752
 30
0.0
 10
114.2066378837747
 20
-151.2355576878855
 30
0.0
 10
114.2066378837747
 20
-151.2355576878855
 30
0.0
 10
114.2066378837747
 20
-151.2355576878855
 30
0.0
 10
114.9132269677995
 20
-151.2355576878855
 30
0.0
 10
114.9132269677995
 20
-151.2355576878855
 30
0.0
 10
114.9132269677995
 20
-151.2355576878855
 30
0.0
 10
114.9132269677995
 20
-151.1211805177752
 30
0.0
 10
114.9132269677995
 20
-151.1211805177752
 30
0.0
  0
SPLINE
  5
180
330
177
100
AcDbEntity
  8
レイヤー 1
100
AcDbSpline
210
0.0
220
0.0
230
1.0
 70
    11
 71
     3
 72
    17
 73
    13
 74
     0
 42
0.0000000001
 43
0.0000000001
 40
0.0
 40
0.0
 40
0.0
 40
0.0
 40
1.0
 40
1.0
 40
1.0
 40
2.0
 40
2.0
 40
2.0
 40
3.0
 40
3.0
 40
3.0
 40
4.0
 40
4.0
 40
4.0
 40
4.0
 10
114.9132269677995
 20
-150.8779567765166
 30
0.0
 10
114.9132269677995
 20
-150.8779567765166
 30
0.0
 10
114.2066378837747
 20
-150.8779567765166
 30
0.0
 10
114.2066378837747
 20
-150.8779567765166
 30
0.0
 10
114.2066378837747
 20
-150.8779567765166
 30
0.0
 10
114.2066378837747
 20
-150.9919894370784
 30
0.0
 10
114.2066378837747
 20
-150.9919894370784
 30
0.0
 10
114.2066378837747
 20
-150.9919894370784
 30
0.0
 10
114.9132269677995
 20
-150.9919894370784
 30
0.0
 10
114.9132269677995
 20
-150.9919894370784
 30
0.0
 10
114.9132269677995
 20
-150.9919894370784
 30
0.0
 10
114.9132269677995
 20
-150.8779567765166
 30
0.0
 10
114.9132269677995
 20
-150.8779567765166
 30
0.0
  0
SPLINE
  5
181
330
177
100
AcDbEntity
  8
レイヤー 1
100
AcDbSpline
210
0.0
220
0.0
230
1.0
 70
    11
 71
     3
 72
    17
 73
    13
 74
     0
 42
0.0000000001
 43
0.0000000001
 40
0.0
 40
0.0
 40
0.0
 40
0.0
 40
1.0
 40
1.0
 40
1.0
 40
2.0
 40
2.0
 40
2.0
 40
3.0
 40
3.0
 40
3.0
 40
4.0
 40
4.0
 40
4.0
 40
4.0
 10
114.9132269677995
 20
-150.6450683217137
 30
0.0
 10
114.9132269677995
 20
-150.6450683217137
 30
0.0
 10
114.2066378837747
 20
-150.6450683217137
 30
0.0
 10
114.2066378837747
 20
-150.6450683217137
 30
0.0
 10
114.2066378837747
 20
-150.6450683217137
 30
0.0
 10
114.2066378837747
 20
-150.752899810402
 30
0.0
 10
114.2066378837747
 20
-150.752899810402
 30
0.0
 10
114.2066378837747
 20
-150.752899810402
 30
0.0
 10
114.9132269677995
 20
-150.752899810402
 30
0.0
 10
114.9132269677995
 20
-150.752899810402
 30
0.0
 10
114.9132269677995
 20
-150.752899810402
 30
0.0
 10
114.9132269677995
 20
-150.6450683217137
 30
0.0
 10
114.9132269677995
 20
-150.6450683217137
 30
0.0
  0
SPLINE
  5
182
330
177
100
AcDbEntity
  8
レイヤー 1
100
AcDbSpline
210
0.0
220
0.0
230
1.0
 70
     9
 71
     3
 72
   203
 73
   199
 74
     0
 42
0.0000000001
 43
0.0000000001
 40
0.0
 40
0.0
 40
0.0
 40
0.0
 40
1.0
 40
1.0
 40
1.0
 40
2.0
 40
2.0
 40
2.0
 40
3.0
 40
3.0
 40
3.0
 40
4.0
 40
4.0
 40
4.0
 40
5.0
 40
5.0
 40
5.0
 40
6.0
 40
6.0
 40
6.0
 40
7.0
 40
7.0
 40
7.0
 40
8.0
 40
8.0
 40
8.0
 40
9.0
 40
9.0
 40
9.0
 40
10.0
 40
10.0
 40
10.0
 40
11.0
 40
11.0
 40
11.0
 40
12.0
 40
12.0
 40
12.0
 40
13.0
 40
13.0
 40
13.0
 40
14.0
 40
14.0
 40
14.0
 40
15.0
 40
15.0
 40
15.0
 40
16.0
 40
16.0
 40
16.0
 40
17.0
 40
17.0
 40
17.0
 40
18.0
 40
18.0
 40
18.0
 40
19.0
 40
19.0
 40
19.0
 40
20.0
 40
20.0
 40
20.0
 40
21.0
 40
21.0
 40
21.0
 40
22.0
 40
22.0
 40
22.0
 40
23.0
 40
23.0
 40
23.0
 40
24.0
 40
24.0
 40
24.0
 40
25.0
 40
25.0
 40
25.0
 40
26.0
 40
26.0
 40
26.0
 40
27.0
 40
27.0
 40
27.0
 40
28.0
 40
28.0
 40
28.0
 40
29.0
 40
29.0
 40
29.0
 40
30.0
 40
30.0
 40
30.0
 40
31.0
 40
31.0
 40
31.0
 40
32.0
 40
32.0
 40
32.0
 40
33.0
 40
33.0
 40
33.0
 40
34.0
 40
34.0
 40
34.0
 40
35.0
 40
35.0
 40
35.0
 40
36.0
 40
36.0
 40
36.0
 40
37.0
 40
37.0
 40
37.0
 40
38.0
 40
38.0
 40
38.0
 40
39.0
 40
39.0
 40
39.0
 40
40.0
 40
40.0
 40
40.0
 40
41.0
 40
41.0
 40
41.0
 40
42.0
 40
42.0
 40
42.0
 40
43.0
 40
43.0
 40
43.0
 40
44.0
 40
44.0
 40
44.0
 40
45.0
 40
45.0
 40
45.0
 40
46.0
 40
46.0
 40
46.0
 40
47.0
 40
47.0
 40
47.0
 40
48.0
 40
48.0
 40
48.0
 40
49.0
 40
49.0
 40
49.0
 40
50.0
 40
50.0
 40
50.0
 40
51.0
 40
51.0
 40
51.0
 40
52.0
 40
52.0
 40
52.0
 40
53.0
 40
53.0
 40
53.0
 40
54.0
 40
54.0
 40
54.0
 40
55.0
 40
55.0
 40
55.0
 40
56.0
 40
56.0
 40
56.0
 40
57.0
 40
57.0
 40
57.0
 40
58.0
 40
58.0
 40
58.0
 40
59.0
 40
59.0
 40
59.0
 40
60.0
 40
60.0
 40
60.0
 40
61.0
 40
61.0
 40
61.0
 40
62.0
 40
62.0
 40
62.0
 40
63.0
 40
63.0
 40
63.0
 40
64.0
 40
64.0
 40
64.0
 40
65.0
 40
65.0
 40
65.0
 40
66.0
 40
66.0
 40
66.0
 40
66.0
 10
114.748206894056
 20
-150.3890977271597
 30
0.0
 10
114.748206894056
 20
-150.3890977271597
 30
0.0
 10
114.189756915897
 20
-150.3890977271597
 30
0.0
 10
114.189756915897
 20
-150.3890977271597
 30
0.0
 10
114.1794216294412
 20
-150.4335394589194
 30
0.0
 10
114.1708088907281
 20
-150.4652343373837
 30
0.0
 10
114.1580620374327
 20
-150.5034748972699
 30
0.0
 10
114.1835557440235
 20
-150.5034748972699
 30
0.0
 10
114.1983696546101
 20
-150.5055419545611
 30
0.0
 10
114.2045708264836
 20
-150.5055419545611
 30
0.0
 10
114.2045708264836
 20
-150.5055419545611
 30
0.0
 10
114.3930175495267
 20
-150.5055419545611
 30
0.0
 10
114.3930175495267
 20
-150.5055419545611
 30
0.0
 10
114.3930175495267
 20
-150.5055419545611
 30
0.0
 10
114.7674994287734
 20
-150.5055419545611
 30
0.0
 10
114.7674994287734
 20
-150.5055419545611
 30
0.0
 10
114.8181423324066
 20
-150.5055419545611
 30
0.0
 10
115.1016736908426
 20
-150.4927951012657
 30
0.0
 10
115.1333685693069
 20
-150.4927951012657
 30
0.0
 10
115.1313015120158
 20
-150.5203558651477
 30
0.0
 10
115.1292344547246
 20
-150.5393038903165
 30
0.0
 10
115.1292344547246
 20
-150.5689317114897
 30
0.0
 10
115.1271673974335
 20
-150.600626589954
 30
0.0
 10
115.1271673974335
 20
-150.7360188425243
 30
0.0
 10
115.1271673974335
 20
-150.7635796064063
 30
0.0
 10
115.1271673974335
 20
-150.7635796064063
 30
0.0
 10
115.1271673974335
 20
-151.0088704049561
 30
0.0
 10
115.1271673974335
 20
-151.0088704049561
 30
0.0
 10
115.1271673974335
 20
-151.0533121367158
 30
0.0
 10
115.1313015120158
 20
-151.2503715984721
 30
0.0
 10
115.1354356265981
 20
-151.4026448189202
 30
0.0
 10
115.1354356265981
 20
-151.4026448189202
 30
0.0
 10
114.9090928532171
 20
-151.4026448189202
 30
0.0
 10
114.9090928532171
 20
-151.4026448189202
 30
0.0
 10
114.9090928532171
 20
-151.4026448189202
 30
0.0
 10
114.9111599105083
 20
-151.3685383736162
 30
0.0
 10
114.9111599105083
 20
-151.3685383736162
 30
0.0
 10
114.9111599105083
 20
-151.3685383736162
 30
0.0
 10
114.2090494506144
 20
-151.3685383736162
 30
0.0
 10
114.2090494506144
 20
-151.3685383736162
 30
0.0
 10
114.2090494506144
 20
-151.3685383736162
 30
0.0
 10
114.2111165079055
 20
-151.4026448189202
 30
0.0
 10
114.2111165079055
 20
-151.4026448189202
 30
0.0
 10
114.2111165079055
 20
-151.4026448189202
 30
0.0
 10
113.9930419636892
 20
-151.4026448189202
 30
0.0
 10
113.9930419636892
 20
-151.4026448189202
 30
0.0
 10
113.99752058782
 20
-151.3475232911562
 30
0.0
 10
113.99752058782
 20
-151.3347764378607
 30
0.0
 10
114.0037217596935
 20
-151.220743777299
 30
0.0
 10
114.0057888169846
 20
-151.193183013417
 30
0.0
 10
114.0078558742758
 20
-151.0598578181378
 30
0.0
 10
114.0078558742758
 20
-151.0409097929689
 30
0.0
 10
114.0078558742758
 20
-151.0409097929689
 30
0.0
 10
114.0078558742758
 20
-150.8376491593392
 30
0.0
 10
114.0078558742758
 20
-150.8376491593392
 30
0.0
 10
113.8683295071232
 20
-151.0874185820198
 30
0.0
 10
113.6991753187974
 20
-151.2183322104593
 30
0.0
 10
113.5934108874002
 20
-151.2841335342276
 30
0.0
 10
113.5934108874002
 20
-151.2841335342276
 30
0.0
 10
113.4197780749437
 20
-151.1442626575264
 30
0.0
 10
113.4197780749437
 20
-151.1442626575264
 30
0.0
 10
113.5086615384631
 20
-151.0936197538933
 30
0.0
 10
113.6526665297465
 20
-151.0068033476649
 30
0.0
 10
113.790125839608
 20
-150.8121554527483
 30
0.0
 10
113.8810763604186
 20
-150.6853759388911
 30
0.0
 10
113.9465331746384
 20
-150.5413709476077
 30
0.0
 10
113.9802951103938
 20
-150.3890977271597
 30
0.0
 10
113.7518852797217
 20
-150.3911647844508
 30
0.0
 10
113.5720512953917
 20
-150.3977104658728
 30
0.0
 10
113.4769666599988
 20
-150.3997775231639
 30
0.0
 10
113.4769666599988
 20
-150.3997775231639
 30
0.0
 10
113.4769666599988
 20
-150.222010596125
 30
0.0
 10
113.4769666599988
 20
-150.222010596125
 30
0.0
 10
113.6736816122066
 20
-150.228556277547
 30
0.0
 10
113.9572129706426
 20
-150.2326903921293
 30
0.0
 10
114.1074191337995
 20
-150.2326903921293
 30
0.0
 10
114.1074191337995
 20
-150.2326903921293
 30
0.0
 10
114.321015053885
 20
-150.2326903921293
 30
0.0
 10
114.321015053885
 20
-150.2326903921293
 30
0.0
 10
114.321015053885
 20
-150.2326903921293
 30
0.0
 10
114.321015053885
 20
-150.124858903441
 30
0.0
 10
114.321015053885
 20
-150.124858903441
 30
0.0
 10
114.321015053885
 20
-150.124858903441
 30
0.0
 10
114.1749430053104
 20
-150.124858903441
 30
0.0
 10
114.1749430053104
 20
-150.124858903441
 30
0.0
 10
114.0057888169846
 20
-150.124858903441
 30
0.0
 10
113.8366346286589
 20
-150.1289930180233
 30
0.0
 10
113.6695474976243
 20
-150.1351941898967
 30
0.0
 10
113.6695474976243
 20
-150.1351941898967
 30
0.0
 10
113.6695474976243
 20
-149.9639729442798
 30
0.0
 10
113.6695474976243
 20
-149.9639729442798
 30
0.0
 10
113.8238877753634
 20
-149.9746527402841
 30
0.0
 10
114.0099229315669
 20
-149.9746527402841
 30
0.0
 10
114.1749430053104
 20
-149.9746527402841
 30
0.0
 10
114.1749430053104
 20
-149.9746527402841
 30
0.0
 10
114.321015053885
 20
-149.9746527402841
 30
0.0
 10
114.321015053885
 20
-149.9746527402841
 30
0.0
 10
114.321015053885
 20
-149.9746527402841
 30
0.0
 10
114.321015053885
 20
-149.8561414555915
 30
0.0
 10
114.321015053885
 20
-149.8561414555915
 30
0.0
 10
114.321015053885
 20
-149.8561414555915
 30
0.0
 10
114.189756915897
 20
-149.8561414555915
 30
0.0
 10
114.189756915897
 20
-149.8561414555915
 30
0.0
 10
114.1432481268461
 20
-149.8561414555915
 30
0.0
 10
113.9403320027649
 20
-149.8644096847561
 30
0.0
 10
113.8979573282963
 20
-149.8644096847561
 30
0.0
 10
113.6946966946666
 20
-149.8688883088869
 30
0.0
 10
113.6185600844426
 20
-149.8709553661781
 30
0.0
 10
113.5403564169274
 20
-149.8730224234692
 30
0.0
 10
113.5403564169274
 20
-149.8730224234692
 30
0.0
 10
113.5403564169274
 20
-149.6890543245569
 30
0.0
 10
113.5403564169274
 20
-149.6890543245569
 30
0.0
 10
113.6547335870377
 20
-149.6973225537215
 30
0.0
 10
113.6991753187974
 20
-149.6973225537215
 30
0.0
 10
114.0819254272087
 20
-149.7059352924346
 30
0.0
 10
114.0185356702801
 20
-149.6108506570417
 30
0.0
 10
113.9909749063981
 20
-149.5832898931597
 30
0.0
 10
113.9551459133515
 20
-149.5471163905646
 30
0.0
 10
113.9551459133515
 20
-149.5471163905646
 30
0.0
 10
114.1305012735507
 20
-149.4647786084671
 30
0.0
 10
114.1305012735507
 20
-149.4647786084671
 30
0.0
 10
114.1708088907281
 20
-149.5006076015137
 30
0.0
 10
114.2152506224878
 20
-149.5429822759823
 30
0.0
 10
114.2893201754207
 20
-149.6528808219618
 30
0.0
 10
114.2893201754207
 20
-149.6528808219618
 30
0.0
 10
114.1749430053104
 20
-149.7080023497258
 30
0.0
 10
114.1749430053104
 20
-149.7080023497258
 30
0.0
 10
114.1749430053104
 20
-149.7080023497258
 30
0.0
 10
114.1856228013147
 20
-149.7080023497258
 30
0.0
 10
114.1856228013147
 20
-149.7080023497258
 30
0.0
 10
114.1856228013147
 20
-149.7080023497258
 30
0.0
 10
114.7082437864271
 20
-149.7080023497258
 30
0.0
 10
114.7082437864271
 20
-149.7080023497258
 30
0.0
 10
114.7082437864271
 20
-149.7080023497258
 30
0.0
 10
114.6128146414857
 20
-149.663560617966
 30
0.0
 10
114.6128146414857
 20
-149.663560617966
 30
0.0
 10
114.6403754053677
 20
-149.6256645676283
 30
0.0
 10
114.6975639904228
 20
-149.5450493332734
 30
0.0
 10
114.7123779010094
 20
-149.4709797803406
 30
0.0
 10
114.7123779010094
 20
-149.4709797803406
 30
0.0
 10
114.9259738210949
 20
-149.5343695372692
 30
0.0
 10
114.9259738210949
 20
-149.5343695372692
 30
0.0
 10
114.934586559808
 20
-149.5367811041088
 30
0.0
 10
114.955601642268
 20
-149.5471163905646
 30
0.0
 10
114.955601642268
 20
-149.5684759825732
 30
0.0
 10
114.955601642268
 20
-149.6063720329109
 30
0.0
 10
114.8901448280483
 20
-149.6063720329109
 30
0.0
 10
114.8711968028794
 20
-149.6063720329109
 30
0.0
 10
114.8605170068751
 20
-149.6256645676283
 30
0.0
 10
114.8370903575754
 20
-149.6656276752572
 30
0.0
 10
114.8074625364023
 20
-149.7059352924346
 30
0.0
 10
115.2074381222398
 20
-149.6993896110126
 30
0.0
 10
115.2370659434129
 20
-149.6973225537215
 30
0.0
 10
115.313202553637
 20
-149.691121381848
 30
0.0
 10
115.313202553637
 20
-149.691121381848
 30
0.0
 10
115.313202553637
 20
-149.8730224234692
 30
0.0
 10
115.313202553637
 20
-149.8730224234692
 30
0.0
 10
115.2942545284681
 20
-149.8730224234692
 30
0.0
 10
115.2687608218772
 20
-149.8709553661781
 30
0.0
 10
115.0486192203698
 20
-149.862342627465
 30
0.0
 10
114.9979763167366
 20
-149.8602755701738
 30
0.0
 10
114.7778347152291
 20
-149.8561414555915
 30
0.0
 10
114.7333929834694
 20
-149.8561414555915
 30
0.0
 10
114.7333929834694
 20
-149.8561414555915
 30
0.0
 10
114.5177300060928
 20
-149.8561414555915
 30
0.0
 10
114.5177300060928
 20
-149.8561414555915
 30
0.0
 10
114.5177300060928
 20
-149.8561414555915
 30
0.0
 10
114.5177300060928
 20
-149.9746527402841
 30
0.0
 10
114.5177300060928
 20
-149.9746527402841
 30
0.0
 10
114.5177300060928
 20
-149.9746527402841
 30
0.0
 10
114.6913628185494
 20
-149.9746527402841
 30
0.0
 10
114.6913628185494
 20
-149.9746527402841
 30
0.0
 10
114.8539713254532
 20
-149.9746527402841
 30
0.0
 10
115.0444851057875
 20
-149.9746527402841
 30
0.0
 10
115.2012369503663
 20
-149.9639729442798
 30
0.0
 10
115.2012369503663
 20
-149.9639729442798
 30
0.0
 10
115.2012369503663
 20
-150.1351941898967
 30
0.0
 10
115.2012369503663
 20
-150.1351941898967
 30
0.0
 10
114.9917751448631
 20
-150.1269259607321
 30
0.0
 10
114.7950601926554
 20
-150.124858903441
 30
0.0
 10
114.6913628185494
 20
-150.124858903441
 30
0.0
 10
114.6913628185494
 20
-150.124858903441
 30
0.0
 10
114.5177300060928
 20
-150.124858903441
 30
0.0
 10
114.5177300060928
 20
-150.124858903441
 30
0.0
 10
114.5177300060928
 20
-150.124858903441
 30
0.0
 10
114.5177300060928
 20
-150.2326903921293
 30
0.0
 10
114.5177300060928
 20
-150.2326903921293
 30
0.0
 10
114.5177300060928
 20
-150.2326903921293
 30
0.0
 10
114.748206894056
 20
-150.2326903921293
 30
0.0
 10
114.748206894056
 20
-150.2326903921293
 30
0.0
 10
114.8815320893352
 20
-150.2326903921293
 30
0.0
 10
115.1691975623535
 20
-150.228556277547
 30
0.0
 10
115.3786593678567
 20
-150.222010596125
 30
0.0
 10
115.3786593678567
 20
-150.222010596125
 30
0.0
 10
115.3786593678567
 20
-150.3997775231639
 30
0.0
 10
115.3786593678567
 20
-150.3997775231639
 30
0.0
 10
115.1864230397798
 20
-150.3935763512905
 30
0.0
 10
114.8732638601706
 20
-150.3890977271597
 30
0.0
 10
114.748206894056
 20
-150.3890977271597
 30
0.0
  0
HATCH
  5
183
330
177
100
AcDbEntity
  8
レイヤー 1
 62
    18
420
        0
440
 33554687
100
AcDbHatch
 10
0.0
 20
0.0
 30
0.0
210
0.0
220
0.0
230
1.0
  2
SOLID
 70
     1
 71
     1
 91
        4
 92
        1
 93
        1
 72
     4
 94
        3
 73
     0
 74
     0
 95
       17
 96
       13
 40
0.0
 40
0.0
 40
0.0
 40
0.0
 40
1.0
 40
1.0
 40
1.0
 40
2.0
 40
2.0
 40
2.0
 40
3.0
 40
3.0
 40
3.0
 40
4.0
 40
4.0
 40
4.0
 40
4.0
 10
114.9132269677995
 20
-151.1211805177752
 10
114.9132269677995
 20
-151.1211805177752
 10
114.2066378837747
 20
-151.1211805177752
 10
114.2066378837747
 20
-151.1211805177752
 10
114.2066378837747
 20
-151.1211805177752
 10
114.2066378837747
 20
-151.2355576878855
 10
114.2066378837747
 20
-151.2355576878855
 10
114.2066378837747
 20
-151.2355576878855
 10
114.9132269677995
 20
-151.2355576878855
 10
114.9132269677995
 20
-151.2355576878855
 10
114.9132269677995
 20
-151.2355576878855
 10
114.9132269677995
 20
-151.1211805177752
 10
114.9132269677995
 20
-151.1211805177752
 97
        0
 97
        1
330
17F
 92
        1
 93
        1
 72
     4
 94
        3
 73
     0
 74
     0
 95
       17
 96
       13
 40
0.0
 40
0.0
 40
0.0
 40
0.0
 40
1.0
 40
1.0
 40
1.0
 40
2.0
 40
2.0
 40
2.0
 40
3.0
 40
3.0
 40
3.0
 40
4.0
 40
4.0
 40
4.0
 40
4.0
 10
114.9132269677995
 20
-150.8779567765166
 10
114.9132269677995
 20
-150.8779567765166
 10
114.2066378837747
 20
-150.8779567765166
 10
114.2066378837747
 20
-150.8779567765166
 10
114.2066378837747
 20
-150.8779567765166
 10
114.2066378837747
 20
-150.9919894370784
 10
114.2066378837747
 20
-150.9919894370784
 10
114.2066378837747
 20
-150.9919894370784
 10
114.9132269677995
 20
-150.9919894370784
 10
114.9132269677995
 20
-150.9919894370784
 10
114.9132269677995
 20
-150.9919894370784
 10
114.9132269677995
 20
-150.8779567765166
 10
114.9132269677995
 20
-150.8779567765166
 97
        0
 97
        1
330
180
 92
        1
 93
        1
 72
     4
 94
        3
 73
     0
 74
     0
 95
       17
 96
       13
 40
0.0
 40
0.0
 40
0.0
 40
0.0
 40
1.0
 40
1.0
 40
1.0
 40
2.0
 40
2.0
 40
2.0
 40
3.0
 40
3.0
 40
3.0
 40
4.0
 40
4.0
 40
4.0
 40
4.0
 10
114.9132269677995
 20
-150.6450683217137
 10
114.9132269677995
 20
-150.6450683217137
 10
114.2066378837747
 20
-150.6450683217137
 10
114.2066378837747
 20
-150.6450683217137
 10
114.2066378837747
 20
-150.6450683217137
 10
114.2066378837747
 20
-150.752899810402
 10
114.2066378837747
 20
-150.752899810402
 10
114.2066378837747
 20
-150.752899810402
 10
114.9132269677995
 20
-150.752899810402
 10
114.9132269677995
 20
-150.752899810402
 10
114.9132269677995
 20
-150.752899810402
 10
114.9132269677995
 20
-150.6450683217137
 10
114.9132269677995
 20
-150.6450683217137
 97
        0
 97
        1
330
181
 92
        1
 93
        1
 72
     4
 94
        3
 73
     0
 74
     0
 95
      203
 96
      199
 40
0.0
 40
0.0
 40
0.0
 40
0.0
 40
1.0
 40
1.0
 40
1.0
 40
2.0
 40
2.0
 40
2.0
 40
3.0
 40
3.0
 40
3.0
 40
4.0
 40
4.0
 40
4.0
 40
5.0
 40
5.0
 40
5.0
 40
6.0
 40
6.0
 40
6.0
 40
7.0
 40
7.0
 40
7.0
 40
8.0
 40
8.0
 40
8.0
 40
9.0
 40
9.0
 40
9.0
 40
10.0
 40
10.0
 40
10.0
 40
11.0
 40
11.0
 40
11.0
 40
12.0
 40
12.0
 40
12.0
 40
13.0
 40
13.0
 40
13.0
 40
14.0
 40
14.0
 40
14.0
 40
15.0
 40
15.0
 40
15.0
 40
16.0
 40
16.0
 40
16.0
 40
17.0
 40
17.0
 40
17.0
 40
18.0
 40
18.0
 40
18.0
 40
19.0
 40
19.0
 40
19.0
 40
20.0
 40
20.0
 40
20.0
 40
21.0
 40
21.0
 40
21.0
 40
22.0
 40
22.0
 40
22.0
 40
23.0
 40
23.0
 40
23.0
 40
24.0
 40
24.0
 40
24.0
 40
25.0
 40
25.0
 40
25.0
 40
26.0
 40
26.0
 40
26.0
 40
27.0
 40
27.0
 40
27.0
 40
28.0
 40
28.0
 40
28.0
 40
29.0
 40
29.0
 40
29.0
 40
30.0
 40
30.0
 40
30.0
 40
31.0
 40
31.0
 40
31.0
 40
32.0
 40
32.0
 40
32.0
 40
33.0
 40
33.0
 40
33.0
 40
34.0
 40
34.0
 40
34.0
 40
35.0
 40
35.0
 40
35.0
 40
36.0
 40
36.0
 40
36.0
 40
37.0
 40
37.0
 40
37.0
 40
38.0
 40
38.0
 40
38.0
 40
39.0
 40
39.0
 40
39.0
 40
40.0
 40
40.0
 40
40.0
 40
41.0
 40
41.0
 40
41.0
 40
42.0
 40
42.0
 40
42.0
 40
43.0
 40
43.0
 40
43.0
 40
44.0
 40
44.0
 40
44.0
 40
45.0
 40
45.0
 40
45.0
 40
46.0
 40
46.0
 40
46.0
 40
47.0
 40
47.0
 40
47.0
 40
48.0
 40
48.0
 40
48.0
 40
49.0
 40
49.0
 40
49.0
 40
50.0
 40
50.0
 40
50.0
 40
51.0
 40
51.0
 40
51.0
 40
52.0
 40
52.0
 40
52.0
 40
53.0
 40
53.0
 40
53.0
 40
54.0
 40
54.0
 40
54.0
 40
55.0
 40
55.0
 40
55.0
 40
56.0
 40
56.0
 40
56.0
 40
57.0
 40
57.0
 40
57.0
 40
58.0
 40
58.0
 40
58.0
 40
59.0
 40
59.0
 40
59.0
 40
60.0
 40
60.0
 40
60.0
 40
61.0
 40
61.0
 40
61.0
 40
62.0
 40
62.0
 40
62.0
 40
63.0
 40
63.0
 40
63.0
 40
64.0
 40
64.0
 40
64.0
 40
65.0
 40
65.0
 40
65.0
 40
66.0
 40
66.0
 40
66.0
 40
66.0
 10
114.748206894056
 20
-150.3890977271597
 10
114.748206894056
 20
-150.3890977271597
 10
114.189756915897
 20
-150.3890977271597
 10
114.189756915897
 20
-150.3890977271597
 10
114.1794216294412
 20
-150.4335394589194
 10
114.1708088907281
 20
-150.4652343373837
 10
114.1580620374327
 20
-150.5034748972699
 10
114.1835557440235
 20
-150.5034748972699
 10
114.1983696546101
 20
-150.5055419545611
 10
114.2045708264836
 20
-150.5055419545611
 10
114.2045708264836
 20
-150.5055419545611
 10
114.3930175495267
 20
-150.5055419545611
 10
114.3930175495267
 20
-150.5055419545611
 10
114.3930175495267
 20
-150.5055419545611
 10
114.7674994287734
 20
-150.5055419545611
 10
114.7674994287734
 20
-150.5055419545611
 10
114.8181423324066
 20
-150.5055419545611
 10
115.1016736908426
 20
-150.4927951012657
 10
115.1333685693069
 20
-150.4927951012657
 10
115.1313015120158
 20
-150.5203558651477
 10
115.1292344547246
 20
-150.5393038903165
 10
115.1292344547246
 20
-150.5689317114897
 10
115.1271673974335
 20
-150.600626589954
 10
115.1271673974335
 20
-150.7360188425243
 10
115.1271673974335
 20
-150.7635796064063
 10
115.1271673974335
 20
-150.7635796064063
 10
115.1271673974335
 20
-151.0088704049561
 10
115.1271673974335
 20
-151.0088704049561
 10
115.1271673974335
 20
-151.0533121367158
 10
115.1313015120158
 20
-151.2503715984721
 10
115.1354356265981
 20
-151.4026448189202
 10
115.1354356265981
 20
-151.4026448189202
 10
114.9090928532171
 20
-151.4026448189202
 10
114.9090928532171
 20
-151.4026448189202
 10
114.9090928532171
 20
-151.4026448189202
 10
114.9111599105083
 20
-151.3685383736162
 10
114.9111599105083
 20
-151.3685383736162
 10
114.9111599105083
 20
-151.3685383736162
 10
114.2090494506144
 20
-151.3685383736162
 10
114.2090494506144
 20
-151.3685383736162
 10
114.2090494506144
 20
-151.3685383736162
 10
114.2111165079055
 20
-151.4026448189202
 10
114.2111165079055
 20
-151.4026448189202
 10
114.2111165079055
 20
-151.4026448189202
 10
113.9930419636892
 20
-151.4026448189202
 10
113.9930419636892
 20
-151.4026448189202
 10
113.99752058782
 20
-151.3475232911562
 10
113.99752058782
 20
-151.3347764378607
 10
114.0037217596935
 20
-151.220743777299
 10
114.0057888169846
 20
-151.193183013417
 10
114.0078558742758
 20
-151.0598578181378
 10
114.0078558742758
 20
-151.0409097929689
 10
114.0078558742758
 20
-151.0409097929689
 10
114.0078558742758
 20
-150.8376491593392
 10
114.0078558742758
 20
-150.8376491593392
 10
113.8683295071232
 20
-151.0874185820198
 10
113.6991753187974
 20
-151.2183322104593
 10
113.5934108874002
 20
-151.2841335342276
 10
113.5934108874002
 20
-151.2841335342276
 10
113.4197780749437
 20
-151.1442626575264
 10
113.4197780749437
 20
-151.1442626575264
 10
113.5086615384631
 20
-151.0936197538933
 10
113.6526665297465
 20
-151.0068033476649
 10
113.790125839608
 20
-150.8121554527483
 10
113.8810763604186
 20
-150.6853759388911
 10
113.9465331746384
 20
-150.5413709476077
 10
113.9802951103938
 20
-150.3890977271597
 10
113.7518852797217
 20
-150.3911647844508
 10
113.5720512953917
 20
-150.3977104658728
 10
113.4769666599988
 20
-150.3997775231639
 10
113.4769666599988
 20
-150.3997775231639
 10
113.4769666599988
 20
-150.222010596125
 10
113.4769666599988
 20
-150.222010596125
 10
113.6736816122066
 20
-150.228556277547
 10
113.9572129706426
 20
-150.2326903921293
 10
114.1074191337995
 20
-150.2326903921293
 10
114.1074191337995
 20
-150.2326903921293
 10
114.321015053885
 20
-150.2326903921293
 10
114.321015053885
 20
-150.2326903921293
 10
114.321015053885
 20
-150.2326903921293
 10
114.321015053885
 20
-150.124858903441
 10
114.321015053885
 20
-150.124858903441
 10
114.321015053885
 20
-150.124858903441
 10
114.1749430053104
 20
-150.124858903441
 10
114.1749430053104
 20
-150.124858903441
 10
114.0057888169846
 20
-150.124858903441
 10
113.8366346286589
 20
-150.1289930180233
 10
113.6695474976243
 20
-150.1351941898967
 10
113.6695474976243
 20
-150.1351941898967
 10
113.6695474976243
 20
-149.9639729442798
 10
113.6695474976243
 20
-149.9639729442798
 10
113.8238877753634
 20
-149.9746527402841
 10
114.0099229315669
 20
-149.9746527402841
 10
114.1749430053104
 20
-149.9746527402841
 10
114.1749430053104
 20
-149.9746527402841
 10
114.321015053885
 20
-149.9746527402841
 10
114.321015053885
 20
-149.9746527402841
 10
114.321015053885
 20
-149.9746527402841
 10
114.321015053885
 20
-149.8561414555915
 10
114.321015053885
 20
-149.8561414555915
 10
114.321015053885
 20
-149.8561414555915
 10
114.189756915897
 20
-149.8561414555915
 10
114.189756915897
 20
-149.8561414555915
 10
114.1432481268461
 20
-149.8561414555915
 10
113.9403320027649
 20
-149.8644096847561
 10
113.8979573282963
 20
-149.8644096847561
 10
113.6946966946666
 20
-149.8688883088869
 10
113.6185600844426
 20
-149.8709553661781
 10
113.5403564169274
 20
-149.8730224234692
 10
113.5403564169274
 20
-149.8730224234692
 10
113.5403564169274
 20
-149.6890543245569
 10
113.5403564169274
 20
-149.6890543245569
 10
113.6547335870377
 20
-149.6973225537215
 10
113.6991753187974
 20
-149.6973225537215
 10
114.0819254272087
 20
-149.7059352924346
 10
114.0185356702801
 20
-149.6108506570417
 10
113.9909749063981
 20
-149.5832898931597
 10
113.9551459133515
 20
-149.5471163905646
 10
113.9551459133515
 20
-149.5471163905646
 10
114.1305012735507
 20
-149.4647786084671
 10
114.1305012735507
 20
-149.4647786084671
 10
114.1708088907281
 20
-149.5006076015137
 10
114.2152506224878
 20
-149.5429822759823
 10
114.2893201754207
 20
-149.6528808219618
 10
114.2893201754207
 20
-149.6528808219618
 10
114.1749430053104
 20
-149.7080023497258
 10
114.1749430053104
 20
-149.7080023497258
 10
114.1749430053104
 20
-149.7080023497258
 10
114.1856228013147
 20
-149.7080023497258
 10
114.1856228013147
 20
-149.7080023497258
 10
114.1856228013147
 20
-149.7080023497258
 10
114.7082437864271
 20
-149.7080023497258
 10
114.7082437864271
 20
-149.7080023497258
 10
114.7082437864271
 20
-149.7080023497258
 10
114.6128146414857
 20
-149.663560617966
 10
114.6128146414857
 20
-149.663560617966
 10
114.6403754053677
 20
-149.6256645676283
 10
114.6975639904228
 20
-149.5450493332734
 10
114.7123779010094
 20
-149.4709797803406
 10
114.7123779010094
 20
-149.4709797803406
 10
114.9259738210949
 20
-149.5343695372692
 10
114.9259738210949
 20
-149.5343695372692
 10
114.934586559808
 20
-149.5367811041088
 10
114.955601642268
 20
-149.5471163905646
 10
114.955601642268
 20
-149.5684759825732
 10
114.955601642268
 20
-149.6063720329109
 10
114.8901448280483
 20
-149.6063720329109
 10
114.8711968028794
 20
-149.6063720329109
 10
114.8605170068751
 20
-149.6256645676283
 10
114.8370903575754
 20
-149.6656276752572
 10
114.8074625364023
 20
-149.7059352924346
 10
115.2074381222398
 20
-149.6993896110126
 10
115.2370659434129
 20
-149.6973225537215
 10
115.313202553637
 20
-149.691121381848
 10
115.313202553637
 20
-149.691121381848
 10
115.313202553637
 20
-149.8730224234692
 10
115.313202553637
 20
-149.8730224234692
 10
115.2942545284681
 20
-149.8730224234692
 10
115.2687608218772
 20
-149.8709553661781
 10
115.0486192203698
 20
-149.862342627465
 10
114.9979763167366
 20
-149.8602755701738
 10
114.7778347152291
 20
-149.8561414555915
 10
114.7333929834694
 20
-149.8561414555915
 10
114.7333929834694
 20
-149.8561414555915
 10
114.5177300060928
 20
-149.8561414555915
 10
114.5177300060928
 20
-149.8561414555915
 10
114.5177300060928
 20
-149.8561414555915
 10
114.5177300060928
 20
-149.9746527402841
 10
114.5177300060928
 20
-149.9746527402841
 10
114.5177300060928
 20
-149.9746527402841
 10
114.6913628185494
 20
-149.9746527402841
 10
114.6913628185494
 20
-149.9746527402841
 10
114.8539713254532
 20
-149.9746527402841
 10
115.0444851057875
 20
-149.9746527402841
 10
115.2012369503663
 20
-149.9639729442798
 10
115.2012369503663
 20
-149.9639729442798
 10
115.2012369503663
 20
-150.1351941898967
 10
115.2012369503663
 20
-150.1351941898967
 10
114.9917751448631
 20
-150.1269259607321
 10
114.7950601926554
 20
-150.124858903441
 10
114.6913628185494
 20
-150.124858903441
 10
114.6913628185494
 20
-150.124858903441
 10
114.5177300060928
 20
-150.124858903441
 10
114.5177300060928
 20
-150.124858903441
 10
114.5177300060928
 20
-150.124858903441
 10
114.5177300060928
 20
-150.2326903921293
 10
114.5177300060928
 20
-150.2326903921293
 10
114.5177300060928
 20
-150.2326903921293
 10
114.748206894056
 20
-150.2326903921293
 10
114.748206894056
 20
-150.2326903921293
 10
114.8815320893352
 20
-150.2326903921293
 10
115.1691975623535
 20
-150.228556277547
 10
115.3786593678567
 20
-150.222010596125
 10
115.3786593678567
 20
-150.222010596125
 10
115.3786593678567
 20
-150.3997775231639
 10
115.3786593678567
 20
-150.3997775231639
 10
115.1864230397798
 20
-150.3935763512905
 10
114.8732638601706
 20
-150.3890977271597
 10
114.748206894056
 20
-150.3890977271597
 97
        0
 97
        1
330
182
 75
     2
 76
     1
 98
        1
 10
0.0
 20
0.0
450
        0
451
        0
460
0.0
461
0.0
452
        0
462
0.0
453
        0
470

  0
SPLINE
  5
184
330
177
100
AcDbEntity
  8
レイヤー 1
100
AcDbSpline
210
0.0
220
0.0
230
1.0
 70
     9
 71
     3
 72
    29
 73
    25
 74
     0
 42
0.0000000001
 43
0.0000000001
 40
0.0
 40
0.0
 40
0.0
 40
0.0
 40
1.0
 40
1.0
 40
1.0
 40
2.0
 40
2.0
 40
2.0
 40
3.0
 40
3.0
 40
3.0
 40
4.0
 40
4.0
 40
4.0
 40
5.0
 40
5.0
 40
5.0
 40
6.0
 40
6.0
 40
6.0
 40
7.0
 40
7.0
 40
7.0
 40
8.0
 40
8.0
 40
8.0
 40
8.0
 10
116.623716876226
 20
-149.8371934304226
 30
0.0
 10
116.623716876226
 20
-149.8371934304226
 30
0.0
 10
116.2705945889879
 20
-149.8371934304226
 30
0.0
 10
116.2705945889879
 20
-149.8371934304226
 30
0.0
 10
116.1582844761688
 20
-149.8371934304226
 30
0.0
 10
116.0187581090161
 20
-149.8433946022961
 30
0.0
 10
115.9109266203278
 20
-149.8561414555915
 30
0.0
 10
115.9109266203278
 20
-149.8561414555915
 30
0.0
 10
115.9109266203278
 20
-149.6211859434975
 30
0.0
 10
115.9109266203278
 20
-149.6211859434975
 30
0.0
 10
116.0294379050204
 20
-149.6359998540841
 30
0.0
 10
116.2134060039327
 20
-149.6404784782148
 30
0.0
 10
116.2705945889879
 20
-149.6404784782148
 30
0.0
 10
116.2705945889879
 20
-149.6404784782148
 30
0.0
 10
116.623716876226
 20
-149.6404784782148
 30
0.0
 10
116.623716876226
 20
-149.6404784782148
 30
0.0
 10
116.6430094109434
 20
-149.6404784782148
 30
0.0
 10
116.8459255350246
 20
-149.6404784782148
 30
0.0
 10
116.9875189594684
 20
-149.6211859434975
 30
0.0
 10
116.9875189594684
 20
-149.6211859434975
 30
0.0
 10
116.9875189594684
 20
-149.8561414555915
 30
0.0
 10
116.9875189594684
 20
-149.8561414555915
 30
0.0
 10
116.831111624438
 20
-149.8371934304226
 30
0.0
 10
116.6405978441037
 20
-149.8371934304226
 30
0.0
 10
116.623716876226
 20
-149.8371934304226
 30
0.0
  0
SPLINE
  5
185
330
177
100
AcDbEntity
  8
レイヤー 1
100
AcDbSpline
210
0.0
220
0.0
230
1.0
 70
     9
 71
     3
 72
    47
 73
    43
 74
     0
 42
0.0000000001
 43
0.0000000001
 40
0.0
 40
0.0
 40
0.0
 40
0.0
 40
1.0
 40
1.0
 40
1.0
 40
2.0
 40
2.0
 40
2.0
 40
3.0
 40
3.0
 40
3.0
 40
4.0
 40
4.0
 40
4.0
 40
5.0
 40
5.0
 40
5.0
 40
6.0
 40
6.0
 40
6.0
 40
7.0
 40
7.0
 40
7.0
 40
8.0
 40
8.0
 40
8.0
 40
9.0
 40
9.0
 40
9.0
 40
10.0
 40
10.0
 40
10.0
 40
11.0
 40
11.0
 40
11.0
 40
12.0
 40
12.0
 40
12.0
 40
13.0
 40
13.0
 40
13.0
 40
14.0
 40
14.0
 40
14.0
 40
14.0
 10
116.7253471930409
 20
-150.3660155874085
 30
0.0
 10
116.7253471930409
 20
-150.3660155874085
 30
0.0
 10
116.623716876226
 20
-150.3660155874085
 30
0.0
 10
116.623716876226
 20
-150.3660155874085
 30
0.0
 10
116.623716876226
 20
-150.4528319936368
 30
0.0
 10
116.602701793766
 20
-150.8417832739215
 30
0.0
 10
116.4059868415582
 20
-151.0619248754289
 30
0.0
 10
116.2537136211102
 20
-151.2310790637547
 30
0.0
 10
116.0463188728981
 20
-151.3010145021053
 30
0.0
 10
115.961569523961
 20
-151.3285752659873
 30
0.0
 10
115.961569523961
 20
-151.3285752659873
 30
0.0
 10
115.7669216290444
 20
-151.1614881349527
 30
0.0
 10
115.7669216290444
 20
-151.1614881349527
 30
0.0
 10
115.8644178312769
 20
-151.1487412816572
 30
0.0
 10
116.0397731914762
 20
-151.1253146323575
 30
0.0
 10
116.2282199145193
 20
-150.9372124188629
 30
0.0
 10
116.3022894674522
 20
-150.8652099232212
 30
0.0
 10
116.4059868415582
 20
-150.7256835560686
 30
0.0
 10
116.4059868415582
 20
-150.3660155874085
 30
0.0
 10
116.4059868415582
 20
-150.3660155874085
 30
0.0
 10
116.1751654440465
 20
-150.3660155874085
 30
0.0
 10
116.1751654440465
 20
-150.3660155874085
 30
0.0
 10
115.989130287843
 20
-150.3660155874085
 30
0.0
 10
115.8030951316395
 20
-150.3701497019908
 30
0.0
 10
115.6167154658875
 20
-150.3849636125773
 30
0.0
 10
115.6167154658875
 20
-150.3849636125773
 30
0.0
 10
115.6167154658875
 20
-150.1648220110699
 30
0.0
 10
115.6167154658875
 20
-150.1648220110699
 30
0.0
 10
115.8051621889306
 20
-150.1796359216565
 30
0.0
 10
116.0907606046579
 20
-150.1841145457873
 30
0.0
 10
116.1751654440465
 20
-150.1841145457873
 30
0.0
 10
116.1751654440465
 20
-150.1841145457873
 30
0.0
 10
116.7253471930409
 20
-150.1841145457873
 30
0.0
 10
116.7253471930409
 20
-150.1841145457873
 30
0.0
 10
116.7442952182097
 20
-150.1841145457873
 30
0.0
 10
117.0615885124012
 20
-150.1841145457873
 30
0.0
 10
117.2903428526218
 20
-150.1648220110699
 30
0.0
 10
117.2903428526218
 20
-150.1648220110699
 30
0.0
 10
117.2903428526218
 20
-150.3849636125773
 30
0.0
 10
117.2903428526218
 20
-150.3849636125773
 30
0.0
 10
117.1018961295787
 20
-150.3701497019908
 30
0.0
 10
116.913793916084
 20
-150.3660155874085
 30
0.0
 10
116.7253471930409
 20
-150.3660155874085
 30
0.0
  0
HATCH
  5
186
330
177
100
AcDbEntity
  8
レイヤー 1
 62
    18
420
        0
440
 33554687
100
AcDbHatch
 10
0.0
 20
0.0
 30
0.0
210
0.0
220
0.0
230
1.0
  2
SOLID
 70
     1
 71
     1
 91
        2
 92
        1
 93
        1
 72
     4
 94
        3
 73
     0
 74
     0
 95
       29
 96
       25
 40
0.0
 40
0.0
 40
0.0
 40
0.0
 40
1.0
 40
1.0
 40
1.0
 40
2.0
 40
2.0
 40
2.0
 40
3.0
 40
3.0
 40
3.0
 40
4.0
 40
4.0
 40
4.0
 40
5.0
 40
5.0
 40
5.0
 40
6.0
 40
6.0
 40
6.0
 40
7.0
 40
7.0
 40
7.0
 40
8.0
 40
8.0
 40
8.0
 40
8.0
 10
116.623716876226
 20
-149.8371934304226
 10
116.623716876226
 20
-149.8371934304226
 10
116.2705945889879
 20
-149.8371934304226
 10
116.2705945889879
 20
-149.8371934304226
 10
116.1582844761688
 20
-149.8371934304226
 10
116.0187581090161
 20
-149.8433946022961
 10
115.9109266203278
 20
-149.8561414555915
 10
115.9109266203278
 20
-149.8561414555915
 10
115.9109266203278
 20
-149.6211859434975
 10
115.9109266203278
 20
-149.6211859434975
 10
116.0294379050204
 20
-149.6359998540841
 10
116.2134060039327
 20
-149.6404784782148
 10
116.2705945889879
 20
-149.6404784782148
 10
116.2705945889879
 20
-149.6404784782148
 10
116.623716876226
 20
-149.6404784782148
 10
116.623716876226
 20
-149.6404784782148
 10
116.6430094109434
 20
-149.6404784782148
 10
116.8459255350246
 20
-149.6404784782148
 10
116.9875189594684
 20
-149.6211859434975
 10
116.9875189594684
 20
-149.6211859434975
 10
116.9875189594684
 20
-149.8561414555915
 10
116.9875189594684
 20
-149.8561414555915
 10
116.831111624438
 20
-149.8371934304226
 10
116.6405978441037
 20
-149.8371934304226
 10
116.623716876226
 20
-149.8371934304226
 97
        0
 97
        1
330
184
 92
        1
 93
        1
 72
     4
 94
        3
 73
     0
 74
     0
 95
       47
 96
       43
 40
0.0
 40
0.0
 40
0.0
 40
0.0
 40
1.0
 40
1.0
 40
1.0
 40
2.0
 40
2.0
 40
2.0
 40
3.0
 40
3.0
 40
3.0
 40
4.0
 40
4.0
 40
4.0
 40
5.0
 40
5.0
 40
5.0
 40
6.0
 40
6.0
 40
6.0
 40
7.0
 40
7.0
 40
7.0
 40
8.0
 40
8.0
 40
8.0
 40
9.0
 40
9.0
 40
9.0
 40
10.0
 40
10.0
 40
10.0
 40
11.0
 40
11.0
 40
11.0
 40
12.0
 40
12.0
 40
12.0
 40
13.0
 40
13.0
 40
13.0
 40
14.0
 40
14.0
 40
14.0
 40
14.0
 10
116.7253471930409
 20
-150.3660155874085
 10
116.7253471930409
 20
-150.3660155874085
 10
116.623716876226
 20
-150.3660155874085
 10
116.623716876226
 20
-150.3660155874085
 10
116.623716876226
 20
-150.4528319936368
 10
116.602701793766
 20
-150.8417832739215
 10
116.4059868415582
 20
-151.0619248754289
 10
116.2537136211102
 20
-151.2310790637547
 10
116.0463188728981
 20
-151.3010145021053
 10
115.961569523961
 20
-151.3285752659873
 10
115.961569523961
 20
-151.3285752659873
 10
115.7669216290444
 20
-151.1614881349527
 10
115.7669216290444
 20
-151.1614881349527
 10
115.8644178312769
 20
-151.1487412816572
 10
116.0397731914762
 20
-151.1253146323575
 10
116.2282199145193
 20
-150.9372124188629
 10
116.3022894674522
 20
-150.8652099232212
 10
116.4059868415582
 20
-150.7256835560686
 10
116.4059868415582
 20
-150.3660155874085
 10
116.4059868415582
 20
-150.3660155874085
 10
116.1751654440465
 20
-150.3660155874085
 10
116.1751654440465
 20
-150.3660155874085
 10
115.989130287843
 20
-150.3660155874085
 10
115.8030951316395
 20
-150.3701497019908
 10
115.6167154658875
 20
-150.3849636125773
 10
115.6167154658875
 20
-150.3849636125773
 10
115.6167154658875
 20
-150.1648220110699
 10
115.6167154658875
 20
-150.1648220110699
 10
115.8051621889306
 20
-150.1796359216565
 10
116.0907606046579
 20
-150.1841145457873
 10
116.1751654440465
 20
-150.1841145457873
 10
116.1751654440465
 20
-150.1841145457873
 10
116.7253471930409
 20
-150.1841145457873
 10
116.7253471930409
 20
-150.1841145457873
 10
116.7442952182097
 20
-150.1841145457873
 10
117.0615885124012
 20
-150.1841145457873
 10
117.2903428526218
 20
-150.1648220110699
 10
117.2903428526218
 20
-150.1648220110699
 10
117.2903428526218
 20
-150.3849636125773
 10
117.2903428526218
 20
-150.3849636125773
 10
117.1018961295787
 20
-150.3701497019908
 10
116.913793916084
 20
-150.3660155874085
 10
116.7253471930409
 20
-150.3660155874085
 97
        0
 97
        1
330
185
 75
     2
 76
     1
 98
        1
 10
0.0
 20
0.0
450
        0
451
        0
460
0.0
461
0.0
452
        0
462
0.0
453
        0
470

  0
SPLINE
  5
187
330
177
100
AcDbEntity
  8
レイヤー 1
100
AcDbSpline
210
0.0
220
0.0
230
1.0
 70
     9
 71
     3
 72
    29
 73
    25
 74
     0
 42
0.0000000001
 43
0.0000000001
 40
0.0
 40
0.0
 40
0.0
 40
0.0
 40
1.0
 40
1.0
 40
1.0
 40
2.0
 40
2.0
 40
2.0
 40
3.0
 40
3.0
 40
3.0
 40
4.0
 40
4.0
 40
4.0
 40
5.0
 40
5.0
 40
5.0
 40
6.0
 40
6.0
 40
6.0
 40
7.0
 40
7.0
 40
7.0
 40
8.0
 40
8.0
 40
8.0
 40
8.0
 10
118.5712293540377
 20
-150.5289686038608
 30
0.0
 10
118.5712293540377
 20
-150.5289686038608
 30
0.0
 10
118.0868489288116
 20
-150.5289686038608
 30
0.0
 10
118.0868489288116
 20
-150.5289686038608
 30
0.0
 10
118.0592881649296
 20
-150.5289686038608
 30
0.0
 10
117.7419948707381
 20
-150.5289686038608
 30
0.0
 10
117.5304660079437
 20
-150.5541178009031
 30
0.0
 10
117.5304660079437
 20
-150.5541178009031
 30
0.0
 10
117.5304660079437
 20
-150.3236409129399
 30
0.0
 10
117.5304660079437
 20
-150.3236409129399
 30
0.0
 10
117.6889404002652
 20
-150.3467230526911
 30
0.0
 10
117.8794541805995
 20
-150.3491346195308
 30
0.0
 10
118.0868489288116
 20
-150.3491346195308
 30
0.0
 10
118.0868489288116
 20
-150.3491346195308
 30
0.0
 10
118.5712293540377
 20
-150.3491346195308
 30
0.0
 10
118.5712293540377
 20
-150.3491346195308
 30
0.0
 10
118.7572645102412
 20
-150.3491346195308
 30
0.0
 10
118.9432996664447
 20
-150.3467230526911
 30
0.0
 10
119.1276122749056
 20
-150.3236409129399
 30
0.0
 10
119.1276122749056
 20
-150.3236409129399
 30
0.0
 10
119.1276122749056
 20
-150.5541178009031
 30
0.0
 10
119.1276122749056
 20
-150.5541178009031
 30
0.0
 10
118.9432996664447
 20
-150.531035661152
 30
0.0
 10
118.6959418106038
 20
-150.5289686038608
 30
0.0
 10
118.5712293540377
 20
-150.5289686038608
 30
0.0
  0
HATCH
  5
188
330
177
100
AcDbEntity
  8
レイヤー 1
 62
    18
420
        0
440
 33554687
100
AcDbHatch
 10
0.0
 20
0.0
 30
0.0
210
0.0
220
0.0
230
1.0
  2
SOLID
 70
     1
 71
     1
 91
        1
 92
        1
 93
        1
 72
     4
 94
        3
 73
     0
 74
     0
 95
       29
 96
       25
 40
0.0
 40
0.0
 40
0.0
 40
0.0
 40
1.0
 40
1.0
 40
1.0
 40
2.0
 40
2.0
 40
2.0
 40
3.0
 40
3.0
 40
3.0
 40
4.0
 40
4.0
 40
4.0
 40
5.0
 40
5.0
 40
5.0
 40
6.0
 40
6.0
 40
6.0
 40
7.0
 40
7.0
 40
7.0
 40
8.0
 40
8.0
 40
8.0
 40
8.0
 10
118.5712293540377
 20
-150.5289686038608
 10
118.5712293540377
 20
-150.5289686038608
 10
118.0868489288116
 20
-150.5289686038608
 10
118.0868489288116
 20
-150.5289686038608
 10
118.0592881649296
 20
-150.5289686038608
 10
117.7419948707381
 20
-150.5289686038608
 10
117.5304660079437
 20
-150.5541178009031
 10
117.5304660079437
 20
-150.5541178009031
 10
117.5304660079437
 20
-150.3236409129399
 10
117.5304660079437
 20
-150.3236409129399
 10
117.6889404002652
 20
-150.3467230526911
 10
117.8794541805995
 20
-150.3491346195308
 10
118.0868489288116
 20
-150.3491346195308
 10
118.0868489288116
 20
-150.3491346195308
 10
118.5712293540377
 20
-150.3491346195308
 10
118.5712293540377
 20
-150.3491346195308
 10
118.7572645102412
 20
-150.3491346195308
 10
118.9432996664447
 20
-150.3467230526911
 10
119.1276122749056
 20
-150.3236409129399
 10
119.1276122749056
 20
-150.3236409129399
 10
119.1276122749056
 20
-150.5541178009031
 10
119.1276122749056
 20
-150.5541178009031
 10
118.9432996664447
 20
-150.531035661152
 10
118.6959418106038
 20
-150.5289686038608
 10
118.5712293540377
 20
-150.5289686038608
 97
        0
 97
        1
330
187
 75
     2
 76
     1
 98
        1
 10
0.0
 20
0.0
450
        0
451
        0
460
0.0
461
0.0
452
        0
462
0.0
453
        0
470

  0
SPLINE
  5
189
330
177
100
AcDbEntity
  8
レイヤー 1
100
AcDbSpline
210
0.0
220
0.0
230
1.0
 70
     9
 71
     3
 72
    47
 73
    43
 74
     0
 42
0.0000000001
 43
0.0000000001
 40
0.0
 40
0.0
 40
0.0
 40
0.0
 40
1.0
 40
1.0
 40
1.0
 40
2.0
 40
2.0
 40
2.0
 40
3.0
 40
3.0
 40
3.0
 40
4.0
 40
4.0
 40
4.0
 40
5.0
 40
5.0
 40
5.0
 40
6.0
 40
6.0
 40
6.0
 40
7.0
 40
7.0
 40
7.0
 40
8.0
 40
8.0
 40
8.0
 40
9.0
 40
9.0
 40
9.0
 40
10.0
 40
10.0
 40
10.0
 40
11.0
 40
11.0
 40
11.0
 40
12.0
 40
12.0
 40
12.0
 40
13.0
 40
13.0
 40
13.0
 40
14.0
 40
14.0
 40
14.0
 40
14.0
 10
120.7912488847327
 20
-149.9343451231067
 30
0.0
 10
120.7216579559307
 20
-150.2137423669605
 30
0.0
 10
120.6451768361581
 20
-150.5182888078565
 30
0.0
 10
120.3323621660974
 20
-150.8503960126346
 30
0.0
 10
120.0953395967123
 20
-151.1001654353152
 30
0.0
 10
119.8500487981625
 20
-151.1993841852904
 30
0.0
 10
119.7442843667653
 20
-151.241758859759
 30
0.0
 10
119.7442843667653
 20
-151.241758859759
 30
0.0
 10
119.5496364718487
 20
-151.0598578181378
 30
0.0
 10
119.5496364718487
 20
-151.0598578181378
 30
0.0
 10
119.7356716280522
 20
-151.0133490290869
 30
0.0
 10
120.0974066540034
 20
-150.9203314509852
 30
0.0
 10
120.3936848657349
 20
-150.4252712297548
 30
0.0
 10
120.5542263153475
 20
-150.1586208391964
 30
0.0
 10
120.566973168643
 20
-149.9849880267398
 30
0.0
 10
120.5755859073561
 20
-149.8940375059293
 30
0.0
 10
120.5755859073561
 20
-149.8940375059293
 30
0.0
 10
120.0698458901214
 20
-149.8940375059293
 30
0.0
 10
120.0698458901214
 20
-149.8940375059293
 30
0.0
 10
119.9513346054288
 20
-149.8940375059293
 30
0.0
 10
119.5303439371313
 20
-149.9133300406467
 30
0.0
 10
119.3780707166832
 20
-149.9236653271024
 30
0.0
 10
119.3780707166832
 20
-149.9236653271024
 30
0.0
 10
119.3780707166832
 20
-149.7142035215992
 30
0.0
 10
119.3780707166832
 20
-149.7142035215992
 30
0.0
 10
119.5200086506755
 20
-149.7269503748946
 30
0.0
 10
119.7969943276896
 20
-149.7314289990255
 30
0.0
 10
119.9134385550911
 20
-149.7314289990255
 30
0.0
 10
119.9134385550911
 20
-149.7314289990255
 30
0.0
 10
120.2686278996203
 20
-149.7314289990255
 30
0.0
 10
120.2686278996203
 20
-149.7314289990255
 30
0.0
 10
120.2961886635023
 20
-149.7314289990255
 30
0.0
 10
120.4570746226635
 20
-149.7290174321858
 30
0.0
 10
120.566973168643
 20
-149.7142035215992
 30
0.0
 10
120.6241617536981
 20
-149.7080023497258
 30
0.0
 10
120.6410427215758
 20
-149.6890543245569
 30
0.0
 10
120.6644693708755
 20
-149.6656276752572
 30
0.0
 10
120.6644693708755
 20
-149.6656276752572
 30
0.0
 10
120.8525715843702
 20
-149.8158338384141
 30
0.0
 10
120.8525715843702
 20
-149.8158338384141
 30
0.0
 10
120.8377576737836
 20
-149.8454616595872
 30
0.0
 10
120.8274223873278
 20
-149.8644096847561
 30
0.0
 10
120.7912488847327
 20
-149.9343451231067
 30
0.0
  0
HATCH
  5
18A
330
177
100
AcDbEntity
  8
レイヤー 1
 62
    18
420
        0
440
 33554687
100
AcDbHatch
 10
0.0
 20
0.0
 30
0.0
210
0.0
220
0.0
230
1.0
  2
SOLID
 70
     1
 71
     1
 91
        1
 92
        1
 93
        1
 72
     4
 94
        3
 73
     0
 74
     0
 95
       47
 96
       43
 40
0.0
 40
0.0
 40
0.0
 40
0.0
 40
1.0
 40
1.0
 40
1.0
 40
2.0
 40
2.0
 40
2.0
 40
3.0
 40
3.0
 40
3.0
 40
4.0
 40
4.0
 40
4.0
 40
5.0
 40
5.0
 40
5.0
 40
6.0
 40
6.0
 40
6.0
 40
7.0
 40
7.0
 40
7.0
 40
8.0
 40
8.0
 40
8.0
 40
9.0
 40
9.0
 40
9.0
 40
10.0
 40
10.0
 40
10.0
 40
11.0
 40
11.0
 40
11.0
 40
12.0
 40
12.0
 40
12.0
 40
13.0
 40
13.0
 40
13.0
 40
14.0
 40
14.0
 40
14.0
 40
14.0
 10
120.7912488847327
 20
-149.9343451231067
 10
120.7216579559307
 20
-150.2137423669605
 10
120.6451768361581
 20
-150.5182888078565
 10
120.3323621660974
 20
-150.8503960126346
 10
120.0953395967123
 20
-151.1001654353152
 10
119.8500487981625
 20
-151.1993841852904
 10
119.7442843667653
 20
-151.241758859759
 10
119.7442843667653
 20
-151.241758859759
 10
119.5496364718487
 20
-151.0598578181378
 10
119.5496364718487
 20
-151.0598578181378
 10
119.7356716280522
 20
-151.0133490290869
 10
120.0974066540034
 20
-150.9203314509852
 10
120.3936848657349
 20
-150.4252712297548
 10
120.5542263153475
 20
-150.1586208391964
 10
120.566973168643
 20
-149.9849880267398
 10
120.5755859073561
 20
-149.8940375059293
 10
120.5755859073561
 20
-149.8940375059293
 10
120.0698458901214
 20
-149.8940375059293
 10
120.0698458901214
 20
-149.8940375059293
 10
119.9513346054288
 20
-149.8940375059293
 10
119.5303439371313
 20
-149.9133300406467
 10
119.3780707166832
 20
-149.9236653271024
 10
119.3780707166832
 20
-149.9236653271024
 10
119.3780707166832
 20
-149.7142035215992
 10
119.3780707166832
 20
-149.7142035215992
 10
119.5200086506755
 20
-149.7269503748946
 10
119.7969943276896
 20
-149.7314289990255
 10
119.9134385550911
 20
-149.7314289990255
 10
119.9134385550911
 20
-149.7314289990255
 10
120.2686278996203
 20
-149.7314289990255
 10
120.2686278996203
 20
-149.7314289990255
 10
120.2961886635023
 20
-149.7314289990255
 10
120.4570746226635
 20
-149.7290174321858
 10
120.566973168643
 20
-149.7142035215992
 10
120.6241617536981
 20
-149.7080023497258
 10
120.6410427215758
 20
-149.6890543245569
 10
120.6644693708755
 20
-149.6656276752572
 10
120.6644693708755
 20
-149.6656276752572
 10
120.8525715843702
 20
-149.8158338384141
 10
120.8525715843702
 20
-149.8158338384141
 10
120.8377576737836
 20
-149.8454616595872
 10
120.8274223873278
 20
-149.8644096847561
 10
120.7912488847327
 20
-149.9343451231067
 97
        0
 97
        1
330
189
 75
     2
 76
     1
 98
        1
 10
0.0
 20
0.0
450
        0
451
        0
460
0.0
461
0.0
452
        0
462
0.0
453
        0
470

  0
SPLINE
  5
18B
330
177
100
AcDbEntity
  8
レイヤー 1
100
AcDbSpline
210
0.0
220
0.0
230
1.0
 70
     9
 71
     3
 72
    17
 73
    13
 74
     0
 42
0.0000000001
 43
0.0000000001
 40
0.0
 40
0.0
 40
0.0
 40
0.0
 40
1.0
 40
1.0
 40
1.0
 40
2.0
 40
2.0
 40
2.0
 40
3.0
 40
3.0
 40
3.0
 40
4.0
 40
4.0
 40
4.0
 40
4.0
 10
121.1815782032115
 20
-149.7166150884389
 30
0.0
 10
121.1815782032115
 20
-149.7755262212367
 30
0.0
 10
121.2280869922624
 20
-149.8223795198361
 30
0.0
 10
121.2873426346087
 20
-149.8223795198361
 30
0.0
 10
121.346598276955
 20
-149.8223795198361
 30
0.0
 10
121.395174123297
 20
-149.7755262212367
 30
0.0
 10
121.395174123297
 20
-149.7166150884389
 30
0.0
 10
121.395174123297
 20
-149.6573594460926
 30
0.0
 10
121.346598276955
 20
-149.608439090202
 30
0.0
 10
121.2873426346087
 20
-149.608439090202
 30
0.0
 10
121.2280869922624
 20
-149.608439090202
 30
0.0
 10
121.1815782032115
 20
-149.6573594460926
 30
0.0
 10
121.1815782032115
 20
-149.7166150884389
 30
0.0
  0
SPLINE
  5
18C
330
177
100
AcDbEntity
  8
レイヤー 1
100
AcDbSpline
210
0.0
220
0.0
230
1.0
 70
     9
 71
     3
 72
    17
 73
    13
 74
     0
 42
0.0000000001
 43
0.0000000001
 40
0.0
 40
0.0
 40
0.0
 40
0.0
 40
1.0
 40
1.0
 40
1.0
 40
2.0
 40
2.0
 40
2.0
 40
3.0
 40
3.0
 40
3.0
 40
4.0
 40
4.0
 40
4.0
 40
4.0
 10
121.4968044401119
 20
-149.7166150884389
 30
0.0
 10
121.4968044401119
 20
-149.8306477490007
 30
0.0
 10
121.4037868620101
 20
-149.9257323843935
 30
0.0
 10
121.2873426346087
 20
-149.9257323843935
 30
0.0
 10
121.1729654644984
 20
-149.9257323843935
 30
0.0
 10
121.0778808291055
 20
-149.8306477490007
 30
0.0
 10
121.0778808291055
 20
-149.7166150884389
 30
0.0
 10
121.0778808291055
 20
-149.6001708610374
 30
0.0
 10
121.1729654644984
 20
-149.5071532829357
 30
0.0
 10
121.2873426346087
 20
-149.5071532829357
 30
0.0
 10
121.401719804719
 20
-149.5071532829357
 30
0.0
 10
121.4968044401119
 20
-149.6001708610374
 30
0.0
 10
121.4968044401119
 20
-149.7166150884389
 30
0.0
  0
HATCH
  5
18D
330
177
100
AcDbEntity
  8
レイヤー 1
 62
    18
420
        0
440
 33554687
100
AcDbHatch
 10
0.0
 20
0.0
 30
0.0
210
0.0
220
0.0
230
1.0
  2
SOLID
 70
     1
 71
     1
 91
        2
 92
        1
 93
        1
 72
     4
 94
        3
 73
     0
 74
     0
 95
       17
 96
       13
 40
0.0
 40
0.0
 40
0.0
 40
0.0
 40
1.0
 40
1.0
 40
1.0
 40
2.0
 40
2.0
 40
2.0
 40
3.0
 40
3.0
 40
3.0
 40
4.0
 40
4.0
 40
4.0
 40
4.0
 10
121.1815782032115
 20
-149.7166150884389
 10
121.1815782032115
 20
-149.7755262212367
 10
121.2280869922624
 20
-149.8223795198361
 10
121.2873426346087
 20
-149.8223795198361
 10
121.346598276955
 20
-149.8223795198361
 10
121.395174123297
 20
-149.7755262212367
 10
121.395174123297
 20
-149.7166150884389
 10
121.395174123297
 20
-149.6573594460926
 10
121.346598276955
 20
-149.608439090202
 10
121.2873426346087
 20
-149.608439090202
 10
121.2280869922624
 20
-149.608439090202
 10
121.1815782032115
 20
-149.6573594460926
 10
121.1815782032115
 20
-149.7166150884389
 97
        0
 97
        1
330
18B
 92
        1
 93
        1
 72
     4
 94
        3
 73
     0
 74
     0
 95
       17
 96
       13
 40
0.0
 40
0.0
 40
0.0
 40
0.0
 40
1.0
 40
1.0
 40
1.0
 40
2.0
 40
2.0
 40
2.0
 40
3.0
 40
3.0
 40
3.0
 40
4.0
 40
4.0
 40
4.0
 40
4.0
 10
121.4968044401119
 20
-149.7166150884389
 10
121.4968044401119
 20
-149.8306477490007
 10
121.4037868620101
 20
-149.9257323843935
 10
121.2873426346087
 20
-149.9257323843935
 10
121.1729654644984
 20
-149.9257323843935
 10
121.0778808291055
 20
-149.8306477490007
 10
121.0778808291055
 20
-149.7166150884389
 10
121.0778808291055
 20
-149.6001708610374
 10
121.1729654644984
 20
-149.5071532829357
 10
121.2873426346087
 20
-149.5071532829357
 10
121.401719804719
 20
-149.5071532829357
 10
121.4968044401119
 20
-149.6001708610374
 10
121.4968044401119
 20
-149.7166150884389
 97
        0
 97
        1
330
18C
 75
     2
 76
     1
 98
        1
 10
0.0
 20
0.0
450
        0
451
        0
460
0.0
461
0.0
452
        0
462
0.0
453
        0
470

  0
ENDBLK
  5
17A
330
177
100
AcDbEntity
  8
0
100
AcDbBlockEnd
  0
BLOCK
  5
197
330
195
100
AcDbEntity
  8
0
100
AcDbBlockBegin
  2
Block_15
 70
     0
 10
0.0
 20
0.0
 30
0.0
  3
Block_15
  1

  0
INSERT
  5
19A
330
195
100
AcDbEntity
  8
レイヤー 1
100
AcDbBlockReference
  2
Block_16
 10
0.0
 20
0.0
 30
0.0
  0
ENDBLK
  5
198
330
195
100
AcDbEntity
  8
0
100
AcDbBlockEnd
  0
BLOCK
  5
19B
330
199
100
AcDbEntity
  8
0
100
AcDbBlockBegin
  2
Block_16
 70
     0
 10
0.0
 20
0.0
 30
0.0
  3
Block_16
  1

  0
SPLINE
  5
19D
330
199
100
AcDbEntity
  8
レイヤー 1
100
AcDbSpline
210
0.0
220
0.0
230
1.0
 70
    11
 71
     3
 72
    26
 73
    22
 74
     0
 42
0.0000000001
 43
0.0000000001
 40
0.0
 40
0.0
 40
0.0
 40
0.0
 40
1.0
 40
1.0
 40
1.0
 40
2.0
 40
2.0
 40
2.0
 40
3.0
 40
3.0
 40
3.0
 40
4.0
 40
4.0
 40
4.0
 40
5.0
 40
5.0
 40
5.0
 40
6.0
 40
6.0
 40
6.0
 40
7.0
 40
7.0
 40
7.0
 40
7.0
 10
90.99857989261494
 20
-157.3278645440014
 30
0.0
 10
90.99857989261494
 20
-157.3278645440014
 30
0.0
 10
90.99857989261494
 20
-156.2237114409788
 30
0.0
 10
90.99857989261494
 20
-156.2237114409788
 30
0.0
 10
90.99857989261494
 20
-156.2237114409788
 30
0.0
 10
90.66853974512801
 20
-156.2237114409788
 30
0.0
 10
90.66853974512801
 20
-156.2237114409788
 30
0.0
 10
90.66853974512801
 20
-156.2237114409788
 30
0.0
 10
90.66853974512801
 20
-156.075572335113
 30
0.0
 10
90.66853974512801
 20
-156.075572335113
 30
0.0
 10
91.0006469499061
 20
-156.0607584245265
 30
0.0
 10
91.04715573895695
 20
-155.8978054080741
 30
0.0
 10
91.07678356013011
 20
-155.7834282379638
 30
0.0
 10
91.07678356013011
 20
-155.7834282379638
 30
0.0
 10
91.22285560870471
 20
-155.7834282379638
 30
0.0
 10
91.22285560870471
 20
-155.7834282379638
 30
0.0
 10
91.22285560870471
 20
-155.7834282379638
 30
0.0
 10
91.22285560870471
 20
-157.3278645440014
 30
0.0
 10
91.22285560870471
 20
-157.3278645440014
 30
0.0
 10
91.22285560870471
 20
-157.3278645440014
 30
0.0
 10
90.99857989261494
 20
-157.3278645440014
 30
0.0
 10
90.99857989261494
 20
-157.3278645440014
 30
0.0
  0
HATCH
  5
19E
330
199
100
AcDbEntity
  8
レイヤー 1
 62
   250
420
  2299925
440
 33554687
100
AcDbHatch
 10
0.0
 20
0.0
 30
0.0
210
0.0
220
0.0
230
1.0
  2
SOLID
 70
     1
 71
     1
 91
        1
 92
        1
 93
        1
 72
     4
 94
        3
 73
     0
 74
     0
 95
       26
 96
       22
 40
0.0
 40
0.0
 40
0.0
 40
0.0
 40
1.0
 40
1.0
 40
1.0
 40
2.0
 40
2.0
 40
2.0
 40
3.0
 40
3.0
 40
3.0
 40
4.0
 40
4.0
 40
4.0
 40
5.0
 40
5.0
 40
5.0
 40
6.0
 40
6.0
 40
6.0
 40
7.0
 40
7.0
 40
7.0
 40
7.0
 10
90.99857989261494
 20
-157.3278645440014
 10
90.99857989261494
 20
-157.3278645440014
 10
90.99857989261494
 20
-156.2237114409788
 10
90.99857989261494
 20
-156.2237114409788
 10
90.99857989261494
 20
-156.2237114409788
 10
90.66853974512801
 20
-156.2237114409788
 10
90.66853974512801
 20
-156.2237114409788
 10
90.66853974512801
 20
-156.2237114409788
 10
90.66853974512801
 20
-156.075572335113
 10
90.66853974512801
 20
-156.075572335113
 10
91.0006469499061
 20
-156.0607584245265
 10
91.04715573895695
 20
-155.8978054080741
 10
91.07678356013011
 20
-155.7834282379638
 10
91.07678356013011
 20
-155.7834282379638
 10
91.22285560870471
 20
-155.7834282379638
 10
91.22285560870471
 20
-155.7834282379638
 10
91.22285560870471
 20
-155.7834282379638
 10
91.22285560870471
 20
-157.3278645440014
 10
91.22285560870471
 20
-157.3278645440014
 10
91.22285560870471
 20
-157.3278645440014
 10
90.99857989261494
 20
-157.3278645440014
 10
90.99857989261494
 20
-157.3278645440014
 97
        0
 97
        1
330
19D
 75
     2
 76
     1
 98
        1
 10
0.0
 20
0.0
450
        0
451
        0
460
0.0
461
0.0
452
        0
462
0.0
453
        0
470

  0
SPLINE
  5
19F
330
199
100
AcDbEntity
  8
レイヤー 1
100
AcDbSpline
210
0.0
220
0.0
230
1.0
 70
    11
 71
     3
 72
    26
 73
    22
 74
     0
 42
0.0000000001
 43
0.0000000001
 40
0.0
 40
0.0
 40
0.0
 40
0.0
 40
1.0
 40
1.0
 40
1.0
 40
2.0
 40
2.0
 40
2.0
 40
3.0
 40
3.0
 40
3.0
 40
4.0
 40
4.0
 40
4.0
 40
5.0
 40
5.0
 40
5.0
 40
6.0
 40
6.0
 40
6.0
 40
7.0
 40
7.0
 40
7.0
 40
7.0
 10
92.17542451037628
 20
-157.3278645440014
 30
0.0
 10
92.17542451037628
 20
-157.3278645440014
 30
0.0
 10
92.17542451037628
 20
-156.2237114409788
 30
0.0
 10
92.17542451037628
 20
-156.2237114409788
 30
0.0
 10
92.17542451037628
 20
-156.2237114409788
 30
0.0
 10
91.84538436288935
 20
-156.2237114409788
 30
0.0
 10
91.84538436288935
 20
-156.2237114409788
 30
0.0
 10
91.84538436288935
 20
-156.2237114409788
 30
0.0
 10
91.84538436288935
 20
-156.075572335113
 30
0.0
 10
91.84538436288935
 20
-156.075572335113
 30
0.0
 10
92.17749156766743
 20
-156.0607584245265
 30
0.0
 10
92.2240003567183
 20
-155.8978054080741
 30
0.0
 10
92.25362817789145
 20
-155.7834282379638
 30
0.0
 10
92.25362817789145
 20
-155.7834282379638
 30
0.0
 10
92.39970022646605
 20
-155.7834282379638
 30
0.0
 10
92.39970022646605
 20
-155.7834282379638
 30
0.0
 10
92.39970022646605
 20
-155.7834282379638
 30
0.0
 10
92.39970022646605
 20
-157.3278645440014
 30
0.0
 10
92.39970022646605
 20
-157.3278645440014
 30
0.0
 10
92.39970022646605
 20
-157.3278645440014
 30
0.0
 10
92.17542451037628
 20
-157.3278645440014
 30
0.0
 10
92.17542451037628
 20
-157.3278645440014
 30
0.0
  0
HATCH
  5
1A0
330
199
100
AcDbEntity
  8
レイヤー 1
 62
   250
420
  2299925
440
 33554687
100
AcDbHatch
 10
0.0
 20
0.0
 30
0.0
210
0.0
220
0.0
230
1.0
  2
SOLID
 70
     1
 71
     1
 91
        1
 92
        1
 93
        1
 72
     4
 94
        3
 73
     0
 74
     0
 95
       26
 96
       22
 40
0.0
 40
0.0
 40
0.0
 40
0.0
 40
1.0
 40
1.0
 40
1.0
 40
2.0
 40
2.0
 40
2.0
 40
3.0
 40
3.0
 40
3.0
 40
4.0
 40
4.0
 40
4.0
 40
5.0
 40
5.0
 40
5.0
 40
6.0
 40
6.0
 40
6.0
 40
7.0
 40
7.0
 40
7.0
 40
7.0
 10
92.17542451037628
 20
-157.3278645440014
 10
92.17542451037628
 20
-157.3278645440014
 10
92.17542451037628
 20
-156.2237114409788
 10
92.17542451037628
 20
-156.2237114409788
 10
92.17542451037628
 20
-156.2237114409788
 10
91.84538436288935
 20
-156.2237114409788
 10
91.84538436288935
 20
-156.2237114409788
 10
91.84538436288935
 20
-156.2237114409788
 10
91.84538436288935
 20
-156.075572335113
 10
91.84538436288935
 20
-156.075572335113
 10
92.17749156766743
 20
-156.0607584245265
 10
92.2240003567183
 20
-155.8978054080741
 10
92.25362817789145
 20
-155.7834282379638
 10
92.25362817789145
 20
-155.7834282379638
 10
92.39970022646605
 20
-155.7834282379638
 10
92.39970022646605
 20
-155.7834282379638
 10
92.39970022646605
 20
-155.7834282379638
 10
92.39970022646605
 20
-157.3278645440014
 10
92.39970022646605
 20
-157.3278645440014
 10
92.39970022646605
 20
-157.3278645440014
 10
92.17542451037628
 20
-157.3278645440014
 10
92.17542451037628
 20
-157.3278645440014
 97
        0
 97
        1
330
19F
 75
     2
 76
     1
 98
        1
 10
0.0
 20
0.0
450
        0
451
        0
460
0.0
461
0.0
452
        0
462
0.0
453
        0
470

  0
ENDBLK
  5
19C
330
199
100
AcDbEntity
  8
0
100
AcDbBlockEnd
  0
ENDSEC
  0
SECTION
  2
ENTITIES
  0
INSERT
  5
7A
330
70
100
AcDbEntity
  8
レイヤー 1
100
AcDbBlockReference
  2
Block_0
 10
0.0
 20
0.0
 30
0.0
  0
INSERT
  5
B4
330
70
100
AcDbEntity
  8
レイヤー 1
100
AcDbBlockReference
  2
Block_1
 10
0.0
 20
0.0
 30
0.0
  0
INSERT
  5
169
330
70
100
AcDbEntity
  8
レイヤー 1
100
AcDbBlockReference
  2
Block_11
 10
0.0
 20
0.0
 30
0.0
  0
SPLINE
  5
18E
330
70
100
AcDbEntity
  8
レイヤー 1
 62
   250
420
  2299925
370
     9
100
AcDbSpline
210
0.0
220
0.0
230
1.0
 70
     9
 71
     3
 72
    17
 73
    13
 74
     0
 42
0.0000000001
 43
0.0000000001
 40
0.0
 40
0.0
 40
0.0
 40
0.0
 40
1.0
 40
1.0
 40
1.0
 40
2.0
 40
2.0
 40
2.0
 40
3.0
 40
3.0
 40
3.0
 40
4.0
 40
4.0
 40
4.0
 40
4.0
 10
86.12232666508349
 20
-158.0416734307383
 30
0.0
 10
86.12232666508349
 20
-157.9865342640859
 30
0.0
 10
86.07734712764328
 20
-157.9417314863191
 30
0.0
 10
86.02195548399105
 20
-157.9417314863191
 30
0.0
 10
85.96730620257311
 20
-157.9417314863191
 30
0.0
 10
85.92232666513258
 20
-157.9865342640859
 30
0.0
 10
85.92232666513258
 20
-158.0416734307383
 30
0.0
 10
85.92232666513258
 20
-158.0967773196138
 30
0.0
 10
85.96730620257311
 20
-158.1415800973806
 30
0.0
 10
86.02195548399105
 20
-158.1415800973806
 30
0.0
 10
86.07734712764328
 20
-158.1415800973806
 30
0.0
 10
86.12232666508349
 20
-158.0967773196138
 30
0.0
 10
86.12232666508349
 20
-158.0416734307383
 30
0.0
  0
HATCH
  5
18F
330
70
100
AcDbEntity
  8
レイヤー 1
 62
   250
420
  2299925
440
 33554687
100
AcDbHatch
 10
0.0
 20
0.0
 30
0.0
210
0.0
220
0.0
230
1.0
  2
SOLID
 70
     1
 71
     1
 91
        1
 92
        1
 93
        1
 72
     4
 94
        3
 73
     0
 74
     0
 95
       17
 96
       13
 40
0.0
 40
0.0
 40
0.0
 40
0.0
 40
1.0
 40
1.0
 40
1.0
 40
2.0
 40
2.0
 40
2.0
 40
3.0
 40
3.0
 40
3.0
 40
4.0
 40
4.0
 40
4.0
 40
4.0
 10
86.12232666508349
 20
-158.0416734307383
 10
86.12232666508349
 20
-157.9865342640859
 10
86.07734712764328
 20
-157.9417314863191
 10
86.02195548399105
 20
-157.9417314863191
 10
85.96730620257311
 20
-157.9417314863191
 10
85.92232666513258
 20
-157.9865342640859
 10
85.92232666513258
 20
-158.0416734307383
 10
85.92232666513258
 20
-158.0967773196138
 10
85.96730620257311
 20
-158.1415800973806
 10
86.02195548399105
 20
-158.1415800973806
 10
86.07734712764328
 20
-158.1415800973806
 10
86.12232666508349
 20
-158.0967773196138
 10
86.12232666508349
 20
-158.0416734307383
 97
        0
 97
        1
330
18E
 75
     2
 76
     1
 98
        1
 10
0.0
 20
0.0
450
        0
451
        0
460
0.0
461
0.0
452
        0
462
0.0
453
        0
470

  0
SPLINE
  5
190
330
70
100
AcDbEntity
  8
レイヤー 1
 62
   250
420
  2299925
370
     9
100
AcDbSpline
210
0.0
220
0.0
230
1.0
 70
     9
 71
     3
 72
    17
 73
    13
 74
     0
 42
0.0000000001
 43
0.0000000001
 40
0.0
 40
0.0
 40
0.0
 40
0.0
 40
1.0
 40
1.0
 40
1.0
 40
2.0
 40
2.0
 40
2.0
 40
3.0
 40
3.0
 40
3.0
 40
4.0
 40
4.0
 40
4.0
 40
4.0
 10
97.16501313583902
 20
-158.0416734307383
 30
0.0
 10
97.16501313583902
 20
-157.9865342640859
 30
0.0
 10
97.12039950813736
 20
-157.9417314863191
 30
0.0
 10
97.06537476509909
 20
-157.9417314863191
 30
0.0
 10
97.00962676359008
 20
-157.9417314863191
 30
0.0
 10
96.96501313588841
 20
-157.9865342640859
 30
0.0
 10
96.96501313588841
 20
-158.0416734307383
 30
0.0
 10
96.96501313588841
 20
-158.0967773196138
 30
0.0
 10
97.00962676359008
 20
-158.1415800973806
 30
0.0
 10
97.06537476509909
 20
-158.1415800973806
 30
0.0
 10
97.12039950813736
 20
-158.1415800973806
 30
0.0
 10
97.16501313583902
 20
-158.0967773196138
 30
0.0
 10
97.16501313583902
 20
-158.0416734307383
 30
0.0
  0
HATCH
  5
191
330
70
100
AcDbEntity
  8
レイヤー 1
 62
   250
420
  2299925
440
 33554687
100
AcDbHatch
 10
0.0
 20
0.0
 30
0.0
210
0.0
220
0.0
230
1.0
  2
SOLID
 70
     1
 71
     1
 91
        1
 92
        1
 93
        1
 72
     4
 94
        3
 73
     0
 74
     0
 95
       17
 96
       13
 40
0.0
 40
0.0
 40
0.0
 40
0.0
 40
1.0
 40
1.0
 40
1.0
 40
2.0
 40
2.0
 40
2.0
 40
3.0
 40
3.0
 40
3.0
 40
4.0
 40
4.0
 40
4.0
 40
4.0
 10
97.16501313583902
 20
-158.0416734307383
 10
97.16501313583902
 20
-157.9865342640859
 10
97.12039950813736
 20
-157.9417314863191
 10
97.06537476509909
 20
-157.9417314863191
 10
97.00962676359008
 20
-157.9417314863191
 10
96.96501313588841
 20
-157.9865342640859
 10
96.96501313588841
 20
-158.0416734307383
 10
96.96501313588841
 20
-158.0967773196138
 10
97.00962676359008
 20
-158.1415800973806
 10
97.06537476509909
 20
-158.1415800973806
 10
97.12039950813736
 20
-158.1415800973806
 10
97.16501313583902
 20
-158.0967773196138
 10
97.16501313583902
 20
-158.0416734307383
 97
        0
 97
        1
330
190
 75
     2
 76
     1
 98
        1
 10
0.0
 20
0.0
450
        0
451
        0
460
0.0
461
0.0
452
        0
462
0.0
453
        0
470

  0
LINE
  5
192
330
70
100
AcDbEntity
  8
レイヤー 1
 62
   250
420
  2299925
370
     9
100
AcDbLine
 10
97.06568344143947
 20
-158.0416734307383
 30
0.0
 11
86.02163874845906
 21
-158.0416734307383
 31
0.0
  0
LINE
  5
193
330
70
100
AcDbEntity
  8
レイヤー 1
 62
   250
420
  2299925
370
     9
100
AcDbLine
 10
97.06568341362441
 20
-156.5816320422146
 30
0.0
 11
97.06568341362441
 21
-159.0417631527111
 31
0.0
  0
LINE
  5
194
330
70
100
AcDbEntity
  8
レイヤー 1
 62
   250
420
  2299925
370
     9
100
AcDbLine
 10
86.02163874845906
 20
-156.5816320422146
 30
0.0
 11
86.02163874845906
 21
-159.0417631527111
 31
0.0
  0
INSERT
  5
196
330
70
100
AcDbEntity
  8
レイヤー 1
100
AcDbBlockReference
  2
Block_15
 10
0.0
 20
0.0
 30
0.0
  0
ENDSEC
  0
SECTION
  2
OBJECTS
  0
DICTIONARY
  5
C
330
0
100
AcDbDictionary
281
     1
  3
ACAD_COLOR
350
63
  3
ACAD_DETAILVIEWSTYLE
350
6A
  3
ACAD_GROUP
350
D
  3
ACAD_LAYOUT
350
62
  3
ACAD_MATERIAL
350
10
  3
ACAD_MLEADERSTYLE
350
66
  3
ACAD_MLINESTYLE
350
5F
  3
ACAD_PLOTSETTINGS
350
61
  3
ACAD_PLOTSTYLENAME
350
E
  3
ACAD_SCALELIST
350
42
  3
ACAD_SECTIONVIEWSTYLE
350
68
  3
ACAD_TABLESTYLE
350
64
  3
ACAD_VISUALSTYLE
350
29
  3
ACDB_RECOMPOSE_DATA
350
1A9
  3
AcDbVariableDictionary
350
1A1
  0
DICTIONARY
  5
63
102
{ACAD_REACTORS
330
C
102
}
330
C
100
AcDbDictionary
281
     1
  0
DICTIONARY
  5
6A
102
{ACAD_REACTORS
330
C
102
}
330
C
100
AcDbDictionary
281
     1
  3
Imperial24
350
6B
  0
DICTIONARY
  5
D
102
{ACAD_REACTORS
330
C
102
}
330
C
100
AcDbDictionary
281
     1
  0
DICTIONARY
  5
62
102
{ACAD_REACTORS
330
C
102
}
330
C
100
AcDbDictionary
281
     1
  3
Layout1
350
6F
  3
Layout2
350
77
  3
Model
350
73
  0
DICTIONARY
  5
10
102
{ACAD_REACTORS
330
C
102
}
330
C
100
AcDbDictionary
281
     1
  3
ByBlock
350
19
  3
ByLayer
350
11
  3
Global
350
21
  0
DICTIONARY
  5
66
102
{ACAD_REACTORS
330
C
102
}
330
C
100
AcDbDictionary
281
     1
  3
Standard
350
67
  0
DICTIONARY
  5
5F
102
{ACAD_REACTORS
330
C
102
}
330
C
100
AcDbDictionary
281
     1
  3
Standard
350
60
  0
DICTIONARY
  5
61
102
{ACAD_REACTORS
330
C
102
}
330
C
100
AcDbDictionary
281
     1
  0
ACDBDICTIONARYWDFLT
  5
E
102
{ACAD_REACTORS
330
C
102
}
330
C
100
AcDbDictionary
281
     1
  3
Normal
350
F
100
AcDbDictionaryWithDefault
340
F
  0
DICTIONARY
  5
42
102
{ACAD_REACTORS
330
C
102
}
330
C
100
AcDbDictionary
281
     1
  3
A0
350
43
  3
A1
350
44
  3
A2
350
45
  3
A3
350
46
  3
A4
350
47
  3
A5
350
48
  3
A6
350
49
  3
A7
350
4A
  3
A8
350
4B
  3
A9
350
4C
  3
B0
350
4D
  3
B1
350
4E
  3
B2
350
4F
  3
B3
350
50
  3
B4
350
51
  3
B5
350
52
  3
B6
350
53
  0
DICTIONARY
  5
68
102
{ACAD_REACTORS
330
C
102
}
330
C
100
AcDbDictionary
281
     1
  3
Imperial24
350
69
  0
DICTIONARY
  5
64
102
{ACAD_REACTORS
330
C
102
}
330
C
100
AcDbDictionary
281
     1
  3
Standard
350
65
  0
DICTIONARY
  5
29
102
{ACAD_REACTORS
330
C
102
}
330
C
100
AcDbDictionary
281
     1
  3
2dWireframe
350
2F
  3
Basic
350
2E
  3
Brighten
350
35
  3
ColorChange
350
39
  3
Conceptual
350
32
  3
Dim
350
34
  3
EdgeColorOff
350
41
  3
Facepattern
350
38
  3
Flat
350
2A
  3
FlatWithEdges
350
2B
  3
Gouraud
350
2C
  3
GouraudWithEdges
350
2D
  3
Hidden
350
31
  3
JitterOff
350
3F
  3
Linepattern
350
37
  3
OverhangOff
350
40
  3
Realistic
350
33
  3
Shaded
350
3E
  3
Shaded with edges
350
3D
  3
Shades of Gray
350
3A
  3
Sketchy
350
3B
  3
Thicken
350
36
  3
Wireframe
350
30
  3
X-Ray
350
3C
  0
XRECORD
  5
1A9
102
{ACAD_REACTORS
330
C
102
}
330
C
100
AcDbXrecord
280
     1
 90
        1
330
65
  0
DICTIONARY
  5
1A1
102
{ACAD_REACTORS
330
C
102
}
330
C
100
AcDbDictionary
281
     1
  3
CANNOSCALE
350
1A6
  3
CMLEADERSTYLE
350
1A3
  3
CTABLESTYLE
350
1A2
  3
CVIEWDETAILSTYLE
350
1A4
  3
CVIEWSECTIONSTYLE
350
1A5
  0
ACDBDETAILVIEWSTYLE
  5
6B
102
{ACAD_XDICTIONARY
360
1DE
102
}
102
{ACAD_REACTORS
330
6A
102
}
330
6A
100
AcDbModelDocViewStyle
 70
     0
  3
Imperial24
290
     0
100
AcDbDetailViewStyle
 70
     0
 71
     0
 90
        3
 71
     1
340
55
 62
   256
 40
0.24
340
0
 62
   256
 40
0.24
300

 40
0.36
280
     3
 71
     2
340
5D
 90
       25
 62
   256
 71
     3
340
55
 62
   256
 40
0.24
 90
        1
 40
0.75
 90
        1
300
%<\AcVar ViewType \f "%tc1">% %<\AcVar ViewDetailId>%\PSCALE %<\AcVar ViewScale \f "%sn">%
 71
     4
340
5D
 90
       25
 62
   256
340
5D
 90
       25
 62
   256
280
     0
  0
LAYOUT
  5
6F
102
{ACAD_REACTORS
330
62
102
}
330
62
100
AcDbPlotSettings
  1

  2

  4

  6

 40
0.0
 41
0.0
 42
0.0
 43
0.0
 44
0.0
 45
0.0
 46
0.0
 47
0.0
 48
0.0
 49
0.0
140
0.0
141
0.0
142
1.0
143
1.0
 70
   688
 72
     0
 73
     0
 74
     5
  7

 75
    16
147
1.0
 76
     0
 77
     2
 78
   300
148
0.0
149
0.0
100
AcDbLayout
  1
Layout1
 70
     1
 71
     1
 10
0.0
 20
0.0
 11
12.0
 21
9.0
 12
0.0
 22
0.0
 32
0.0
 14
0.0
 24
0.0
 34
0.0
 15
0.0
 25
0.0
 35
0.0
146
0.0
 13
0.0
 23
0.0
 33
0.0
 16
1.0
 26
0.0
 36
0.0
 17
0.0
 27
1.0
 37
0.0
 76
     0
330
6C
  0
LAYOUT
  5
77
102
{ACAD_REACTORS
330
62
102
}
330
62
100
AcDbPlotSettings
  1

  2

  4

  6

 40
0.0
 41
0.0
 42
0.0
 43
0.0
 44
0.0
 45
0.0
 46
0.0
 47
0.0
 48
0.0
 49
0.0
140
0.0
141
0.0
142
1.0
143
1.0
 70
   688
 72
     0
 73
     0
 74
     5
  7

 75
    16
147
1.0
 76
     0
 77
     2
 78
   300
148
0.0
149
0.0
100
AcDbLayout
  1
Layout2
 70
     1
 71
     2
 10
0.0
 20
0.0
 11
12.0
 21
9.0
 12
0.0
 22
0.0
 32
0.0
 14
0.0
 24
0.0
 34
0.0
 15
0.0
 25
0.0
 35
0.0
146
0.0
 13
0.0
 23
0.0
 33
0.0
 16
1.0
 26
0.0
 36
0.0
 17
0.0
 27
1.0
 37
0.0
 76
     0
330
74
  0
LAYOUT
  5
73
102
{ACAD_REACTORS
330
62
102
}
330
62
100
AcDbPlotSettings
  1

  2

  4

  6

 40
0.0
 41
0.0
 42
0.0
 43
0.0
 44
0.0
 45
0.0
 46
0.0
 47
0.0
 48
0.0
 49
0.0
140
0.0
141
0.0
142
1.0
143
1.0
 70
  1712
 72
     0
 73
     0
 74
     0
  7

 75
     0
147
1.0
 76
     0
 77
     2
 78
   300
148
0.0
149
0.0
100
AcDbLayout
  1
Model
 70
     1
 71
     0
 10
0.0
 20
0.0
 11
12.0
 21
9.0
 12
0.0
 22
0.0
 32
0.0
 14
0.0
 24
0.0
 34
0.0
 15
0.0
 25
0.0
 35
0.0
146
0.0
 13
0.0
 23
0.0
 33
0.0
 16
1.0
 26
0.0
 36
0.0
 17
0.0
 27
1.0
 37
0.0
 76
     0
330
70
  0
MATERIAL
  5
19
102
{ACAD_XDICTIONARY
360
1A
102
}
102
{ACAD_REACTORS
330
10
102
}
330
10
100
AcDbMaterial
  1
ByBlock
 72
     0
 43
0.0208333333333333
 43
0.0
 43
0.0
 43
0.0
 43
0.0
 43
0.0208333333333333
 43
0.0
 43
0.0
 43
0.0
 43
0.0
 43
1.0
 43
0.0
 43
0.0
 43
0.0
 43
0.0
 43
1.0
 77
     0
 47
0.0208333333333333
 47
0.0
 47
0.0
 47
0.0
 47
0.0
 47
0.0208333333333333
 47
0.0
 47
0.0
 47
0.0
 47
0.0
 47
1.0
 47
0.0
 47
0.0
 47
0.0
 47
0.0
 47
1.0
171
     0
 49
0.0208333333333333
 49
0.0
 49
0.0
 49
0.0
 49
0.0
 49
0.0208333333333333
 49
0.0
 49
0.0
 49
0.0
 49
0.0
 49
1.0
 49
0.0
 49
0.0
 49
0.0
 49
0.0
 49
1.0
175
     0
142
0.0208333333333333
142
0.0
142
0.0
142
0.0
142
0.0
142
0.0208333333333333
142
0.0
142
0.0
142
0.0
142
0.0
142
1.0
142
0.0
142
0.0
142
0.0
142
0.0
142
1.0
179
     0
144
0.0208333333333333
144
0.0
144
0.0
144
0.0
144
0.0
144
0.0208333333333333
144
0.0
144
0.0
144
0.0
144
0.0
144
1.0
144
0.0
144
0.0
144
0.0
144
0.0
144
1.0
147
0.0208333333333333
147
0.0
147
0.0
147
0.0
147
0.0
147
0.0208333333333333
147
0.0
147
0.0
147
0.0
147
0.0
147
1.0
147
0.0
147
0.0
147
0.0
147
0.0
147
1.0
  0
MATERIAL
  5
11
102
{ACAD_XDICTIONARY
360
12
102
}
102
{ACAD_REACTORS
330
10
102
}
330
10
100
AcDbMaterial
  1
ByLayer
 72
     0
 43
0.0208333333333333
 43
0.0
 43
0.0
 43
0.0
 43
0.0
 43
0.0208333333333333
 43
0.0
 43
0.0
 43
0.0
 43
0.0
 43
1.0
 43
0.0
 43
0.0
 43
0.0
 43
0.0
 43
1.0
 77
     0
 47
0.0208333333333333
 47
0.0
 47
0.0
 47
0.0
 47
0.0
 47
0.0208333333333333
 47
0.0
 47
0.0
 47
0.0
 47
0.0
 47
1.0
 47
0.0
 47
0.0
 47
0.0
 47
0.0
 47
1.0
171
     0
 49
0.0208333333333333
 49
0.0
 49
0.0
 49
0.0
 49
0.0
 49
0.0208333333333333
 49
0.0
 49
0.0
 49
0.0
 49
0.0
 49
1.0
 49
0.0
 49
0.0
 49
0.0
 49
0.0
 49
1.0
175
     0
142
0.0208333333333333
142
0.0
142
0.0
142
0.0
142
0.0
142
0.0208333333333333
142
0.0
142
0.0
142
0.0
142
0.0
142
1.0
142
0.0
142
0.0
142
0.0
142
0.0
142
1.0
179
     0
144
0.0208333333333333
144
0.0
144
0.0
144
0.0
144
0.0
144
0.0208333333333333
144
0.0
144
0.0
144
0.0
144
0.0
144
1.0
144
0.0
144
0.0
144
0.0
144
0.0
144
1.0
147
0.0208333333333333
147
0.0
147
0.0
147
0.0
147
0.0
147
0.0208333333333333
147
0.0
147
0.0
147
0.0
147
0.0
147
1.0
147
0.0
147
0.0
147
0.0
147
0.0
147
1.0
  0
MATERIAL
  5
21
102
{ACAD_XDICTIONARY
360
22
102
}
102
{ACAD_REACTORS
330
10
102
}
330
10
100
AcDbMaterial
  1
Global
 72
     0
 43
0.0208333333333333
 43
0.0
 43
0.0
 43
0.0
 43
0.0
 43
0.0208333333333333
 43
0.0
 43
0.0
 43
0.0
 43
0.0
 43
1.0
 43
0.0
 43
0.0
 43
0.0
 43
0.0
 43
1.0
 77
     0
 47
0.0208333333333333
 47
0.0
 47
0.0
 47
0.0
 47
0.0
 47
0.0208333333333333
 47
0.0
 47
0.0
 47
0.0
 47
0.0
 47
1.0
 47
0.0
 47
0.0
 47
0.0
 47
0.0
 47
1.0
171
     0
 49
0.0208333333333333
 49
0.0
 49
0.0
 49
0.0
 49
0.0
 49
0.0208333333333333
 49
0.0
 49
0.0
 49
0.0
 49
0.0
 49
1.0
 49
0.0
 49
0.0
 49
0.0
 49
0.0
 49
1.0
175
     0
142
0.0208333333333333
142
0.0
142
0.0
142
0.0
142
0.0
142
0.0208333333333333
142
0.0
142
0.0
142
0.0
142
0.0
142
1.0
142
0.0
142
0.0
142
0.0
142
0.0
142
1.0
179
     0
144
0.0208333333333333
144
0.0
144
0.0
144
0.0
144
0.0
144
0.0208333333333333
144
0.0
144
0.0
144
0.0
144
0.0
144
1.0
144
0.0
144
0.0
144
0.0
144
0.0
144
1.0
147
0.0208333333333333
147
0.0
147
0.0
147
0.0
147
0.0
147
0.0208333333333333
147
0.0
147
0.0
147
0.0
147
0.0
147
1.0
147
0.0
147
0.0
147
0.0
147
0.0
147
1.0
  0
MLEADERSTYLE
  5
67
102
{ACAD_XDICTIONARY
360
1DA
102
}
102
{ACAD_REACTORS
330
66
102
}
330
66
100
AcDbMLeaderStyle
179
     2
170
     2
171
     1
172
     0
 90
        2
 40
0.0
 41
0.0
173
     1
 91
-1056964608
340
5B
 92
       -2
290
     1
 42
0.09
291
     1
 43
0.36
  3
Standard
 44
0.18
300

342
55
174
     1
178
     6
175
     1
176
     0
 93
-1056964608
 45
0.18
292
     0
297
     0
 46
0.18
 94
-1056964608
 47
1.0
 49
1.0
140
1.0
293
     1
141
0.0
294
     1
177
     0
142
1.0
295
     0
296
     0
143
0.125
271
     0
272
     9
273
     9
  0
MLINESTYLE
  5
60
102
{ACAD_REACTORS
330
5F
102
}
330
5F
100
AcDbMlineStyle
  2
STANDARD
 70
     0
  3

 62
   256
 51
90.0
 52
90.0
 71
     2
 49
0.5
 62
   256
  6
BYLAYER
 49
-0.5
 62
   256
  6
BYLAYER
  0
ACDBPLACEHOLDER
  5
F
102
{ACAD_REACTORS
330
E
102
}
330
E
  0
SCALE
  5
43
102
{ACAD_REACTORS
330
42
102
}
330
42
100
AcDbScale
 70
     0
300
1:1
140
1.0
141
1.0
290
     1
  0
SCALE
  5
44
102
{ACAD_REACTORS
330
42
102
}
330
42
100
AcDbScale
 70
     0
300
1/128" = 1'-0"
140
0.0078125
141
12.0
290
     0
  0
SCALE
  5
45
102
{ACAD_REACTORS
330
42
102
}
330
42
100
AcDbScale
 70
     0
300
1/64" = 1'-0"
140
0.015625
141
12.0
290
     0
  0
SCALE
  5
46
102
{ACAD_REACTORS
330
42
102
}
330
42
100
AcDbScale
 70
     0
300
1/32" = 1'-0"
140
0.03125
141
12.0
290
     0
  0
SCALE
  5
47
102
{ACAD_REACTORS
330
42
102
}
330
42
100
AcDbScale
 70
     0
300
1/16" = 1'-0"
140
0.0625
141
12.0
290
     0
  0
SCALE
  5
48
102
{ACAD_REACTORS
330
42
102
}
330
42
100
AcDbScale
 70
     0
300
3/32" = 1'-0"
140
0.09375
141
12.0
290
     0
  0
SCALE
  5
49
102
{ACAD_REACTORS
330
42
102
}
330
42
100
AcDbScale
 70
     0
300
1/8" = 1'-0"
140
0.125
141
12.0
290
     0
  0
SCALE
  5
4A
102
{ACAD_REACTORS
330
42
102
}
330
42
100
AcDbScale
 70
     0
300
3/16" = 1'-0"
140
0.1875
141
12.0
290
     0
  0
SCALE
  5
4B
102
{ACAD_REACTORS
330
42
102
}
330
42
100
AcDbScale
 70
     0
300
1/4" = 1'-0"
140
0.25
141
12.0
290
     0
  0
SCALE
  5
4C
102
{ACAD_REACTORS
330
42
102
}
330
42
100
AcDbScale
 70
     0
300
3/8" = 1'-0"
140
0.375
141
12.0
290
     0
  0
SCALE
  5
4D
102
{ACAD_REACTORS
330
42
102
}
330
42
100
AcDbScale
 70
     0
300
1/2" = 1'-0"
140
0.5
141
12.0
290
     0
  0
SCALE
  5
4E
102
{ACAD_REACTORS
330
42
102
}
330
42
100
AcDbScale
 70
     0
300
3/4" = 1'-0"
140
0.75
141
12.0
290
     0
  0
SCALE
  5
4F
102
{ACAD_REACTORS
330
42
102
}
330
42
100
AcDbScale
 70
     0
300
1" = 1'-0"
140
1.0
141
12.0
290
     0
  0
SCALE
  5
50
102
{ACAD_REACTORS
330
42
102
}
330
42
100
AcDbScale
 70
     0
300
1-1/2" = 1'-0"
140
1.5
141
12.0
290
     0
  0
SCALE
  5
51
102
{ACAD_REACTORS
330
42
102
}
330
42
100
AcDbScale
 70
     0
300
3" = 1'-0"
140
3.0
141
12.0
290
     0
  0
SCALE
  5
52
102
{ACAD_REACTORS
330
42
102
}
330
42
100
AcDbScale
 70
     0
300
6" = 1'-0"
140
6.0
141
12.0
290
     0
  0
SCALE
  5
53
102
{ACAD_REACTORS
330
42
102
}
330
42
100
AcDbScale
 70
     0
300
1'-0" = 1'-0"
140
12.0
141
12.0
290
     0
  0
ACDBSECTIONVIEWSTYLE
  5
69
102
{ACAD_XDICTIONARY
360
1DC
102
}
102
{ACAD_REACTORS
330
68
102
}
330
68
100
AcDbModelDocViewStyle
 70
     0
  3
Imperial24
290
     0
100
AcDbSectionViewStyle
 70
     0
 71
     0
 90
       78
 71
     1
340
55
 62
   256
 40
0.24
340
0
340
0
 62
   256
 40
0.24
300
I, O, Q, S, X, Z
 40
0.48
 90
        3
 40
0.18
 90
        1
 71
     2
340
5D
 90
       25
 62
   256
340
5D
 90
       50
 62
   256
 40
0.24
 40
0.0
 40
0.24
 71
     3
340
55
 62
   256
 40
0.24
 90
        1
 40
0.75
 90
        1
300
%<\AcVar ViewType \f "%tc1">% %<\AcVar ViewSectionStartId>%-%<\AcVar ViewSectionEndId>%\PSCALE %<\AcVar ViewScale \f "%sn">%
 71
     4
 62
   256
 62
   257
300
ANSI31
 40
1.0
 90
        0
290
     0
290
     0
 90
        6
 40
0.0
 40
1.570796326794896
 40
0.2617993877991494
 40
1.308996938995747
 40
-0.2617993877991494
 40
1.832595714594046
  0
TABLESTYLE
  5
65
102
{ACAD_XDICTIONARY
360
1A7
102
}
102
{ACAD_REACTORS
330
64
102
}
330
64
100
AcDbTableStyle
280
     0
  3
Standard
 70
     0
 71
     0
 40
0.06
 41
0.06
280
     0
281
     0
  7
Standard
140
0.18
170
     2
 62
     0
 63
     7
283
     0
 90
      512
 91
        0
  1

274
    -2
284
     1
 64
     0
275
    -2
285
     1
 65
     0
276
    -2
286
     1
 66
     0
277
    -2
287
     1
 67
     0
278
    -2
288
     1
 68
     0
279
    -2
289
     1
 69
     0
  7
Standard
140
0.25
170
     5
 62
     0
 63
     7
283
     0
 90
      512
 91
        0
  1

274
    -2
284
     1
 64
     0
275
    -2
285
     1
 65
     0
276
    -2
286
     1
 66
     0
277
    -2
287
     1
 67
     0
278
    -2
288
     1
 68
     0
279
    -2
289
     1
 69
     0
  7
Standard
140
0.18
170
     5
 62
     0
 63
     7
283
     0
 90
      512
 91
        0
  1

274
    -2
284
     1
 64
     0
275
    -2
285
     1
 65
     0
276
    -2
286
     1
 66
     0
277
    -2
287
     1
 67
     0
278
    -2
288
     1
 68
     0
279
    -2
289
     1
 69
     0
  0
VISUALSTYLE
  5
2F
102
{ACAD_XDICTIONARY
360
1B4
102
}
102
{ACAD_REACTORS
330
29
102
}
330
29
100
AcDbVisualStyle
  2
2dWireframe
 70
     4
177
     2
291
     0
 71
     0
176
     1
 72
     2
176
     1
 73
     0
176
     1
 90
        0
176
     1
 40
0.6
176
     1
 41
30.0
176
     1
 63
     7
421
 16777215
176
     1
 74
     1
176
     1
 91
        4
176
     1
 64
     7
176
     1
 65
   257
176
     1
 75
     1
176
     1
175
     1
176
     1
 42
1.0
176
     1
 92
        0
176
     1
 66
   257
176
     1
 43
1.0
176
     1
 76
     1
176
     1
 77
     6
176
     1
 78
     2
176
     1
 67
     7
176
     1
 79
     5
176
     1
170
     0
176
     1
171
     0
176
     1
290
     0
176
     1
 93
        1
176
     1
 44
0.0
176
     1
173
     0
176
     1
1001
ACAD
1000
AcDbSavedByObjectVersion
1070
     0
  0
VISUALSTYLE
  5
2E
102
{ACAD_XDICTIONARY
360
1B2
102
}
102
{ACAD_REACTORS
330
29
102
}
330
29
100
AcDbVisualStyle
  2
Basic
 70
     7
177
     2
291
     1
 71
     1
176
     1
 72
     0
176
     1
 73
     1
176
     1
 90
        0
176
     1
 40
0.6
176
     1
 41
30.0
176
     1
 63
     7
421
 16777215
176
     1
 74
     0
176
     1
 91
        4
176
     1
 64
     7
176
     1
 65
   257
176
     1
 75
     1
176
     1
175
     1
176
     1
 42
1.0
176
     1
 92
        8
176
     1
 66
     7
176
     1
 43
1.0
176
     1
 76
     1
176
     1
 77
     6
176
     1
 78
     2
176
     1
 67
     7
176
     1
 79
     5
176
     1
170
     0
176
     1
171
     0
176
     1
290
     0
176
     1
 93
        1
176
     1
 44
0.0
176
     1
173
     0
176
     1
1001
ACAD
1000
AcDbSavedByObjectVersion
1070
     0
  0
VISUALSTYLE
  5
35
102
{ACAD_XDICTIONARY
360
1C0
102
}
102
{ACAD_REACTORS
330
29
102
}
330
29
100
AcDbVisualStyle
  2
Brighten
 70
    12
177
     2
291
     1
 71
     2
176
     1
 72
     2
176
     1
 73
     0
176
     1
 90
        0
176
     1
 40
0.6
176
     1
 41
30.0
176
     1
 63
     7
421
 16777215
176
     1
 74
     1
176
     1
 91
        4
176
     1
 64
     7
176
     1
 65
   257
176
     1
 75
     1
176
     1
175
     1
176
     1
 42
1.0
176
     1
 92
        8
176
     1
 66
     7
176
     1
 43
1.0
176
     1
 76
     1
176
     1
 77
     6
176
     1
 78
     2
176
     1
 67
     7
176
     1
 79
     5
176
     1
170
     0
176
     1
171
     0
176
     1
290
     0
176
     1
 93
        1
176
     1
 44
50.0
176
     1
173
     0
176
     1
1001
ACAD
1000
AcDbSavedByObjectVersion
1070
     0
  0
VISUALSTYLE
  5
39
102
{ACAD_XDICTIONARY
360
1C8
102
}
102
{ACAD_REACTORS
330
29
102
}
330
29
100
AcDbVisualStyle
  2
ColorChange
 70
    16
177
     2
291
     1
 71
     2
176
     1
 72
     2
176
     1
 73
     3
176
     1
 90
        0
176
     1
 40
0.6
176
     1
 41
30.0
176
     1
 63
     8
421
  8421504
176
     1
 74
     1
176
     1
 91
        4
176
     1
 64
     7
176
     1
 65
   257
176
     1
 75
     1
176
     1
175
     1
176
     1
 42
1.0
176
     1
 92
        8
176
     1
 66
     8
424
  8421504
176
     1
 43
1.0
176
     1
 76
     1
176
     1
 77
     6
176
     1
 78
     2
176
     1
 67
     7
176
     1
 79
     5
176
     1
170
     0
176
     1
171
     0
176
     1
290
     0
176
     1
 93
        1
176
     1
 44
0.0
176
     1
173
     0
176
     1
1001
ACAD
1000
AcDbSavedByObjectVersion
1070
     0
  0
VISUALSTYLE
  5
32
102
{ACAD_XDICTIONARY
360
1BA
102
}
102
{ACAD_REACTORS
330
29
102
}
330
29
100
AcDbVisualStyle
  2
Conceptual
 70
     9
177
     2
291
     0
 71
     3
176
     1
 72
     2
176
     1
 73
     0
176
     1
 90
        0
176
     1
 40
0.6
176
     1
 41
30.0
176
     1
 63
     7
421
 16777215
176
     1
 74
     2
176
     1
 91
        2
176
     1
 64
     7
176
     1
 65
   257
176
     1
 75
     1
176
     1
175
     1
176
     1
 42
179.0
176
     1
 92
        8
176
     1
 66
     7
176
     1
 43
1.0
176
     1
 76
     1
176
     1
 77
     6
176
     1
 78
     2
176
     1
 67
     7
176
     1
 79
     3
176
     1
170
     0
176
     1
171
     0
176
     1
290
     0
176
     1
 93
        1
176
     1
 44
0.0
176
     1
173
     0
176
     1
1001
ACAD
1000
AcDbSavedByObjectVersion
1070
     0
  0
VISUALSTYLE
  5
34
102
{ACAD_XDICTIONARY
360
1BE
102
}
102
{ACAD_REACTORS
330
29
102
}
330
29
100
AcDbVisualStyle
  2
Dim
 70
    11
177
     2
291
     1
 71
     2
176
     1
 72
     2
176
     1
 73
     0
176
     1
 90
        0
176
     1
 40
0.6
176
     1
 41
30.0
176
     1
 63
     7
421
 16777215
176
     1
 74
     1
176
     1
 91
        4
176
     1
 64
     7
176
     1
 65
   257
176
     1
 75
     1
176
     1
175
     1
176
     1
 42
1.0
176
     1
 92
        8
176
     1
 66
     7
176
     1
 43
1.0
176
     1
 76
     1
176
     1
 77
     6
176
     1
 78
     2
176
     1
 67
     7
176
     1
 79
     5
176
     1
170
     0
176
     1
171
     0
176
     1
290
     0
176
     1
 93
        1
176
     1
 44
-50.0
176
     1
173
     0
176
     1
1001
ACAD
1000
AcDbSavedByObjectVersion
1070
     0
  0
VISUALSTYLE
  5
41
102
{ACAD_XDICTIONARY
360
1D8
102
}
102
{ACAD_REACTORS
330
29
102
}
330
29
100
AcDbVisualStyle
  2
EdgeColorOff
 70
    22
177
     2
291
     1
 71
     2
176
     0
 72
     2
176
     0
 73
     0
176
     0
 90
        0
176
     0
 40
0.6
176
     0
 41
30.0
176
     0
 63
     7
421
 16777215
176
     0
 74
     1
176
     0
 91
        4
176
     0
 64
     7
176
     0
 65
   257
176
     0
 75
     1
176
     0
175
     1
176
     0
 42
1.0
176
     0
 92
        8
176
     2
 66
     7
176
     0
 43
1.0
176
     0
 76
     1
176
     0
 77
     6
176
     0
 78
     2
176
     0
 67
     7
176
     0
 79
     5
176
     0
170
     0
176
     0
171
     0
176
     0
290
     0
176
     0
 93
        1
176
     0
 44
0.0
176
     0
173
     0
176
     0
1001
ACAD
1000
AcDbSavedByObjectVersion
1070
     0
  0
VISUALSTYLE
  5
38
102
{ACAD_XDICTIONARY
360
1C6
102
}
102
{ACAD_REACTORS
330
29
102
}
330
29
100
AcDbVisualStyle
  2
Facepattern
 70
    15
177
     2
291
     1
 71
     2
176
     1
 72
     2
176
     1
 73
     0
176
     1
 90
        0
176
     1
 40
0.6
176
     1
 41
30.0
176
     1
 63
     7
421
 16777215
176
     1
 74
     1
176
     1
 91
        4
176
     1
 64
     7
176
     1
 65
   257
176
     1
 75
     1
176
     1
175
     1
176
     1
 42
1.0
176
     1
 92
        8
176
     1
 66
     7
176
     1
 43
1.0
176
     1
 76
     1
176
     1
 77
     6
176
     1
 78
     2
176
     1
 67
     7
176
     1
 79
     5
176
     1
170
     0
176
     1
171
     0
176
     1
290
     0
176
     1
 93
        1
176
     1
 44
0.0
176
     1
173
     0
176
     1
1001
ACAD
1000
AcDbSavedByObjectVersion
1070
     0
  0
VISUALSTYLE
  5
2A
102
{ACAD_XDICTIONARY
360
1AA
102
}
102
{ACAD_REACTORS
330
29
102
}
330
29
100
AcDbVisualStyle
  2
Flat
 70
     0
177
     2
291
     1
 71
     2
176
     1
 72
     1
176
     1
 73
     1
176
     1
 90
        2
176
     1
 40
0.6
176
     1
 41
30.0
176
     1
 63
     7
421
 16777215
176
     1
 74
     0
176
     1
 91
        0
176
     1
 64
     7
176
     1
 65
   257
176
     1
 75
     1
176
     1
175
     1
176
     1
 42
1.0
176
     1
 92
        8
176
     1
 66
     7
176
     1
 43
1.0
176
     1
 76
     1
176
     1
 77
     6
176
     1
 78
     2
176
     1
 67
     7
176
     1
 79
     5
176
     1
170
     0
176
     1
171
     0
176
     1
290
     0
176
     1
 93
       13
176
     1
 44
0.0
176
     1
173
     0
176
     1
1001
ACAD
1000
AcDbSavedByObjectVersion
1070
     0
  0
VISUALSTYLE
  5
2B
102
{ACAD_XDICTIONARY
360
1AC
102
}
102
{ACAD_REACTORS
330
29
102
}
330
29
100
AcDbVisualStyle
  2
FlatWithEdges
 70
     1
177
     2
291
     1
 71
     2
176
     1
 72
     1
176
     1
 73
     1
176
     1
 90
        2
176
     1
 40
0.6
176
     1
 41
30.0
176
     1
 63
     7
421
 16777215
176
     1
 74
     1
176
     1
 91
        0
176
     1
 64
     7
176
     1
 65
   257
176
     1
 75
     1
176
     1
175
     1
176
     1
 42
1.0
176
     1
 92
        0
176
     1
 66
   257
176
     1
 43
1.0
176
     1
 76
     1
176
     1
 77
     6
176
     1
 78
     2
176
     1
 67
     7
176
     1
 79
     5
176
     1
170
     0
176
     1
171
     0
176
     1
290
     0
176
     1
 93
       13
176
     1
 44
0.0
176
     1
173
     0
176
     1
1001
ACAD
1000
AcDbSavedByObjectVersion
1070
     0
  0
VISUALSTYLE
  5
2C
102
{ACAD_XDICTIONARY
360
1AE
102
}
102
{ACAD_REACTORS
330
29
102
}
330
29
100
AcDbVisualStyle
  2
Gouraud
 70
     2
177
     2
291
     1
 71
     2
176
     1
 72
     2
176
     1
 73
     1
176
     1
 90
        2
176
     1
 40
0.6
176
     1
 41
30.0
176
     1
 63
     7
421
 16777215
176
     1
 74
     0
176
     1
 91
        0
176
     1
 64
     7
176
     1
 65
   257
176
     1
 75
     1
176
     1
175
     1
176
     1
 42
1.0
176
     1
 92
        0
176
     1
 66
     7
176
     1
 43
1.0
176
     1
 76
     1
176
     1
 77
     6
176
     1
 78
     2
176
     1
 67
     7
176
     1
 79
     5
176
     1
170
     0
176
     1
171
     0
176
     1
290
     0
176
     1
 93
       13
176
     1
 44
0.0
176
     1
173
     0
176
     1
1001
ACAD
1000
AcDbSavedByObjectVersion
1070
     0
  0
VISUALSTYLE
  5
2D
102
{ACAD_XDICTIONARY
360
1B0
102
}
102
{ACAD_REACTORS
330
29
102
}
330
29
100
AcDbVisualStyle
  2
GouraudWithEdges
 70
     3
177
     2
291
     1
 71
     2
176
     1
 72
     2
176
     1
 73
     1
176
     1
 90
        2
176
     1
 40
0.6
176
     1
 41
30.0
176
     1
 63
     7
421
 16777215
176
     1
 74
     1
176
     1
 91
        0
176
     1
 64
     7
176
     1
 65
   257
176
     1
 75
     1
176
     1
175
     1
176
     1
 42
1.0
176
     1
 92
        0
176
     1
 66
   257
176
     1
 43
1.0
176
     1
 76
     1
176
     1
 77
     6
176
     1
 78
     2
176
     1
 67
     7
176
     1
 79
     5
176
     1
170
     0
176
     1
171
     0
176
     1
290
     0
176
     1
 93
       13
176
     1
 44
0.0
176
     1
173
     0
176
     1
1001
ACAD
1000
AcDbSavedByObjectVersion
1070
     0
  0
VISUALSTYLE
  5
31
102
{ACAD_XDICTIONARY
360
1B8
102
}
102
{ACAD_REACTORS
330
29
102
}
330
29
100
AcDbVisualStyle
  2
Hidden
 70
     6
177
     2
291
     0
 71
     1
176
     1
 72
     2
176
     1
 73
     2
176
     1
 90
        0
176
     1
 40
0.6
176
     1
 41
30.0
176
     1
 63
     7
421
 16777215
176
     1
 74
     2
176
     1
 91
        2
176
     1
 64
     7
176
     1
 65
   257
176
     1
 75
     2
176
     1
175
     1
176
     1
 42
40.0
176
     1
 92
        0
176
     1
 66
   257
176
     1
 43
1.0
176
     1
 76
     1
176
     1
 77
     6
176
     1
 78
     2
176
     1
 67
     7
176
     1
 79
     3
176
     1
170
     0
176
     1
171
     0
176
     1
290
     0
176
     1
 93
        1
176
     1
 44
0.0
176
     1
173
     0
176
     1
1001
ACAD
1000
AcDbSavedByObjectVersion
1070
     0
  0
VISUALSTYLE
  5
3F
102
{ACAD_XDICTIONARY
360
1D4
102
}
102
{ACAD_REACTORS
330
29
102
}
330
29
100
AcDbVisualStyle
  2
JitterOff
 70
    20
177
     2
291
     1
 71
     2
176
     0
 72
     2
176
     0
 73
     0
176
     0
 90
        0
176
     0
 40
0.6
176
     0
 41
30.0
176
     0
 63
     7
421
 16777215
176
     0
 74
     1
176
     0
 91
        4
176
     0
 64
     7
176
     0
 65
   257
176
     0
 75
     1
176
     0
175
     1
176
     0
 42
1.0
176
     0
 92
       10
176
     2
 66
     7
176
     0
 43
1.0
176
     0
 76
     1
176
     0
 77
     6
176
     0
 78
     2
176
     0
 67
     7
176
     0
 79
     5
176
     0
170
     0
176
     0
171
     0
176
     0
290
     0
176
     0
 93
        1
176
     0
 44
0.0
176
     0
173
     0
176
     0
1001
ACAD
1000
AcDbSavedByObjectVersion
1070
     0
  0
VISUALSTYLE
  5
37
102
{ACAD_XDICTIONARY
360
1C4
102
}
102
{ACAD_REACTORS
330
29
102
}
330
29
100
AcDbVisualStyle
  2
Linepattern
 70
    14
177
     2
291
     1
 71
     2
176
     1
 72
     2
176
     1
 73
     0
176
     1
 90
        0
176
     1
 40
0.6
176
     1
 41
30.0
176
     1
 63
     7
421
 16777215
176
     1
 74
     1
176
     1
 91
        4
176
     1
 64
     7
176
     1
 65
   257
176
     1
 75
     7
176
     1
175
     7
176
     1
 42
1.0
176
     1
 92
        8
176
     1
 66
     7
176
     1
 43
1.0
176
     1
 76
     1
176
     1
 77
     6
176
     1
 78
     2
176
     1
 67
     7
176
     1
 79
     5
176
     1
170
     0
176
     1
171
     0
176
     1
290
     0
176
     1
 93
        1
176
     1
 44
0.0
176
     1
173
     0
176
     1
1001
ACAD
1000
AcDbSavedByObjectVersion
1070
     0
  0
VISUALSTYLE
  5
40
102
{ACAD_XDICTIONARY
360
1D6
102
}
102
{ACAD_REACTORS
330
29
102
}
330
29
100
AcDbVisualStyle
  2
OverhangOff
 70
    21
177
     2
291
     1
 71
     2
176
     0
 72
     2
176
     0
 73
     0
176
     0
 90
        0
176
     0
 40
0.6
176
     0
 41
30.0
176
     0
 63
     7
421
 16777215
176
     0
 74
     1
176
     0
 91
        4
176
     0
 64
     7
176
     0
 65
   257
176
     0
 75
     1
176
     0
175
     1
176
     0
 42
1.0
176
     0
 92
        9
176
     2
 66
     7
176
     0
 43
1.0
176
     0
 76
     1
176
     0
 77
     6
176
     0
 78
     2
176
     0
 67
     7
176
     0
 79
     5
176
     0
170
     0
176
     0
171
     0
176
     0
290
     0
176
     0
 93
        1
176
     0
 44
0.0
176
     0
173
     0
176
     0
1001
ACAD
1000
AcDbSavedByObjectVersion
1070
     0
  0
VISUALSTYLE
  5
33
102
{ACAD_XDICTIONARY
360
1BC
102
}
102
{ACAD_REACTORS
330
29
102
}
330
29
100
AcDbVisualStyle
  2
Realistic
 70
     8
177
     2
291
     0
 71
     2
176
     1
 72
     3
176
     1
 73
     0
176
     1
 90
        2
176
     1
 40
0.6
176
     1
 41
30.0
176
     1
 63
     7
421
 16777215
176
     1
 74
     0
176
     1
 91
        0
176
     1
 64
     7
176
     1
 65
   257
176
     1
 75
     1
176
     1
175
     1
176
     1
 42
1.0
176
     1
 92
        8
176
     1
 66
   257
176
     1
 43
1.0
176
     1
 76
     1
176
     1
 77
     6
176
     1
 78
     2
176
     1
 67
     7
176
     1
 79
     3
176
     1
170
     0
176
     1
171
     0
176
     1
290
     0
176
     1
 93
       13
176
     1
 44
0.0
176
     1
173
     0
176
     1
1001
ACAD
1000
AcDbSavedByObjectVersion
1070
     0
  0
VISUALSTYLE
  5
3E
102
{ACAD_XDICTIONARY
360
1D2
102
}
102
{ACAD_REACTORS
330
29
102
}
330
29
100
AcDbVisualStyle
  2
Shaded
 70
    27
177
     2
291
     0
 71
     2
176
     1
 72
     2
176
     1
 73
     1
176
     1
 90
        2
176
     1
 40
0.6
176
     1
 41
30.0
176
     1
 63
     7
421
 16777215
176
     1
 74
     0
176
     1
 91
        4
176
     1
 64
     7
176
     1
 65
   257
176
     1
 75
     1
176
     1
175
     1
176
     1
 42
1.0
176
     1
 92
        8
176
     1
 66
   257
176
     1
 43
1.0
176
     1
 76
     1
176
     1
 77
     6
176
     1
 78
     2
176
     1
 67
     8
425
  7895160
176
     1
 79
     3
176
     1
170
     0
176
     1
171
     0
176
     1
290
     0
176
     1
 93
        5
176
     1
 44
0.0
176
     1
173
     0
176
     1
1001
ACAD
1000
AcDbSavedByObjectVersion
1070
     0
  0
VISUALSTYLE
  5
3D
102
{ACAD_XDICTIONARY
360
1D0
102
}
102
{ACAD_REACTORS
330
29
102
}
330
29
100
AcDbVisualStyle
  2
Shaded with edges
 70
    26
177
     2
291
     0
 71
     2
176
     1
 72
     2
176
     1
 73
     1
176
     1
 90
        2
176
     1
 40
0.6
176
     1
 41
30.0
176
     1
 63
     7
421
 16777215
176
     1
 74
     1
176
     1
 91
        2
176
     1
 64
     7
176
     1
 65
   257
176
     1
 75
     2
176
     1
175
     1
176
     1
 42
1.0
176
     1
 92
        8
176
     1
 66
   257
176
     1
 43
1.0
176
     1
 76
     1
176
     1
 77
     6
176
     1
 78
     2
176
     1
 67
     7
176
     1
 79
     3
176
     1
170
     0
176
     1
171
     0
176
     1
290
     0
176
     1
 93
        5
176
     1
 44
0.0
176
     1
173
     0
176
     1
1001
ACAD
1000
AcDbSavedByObjectVersion
1070
     0
  0
VISUALSTYLE
  5
3A
102
{ACAD_XDICTIONARY
360
1CA
102
}
102
{ACAD_REACTORS
330
29
102
}
330
29
100
AcDbVisualStyle
  2
Shades of Gray
 70
    23
177
     2
291
     0
 71
     2
176
     1
 72
     2
176
     1
 73
     3
176
     1
 90
        0
176
     1
 40
0.6
176
     1
 41
30.0
176
     1
 63
     7
421
 16777215
176
     1
 74
     2
176
     1
 91
        2
176
     1
 64
     7
176
     1
 65
     7
176
     1
 75
     1
176
     1
175
     1
176
     1
 42
40.0
176
     1
 92
        8
176
     1
 66
     7
176
     1
 43
1.0
176
     1
 76
     1
176
     1
 77
     6
176
     1
 78
     2
176
     1
 67
     7
176
     1
 79
     3
176
     1
170
     0
176
     1
171
     0
176
     1
290
     0
176
     1
 93
        1
176
     1
 44
0.0
176
     1
173
     0
176
     1
1001
ACAD
1000
AcDbSavedByObjectVersion
1070
     0
  0
VISUALSTYLE
  5
3B
102
{ACAD_XDICTIONARY
360
1CC
102
}
102
{ACAD_REACTORS
330
29
102
}
330
29
100
AcDbVisualStyle
  2
Sketchy
 70
    24
177
     2
291
     0
 71
     1
176
     1
 72
     2
176
     1
 73
     2
176
     1
 90
        0
176
     1
 40
0.6
176
     1
 41
30.0
176
     1
 63
     7
421
 16777215
176
     1
 74
     2
176
     1
 91
        2
176
     1
 64
     7
176
     1
 65
     7
176
     1
 75
     1
176
     1
175
     1
176
     1
 42
40.0
176
     1
 92
       11
176
     1
 66
     7
176
     1
 43
1.0
176
     1
 76
     1
176
     1
 77
     6
176
     1
 78
     2
176
     1
 67
     7
176
     1
 79
     6
176
     1
170
     0
176
     1
171
     0
176
     1
290
     0
176
     1
 93
        1
176
     1
 44
0.0
176
     1
173
     0
176
     1
1001
ACAD
1000
AcDbSavedByObjectVersion
1070
     0
  0
VISUALSTYLE
  5
36
102
{ACAD_XDICTIONARY
360
1C2
102
}
102
{ACAD_REACTORS
330
29
102
}
330
29
100
AcDbVisualStyle
  2
Thicken
 70
    13
177
     2
291
     1
 71
     2
176
     1
 72
     2
176
     1
 73
     0
176
     1
 90
        0
176
     1
 40
0.6
176
     1
 41
30.0
176
     1
 63
     7
421
 16777215
176
     1
 74
     1
176
     1
 91
        4
176
     1
 64
     7
176
     1
 65
   257
176
     1
 75
     1
176
     1
175
     1
176
     1
 42
1.0
176
     1
 92
       12
176
     1
 66
     7
176
     1
 43
1.0
176
     1
 76
     1
176
     1
 77
     6
176
     1
 78
     2
176
     1
 67
     7
176
     1
 79
     5
176
     1
170
     0
176
     1
171
     0
176
     1
290
     0
176
     1
 93
        1
176
     1
 44
0.0
176
     1
173
     0
176
     1
1001
ACAD
1000
AcDbSavedByObjectVersion
1070
     0
  0
VISUALSTYLE
  5
30
102
{ACAD_XDICTIONARY
360
1B6
102
}
102
{ACAD_REACTORS
330
29
102
}
330
29
100
AcDbVisualStyle
  2
Wireframe
 70
     5
177
     2
291
     0
 71
     0
176
     1
 72
     2
176
     1
 73
     0
176
     1
 90
        0
176
     1
 40
0.6
176
     1
 41
30.0
176
     1
 63
     7
421
 16777215
176
     1
 74
     1
176
     1
 91
        4
176
     1
 64
     7
176
     1
 65
   257
176
     1
 75
     1
176
     1
175
     1
176
     1
 42
1.0
176
     1
 92
        0
176
     1
 66
   257
176
     1
 43
1.0
176
     1
 76
     1
176
     1
 77
     6
176
     1
 78
     2
176
     1
 67
     7
176
     1
 79
     3
176
     1
170
     0
176
     1
171
     0
176
     1
290
     0
176
     1
 93
        1
176
     1
 44
0.0
176
     1
173
     0
176
     1
1001
ACAD
1000
AcDbSavedByObjectVersion
1070
     0
  0
VISUALSTYLE
  5
3C
102
{ACAD_XDICTIONARY
360
1CE
102
}
102
{ACAD_REACTORS
330
29
102
}
330
29
100
AcDbVisualStyle
  2
X-Ray
 70
    25
177
     2
291
     0
 71
     2
176
     1
 72
     2
176
     1
 73
     1
176
     1
 90
        1
176
     1
 40
0.5
176
     1
 41
30.0
176
     1
 63
     7
421
 16777215
176
     1
 74
     1
176
     1
 91
        0
176
     1
 64
     7
176
     1
 65
   257
176
     1
 75
     1
176
     1
175
     1
176
     1
 42
1.0
176
     1
 92
        8
176
     1
 66
     7
176
     1
 43
1.0
176
     1
 76
     1
176
     1
 77
     6
176
     1
 78
     2
176
     1
 67
     7
176
     1
 79
     3
176
     1
170
     0
176
     1
171
     0
176
     1
290
     0
176
     1
 93
       13
176
     1
 44
0.0
176
     1
173
     0
176
     1
1001
ACAD
1000
AcDbSavedByObjectVersion
1070
     0
  0
DICTIONARYVAR
  5
1A6
102
{ACAD_REACTORS
330
1A1
102
}
330
1A1
100
DictionaryVariables
280
     0
  1
1:1
  0
DICTIONARYVAR
  5
1A3
102
{ACAD_REACTORS
330
1A1
102
}
330
1A1
100
DictionaryVariables
280
     0
  1
STANDARD
  0
DICTIONARYVAR
  5
1A2
102
{ACAD_REACTORS
330
1A1
102
}
330
1A1
100
DictionaryVariables
280
     0
  1
STANDARD
  0
DICTIONARYVAR
  5
1A4
102
{ACAD_REACTORS
330
1A1
102
}
330
1A1
100
DictionaryVariables
280
     0
  1
Imperial24
  0
DICTIONARYVAR
  5
1A5
102
{ACAD_REACTORS
330
1A1
102
}
330
1A1
100
DictionaryVariables
280
     0
  1
Imperial24
  0
DICTIONARY
  5
1DE
330
6B
100
AcDbDictionary
280
     1
281
     1
  3
ACAD_XREC_ROUNDTRIP
360
1DF
  0
DICTIONARY
  5
1A
330
19
100
AcDbDictionary
280
     1
281
     1
  3
BUMPTILE
360
1C
  3
DIFFUSETILE
360
1B
  3
OPACITYTILE
360
1F
  3
REFLECTIONTILE
360
1E
  3
REFRACTIONTILE
360
20
  3
SPECULARTILE
360
1D
  0
DICTIONARY
  5
12
330
11
100
AcDbDictionary
280
     1
281
     1
  3
BUMPTILE
360
14
  3
DIFFUSETILE
360
13
  3
OPACITYTILE
360
17
  3
REFLECTIONTILE
360
16
  3
REFRACTIONTILE
360
18
  3
SPECULARTILE
360
15
  0
DICTIONARY
  5
22
330
21
100
AcDbDictionary
280
     1
281
     1
  3
BUMPTILE
360
24
  3
DIFFUSETILE
360
23
  3
OPACITYTILE
360
27
  3
REFLECTIONTILE
360
26
  3
REFRACTIONTILE
360
28
  3
SPECULARTILE
360
25
  0
DICTIONARY
  5
1DA
330
67
100
AcDbDictionary
280
     1
281
     1
  3
ACAD_XREC_ROUNDTRIP
360
1DB
  0
DICTIONARY
  5
1DC
330
69
100
AcDbDictionary
280
     1
281
     1
  3
ACAD_XREC_ROUNDTRIP
360
1DD
  0
DICTIONARY
  5
1A7
330
65
100
AcDbDictionary
280
     1
281
     1
  3
ACAD_ROUNDTRIP_2008_TABLESTYLE_CELLSTYLEMAP
360
1A8
  0
DICTIONARY
  5
1B4
330
2F
100
AcDbDictionary
280
     1
281
     1
  3
ACAD_XREC_ROUNDTRIP
360
1B5
  0
DICTIONARY
  5
1B2
330
2E
100
AcDbDictionary
280
     1
281
     1
  3
ACAD_XREC_ROUNDTRIP
360
1B3
  0
DICTIONARY
  5
1C0
330
35
100
AcDbDictionary
280
     1
281
     1
  3
ACAD_XREC_ROUNDTRIP
360
1C1
  0
DICTIONARY
  5
1C8
330
39
100
AcDbDictionary
280
     1
281
     1
  3
ACAD_XREC_ROUNDTRIP
360
1C9
  0
DICTIONARY
  5
1BA
330
32
100
AcDbDictionary
280
     1
281
     1
  3
ACAD_XREC_ROUNDTRIP
360
1BB
  0
DICTIONARY
  5
1BE
330
34
100
AcDbDictionary
280
     1
281
     1
  3
ACAD_XREC_ROUNDTRIP
360
1BF
  0
DICTIONARY
  5
1D8
330
41
100
AcDbDictionary
280
     1
281
     1
  3
ACAD_XREC_ROUNDTRIP
360
1D9
  0
DICTIONARY
  5
1C6
330
38
100
AcDbDictionary
280
     1
281
     1
  3
ACAD_XREC_ROUNDTRIP
360
1C7
  0
DICTIONARY
  5
1AA
330
2A
100
AcDbDictionary
280
     1
281
     1
  3
ACAD_XREC_ROUNDTRIP
360
1AB
  0
DICTIONARY
  5
1AC
330
2B
100
AcDbDictionary
280
     1
281
     1
  3
ACAD_XREC_ROUNDTRIP
360
1AD
  0
DICTIONARY
  5
1AE
330
2C
100
AcDbDictionary
280
     1
281
     1
  3
ACAD_XREC_ROUNDTRIP
360
1AF
  0
DICTIONARY
  5
1B0
330
2D
100
AcDbDictionary
280
     1
281
     1
  3
ACAD_XREC_ROUNDTRIP
360
1B1
  0
DICTIONARY
  5
1B8
330
31
100
AcDbDictionary
280
     1
281
     1
  3
ACAD_XREC_ROUNDTRIP
360
1B9
  0
DICTIONARY
  5
1D4
330
3F
100
AcDbDictionary
280
     1
281
     1
  3
ACAD_XREC_ROUNDTRIP
360
1D5
  0
DICTIONARY
  5
1C4
330
37
100
AcDbDictionary
280
     1
281
     1
  3
ACAD_XREC_ROUNDTRIP
360
1C5
  0
DICTIONARY
  5
1D6
330
40
100
AcDbDictionary
280
     1
281
     1
  3
ACAD_XREC_ROUNDTRIP
360
1D7
  0
DICTIONARY
  5
1BC
330
33
100
AcDbDictionary
280
     1
281
     1
  3
ACAD_XREC_ROUNDTRIP
360
1BD
  0
DICTIONARY
  5
1D2
330
3E
100
AcDbDictionary
280
     1
281
     1
  3
ACAD_XREC_ROUNDTRIP
360
1D3
  0
DICTIONARY
  5
1D0
330
3D
100
AcDbDictionary
280
     1
281
     1
  3
ACAD_XREC_ROUNDTRIP
360
1D1
  0
DICTIONARY
  5
1CA
330
3A
100
AcDbDictionary
280
     1
281
     1
  3
ACAD_XREC_ROUNDTRIP
360
1CB
  0
DICTIONARY
  5
1CC
330
3B
100
AcDbDictionary
280
     1
281
     1
  3
ACAD_XREC_ROUNDTRIP
360
1CD
  0
DICTIONARY
  5
1C2
330
36
100
AcDbDictionary
280
     1
281
     1
  3
ACAD_XREC_ROUNDTRIP
360
1C3
  0
DICTIONARY
  5
1B6
330
30
100
AcDbDictionary
280
     1
281
     1
  3
ACAD_XREC_ROUNDTRIP
360
1B7
  0
DICTIONARY
  5
1CE
330
3C
100
AcDbDictionary
280
     1
281
     1
  3
ACAD_XREC_ROUNDTRIP
360
1CF
  0
XRECORD
  5
1DF
102
{ACAD_REACTORS
330
1DE
102
}
330
1DE
100
AcDbXrecord
280
     1
102
DISPLAYNAME
  1
Imperial24
102
FLAGS
 90
        0
  0
XRECORD
  5
1C
102
{ACAD_REACTORS
330
1A
102
}
330
1A
100
AcDbXrecord
280
     1
270
     1
271
     1
  0
XRECORD
  5
1B
102
{ACAD_REACTORS
330
1A
102
}
330
1A
100
AcDbXrecord
280
     1
270
     1
271
     1
  0
XRECORD
  5
1F
102
{ACAD_REACTORS
330
1A
102
}
330
1A
100
AcDbXrecord
280
     1
270
     1
271
     1
  0
XRECORD
  5
1E
102
{ACAD_REACTORS
330
1A
102
}
330
1A
100
AcDbXrecord
280
     1
270
     1
271
     1
  0
XRECORD
  5
20
102
{ACAD_REACTORS
330
1A
102
}
330
1A
100
AcDbXrecord
280
     1
270
     1
271
     1
  0
XRECORD
  5
1D
102
{ACAD_REACTORS
330
1A
102
}
330
1A
100
AcDbXrecord
280
     1
270
     1
271
     1
  0
XRECORD
  5
14
102
{ACAD_REACTORS
330
12
102
}
330
12
100
AcDbXrecord
280
     1
270
     1
271
     1
  0
XRECORD
  5
13
102
{ACAD_REACTORS
330
12
102
}
330
12
100
AcDbXrecord
280
     1
270
     1
271
     1
  0
XRECORD
  5
17
102
{ACAD_REACTORS
330
12
102
}
330
12
100
AcDbXrecord
280
     1
270
     1
271
     1
  0
XRECORD
  5
16
102
{ACAD_REACTORS
330
12
102
}
330
12
100
AcDbXrecord
280
     1
270
     1
271
     1
  0
XRECORD
  5
18
102
{ACAD_REACTORS
330
12
102
}
330
12
100
AcDbXrecord
280
     1
270
     1
271
     1
  0
XRECORD
  5
15
102
{ACAD_REACTORS
330
12
102
}
330
12
100
AcDbXrecord
280
     1
270
     1
271
     1
  0
XRECORD
  5
24
102
{ACAD_REACTORS
330
22
102
}
330
22
100
AcDbXrecord
280
     1
270
     1
271
     1
  0
XRECORD
  5
23
102
{ACAD_REACTORS
330
22
102
}
330
22
100
AcDbXrecord
280
     1
270
     1
271
     1
  0
XRECORD
  5
27
102
{ACAD_REACTORS
330
22
102
}
330
22
100
AcDbXrecord
280
     1
270
     1
271
     1
  0
XRECORD
  5
26
102
{ACAD_REACTORS
330
22
102
}
330
22
100
AcDbXrecord
280
     1
270
     1
271
     1
  0
XRECORD
  5
28
102
{ACAD_REACTORS
330
22
102
}
330
22
100
AcDbXrecord
280
     1
270
     1
271
     1
  0
XRECORD
  5
25
102
{ACAD_REACTORS
330
22
102
}
330
22
100
AcDbXrecord
280
     1
270
     1
271
     1
  0
XRECORD
  5
1DB
102
{ACAD_REACTORS
330
1DA
102
}
330
1DA
100
AcDbXrecord
280
     1
102
ACAD_ROUNDTRIP_2012_MLEADER_STYLE
298
     1
  0
XRECORD
  5
1DD
102
{ACAD_REACTORS
330
1DC
102
}
330
1DC
100
AcDbXrecord
280
     1
102
DISPLAYNAME
  1
Imperial24
102
FLAGS
 90
        0
  0
CELLSTYLEMAP
  5
1A8
102
{ACAD_REACTORS
330
1A7
102
}
330
1A7
100
AcDbCellStyleMap
 90
        3
300
CELLSTYLE
  1
TABLEFORMAT_BEGIN
 90
        5
170
     1
 91
        0
 92
    32768
 62
   257
 93
        1
300
CONTENTFORMAT
  1
CONTENTFORMAT_BEGIN
 90
        0
 91
        0
 92
      512
 93
        0
300

 40
0.0
140
1.0
 94
        5
 62
     0
340
55
144
0.25
309
CONTENTFORMAT_END
171
     0
 94
        0
309
TABLEFORMAT_END
  1
CELLSTYLE_BEGIN
 90
        1
 91
        1
300
_TITLE
309
CELLSTYLE_END
300
CELLSTYLE
  1
TABLEFORMAT_BEGIN
 90
        5
170
     1
 91
        0
 92
        0
 62
   257
 93
        1
300
CONTENTFORMAT
  1
CONTENTFORMAT_BEGIN
 90
        0
 91
        0
 92
      512
 93
        0
300

 40
0.0
140
1.0
 94
        5
 62
     0
340
55
144
0.18
309
CONTENTFORMAT_END
171
     0
 94
        0
309
TABLEFORMAT_END
  1
CELLSTYLE_BEGIN
 90
        2
 91
        1
300
_HEADER
309
CELLSTYLE_END
300
CELLSTYLE
  1
TABLEFORMAT_BEGIN
 90
        5
170
     1
 91
        0
 92
        0
 62
   257
 93
        1
300
CONTENTFORMAT
  1
CONTENTFORMAT_BEGIN
 90
        0
 91
        0
 92
      512
 93
        0
300

 40
0.0
140
1.0
 94
        2
 62
     0
340
55
144
0.18
309
CONTENTFORMAT_END
171
     0
 94
        0
309
TABLEFORMAT_END
  1
CELLSTYLE_BEGIN
 90
        3
 91
        2
300
_DATA
309
CELLSTYLE_END
  0
XRECORD
  5
1B5
102
{ACAD_REACTORS
330
1B4
102
}
330
1B4
100
AcDbXrecord
280
     1
102
RTVSPost2010Prop28
280
     1
102
RTVSPost2010PropOp28
 70
     1
102
RTVSPost2010Prop29
280
     1
102
RTVSPost2010PropOp29
 70
     1
102
RTVSPost2010Prop30
280
     0
102
RTVSPost2010PropOp30
 70
     1
102
RTVSPost2010Prop31
280
     0
102
RTVSPost2010PropOp31
 70
     1
102
RTVSPost2010Prop32
280
     0
102
RTVSPost2010PropOp32
 70
     1
102
RTVSPost2010Prop33
280
     0
102
RTVSPost2010PropOp33
 70
     1
102
RTVSPost2010Prop34
280
     0
102
RTVSPost2010PropOp34
 70
     1
102
RTVSPost2010Prop35
280
     0
102
RTVSPost2010PropOp35
 70
     1
102
RTVSPost2010Prop36
280
     0
102
RTVSPost2010PropOp36
 70
     1
102
RTVSPost2010Prop37
 90
       50
102
RTVSPost2010PropOp37
 70
     1
102
RTVSPost2010Prop38
140
0.0
102
RTVSPost2010PropOp38
 70
     1
102
RTVSPost2010Prop39
140
1.0
102
RTVSPost2010PropOp39
 70
     1
102
RTVSPost2010Prop40
 90
        0
102
RTVSPost2010PropOp40
 70
     1
102
RTVSPost2010Prop41ColorIndex
 90
       18
102
RTVSPost2010Prop41ColorRGB
 90
        0
102
RTVSPost2010PropOp41
 70
     1
102
RTVSPost2010Prop42
 90
       50
102
RTVSPost2010PropOp42
 70
     1
102
RTVSPost2010Prop43
 90
        3
102
RTVSPost2010PropOp43
 70
     1
102
RTVSPost2010Prop44ColorIndex
 90
        5
102
RTVSPost2010Prop44ColorRGB
 90
      255
102
RTVSPost2010PropOp44
 70
     1
102
RTVSPost2010Prop45
280
     0
102
RTVSPost2010PropOp45
 70
     1
102
RTVSPost2010Prop46
 90
       50
102
RTVSPost2010PropOp46
 70
     1
102
RTVSPost2010Prop47
 90
       50
102
RTVSPost2010PropOp47
 70
     1
102
RTVSPost2010Prop48
 90
       50
102
RTVSPost2010PropOp48
 70
     1
102
RTVSPost2010Prop49
280
     0
102
RTVSPost2010PropOp49
 70
     1
102
RTVSPost2010Prop50
 90
       50
102
RTVSPost2010PropOp50
 70
     1
102
RTVSPost2010Prop51ColorIndex
 90
      256
102
RTVSPost2010Prop51ColorRGB
 90
-16777216
102
RTVSPost2010PropOp51
 70
     0
102
RTVSPost2010Prop52
140
1.0
102
RTVSPost2010PropOp52
 70
     0
102
RTVSPost2010Prop53
 90
        2
102
RTVSPost2010PropOp53
 70
     1
102
RTVSPost2010Prop54
  1
strokes_ogs.tif
102
RTVSPost2010PropOp54
 70
     1
102
RTVSPost2010Prop55
280
     0
102
RTVSPost2010PropOp55
 70
     1
102
RTVSPost2010Prop56
140
1.0
102
RTVSPost2010PropOp56
 70
     1
102
RTVSPost2010Prop57
140
1.0
102
RTVSPost2010PropOp57
 70
     1
  0
XRECORD
  5
1B3
102
{ACAD_REACTORS
330
1B2
102
}
330
1B2
100
AcDbXrecord
280
     1
102
RTVSPost2010Prop28
280
     0
102
RTVSPost2010PropOp28
 70
     1
102
RTVSPost2010Prop29
280
     1
102
RTVSPost2010PropOp29
 70
     1
102
RTVSPost2010Prop30
280
     1
102
RTVSPost2010PropOp30
 70
     1
102
RTVSPost2010Prop31
280
     0
102
RTVSPost2010PropOp31
 70
     1
102
RTVSPost2010Prop32
280
     0
102
RTVSPost2010PropOp32
 70
     1
102
RTVSPost2010Prop33
280
     0
102
RTVSPost2010PropOp33
 70
     1
102
RTVSPost2010Prop34
280
     0
102
RTVSPost2010PropOp34
 70
     1
102
RTVSPost2010Prop35
280
     0
102
RTVSPost2010PropOp35
 70
     1
102
RTVSPost2010Prop36
280
     0
102
RTVSPost2010PropOp36
 70
     1
102
RTVSPost2010Prop37
 90
       50
102
RTVSPost2010PropOp37
 70
     1
102
RTVSPost2010Prop38
140
0.0
102
RTVSPost2010PropOp38
 70
     1
102
RTVSPost2010Prop39
140
1.0
102
RTVSPost2010PropOp39
 70
     1
102
RTVSPost2010Prop40
 90
        0
102
RTVSPost2010PropOp40
 70
     1
102
RTVSPost2010Prop41ColorIndex
 90
       18
102
RTVSPost2010Prop41ColorRGB
 90
        0
102
RTVSPost2010PropOp41
 70
     1
102
RTVSPost2010Prop42
 90
       50
102
RTVSPost2010PropOp42
 70
     1
102
RTVSPost2010Prop43
 90
        3
102
RTVSPost2010PropOp43
 70
     1
102
RTVSPost2010Prop44ColorIndex
 90
        5
102
RTVSPost2010Prop44ColorRGB
 90
      255
102
RTVSPost2010PropOp44
 70
     1
102
RTVSPost2010Prop45
280
     0
102
RTVSPost2010PropOp45
 70
     1
102
RTVSPost2010Prop46
 90
       50
102
RTVSPost2010PropOp46
 70
     1
102
RTVSPost2010Prop47
 90
       50
102
RTVSPost2010PropOp47
 70
     1
102
RTVSPost2010Prop48
 90
       50
102
RTVSPost2010PropOp48
 70
     1
102
RTVSPost2010Prop49
280
     0
102
RTVSPost2010PropOp49
 70
     1
102
RTVSPost2010Prop50
 90
       50
102
RTVSPost2010PropOp50
 70
     1
102
RTVSPost2010Prop51ColorIndex
 90
      256
102
RTVSPost2010Prop51ColorRGB
 90
-16777216
102
RTVSPost2010PropOp51
 70
     0
102
RTVSPost2010Prop52
140
1.0
102
RTVSPost2010PropOp52
 70
     0
102
RTVSPost2010Prop53
 90
        2
102
RTVSPost2010PropOp53
 70
     1
102
RTVSPost2010Prop54
  1
strokes_ogs.tif
102
RTVSPost2010PropOp54
 70
     1
102
RTVSPost2010Prop55
280
     0
102
RTVSPost2010PropOp55
 70
     1
102
RTVSPost2010Prop56
140
1.0
102
RTVSPost2010PropOp56
 70
     1
102
RTVSPost2010Prop57
140
1.0
102
RTVSPost2010PropOp57
 70
     1
  0
XRECORD
  5
1C1
102
{ACAD_REACTORS
330
1C0
102
}
330
1C0
100
AcDbXrecord
280
     1
102
RTVSPost2010Prop28
280
     0
102
RTVSPost2010PropOp28
 70
     1
102
RTVSPost2010Prop29
280
     1
102
RTVSPost2010PropOp29
 70
     1
102
RTVSPost2010Prop30
280
     1
102
RTVSPost2010PropOp30
 70
     1
102
RTVSPost2010Prop31
280
     0
102
RTVSPost2010PropOp31
 70
     1
102
RTVSPost2010Prop32
280
     0
102
RTVSPost2010PropOp32
 70
     1
102
RTVSPost2010Prop33
280
     0
102
RTVSPost2010PropOp33
 70
     1
102
RTVSPost2010Prop34
280
     0
102
RTVSPost2010PropOp34
 70
     1
102
RTVSPost2010Prop35
280
     0
102
RTVSPost2010PropOp35
 70
     1
102
RTVSPost2010Prop36
280
     0
102
RTVSPost2010PropOp36
 70
     1
102
RTVSPost2010Prop37
 90
       50
102
RTVSPost2010PropOp37
 70
     1
102
RTVSPost2010Prop38
140
0.0
102
RTVSPost2010PropOp38
 70
     1
102
RTVSPost2010Prop39
140
1.0
102
RTVSPost2010PropOp39
 70
     1
102
RTVSPost2010Prop40
 90
        0
102
RTVSPost2010PropOp40
 70
     1
102
RTVSPost2010Prop41ColorIndex
 90
       18
102
RTVSPost2010Prop41ColorRGB
 90
        0
102
RTVSPost2010PropOp41
 70
     1
102
RTVSPost2010Prop42
 90
       50
102
RTVSPost2010PropOp42
 70
     1
102
RTVSPost2010Prop43
 90
        3
102
RTVSPost2010PropOp43
 70
     1
102
RTVSPost2010Prop44ColorIndex
 90
        5
102
RTVSPost2010Prop44ColorRGB
 90
      255
102
RTVSPost2010PropOp44
 70
     1
102
RTVSPost2010Prop45
280
     0
102
RTVSPost2010PropOp45
 70
     1
102
RTVSPost2010Prop46
 90
       50
102
RTVSPost2010PropOp46
 70
     1
102
RTVSPost2010Prop47
 90
       50
102
RTVSPost2010PropOp47
 70
     1
102
RTVSPost2010Prop48
 90
       50
102
RTVSPost2010PropOp48
 70
     1
102
RTVSPost2010Prop49
280
     0
102
RTVSPost2010PropOp49
 70
     1
102
RTVSPost2010Prop50
 90
       50
102
RTVSPost2010PropOp50
 70
     1
102
RTVSPost2010Prop51ColorIndex
 90
      256
102
RTVSPost2010Prop51ColorRGB
 90
-16777216
102
RTVSPost2010PropOp51
 70
     0
102
RTVSPost2010Prop52
140
1.0
102
RTVSPost2010PropOp52
 70
     0
102
RTVSPost2010Prop53
 90
        2
102
RTVSPost2010PropOp53
 70
     1
102
RTVSPost2010Prop54
  1
strokes_ogs.tif
102
RTVSPost2010PropOp54
 70
     1
102
RTVSPost2010Prop55
280
     0
102
RTVSPost2010PropOp55
 70
     1
102
RTVSPost2010Prop56
140
1.0
102
RTVSPost2010PropOp56
 70
     1
102
RTVSPost2010Prop57
140
1.0
102
RTVSPost2010PropOp57
 70
     1
  0
XRECORD
  5
1C9
102
{ACAD_REACTORS
330
1C8
102
}
330
1C8
100
AcDbXrecord
280
     1
102
RTVSPost2010Prop28
280
     0
102
RTVSPost2010PropOp28
 70
     1
102
RTVSPost2010Prop29
280
     1
102
RTVSPost2010PropOp29
 70
     1
102
RTVSPost2010Prop30
280
     1
102
RTVSPost2010PropOp30
 70
     1
102
RTVSPost2010Prop31
280
     0
102
RTVSPost2010PropOp31
 70
     1
102
RTVSPost2010Prop32
280
     0
102
RTVSPost2010PropOp32
 70
     1
102
RTVSPost2010Prop33
280
     0
102
RTVSPost2010PropOp33
 70
     1
102
RTVSPost2010Prop34
280
     0
102
RTVSPost2010PropOp34
 70
     1
102
RTVSPost2010Prop35
280
     0
102
RTVSPost2010PropOp35
 70
     1
102
RTVSPost2010Prop36
280
     0
102
RTVSPost2010PropOp36
 70
     1
102
RTVSPost2010Prop37
 90
       50
102
RTVSPost2010PropOp37
 70
     1
102
RTVSPost2010Prop38
140
0.0
102
RTVSPost2010PropOp38
 70
     1
102
RTVSPost2010Prop39
140
1.0
102
RTVSPost2010PropOp39
 70
     1
102
RTVSPost2010Prop40
 90
        0
102
RTVSPost2010PropOp40
 70
     1
102
RTVSPost2010Prop41ColorIndex
 90
       18
102
RTVSPost2010Prop41ColorRGB
 90
        0
102
RTVSPost2010PropOp41
 70
     1
102
RTVSPost2010Prop42
 90
       50
102
RTVSPost2010PropOp42
 70
     1
102
RTVSPost2010Prop43
 90
        3
102
RTVSPost2010PropOp43
 70
     1
102
RTVSPost2010Prop44ColorIndex
 90
        5
102
RTVSPost2010Prop44ColorRGB
 90
      255
102
RTVSPost2010PropOp44
 70
     1
102
RTVSPost2010Prop45
280
     0
102
RTVSPost2010PropOp45
 70
     1
102
RTVSPost2010Prop46
 90
       50
102
RTVSPost2010PropOp46
 70
     1
102
RTVSPost2010Prop47
 90
       50
102
RTVSPost2010PropOp47
 70
     1
102
RTVSPost2010Prop48
 90
       50
102
RTVSPost2010PropOp48
 70
     1
102
RTVSPost2010Prop49
280
     0
102
RTVSPost2010PropOp49
 70
     1
102
RTVSPost2010Prop50
 90
       50
102
RTVSPost2010PropOp50
 70
     1
102
RTVSPost2010Prop51ColorIndex
 90
      256
102
RTVSPost2010Prop51ColorRGB
 90
-16777216
102
RTVSPost2010PropOp51
 70
     0
102
RTVSPost2010Prop52
140
1.0
102
RTVSPost2010PropOp52
 70
     0
102
RTVSPost2010Prop53
 90
        2
102
RTVSPost2010PropOp53
 70
     1
102
RTVSPost2010Prop54
  1
strokes_ogs.tif
102
RTVSPost2010PropOp54
 70
     1
102
RTVSPost2010Prop55
280
     0
102
RTVSPost2010PropOp55
 70
     1
102
RTVSPost2010Prop56
140
1.0
102
RTVSPost2010PropOp56
 70
     1
102
RTVSPost2010Prop57
140
1.0
102
RTVSPost2010PropOp57
 70
     1
  0
XRECORD
  5
1BB
102
{ACAD_REACTORS
330
1BA
102
}
330
1BA
100
AcDbXrecord
280
     1
102
RTVSPost2010Prop28
280
     0
102
RTVSPost2010PropOp28
 70
     1
102
RTVSPost2010Prop29
280
     1
102
RTVSPost2010PropOp29
 70
     1
102
RTVSPost2010Prop30
280
     1
102
RTVSPost2010PropOp30
 70
     1
102
RTVSPost2010Prop31
280
     0
102
RTVSPost2010PropOp31
 70
     1
102
RTVSPost2010Prop32
280
     0
102
RTVSPost2010PropOp32
 70
     1
102
RTVSPost2010Prop33
280
     0
102
RTVSPost2010PropOp33
 70
     1
102
RTVSPost2010Prop34
280
     0
102
RTVSPost2010PropOp34
 70
     1
102
RTVSPost2010Prop35
280
     0
102
RTVSPost2010PropOp35
 70
     1
102
RTVSPost2010Prop36
280
     0
102
RTVSPost2010PropOp36
 70
     1
102
RTVSPost2010Prop37
 90
       50
102
RTVSPost2010PropOp37
 70
     1
102
RTVSPost2010Prop38
140
0.0
102
RTVSPost2010PropOp38
 70
     1
102
RTVSPost2010Prop39
140
1.0
102
RTVSPost2010PropOp39
 70
     1
102
RTVSPost2010Prop40
 90
        0
102
RTVSPost2010PropOp40
 70
     1
102
RTVSPost2010Prop41ColorIndex
 90
       18
102
RTVSPost2010Prop41ColorRGB
 90
        0
102
RTVSPost2010PropOp41
 70
     1
102
RTVSPost2010Prop42
 90
       50
102
RTVSPost2010PropOp42
 70
     1
102
RTVSPost2010Prop43
 90
        3
102
RTVSPost2010PropOp43
 70
     1
102
RTVSPost2010Prop44ColorIndex
 90
        5
102
RTVSPost2010Prop44ColorRGB
 90
      255
102
RTVSPost2010PropOp44
 70
     1
102
RTVSPost2010Prop45
280
     0
102
RTVSPost2010PropOp45
 70
     1
102
RTVSPost2010Prop46
 90
       50
102
RTVSPost2010PropOp46
 70
     1
102
RTVSPost2010Prop47
 90
       50
102
RTVSPost2010PropOp47
 70
     1
102
RTVSPost2010Prop48
 90
       50
102
RTVSPost2010PropOp48
 70
     1
102
RTVSPost2010Prop49
280
     0
102
RTVSPost2010PropOp49
 70
     1
102
RTVSPost2010Prop50
 90
       50
102
RTVSPost2010PropOp50
 70
     1
102
RTVSPost2010Prop51ColorIndex
 90
      256
102
RTVSPost2010Prop51ColorRGB
 90
-16777216
102
RTVSPost2010PropOp51
 70
     0
102
RTVSPost2010Prop52
140
1.0
102
RTVSPost2010PropOp52
 70
     0
102
RTVSPost2010Prop53
 90
        2
102
RTVSPost2010PropOp53
 70
     1
102
RTVSPost2010Prop54
  1
strokes_ogs.tif
102
RTVSPost2010PropOp54
 70
     1
102
RTVSPost2010Prop55
280
     0
102
RTVSPost2010PropOp55
 70
     1
102
RTVSPost2010Prop56
140
1.0
102
RTVSPost2010PropOp56
 70
     1
102
RTVSPost2010Prop57
140
1.0
102
RTVSPost2010PropOp57
 70
     1
  0
XRECORD
  5
1BF
102
{ACAD_REACTORS
330
1BE
102
}
330
1BE
100
AcDbXrecord
280
     1
102
RTVSPost2010Prop28
280
     0
102
RTVSPost2010PropOp28
 70
     1
102
RTVSPost2010Prop29
280
     1
102
RTVSPost2010PropOp29
 70
     1
102
RTVSPost2010Prop30
280
     1
102
RTVSPost2010PropOp30
 70
     1
102
RTVSPost2010Prop31
280
     0
102
RTVSPost2010PropOp31
 70
     1
102
RTVSPost2010Prop32
280
     0
102
RTVSPost2010PropOp32
 70
     1
102
RTVSPost2010Prop33
280
     0
102
RTVSPost2010PropOp33
 70
     1
102
RTVSPost2010Prop34
280
     0
102
RTVSPost2010PropOp34
 70
     1
102
RTVSPost2010Prop35
280
     0
102
RTVSPost2010PropOp35
 70
     1
102
RTVSPost2010Prop36
280
     0
102
RTVSPost2010PropOp36
 70
     1
102
RTVSPost2010Prop37
 90
       50
102
RTVSPost2010PropOp37
 70
     1
102
RTVSPost2010Prop38
140
0.0
102
RTVSPost2010PropOp38
 70
     1
102
RTVSPost2010Prop39
140
1.0
102
RTVSPost2010PropOp39
 70
     1
102
RTVSPost2010Prop40
 90
        0
102
RTVSPost2010PropOp40
 70
     1
102
RTVSPost2010Prop41ColorIndex
 90
       18
102
RTVSPost2010Prop41ColorRGB
 90
        0
102
RTVSPost2010PropOp41
 70
     1
102
RTVSPost2010Prop42
 90
       50
102
RTVSPost2010PropOp42
 70
     1
102
RTVSPost2010Prop43
 90
        3
102
RTVSPost2010PropOp43
 70
     1
102
RTVSPost2010Prop44ColorIndex
 90
        5
102
RTVSPost2010Prop44ColorRGB
 90
      255
102
RTVSPost2010PropOp44
 70
     1
102
RTVSPost2010Prop45
280
     0
102
RTVSPost2010PropOp45
 70
     1
102
RTVSPost2010Prop46
 90
       50
102
RTVSPost2010PropOp46
 70
     1
102
RTVSPost2010Prop47
 90
       50
102
RTVSPost2010PropOp47
 70
     1
102
RTVSPost2010Prop48
 90
       50
102
RTVSPost2010PropOp48
 70
     1
102
RTVSPost2010Prop49
280
     0
102
RTVSPost2010PropOp49
 70
     1
102
RTVSPost2010Prop50
 90
       50
102
RTVSPost2010PropOp50
 70
     1
102
RTVSPost2010Prop51ColorIndex
 90
      256
102
RTVSPost2010Prop51ColorRGB
 90
-16777216
102
RTVSPost2010PropOp51
 70
     0
102
RTVSPost2010Prop52
140
1.0
102
RTVSPost2010PropOp52
 70
     0
102
RTVSPost2010Prop53
 90
        2
102
RTVSPost2010PropOp53
 70
     1
102
RTVSPost2010Prop54
  1
strokes_ogs.tif
102
RTVSPost2010PropOp54
 70
     1
102
RTVSPost2010Prop55
280
     0
102
RTVSPost2010PropOp55
 70
     1
102
RTVSPost2010Prop56
140
1.0
102
RTVSPost2010PropOp56
 70
     1
102
RTVSPost2010Prop57
140
1.0
102
RTVSPost2010PropOp57
 70
     1
  0
XRECORD
  5
1D9
102
{ACAD_REACTORS
330
1D8
102
}
330
1D8
100
AcDbXrecord
280
     1
102
RTVSPost2010Prop28
280
     0
102
RTVSPost2010PropOp28
 70
     0
102
RTVSPost2010Prop29
280
     1
102
RTVSPost2010PropOp29
 70
     0
102
RTVSPost2010Prop30
280
     1
102
RTVSPost2010PropOp30
 70
     0
102
RTVSPost2010Prop31
280
     0
102
RTVSPost2010PropOp31
 70
     0
102
RTVSPost2010Prop32
280
     0
102
RTVSPost2010PropOp32
 70
     0
102
RTVSPost2010Prop33
280
     0
102
RTVSPost2010PropOp33
 70
     0
102
RTVSPost2010Prop34
280
     0
102
RTVSPost2010PropOp34
 70
     0
102
RTVSPost2010Prop35
280
     0
102
RTVSPost2010PropOp35
 70
     0
102
RTVSPost2010Prop36
280
     0
102
RTVSPost2010PropOp36
 70
     0
102
RTVSPost2010Prop37
 90
       50
102
RTVSPost2010PropOp37
 70
     0
102
RTVSPost2010Prop38
140
0.0
102
RTVSPost2010PropOp38
 70
     0
102
RTVSPost2010Prop39
140
1.0
102
RTVSPost2010PropOp39
 70
     0
102
RTVSPost2010Prop40
 90
        0
102
RTVSPost2010PropOp40
 70
     0
102
RTVSPost2010Prop41ColorIndex
 90
       18
102
RTVSPost2010Prop41ColorRGB
 90
        0
102
RTVSPost2010PropOp41
 70
     0
102
RTVSPost2010Prop42
 90
       50
102
RTVSPost2010PropOp42
 70
     0
102
RTVSPost2010Prop43
 90
        3
102
RTVSPost2010PropOp43
 70
     0
102
RTVSPost2010Prop44ColorIndex
 90
        5
102
RTVSPost2010Prop44ColorRGB
 90
      255
102
RTVSPost2010PropOp44
 70
     0
102
RTVSPost2010Prop45
280
     0
102
RTVSPost2010PropOp45
 70
     0
102
RTVSPost2010Prop46
 90
       50
102
RTVSPost2010PropOp46
 70
     0
102
RTVSPost2010Prop47
 90
       50
102
RTVSPost2010PropOp47
 70
     0
102
RTVSPost2010Prop48
 90
       50
102
RTVSPost2010PropOp48
 70
     0
102
RTVSPost2010Prop49
280
     0
102
RTVSPost2010PropOp49
 70
     0
102
RTVSPost2010Prop50
 90
       50
102
RTVSPost2010PropOp50
 70
     0
102
RTVSPost2010Prop51ColorIndex
 90
      256
102
RTVSPost2010Prop51ColorRGB
 90
-16777216
102
RTVSPost2010PropOp51
 70
     0
102
RTVSPost2010Prop52
140
1.0
102
RTVSPost2010PropOp52
 70
     0
102
RTVSPost2010Prop53
 90
        2
102
RTVSPost2010PropOp53
 70
     0
102
RTVSPost2010Prop54
  1
strokes_ogs.tif
102
RTVSPost2010PropOp54
 70
     0
102
RTVSPost2010Prop55
280
     0
102
RTVSPost2010PropOp55
 70
     0
102
RTVSPost2010Prop56
140
1.0
102
RTVSPost2010PropOp56
 70
     0
102
RTVSPost2010Prop57
140
1.0
102
RTVSPost2010PropOp57
 70
     0
  0
XRECORD
  5
1C7
102
{ACAD_REACTORS
330
1C6
102
}
330
1C6
100
AcDbXrecord
280
     1
102
RTVSPost2010Prop28
280
     0
102
RTVSPost2010PropOp28
 70
     1
102
RTVSPost2010Prop29
280
     1
102
RTVSPost2010PropOp29
 70
     1
102
RTVSPost2010Prop30
280
     1
102
RTVSPost2010PropOp30
 70
     1
102
RTVSPost2010Prop31
280
     0
102
RTVSPost2010PropOp31
 70
     1
102
RTVSPost2010Prop32
280
     0
102
RTVSPost2010PropOp32
 70
     1
102
RTVSPost2010Prop33
280
     0
102
RTVSPost2010PropOp33
 70
     1
102
RTVSPost2010Prop34
280
     0
102
RTVSPost2010PropOp34
 70
     1
102
RTVSPost2010Prop35
280
     0
102
RTVSPost2010PropOp35
 70
     1
102
RTVSPost2010Prop36
280
     0
102
RTVSPost2010PropOp36
 70
     1
102
RTVSPost2010Prop37
 90
       50
102
RTVSPost2010PropOp37
 70
     1
102
RTVSPost2010Prop38
140
0.0
102
RTVSPost2010PropOp38
 70
     1
102
RTVSPost2010Prop39
140
1.0
102
RTVSPost2010PropOp39
 70
     1
102
RTVSPost2010Prop40
 90
        0
102
RTVSPost2010PropOp40
 70
     1
102
RTVSPost2010Prop41ColorIndex
 90
       18
102
RTVSPost2010Prop41ColorRGB
 90
        0
102
RTVSPost2010PropOp41
 70
     1
102
RTVSPost2010Prop42
 90
       50
102
RTVSPost2010PropOp42
 70
     1
102
RTVSPost2010Prop43
 90
        3
102
RTVSPost2010PropOp43
 70
     1
102
RTVSPost2010Prop44ColorIndex
 90
        5
102
RTVSPost2010Prop44ColorRGB
 90
      255
102
RTVSPost2010PropOp44
 70
     1
102
RTVSPost2010Prop45
280
     0
102
RTVSPost2010PropOp45
 70
     1
102
RTVSPost2010Prop46
 90
       50
102
RTVSPost2010PropOp46
 70
     1
102
RTVSPost2010Prop47
 90
       50
102
RTVSPost2010PropOp47
 70
     1
102
RTVSPost2010Prop48
 90
       50
102
RTVSPost2010PropOp48
 70
     1
102
RTVSPost2010Prop49
280
     0
102
RTVSPost2010PropOp49
 70
     1
102
RTVSPost2010Prop50
 90
       50
102
RTVSPost2010PropOp50
 70
     1
102
RTVSPost2010Prop51ColorIndex
 90
      256
102
RTVSPost2010Prop51ColorRGB
 90
-16777216
102
RTVSPost2010PropOp51
 70
     0
102
RTVSPost2010Prop52
140
1.0
102
RTVSPost2010PropOp52
 70
     0
102
RTVSPost2010Prop53
 90
        2
102
RTVSPost2010PropOp53
 70
     1
102
RTVSPost2010Prop54
  1
strokes_ogs.tif
102
RTVSPost2010PropOp54
 70
     1
102
RTVSPost2010Prop55
280
     0
102
RTVSPost2010PropOp55
 70
     1
102
RTVSPost2010Prop56
140
1.0
102
RTVSPost2010PropOp56
 70
     1
102
RTVSPost2010Prop57
140
1.0
102
RTVSPost2010PropOp57
 70
     1
  0
XRECORD
  5
1AB
102
{ACAD_REACTORS
330
1AA
102
}
330
1AA
100
AcDbXrecord
280
     1
102
RTVSPost2010Prop28
280
     0
102
RTVSPost2010PropOp28
 70
     1
102
RTVSPost2010Prop29
280
     1
102
RTVSPost2010PropOp29
 70
     1
102
RTVSPost2010Prop30
280
     1
102
RTVSPost2010PropOp30
 70
     1
102
RTVSPost2010Prop31
280
     0
102
RTVSPost2010PropOp31
 70
     1
102
RTVSPost2010Prop32
280
     0
102
RTVSPost2010PropOp32
 70
     1
102
RTVSPost2010Prop33
280
     0
102
RTVSPost2010PropOp33
 70
     1
102
RTVSPost2010Prop34
280
     0
102
RTVSPost2010PropOp34
 70
     1
102
RTVSPost2010Prop35
280
     0
102
RTVSPost2010PropOp35
 70
     1
102
RTVSPost2010Prop36
280
     0
102
RTVSPost2010PropOp36
 70
     1
102
RTVSPost2010Prop37
 90
       50
102
RTVSPost2010PropOp37
 70
     1
102
RTVSPost2010Prop38
140
0.0
102
RTVSPost2010PropOp38
 70
     1
102
RTVSPost2010Prop39
140
1.0
102
RTVSPost2010PropOp39
 70
     1
102
RTVSPost2010Prop40
 90
        0
102
RTVSPost2010PropOp40
 70
     1
102
RTVSPost2010Prop41ColorIndex
 90
       18
102
RTVSPost2010Prop41ColorRGB
 90
        0
102
RTVSPost2010PropOp41
 70
     1
102
RTVSPost2010Prop42
 90
       50
102
RTVSPost2010PropOp42
 70
     1
102
RTVSPost2010Prop43
 90
        3
102
RTVSPost2010PropOp43
 70
     1
102
RTVSPost2010Prop44ColorIndex
 90
        5
102
RTVSPost2010Prop44ColorRGB
 90
      255
102
RTVSPost2010PropOp44
 70
     1
102
RTVSPost2010Prop45
280
     0
102
RTVSPost2010PropOp45
 70
     1
102
RTVSPost2010Prop46
 90
       50
102
RTVSPost2010PropOp46
 70
     1
102
RTVSPost2010Prop47
 90
       50
102
RTVSPost2010PropOp47
 70
     1
102
RTVSPost2010Prop48
 90
       50
102
RTVSPost2010PropOp48
 70
     1
102
RTVSPost2010Prop49
280
     0
102
RTVSPost2010PropOp49
 70
     1
102
RTVSPost2010Prop50
 90
       50
102
RTVSPost2010PropOp50
 70
     1
102
RTVSPost2010Prop51ColorIndex
 90
      256
102
RTVSPost2010Prop51ColorRGB
 90
-16777216
102
RTVSPost2010PropOp51
 70
     0
102
RTVSPost2010Prop52
140
1.0
102
RTVSPost2010PropOp52
 70
     0
102
RTVSPost2010Prop53
 90
        2
102
RTVSPost2010PropOp53
 70
     1
102
RTVSPost2010Prop54
  1
strokes_ogs.tif
102
RTVSPost2010PropOp54
 70
     1
102
RTVSPost2010Prop55
280
     0
102
RTVSPost2010PropOp55
 70
     1
102
RTVSPost2010Prop56
140
1.0
102
RTVSPost2010PropOp56
 70
     1
102
RTVSPost2010Prop57
140
1.0
102
RTVSPost2010PropOp57
 70
     1
  0
XRECORD
  5
1AD
102
{ACAD_REACTORS
330
1AC
102
}
330
1AC
100
AcDbXrecord
280
     1
102
RTVSPost2010Prop28
280
     0
102
RTVSPost2010PropOp28
 70
     1
102
RTVSPost2010Prop29
280
     1
102
RTVSPost2010PropOp29
 70
     1
102
RTVSPost2010Prop30
280
     1
102
RTVSPost2010PropOp30
 70
     1
102
RTVSPost2010Prop31
280
     0
102
RTVSPost2010PropOp31
 70
     1
102
RTVSPost2010Prop32
280
     0
102
RTVSPost2010PropOp32
 70
     1
102
RTVSPost2010Prop33
280
     0
102
RTVSPost2010PropOp33
 70
     1
102
RTVSPost2010Prop34
280
     0
102
RTVSPost2010PropOp34
 70
     1
102
RTVSPost2010Prop35
280
     0
102
RTVSPost2010PropOp35
 70
     1
102
RTVSPost2010Prop36
280
     0
102
RTVSPost2010PropOp36
 70
     1
102
RTVSPost2010Prop37
 90
       50
102
RTVSPost2010PropOp37
 70
     1
102
RTVSPost2010Prop38
140
0.0
102
RTVSPost2010PropOp38
 70
     1
102
RTVSPost2010Prop39
140
1.0
102
RTVSPost2010PropOp39
 70
     1
102
RTVSPost2010Prop40
 90
        0
102
RTVSPost2010PropOp40
 70
     1
102
RTVSPost2010Prop41ColorIndex
 90
       18
102
RTVSPost2010Prop41ColorRGB
 90
        0
102
RTVSPost2010PropOp41
 70
     1
102
RTVSPost2010Prop42
 90
       50
102
RTVSPost2010PropOp42
 70
     1
102
RTVSPost2010Prop43
 90
        3
102
RTVSPost2010PropOp43
 70
     1
102
RTVSPost2010Prop44ColorIndex
 90
        5
102
RTVSPost2010Prop44ColorRGB
 90
      255
102
RTVSPost2010PropOp44
 70
     1
102
RTVSPost2010Prop45
280
     0
102
RTVSPost2010PropOp45
 70
     1
102
RTVSPost2010Prop46
 90
       50
102
RTVSPost2010PropOp46
 70
     1
102
RTVSPost2010Prop47
 90
       50
102
RTVSPost2010PropOp47
 70
     1
102
RTVSPost2010Prop48
 90
       50
102
RTVSPost2010PropOp48
 70
     1
102
RTVSPost2010Prop49
280
     0
102
RTVSPost2010PropOp49
 70
     1
102
RTVSPost2010Prop50
 90
       50
102
RTVSPost2010PropOp50
 70
     1
102
RTVSPost2010Prop51ColorIndex
 90
      256
102
RTVSPost2010Prop51ColorRGB
 90
-16777216
102
RTVSPost2010PropOp51
 70
     0
102
RTVSPost2010Prop52
140
1.0
102
RTVSPost2010PropOp52
 70
     0
102
RTVSPost2010Prop53
 90
        2
102
RTVSPost2010PropOp53
 70
     1
102
RTVSPost2010Prop54
  1
strokes_ogs.tif
102
RTVSPost2010PropOp54
 70
     1
102
RTVSPost2010Prop55
280
     0
102
RTVSPost2010PropOp55
 70
     1
102
RTVSPost2010Prop56
140
1.0
102
RTVSPost2010PropOp56
 70
     1
102
RTVSPost2010Prop57
140
1.0
102
RTVSPost2010PropOp57
 70
     1
  0
XRECORD
  5
1AF
102
{ACAD_REACTORS
330
1AE
102
}
330
1AE
100
AcDbXrecord
280
     1
102
RTVSPost2010Prop28
280
     0
102
RTVSPost2010PropOp28
 70
     1
102
RTVSPost2010Prop29
280
     1
102
RTVSPost2010PropOp29
 70
     1
102
RTVSPost2010Prop30
280
     1
102
RTVSPost2010PropOp30
 70
     1
102
RTVSPost2010Prop31
280
     0
102
RTVSPost2010PropOp31
 70
     1
102
RTVSPost2010Prop32
280
     0
102
RTVSPost2010PropOp32
 70
     1
102
RTVSPost2010Prop33
280
     0
102
RTVSPost2010PropOp33
 70
     1
102
RTVSPost2010Prop34
280
     0
102
RTVSPost2010PropOp34
 70
     1
102
RTVSPost2010Prop35
280
     0
102
RTVSPost2010PropOp35
 70
     1
102
RTVSPost2010Prop36
280
     0
102
RTVSPost2010PropOp36
 70
     1
102
RTVSPost2010Prop37
 90
       50
102
RTVSPost2010PropOp37
 70
     1
102
RTVSPost2010Prop38
140
0.0
102
RTVSPost2010PropOp38
 70
     1
102
RTVSPost2010Prop39
140
1.0
102
RTVSPost2010PropOp39
 70
     1
102
RTVSPost2010Prop40
 90
        0
102
RTVSPost2010PropOp40
 70
     1
102
RTVSPost2010Prop41ColorIndex
 90
       18
102
RTVSPost2010Prop41ColorRGB
 90
        0
102
RTVSPost2010PropOp41
 70
     1
102
RTVSPost2010Prop42
 90
       50
102
RTVSPost2010PropOp42
 70
     1
102
RTVSPost2010Prop43
 90
        3
102
RTVSPost2010PropOp43
 70
     1
102
RTVSPost2010Prop44ColorIndex
 90
        5
102
RTVSPost2010Prop44ColorRGB
 90
      255
102
RTVSPost2010PropOp44
 70
     1
102
RTVSPost2010Prop45
280
     0
102
RTVSPost2010PropOp45
 70
     1
102
RTVSPost2010Prop46
 90
       50
102
RTVSPost2010PropOp46
 70
     1
102
RTVSPost2010Prop47
 90
       50
102
RTVSPost2010PropOp47
 70
     1
102
RTVSPost2010Prop48
 90
       50
102
RTVSPost2010PropOp48
 70
     1
102
RTVSPost2010Prop49
280
     0
102
RTVSPost2010PropOp49
 70
     1
102
RTVSPost2010Prop50
 90
       50
102
RTVSPost2010PropOp50
 70
     1
102
RTVSPost2010Prop51ColorIndex
 90
      256
102
RTVSPost2010Prop51ColorRGB
 90
-16777216
102
RTVSPost2010PropOp51
 70
     0
102
RTVSPost2010Prop52
140
1.0
102
RTVSPost2010PropOp52
 70
     0
102
RTVSPost2010Prop53
 90
        2
102
RTVSPost2010PropOp53
 70
     1
102
RTVSPost2010Prop54
  1
strokes_ogs.tif
102
RTVSPost2010PropOp54
 70
     1
102
RTVSPost2010Prop55
280
     0
102
RTVSPost2010PropOp55
 70
     1
102
RTVSPost2010Prop56
140
1.0
102
RTVSPost2010PropOp56
 70
     1
102
RTVSPost2010Prop57
140
1.0
102
RTVSPost2010PropOp57
 70
     1
  0
XRECORD
  5
1B1
102
{ACAD_REACTORS
330
1B0
102
}
330
1B0
100
AcDbXrecord
280
     1
102
RTVSPost2010Prop28
280
     0
102
RTVSPost2010PropOp28
 70
     1
102
RTVSPost2010Prop29
280
     1
102
RTVSPost2010PropOp29
 70
     1
102
RTVSPost2010Prop30
280
     1
102
RTVSPost2010PropOp30
 70
     1
102
RTVSPost2010Prop31
280
     0
102
RTVSPost2010PropOp31
 70
     1
102
RTVSPost2010Prop32
280
     0
102
RTVSPost2010PropOp32
 70
     1
102
RTVSPost2010Prop33
280
     0
102
RTVSPost2010PropOp33
 70
     1
102
RTVSPost2010Prop34
280
     0
102
RTVSPost2010PropOp34
 70
     1
102
RTVSPost2010Prop35
280
     0
102
RTVSPost2010PropOp35
 70
     1
102
RTVSPost2010Prop36
280
     0
102
RTVSPost2010PropOp36
 70
     1
102
RTVSPost2010Prop37
 90
       50
102
RTVSPost2010PropOp37
 70
     1
102
RTVSPost2010Prop38
140
0.0
102
RTVSPost2010PropOp38
 70
     1
102
RTVSPost2010Prop39
140
1.0
102
RTVSPost2010PropOp39
 70
     1
102
RTVSPost2010Prop40
 90
        0
102
RTVSPost2010PropOp40
 70
     1
102
RTVSPost2010Prop41ColorIndex
 90
       18
102
RTVSPost2010Prop41ColorRGB
 90
        0
102
RTVSPost2010PropOp41
 70
     1
102
RTVSPost2010Prop42
 90
       50
102
RTVSPost2010PropOp42
 70
     1
102
RTVSPost2010Prop43
 90
        3
102
RTVSPost2010PropOp43
 70
     1
102
RTVSPost2010Prop44ColorIndex
 90
        5
102
RTVSPost2010Prop44ColorRGB
 90
      255
102
RTVSPost2010PropOp44
 70
     1
102
RTVSPost2010Prop45
280
     0
102
RTVSPost2010PropOp45
 70
     1
102
RTVSPost2010Prop46
 90
       50
102
RTVSPost2010PropOp46
 70
     1
102
RTVSPost2010Prop47
 90
       50
102
RTVSPost2010PropOp47
 70
     1
102
RTVSPost2010Prop48
 90
       50
102
RTVSPost2010PropOp48
 70
     1
102
RTVSPost2010Prop49
280
     0
102
RTVSPost2010PropOp49
 70
     1
102
RTVSPost2010Prop50
 90
       50
102
RTVSPost2010PropOp50
 70
     1
102
RTVSPost2010Prop51ColorIndex
 90
      256
102
RTVSPost2010Prop51ColorRGB
 90
-16777216
102
RTVSPost2010PropOp51
 70
     0
102
RTVSPost2010Prop52
140
1.0
102
RTVSPost2010PropOp52
 70
     0
102
RTVSPost2010Prop53
 90
        2
102
RTVSPost2010PropOp53
 70
     1
102
RTVSPost2010Prop54
  1
strokes_ogs.tif
102
RTVSPost2010PropOp54
 70
     1
102
RTVSPost2010Prop55
280
     0
102
RTVSPost2010PropOp55
 70
     1
102
RTVSPost2010Prop56
140
1.0
102
RTVSPost2010PropOp56
 70
     1
102
RTVSPost2010Prop57
140
1.0
102
RTVSPost2010PropOp57
 70
     1
  0
XRECORD
  5
1B9
102
{ACAD_REACTORS
330
1B8
102
}
330
1B8
100
AcDbXrecord
280
     1
102
RTVSPost2010Prop28
280
     0
102
RTVSPost2010PropOp28
 70
     1
102
RTVSPost2010Prop29
280
     1
102
RTVSPost2010PropOp29
 70
     1
102
RTVSPost2010Prop30
280
     1
102
RTVSPost2010PropOp30
 70
     1
102
RTVSPost2010Prop31
280
     0
102
RTVSPost2010PropOp31
 70
     1
102
RTVSPost2010Prop32
280
     0
102
RTVSPost2010PropOp32
 70
     1
102
RTVSPost2010Prop33
280
     0
102
RTVSPost2010PropOp33
 70
     1
102
RTVSPost2010Prop34
280
     0
102
RTVSPost2010PropOp34
 70
     1
102
RTVSPost2010Prop35
280
     0
102
RTVSPost2010PropOp35
 70
     1
102
RTVSPost2010Prop36
280
     0
102
RTVSPost2010PropOp36
 70
     1
102
RTVSPost2010Prop37
 90
       50
102
RTVSPost2010PropOp37
 70
     1
102
RTVSPost2010Prop38
140
0.0
102
RTVSPost2010PropOp38
 70
     1
102
RTVSPost2010Prop39
140
1.0
102
RTVSPost2010PropOp39
 70
     1
102
RTVSPost2010Prop40
 90
        0
102
RTVSPost2010PropOp40
 70
     1
102
RTVSPost2010Prop41ColorIndex
 90
       18
102
RTVSPost2010Prop41ColorRGB
 90
        0
102
RTVSPost2010PropOp41
 70
     1
102
RTVSPost2010Prop42
 90
       50
102
RTVSPost2010PropOp42
 70
     1
102
RTVSPost2010Prop43
 90
        3
102
RTVSPost2010PropOp43
 70
     1
102
RTVSPost2010Prop44ColorIndex
 90
        5
102
RTVSPost2010Prop44ColorRGB
 90
      255
102
RTVSPost2010PropOp44
 70
     1
102
RTVSPost2010Prop45
280
     0
102
RTVSPost2010PropOp45
 70
     1
102
RTVSPost2010Prop46
 90
       50
102
RTVSPost2010PropOp46
 70
     1
102
RTVSPost2010Prop47
 90
       50
102
RTVSPost2010PropOp47
 70
     1
102
RTVSPost2010Prop48
 90
       50
102
RTVSPost2010PropOp48
 70
     1
102
RTVSPost2010Prop49
280
     0
102
RTVSPost2010PropOp49
 70
     1
102
RTVSPost2010Prop50
 90
       50
102
RTVSPost2010PropOp50
 70
     1
102
RTVSPost2010Prop51ColorIndex
 90
      256
102
RTVSPost2010Prop51ColorRGB
 90
-16777216
102
RTVSPost2010PropOp51
 70
     0
102
RTVSPost2010Prop52
140
1.0
102
RTVSPost2010PropOp52
 70
     0
102
RTVSPost2010Prop53
 90
        2
102
RTVSPost2010PropOp53
 70
     1
102
RTVSPost2010Prop54
  1
strokes_ogs.tif
102
RTVSPost2010PropOp54
 70
     1
102
RTVSPost2010Prop55
280
     0
102
RTVSPost2010PropOp55
 70
     1
102
RTVSPost2010Prop56
140
1.0
102
RTVSPost2010PropOp56
 70
     1
102
RTVSPost2010Prop57
140
1.0
102
RTVSPost2010PropOp57
 70
     1
  0
XRECORD
  5
1D5
102
{ACAD_REACTORS
330
1D4
102
}
330
1D4
100
AcDbXrecord
280
     1
102
RTVSPost2010Prop28
280
     0
102
RTVSPost2010PropOp28
 70
     0
102
RTVSPost2010Prop29
280
     1
102
RTVSPost2010PropOp29
 70
     0
102
RTVSPost2010Prop30
280
     1
102
RTVSPost2010PropOp30
 70
     0
102
RTVSPost2010Prop31
280
     0
102
RTVSPost2010PropOp31
 70
     0
102
RTVSPost2010Prop32
280
     0
102
RTVSPost2010PropOp32
 70
     0
102
RTVSPost2010Prop33
280
     0
102
RTVSPost2010PropOp33
 70
     0
102
RTVSPost2010Prop34
280
     0
102
RTVSPost2010PropOp34
 70
     0
102
RTVSPost2010Prop35
280
     0
102
RTVSPost2010PropOp35
 70
     0
102
RTVSPost2010Prop36
280
     0
102
RTVSPost2010PropOp36
 70
     0
102
RTVSPost2010Prop37
 90
       50
102
RTVSPost2010PropOp37
 70
     0
102
RTVSPost2010Prop38
140
0.0
102
RTVSPost2010PropOp38
 70
     0
102
RTVSPost2010Prop39
140
1.0
102
RTVSPost2010PropOp39
 70
     0
102
RTVSPost2010Prop40
 90
        0
102
RTVSPost2010PropOp40
 70
     0
102
RTVSPost2010Prop41ColorIndex
 90
       18
102
RTVSPost2010Prop41ColorRGB
 90
        0
102
RTVSPost2010PropOp41
 70
     0
102
RTVSPost2010Prop42
 90
       50
102
RTVSPost2010PropOp42
 70
     0
102
RTVSPost2010Prop43
 90
        3
102
RTVSPost2010PropOp43
 70
     0
102
RTVSPost2010Prop44ColorIndex
 90
        5
102
RTVSPost2010Prop44ColorRGB
 90
      255
102
RTVSPost2010PropOp44
 70
     0
102
RTVSPost2010Prop45
280
     0
102
RTVSPost2010PropOp45
 70
     0
102
RTVSPost2010Prop46
 90
       50
102
RTVSPost2010PropOp46
 70
     0
102
RTVSPost2010Prop47
 90
       50
102
RTVSPost2010PropOp47
 70
     0
102
RTVSPost2010Prop48
 90
       50
102
RTVSPost2010PropOp48
 70
     0
102
RTVSPost2010Prop49
280
     0
102
RTVSPost2010PropOp49
 70
     0
102
RTVSPost2010Prop50
 90
       50
102
RTVSPost2010PropOp50
 70
     0
102
RTVSPost2010Prop51ColorIndex
 90
      256
102
RTVSPost2010Prop51ColorRGB
 90
-16777216
102
RTVSPost2010PropOp51
 70
     0
102
RTVSPost2010Prop52
140
1.0
102
RTVSPost2010PropOp52
 70
     0
102
RTVSPost2010Prop53
 90
        2
102
RTVSPost2010PropOp53
 70
     0
102
RTVSPost2010Prop54
  1
strokes_ogs.tif
102
RTVSPost2010PropOp54
 70
     0
102
RTVSPost2010Prop55
280
     0
102
RTVSPost2010PropOp55
 70
     0
102
RTVSPost2010Prop56
140
1.0
102
RTVSPost2010PropOp56
 70
     0
102
RTVSPost2010Prop57
140
1.0
102
RTVSPost2010PropOp57
 70
     0
  0
XRECORD
  5
1C5
102
{ACAD_REACTORS
330
1C4
102
}
330
1C4
100
AcDbXrecord
280
     1
102
RTVSPost2010Prop28
280
     0
102
RTVSPost2010PropOp28
 70
     1
102
RTVSPost2010Prop29
280
     1
102
RTVSPost2010PropOp29
 70
     1
102
RTVSPost2010Prop30
280
     1
102
RTVSPost2010PropOp30
 70
     1
102
RTVSPost2010Prop31
280
     0
102
RTVSPost2010PropOp31
 70
     1
102
RTVSPost2010Prop32
280
     0
102
RTVSPost2010PropOp32
 70
     1
102
RTVSPost2010Prop33
280
     0
102
RTVSPost2010PropOp33
 70
     1
102
RTVSPost2010Prop34
280
     0
102
RTVSPost2010PropOp34
 70
     1
102
RTVSPost2010Prop35
280
     0
102
RTVSPost2010PropOp35
 70
     1
102
RTVSPost2010Prop36
280
     0
102
RTVSPost2010PropOp36
 70
     1
102
RTVSPost2010Prop37
 90
       50
102
RTVSPost2010PropOp37
 70
     1
102
RTVSPost2010Prop38
140
0.0
102
RTVSPost2010PropOp38
 70
     1
102
RTVSPost2010Prop39
140
1.0
102
RTVSPost2010PropOp39
 70
     1
102
RTVSPost2010Prop40
 90
        0
102
RTVSPost2010PropOp40
 70
     1
102
RTVSPost2010Prop41ColorIndex
 90
       18
102
RTVSPost2010Prop41ColorRGB
 90
        0
102
RTVSPost2010PropOp41
 70
     1
102
RTVSPost2010Prop42
 90
       50
102
RTVSPost2010PropOp42
 70
     1
102
RTVSPost2010Prop43
 90
        3
102
RTVSPost2010PropOp43
 70
     1
102
RTVSPost2010Prop44ColorIndex
 90
        5
102
RTVSPost2010Prop44ColorRGB
 90
      255
102
RTVSPost2010PropOp44
 70
     1
102
RTVSPost2010Prop45
280
     0
102
RTVSPost2010PropOp45
 70
     1
102
RTVSPost2010Prop46
 90
       50
102
RTVSPost2010PropOp46
 70
     1
102
RTVSPost2010Prop47
 90
       50
102
RTVSPost2010PropOp47
 70
     1
102
RTVSPost2010Prop48
 90
       50
102
RTVSPost2010PropOp48
 70
     1
102
RTVSPost2010Prop49
280
     0
102
RTVSPost2010PropOp49
 70
     1
102
RTVSPost2010Prop50
 90
       50
102
RTVSPost2010PropOp50
 70
     1
102
RTVSPost2010Prop51ColorIndex
 90
      256
102
RTVSPost2010Prop51ColorRGB
 90
-16777216
102
RTVSPost2010PropOp51
 70
     0
102
RTVSPost2010Prop52
140
1.0
102
RTVSPost2010PropOp52
 70
     0
102
RTVSPost2010Prop53
 90
        2
102
RTVSPost2010PropOp53
 70
     1
102
RTVSPost2010Prop54
  1
strokes_ogs.tif
102
RTVSPost2010PropOp54
 70
     1
102
RTVSPost2010Prop55
280
     0
102
RTVSPost2010PropOp55
 70
     1
102
RTVSPost2010Prop56
140
1.0
102
RTVSPost2010PropOp56
 70
     1
102
RTVSPost2010Prop57
140
1.0
102
RTVSPost2010PropOp57
 70
     1
  0
XRECORD
  5
1D7
102
{ACAD_REACTORS
330
1D6
102
}
330
1D6
100
AcDbXrecord
280
     1
102
RTVSPost2010Prop28
280
     0
102
RTVSPost2010PropOp28
 70
     0
102
RTVSPost2010Prop29
280
     1
102
RTVSPost2010PropOp29
 70
     0
102
RTVSPost2010Prop30
280
     1
102
RTVSPost2010PropOp30
 70
     0
102
RTVSPost2010Prop31
280
     0
102
RTVSPost2010PropOp31
 70
     0
102
RTVSPost2010Prop32
280
     0
102
RTVSPost2010PropOp32
 70
     0
102
RTVSPost2010Prop33
280
     0
102
RTVSPost2010PropOp33
 70
     0
102
RTVSPost2010Prop34
280
     0
102
RTVSPost2010PropOp34
 70
     0
102
RTVSPost2010Prop35
280
     0
102
RTVSPost2010PropOp35
 70
     0
102
RTVSPost2010Prop36
280
     0
102
RTVSPost2010PropOp36
 70
     0
102
RTVSPost2010Prop37
 90
       50
102
RTVSPost2010PropOp37
 70
     0
102
RTVSPost2010Prop38
140
0.0
102
RTVSPost2010PropOp38
 70
     0
102
RTVSPost2010Prop39
140
1.0
102
RTVSPost2010PropOp39
 70
     0
102
RTVSPost2010Prop40
 90
        0
102
RTVSPost2010PropOp40
 70
     0
102
RTVSPost2010Prop41ColorIndex
 90
       18
102
RTVSPost2010Prop41ColorRGB
 90
        0
102
RTVSPost2010PropOp41
 70
     0
102
RTVSPost2010Prop42
 90
       50
102
RTVSPost2010PropOp42
 70
     0
102
RTVSPost2010Prop43
 90
        3
102
RTVSPost2010PropOp43
 70
     0
102
RTVSPost2010Prop44ColorIndex
 90
        5
102
RTVSPost2010Prop44ColorRGB
 90
      255
102
RTVSPost2010PropOp44
 70
     0
102
RTVSPost2010Prop45
280
     0
102
RTVSPost2010PropOp45
 70
     0
102
RTVSPost2010Prop46
 90
       50
102
RTVSPost2010PropOp46
 70
     0
102
RTVSPost2010Prop47
 90
       50
102
RTVSPost2010PropOp47
 70
     0
102
RTVSPost2010Prop48
 90
       50
102
RTVSPost2010PropOp48
 70
     0
102
RTVSPost2010Prop49
280
     0
102
RTVSPost2010PropOp49
 70
     0
102
RTVSPost2010Prop50
 90
       50
102
RTVSPost2010PropOp50
 70
     0
102
RTVSPost2010Prop51ColorIndex
 90
      256
102
RTVSPost2010Prop51ColorRGB
 90
-16777216
102
RTVSPost2010PropOp51
 70
     0
102
RTVSPost2010Prop52
140
1.0
102
RTVSPost2010PropOp52
 70
     0
102
RTVSPost2010Prop53
 90
        2
102
RTVSPost2010PropOp53
 70
     0
102
RTVSPost2010Prop54
  1
strokes_ogs.tif
102
RTVSPost2010PropOp54
 70
     0
102
RTVSPost2010Prop55
280
     0
102
RTVSPost2010PropOp55
 70
     0
102
RTVSPost2010Prop56
140
1.0
102
RTVSPost2010PropOp56
 70
     0
102
RTVSPost2010Prop57
140
1.0
102
RTVSPost2010PropOp57
 70
     0
  0
XRECORD
  5
1BD
102
{ACAD_REACTORS
330
1BC
102
}
330
1BC
100
AcDbXrecord
280
     1
102
RTVSPost2010Prop28
280
     0
102
RTVSPost2010PropOp28
 70
     1
102
RTVSPost2010Prop29
280
     1
102
RTVSPost2010PropOp29
 70
     1
102
RTVSPost2010Prop30
280
     1
102
RTVSPost2010PropOp30
 70
     1
102
RTVSPost2010Prop31
280
     0
102
RTVSPost2010PropOp31
 70
     1
102
RTVSPost2010Prop32
280
     0
102
RTVSPost2010PropOp32
 70
     1
102
RTVSPost2010Prop33
280
     0
102
RTVSPost2010PropOp33
 70
     1
102
RTVSPost2010Prop34
280
     0
102
RTVSPost2010PropOp34
 70
     1
102
RTVSPost2010Prop35
280
     0
102
RTVSPost2010PropOp35
 70
     1
102
RTVSPost2010Prop36
280
     0
102
RTVSPost2010PropOp36
 70
     1
102
RTVSPost2010Prop37
 90
       50
102
RTVSPost2010PropOp37
 70
     1
102
RTVSPost2010Prop38
140
0.0
102
RTVSPost2010PropOp38
 70
     1
102
RTVSPost2010Prop39
140
1.0
102
RTVSPost2010PropOp39
 70
     1
102
RTVSPost2010Prop40
 90
        0
102
RTVSPost2010PropOp40
 70
     1
102
RTVSPost2010Prop41ColorIndex
 90
       18
102
RTVSPost2010Prop41ColorRGB
 90
        0
102
RTVSPost2010PropOp41
 70
     1
102
RTVSPost2010Prop42
 90
       50
102
RTVSPost2010PropOp42
 70
     1
102
RTVSPost2010Prop43
 90
        3
102
RTVSPost2010PropOp43
 70
     1
102
RTVSPost2010Prop44ColorIndex
 90
        5
102
RTVSPost2010Prop44ColorRGB
 90
      255
102
RTVSPost2010PropOp44
 70
     1
102
RTVSPost2010Prop45
280
     0
102
RTVSPost2010PropOp45
 70
     1
102
RTVSPost2010Prop46
 90
       50
102
RTVSPost2010PropOp46
 70
     1
102
RTVSPost2010Prop47
 90
       50
102
RTVSPost2010PropOp47
 70
     1
102
RTVSPost2010Prop48
 90
       50
102
RTVSPost2010PropOp48
 70
     1
102
RTVSPost2010Prop49
280
     0
102
RTVSPost2010PropOp49
 70
     1
102
RTVSPost2010Prop50
 90
       50
102
RTVSPost2010PropOp50
 70
     1
102
RTVSPost2010Prop51ColorIndex
 90
      256
102
RTVSPost2010Prop51ColorRGB
 90
-16777216
102
RTVSPost2010PropOp51
 70
     0
102
RTVSPost2010Prop52
140
1.0
102
RTVSPost2010PropOp52
 70
     0
102
RTVSPost2010Prop53
 90
        2
102
RTVSPost2010PropOp53
 70
     1
102
RTVSPost2010Prop54
  1
strokes_ogs.tif
102
RTVSPost2010PropOp54
 70
     1
102
RTVSPost2010Prop55
280
     0
102
RTVSPost2010PropOp55
 70
     1
102
RTVSPost2010Prop56
140
1.0
102
RTVSPost2010PropOp56
 70
     1
102
RTVSPost2010Prop57
140
1.0
102
RTVSPost2010PropOp57
 70
     1
  0
XRECORD
  5
1D3
102
{ACAD_REACTORS
330
1D2
102
}
330
1D2
100
AcDbXrecord
280
     1
102
RTVSPost2010Prop28
280
     0
102
RTVSPost2010PropOp28
 70
     1
102
RTVSPost2010Prop29
280
     1
102
RTVSPost2010PropOp29
 70
     1
102
RTVSPost2010Prop30
280
     1
102
RTVSPost2010PropOp30
 70
     1
102
RTVSPost2010Prop31
280
     0
102
RTVSPost2010PropOp31
 70
     1
102
RTVSPost2010Prop32
280
     0
102
RTVSPost2010PropOp32
 70
     1
102
RTVSPost2010Prop33
280
     0
102
RTVSPost2010PropOp33
 70
     1
102
RTVSPost2010Prop34
280
     0
102
RTVSPost2010PropOp34
 70
     1
102
RTVSPost2010Prop35
280
     0
102
RTVSPost2010PropOp35
 70
     1
102
RTVSPost2010Prop36
280
     0
102
RTVSPost2010PropOp36
 70
     1
102
RTVSPost2010Prop37
 90
       50
102
RTVSPost2010PropOp37
 70
     1
102
RTVSPost2010Prop38
140
0.0
102
RTVSPost2010PropOp38
 70
     1
102
RTVSPost2010Prop39
140
1.0
102
RTVSPost2010PropOp39
 70
     1
102
RTVSPost2010Prop40
 90
        0
102
RTVSPost2010PropOp40
 70
     1
102
RTVSPost2010Prop41ColorIndex
 90
       18
102
RTVSPost2010Prop41ColorRGB
 90
        0
102
RTVSPost2010PropOp41
 70
     1
102
RTVSPost2010Prop42
 90
       50
102
RTVSPost2010PropOp42
 70
     1
102
RTVSPost2010Prop43
 90
        3
102
RTVSPost2010PropOp43
 70
     1
102
RTVSPost2010Prop44ColorIndex
 90
        5
102
RTVSPost2010Prop44ColorRGB
 90
      255
102
RTVSPost2010PropOp44
 70
     1
102
RTVSPost2010Prop45
280
     0
102
RTVSPost2010PropOp45
 70
     1
102
RTVSPost2010Prop46
 90
       50
102
RTVSPost2010PropOp46
 70
     1
102
RTVSPost2010Prop47
 90
       50
102
RTVSPost2010PropOp47
 70
     1
102
RTVSPost2010Prop48
 90
       50
102
RTVSPost2010PropOp48
 70
     1
102
RTVSPost2010Prop49
280
     0
102
RTVSPost2010PropOp49
 70
     1
102
RTVSPost2010Prop50
 90
       50
102
RTVSPost2010PropOp50
 70
     1
102
RTVSPost2010Prop51ColorIndex
 90
      256
102
RTVSPost2010Prop51ColorRGB
 90
-16777216
102
RTVSPost2010PropOp51
 70
     0
102
RTVSPost2010Prop52
140
1.0
102
RTVSPost2010PropOp52
 70
     0
102
RTVSPost2010Prop53
 90
        2
102
RTVSPost2010PropOp53
 70
     1
102
RTVSPost2010Prop54
  1
strokes_ogs.tif
102
RTVSPost2010PropOp54
 70
     1
102
RTVSPost2010Prop55
280
     0
102
RTVSPost2010PropOp55
 70
     1
102
RTVSPost2010Prop56
140
1.0
102
RTVSPost2010PropOp56
 70
     1
102
RTVSPost2010Prop57
140
1.0
102
RTVSPost2010PropOp57
 70
     1
  0
XRECORD
  5
1D1
102
{ACAD_REACTORS
330
1D0
102
}
330
1D0
100
AcDbXrecord
280
     1
102
RTVSPost2010Prop28
280
     0
102
RTVSPost2010PropOp28
 70
     1
102
RTVSPost2010Prop29
280
     1
102
RTVSPost2010PropOp29
 70
     1
102
RTVSPost2010Prop30
280
     1
102
RTVSPost2010PropOp30
 70
     1
102
RTVSPost2010Prop31
280
     0
102
RTVSPost2010PropOp31
 70
     1
102
RTVSPost2010Prop32
280
     0
102
RTVSPost2010PropOp32
 70
     1
102
RTVSPost2010Prop33
280
     0
102
RTVSPost2010PropOp33
 70
     1
102
RTVSPost2010Prop34
280
     0
102
RTVSPost2010PropOp34
 70
     1
102
RTVSPost2010Prop35
280
     0
102
RTVSPost2010PropOp35
 70
     1
102
RTVSPost2010Prop36
280
     0
102
RTVSPost2010PropOp36
 70
     1
102
RTVSPost2010Prop37
 90
       50
102
RTVSPost2010PropOp37
 70
     1
102
RTVSPost2010Prop38
140
0.0
102
RTVSPost2010PropOp38
 70
     1
102
RTVSPost2010Prop39
140
1.0
102
RTVSPost2010PropOp39
 70
     1
102
RTVSPost2010Prop40
 90
        0
102
RTVSPost2010PropOp40
 70
     1
102
RTVSPost2010Prop41ColorIndex
 90
       18
102
RTVSPost2010Prop41ColorRGB
 90
        0
102
RTVSPost2010PropOp41
 70
     1
102
RTVSPost2010Prop42
 90
       50
102
RTVSPost2010PropOp42
 70
     1
102
RTVSPost2010Prop43
 90
        3
102
RTVSPost2010PropOp43
 70
     1
102
RTVSPost2010Prop44ColorIndex
 90
        5
102
RTVSPost2010Prop44ColorRGB
 90
      255
102
RTVSPost2010PropOp44
 70
     1
102
RTVSPost2010Prop45
280
     0
102
RTVSPost2010PropOp45
 70
     1
102
RTVSPost2010Prop46
 90
       50
102
RTVSPost2010PropOp46
 70
     1
102
RTVSPost2010Prop47
 90
       50
102
RTVSPost2010PropOp47
 70
     1
102
RTVSPost2010Prop48
 90
       50
102
RTVSPost2010PropOp48
 70
     1
102
RTVSPost2010Prop49
280
     0
102
RTVSPost2010PropOp49
 70
     1
102
RTVSPost2010Prop50
 90
       50
102
RTVSPost2010PropOp50
 70
     1
102
RTVSPost2010Prop51ColorIndex
 90
      256
102
RTVSPost2010Prop51ColorRGB
 90
-16777216
102
RTVSPost2010PropOp51
 70
     0
102
RTVSPost2010Prop52
140
1.0
102
RTVSPost2010PropOp52
 70
     0
102
RTVSPost2010Prop53
 90
        2
102
RTVSPost2010PropOp53
 70
     1
102
RTVSPost2010Prop54
  1
strokes_ogs.tif
102
RTVSPost2010PropOp54
 70
     1
102
RTVSPost2010Prop55
280
     0
102
RTVSPost2010PropOp55
 70
     1
102
RTVSPost2010Prop56
140
1.0
102
RTVSPost2010PropOp56
 70
     1
102
RTVSPost2010Prop57
140
1.0
102
RTVSPost2010PropOp57
 70
     1
  0
XRECORD
  5
1CB
102
{ACAD_REACTORS
330
1CA
102
}
330
1CA
100
AcDbXrecord
280
     1
102
RTVSPost2010Prop28
280
     0
102
RTVSPost2010PropOp28
 70
     1
102
RTVSPost2010Prop29
280
     1
102
RTVSPost2010PropOp29
 70
     1
102
RTVSPost2010Prop30
280
     1
102
RTVSPost2010PropOp30
 70
     1
102
RTVSPost2010Prop31
280
     0
102
RTVSPost2010PropOp31
 70
     1
102
RTVSPost2010Prop32
280
     0
102
RTVSPost2010PropOp32
 70
     1
102
RTVSPost2010Prop33
280
     0
102
RTVSPost2010PropOp33
 70
     1
102
RTVSPost2010Prop34
280
     0
102
RTVSPost2010PropOp34
 70
     1
102
RTVSPost2010Prop35
280
     0
102
RTVSPost2010PropOp35
 70
     1
102
RTVSPost2010Prop36
280
     0
102
RTVSPost2010PropOp36
 70
     1
102
RTVSPost2010Prop37
 90
       50
102
RTVSPost2010PropOp37
 70
     1
102
RTVSPost2010Prop38
140
0.0
102
RTVSPost2010PropOp38
 70
     1
102
RTVSPost2010Prop39
140
1.0
102
RTVSPost2010PropOp39
 70
     1
102
RTVSPost2010Prop40
 90
        0
102
RTVSPost2010PropOp40
 70
     1
102
RTVSPost2010Prop41ColorIndex
 90
       18
102
RTVSPost2010Prop41ColorRGB
 90
        0
102
RTVSPost2010PropOp41
 70
     1
102
RTVSPost2010Prop42
 90
       50
102
RTVSPost2010PropOp42
 70
     1
102
RTVSPost2010Prop43
 90
        3
102
RTVSPost2010PropOp43
 70
     1
102
RTVSPost2010Prop44ColorIndex
 90
        5
102
RTVSPost2010Prop44ColorRGB
 90
      255
102
RTVSPost2010PropOp44
 70
     1
102
RTVSPost2010Prop45
280
     0
102
RTVSPost2010PropOp45
 70
     1
102
RTVSPost2010Prop46
 90
       50
102
RTVSPost2010PropOp46
 70
     1
102
RTVSPost2010Prop47
 90
       50
102
RTVSPost2010PropOp47
 70
     1
102
RTVSPost2010Prop48
 90
       50
102
RTVSPost2010PropOp48
 70
     1
102
RTVSPost2010Prop49
280
     0
102
RTVSPost2010PropOp49
 70
     1
102
RTVSPost2010Prop50
 90
       50
102
RTVSPost2010PropOp50
 70
     1
102
RTVSPost2010Prop51ColorIndex
 90
      256
102
RTVSPost2010Prop51ColorRGB
 90
-16777216
102
RTVSPost2010PropOp51
 70
     0
102
RTVSPost2010Prop52
140
1.0
102
RTVSPost2010PropOp52
 70
     0
102
RTVSPost2010Prop53
 90
        2
102
RTVSPost2010PropOp53
 70
     1
102
RTVSPost2010Prop54
  1
strokes_ogs.tif
102
RTVSPost2010PropOp54
 70
     1
102
RTVSPost2010Prop55
280
     0
102
RTVSPost2010PropOp55
 70
     1
102
RTVSPost2010Prop56
140
1.0
102
RTVSPost2010PropOp56
 70
     1
102
RTVSPost2010Prop57
140
1.0
102
RTVSPost2010PropOp57
 70
     1
  0
XRECORD
  5
1CD
102
{ACAD_REACTORS
330
1CC
102
}
330
1CC
100
AcDbXrecord
280
     1
102
RTVSPost2010Prop28
280
     0
102
RTVSPost2010PropOp28
 70
     1
102
RTVSPost2010Prop29
280
     1
102
RTVSPost2010PropOp29
 70
     1
102
RTVSPost2010Prop30
280
     1
102
RTVSPost2010PropOp30
 70
     1
102
RTVSPost2010Prop31
280
     0
102
RTVSPost2010PropOp31
 70
     1
102
RTVSPost2010Prop32
280
     0
102
RTVSPost2010PropOp32
 70
     1
102
RTVSPost2010Prop33
280
     0
102
RTVSPost2010PropOp33
 70
     1
102
RTVSPost2010Prop34
280
     0
102
RTVSPost2010PropOp34
 70
     1
102
RTVSPost2010Prop35
280
     0
102
RTVSPost2010PropOp35
 70
     1
102
RTVSPost2010Prop36
280
     0
102
RTVSPost2010PropOp36
 70
     1
102
RTVSPost2010Prop37
 90
       50
102
RTVSPost2010PropOp37
 70
     1
102
RTVSPost2010Prop38
140
0.0
102
RTVSPost2010PropOp38
 70
     1
102
RTVSPost2010Prop39
140
1.0
102
RTVSPost2010PropOp39
 70
     1
102
RTVSPost2010Prop40
 90
        0
102
RTVSPost2010PropOp40
 70
     1
102
RTVSPost2010Prop41ColorIndex
 90
       18
102
RTVSPost2010Prop41ColorRGB
 90
        0
102
RTVSPost2010PropOp41
 70
     1
102
RTVSPost2010Prop42
 90
       50
102
RTVSPost2010PropOp42
 70
     1
102
RTVSPost2010Prop43
 90
        3
102
RTVSPost2010PropOp43
 70
     1
102
RTVSPost2010Prop44ColorIndex
 90
        5
102
RTVSPost2010Prop44ColorRGB
 90
      255
102
RTVSPost2010PropOp44
 70
     1
102
RTVSPost2010Prop45
280
     0
102
RTVSPost2010PropOp45
 70
     1
102
RTVSPost2010Prop46
 90
       50
102
RTVSPost2010PropOp46
 70
     1
102
RTVSPost2010Prop47
 90
       50
102
RTVSPost2010PropOp47
 70
     1
102
RTVSPost2010Prop48
 90
       50
102
RTVSPost2010PropOp48
 70
     1
102
RTVSPost2010Prop49
280
     0
102
RTVSPost2010PropOp49
 70
     1
102
RTVSPost2010Prop50
 90
       50
102
RTVSPost2010PropOp50
 70
     1
102
RTVSPost2010Prop51ColorIndex
 90
      256
102
RTVSPost2010Prop51ColorRGB
 90
-16777216
102
RTVSPost2010PropOp51
 70
     0
102
RTVSPost2010Prop52
140
1.0
102
RTVSPost2010PropOp52
 70
     0
102
RTVSPost2010Prop53
 90
        2
102
RTVSPost2010PropOp53
 70
     1
102
RTVSPost2010Prop54
  1
strokes_ogs.tif
102
RTVSPost2010PropOp54
 70
     1
102
RTVSPost2010Prop55
280
     0
102
RTVSPost2010PropOp55
 70
     1
102
RTVSPost2010Prop56
140
1.0
102
RTVSPost2010PropOp56
 70
     1
102
RTVSPost2010Prop57
140
1.0
102
RTVSPost2010PropOp57
 70
     1
  0
XRECORD
  5
1C3
102
{ACAD_REACTORS
330
1C2
102
}
330
1C2
100
AcDbXrecord
280
     1
102
RTVSPost2010Prop28
280
     0
102
RTVSPost2010PropOp28
 70
     1
102
RTVSPost2010Prop29
280
     1
102
RTVSPost2010PropOp29
 70
     1
102
RTVSPost2010Prop30
280
     1
102
RTVSPost2010PropOp30
 70
     1
102
RTVSPost2010Prop31
280
     0
102
RTVSPost2010PropOp31
 70
     1
102
RTVSPost2010Prop32
280
     0
102
RTVSPost2010PropOp32
 70
     1
102
RTVSPost2010Prop33
280
     0
102
RTVSPost2010PropOp33
 70
     1
102
RTVSPost2010Prop34
280
     0
102
RTVSPost2010PropOp34
 70
     1
102
RTVSPost2010Prop35
280
     0
102
RTVSPost2010PropOp35
 70
     1
102
RTVSPost2010Prop36
280
     0
102
RTVSPost2010PropOp36
 70
     1
102
RTVSPost2010Prop37
 90
       50
102
RTVSPost2010PropOp37
 70
     1
102
RTVSPost2010Prop38
140
0.0
102
RTVSPost2010PropOp38
 70
     1
102
RTVSPost2010Prop39
140
1.0
102
RTVSPost2010PropOp39
 70
     1
102
RTVSPost2010Prop40
 90
        0
102
RTVSPost2010PropOp40
 70
     1
102
RTVSPost2010Prop41ColorIndex
 90
       18
102
RTVSPost2010Prop41ColorRGB
 90
        0
102
RTVSPost2010PropOp41
 70
     1
102
RTVSPost2010Prop42
 90
       50
102
RTVSPost2010PropOp42
 70
     1
102
RTVSPost2010Prop43
 90
        3
102
RTVSPost2010PropOp43
 70
     1
102
RTVSPost2010Prop44ColorIndex
 90
        5
102
RTVSPost2010Prop44ColorRGB
 90
      255
102
RTVSPost2010PropOp44
 70
     1
102
RTVSPost2010Prop45
280
     0
102
RTVSPost2010PropOp45
 70
     1
102
RTVSPost2010Prop46
 90
       50
102
RTVSPost2010PropOp46
 70
     1
102
RTVSPost2010Prop47
 90
       50
102
RTVSPost2010PropOp47
 70
     1
102
RTVSPost2010Prop48
 90
       50
102
RTVSPost2010PropOp48
 70
     1
102
RTVSPost2010Prop49
280
     0
102
RTVSPost2010PropOp49
 70
     1
102
RTVSPost2010Prop50
 90
       50
102
RTVSPost2010PropOp50
 70
     1
102
RTVSPost2010Prop51ColorIndex
 90
      256
102
RTVSPost2010Prop51ColorRGB
 90
-16777216
102
RTVSPost2010PropOp51
 70
     0
102
RTVSPost2010Prop52
140
1.0
102
RTVSPost2010PropOp52
 70
     0
102
RTVSPost2010Prop53
 90
        2
102
RTVSPost2010PropOp53
 70
     1
102
RTVSPost2010Prop54
  1
strokes_ogs.tif
102
RTVSPost2010PropOp54
 70
     1
102
RTVSPost2010Prop55
280
     0
102
RTVSPost2010PropOp55
 70
     1
102
RTVSPost2010Prop56
140
1.0
102
RTVSPost2010PropOp56
 70
     1
102
RTVSPost2010Prop57
140
1.0
102
RTVSPost2010PropOp57
 70
     1
  0
XRECORD
  5
1B7
102
{ACAD_REACTORS
330
1B6
102
}
330
1B6
100
AcDbXrecord
280
     1
102
RTVSPost2010Prop28
280
     0
102
RTVSPost2010PropOp28
 70
     1
102
RTVSPost2010Prop29
280
     1
102
RTVSPost2010PropOp29
 70
     1
102
RTVSPost2010Prop30
280
     1
102
RTVSPost2010PropOp30
 70
     1
102
RTVSPost2010Prop31
280
     0
102
RTVSPost2010PropOp31
 70
     1
102
RTVSPost2010Prop32
280
     0
102
RTVSPost2010PropOp32
 70
     1
102
RTVSPost2010Prop33
280
     0
102
RTVSPost2010PropOp33
 70
     1
102
RTVSPost2010Prop34
280
     0
102
RTVSPost2010PropOp34
 70
     1
102
RTVSPost2010Prop35
280
     0
102
RTVSPost2010PropOp35
 70
     1
102
RTVSPost2010Prop36
280
     0
102
RTVSPost2010PropOp36
 70
     1
102
RTVSPost2010Prop37
 90
       50
102
RTVSPost2010PropOp37
 70
     1
102
RTVSPost2010Prop38
140
0.0
102
RTVSPost2010PropOp38
 70
     1
102
RTVSPost2010Prop39
140
1.0
102
RTVSPost2010PropOp39
 70
     1
102
RTVSPost2010Prop40
 90
        0
102
RTVSPost2010PropOp40
 70
     1
102
RTVSPost2010Prop41ColorIndex
 90
       18
102
RTVSPost2010Prop41ColorRGB
 90
        0
102
RTVSPost2010PropOp41
 70
     1
102
RTVSPost2010Prop42
 90
       50
102
RTVSPost2010PropOp42
 70
     1
102
RTVSPost2010Prop43
 90
        3
102
RTVSPost2010PropOp43
 70
     1
102
RTVSPost2010Prop44ColorIndex
 90
        5
102
RTVSPost2010Prop44ColorRGB
 90
      255
102
RTVSPost2010PropOp44
 70
     1
102
RTVSPost2010Prop45
280
     0
102
RTVSPost2010PropOp45
 70
     1
102
RTVSPost2010Prop46
 90
       50
102
RTVSPost2010PropOp46
 70
     1
102
RTVSPost2010Prop47
 90
       50
102
RTVSPost2010PropOp47
 70
     1
102
RTVSPost2010Prop48
 90
       50
102
RTVSPost2010PropOp48
 70
     1
102
RTVSPost2010Prop49
280
     0
102
RTVSPost2010PropOp49
 70
     1
102
RTVSPost2010Prop50
 90
       50
102
RTVSPost2010PropOp50
 70
     1
102
RTVSPost2010Prop51ColorIndex
 90
      256
102
RTVSPost2010Prop51ColorRGB
 90
-16777216
102
RTVSPost2010PropOp51
 70
     0
102
RTVSPost2010Prop52
140
1.0
102
RTVSPost2010PropOp52
 70
     0
102
RTVSPost2010Prop53
 90
        2
102
RTVSPost2010PropOp53
 70
     1
102
RTVSPost2010Prop54
  1
strokes_ogs.tif
102
RTVSPost2010PropOp54
 70
     1
102
RTVSPost2010Prop55
280
     0
102
RTVSPost2010PropOp55
 70
     1
102
RTVSPost2010Prop56
140
1.0
102
RTVSPost2010PropOp56
 70
     1
102
RTVSPost2010Prop57
140
1.0
102
RTVSPost2010PropOp57
 70
     1
  0
XRECORD
  5
1CF
102
{ACAD_REACTORS
330
1CE
102
}
330
1CE
100
AcDbXrecord
280
     1
102
RTVSPost2010Prop28
280
     0
102
RTVSPost2010PropOp28
 70
     1
102
RTVSPost2010Prop29
280
     1
102
RTVSPost2010PropOp29
 70
     1
102
RTVSPost2010Prop30
280
     1
102
RTVSPost2010PropOp30
 70
     1
102
RTVSPost2010Prop31
280
     0
102
RTVSPost2010PropOp31
 70
     1
102
RTVSPost2010Prop32
280
     0
102
RTVSPost2010PropOp32
 70
     1
102
RTVSPost2010Prop33
280
     0
102
RTVSPost2010PropOp33
 70
     1
102
RTVSPost2010Prop34
280
     0
102
RTVSPost2010PropOp34
 70
     1
102
RTVSPost2010Prop35
280
     0
102
RTVSPost2010PropOp35
 70
     1
102
RTVSPost2010Prop36
280
     0
102
RTVSPost2010PropOp36
 70
     1
102
RTVSPost2010Prop37
 90
       50
102
RTVSPost2010PropOp37
 70
     1
102
RTVSPost2010Prop38
140
0.0
102
RTVSPost2010PropOp38
 70
     1
102
RTVSPost2010Prop39
140
1.0
102
RTVSPost2010PropOp39
 70
     1
102
RTVSPost2010Prop40
 90
        0
102
RTVSPost2010PropOp40
 70
     1
102
RTVSPost2010Prop41ColorIndex
 90
       18
102
RTVSPost2010Prop41ColorRGB
 90
        0
102
RTVSPost2010PropOp41
 70
     1
102
RTVSPost2010Prop42
 90
       50
102
RTVSPost2010PropOp42
 70
     1
102
RTVSPost2010Prop43
 90
        3
102
RTVSPost2010PropOp43
 70
     1
102
RTVSPost2010Prop44ColorIndex
 90
        5
102
RTVSPost2010Prop44ColorRGB
 90
      255
102
RTVSPost2010PropOp44
 70
     1
102
RTVSPost2010Prop45
280
     0
102
RTVSPost2010PropOp45
 70
     1
102
RTVSPost2010Prop46
 90
       50
102
RTVSPost2010PropOp46
 70
     1
102
RTVSPost2010Prop47
 90
       50
102
RTVSPost2010PropOp47
 70
     1
102
RTVSPost2010Prop48
 90
       50
102
RTVSPost2010PropOp48
 70
     1
102
RTVSPost2010Prop49
280
     0
102
RTVSPost2010PropOp49
 70
     1
102
RTVSPost2010Prop50
 90
       50
102
RTVSPost2010PropOp50
 70
     1
102
RTVSPost2010Prop51ColorIndex
 90
      256
102
RTVSPost2010Prop51ColorRGB
 90
-16777216
102
RTVSPost2010PropOp51
 70
     0
102
RTVSPost2010Prop52
140
1.0
102
RTVSPost2010PropOp52
 70
     0
102
RTVSPost2010Prop53
 90
        2
102
RTVSPost2010PropOp53
 70
     1
102
RTVSPost2010Prop54
  1
strokes_ogs.tif
102
RTVSPost2010PropOp54
 70
     1
102
RTVSPost2010Prop55
280
     0
102
RTVSPost2010PropOp55
 70
     1
102
RTVSPost2010Prop56
140
1.0
102
RTVSPost2010PropOp56
 70
     1
102
RTVSPost2010Prop57
140
1.0
102
RTVSPost2010PropOp57
 70
     1
  0
ENDSEC
  0
EOF
