  0
SECTION
  2
HEADER
  9
$ACADVER
  1
AC1024
  9
$ACADMAINTVER
 70
   226
  9
$DWGCODEPAGE
  3
ANSI_932
  9
$INSBASE
 10
0.0
 20
0.0
 30
0.0
  9
$EXTMIN
 10
1.000000000000000E+20
 20
1.000000000000000E+20
 30
1.000000000000000E+20
  9
$EXTMAX
 10
-1.000000000000000E+20
 20
-1.000000000000000E+20
 30
-1.000000000000000E+20
  9
$LIMMIN
 10
0.0
 20
0.0
  9
$LIMMAX
 10
12.0
 20
9.0
  9
$ORTHOMODE
 70
     0
  9
$REGENMODE
 70
     1
  9
$FILLMODE
 70
     1
  9
$QTEXTMODE
 70
     0
  9
$MIRRTEXT
 70
     0
  9
$LTSCALE
 40
1.0
  9
$ATTMODE
 70
     1
  9
$TEXTSIZE
 40
0.2
  9
$TRACEWID
 40
0.05
  9
$TEXTSTYLE
  7
Standard
  9
$CLAYER
  8
0
  9
$CELTYPE
  6
ByLayer
  9
$CECOLOR
 62
   256
  9
$CELTSCALE
 40
1.0
  9
$DISPSILH
 70
     0
  9
$DIMSCALE
 40
1.0
  9
$DIMASZ
 40
0.18
  9
$DIMEXO
 40
0.0625
  9
$DIMDLI
 40
0.38
  9
$DIMRND
 40
0.0
  9
$DIMDLE
 40
0.0
  9
$DIMEXE
 40
0.18
  9
$DIMTP
 40
0.0
  9
$DIMTM
 40
0.0
  9
$DIMTXT
 40
0.18
  9
$DIMCEN
 40
0.09
  9
$DIMTSZ
 40
0.0
  9
$DIMTOL
 70
     0
  9
$DIMLIM
 70
     0
  9
$DIMTIH
 70
     1
  9
$DIMTOH
 70
     1
  9
$DIMSE1
 70
     0
  9
$DIMSE2
 70
     0
  9
$DIMTAD
 70
     0
  9
$DIMZIN
 70
     0
  9
$DIMBLK
  1

  9
$DIMASO
 70
     1
  9
$DIMSHO
 70
     1
  9
$DIMPOST
  1

  9
$DIMAPOST
  1

  9
$DIMALT
 70
     0
  9
$DIMALTD
 70
     2
  9
$DIMALTF
 40
25.4
  9
$DIMLFAC
 40
1.0
  9
$DIMTOFL
 70
     0
  9
$DIMTVP
 40
0.0
  9
$DIMTIX
 70
     0
  9
$DIMSOXD
 70
     0
  9
$DIMSAH
 70
     0
  9
$DIMBLK1
  1

  9
$DIMBLK2
  1

  9
$DIMSTYLE
  2
Standard
  9
$DIMCLRD
 70
     0
  9
$DIMCLRE
 70
     0
  9
$DIMCLRT
 70
     0
  9
$DIMTFAC
 40
1.0
  9
$DIMGAP
 40
0.09
  9
$DIMJUST
 70
     0
  9
$DIMSD1
 70
     0
  9
$DIMSD2
 70
     0
  9
$DIMTOLJ
 70
     1
  9
$DIMTZIN
 70
     0
  9
$DIMALTZ
 70
     0
  9
$DIMALTTZ
 70
     0
  9
$DIMUPT
 70
     0
  9
$DIMDEC
 70
     4
  9
$DIMTDEC
 70
     4
  9
$DIMALTU
 70
     2
  9
$DIMALTTD
 70
     2
  9
$DIMTXSTY
  7
Standard
  9
$DIMAUNIT
 70
     0
  9
$DIMADEC
 70
     0
  9
$DIMALTRND
 40
0.0
  9
$DIMAZIN
 70
     0
  9
$DIMDSEP
 70
    46
  9
$DIMATFIT
 70
     3
  9
$DIMFRAC
 70
     0
  9
$DIMLDRBLK
  1

  9
$DIMLUNIT
 70
     2
  9
$DIMLWD
 70
    -2
  9
$DIMLWE
 70
    -2
  9
$DIMTMOVE
 70
     0
  9
$DIMFXL
 40
1.0
  9
$DIMFXLON
 70
     0
  9
$DIMJOGANG
 40
0.7853981633974483
  9
$DIMTFILL
 70
     0
  9
$DIMTFILLCLR
 70
     0
  9
$DIMARCSYM
 70
     0
  9
$DIMLTYPE
  6

  9
$DIMLTEX1
  6

  9
$DIMLTEX2
  6

  9
$DIMTXTDIRECTION
 70
     0
  9
$LUNITS
 70
     2
  9
$LUPREC
 70
     4
  9
$SKETCHINC
 40
0.1
  9
$FILLETRAD
 40
0.0
  9
$AUNITS
 70
     0
  9
$AUPREC
 70
     0
  9
$MENU
  1
.
  9
$ELEVATION
 40
0.0
  9
$PELEVATION
 40
0.0
  9
$THICKNESS
 40
0.0
  9
$LIMCHECK
 70
     0
  9
$CHAMFERA
 40
0.0
  9
$CHAMFERB
 40
0.0
  9
$CHAMFERC
 40
0.0
  9
$CHAMFERD
 40
0.0
  9
$SKPOLY
 70
     0
  9
$TDCREATE
 40
2459569.489097222
  9
$TDUCREATE
 40
2459569.114097222
  9
$TDUPDATE
 40
2459569.489097222
  9
$TDUUPDATE
 40
2459569.114097222
  9
$TDINDWG
 40
0.0000000000
  9
$TDUSRTIMER
 40
0.0000000000
  9
$USRTIMER
 70
     1
  9
$ANGBASE
 50
0.0
  9
$ANGDIR
 70
     0
  9
$PDMODE
 70
     0
  9
$PDSIZE
 40
0.0
  9
$PLINEWID
 40
0.0
  9
$SPLFRAME
 70
     0
  9
$SPLINETYPE
 70
     6
  9
$SPLINESEGS
 70
     8
  9
$HANDSEED
  5
1A6
  9
$SURFTAB1
 70
     6
  9
$SURFTAB2
 70
     6
  9
$SURFTYPE
 70
     6
  9
$SURFU
 70
     6
  9
$SURFV
 70
     6
  9
$UCSBASE
  2

  9
$UCSNAME
  2

  9
$UCSORG
 10
0.0
 20
0.0
 30
0.0
  9
$UCSXDIR
 10
1.0
 20
0.0
 30
0.0
  9
$UCSYDIR
 10
0.0
 20
1.0
 30
0.0
  9
$UCSORTHOREF
  2

  9
$UCSORTHOVIEW
 70
     0
  9
$UCSORGTOP
 10
0.0
 20
0.0
 30
0.0
  9
$UCSORGBOTTOM
 10
0.0
 20
0.0
 30
0.0
  9
$UCSORGLEFT
 10
0.0
 20
0.0
 30
0.0
  9
$UCSORGRIGHT
 10
0.0
 20
0.0
 30
0.0
  9
$UCSORGFRONT
 10
0.0
 20
0.0
 30
0.0
  9
$UCSORGBACK
 10
0.0
 20
0.0
 30
0.0
  9
$PUCSBASE
  2

  9
$PUCSNAME
  2

  9
$PUCSORG
 10
0.0
 20
0.0
 30
0.0
  9
$PUCSXDIR
 10
1.0
 20
0.0
 30
0.0
  9
$PUCSYDIR
 10
0.0
 20
1.0
 30
0.0
  9
$PUCSORTHOREF
  2

  9
$PUCSORTHOVIEW
 70
     0
  9
$PUCSORGTOP
 10
0.0
 20
0.0
 30
0.0
  9
$PUCSORGBOTTOM
 10
0.0
 20
0.0
 30
0.0
  9
$PUCSORGLEFT
 10
0.0
 20
0.0
 30
0.0
  9
$PUCSORGRIGHT
 10
0.0
 20
0.0
 30
0.0
  9
$PUCSORGFRONT
 10
0.0
 20
0.0
 30
0.0
  9
$PUCSORGBACK
 10
0.0
 20
0.0
 30
0.0
  9
$USERI1
 70
     0
  9
$USERI2
 70
     0
  9
$USERI3
 70
     0
  9
$USERI4
 70
     0
  9
$USERI5
 70
     0
  9
$USERR1
 40
0.0
  9
$USERR2
 40
0.0
  9
$USERR3
 40
0.0
  9
$USERR4
 40
0.0
  9
$USERR5
 40
0.0
  9
$WORLDVIEW
 70
     1
  9
$SHADEDGE
 70
     3
  9
$SHADEDIF
 70
    70
  9
$TILEMODE
 70
     1
  9
$MAXACTVP
 70
    64
  9
$PINSBASE
 10
0.0
 20
0.0
 30
0.0
  9
$PLIMCHECK
 70
     0
  9
$PEXTMIN
 10
1.000000000000000E+20
 20
1.000000000000000E+20
 30
1.000000000000000E+20
  9
$PEXTMAX
 10
-1.000000000000000E+20
 20
-1.000000000000000E+20
 30
-1.000000000000000E+20
  9
$PLIMMIN
 10
0.0
 20
0.0
  9
$PLIMMAX
 10
12.0
 20
9.0
  9
$UNITMODE
 70
     0
  9
$VISRETAIN
 70
     1
  9
$PLINEGEN
 70
     0
  9
$PSLTSCALE
 70
     1
  9
$TREEDEPTH
 70
  3020
  9
$CMLSTYLE
  2
Standard
  9
$CMLJUST
 70
     0
  9
$CMLSCALE
 40
1.0
  9
$PROXYGRAPHICS
 70
     1
  9
$MEASUREMENT
 70
     0
  9
$CELWEIGHT
370
    -1
  9
$ENDCAPS
280
     0
  9
$JOINSTYLE
280
     0
  9
$LWDISPLAY
290
     1
  9
$INSUNITS
 70
     4
  9
$HYPERLINKBASE
  1

  9
$STYLESHEET
  1

  9
$XEDIT
290
     1
  9
$CEPSNTYPE
380
     0
  9
$PSTYLEMODE
290
     1
  9
$FINGERPRINTGUID
  2
{272D28F6-C918-054C-98A9-F4F0CC61D47E}
  9
$VERSIONGUID
  2
{6D3E9273-5122-EE4A-A98E-82407BCF01AA}
  9
$EXTNAMES
290
     1
  9
$PSVPSCALE
 40
0.0
  9
$OLESTARTUP
290
     0
  9
$SORTENTS
280
   127
  9
$INDEXCTL
280
     0
  9
$HIDETEXT
280
     1
  9
$XCLIPFRAME
280
     2
  9
$HALOGAP
280
     0
  9
$OBSCOLOR
 70
   257
  9
$OBSLTYPE
280
     0
  9
$INTERSECTIONDISPLAY
280
     0
  9
$INTERSECTIONCOLOR
 70
   257
  9
$DIMASSOC
280
     2
  9
$PROJECTNAME
  1

  9
$CAMERADISPLAY
290
     0
  9
$LENSLENGTH
 40
50.0
  9
$CAMERAHEIGHT
 40
0.0
  9
$STEPSPERSEC
 40
2.0
  9
$STEPSIZE
 40
6.0
  9
$3DDWFPREC
 40
2.0
  9
$PSOLWIDTH
 40
0.25
  9
$PSOLHEIGHT
 40
4.0
  9
$LOFTANG1
 40
1.570796326794896
  9
$LOFTANG2
 40
1.570796326794896
  9
$LOFTMAG1
 40
0.0
  9
$LOFTMAG2
 40
0.0
  9
$LOFTPARAM
 70
     7
  9
$LOFTNORMALS
280
     1
  9
$LATITUDE
 40
37.795
  9
$LONGITUDE
 40
-122.394
  9
$NORTHDIRECTION
 40
0.0
  9
$TIMEZONE
 70
 -8000
  9
$LIGHTGLYPHDISPLAY
280
     1
  9
$TILEMODELIGHTSYNCH
280
     1
  9
$CMATERIAL
347
11
  9
$SOLIDHIST
280
     0
  9
$SHOWHIST
280
     1
  9
$DWFFRAME
280
     2
  9
$DGNFRAME
280
     0
  9
$REALWORLDSCALE
290
     1
  9
$INTERFERECOLOR
 62
     1
  9
$INTERFEREOBJVS
345
33
  9
$INTERFEREVPVS
346
30
  9
$CSHADOW
280
     0
  9
$SHADOWPLANELOCATION
 40
0.0
  0
ENDSEC
  0
SECTION
  2
CLASSES
  0
CLASS
  1
ACDBDICTIONARYWDFLT
  2
AcDbDictionaryWithDefault
  3
ObjectDBX Classes
 90
        0
 91
        1
280
     0
281
     0
  0
CLASS
  1
MATERIAL
  2
AcDbMaterial
  3
ObjectDBX Classes
 90
     1153
 91
        3
280
     0
281
     0
  0
CLASS
  1
VISUALSTYLE
  2
AcDbVisualStyle
  3
ObjectDBX Classes
 90
     4095
 91
       24
280
     0
281
     0
  0
CLASS
  1
SCALE
  2
AcDbScale
  3
ObjectDBX Classes
 90
     1153
 91
       17
280
     0
281
     0
  0
CLASS
  1
TABLESTYLE
  2
AcDbTableStyle
  3
ObjectDBX Classes
 90
     4095
 91
        1
280
     0
281
     0
  0
CLASS
  1
MLEADERSTYLE
  2
AcDbMLeaderStyle
  3
ACDB_MLEADERSTYLE_CLASS
 90
     4095
 91
        1
280
     0
281
     0
  0
CLASS
  1
ACDBSECTIONVIEWSTYLE
  2
AcDbSectionViewStyle
  3
ObjectDBX Classes
 90
     1025
 91
        1
280
     0
281
     0
  0
CLASS
  1
ACDBDETAILVIEWSTYLE
  2
AcDbDetailViewStyle
  3
ObjectDBX Classes
 90
     1025
 91
        1
280
     0
281
     0
  0
CLASS
  1
DICTIONARYVAR
  2
AcDbDictionaryVar
  3
ObjectDBX Classes
 90
        0
 91
        5
280
     0
281
     0
  0
CLASS
  1
CELLSTYLEMAP
  2
AcDbCellStyleMap
  3
ObjectDBX Classes
 90
     1152
 91
        1
280
     0
281
     0
  0
ENDSEC
  0
SECTION
  2
TABLES
  0
TABLE
  2
VPORT
  5
8
330
0
100
AcDbSymbolTable
 70
     1
  0
VPORT
  5
57
330
8
100
AcDbSymbolTableRecord
100
AcDbViewportTableRecord
  2
*Active
 70
     0
 10
0.0
 20
0.0
 11
1.0
 21
1.0
 12
0.0
 22
0.0
 13
0.0
 23
0.0
 14
1.0
 24
1.0
 15
0.0
 25
0.0
 16
0.0
 26
0.0
 36
1.0
 17
104.9999999737534
 27
-148.4999999628701
 37
0.0
 40
302.939999924255
 41
0.7070707070707534
 42
50.0
 43
0.0
 44
0.0
 50
0.0
 51
0.0
 71
     0
 72
   100
 73
     1
 74
     0
 75
     1
 76
     0
 77
     0
 78
     0
281
     0
 65
     1
110
0.0
120
0.0
130
0.0
111
1.0
121
0.0
131
0.0
112
0.0
122
1.0
132
0.0
 79
     0
146
0.0
 60
     3
 61
     5
292
     1
282
     1
141
0.0
142
0.0
 63
   250
421
  3355443
  0
ENDTAB
  0
TABLE
  2
LTYPE
  5
5
330
0
100
AcDbSymbolTable
 70
     3
  0
LTYPE
  5
5B
330
5
100
AcDbSymbolTableRecord
100
AcDbLinetypeTableRecord
  2
ByBlock
 70
     0
  3

 72
    65
 73
     0
 40
0.0
  0
LTYPE
  5
5C
330
5
100
AcDbSymbolTableRecord
100
AcDbLinetypeTableRecord
  2
ByLayer
 70
     0
  3

 72
    65
 73
     0
 40
0.0
  0
LTYPE
  5
5D
330
5
100
AcDbSymbolTableRecord
100
AcDbLinetypeTableRecord
  2
Continuous
 70
     0
  3
Solid line
 72
    65
 73
     0
 40
0.0
  0
LTYPE
  5
12B
330
5
100
AcDbSymbolTableRecord
100
AcDbLinetypeTableRecord
  2
AI-Linetype-0
 70
     0
  3
Adobe Illustrator Linetype No. 0
 72
    65
 73
     2
 40
1.411111110758333
 49
0.7055555553791667
 74
     0
 49
-0.7055555553791667
 74
     0
  0
LTYPE
  5
12D
330
5
100
AcDbSymbolTableRecord
100
AcDbLinetypeTableRecord
  2
AI-Linetype-1
 70
     0
  3
Adobe Illustrator Linetype No. 1
 72
    65
 73
     2
 40
1.411111110758333
 49
0.7055555553791667
 74
     0
 49
-0.7055555553791667
 74
     0
  0
ENDTAB
  0
TABLE
  2
LAYER
  5
2
330
0
100
AcDbSymbolTable
 70
     2
  0
LAYER
  5
54
330
2
100
AcDbSymbolTableRecord
100
AcDbLayerTableRecord
  2
0
 70
     0
 62
     7
  6
Continuous
370
    -3
390
F
347
21
  0
LAYER
  5
78
330
2
100
AcDbSymbolTableRecord
100
AcDbLayerTableRecord
  2
レイヤー 1
 70
     0
 62
     7
  6
Continuous
370
     0
390
F
347
21
  0
ENDTAB
  0
TABLE
  2
STYLE
  5
3
330
0
100
AcDbSymbolTable
 70
     2
  0
STYLE
  5
55
330
3
100
AcDbSymbolTableRecord
100
AcDbTextStyleTableRecord
  2
Standard
 70
     0
 40
0.0
 41
1.0
 50
0.0
 71
     0
 42
0.2
  3
txt
  4

  0
STYLE
  5
5A
330
3
100
AcDbSymbolTableRecord
100
AcDbTextStyleTableRecord
  2
Annotative
 70
     0
 40
0.0
 41
1.0
 50
0.0
 71
     0
 42
0.2
  3
txt
  4

1001
AcadAnnotative
1000
AnnotativeData
1002
{
1070
     1
1070
     1
1002
}
  0
ENDTAB
  0
TABLE
  2
VIEW
  5
6
330
0
100
AcDbSymbolTable
 70
     0
  0
ENDTAB
  0
TABLE
  2
UCS
  5
7
330
0
100
AcDbSymbolTable
 70
     0
  0
ENDTAB
  0
TABLE
  2
APPID
  5
9
330
0
100
AcDbSymbolTable
 70
     2
  0
APPID
  5
56
330
9
100
AcDbSymbolTableRecord
100
AcDbRegAppTableRecord
  2
ACAD
 70
     0
  0
APPID
  5
5E
330
9
100
AcDbSymbolTableRecord
100
AcDbRegAppTableRecord
  2
AcadAnnotative
 70
     0
  0
ENDTAB
  0
TABLE
  2
DIMSTYLE
  5
A
330
0
100
AcDbSymbolTable
 70
     2
100
AcDbDimStyleTable
 71
     0
  0
DIMSTYLE
105
58
330
A
100
AcDbSymbolTableRecord
100
AcDbDimStyleTableRecord
  2
Standard
 70
     0
340
55
  0
DIMSTYLE
105
59
330
A
100
AcDbSymbolTableRecord
100
AcDbDimStyleTableRecord
  2
Annotative
 70
     0
340
55
1001
AcadAnnotative
1000
AnnotativeData
1002
{
1070
     1
1070
     1
1002
}
  0
ENDTAB
  0
TABLE
  2
BLOCK_RECORD
  5
1
330
0
100
AcDbSymbolTable
 70
    17
  0
BLOCK_RECORD
  5
70
330
1
100
AcDbSymbolTableRecord
100
AcDbBlockTableRecord
  2
*Model_Space
340
73
 70
     0
280
     1
281
     0
  0
BLOCK_RECORD
  5
6C
330
1
100
AcDbSymbolTableRecord
100
AcDbBlockTableRecord
  2
*Paper_Space
340
6F
 70
     0
280
     1
281
     0
  0
BLOCK_RECORD
  5
74
330
1
100
AcDbSymbolTableRecord
100
AcDbBlockTableRecord
  2
*Paper_Space0
340
77
 70
     0
280
     1
281
     0
  0
BLOCK_RECORD
  5
79
330
1
100
AcDbSymbolTableRecord
100
AcDbBlockTableRecord
  2
Block_0
340
0
102
{BLKREFS
331
7A
102
}
 70
     0
280
     1
281
     0
  0
BLOCK_RECORD
  5
E4
330
1
100
AcDbSymbolTableRecord
100
AcDbBlockTableRecord
  2
Block_1
340
0
102
{BLKREFS
331
E5
102
}
 70
     0
280
     1
281
     0
  0
BLOCK_RECORD
  5
E8
330
1
100
AcDbSymbolTableRecord
100
AcDbBlockTableRecord
  2
Block_2
340
0
102
{BLKREFS
331
E9
102
}
 70
     0
280
     1
281
     0
  0
BLOCK_RECORD
  5
F5
330
1
100
AcDbSymbolTableRecord
100
AcDbBlockTableRecord
  2
Block_3
340
0
102
{BLKREFS
331
F6
102
}
 70
     0
280
     1
281
     0
  0
BLOCK_RECORD
  5
F9
330
1
100
AcDbSymbolTableRecord
100
AcDbBlockTableRecord
  2
Block_4
340
0
102
{BLKREFS
331
FA
102
}
 70
     0
280
     1
281
     0
  0
BLOCK_RECORD
  5
103
330
1
100
AcDbSymbolTableRecord
100
AcDbBlockTableRecord
  2
Block_5
340
0
102
{BLKREFS
331
104
102
}
 70
     0
280
     1
281
     0
  0
BLOCK_RECORD
  5
10D
330
1
100
AcDbSymbolTableRecord
100
AcDbBlockTableRecord
  2
Block_6
340
0
102
{BLKREFS
331
10E
102
}
 70
     0
280
     1
281
     0
  0
BLOCK_RECORD
  5
111
330
1
100
AcDbSymbolTableRecord
100
AcDbBlockTableRecord
  2
Block_7
340
0
102
{BLKREFS
331
112
102
}
 70
     0
280
     1
281
     0
  0
BLOCK_RECORD
  5
11C
330
1
100
AcDbSymbolTableRecord
100
AcDbBlockTableRecord
  2
Block_8
340
0
102
{BLKREFS
331
11D
102
}
 70
     0
280
     1
281
     0
  0
BLOCK_RECORD
  5
124
330
1
100
AcDbSymbolTableRecord
100
AcDbBlockTableRecord
  2
Block_9
340
0
102
{BLKREFS
331
125
102
}
 70
     0
280
     1
281
     0
  0
BLOCK_RECORD
  5
12E
330
1
100
AcDbSymbolTableRecord
100
AcDbBlockTableRecord
  2
Block_10
340
0
102
{BLKREFS
331
12F
102
}
 70
     0
280
     1
281
     0
  0
BLOCK_RECORD
  5
132
330
1
100
AcDbSymbolTableRecord
100
AcDbBlockTableRecord
  2
Block_11
340
0
102
{BLKREFS
331
133
102
}
 70
     0
280
     1
281
     0
  0
BLOCK_RECORD
  5
139
330
1
100
AcDbSymbolTableRecord
100
AcDbBlockTableRecord
  2
Block_12
340
0
102
{BLKREFS
331
13A
102
}
 70
     0
280
     1
281
     0
  0
BLOCK_RECORD
  5
13D
330
1
100
AcDbSymbolTableRecord
100
AcDbBlockTableRecord
  2
Block_13
340
0
102
{BLKREFS
331
13E
102
}
 70
     0
280
     1
281
     0
  0
BLOCK_RECORD
  5
15B
330
1
100
AcDbSymbolTableRecord
100
AcDbBlockTableRecord
  2
Block_14
340
0
102
{BLKREFS
331
15C
102
}
 70
     0
280
     1
281
     0
  0
BLOCK_RECORD
  5
15F
330
1
100
AcDbSymbolTableRecord
100
AcDbBlockTableRecord
  2
Block_15
340
0
102
{BLKREFS
331
160
102
}
 70
     0
280
     1
281
     0
  0
ENDTAB
  0
ENDSEC
  0
SECTION
  2
BLOCKS
  0
BLOCK
  5
71
330
70
100
AcDbEntity
  8
0
100
AcDbBlockBegin
  2
*Model_Space
 70
     0
 10
0.0
 20
0.0
 30
0.0
  3
*Model_Space
  1

  0
ENDBLK
  5
72
330
70
100
AcDbEntity
  8
0
100
AcDbBlockEnd
  0
BLOCK
  5
6D
330
6C
100
AcDbEntity
 67
     1
  8
0
100
AcDbBlockBegin
  2
*Paper_Space
 70
     0
 10
0.0
 20
0.0
 30
0.0
  3
*Paper_Space
  1

  0
ENDBLK
  5
6E
330
6C
100
AcDbEntity
 67
     1
  8
0
100
AcDbBlockEnd
  0
BLOCK
  5
75
330
74
100
AcDbEntity
 67
     1
  8
0
100
AcDbBlockBegin
  2
*Paper_Space0
 70
     0
 10
0.0
 20
0.0
 30
0.0
  3
*Paper_Space0
  1

  0
ENDBLK
  5
76
330
74
100
AcDbEntity
 67
     1
  8
0
100
AcDbBlockEnd
  0
BLOCK
  5
7B
330
79
100
AcDbEntity
  8
0
100
AcDbBlockBegin
  2
Block_0
 70
     0
 10
0.0
 20
0.0
 30
0.0
  3
Block_0
  1

  0
LINE
  5
7D
330
79
100
AcDbEntity
  8
レイヤー 1
 62
   250
420
  2299925
370
    25
100
AcDbLine
 10
108.627352336966
 20
-153.9280561748786
 30
0.0
 11
97.62740162375671
 21
-153.9280561748786
 31
0.0
  0
LINE
  5
7E
330
79
100
AcDbEntity
  8
レイヤー 1
 62
   250
420
  2299925
370
    25
100
AcDbLine
 10
77.62656018957622
 20
-145.427946177004
 30
0.0
 11
77.62656018957622
 21
-145.9281850657677
 31
0.0
  0
LINE
  5
7F
330
79
100
AcDbEntity
  8
レイヤー 1
 62
   250
420
  2299925
370
    25
100
AcDbLine
 10
97.62740162375671
 20
-145.9281850657677
 30
0.0
 11
77.62656018957622
 21
-145.9281850657677
 31
0.0
  0
LINE
  5
80
330
79
100
AcDbEntity
  8
レイヤー 1
 62
   250
420
  2299925
370
    25
100
AcDbLine
 10
77.62656018957622
 20
-145.427946177004
 30
0.0
 11
78.14020462091651
 21
-145.8100397880196
 31
0.0
  0
LINE
  5
81
330
79
100
AcDbEntity
  8
レイヤー 1
 62
   250
420
  2299925
370
    25
100
AcDbLine
 10
78.14020462091651
 20
-145.8100397880196
 30
0.0
 11
78.62562683075457
 21
-145.3924920103464
 31
0.0
  0
LINE
  5
82
330
79
100
AcDbEntity
  8
レイヤー 1
 62
   250
420
  2299925
370
    25
100
AcDbLine
 10
79.1396593176405
 20
-145.7745503435841
 30
0.0
 11
79.62504624970202
 21
-145.3566497881331
 31
0.0
  0
LINE
  5
83
330
79
100
AcDbEntity
  8
レイヤー 1
 62
   250
420
  2299925
370
    25
100
AcDbLine
 10
78.62562683075457
 20
-145.3924920103464
 30
0.0
 11
79.1396593176405
 21
-145.7745503435841
 31
0.0
  0
LINE
  5
84
330
79
100
AcDbEntity
  8
レイヤー 1
 62
   250
420
  2299925
370
    25
100
AcDbLine
 10
79.62504624970202
 20
-145.3566497881331
 30
0.0
 11
80.13907873658764
 21
-145.7387081213708
 31
0.0
  0
LINE
  5
85
330
79
100
AcDbEntity
  8
レイヤー 1
 62
   250
420
  2299925
370
    25
100
AcDbLine
 10
80.13907873658764
 20
-145.7387081213708
 30
0.0
 11
80.62446566864883
 21
-145.3211603436973
 31
0.0
  0
LINE
  5
86
330
79
100
AcDbEntity
  8
レイヤー 1
 62
   250
420
  2299925
370
    25
100
AcDbLine
 10
80.62446566864883
 20
-145.3211603436973
 30
0.0
 11
81.13849815553477
 21
-145.7028658991576
 31
0.0
  0
LINE
  5
87
330
79
100
AcDbEntity
  8
レイヤー 1
 62
   250
420
  2299925
370
    25
100
AcDbLine
 10
81.13849815553477
 20
-145.7028658991576
 30
0.0
 11
81.62356758760408
 21
-145.2853533992619
 31
0.0
  0
LINE
  5
88
330
79
100
AcDbEntity
  8
レイヤー 1
 62
   250
420
  2299925
370
    25
100
AcDbLine
 10
81.62356758760408
 20
-145.2853533992619
 30
0.0
 11
82.13756479671314
 21
-145.6670589547222
 31
0.0
  0
LINE
  5
89
330
79
100
AcDbEntity
  8
レイヤー 1
 62
   250
420
  2299925
370
    25
100
AcDbLine
 10
82.13756479671314
 20
-145.6670589547222
 30
0.0
 11
82.62333978431998
 21
-145.2495111770487
 31
0.0
  0
LINE
  5
8A
330
79
100
AcDbEntity
  8
レイヤー 1
 62
   250
420
  2299925
370
    25
100
AcDbLine
 10
82.62333978431998
 20
-145.2495111770487
 30
0.0
 11
83.13733699342902
 21
-145.6315695102864
 31
0.0
  0
LINE
  5
8B
330
79
100
AcDbEntity
  8
レイヤー 1
 62
   250
420
  2299925
370
    25
100
AcDbLine
 10
83.13733699342902
 20
-145.6315695102864
 30
0.0
 11
83.62240642549833
 21
-145.2140217326132
 31
0.0
  0
LINE
  5
8C
330
79
100
AcDbEntity
  8
レイヤー 1
 62
   250
420
  2299925
370
    25
100
AcDbLine
 10
83.62240642549833
 20
-145.2140217326132
 30
0.0
 11
84.13640363460739
 21
-145.5960800658509
 31
0.0
  0
LINE
  5
8D
330
79
100
AcDbEntity
  8
レイヤー 1
 62
   250
420
  2299925
370
    25
100
AcDbLine
 10
84.13640363460739
 20
-145.5960800658509
 30
0.0
 11
84.62182584444546
 21
-145.1781795103999
 31
0.0
  0
LINE
  5
8E
330
79
100
AcDbEntity
  8
レイヤー 1
 62
   250
420
  2299925
370
    25
100
AcDbLine
 10
85.13582305355484
 20
-145.5602378436376
 30
0.0
 11
85.62124526339259
 21
-145.1427253437423
 31
0.0
  0
LINE
  5
8F
330
79
100
AcDbEntity
  8
レイヤー 1
 62
   250
420
  2299925
370
    25
100
AcDbLine
 10
84.62182584444546
 20
-145.1781795103999
 30
0.0
 11
85.13582305355484
 21
-145.5602378436376
 31
0.0
  0
LINE
  5
90
330
79
100
AcDbEntity
  8
レイヤー 1
 62
   250
420
  2299925
370
    25
100
AcDbLine
 10
85.62124526339259
 20
-145.1427253437423
 30
0.0
 11
86.13524247250166
 21
-145.5244308992022
 31
0.0
  0
LINE
  5
91
330
79
100
AcDbEntity
  8
レイヤー 1
 62
   250
420
  2299925
370
    25
100
AcDbLine
 10
86.13524247250166
 20
-145.5244308992022
 30
0.0
 11
86.62066468233971
 21
-145.1068831215291
 31
0.0
  0
LINE
  5
92
330
79
100
AcDbEntity
  8
レイヤー 1
 62
   250
420
  2299925
370
    25
100
AcDbLine
 10
87.13434439145688
 20
-145.488588676989
 30
0.0
 11
87.62008410128684
 21
-145.0710408993158
 31
0.0
  0
LINE
  5
93
330
79
100
AcDbEntity
  8
レイヤー 1
 62
   250
420
  2299925
370
    25
100
AcDbLine
 10
86.62066468233971
 20
-145.1068831215291
 30
0.0
 11
87.13434439145688
 21
-145.488588676989
 31
0.0
  0
LINE
  5
94
330
79
100
AcDbEntity
  8
レイヤー 1
 62
   250
420
  2299925
370
    25
100
AcDbLine
 10
88.13411658817278
 20
-145.4530992325532
 30
0.0
 11
88.61918602024209
 21
-145.03555145488
 31
0.0
  0
LINE
  5
95
330
79
100
AcDbEntity
  8
レイヤー 1
 62
   250
420
  2299925
370
    25
100
AcDbLine
 10
87.62008410128684
 20
-145.0710408993158
 30
0.0
 11
88.13411658817278
 21
-145.4530992325532
 31
0.0
  0
LINE
  5
96
330
79
100
AcDbEntity
  8
レイヤー 1
 62
   250
420
  2299925
370
    25
100
AcDbLine
 10
88.61918602024209
 20
-145.03555145488
 30
0.0
 11
89.13318322935115
 21
-145.4176450658955
 31
0.0
  0
LINE
  5
97
330
79
100
AcDbEntity
  8
レイヤー 1
 62
   250
420
  2299925
370
    25
100
AcDbLine
 10
89.13318322935115
 20
-145.4176450658955
 30
0.0
 11
89.61892293918111
 21
-144.9997445104446
 31
0.0
  0
LINE
  5
98
330
79
100
AcDbEntity
  8
レイヤー 1
 62
   250
420
  2299925
370
    25
100
AcDbLine
 10
89.61892293918111
 20
-144.9997445104446
 30
0.0
 11
90.13260264829828
 21
-145.3818028436823
 31
0.0
  0
LINE
  5
99
330
79
100
AcDbEntity
  8
レイヤー 1
 62
   250
420
  2299925
370
    25
100
AcDbLine
 10
90.13260264829828
 20
-145.3818028436823
 30
0.0
 11
90.61802485813666
 21
-144.9642550660088
 31
0.0
  0
LINE
  5
9A
330
79
100
AcDbEntity
  8
レイヤー 1
 62
   250
420
  2299925
370
    25
100
AcDbLine
 10
90.61802485813666
 20
-144.9642550660088
 30
0.0
 11
91.1320220672454
 21
-145.345960621469
 31
0.0
  0
LINE
  5
9B
330
79
100
AcDbEntity
  8
レイヤー 1
 62
   250
420
  2299925
370
    25
100
AcDbLine
 10
91.1320220672454
 20
-145.345960621469
 30
0.0
 11
91.61744427708347
 21
-144.9284128437955
 31
0.0
  0
LINE
  5
9C
330
79
100
AcDbEntity
  8
レイヤー 1
 62
   250
420
  2299925
370
    25
100
AcDbLine
 10
91.61744427708347
 20
-144.9284128437955
 30
0.0
 11
92.13144148619255
 21
-145.3101536770336
 31
0.0
  0
LINE
  5
9D
330
79
100
AcDbEntity
  8
レイヤー 1
 62
   250
420
  2299925
370
    25
100
AcDbLine
 10
92.13144148619255
 20
-145.3101536770336
 30
0.0
 11
92.6168636960306
 21
-144.8926058993601
 31
0.0
  0
LINE
  5
9E
330
79
100
AcDbEntity
  8
レイヤー 1
 62
   250
420
  2299925
370
    25
100
AcDbLine
 10
92.6168636960306
 20
-144.8926058993601
 30
0.0
 11
93.13086090513934
 21
-145.2746642325978
 31
0.0
  0
LINE
  5
9F
330
79
100
AcDbEntity
  8
レイヤー 1
 62
   250
420
  2299925
370
    25
100
AcDbLine
 10
93.13086090513934
 20
-145.2746642325978
 30
0.0
 11
93.61593033720897
 21
-144.8571164549246
 31
0.0
  0
LINE
  5
A0
330
79
100
AcDbEntity
  8
レイヤー 1
 62
   250
420
  2299925
370
    25
100
AcDbLine
 10
93.61593033720897
 20
-144.8571164549246
 30
0.0
 11
94.12992754631801
 21
-145.2391747881627
 31
0.0
  0
LINE
  5
A1
330
79
100
AcDbEntity
  8
レイヤー 1
 62
   250
420
  2299925
370
    25
100
AcDbLine
 10
94.12992754631801
 20
-145.2391747881627
 30
0.0
 11
94.61570253392487
 21
-144.8212742327114
 31
0.0
  0
LINE
  5
A2
330
79
100
AcDbEntity
  8
レイヤー 1
 62
   250
420
  2299925
370
    25
100
AcDbLine
 10
94.61570253392487
 20
-144.8212742327114
 30
0.0
 11
95.12969974303393
 21
-145.2033325659494
 31
0.0
  0
LINE
  5
A3
330
79
100
AcDbEntity
  8
レイヤー 1
 62
   250
420
  2299925
370
    25
100
AcDbLine
 10
95.12969974303393
 20
-145.2033325659494
 30
0.0
 11
95.61476917510322
 21
-144.7857847882756
 31
0.0
  0
LINE
  5
A4
330
79
100
AcDbEntity
  8
レイヤー 1
 62
   250
420
  2299925
370
    25
100
AcDbLine
 10
95.61476917510322
 20
-144.7857847882756
 30
0.0
 11
96.12880166198916
 21
-145.1675256215136
 31
0.0
  0
LINE
  5
A5
330
79
100
AcDbEntity
  8
レイヤー 1
 62
   250
420
  2299925
370
    25
100
AcDbLine
 10
96.12880166198916
 20
-145.1675256215136
 30
0.0
 11
96.61387109405845
 21
-144.7499778438405
 31
0.0
  0
LINE
  5
A6
330
79
100
AcDbEntity
  8
レイヤー 1
 62
   250
420
  2299925
370
    25
100
AcDbLine
 10
96.61387109405845
 20
-144.7499778438405
 30
0.0
 11
97.12786830316751
 21
-145.1316833993004
 31
0.0
  0
LINE
  5
A7
330
79
100
AcDbEntity
  8
レイヤー 1
 62
   250
420
  2299925
370
    25
100
AcDbLine
 10
97.12786830316751
 20
-145.1316833993004
 30
0.0
 11
97.61360801299749
 21
-144.7141356216269
 31
0.0
  0
LINE
  5
A8
330
79
100
AcDbEntity
  8
レイヤー 1
 62
   250
420
  2299925
370
    25
100
AcDbLine
 10
97.67801316242902
 20
-144.6659108994171
 30
0.0
 11
98.62784409823328
 21
-144.6659108994171
 31
0.0
  0
LINE
  5
A9
330
79
100
AcDbEntity
  8
レイヤー 1
 62
   250
420
  2299925
370
    25
100
AcDbLine
 10
98.62784409823328
 20
-144.6659108994171
 30
0.0
 11
98.62784409823328
 21
-152.927931175129
 31
0.0
  0
LINE
  5
AA
330
79
100
AcDbEntity
  8
レイヤー 1
 62
   250
420
  2299925
370
    25
100
AcDbLine
 10
97.62740162375671
 20
-145.9281850657677
 30
0.0
 11
97.62740162375671
 21
-153.9280561748786
 31
0.0
  0
LINE
  5
AB
330
79
100
AcDbEntity
  8
レイヤー 1
 62
   250
420
  2299925
370
    25
100
AcDbLine
 10
107.6275801149941
 20
-152.927931175129
 30
0.0
 11
98.62784409823328
 21
-152.927931175129
 31
0.0
  0
LINE
  5
AC
330
79
100
AcDbEntity
  8
レイヤー 1
 62
   250
420
  2299925
370
    25
100
AcDbLine
 10
118.6353721458325
 20
-145.0710408993158
 30
0.0
 11
118.1213396589465
 21
-145.4530992325532
 31
0.0
  0
LINE
  5
AD
330
79
100
AcDbEntity
  8
レイヤー 1
 62
   250
420
  2299925
370
    25
100
AcDbLine
 10
123.6321164627994
 20
-145.2495111770487
 30
0.0
 11
123.1181192536903
 21
-145.6315695102864
 31
0.0
  0
LINE
  5
AE
330
79
100
AcDbEntity
  8
レイヤー 1
 62
   250
420
  2299925
370
    25
100
AcDbLine
 10
119.1204415779018
 20
-145.488588676989
 30
0.0
 11
118.6353721458325
 21
-145.0710408993158
 31
0.0
  0
LINE
  5
AF
330
79
100
AcDbEntity
  8
レイヤー 1
 62
   250
420
  2299925
370
    25
100
AcDbLine
 10
120.1202137746177
 20
-145.5244308992022
 30
0.0
 11
119.6344387870109
 21
-145.1068831215291
 31
0.0
  0
LINE
  5
B0
330
79
100
AcDbEntity
  8
レイヤー 1
 62
   250
420
  2299925
370
    25
100
AcDbLine
 10
118.1213396589465
 20
-145.4530992325532
 30
0.0
 11
117.6355999491166
 21
-145.03555145488
 31
0.0
  0
LINE
  5
B1
330
79
100
AcDbEntity
  8
レイヤー 1
 62
   250
420
  2299925
370
    25
100
AcDbLine
 10
119.6344387870109
 20
-145.1068831215291
 30
0.0
 11
119.1204415779018
 21
-145.488588676989
 31
0.0
  0
LINE
  5
B2
330
79
100
AcDbEntity
  8
レイヤー 1
 62
   250
420
  2299925
370
    25
100
AcDbLine
 10
127.6298294163648
 20
-145.3924920103464
 30
0.0
 11
127.1157969294788
 21
-145.7745503435841
 31
0.0
  0
LINE
  5
B3
330
79
100
AcDbEntity
  8
レイヤー 1
 62
   250
420
  2299925
370
    25
100
AcDbLine
 10
120.6342109837267
 20
-145.1427253437423
 30
0.0
 11
120.1202137746177
 21
-145.5244308992022
 31
0.0
  0
LINE
  5
B4
330
79
100
AcDbEntity
  8
レイヤー 1
 62
   250
420
  2299925
370
    25
100
AcDbLine
 10
121.6332776249051
 20
-145.1781795103999
 30
0.0
 11
121.119280415796
 21
-145.5602378436376
 31
0.0
  0
LINE
  5
B5
330
79
100
AcDbEntity
  8
レイヤー 1
 62
   250
420
  2299925
370
    25
100
AcDbLine
 10
107.627580087179
 20
-144.6659108994171
 30
0.0
 11
107.627580087179
 21
-152.927931175129
 31
0.0
  0
LINE
  5
B6
330
79
100
AcDbEntity
  8
レイヤー 1
 62
   250
420
  2299925
370
    25
100
AcDbLine
 10
121.119280415796
 20
-145.5602378436376
 30
0.0
 11
120.6342109837267
 21
-145.1427253437423
 31
0.0
  0
LINE
  5
B7
330
79
100
AcDbEntity
  8
レイヤー 1
 62
   250
420
  2299925
370
    25
100
AcDbLine
 10
122.119052612512
 20
-145.5960800658509
 30
0.0
 11
121.6332776249051
 21
-145.1781795103999
 31
0.0
  0
LINE
  5
B8
330
79
100
AcDbEntity
  8
レイヤー 1
 62
   250
420
  2299925
370
    25
100
AcDbLine
 10
127.1157969294788
 20
-145.7745503435841
 30
0.0
 11
126.6300572196489
 21
-145.3566497881331
 31
0.0
  0
LINE
  5
B9
330
79
100
AcDbEntity
  8
レイヤー 1
 62
   250
420
  2299925
370
    25
100
AcDbLine
 10
122.6323795438603
 20
-145.2140217326132
 30
0.0
 11
122.119052612512
 21
-145.5960800658509
 31
0.0
  0
LINE
  5
BA
330
79
100
AcDbEntity
  8
レイヤー 1
 62
   250
420
  2299925
370
    25
100
AcDbLine
 10
123.1181192536903
 20
-145.6315695102864
 30
0.0
 11
122.6323795438603
 21
-145.2140217326132
 31
0.0
  0
LINE
  5
BB
330
79
100
AcDbEntity
  8
レイヤー 1
 62
   250
420
  2299925
370
    25
100
AcDbLine
 10
128.1148988484341
 20
-145.8100397880196
 30
0.0
 11
127.6298294163648
 21
-145.3924920103464
 31
0.0
  0
LINE
  5
BC
330
79
100
AcDbEntity
  8
レイヤー 1
 62
   250
420
  2299925
370
    25
100
AcDbLine
 10
124.6312183817546
 20
-145.2853533992619
 30
0.0
 11
124.1171858948687
 21
-145.6670589547222
 31
0.0
  0
LINE
  5
BD
330
79
100
AcDbEntity
  8
レイヤー 1
 62
   250
420
  2299925
370
    25
100
AcDbLine
 10
125.6309905784705
 20
-145.3211603436973
 30
0.0
 11
125.1169580915846
 21
-145.7028658991576
 31
0.0
  0
LINE
  5
BE
330
79
100
AcDbEntity
  8
レイヤー 1
 62
   250
420
  2299925
370
    25
100
AcDbLine
 10
125.1169580915846
 20
-145.7028658991576
 30
0.0
 11
124.6312183817546
 21
-145.2853533992619
 31
0.0
  0
LINE
  5
BF
330
79
100
AcDbEntity
  8
レイヤー 1
 62
   250
420
  2299925
370
    25
100
AcDbLine
 10
128.6288960575431
 20
-145.427946177004
 30
0.0
 11
128.1148988484341
 21
-145.8100397880196
 31
0.0
  0
LINE
  5
C0
330
79
100
AcDbEntity
  8
レイヤー 1
 62
   250
420
  2299925
370
    25
100
AcDbLine
 10
124.1171858948687
 20
-145.6670589547222
 30
0.0
 11
123.6321164627994
 21
-145.2495111770487
 31
0.0
  0
LINE
  5
C1
330
79
100
AcDbEntity
  8
レイヤー 1
 62
   250
420
  2299925
370
    25
100
AcDbLine
 10
126.6300572196489
 20
-145.3566497881331
 30
0.0
 11
126.1160600105398
 21
-145.7387081213708
 31
0.0
  0
LINE
  5
C2
330
79
100
AcDbEntity
  8
レイヤー 1
 62
   250
420
  2299925
370
    25
100
AcDbLine
 10
126.1160600105398
 20
-145.7387081213708
 30
0.0
 11
125.6309905784705
 21
-145.3211603436973
 31
0.0
  0
LINE
  5
C3
330
79
100
AcDbEntity
  8
レイヤー 1
 62
   250
420
  2299925
370
    25
100
AcDbLine
 10
128.6288960575431
 20
-145.427946177004
 30
0.0
 11
128.6288960575431
 21
-145.9281850657677
 31
0.0
  0
LINE
  5
C4
330
79
100
AcDbEntity
  8
レイヤー 1
 62
   250
420
  2299925
370
    25
100
AcDbLine
 10
108.6273523091509
 20
-145.9281850657677
 30
0.0
 11
128.6288960575431
 21
-145.9281850657677
 31
0.0
  0
LINE
  5
C5
330
79
100
AcDbEntity
  8
レイヤー 1
 62
   250
420
  2299925
370
    25
100
AcDbLine
 10
117.6355999491166
 20
-145.03555145488
 30
0.0
 11
117.1216027400075
 21
-145.4176450658955
 31
0.0
  0
LINE
  5
C6
330
79
100
AcDbEntity
  8
レイヤー 1
 62
   250
420
  2299925
370
    25
100
AcDbLine
 10
117.1216027400075
 20
-145.4176450658955
 30
0.0
 11
116.6365333079382
 21
-144.9997445104446
 31
0.0
  0
LINE
  5
C7
330
79
100
AcDbEntity
  8
レイヤー 1
 62
   250
420
  2299925
370
    25
100
AcDbLine
 10
116.6365333079382
 20
-144.9997445104446
 30
0.0
 11
116.1225008210523
 21
-145.3818028436823
 31
0.0
  0
LINE
  5
C8
330
79
100
AcDbEntity
  8
レイヤー 1
 62
   250
420
  2299925
370
    25
100
AcDbLine
 10
116.1225008210523
 20
-145.3818028436823
 30
0.0
 11
115.637431388983
 21
-144.9642550660088
 31
0.0
  0
LINE
  5
C9
330
79
100
AcDbEntity
  8
レイヤー 1
 62
   250
420
  2299925
370
    25
100
AcDbLine
 10
115.637431388983
 20
-144.9642550660088
 30
0.0
 11
115.1234341798739
 21
-145.345960621469
 31
0.0
  0
LINE
  5
CA
330
79
100
AcDbEntity
  8
レイヤー 1
 62
   250
420
  2299925
370
    25
100
AcDbLine
 10
115.1234341798739
 20
-145.345960621469
 30
0.0
 11
114.6376591922671
 21
-144.9284128437955
 31
0.0
  0
LINE
  5
CB
330
79
100
AcDbEntity
  8
レイヤー 1
 62
   250
420
  2299925
370
    25
100
AcDbLine
 10
114.6376591922671
 20
-144.9284128437955
 30
0.0
 11
114.123661983158
 21
-145.3101536770336
 31
0.0
  0
LINE
  5
CC
330
79
100
AcDbEntity
  8
レイヤー 1
 62
   250
420
  2299925
370
    25
100
AcDbLine
 10
114.123661983158
 20
-145.3101536770336
 30
0.0
 11
113.6385925510887
 21
-144.8926058993601
 31
0.0
  0
LINE
  5
CD
330
79
100
AcDbEntity
  8
レイヤー 1
 62
   250
420
  2299925
370
    25
100
AcDbLine
 10
113.6385925510887
 20
-144.8926058993601
 30
0.0
 11
113.1245953419797
 21
-145.2746642325978
 31
0.0
  0
LINE
  5
CE
330
79
100
AcDbEntity
  8
レイヤー 1
 62
   250
420
  2299925
370
    25
100
AcDbLine
 10
113.1245953419797
 20
-145.2746642325978
 30
0.0
 11
112.6388203543728
 21
-144.8571164549246
 31
0.0
  0
LINE
  5
CF
330
79
100
AcDbEntity
  8
レイヤー 1
 62
   250
420
  2299925
370
    25
100
AcDbLine
 10
112.6388203543728
 20
-144.8571164549246
 30
0.0
 11
112.1248231452638
 21
-145.2391747881627
 31
0.0
  0
LINE
  5
D0
330
79
100
AcDbEntity
  8
レイヤー 1
 62
   250
420
  2299925
370
    25
100
AcDbLine
 10
112.1248231452638
 20
-145.2391747881627
 30
0.0
 11
111.6397537131945
 21
-144.8212742327114
 31
0.0
  0
LINE
  5
D1
330
79
100
AcDbEntity
  8
レイヤー 1
 62
   250
420
  2299925
370
    25
100
AcDbLine
 10
111.6397537131945
 20
-144.8212742327114
 30
0.0
 11
111.1257565040854
 21
-145.2033325659494
 31
0.0
  0
LINE
  5
D2
330
79
100
AcDbEntity
  8
レイヤー 1
 62
   250
420
  2299925
370
    25
100
AcDbLine
 10
111.1257565040854
 20
-145.2033325659494
 30
0.0
 11
110.6406870720161
 21
-144.7857847882756
 31
0.0
  0
LINE
  5
D3
330
79
100
AcDbEntity
  8
レイヤー 1
 62
   250
420
  2299925
370
    25
100
AcDbLine
 10
110.6406870720161
 20
-144.7857847882756
 30
0.0
 11
110.1266578643316
 21
-145.1675256215136
 31
0.0
  0
LINE
  5
D4
330
79
100
AcDbEntity
  8
レイヤー 1
 62
   250
420
  2299925
370
    25
100
AcDbLine
 10
110.1266578643316
 20
-145.1675256215136
 30
0.0
 11
109.6409148753002
 21
-144.7499778438405
 31
0.0
  0
LINE
  5
D5
330
79
100
AcDbEntity
  8
レイヤー 1
 62
   250
420
  2299925
370
    25
100
AcDbLine
 10
109.6409148753002
 20
-144.7499778438405
 30
0.0
 11
109.1268856423597
 21
-145.1316833993004
 31
0.0
  0
LINE
  5
D6
330
79
100
AcDbEntity
  8
レイヤー 1
 62
   250
420
  2299925
370
    25
100
AcDbLine
 10
109.1268856423597
 20
-145.1316833993004
 30
0.0
 11
108.6418161980366
 21
-144.7141356216269
 31
0.0
  0
LINE
  5
D7
330
79
100
AcDbEntity
  8
レイヤー 1
 62
   250
420
  2299925
370
    25
100
AcDbLine
 10
108.5653516147225
 20
-144.6659108994171
 30
0.0
 11
107.627580087179
 21
-144.6659108994171
 31
0.0
  0
LINE
  5
D8
330
79
100
AcDbEntity
  8
レイヤー 1
 62
   250
420
  2299925
370
    25
100
AcDbLine
 10
108.6273523091509
 20
-145.9281850657677
 30
0.0
 11
108.6273523091509
 21
-153.9280561748786
 31
0.0
  0
SPLINE
  5
D9
330
79
100
AcDbEntity
  8
レイヤー 1
 62
   250
420
  2299925
370
     9
100
AcDbSpline
210
0.0
220
0.0
230
1.0
 70
     9
 71
     3
 72
    17
 73
    13
 74
     0
 42
0.0000000001
 43
0.0000000001
 40
0.0
 40
0.0
 40
0.0
 40
0.0
 40
1.0
 40
1.0
 40
1.0
 40
2.0
 40
2.0
 40
2.0
 40
3.0
 40
3.0
 40
3.0
 40
4.0
 40
4.0
 40
4.0
 40
4.0
 10
77.72646685369406
 20
-140.6661517337502
 30
0.0
 10
77.72646685369406
 20
-140.6106950670969
 30
0.0
 10
77.68166407705961
 20
-140.5658922893308
 30
0.0
 10
77.62656018957622
 20
-140.5658922893308
 30
0.0
 10
77.57110352432437
 20
-140.5658922893308
 30
0.0
 10
77.5263007476896
 20
-140.6106950670969
 30
0.0
 10
77.5263007476896
 20
-140.6661517337502
 30
0.0
 10
77.5263007476896
 20
-140.7212909004029
 30
0.0
 10
77.57110352432437
 20
-140.7660584003918
 30
0.0
 10
77.62656018957622
 20
-140.7660584003918
 30
0.0
 10
77.68166407705961
 20
-140.7660584003918
 30
0.0
 10
77.72646685369406
 20
-140.7212909004029
 30
0.0
 10
77.72646685369406
 20
-140.6661517337502
 30
0.0
  0
SPLINE
  5
DA
330
79
100
AcDbEntity
  8
レイヤー 1
 62
   250
420
  2299925
370
     9
100
AcDbSpline
210
0.0
220
0.0
230
1.0
 70
     9
 71
     3
 72
    17
 73
    13
 74
     0
 42
0.0000000001
 43
0.0000000001
 40
0.0
 40
0.0
 40
0.0
 40
0.0
 40
1.0
 40
1.0
 40
1.0
 40
2.0
 40
2.0
 40
2.0
 40
3.0
 40
3.0
 40
3.0
 40
4.0
 40
4.0
 40
4.0
 40
4.0
 10
73.72635501130097
 20
-145.427946177004
 30
0.0
 10
73.72635501130097
 20
-145.3728422881288
 30
0.0
 10
73.68158751244308
 20
-145.3280395103624
 30
0.0
 10
73.62613084719123
 20
-145.3280395103624
 30
0.0
 10
73.57099401239739
 20
-145.3280395103624
 30
0.0
 10
73.52619123463066
 20
-145.3728422881288
 30
0.0
 10
73.52619123463066
 20
-145.427946177004
 30
0.0
 10
73.52619123463066
 20
-145.4830853436568
 30
0.0
 10
73.57099401239739
 20
-145.5278881214235
 30
0.0
 10
73.62613084719123
 20
-145.5278881214235
 30
0.0
 10
73.68158751244308
 20
-145.5278881214235
 30
0.0
 10
73.72635501130097
 20
-145.4830853436568
 30
0.0
 10
73.72635501130097
 20
-145.427946177004
 30
0.0
  0
SPLINE
  5
DB
330
79
100
AcDbEntity
  8
レイヤー 1
 62
   250
420
  2299925
370
     9
100
AcDbSpline
210
0.0
220
0.0
230
1.0
 70
     9
 71
     3
 72
    17
 73
    13
 74
     0
 42
0.0000000001
 43
0.0000000001
 40
0.0
 40
0.0
 40
0.0
 40
0.0
 40
1.0
 40
1.0
 40
1.0
 40
2.0
 40
2.0
 40
2.0
 40
3.0
 40
3.0
 40
3.0
 40
4.0
 40
4.0
 40
4.0
 40
4.0
 10
73.72635501130097
 20
-145.9281850657677
 30
0.0
 10
73.72635501130097
 20
-145.8730811768928
 30
0.0
 10
73.68158751244308
 20
-145.8282783991261
 30
0.0
 10
73.62613084719123
 20
-145.8282783991261
 30
0.0
 10
73.57099401239739
 20
-145.8282783991261
 30
0.0
 10
73.52619123463066
 20
-145.8730811768928
 30
0.0
 10
73.52619123463066
 20
-145.9281850657677
 30
0.0
 10
73.52619123463066
 20
-145.9833242324208
 30
0.0
 10
73.57099401239739
 20
-146.0280917324097
 30
0.0
 10
73.62613084719123
 20
-146.0280917324097
 30
0.0
 10
73.68158751244308
 20
-146.0280917324097
 30
0.0
 10
73.72635501130097
 20
-145.9833242324208
 30
0.0
 10
73.72635501130097
 20
-145.9281850657677
 30
0.0
  0
SPLINE
  5
DC
330
79
100
AcDbEntity
  8
レイヤー 1
 62
   250
420
  2299925
370
     9
100
AcDbSpline
210
0.0
220
0.0
230
1.0
 70
     9
 71
     3
 72
    17
 73
    13
 74
     0
 42
0.0000000001
 43
0.0000000001
 40
0.0
 40
0.0
 40
0.0
 40
0.0
 40
1.0
 40
1.0
 40
1.0
 40
2.0
 40
2.0
 40
2.0
 40
3.0
 40
3.0
 40
3.0
 40
4.0
 40
4.0
 40
4.0
 40
4.0
 10
73.72635501130097
 20
-153.9280561748786
 30
0.0
 10
73.72635501130097
 20
-153.8729170082262
 30
0.0
 10
73.68158751244308
 20
-153.8281495082376
 30
0.0
 10
73.62613084719123
 20
-153.8281495082376
 30
0.0
 10
73.57099401239739
 20
-153.8281495082376
 30
0.0
 10
73.52619123463066
 20
-153.8729170082262
 30
0.0
 10
73.52619123463066
 20
-153.9280561748786
 30
0.0
 10
73.52619123463066
 20
-153.9831600637542
 30
0.0
 10
73.57099401239739
 20
-154.0279628415209
 30
0.0
 10
73.62613084719123
 20
-154.0279628415209
 30
0.0
 10
73.68158751244308
 20
-154.0279628415209
 30
0.0
 10
73.72635501130097
 20
-153.9831600637542
 30
0.0
 10
73.72635501130097
 20
-153.9280561748786
 30
0.0
  0
SPLINE
  5
DD
330
79
100
AcDbEntity
  8
レイヤー 1
 62
   250
420
  2299925
370
     9
100
AcDbSpline
210
0.0
220
0.0
230
1.0
 70
     9
 71
     3
 72
    17
 73
    13
 74
     0
 42
0.0000000001
 43
0.0000000001
 40
0.0
 40
0.0
 40
0.0
 40
0.0
 40
1.0
 40
1.0
 40
1.0
 40
2.0
 40
2.0
 40
2.0
 40
3.0
 40
3.0
 40
3.0
 40
4.0
 40
4.0
 40
4.0
 40
4.0
 10
98.72775076235111
 20
-140.6661517337502
 30
0.0
 10
98.72775076235111
 20
-140.6106950670969
 30
0.0
 10
98.68298326349355
 20
-140.5658922893308
 30
0.0
 10
98.62784409823328
 20
-140.5658922893308
 30
0.0
 10
98.57203465521234
 20
-140.5658922893308
 30
0.0
 10
98.52726715635476
 20
-140.6106950670969
 30
0.0
 10
98.52726715635476
 20
-140.6661517337502
 30
0.0
 10
98.52726715635476
 20
-140.7212909004029
 30
0.0
 10
98.57203465521234
 20
-140.7660584003918
 30
0.0
 10
98.62784409823328
 20
-140.7660584003918
 30
0.0
 10
98.68298326349355
 20
-140.7660584003918
 30
0.0
 10
98.72775076235111
 20
-140.7212909004029
 30
0.0
 10
98.72775076235111
 20
-140.6661517337502
 30
0.0
  0
SPLINE
  5
DE
330
79
100
AcDbEntity
  8
レイヤー 1
 62
   250
420
  2299925
370
     9
100
AcDbSpline
210
0.0
220
0.0
230
1.0
 70
     9
 71
     3
 72
    17
 73
    13
 74
     0
 42
0.0000000001
 43
0.0000000001
 40
0.0
 40
0.0
 40
0.0
 40
0.0
 40
1.0
 40
1.0
 40
1.0
 40
2.0
 40
2.0
 40
2.0
 40
3.0
 40
3.0
 40
3.0
 40
4.0
 40
4.0
 40
4.0
 40
4.0
 10
128.728802721661
 20
-140.6661517337502
 30
0.0
 10
128.728802721661
 20
-140.6106950670969
 30
0.0
 10
128.6839999450262
 20
-140.5658922893308
 30
0.0
 10
128.6288960575431
 20
-140.5658922893308
 30
0.0
 10
128.573760637498
 20
-140.5658922893308
 30
0.0
 10
128.5289893934253
 20
-140.6106950670969
 30
0.0
 10
128.5289893934253
 20
-140.6661517337502
 30
0.0
 10
128.5289893934253
 20
-140.7212909004029
 30
0.0
 10
128.573760637498
 20
-140.7660584003918
 30
0.0
 10
128.6288960575431
 20
-140.7660584003918
 30
0.0
 10
128.6839999450262
 20
-140.7660584003918
 30
0.0
 10
128.728802721661
 20
-140.7212909004029
 30
0.0
 10
128.728802721661
 20
-140.6661517337502
 30
0.0
  0
SPLINE
  5
DF
330
79
100
AcDbEntity
  8
レイヤー 1
 62
   250
420
  2299925
370
     9
100
AcDbSpline
210
0.0
220
0.0
230
1.0
 70
     9
 71
     3
 72
    17
 73
    13
 74
     0
 42
0.0000000001
 43
0.0000000001
 40
0.0
 40
0.0
 40
0.0
 40
0.0
 40
1.0
 40
1.0
 40
1.0
 40
2.0
 40
2.0
 40
2.0
 40
3.0
 40
3.0
 40
3.0
 40
4.0
 40
4.0
 40
4.0
 40
4.0
 10
107.7275188130039
 20
-140.6661517337502
 30
0.0
 10
107.7275188130039
 20
-140.6106950670969
 30
0.0
 10
107.6827160363691
 20
-140.5658922893308
 30
0.0
 10
107.627580087179
 20
-140.5658922893308
 30
0.0
 10
107.5724729836261
 20
-140.5658922893308
 30
0.0
 10
107.5276702069913
 20
-140.6106950670969
 30
0.0
 10
107.5276702069913
 20
-140.6661517337502
 30
0.0
 10
107.5276702069913
 20
-140.7212909004029
 30
0.0
 10
107.5724729836261
 20
-140.7660584003918
 30
0.0
 10
107.627580087179
 20
-140.7660584003918
 30
0.0
 10
107.6827160363691
 20
-140.7660584003918
 30
0.0
 10
107.7275188130039
 20
-140.7212909004029
 30
0.0
 10
107.7275188130039
 20
-140.6661517337502
 30
0.0
  0
LINE
  5
E0
330
79
100
AcDbEntity
  8
レイヤー 1
 62
   250
420
  2299925
370
     9
100
AcDbLine
 10
73.62613084719123
 20
-145.427946177004
 30
0.0
 11
73.62613084719123
 21
-140.1703931227629
 31
0.0
  0
LINE
  5
E1
330
79
100
AcDbEntity
  8
レイヤー 1
 62
   250
420
  2299925
370
     9
100
AcDbLine
 10
73.62613084719123
 20
-145.427946177004
 30
0.0
 11
73.62613084719123
 21
-145.9281850657677
 31
0.0
  0
LINE
  5
E2
330
79
100
AcDbEntity
  8
レイヤー 1
 62
   250
420
  2299925
370
     9
100
AcDbLine
 10
75.08613692105448
 20
-145.427946177004
 30
0.0
 11
72.62635865047532
 21
-145.427946177004
 31
0.0
  0
LINE
  5
E3
330
79
100
AcDbEntity
  8
レイヤー 1
 62
   250
420
  2299925
370
     9
100
AcDbLine
 10
75.08613692105448
 20
-145.9281850657677
 30
0.0
 11
72.62635865047532
 21
-145.9281850657677
 31
0.0
  0
INSERT
  5
E5
330
79
100
AcDbEntity
  8
レイヤー 1
100
AcDbBlockReference
  2
Block_1
 10
0.0
 20
0.0
 30
0.0
  0
LINE
  5
F3
330
79
100
AcDbEntity
  8
レイヤー 1
 62
   250
420
  2299925
370
     9
100
AcDbLine
 10
77.62656018957622
 20
-140.6661517337502
 30
0.0
 11
98.62784409823328
 21
-140.6661517337502
 31
0.0
  0
LINE
  5
F4
330
79
100
AcDbEntity
  8
レイヤー 1
 62
   250
420
  2299925
370
     9
100
AcDbLine
 10
77.62656018957622
 20
-142.8882283998615
 30
0.0
 11
77.62656018957622
 21
-139.6660267340002
 31
0.0
  0
INSERT
  5
F6
330
79
100
AcDbEntity
  8
レイヤー 1
100
AcDbBlockReference
  2
Block_3
 10
0.0
 20
0.0
 30
0.0
  0
LINE
  5
101
330
79
100
AcDbEntity
  8
レイヤー 1
 62
   250
420
  2299925
370
     9
100
AcDbLine
 10
73.62613084719123
 20
-145.9281850657677
 30
0.0
 11
73.62613084719123
 21
-153.9280561748786
 31
0.0
  0
LINE
  5
102
330
79
100
AcDbEntity
  8
レイヤー 1
 62
   250
420
  2299925
370
     9
100
AcDbLine
 10
95.08768391077252
 20
-153.9280561748786
 30
0.0
 11
72.62635865047532
 21
-153.9280561748786
 31
0.0
  0
INSERT
  5
104
330
79
100
AcDbEntity
  8
レイヤー 1
100
AcDbBlockReference
  2
Block_5
 10
0.0
 20
0.0
 30
0.0
  0
LINE
  5
10B
330
79
100
AcDbEntity
  8
レイヤー 1
 62
   250
420
  2299925
370
     9
100
AcDbLine
 10
128.6288960575431
 20
-140.6661517337502
 30
0.0
 11
107.627580087179
 21
-140.6661517337502
 31
0.0
  0
LINE
  5
10C
330
79
100
AcDbEntity
  8
レイヤー 1
 62
   250
420
  2299925
370
     9
100
AcDbLine
 10
128.6288960575431
 20
-142.8882283998615
 30
0.0
 11
128.6288960575431
 21
-139.6660267340002
 31
0.0
  0
INSERT
  5
10E
330
79
100
AcDbEntity
  8
レイヤー 1
100
AcDbBlockReference
  2
Block_6
 10
0.0
 20
0.0
 30
0.0
  0
LINE
  5
119
330
79
100
AcDbEntity
  8
レイヤー 1
 62
   250
420
  2299925
370
     9
100
AcDbLine
 10
98.62784409823328
 20
-140.6661517337502
 30
0.0
 11
107.6275801149941
 21
-140.6661517337502
 31
0.0
  0
LINE
  5
11A
330
79
100
AcDbEntity
  8
レイヤー 1
 62
   250
420
  2299925
370
     9
100
AcDbLine
 10
98.62784409823328
 20
-142.1261931222742
 30
0.0
 11
98.62784409823328
 21
-139.6660267340002
 31
0.0
  0
LINE
  5
11B
330
79
100
AcDbEntity
  8
レイヤー 1
 62
   250
420
  2299925
370
     9
100
AcDbLine
 10
107.627580087179
 20
-142.1261931222742
 30
0.0
 11
107.627580087179
 21
-139.6660267340002
 31
0.0
  0
INSERT
  5
11D
330
79
100
AcDbEntity
  8
レイヤー 1
100
AcDbBlockReference
  2
Block_8
 10
0.0
 20
0.0
 30
0.0
  0
LINE
  5
123
330
79
100
AcDbEntity
  8
レイヤー 1
 62
   250
420
  2299925
370
     9
100
AcDbLine
 10
105.6035849783011
 20
-150.0733239536203
 30
0.0
 11
113.6038086630873
 21
-150.0733239536203
 31
0.0
  0
INSERT
  5
125
330
79
100
AcDbEntity
  8
レイヤー 1
100
AcDbBlockReference
  2
Block_9
 10
0.0
 20
0.0
 30
0.0
  0
LINE
  5
12A
330
79
100
AcDbEntity
  8
レイヤー 1
  6
AI-Linetype-0
 62
   154
420
    23468
370
    25
100
AcDbLine
 10
77.60588741232585
 20
-146.6523672878091
 30
0.0
 11
87.60597299053575
 21
-146.6523672878091
 31
0.0
  0
LINE
  5
12C
330
79
100
AcDbEntity
  8
レイヤー 1
  6
AI-Linetype-1
 62
   154
420
    23468
370
    25
100
AcDbLine
 10
118.1571818802544
 20
-146.6089403433755
 30
0.0
 11
128.6571535568222
 21
-146.6089403433755
 31
0.0
  0
ENDBLK
  5
7C
330
79
100
AcDbEntity
  8
0
100
AcDbBlockEnd
  0
BLOCK
  5
E6
330
E4
100
AcDbEntity
  8
0
100
AcDbBlockBegin
  2
Block_1
 70
     0
 10
0.0
 20
0.0
 30
0.0
  3
Block_1
  1

  0
INSERT
  5
E9
330
E4
100
AcDbEntity
  8
レイヤー 1
100
AcDbBlockReference
  2
Block_2
 10
0.0
 20
0.0
 30
0.0
  0
ENDBLK
  5
E7
330
E4
100
AcDbEntity
  8
0
100
AcDbBlockEnd
  0
BLOCK
  5
EA
330
E8
100
AcDbEntity
  8
0
100
AcDbBlockBegin
  2
Block_2
 70
     0
 10
0.0
 20
0.0
 30
0.0
  3
Block_2
  1

  0
SPLINE
  5
EC
330
E8
100
AcDbEntity
  8
レイヤー 1
100
AcDbSpline
210
0.0
220
0.0
230
1.0
 70
     9
 71
     3
 72
    17
 73
    13
 74
     0
 42
0.0000000001
 43
0.0000000001
 40
0.0
 40
0.0
 40
0.0
 40
0.0
 40
1.0
 40
1.0
 40
1.0
 40
2.0
 40
2.0
 40
2.0
 40
3.0
 40
3.0
 40
3.0
 40
4.0
 40
4.0
 40
4.0
 40
4.0
 10
70.78189831129758
 20
-146.5831284898299
 30
0.0
 10
70.78189831129758
 20
-146.8328979125105
 30
0.0
 10
71.06525741495939
 20
-146.8794067015614
 30
0.0
 10
71.4101114730329
 20
-146.8794067015614
 30
0.0
 10
71.72964407928981
 20
-146.8794067015614
 30
0.0
 10
72.03849688954246
 20
-146.8432331989663
 30
0.0
 10
72.03849688954246
 20
-146.5831284898299
 30
0.0
 10
72.03849688954246
 20
-146.3354261244404
 30
0.0
 10
71.75703258839755
 20
-146.2868502780984
 30
0.0
 10
71.4101114730329
 20
-146.2868502780984
 30
0.0
 10
71.09075112155022
 20
-146.2868502780984
 30
0.0
 10
70.78189831129758
 20
-146.3250908379847
 30
0.0
 10
70.78189831129758
 20
-146.5831284898299
 30
0.0
  0
SPLINE
  5
ED
330
E8
100
AcDbEntity
  8
レイヤー 1
100
AcDbSpline
210
0.0
220
0.0
230
1.0
 70
     9
 71
     3
 72
    29
 73
    25
 74
     0
 42
0.0000000001
 43
0.0000000001
 40
0.0
 40
0.0
 40
0.0
 40
0.0
 40
1.0
 40
1.0
 40
1.0
 40
2.0
 40
2.0
 40
2.0
 40
3.0
 40
3.0
 40
3.0
 40
4.0
 40
4.0
 40
4.0
 40
5.0
 40
5.0
 40
5.0
 40
6.0
 40
6.0
 40
6.0
 40
7.0
 40
7.0
 40
7.0
 40
8.0
 40
8.0
 40
8.0
 40
8.0
 10
72.00456269901275
 20
-146.1852199612835
 30
0.0
 10
72.21402450451595
 20
-146.2933959595204
 30
0.0
 10
72.23314478445907
 20
-146.4666842624285
 30
0.0
 10
72.23314478445907
 20
-146.5831284898299
 30
0.0
 10
72.23314478445907
 20
-146.7440144489911
 30
0.0
 10
72.18663599540821
 20
-146.8856078734348
 30
0.0
 10
72.00456269901275
 20
-146.9806925088277
 30
0.0
 10
71.81008705887039
 20
-147.0843898829337
 30
0.0
 10
71.57306448948521
 20
-147.1036824176511
 30
0.0
 10
71.4101114730329
 20
-147.1036824176511
 30
0.0
 10
71.26627873652371
 20
-147.1036824176511
 30
0.0
 10
71.01461451132621
 20
-147.0864569402249
 30
0.0
 10
70.81566024705303
 20
-146.9806925088277
 30
0.0
 10
70.61257186819755
 20
-146.8728610201394
 30
0.0
 10
70.58931747367212
 20
-146.7119750609782
 30
0.0
 10
70.58931747367212
 20
-146.5831284898299
 30
0.0
 10
70.58931747367212
 20
-146.4243095879599
 30
0.0
 10
70.63375920543184
 20
-146.280649106225
 30
0.0
 10
70.81566024705303
 20
-146.1852199612835
 30
0.0
 10
71.0082410846785
 20
-146.0860012113083
 30
0.0
 10
71.23665091535056
 20
-146.0625745620087
 30
0.0
 10
71.4101114730329
 20
-146.0625745620087
 30
0.0
 10
71.58150497342408
 20
-146.0625745620087
 30
0.0
 10
71.81215411616155
 20
-146.0839341540172
 30
0.0
 10
72.00456269901275
 20
-146.1852199612835
 30
0.0
  0
HATCH
  5
EE
330
E8
100
AcDbEntity
  8
レイヤー 1
 62
   250
420
  2299925
440
 33554687
100
AcDbHatch
 10
0.0
 20
0.0
 30
0.0
210
0.0
220
0.0
230
1.0
  2
SOLID
 70
     1
 71
     1
 91
        2
 92
        1
 93
        1
 72
     4
 94
        3
 73
     0
 74
     0
 95
       17
 96
       13
 40
0.0
 40
0.0
 40
0.0
 40
0.0
 40
1.0
 40
1.0
 40
1.0
 40
2.0
 40
2.0
 40
2.0
 40
3.0
 40
3.0
 40
3.0
 40
4.0
 40
4.0
 40
4.0
 40
4.0
 10
70.78189831129758
 20
-146.5831284898299
 10
70.78189831129758
 20
-146.8328979125105
 10
71.06525741495939
 20
-146.8794067015614
 10
71.4101114730329
 20
-146.8794067015614
 10
71.72964407928981
 20
-146.8794067015614
 10
72.03849688954246
 20
-146.8432331989663
 10
72.03849688954246
 20
-146.5831284898299
 10
72.03849688954246
 20
-146.3354261244404
 10
71.75703258839755
 20
-146.2868502780984
 10
71.4101114730329
 20
-146.2868502780984
 10
71.09075112155022
 20
-146.2868502780984
 10
70.78189831129758
 20
-146.3250908379847
 10
70.78189831129758
 20
-146.5831284898299
 97
        0
 97
        1
330
EC
 92
        1
 93
        1
 72
     4
 94
        3
 73
     0
 74
     0
 95
       29
 96
       25
 40
0.0
 40
0.0
 40
0.0
 40
0.0
 40
1.0
 40
1.0
 40
1.0
 40
2.0
 40
2.0
 40
2.0
 40
3.0
 40
3.0
 40
3.0
 40
4.0
 40
4.0
 40
4.0
 40
5.0
 40
5.0
 40
5.0
 40
6.0
 40
6.0
 40
6.0
 40
7.0
 40
7.0
 40
7.0
 40
8.0
 40
8.0
 40
8.0
 40
8.0
 10
72.00456269901275
 20
-146.1852199612835
 10
72.21402450451595
 20
-146.2933959595204
 10
72.23314478445907
 20
-146.4666842624285
 10
72.23314478445907
 20
-146.5831284898299
 10
72.23314478445907
 20
-146.7440144489911
 10
72.18663599540821
 20
-146.8856078734348
 10
72.00456269901275
 20
-146.9806925088277
 10
71.81008705887039
 20
-147.0843898829337
 10
71.57306448948521
 20
-147.1036824176511
 10
71.4101114730329
 20
-147.1036824176511
 10
71.26627873652371
 20
-147.1036824176511
 10
71.01461451132621
 20
-147.0864569402249
 10
70.81566024705303
 20
-146.9806925088277
 10
70.61257186819755
 20
-146.8728610201394
 10
70.58931747367212
 20
-146.7119750609782
 10
70.58931747367212
 20
-146.5831284898299
 10
70.58931747367212
 20
-146.4243095879599
 10
70.63375920543184
 20
-146.280649106225
 10
70.81566024705303
 20
-146.1852199612835
 10
71.0082410846785
 20
-146.0860012113083
 10
71.23665091535056
 20
-146.0625745620087
 10
71.4101114730329
 20
-146.0625745620087
 10
71.58150497342408
 20
-146.0625745620087
 10
71.81215411616155
 20
-146.0839341540172
 10
72.00456269901275
 20
-146.1852199612835
 97
        0
 97
        1
330
ED
 75
     2
 76
     1
 98
        1
 10
0.0
 20
0.0
450
        0
451
        0
460
0.0
461
0.0
452
        0
462
0.0
453
        0
470

  0
SPLINE
  5
EF
330
E8
100
AcDbEntity
  8
レイヤー 1
100
AcDbSpline
210
0.0
220
0.0
230
1.0
 70
    11
 71
     3
 72
    17
 73
    13
 74
     0
 42
0.0000000001
 43
0.0000000001
 40
0.0
 40
0.0
 40
0.0
 40
0.0
 40
1.0
 40
1.0
 40
1.0
 40
2.0
 40
2.0
 40
2.0
 40
3.0
 40
3.0
 40
3.0
 40
4.0
 40
4.0
 40
4.0
 40
4.0
 10
72.18232962605164
 20
-145.846222565535
 30
0.0
 10
72.18232962605164
 20
-145.846222565535
 30
0.0
 10
71.93066540085414
 20
-145.846222565535
 30
0.0
 10
71.93066540085414
 20
-145.846222565535
 30
0.0
 10
71.93066540085414
 20
-145.846222565535
 30
0.0
 10
71.93066540085414
 20
-145.5943860855632
 30
0.0
 10
71.93066540085414
 20
-145.5943860855632
 30
0.0
 10
71.93066540085414
 20
-145.5943860855632
 30
0.0
 10
72.18232962605164
 20
-145.5943860855632
 30
0.0
 10
72.18232962605164
 20
-145.5943860855632
 30
0.0
 10
72.18232962605164
 20
-145.5943860855632
 30
0.0
 10
72.18232962605164
 20
-145.846222565535
 30
0.0
 10
72.18232962605164
 20
-145.846222565535
 30
0.0
  0
HATCH
  5
F0
330
E8
100
AcDbEntity
  8
レイヤー 1
 62
   250
420
  2299925
440
 33554687
100
AcDbHatch
 10
0.0
 20
0.0
 30
0.0
210
0.0
220
0.0
230
1.0
  2
SOLID
 70
     1
 71
     1
 91
        1
 92
        1
 93
        1
 72
     4
 94
        3
 73
     0
 74
     0
 95
       17
 96
       13
 40
0.0
 40
0.0
 40
0.0
 40
0.0
 40
1.0
 40
1.0
 40
1.0
 40
2.0
 40
2.0
 40
2.0
 40
3.0
 40
3.0
 40
3.0
 40
4.0
 40
4.0
 40
4.0
 40
4.0
 10
72.18232962605164
 20
-145.846222565535
 10
72.18232962605164
 20
-145.846222565535
 10
71.93066540085414
 20
-145.846222565535
 10
71.93066540085414
 20
-145.846222565535
 10
71.93066540085414
 20
-145.846222565535
 10
71.93066540085414
 20
-145.5943860855632
 10
71.93066540085414
 20
-145.5943860855632
 10
71.93066540085414
 20
-145.5943860855632
 10
72.18232962605164
 20
-145.5943860855632
 10
72.18232962605164
 20
-145.5943860855632
 10
72.18232962605164
 20
-145.5943860855632
 10
72.18232962605164
 20
-145.846222565535
 10
72.18232962605164
 20
-145.846222565535
 97
        0
 97
        1
330
EF
 75
     2
 76
     1
 98
        1
 10
0.0
 20
0.0
450
        0
451
        0
460
0.0
461
0.0
452
        0
462
0.0
453
        0
470

  0
SPLINE
  5
F1
330
E8
100
AcDbEntity
  8
レイヤー 1
100
AcDbSpline
210
0.0
220
0.0
230
1.0
 70
     9
 71
     3
 72
    53
 73
    49
 74
     0
 42
0.0000000001
 43
0.0000000001
 40
0.0
 40
0.0
 40
0.0
 40
0.0
 40
1.0
 40
1.0
 40
1.0
 40
2.0
 40
2.0
 40
2.0
 40
3.0
 40
3.0
 40
3.0
 40
4.0
 40
4.0
 40
4.0
 40
5.0
 40
5.0
 40
5.0
 40
6.0
 40
6.0
 40
6.0
 40
7.0
 40
7.0
 40
7.0
 40
8.0
 40
8.0
 40
8.0
 40
9.0
 40
9.0
 40
9.0
 40
10.0
 40
10.0
 40
10.0
 40
11.0
 40
11.0
 40
11.0
 40
12.0
 40
12.0
 40
12.0
 40
13.0
 40
13.0
 40
13.0
 40
14.0
 40
14.0
 40
14.0
 40
15.0
 40
15.0
 40
15.0
 40
16.0
 40
16.0
 40
16.0
 40
16.0
 10
72.23314478445907
 20
-144.8771172055342
 30
0.0
 10
72.23314478445907
 20
-144.9553208730494
 30
0.0
 10
72.21626381658136
 20
-145.0569511898642
 30
0.0
 10
72.15270180487848
 20
-145.1585815066791
 30
0.0
 10
72.04263100412475
 20
-145.3318698095872
 30
0.0
 10
71.911545120911
 20
-145.3532294015957
 30
0.0
 10
71.80371363222268
 20
-145.3721774267646
 30
0.0
 10
71.80371363222268
 20
-145.3721774267646
 30
0.0
 10
71.80371363222268
 20
-145.149968767966
 30
0.0
 10
71.80371363222268
 20
-145.149968767966
 30
0.0
 10
72.00249564172159
 20
-145.0951917497505
 30
0.0
 10
72.03212346289475
 20
-144.9680677263448
 30
0.0
 10
72.03212346289475
 20
-144.875050148243
 30
0.0
 10
72.03212346289475
 20
-144.7355237810904
 30
0.0
 10
71.9327324581453
 20
-144.5832505606424
 30
0.0
 10
71.70001625811666
 20
-144.5832505606424
 30
0.0
 10
71.44404566356261
 20
-144.5832505606424
 30
0.0
 10
71.37428247998629
 20
-144.7630845449724
 30
0.0
 10
71.37428247998629
 20
-144.8836628869562
 30
0.0
 10
71.37428247998629
 20
-144.9153577654205
 30
0.0
 10
71.37428247998629
 20
-145.0569511898642
 30
0.0
 10
71.50330130590891
 20
-145.1458346533836
 30
0.0
 10
71.50330130590891
 20
-145.1458346533836
 30
0.0
 10
71.48418102596576
 20
-145.3215345231314
 30
0.0
 10
71.48418102596576
 20
-145.3215345231314
 30
0.0
 10
71.48418102596576
 20
-145.3215345231314
 30
0.0
 10
70.6380655747884
 20
-145.2009561811477
 30
0.0
 10
70.6380655747884
 20
-145.2009561811477
 30
0.0
 10
70.6380655747884
 20
-145.2009561811477
 30
0.0
 10
70.6380655747884
 20
-144.4223646014812
 30
0.0
 10
70.6380655747884
 20
-144.4223646014812
 30
0.0
 10
70.6380655747884
 20
-144.4223646014812
 30
0.0
 10
70.83271346970501
 20
-144.4223646014812
 30
0.0
 10
70.83271346970501
 20
-144.4223646014812
 30
0.0
 10
70.83271346970501
 20
-144.4223646014812
 30
0.0
 10
70.83271346970501
 20
-145.0380031646953
 30
0.0
 10
70.83271346970501
 20
-145.0380031646953
 30
0.0
 10
70.83271346970501
 20
-145.0380031646953
 30
0.0
 10
71.25577119529371
 20
-145.1034599789151
 30
0.0
 10
71.25577119529371
 20
-145.1034599789151
 30
0.0
 10
71.22183700476398
 20
-145.0421372792776
 30
0.0
 10
71.18170164236082
 20
-144.9597994971802
 30
0.0
 10
71.18170164236082
 20
-144.8412882124876
 30
0.0
 10
71.18170164236082
 20
-144.5873846752247
 30
0.0
 10
71.36790905333858
 20
-144.3503621058395
 30
0.0
 10
71.68089597817353
 20
-144.3503621058395
 30
0.0
 10
71.99836152713929
 20
-144.3503621058395
 30
0.0
 10
72.23314478445907
 20
-144.5746378219292
 30
0.0
 10
72.23314478445907
 20
-144.8771172055342
 30
0.0
  0
HATCH
  5
F2
330
E8
100
AcDbEntity
  8
レイヤー 1
 62
   250
420
  2299925
440
 33554687
100
AcDbHatch
 10
0.0
 20
0.0
 30
0.0
210
0.0
220
0.0
230
1.0
  2
SOLID
 70
     1
 71
     1
 91
        1
 92
        1
 93
        1
 72
     4
 94
        3
 73
     0
 74
     0
 95
       53
 96
       49
 40
0.0
 40
0.0
 40
0.0
 40
0.0
 40
1.0
 40
1.0
 40
1.0
 40
2.0
 40
2.0
 40
2.0
 40
3.0
 40
3.0
 40
3.0
 40
4.0
 40
4.0
 40
4.0
 40
5.0
 40
5.0
 40
5.0
 40
6.0
 40
6.0
 40
6.0
 40
7.0
 40
7.0
 40
7.0
 40
8.0
 40
8.0
 40
8.0
 40
9.0
 40
9.0
 40
9.0
 40
10.0
 40
10.0
 40
10.0
 40
11.0
 40
11.0
 40
11.0
 40
12.0
 40
12.0
 40
12.0
 40
13.0
 40
13.0
 40
13.0
 40
14.0
 40
14.0
 40
14.0
 40
15.0
 40
15.0
 40
15.0
 40
16.0
 40
16.0
 40
16.0
 40
16.0
 10
72.23314478445907
 20
-144.8771172055342
 10
72.23314478445907
 20
-144.9553208730494
 10
72.21626381658136
 20
-145.0569511898642
 10
72.15270180487848
 20
-145.1585815066791
 10
72.04263100412475
 20
-145.3318698095872
 10
71.911545120911
 20
-145.3532294015957
 10
71.80371363222268
 20
-145.3721774267646
 10
71.80371363222268
 20
-145.3721774267646
 10
71.80371363222268
 20
-145.149968767966
 10
71.80371363222268
 20
-145.149968767966
 10
72.00249564172159
 20
-145.0951917497505
 10
72.03212346289475
 20
-144.9680677263448
 10
72.03212346289475
 20
-144.875050148243
 10
72.03212346289475
 20
-144.7355237810904
 10
71.9327324581453
 20
-144.5832505606424
 10
71.70001625811666
 20
-144.5832505606424
 10
71.44404566356261
 20
-144.5832505606424
 10
71.37428247998629
 20
-144.7630845449724
 10
71.37428247998629
 20
-144.8836628869562
 10
71.37428247998629
 20
-144.9153577654205
 10
71.37428247998629
 20
-145.0569511898642
 10
71.50330130590891
 20
-145.1458346533836
 10
71.50330130590891
 20
-145.1458346533836
 10
71.48418102596576
 20
-145.3215345231314
 10
71.48418102596576
 20
-145.3215345231314
 10
71.48418102596576
 20
-145.3215345231314
 10
70.6380655747884
 20
-145.2009561811477
 10
70.6380655747884
 20
-145.2009561811477
 10
70.6380655747884
 20
-145.2009561811477
 10
70.6380655747884
 20
-144.4223646014812
 10
70.6380655747884
 20
-144.4223646014812
 10
70.6380655747884
 20
-144.4223646014812
 10
70.83271346970501
 20
-144.4223646014812
 10
70.83271346970501
 20
-144.4223646014812
 10
70.83271346970501
 20
-144.4223646014812
 10
70.83271346970501
 20
-145.0380031646953
 10
70.83271346970501
 20
-145.0380031646953
 10
70.83271346970501
 20
-145.0380031646953
 10
71.25577119529371
 20
-145.1034599789151
 10
71.25577119529371
 20
-145.1034599789151
 10
71.22183700476398
 20
-145.0421372792776
 10
71.18170164236082
 20
-144.9597994971802
 10
71.18170164236082
 20
-144.8412882124876
 10
71.18170164236082
 20
-144.5873846752247
 10
71.36790905333858
 20
-144.3503621058395
 10
71.68089597817353
 20
-144.3503621058395
 10
71.99836152713929
 20
-144.3503621058395
 10
72.23314478445907
 20
-144.5746378219292
 10
72.23314478445907
 20
-144.8771172055342
 97
        0
 97
        1
330
F1
 75
     2
 76
     1
 98
        1
 10
0.0
 20
0.0
450
        0
451
        0
460
0.0
461
0.0
452
        0
462
0.0
453
        0
470

  0
ENDBLK
  5
EB
330
E8
100
AcDbEntity
  8
0
100
AcDbBlockEnd
  0
BLOCK
  5
F7
330
F5
100
AcDbEntity
  8
0
100
AcDbBlockBegin
  2
Block_3
 70
     0
 10
0.0
 20
0.0
 30
0.0
  3
Block_3
  1

  0
INSERT
  5
FA
330
F5
100
AcDbEntity
  8
レイヤー 1
100
AcDbBlockReference
  2
Block_4
 10
0.0
 20
0.0
 30
0.0
  0
ENDBLK
  5
F8
330
F5
100
AcDbEntity
  8
0
100
AcDbBlockEnd
  0
BLOCK
  5
FB
330
F9
100
AcDbEntity
  8
0
100
AcDbBlockBegin
  2
Block_4
 70
     0
 10
0.0
 20
0.0
 30
0.0
  3
Block_4
  1

  0
SPLINE
  5
FD
330
F9
100
AcDbEntity
  8
レイヤー 1
100
AcDbSpline
210
0.0
220
0.0
230
1.0
 70
     9
 71
     3
 72
    44
 73
    40
 74
     0
 42
0.0000000001
 43
0.0000000001
 40
0.0
 40
0.0
 40
0.0
 40
0.0
 40
1.0
 40
1.0
 40
1.0
 40
2.0
 40
2.0
 40
2.0
 40
3.0
 40
3.0
 40
3.0
 40
4.0
 40
4.0
 40
4.0
 40
5.0
 40
5.0
 40
5.0
 40
6.0
 40
6.0
 40
6.0
 40
7.0
 40
7.0
 40
7.0
 40
8.0
 40
8.0
 40
8.0
 40
9.0
 40
9.0
 40
9.0
 40
10.0
 40
10.0
 40
10.0
 40
11.0
 40
11.0
 40
11.0
 40
12.0
 40
12.0
 40
12.0
 40
13.0
 40
13.0
 40
13.0
 40
13.0
 10
87.55555146465626
 20
-139.3708210914594
 30
0.0
 10
87.33764917521419
 20
-139.5294677385551
 30
0.0
 10
87.24445934233818
 20
-139.603537291488
 30
0.0
 10
87.19588349599616
 20
-139.7473700279972
 30
0.0
 10
87.19588349599616
 20
-139.7473700279972
 30
0.0
 10
87.97430282088837
 20
-139.7473700279972
 30
0.0
 10
87.97430282088837
 20
-139.7473700279972
 30
0.0
 10
87.97430282088837
 20
-139.7473700279972
 30
0.0
 10
87.97430282088837
 20
-139.9525254641438
 30
0.0
 10
87.97430282088837
 20
-139.9525254641438
 30
0.0
 10
87.97430282088837
 20
-139.9525254641438
 30
0.0
 10
86.94628632808983
 20
-139.9525254641438
 30
0.0
 10
86.94628632808983
 20
-139.9525254641438
 30
0.0
 10
86.97798120655411
 20
-139.5949245527749
 30
0.0
 10
87.04361027554814
 20
-139.5167208852597
 30
0.0
 10
87.42859969602481
 20
-139.218375616237
 30
0.0
 10
87.68457029057886
 20
-139.0195936067381
 30
0.0
 10
87.7500271047986
 20
-138.951897480453
 30
0.0
 10
87.7500271047986
 20
-138.8144381705915
 30
0.0
 10
87.7500271047986
 20
-138.6959268858989
 30
0.0
 10
87.67819686393115
 20
-138.5646687479109
 30
0.0
 10
87.48148191172338
 20
-138.5646687479109
 30
0.0
 10
87.22120494781277
 20
-138.5646687479109
 30
0.0
 10
87.2127644638739
 20
-138.7953178906484
 30
0.0
 10
87.20845809451734
 20
-138.9117621180498
 30
0.0
 10
87.20845809451734
 20
-138.9117621180498
 30
0.0
 10
86.98435463320183
 20
-138.9117621180498
 30
0.0
 10
86.98435463320183
 20
-138.9117621180498
 30
0.0
 10
86.99279511714069
 20
-138.7848103494184
 30
0.0
 10
87.0033026583707
 20
-138.6726724913735
 30
0.0
 10
87.0837456379513
 20
-138.5541612066809
 30
0.0
 10
87.19364418393075
 20
-138.393447502294
 30
0.0
 10
87.37985159490852
 20
-138.3595133117643
 30
0.0
 10
87.49629582230996
 20
-138.3595133117643
 30
0.0
 10
87.77345375409831
 20
-138.3595133117643
 30
0.0
 10
87.98067624753608
 20
-138.5436536654509
 30
0.0
 10
87.98067624753608
 20
-138.8165052278827
 30
0.0
 10
87.98067624753608
 20
-139.0449150585547
 30
0.0
 10
87.86440427490891
 20
-139.1444783180785
 30
0.0
 10
87.55555146465626
 20
-139.3708210914594
 30
0.0
  0
HATCH
  5
FE
330
F9
100
AcDbEntity
  8
レイヤー 1
 62
   250
420
  2299925
440
 33554687
100
AcDbHatch
 10
0.0
 20
0.0
 30
0.0
210
0.0
220
0.0
230
1.0
  2
SOLID
 70
     1
 71
     1
 91
        1
 92
        1
 93
        1
 72
     4
 94
        3
 73
     0
 74
     0
 95
       44
 96
       40
 40
0.0
 40
0.0
 40
0.0
 40
0.0
 40
1.0
 40
1.0
 40
1.0
 40
2.0
 40
2.0
 40
2.0
 40
3.0
 40
3.0
 40
3.0
 40
4.0
 40
4.0
 40
4.0
 40
5.0
 40
5.0
 40
5.0
 40
6.0
 40
6.0
 40
6.0
 40
7.0
 40
7.0
 40
7.0
 40
8.0
 40
8.0
 40
8.0
 40
9.0
 40
9.0
 40
9.0
 40
10.0
 40
10.0
 40
10.0
 40
11.0
 40
11.0
 40
11.0
 40
12.0
 40
12.0
 40
12.0
 40
13.0
 40
13.0
 40
13.0
 40
13.0
 10
87.55555146465626
 20
-139.3708210914594
 10
87.33764917521419
 20
-139.5294677385551
 10
87.24445934233818
 20
-139.603537291488
 10
87.19588349599616
 20
-139.7473700279972
 10
87.19588349599616
 20
-139.7473700279972
 10
87.97430282088837
 20
-139.7473700279972
 10
87.97430282088837
 20
-139.7473700279972
 10
87.97430282088837
 20
-139.7473700279972
 10
87.97430282088837
 20
-139.9525254641438
 10
87.97430282088837
 20
-139.9525254641438
 10
87.97430282088837
 20
-139.9525254641438
 10
86.94628632808983
 20
-139.9525254641438
 10
86.94628632808983
 20
-139.9525254641438
 10
86.97798120655411
 20
-139.5949245527749
 10
87.04361027554814
 20
-139.5167208852597
 10
87.42859969602481
 20
-139.218375616237
 10
87.68457029057886
 20
-139.0195936067381
 10
87.7500271047986
 20
-138.951897480453
 10
87.7500271047986
 20
-138.8144381705915
 10
87.7500271047986
 20
-138.6959268858989
 10
87.67819686393115
 20
-138.5646687479109
 10
87.48148191172338
 20
-138.5646687479109
 10
87.22120494781277
 20
-138.5646687479109
 10
87.2127644638739
 20
-138.7953178906484
 10
87.20845809451734
 20
-138.9117621180498
 10
87.20845809451734
 20
-138.9117621180498
 10
86.98435463320183
 20
-138.9117621180498
 10
86.98435463320183
 20
-138.9117621180498
 10
86.99279511714069
 20
-138.7848103494184
 10
87.0033026583707
 20
-138.6726724913735
 10
87.0837456379513
 20
-138.5541612066809
 10
87.19364418393075
 20
-138.393447502294
 10
87.37985159490852
 20
-138.3595133117643
 10
87.49629582230996
 20
-138.3595133117643
 10
87.77345375409831
 20
-138.3595133117643
 10
87.98067624753608
 20
-138.5436536654509
 10
87.98067624753608
 20
-138.8165052278827
 10
87.98067624753608
 20
-139.0449150585547
 10
87.86440427490891
 20
-139.1444783180785
 10
87.55555146465626
 20
-139.3708210914594
 97
        0
 97
        1
330
FD
 75
     2
 76
     1
 98
        1
 10
0.0
 20
0.0
450
        0
451
        0
460
0.0
461
0.0
452
        0
462
0.0
453
        0
470

  0
SPLINE
  5
FF
330
F9
100
AcDbEntity
  8
レイヤー 1
100
AcDbSpline
210
0.0
220
0.0
230
1.0
 70
    11
 71
     3
 72
    26
 73
    22
 74
     0
 42
0.0000000001
 43
0.0000000001
 40
0.0
 40
0.0
 40
0.0
 40
0.0
 40
1.0
 40
1.0
 40
1.0
 40
2.0
 40
2.0
 40
2.0
 40
3.0
 40
3.0
 40
3.0
 40
4.0
 40
4.0
 40
4.0
 40
5.0
 40
5.0
 40
5.0
 40
6.0
 40
6.0
 40
6.0
 40
7.0
 40
7.0
 40
7.0
 40
7.0
 10
88.59063040319957
 20
-139.9525254641438
 30
0.0
 10
88.59063040319957
 20
-139.9525254641438
 30
0.0
 10
88.59063040319957
 20
-138.8482001063469
 30
0.0
 10
88.59063040319957
 20
-138.8482001063469
 30
0.0
 10
88.59063040319957
 20
-138.8482001063469
 30
0.0
 10
88.26059025571263
 20
-138.8482001063469
 30
0.0
 10
88.26059025571263
 20
-138.8482001063469
 30
0.0
 10
88.26059025571263
 20
-138.8482001063469
 30
0.0
 10
88.26059025571263
 20
-138.7000610004812
 30
0.0
 10
88.26059025571263
 20
-138.7000610004812
 30
0.0
 10
88.5926974604907
 20
-138.6854193446689
 30
0.0
 10
88.63920624954159
 20
-138.5224663282166
 30
0.0
 10
88.66883407071474
 20
-138.4082614128806
 30
0.0
 10
88.66883407071474
 20
-138.4082614128806
 30
0.0
 10
88.81490611928933
 20
-138.4082614128806
 30
0.0
 10
88.81490611928933
 20
-138.4082614128806
 30
0.0
 10
88.81490611928933
 20
-138.4082614128806
 30
0.0
 10
88.81490611928933
 20
-139.9525254641438
 30
0.0
 10
88.81490611928933
 20
-139.9525254641438
 30
0.0
 10
88.81490611928933
 20
-139.9525254641438
 30
0.0
 10
88.59063040319957
 20
-139.9525254641438
 30
0.0
 10
88.59063040319957
 20
-139.9525254641438
 30
0.0
  0
HATCH
  5
100
330
F9
100
AcDbEntity
  8
レイヤー 1
 62
   250
420
  2299925
440
 33554687
100
AcDbHatch
 10
0.0
 20
0.0
 30
0.0
210
0.0
220
0.0
230
1.0
  2
SOLID
 70
     1
 71
     1
 91
        1
 92
        1
 93
        1
 72
     4
 94
        3
 73
     0
 74
     0
 95
       26
 96
       22
 40
0.0
 40
0.0
 40
0.0
 40
0.0
 40
1.0
 40
1.0
 40
1.0
 40
2.0
 40
2.0
 40
2.0
 40
3.0
 40
3.0
 40
3.0
 40
4.0
 40
4.0
 40
4.0
 40
5.0
 40
5.0
 40
5.0
 40
6.0
 40
6.0
 40
6.0
 40
7.0
 40
7.0
 40
7.0
 40
7.0
 10
88.59063040319957
 20
-139.9525254641438
 10
88.59063040319957
 20
-139.9525254641438
 10
88.59063040319957
 20
-138.8482001063469
 10
88.59063040319957
 20
-138.8482001063469
 10
88.59063040319957
 20
-138.8482001063469
 10
88.26059025571263
 20
-138.8482001063469
 10
88.26059025571263
 20
-138.8482001063469
 10
88.26059025571263
 20
-138.8482001063469
 10
88.26059025571263
 20
-138.7000610004812
 10
88.26059025571263
 20
-138.7000610004812
 10
88.5926974604907
 20
-138.6854193446689
 10
88.63920624954159
 20
-138.5224663282166
 10
88.66883407071474
 20
-138.4082614128806
 10
88.66883407071474
 20
-138.4082614128806
 10
88.81490611928933
 20
-138.4082614128806
 10
88.81490611928933
 20
-138.4082614128806
 10
88.81490611928933
 20
-138.4082614128806
 10
88.81490611928933
 20
-139.9525254641438
 10
88.81490611928933
 20
-139.9525254641438
 10
88.81490611928933
 20
-139.9525254641438
 10
88.59063040319957
 20
-139.9525254641438
 10
88.59063040319957
 20
-139.9525254641438
 97
        0
 97
        1
330
FF
 75
     2
 76
     1
 98
        1
 10
0.0
 20
0.0
450
        0
451
        0
460
0.0
461
0.0
452
        0
462
0.0
453
        0
470

  0
ENDBLK
  5
FC
330
F9
100
AcDbEntity
  8
0
100
AcDbBlockEnd
  0
BLOCK
  5
105
330
103
100
AcDbEntity
  8
0
100
AcDbBlockBegin
  2
Block_5
 70
     0
 10
0.0
 20
0.0
 30
0.0
  3
Block_5
  1

  0
SPLINE
  5
107
330
103
100
AcDbEntity
  8
レイヤー 1
100
AcDbSpline
210
0.0
220
0.0
230
1.0
 70
     9
 71
     3
 72
    17
 73
    13
 74
     0
 42
0.0000000001
 43
0.0000000001
 40
0.0
 40
0.0
 40
0.0
 40
0.0
 40
1.0
 40
1.0
 40
1.0
 40
2.0
 40
2.0
 40
2.0
 40
3.0
 40
3.0
 40
3.0
 40
4.0
 40
4.0
 40
4.0
 40
4.0
 10
72.17268335869295
 20
-149.9257323843935
 30
0.0
 10
72.17268335869295
 20
-150.0693928661284
 30
0.0
 10
72.25932751014697
 20
-150.222010596125
 30
0.0
 10
72.46241588900246
 20
-150.222010596125
 30
0.0
 10
72.66757132514908
 20
-150.222010596125
 30
0.0
 10
72.76920164196396
 20
-150.0948865727193
 30
0.0
 10
72.76920164196396
 20
-149.9257323843935
 30
0.0
 10
72.76920164196396
 20
-149.7396972281901
 30
0.0
 10
72.64655624268906
 20
-149.6294541726621
 30
0.0
 10
72.46878931565017
 20
-149.6294541726621
 30
0.0
 10
72.24658065685154
 20
-149.6294541726621
 30
0.0
 10
72.17268335869295
 20
-149.7924071891144
 30
0.0
 10
72.17268335869295
 20
-149.9257323843935
 30
0.0
  0
SPLINE
  5
108
330
103
100
AcDbEntity
  8
レイヤー 1
100
AcDbSpline
210
0.0
220
0.0
230
1.0
 70
     9
 71
     3
 72
    17
 73
    13
 74
     0
 42
0.0000000001
 43
0.0000000001
 40
0.0
 40
0.0
 40
0.0
 40
0.0
 40
1.0
 40
1.0
 40
1.0
 40
2.0
 40
2.0
 40
2.0
 40
3.0
 40
3.0
 40
3.0
 40
4.0
 40
4.0
 40
4.0
 40
4.0
 10
71.51260306371907
 20
-149.9257323843935
 30
0.0
 10
71.51260306371907
 20
-150.090752458137
 30
0.0
 10
71.60768769911197
 20
-150.1751572975256
 30
0.0
 10
71.74307995168229
 20
-150.1751572975256
 30
0.0
 10
71.86589760573145
 20
-150.1751572975256
 30
0.0
 10
71.98440889042403
 20
-150.1034993114324
 30
0.0
 10
71.98440889042403
 20
-149.9257323843935
 30
0.0
 10
71.98440889042403
 20
-149.7479654573547
 30
0.0
 10
71.86589760573145
 20
-149.6759629617129
 30
0.0
 10
71.74307995168229
 20
-149.6759629617129
 30
0.0
 10
71.60768769911197
 20
-149.6759629617129
 30
0.0
 10
71.51260306371907
 20
-149.7627793679412
 30
0.0
 10
71.51260306371907
 20
-149.9257323843935
 30
0.0
  0
SPLINE
  5
109
330
103
100
AcDbEntity
  8
レイヤー 1
100
AcDbSpline
210
0.0
220
0.0
230
1.0
 70
     9
 71
     3
 72
    29
 73
    25
 74
     0
 42
0.0000000001
 43
0.0000000001
 40
0.0
 40
0.0
 40
0.0
 40
0.0
 40
1.0
 40
1.0
 40
1.0
 40
2.0
 40
2.0
 40
2.0
 40
3.0
 40
3.0
 40
3.0
 40
4.0
 40
4.0
 40
4.0
 40
5.0
 40
5.0
 40
5.0
 40
6.0
 40
6.0
 40
6.0
 40
7.0
 40
7.0
 40
7.0
 40
8.0
 40
8.0
 40
8.0
 40
8.0
 10
72.96384953688058
 20
-149.9257323843935
 30
0.0
 10
72.96384953688058
 20
-150.1923827749519
 30
0.0
 10
72.82621797224483
 20
-150.4459418026663
 30
0.0
 10
72.47722979958902
 20
-150.4459418026663
 30
0.0
 10
72.22125920503497
 20
-150.4459418026663
 30
0.0
 10
72.1260023148678
 20
-150.3043483782225
 30
0.0
 10
72.06467961523036
 20
-150.1985839468253
 30
0.0
 10
72.00542397288406
 20
-150.3232964033914
 30
0.0
 10
71.89121905754802
 20
-150.3994330136154
 30
0.0
 10
71.73050535316112
 20
-150.3994330136154
 30
0.0
 10
71.45541447866392
 20
-150.3994330136154
 30
0.0
 10
71.32002222609362
 20
-150.2006510041165
 30
0.0
 10
71.32002222609362
 20
-149.9257323843935
 30
0.0
 10
71.32002222609362
 20
-149.6422010259575
 30
0.0
 10
71.46385496260279
 20
-149.4516872456232
 30
0.0
 10
71.73050535316112
 20
-149.4516872456232
 30
0.0
 10
71.89121905754802
 20
-149.4516872456232
 30
0.0
 10
72.00542397288406
 20
-149.5302354226869
 30
0.0
 10
72.06467961523036
 20
-149.6549478792529
 30
0.0
 10
72.11549477363779
 20
-149.5660644157335
 30
0.0
 10
72.21075166380495
 20
-149.4072455138635
 30
0.0
 10
72.47309568500672
 20
-149.4072455138635
 30
0.0
 10
72.84740530947913
 20
-149.4072455138635
 30
0.0
 10
72.96384953688058
 20
-149.6866427577172
 30
0.0
 10
72.96384953688058
 20
-149.9257323843935
 30
0.0
  0
HATCH
  5
10A
330
103
100
AcDbEntity
  8
レイヤー 1
 62
   250
420
  2299925
440
 33554687
100
AcDbHatch
 10
0.0
 20
0.0
 30
0.0
210
0.0
220
0.0
230
1.0
  2
SOLID
 70
     1
 71
     1
 91
        3
 92
        1
 93
        1
 72
     4
 94
        3
 73
     0
 74
     0
 95
       17
 96
       13
 40
0.0
 40
0.0
 40
0.0
 40
0.0
 40
1.0
 40
1.0
 40
1.0
 40
2.0
 40
2.0
 40
2.0
 40
3.0
 40
3.0
 40
3.0
 40
4.0
 40
4.0
 40
4.0
 40
4.0
 10
72.17268335869295
 20
-149.9257323843935
 10
72.17268335869295
 20
-150.0693928661284
 10
72.25932751014697
 20
-150.222010596125
 10
72.46241588900246
 20
-150.222010596125
 10
72.66757132514908
 20
-150.222010596125
 10
72.76920164196396
 20
-150.0948865727193
 10
72.76920164196396
 20
-149.9257323843935
 10
72.76920164196396
 20
-149.7396972281901
 10
72.64655624268906
 20
-149.6294541726621
 10
72.46878931565017
 20
-149.6294541726621
 10
72.24658065685154
 20
-149.6294541726621
 10
72.17268335869295
 20
-149.7924071891144
 10
72.17268335869295
 20
-149.9257323843935
 97
        0
 97
        1
330
107
 92
        1
 93
        1
 72
     4
 94
        3
 73
     0
 74
     0
 95
       17
 96
       13
 40
0.0
 40
0.0
 40
0.0
 40
0.0
 40
1.0
 40
1.0
 40
1.0
 40
2.0
 40
2.0
 40
2.0
 40
3.0
 40
3.0
 40
3.0
 40
4.0
 40
4.0
 40
4.0
 40
4.0
 10
71.51260306371907
 20
-149.9257323843935
 10
71.51260306371907
 20
-150.090752458137
 10
71.60768769911197
 20
-150.1751572975256
 10
71.74307995168229
 20
-150.1751572975256
 10
71.86589760573145
 20
-150.1751572975256
 10
71.98440889042403
 20
-150.1034993114324
 10
71.98440889042403
 20
-149.9257323843935
 10
71.98440889042403
 20
-149.7479654573547
 10
71.86589760573145
 20
-149.6759629617129
 10
71.74307995168229
 20
-149.6759629617129
 10
71.60768769911197
 20
-149.6759629617129
 10
71.51260306371907
 20
-149.7627793679412
 10
71.51260306371907
 20
-149.9257323843935
 97
        0
 97
        1
330
108
 92
        1
 93
        1
 72
     4
 94
        3
 73
     0
 74
     0
 95
       29
 96
       25
 40
0.0
 40
0.0
 40
0.0
 40
0.0
 40
1.0
 40
1.0
 40
1.0
 40
2.0
 40
2.0
 40
2.0
 40
3.0
 40
3.0
 40
3.0
 40
4.0
 40
4.0
 40
4.0
 40
5.0
 40
5.0
 40
5.0
 40
6.0
 40
6.0
 40
6.0
 40
7.0
 40
7.0
 40
7.0
 40
8.0
 40
8.0
 40
8.0
 40
8.0
 10
72.96384953688058
 20
-149.9257323843935
 10
72.96384953688058
 20
-150.1923827749519
 10
72.82621797224483
 20
-150.4459418026663
 10
72.47722979958902
 20
-150.4459418026663
 10
72.22125920503497
 20
-150.4459418026663
 10
72.1260023148678
 20
-150.3043483782225
 10
72.06467961523036
 20
-150.1985839468253
 10
72.00542397288406
 20
-150.3232964033914
 10
71.89121905754802
 20
-150.3994330136154
 10
71.73050535316112
 20
-150.3994330136154
 10
71.45541447866392
 20
-150.3994330136154
 10
71.32002222609362
 20
-150.2006510041165
 10
71.32002222609362
 20
-149.9257323843935
 10
71.32002222609362
 20
-149.6422010259575
 10
71.46385496260279
 20
-149.4516872456232
 10
71.73050535316112
 20
-149.4516872456232
 10
71.89121905754802
 20
-149.4516872456232
 10
72.00542397288406
 20
-149.5302354226869
 10
72.06467961523036
 20
-149.6549478792529
 10
72.11549477363779
 20
-149.5660644157335
 10
72.21075166380495
 20
-149.4072455138635
 10
72.47309568500672
 20
-149.4072455138635
 10
72.84740530947913
 20
-149.4072455138635
 10
72.96384953688058
 20
-149.6866427577172
 10
72.96384953688058
 20
-149.9257323843935
 97
        0
 97
        1
330
109
 75
     2
 76
     1
 98
        1
 10
0.0
 20
0.0
450
        0
451
        0
460
0.0
461
0.0
452
        0
462
0.0
453
        0
470

  0
ENDBLK
  5
106
330
103
100
AcDbEntity
  8
0
100
AcDbBlockEnd
  0
BLOCK
  5
10F
330
10D
100
AcDbEntity
  8
0
100
AcDbBlockBegin
  2
Block_6
 70
     0
 10
0.0
 20
0.0
 30
0.0
  3
Block_6
  1

  0
INSERT
  5
112
330
10D
100
AcDbEntity
  8
レイヤー 1
100
AcDbBlockReference
  2
Block_7
 10
0.0
 20
0.0
 30
0.0
  0
ENDBLK
  5
110
330
10D
100
AcDbEntity
  8
0
100
AcDbBlockEnd
  0
BLOCK
  5
113
330
111
100
AcDbEntity
  8
0
100
AcDbBlockBegin
  2
Block_7
 70
     0
 10
0.0
 20
0.0
 30
0.0
  3
Block_7
  1

  0
SPLINE
  5
115
330
111
100
AcDbEntity
  8
レイヤー 1
100
AcDbSpline
210
0.0
220
0.0
230
1.0
 70
     9
 71
     3
 72
    44
 73
    40
 74
     0
 42
0.0000000001
 43
0.0000000001
 40
0.0
 40
0.0
 40
0.0
 40
0.0
 40
1.0
 40
1.0
 40
1.0
 40
2.0
 40
2.0
 40
2.0
 40
3.0
 40
3.0
 40
3.0
 40
4.0
 40
4.0
 40
4.0
 40
5.0
 40
5.0
 40
5.0
 40
6.0
 40
6.0
 40
6.0
 40
7.0
 40
7.0
 40
7.0
 40
8.0
 40
8.0
 40
8.0
 40
9.0
 40
9.0
 40
9.0
 40
10.0
 40
10.0
 40
10.0
 40
11.0
 40
11.0
 40
11.0
 40
12.0
 40
12.0
 40
12.0
 40
13.0
 40
13.0
 40
13.0
 40
13.0
 10
117.5566487336316
 20
-139.3708210914594
 30
0.0
 10
117.3389186989639
 20
-139.5294677385551
 30
0.0
 10
117.2459011208621
 20
-139.603537291488
 30
0.0
 10
117.1969807649716
 20
-139.7473700279972
 30
0.0
 10
117.1969807649716
 20
-139.7473700279972
 30
0.0
 10
117.975572344638
 20
-139.7473700279972
 30
0.0
 10
117.975572344638
 20
-139.7473700279972
 30
0.0
 10
117.975572344638
 20
-139.7473700279972
 30
0.0
 10
117.975572344638
 20
-139.9525254641438
 30
0.0
 10
117.975572344638
 20
-139.9525254641438
 30
0.0
 10
117.975572344638
 20
-139.9525254641438
 30
0.0
 10
116.9475558518395
 20
-139.9525254641438
 30
0.0
 10
116.9475558518395
 20
-139.9525254641438
 30
0.0
 10
116.9792507303038
 20
-139.5949245527749
 30
0.0
 10
117.0447075445235
 20
-139.5167208852597
 30
0.0
 10
117.4298692197745
 20
-139.218375616237
 30
0.0
 10
117.6858398143285
 20
-139.0195936067381
 30
0.0
 10
117.7512966285483
 20
-138.951897480453
 30
0.0
 10
117.7512966285483
 20
-138.8144381705915
 30
0.0
 10
117.7512966285483
 20
-138.6959268858989
 30
0.0
 10
117.6792941329066
 20
-138.5646687479109
 30
0.0
 10
117.4825791806988
 20
-138.5646687479109
 30
0.0
 10
117.2224744715624
 20
-138.5646687479109
 30
0.0
 10
117.2142062423978
 20
-138.7953178906484
 30
0.0
 10
117.209727618267
 20
-138.9117621180498
 30
0.0
 10
117.209727618267
 20
-138.9117621180498
 30
0.0
 10
116.9854519021772
 20
-138.9117621180498
 30
0.0
 10
116.9854519021772
 20
-138.9117621180498
 30
0.0
 10
116.9940646408903
 20
-138.7848103494184
 30
0.0
 10
117.0047444368946
 20
-138.6726724913735
 30
0.0
 10
117.085015161701
 20
-138.5541612066809
 30
0.0
 10
117.1949137076804
 20
-138.393447502294
 30
0.0
 10
117.3812933734324
 20
-138.3595133117643
 30
0.0
 10
117.4973930912853
 20
-138.3595133117643
 30
0.0
 10
117.774723277848
 20
-138.3595133117643
 30
0.0
 10
117.98211802606
 20
-138.5436536654509
 30
0.0
 10
117.98211802606
 20
-138.8165052278827
 30
0.0
 10
117.98211802606
 20
-139.0449150585547
 30
0.0
 10
117.8656737986586
 20
-139.1444783180785
 30
0.0
 10
117.5566487336316
 20
-139.3708210914594
 30
0.0
  0
HATCH
  5
116
330
111
100
AcDbEntity
  8
レイヤー 1
 62
   250
420
  2299925
440
 33554687
100
AcDbHatch
 10
0.0
 20
0.0
 30
0.0
210
0.0
220
0.0
230
1.0
  2
SOLID
 70
     1
 71
     1
 91
        1
 92
        1
 93
        1
 72
     4
 94
        3
 73
     0
 74
     0
 95
       44
 96
       40
 40
0.0
 40
0.0
 40
0.0
 40
0.0
 40
1.0
 40
1.0
 40
1.0
 40
2.0
 40
2.0
 40
2.0
 40
3.0
 40
3.0
 40
3.0
 40
4.0
 40
4.0
 40
4.0
 40
5.0
 40
5.0
 40
5.0
 40
6.0
 40
6.0
 40
6.0
 40
7.0
 40
7.0
 40
7.0
 40
8.0
 40
8.0
 40
8.0
 40
9.0
 40
9.0
 40
9.0
 40
10.0
 40
10.0
 40
10.0
 40
11.0
 40
11.0
 40
11.0
 40
12.0
 40
12.0
 40
12.0
 40
13.0
 40
13.0
 40
13.0
 40
13.0
 10
117.5566487336316
 20
-139.3708210914594
 10
117.3389186989639
 20
-139.5294677385551
 10
117.2459011208621
 20
-139.603537291488
 10
117.1969807649716
 20
-139.7473700279972
 10
117.1969807649716
 20
-139.7473700279972
 10
117.975572344638
 20
-139.7473700279972
 10
117.975572344638
 20
-139.7473700279972
 10
117.975572344638
 20
-139.7473700279972
 10
117.975572344638
 20
-139.9525254641438
 10
117.975572344638
 20
-139.9525254641438
 10
117.975572344638
 20
-139.9525254641438
 10
116.9475558518395
 20
-139.9525254641438
 10
116.9475558518395
 20
-139.9525254641438
 10
116.9792507303038
 20
-139.5949245527749
 10
117.0447075445235
 20
-139.5167208852597
 10
117.4298692197745
 20
-139.218375616237
 10
117.6858398143285
 20
-139.0195936067381
 10
117.7512966285483
 20
-138.951897480453
 10
117.7512966285483
 20
-138.8144381705915
 10
117.7512966285483
 20
-138.6959268858989
 10
117.6792941329066
 20
-138.5646687479109
 10
117.4825791806988
 20
-138.5646687479109
 10
117.2224744715624
 20
-138.5646687479109
 10
117.2142062423978
 20
-138.7953178906484
 10
117.209727618267
 20
-138.9117621180498
 10
117.209727618267
 20
-138.9117621180498
 10
116.9854519021772
 20
-138.9117621180498
 10
116.9854519021772
 20
-138.9117621180498
 10
116.9940646408903
 20
-138.7848103494184
 10
117.0047444368946
 20
-138.6726724913735
 10
117.085015161701
 20
-138.5541612066809
 10
117.1949137076804
 20
-138.393447502294
 10
117.3812933734324
 20
-138.3595133117643
 10
117.4973930912853
 20
-138.3595133117643
 10
117.774723277848
 20
-138.3595133117643
 10
117.98211802606
 20
-138.5436536654509
 10
117.98211802606
 20
-138.8165052278827
 10
117.98211802606
 20
-139.0449150585547
 10
117.8656737986586
 20
-139.1444783180785
 10
117.5566487336316
 20
-139.3708210914594
 97
        0
 97
        1
330
115
 75
     2
 76
     1
 98
        1
 10
0.0
 20
0.0
450
        0
451
        0
460
0.0
461
0.0
452
        0
462
0.0
453
        0
470

  0
SPLINE
  5
117
330
111
100
AcDbEntity
  8
レイヤー 1
100
AcDbSpline
210
0.0
220
0.0
230
1.0
 70
    11
 71
     3
 72
    26
 73
    22
 74
     0
 42
0.0000000001
 43
0.0000000001
 40
0.0
 40
0.0
 40
0.0
 40
0.0
 40
1.0
 40
1.0
 40
1.0
 40
2.0
 40
2.0
 40
2.0
 40
3.0
 40
3.0
 40
3.0
 40
4.0
 40
4.0
 40
4.0
 40
5.0
 40
5.0
 40
5.0
 40
6.0
 40
6.0
 40
6.0
 40
7.0
 40
7.0
 40
7.0
 40
7.0
 10
118.5918999269492
 20
-139.9525254641438
 30
0.0
 10
118.5918999269492
 20
-139.9525254641438
 30
0.0
 10
118.5918999269492
 20
-138.8482001063469
 30
0.0
 10
118.5918999269492
 20
-138.8482001063469
 30
0.0
 10
118.5918999269492
 20
-138.8482001063469
 30
0.0
 10
118.2618597794623
 20
-138.8482001063469
 30
0.0
 10
118.2618597794623
 20
-138.8482001063469
 30
0.0
 10
118.2618597794623
 20
-138.8482001063469
 30
0.0
 10
118.2618597794623
 20
-138.7000610004812
 30
0.0
 10
118.2618597794623
 20
-138.7000610004812
 30
0.0
 10
118.5939669842404
 20
-138.6854193446689
 30
0.0
 10
118.6404757732912
 20
-138.5224663282166
 30
0.0
 10
118.6701035944644
 20
-138.4082614128806
 30
0.0
 10
118.6701035944644
 20
-138.4082614128806
 30
0.0
 10
118.816175643039
 20
-138.4082614128806
 30
0.0
 10
118.816175643039
 20
-138.4082614128806
 30
0.0
 10
118.816175643039
 20
-138.4082614128806
 30
0.0
 10
118.816175643039
 20
-139.9525254641438
 30
0.0
 10
118.816175643039
 20
-139.9525254641438
 30
0.0
 10
118.816175643039
 20
-139.9525254641438
 30
0.0
 10
118.5918999269492
 20
-139.9525254641438
 30
0.0
 10
118.5918999269492
 20
-139.9525254641438
 30
0.0
  0
HATCH
  5
118
330
111
100
AcDbEntity
  8
レイヤー 1
 62
   250
420
  2299925
440
 33554687
100
AcDbHatch
 10
0.0
 20
0.0
 30
0.0
210
0.0
220
0.0
230
1.0
  2
SOLID
 70
     1
 71
     1
 91
        1
 92
        1
 93
        1
 72
     4
 94
        3
 73
     0
 74
     0
 95
       26
 96
       22
 40
0.0
 40
0.0
 40
0.0
 40
0.0
 40
1.0
 40
1.0
 40
1.0
 40
2.0
 40
2.0
 40
2.0
 40
3.0
 40
3.0
 40
3.0
 40
4.0
 40
4.0
 40
4.0
 40
5.0
 40
5.0
 40
5.0
 40
6.0
 40
6.0
 40
6.0
 40
7.0
 40
7.0
 40
7.0
 40
7.0
 10
118.5918999269492
 20
-139.9525254641438
 10
118.5918999269492
 20
-139.9525254641438
 10
118.5918999269492
 20
-138.8482001063469
 10
118.5918999269492
 20
-138.8482001063469
 10
118.5918999269492
 20
-138.8482001063469
 10
118.2618597794623
 20
-138.8482001063469
 10
118.2618597794623
 20
-138.8482001063469
 10
118.2618597794623
 20
-138.8482001063469
 10
118.2618597794623
 20
-138.7000610004812
 10
118.2618597794623
 20
-138.7000610004812
 10
118.5939669842404
 20
-138.6854193446689
 10
118.6404757732912
 20
-138.5224663282166
 10
118.6701035944644
 20
-138.4082614128806
 10
118.6701035944644
 20
-138.4082614128806
 10
118.816175643039
 20
-138.4082614128806
 10
118.816175643039
 20
-138.4082614128806
 10
118.816175643039
 20
-138.4082614128806
 10
118.816175643039
 20
-139.9525254641438
 10
118.816175643039
 20
-139.9525254641438
 10
118.816175643039
 20
-139.9525254641438
 10
118.5918999269492
 20
-139.9525254641438
 10
118.5918999269492
 20
-139.9525254641438
 97
        0
 97
        1
330
117
 75
     2
 76
     1
 98
        1
 10
0.0
 20
0.0
450
        0
451
        0
460
0.0
461
0.0
452
        0
462
0.0
453
        0
470

  0
ENDBLK
  5
114
330
111
100
AcDbEntity
  8
0
100
AcDbBlockEnd
  0
BLOCK
  5
11E
330
11C
100
AcDbEntity
  8
0
100
AcDbBlockBegin
  2
Block_8
 70
     0
 10
0.0
 20
0.0
 30
0.0
  3
Block_8
  1

  0
SPLINE
  5
120
330
11C
100
AcDbEntity
  8
レイヤー 1
100
AcDbSpline
210
0.0
220
0.0
230
1.0
 70
     9
 71
     3
 72
    17
 73
    13
 74
     0
 42
0.0000000001
 43
0.0000000001
 40
0.0
 40
0.0
 40
0.0
 40
0.0
 40
1.0
 40
1.0
 40
1.0
 40
2.0
 40
2.0
 40
2.0
 40
3.0
 40
3.0
 40
3.0
 40
4.0
 40
4.0
 40
4.0
 40
4.0
 10
103.2408989542245
 20
-138.5520941493898
 30
0.0
 10
103.1223876695319
 20
-138.5520941493898
 30
0.0
 10
102.9466877997841
 20
-138.6091104796706
 30
0.0
 10
102.9466877997841
 20
-138.8947088953978
 30
0.0
 10
102.9466877997841
 20
-139.1210516687787
 30
0.0
 10
103.0865586764853
 20
-139.2163085589459
 30
0.0
 10
103.2219509290556
 20
-139.2163085589459
 30
0.0
 10
103.4841226954831
 20
-139.2163085589459
 30
0.0
 10
103.5223632553694
 20
-139.0068467534427
 30
0.0
 10
103.5223632553694
 20
-138.8905747808155
 30
0.0
 10
103.5223632553694
 20
-138.7148749110678
 30
0.0
 10
103.426934110428
 20
-138.5520941493898
 30
0.0
 10
103.2408989542245
 20
-138.5520941493898
 30
0.0
  0
SPLINE
  5
121
330
11C
100
AcDbEntity
  8
レイヤー 1
100
AcDbSpline
210
0.0
220
0.0
230
1.0
 70
     9
 71
     3
 72
    32
 73
    28
 74
     0
 42
0.0000000001
 43
0.0000000001
 40
0.0
 40
0.0
 40
0.0
 40
0.0
 40
1.0
 40
1.0
 40
1.0
 40
2.0
 40
2.0
 40
2.0
 40
3.0
 40
3.0
 40
3.0
 40
4.0
 40
4.0
 40
4.0
 40
5.0
 40
5.0
 40
5.0
 40
6.0
 40
6.0
 40
6.0
 40
7.0
 40
7.0
 40
7.0
 40
8.0
 40
8.0
 40
8.0
 40
9.0
 40
9.0
 40
9.0
 40
9.0
 10
103.200591337047
 20
-140.0033406225512
 30
0.0
 10
103.027303034139
 20
-140.0033406225512
 30
0.0
 10
102.7816677260407
 20
-139.9334051842007
 30
0.0
 10
102.7437716757029
 20
-139.6012979794226
 30
0.0
 10
102.7437716757029
 20
-139.6012979794226
 30
0.0
 10
102.9573675957884
 20
-139.6012979794226
 30
0.0
 10
102.9573675957884
 20
-139.6012979794226
 30
0.0
 10
102.9680473917927
 20
-139.6605536217689
 30
0.0
 10
102.999742270257
 20
-139.8086927276346
 30
0.0
 10
103.2026583943382
 20
-139.8086927276346
 30
0.0
 10
103.4948024914874
 20
-139.8086927276346
 30
0.0
 10
103.5326985418251
 20
-139.4786525801477
 30
0.0
 10
103.5454453951206
 20
-139.2734971440011
 30
0.0
 10
103.45449487431
 20
-139.3537678688074
 30
0.0
 10
103.3869710027991
 20
-139.4109564538625
 30
0.0
 10
103.2050699611779
 20
-139.4109564538625
 30
0.0
 10
103.0252359768478
 20
-139.4109564538625
 30
0.0
 10
102.7224120836944
 20
-139.3051920224654
 30
0.0
 10
102.7224120836944
 20
-138.8990152647544
 30
0.0
 10
102.7224120836944
 20
-138.5794826584975
 30
0.0
 10
102.9215386027418
 20
-138.3595133117643
 30
0.0
 10
103.2388318969333
 20
-138.3595133117643
 30
0.0
 10
103.7528401433326
 20
-138.3595133117643
 30
0.0
 10
103.7635199393369
 20
-138.913829175341
 30
0.0
 10
103.7635199393369
 20
-139.1274250954265
 30
0.0
 10
103.7635199393369
 20
-139.3580742381639
 30
0.0
 10
103.7442274046195
 20
-140.0033406225512
 30
0.0
 10
103.200591337047
 20
-140.0033406225512
 30
0.0
  0
HATCH
  5
122
330
11C
100
AcDbEntity
  8
レイヤー 1
 62
   250
420
  2299925
440
 33554687
100
AcDbHatch
 10
0.0
 20
0.0
 30
0.0
210
0.0
220
0.0
230
1.0
  2
SOLID
 70
     1
 71
     1
 91
        2
 92
        1
 93
        1
 72
     4
 94
        3
 73
     0
 74
     0
 95
       17
 96
       13
 40
0.0
 40
0.0
 40
0.0
 40
0.0
 40
1.0
 40
1.0
 40
1.0
 40
2.0
 40
2.0
 40
2.0
 40
3.0
 40
3.0
 40
3.0
 40
4.0
 40
4.0
 40
4.0
 40
4.0
 10
103.2408989542245
 20
-138.5520941493898
 10
103.1223876695319
 20
-138.5520941493898
 10
102.9466877997841
 20
-138.6091104796706
 10
102.9466877997841
 20
-138.8947088953978
 10
102.9466877997841
 20
-139.1210516687787
 10
103.0865586764853
 20
-139.2163085589459
 10
103.2219509290556
 20
-139.2163085589459
 10
103.4841226954831
 20
-139.2163085589459
 10
103.5223632553694
 20
-139.0068467534427
 10
103.5223632553694
 20
-138.8905747808155
 10
103.5223632553694
 20
-138.7148749110678
 10
103.426934110428
 20
-138.5520941493898
 10
103.2408989542245
 20
-138.5520941493898
 97
        0
 97
        1
330
120
 92
        1
 93
        1
 72
     4
 94
        3
 73
     0
 74
     0
 95
       32
 96
       28
 40
0.0
 40
0.0
 40
0.0
 40
0.0
 40
1.0
 40
1.0
 40
1.0
 40
2.0
 40
2.0
 40
2.0
 40
3.0
 40
3.0
 40
3.0
 40
4.0
 40
4.0
 40
4.0
 40
5.0
 40
5.0
 40
5.0
 40
6.0
 40
6.0
 40
6.0
 40
7.0
 40
7.0
 40
7.0
 40
8.0
 40
8.0
 40
8.0
 40
9.0
 40
9.0
 40
9.0
 40
9.0
 10
103.200591337047
 20
-140.0033406225512
 10
103.027303034139
 20
-140.0033406225512
 10
102.7816677260407
 20
-139.9334051842007
 10
102.7437716757029
 20
-139.6012979794226
 10
102.7437716757029
 20
-139.6012979794226
 10
102.9573675957884
 20
-139.6012979794226
 10
102.9573675957884
 20
-139.6012979794226
 10
102.9680473917927
 20
-139.6605536217689
 10
102.999742270257
 20
-139.8086927276346
 10
103.2026583943382
 20
-139.8086927276346
 10
103.4948024914874
 20
-139.8086927276346
 10
103.5326985418251
 20
-139.4786525801477
 10
103.5454453951206
 20
-139.2734971440011
 10
103.45449487431
 20
-139.3537678688074
 10
103.3869710027991
 20
-139.4109564538625
 10
103.2050699611779
 20
-139.4109564538625
 10
103.0252359768478
 20
-139.4109564538625
 10
102.7224120836944
 20
-139.3051920224654
 10
102.7224120836944
 20
-138.8990152647544
 10
102.7224120836944
 20
-138.5794826584975
 10
102.9215386027418
 20
-138.3595133117643
 10
103.2388318969333
 20
-138.3595133117643
 10
103.7528401433326
 20
-138.3595133117643
 10
103.7635199393369
 20
-138.913829175341
 10
103.7635199393369
 20
-139.1274250954265
 10
103.7635199393369
 20
-139.3580742381639
 10
103.7442274046195
 20
-140.0033406225512
 10
103.200591337047
 20
-140.0033406225512
 97
        0
 97
        1
330
121
 75
     2
 76
     1
 98
        1
 10
0.0
 20
0.0
450
        0
451
        0
460
0.0
461
0.0
452
        0
462
0.0
453
        0
470

  0
ENDBLK
  5
11F
330
11C
100
AcDbEntity
  8
0
100
AcDbBlockEnd
  0
BLOCK
  5
126
330
124
100
AcDbEntity
  8
0
100
AcDbBlockBegin
  2
Block_9
 70
     0
 10
0.0
 20
0.0
 30
0.0
  3
Block_9
  1

  0
SPLINE
  5
128
330
124
100
AcDbEntity
  8
レイヤー 1
100
AcDbSpline
210
0.0
220
0.0
230
1.0
 70
    11
 71
     3
 72
    26
 73
    22
 74
     0
 42
0.0000000001
 43
0.0000000001
 40
0.0
 40
0.0
 40
0.0
 40
0.0
 40
1.0
 40
1.0
 40
1.0
 40
2.0
 40
2.0
 40
2.0
 40
3.0
 40
3.0
 40
3.0
 40
4.0
 40
4.0
 40
4.0
 40
5.0
 40
5.0
 40
5.0
 40
6.0
 40
6.0
 40
6.0
 40
7.0
 40
7.0
 40
7.0
 40
7.0
 10
110.563449408123
 20
-149.3052706875
 30
0.0
 10
110.563449408123
 20
-149.3052706875
 30
0.0
 10
110.563449408123
 20
-148.2009453297032
 30
0.0
 10
110.563449408123
 20
-148.2009453297032
 30
0.0
 10
110.563449408123
 20
-148.2009453297032
 30
0.0
 10
110.2334092606361
 20
-148.2009453297032
 30
0.0
 10
110.2334092606361
 20
-148.2009453297032
 30
0.0
 10
110.2334092606361
 20
-148.2009453297032
 30
0.0
 10
110.2334092606361
 20
-148.0528062238375
 30
0.0
 10
110.2334092606361
 20
-148.0528062238375
 30
0.0
 10
110.5655164654141
 20
-148.0381645680252
 30
0.0
 10
110.612025254465
 20
-147.8752115515729
 30
0.0
 10
110.6416530756382
 20
-147.7610066362368
 30
0.0
 10
110.6416530756382
 20
-147.7610066362368
 30
0.0
 10
110.7877251242128
 20
-147.7610066362368
 30
0.0
 10
110.7877251242128
 20
-147.7610066362368
 30
0.0
 10
110.7877251242128
 20
-147.7610066362368
 30
0.0
 10
110.7877251242128
 20
-149.3052706875
 30
0.0
 10
110.7877251242128
 20
-149.3052706875
 30
0.0
 10
110.7877251242128
 20
-149.3052706875
 30
0.0
 10
110.563449408123
 20
-149.3052706875
 30
0.0
 10
110.563449408123
 20
-149.3052706875
 30
0.0
  0
HATCH
  5
129
330
124
100
AcDbEntity
  8
レイヤー 1
 62
   250
420
  2299925
440
 33554687
100
AcDbHatch
 10
0.0
 20
0.0
 30
0.0
210
0.0
220
0.0
230
1.0
  2
SOLID
 70
     1
 71
     1
 91
        1
 92
        1
 93
        1
 72
     4
 94
        3
 73
     0
 74
     0
 95
       26
 96
       22
 40
0.0
 40
0.0
 40
0.0
 40
0.0
 40
1.0
 40
1.0
 40
1.0
 40
2.0
 40
2.0
 40
2.0
 40
3.0
 40
3.0
 40
3.0
 40
4.0
 40
4.0
 40
4.0
 40
5.0
 40
5.0
 40
5.0
 40
6.0
 40
6.0
 40
6.0
 40
7.0
 40
7.0
 40
7.0
 40
7.0
 10
110.563449408123
 20
-149.3052706875
 10
110.563449408123
 20
-149.3052706875
 10
110.563449408123
 20
-148.2009453297032
 10
110.563449408123
 20
-148.2009453297032
 10
110.563449408123
 20
-148.2009453297032
 10
110.2334092606361
 20
-148.2009453297032
 10
110.2334092606361
 20
-148.2009453297032
 10
110.2334092606361
 20
-148.2009453297032
 10
110.2334092606361
 20
-148.0528062238375
 10
110.2334092606361
 20
-148.0528062238375
 10
110.5655164654141
 20
-148.0381645680252
 10
110.612025254465
 20
-147.8752115515729
 10
110.6416530756382
 20
-147.7610066362368
 10
110.6416530756382
 20
-147.7610066362368
 10
110.7877251242128
 20
-147.7610066362368
 10
110.7877251242128
 20
-147.7610066362368
 10
110.7877251242128
 20
-147.7610066362368
 10
110.7877251242128
 20
-149.3052706875
 10
110.7877251242128
 20
-149.3052706875
 10
110.7877251242128
 20
-149.3052706875
 10
110.563449408123
 20
-149.3052706875
 10
110.563449408123
 20
-149.3052706875
 97
        0
 97
        1
330
128
 75
     2
 76
     1
 98
        1
 10
0.0
 20
0.0
450
        0
451
        0
460
0.0
461
0.0
452
        0
462
0.0
453
        0
470

  0
ENDBLK
  5
127
330
124
100
AcDbEntity
  8
0
100
AcDbBlockEnd
  0
BLOCK
  5
130
330
12E
100
AcDbEntity
  8
0
100
AcDbBlockBegin
  2
Block_10
 70
     0
 10
0.0
 20
0.0
 30
0.0
  3
Block_10
  1

  0
INSERT
  5
133
330
12E
100
AcDbEntity
  8
レイヤー 1
100
AcDbBlockReference
  2
Block_11
 10
0.0
 20
0.0
 30
0.0
  0
INSERT
  5
13A
330
12E
100
AcDbEntity
  8
レイヤー 1
100
AcDbBlockReference
  2
Block_12
 10
0.0
 20
0.0
 30
0.0
  0
ENDBLK
  5
131
330
12E
100
AcDbEntity
  8
0
100
AcDbBlockEnd
  0
BLOCK
  5
134
330
132
100
AcDbEntity
  8
0
100
AcDbBlockBegin
  2
Block_11
 70
     0
 10
0.0
 20
0.0
 30
0.0
  3
Block_11
  1

  0
LINE
  5
136
330
132
100
AcDbEntity
  8
レイヤー 1
 62
    18
420
        0
370
     9
100
AcDbLine
 10
123.1181192536903
 20
-147.0690331210381
 30
0.0
 11
123.9294411942143
 21
-147.6536564542255
 31
0.0
  0
LINE
  5
137
330
132
100
AcDbEntity
  8
レイヤー 1
 62
    18
420
        0
370
     9
100
AcDbLine
 10
123.1181192536903
 20
-147.0690331210381
 30
0.0
 11
125.6957252990412
 21
-150.2261120091378
 31
0.0
  0
LINE
  5
138
330
132
100
AcDbEntity
  8
レイヤー 1
 62
    18
420
        0
370
     9
100
AcDbLine
 10
123.1181192536903
 20
-147.0690331210381
 30
0.0
 11
123.5284350765556
 21
-147.9811400652546
 31
0.0
  0
ENDBLK
  5
135
330
132
100
AcDbEntity
  8
0
100
AcDbBlockEnd
  0
BLOCK
  5
13B
330
139
100
AcDbEntity
  8
0
100
AcDbBlockBegin
  2
Block_12
 70
     0
 10
0.0
 20
0.0
 30
0.0
  3
Block_12
  1

  0
INSERT
  5
13E
330
139
100
AcDbEntity
  8
レイヤー 1
100
AcDbBlockReference
  2
Block_13
 10
0.0
 20
0.0
 30
0.0
  0
ENDBLK
  5
13C
330
139
100
AcDbEntity
  8
0
100
AcDbBlockEnd
  0
BLOCK
  5
13F
330
13D
100
AcDbEntity
  8
0
100
AcDbBlockBegin
  2
Block_13
 70
     0
 10
0.0
 20
0.0
 30
0.0
  3
Block_13
  1

  0
SPLINE
  5
141
330
13D
100
AcDbEntity
  8
レイヤー 1
100
AcDbSpline
210
0.0
220
0.0
230
1.0
 70
     9
 71
     3
 72
    17
 73
    13
 74
     0
 42
0.0000000001
 43
0.0000000001
 40
0.0
 40
0.0
 40
0.0
 40
0.0
 40
1.0
 40
1.0
 40
1.0
 40
2.0
 40
2.0
 40
2.0
 40
3.0
 40
3.0
 40
3.0
 40
4.0
 40
4.0
 40
4.0
 40
4.0
 10
127.3624240132983
 20
-150.6733181046928
 30
0.0
 10
127.3455430454205
 20
-150.7029459258659
 30
0.0
 10
127.2949001417874
 20
-150.7963080135162
 30
0.0
 10
127.2842203457831
 20
-150.8152560386851
 30
0.0
 10
127.4747341261174
 20
-150.8745116810314
 30
0.0
 10
127.4957492085774
 20
-150.8807128529048
 30
0.0
 10
127.5677517042192
 20
-150.9082736167868
 30
0.0
 10
127.6225287224346
 20
-150.8214572105585
 30
0.0
 10
127.6459553717343
 20
-150.7473876576256
 30
0.0
 10
127.6607692823209
 20
-150.6733181046928
 30
0.0
 10
127.6607692823209
 20
-150.6733181046928
 30
0.0
 10
127.3624240132983
 20
-150.6733181046928
 30
0.0
 10
127.3624240132983
 20
-150.6733181046928
 30
0.0
  0
SPLINE
  5
142
330
13D
100
AcDbEntity
  8
レイヤー 1
100
AcDbSpline
210
0.0
220
0.0
230
1.0
 70
    11
 71
     3
 72
    20
 73
    16
 74
     0
 42
0.0000000001
 43
0.0000000001
 40
0.0
 40
0.0
 40
0.0
 40
0.0
 40
1.0
 40
1.0
 40
1.0
 40
2.0
 40
2.0
 40
2.0
 40
3.0
 40
3.0
 40
3.0
 40
4.0
 40
4.0
 40
4.0
 40
5.0
 40
5.0
 40
5.0
 40
5.0
 10
127.2990342563697
 20
-149.8230685389331
 30
0.0
 10
127.2990342563697
 20
-149.8230685389331
 30
0.0
 10
127.2673393779054
 20
-149.8230685389331
 30
0.0
 10
127.2673393779054
 20
-149.8230685389331
 30
0.0
 10
127.3138481669562
 20
-149.9222872889083
 30
0.0
 10
127.3455430454205
 20
-150.0029025232632
 30
0.0
 10
127.379304981176
 20
-150.1296820371203
 30
0.0
 10
127.379304981176
 20
-150.1296820371203
 30
0.0
 10
127.586699729388
 20
-150.1296820371203
 30
0.0
 10
127.586699729388
 20
-150.1296820371203
 30
0.0
 10
127.6183946078523
 20
-150.0366644590186
 30
0.0
 10
127.641821257152
 20
-149.9519151100814
 30
0.0
 10
127.6649033969032
 20
-149.8230685389331
 30
0.0
 10
127.6649033969032
 20
-149.8230685389331
 30
0.0
 10
127.2990342563697
 20
-149.8230685389331
 30
0.0
 10
127.2990342563697
 20
-149.8230685389331
 30
0.0
  0
SPLINE
  5
143
330
13D
100
AcDbEntity
  8
レイヤー 1
100
AcDbSpline
210
0.0
220
0.0
230
1.0
 70
     9
 71
     3
 72
   242
 73
   238
 74
     0
 42
0.0000000001
 43
0.0000000001
 40
0.0
 40
0.0
 40
0.0
 40
0.0
 40
1.0
 40
1.0
 40
1.0
 40
2.0
 40
2.0
 40
2.0
 40
3.0
 40
3.0
 40
3.0
 40
4.0
 40
4.0
 40
4.0
 40
5.0
 40
5.0
 40
5.0
 40
6.0
 40
6.0
 40
6.0
 40
7.0
 40
7.0
 40
7.0
 40
8.0
 40
8.0
 40
8.0
 40
9.0
 40
9.0
 40
9.0
 40
10.0
 40
10.0
 40
10.0
 40
11.0
 40
11.0
 40
11.0
 40
12.0
 40
12.0
 40
12.0
 40
13.0
 40
13.0
 40
13.0
 40
14.0
 40
14.0
 40
14.0
 40
15.0
 40
15.0
 40
15.0
 40
16.0
 40
16.0
 40
16.0
 40
17.0
 40
17.0
 40
17.0
 40
18.0
 40
18.0
 40
18.0
 40
19.0
 40
19.0
 40
19.0
 40
20.0
 40
20.0
 40
20.0
 40
21.0
 40
21.0
 40
21.0
 40
22.0
 40
22.0
 40
22.0
 40
23.0
 40
23.0
 40
23.0
 40
24.0
 40
24.0
 40
24.0
 40
25.0
 40
25.0
 40
25.0
 40
26.0
 40
26.0
 40
26.0
 40
27.0
 40
27.0
 40
27.0
 40
28.0
 40
28.0
 40
28.0
 40
29.0
 40
29.0
 40
29.0
 40
30.0
 40
30.0
 40
30.0
 40
31.0
 40
31.0
 40
31.0
 40
32.0
 40
32.0
 40
32.0
 40
33.0
 40
33.0
 40
33.0
 40
34.0
 40
34.0
 40
34.0
 40
35.0
 40
35.0
 40
35.0
 40
36.0
 40
36.0
 40
36.0
 40
37.0
 40
37.0
 40
37.0
 40
38.0
 40
38.0
 40
38.0
 40
39.0
 40
39.0
 40
39.0
 40
40.0
 40
40.0
 40
40.0
 40
41.0
 40
41.0
 40
41.0
 40
42.0
 40
42.0
 40
42.0
 40
43.0
 40
43.0
 40
43.0
 40
44.0
 40
44.0
 40
44.0
 40
45.0
 40
45.0
 40
45.0
 40
46.0
 40
46.0
 40
46.0
 40
47.0
 40
47.0
 40
47.0
 40
48.0
 40
48.0
 40
48.0
 40
49.0
 40
49.0
 40
49.0
 40
50.0
 40
50.0
 40
50.0
 40
51.0
 40
51.0
 40
51.0
 40
52.0
 40
52.0
 40
52.0
 40
53.0
 40
53.0
 40
53.0
 40
54.0
 40
54.0
 40
54.0
 40
55.0
 40
55.0
 40
55.0
 40
56.0
 40
56.0
 40
56.0
 40
57.0
 40
57.0
 40
57.0
 40
58.0
 40
58.0
 40
58.0
 40
59.0
 40
59.0
 40
59.0
 40
60.0
 40
60.0
 40
60.0
 40
61.0
 40
61.0
 40
61.0
 40
62.0
 40
62.0
 40
62.0
 40
63.0
 40
63.0
 40
63.0
 40
64.0
 40
64.0
 40
64.0
 40
65.0
 40
65.0
 40
65.0
 40
66.0
 40
66.0
 40
66.0
 40
67.0
 40
67.0
 40
67.0
 40
68.0
 40
68.0
 40
68.0
 40
69.0
 40
69.0
 40
69.0
 40
70.0
 40
70.0
 40
70.0
 40
71.0
 40
71.0
 40
71.0
 40
72.0
 40
72.0
 40
72.0
 40
73.0
 40
73.0
 40
73.0
 40
74.0
 40
74.0
 40
74.0
 40
75.0
 40
75.0
 40
75.0
 40
76.0
 40
76.0
 40
76.0
 40
77.0
 40
77.0
 40
77.0
 40
78.0
 40
78.0
 40
78.0
 40
79.0
 40
79.0
 40
79.0
 40
79.0
 10
127.9274196728792
 20
-150.2885009389903
 30
0.0
 10
127.9274196728792
 20
-150.2885009389903
 30
0.0
 10
127.6735161356163
 20
-150.2885009389903
 30
0.0
 10
127.6735161356163
 20
-150.2885009389903
 30
0.0
 10
127.6735161356163
 20
-150.2885009389903
 30
0.0
 10
127.3961859490537
 20
-150.2885009389903
 30
0.0
 10
127.3961859490537
 20
-150.2885009389903
 30
0.0
 10
127.3961859490537
 20
-150.2885009389903
 30
0.0
 10
127.5233099724594
 20
-150.3308756134589
 30
0.0
 10
127.5233099724594
 20
-150.3308756134589
 30
0.0
 10
127.5339897684637
 20
-150.3350097280412
 30
0.0
 10
127.5463921122106
 20
-150.3412108999147
 30
0.0
 10
127.5463921122106
 20
-150.3539577532101
 30
0.0
 10
127.5463921122106
 20
-150.3753173452187
 30
0.0
 10
127.5146972337463
 20
-150.3815185170921
 30
0.0
 10
127.4936821512863
 20
-150.3856526316744
 30
0.0
 10
127.483002355282
 20
-150.4090792809741
 30
0.0
 10
127.4533745341089
 20
-150.4745360951939
 30
0.0
 10
127.43442650894
 20
-150.5189778269536
 30
0.0
 10
127.43442650894
 20
-150.5189778269536
 30
0.0
 10
127.7052110140806
 20
-150.5189778269536
 30
0.0
 10
127.7052110140806
 20
-150.5189778269536
 30
0.0
 10
127.7961615348912
 20
-150.5189778269536
 30
0.0
 10
127.992876487099
 20
-150.5148437123713
 30
0.0
 10
128.1344699115427
 20
-150.5062309736582
 30
0.0
 10
128.1344699115427
 20
-150.5062309736582
 30
0.0
 10
128.1344699115427
 20
-150.683997900697
 30
0.0
 10
128.1344699115427
 20
-150.683997900697
 30
0.0
 10
128.0521321294453
 20
-150.6798637861147
 30
0.0
 10
128.0311170469853
 20
-150.6798637861147
 30
0.0
 10
127.8512830626552
 20
-150.6757296715324
 30
0.0
 10
127.8195881841909
 20
-150.8300699492716
 30
0.0
 10
127.7751464524312
 20
-150.910340674078
 30
0.0
 10
127.7307047206715
 20
-150.9802761124285
 30
0.0
 10
127.8512830626552
 20
-151.0395317547748
 30
0.0
 10
127.9570474940524
 20
-151.1070556262857
 30
0.0
 10
128.0607448681584
 20
-151.1897379179317
 30
0.0
 10
128.0607448681584
 20
-151.1897379179317
 30
0.0
 10
127.9422335834658
 20
-151.3568250489663
 30
0.0
 10
127.9422335834658
 20
-151.3568250489663
 30
0.0
 10
127.9188069341661
 20
-151.3378770237975
 30
0.0
 10
127.9060600808707
 20
-151.3292642850843
 30
0.0
 10
127.7940944776001
 20
-151.2445149361472
 30
0.0
 10
127.745518631258
 20
-151.2066188858094
 30
0.0
 10
127.6862629889118
 20
-151.1704453832143
 30
0.0
 10
127.6056477545569
 20
-151.1260036514546
 30
0.0
 10
127.3941188917626
 20
-151.3123833172066
 30
0.0
 10
127.1891357103902
 20
-151.3354654569578
 30
0.0
 10
126.8990586705322
 20
-151.3650932781309
 30
0.0
 10
126.8990586705322
 20
-151.3650932781309
 30
0.0
 10
126.7953612964261
 20
-151.1852592938009
 30
0.0
 10
126.7953612964261
 20
-151.1852592938009
 30
0.0
 10
127.1129991001662
 20
-151.1811251792186
 30
0.0
 10
127.2883544603654
 20
-151.1556314726277
 30
0.0
 10
127.4406276808134
 20
-151.0457329266483
 30
0.0
 10
127.3221163961208
 20
-150.9950900230151
 30
0.0
 10
127.2335774421499
 20
-150.9675292591331
 30
0.0
 10
127.1974039395548
 20
-150.9547824058377
 30
0.0
 10
127.1784559143859
 20
-150.9823431697197
 30
0.0
 10
127.1636420037993
 20
-151.0012911948886
 30
0.0
 10
127.1360812399173
 20
-151.035053130644
 30
0.0
 10
127.1360812399173
 20
-151.035053130644
 30
0.0
 10
126.9393662877096
 20
-150.9527153485465
 30
0.0
 10
126.9393662877096
 20
-150.9527153485465
 30
0.0
 10
127.0220485793556
 20
-150.8724446237402
 30
0.0
 10
127.083371278993
 20
-150.7770154787988
 30
0.0
 10
127.1402153544997
 20
-150.6757296715324
 30
0.0
 10
126.9500460837139
 20
-150.6798637861147
 30
0.0
 10
126.9286864917053
 20
-150.6798637861147
 30
0.0
 10
126.8463487096078
 20
-150.683997900697
 30
0.0
 10
126.8463487096078
 20
-150.683997900697
 30
0.0
 10
126.8463487096078
 20
-150.5062309736582
 30
0.0
 10
126.8463487096078
 20
-150.5062309736582
 30
0.0
 10
126.9858750767605
 20
-150.5127766550801
 30
0.0
 10
127.1953368822636
 20
-150.5169107696624
 30
0.0
 10
127.2208305888545
 20
-150.5169107696624
 30
0.0
 10
127.2377115567322
 20
-150.483148833907
 30
0.0
 10
127.2928330844962
 20
-150.3625704919232
 30
0.0
 10
127.3117811096651
 20
-150.2885009389903
 30
0.0
 10
127.2928330844962
 20
-150.2885009389903
 30
0.0
 10
127.1150661574573
 20
-150.2947021108638
 30
0.0
 10
126.9204182625407
 20
-150.3074489641592
 30
0.0
 10
126.9204182625407
 20
-150.3074489641592
 30
0.0
 10
126.9204182625407
 20
-150.4407741594384
 30
0.0
 10
126.9204182625407
 20
-150.4407741594384
 30
0.0
 10
126.8718424161987
 20
-150.4662678660293
 30
0.0
 10
126.8125867738524
 20
-150.4979627444936
 30
0.0
 10
126.6792615785732
 20
-150.5634195587133
 30
0.0
 10
126.6792615785732
 20
-150.5634195587133
 30
0.0
 10
126.6792615785732
 20
-150.7094916072879
 30
0.0
 10
126.6792615785732
 20
-150.7094916072879
 30
0.0
 10
126.6792615785732
 20
-150.7094916072879
 30
0.0
 10
126.6792615785732
 20
-151.1769910646363
 30
0.0
 10
126.6792615785732
 20
-151.1769910646363
 30
0.0
 10
126.6792615785732
 20
-151.3037705784935
 30
0.0
 10
126.6430880759781
 20
-151.3630262208398
 30
0.0
 10
126.359556717542
 20
-151.3547579916752
 30
0.0
 10
126.359556717542
 20
-151.3547579916752
 30
0.0
 10
126.2562038529845
 20
-151.1473632434631
 30
0.0
 10
126.2562038529845
 20
-151.1473632434631
 30
0.0
 10
126.3195936099132
 20
-151.1601100967586
 30
0.0
 10
126.3681694562552
 20
-151.1642442113409
 30
0.0
 10
126.4084770734326
 20
-151.1642442113409
 30
0.0
 10
126.4846136836566
 20
-151.1642442113409
 30
0.0
 10
126.4949489701123
 20
-151.1408175620412
 30
0.0
 10
126.4949489701123
 20
-151.0753607478214
 30
0.0
 10
126.4949489701123
 20
-151.0753607478214
 30
0.0
 10
126.4949489701123
 20
-150.6461018503593
 30
0.0
 10
126.4949489701123
 20
-150.6461018503593
 30
0.0
 10
126.3977972774283
 20
-150.6860649579882
 30
0.0
 10
126.3809163095506
 20
-150.6926106394102
 30
0.0
 10
126.3344075204997
 20
-150.711558664579
 30
0.0
 10
126.3302734059174
 20
-150.7325737470391
 30
0.0
 10
126.3257947817866
 20
-150.7622015682122
 30
0.0
 10
126.3068467566177
 20
-150.7622015682122
 30
0.0
 10
126.2982340179046
 20
-150.7622015682122
 30
0.0
 10
126.2878987314488
 20
-150.7580674536299
 30
0.0
 10
126.2813530500269
 20
-150.7346408043302
 30
0.0
 10
126.2813530500269
 20
-150.7346408043302
 30
0.0
 10
126.2286430891025
 20
-150.5424044762533
 30
0.0
 10
126.2286430891025
 20
-150.5424044762533
 30
0.0
 10
126.3743706281286
 20
-150.4958956872024
 30
0.0
 10
126.4401719518969
 20
-150.4724690379027
 30
0.0
 10
126.4949489701123
 20
-150.4514539554427
 30
0.0
 10
126.4949489701123
 20
-150.4514539554427
 30
0.0
 10
126.4949489701123
 20
-150.0387315163098
 30
0.0
 10
126.4949489701123
 20
-150.0387315163098
 30
0.0
 10
126.4949489701123
 20
-150.0387315163098
 30
0.0
 10
126.442239009188
 20
-150.0387315163098
 30
0.0
 10
126.442239009188
 20
-150.0387315163098
 30
0.0
 10
126.442239009188
 20
-150.0387315163098
 30
0.0
 10
126.3640353416729
 20
-150.0387315163098
 30
0.0
 10
126.3640353416729
 20
-150.0387315163098
 30
0.0
 10
126.2961669606134
 20
-150.0387315163098
 30
0.0
 10
126.2878987314488
 20
-150.0387315163098
 30
0.0
 10
126.2517252288537
 20
-150.0452771977317
 30
0.0
 10
126.2517252288537
 20
-150.0452771977317
 30
0.0
 10
126.2517252288537
 20
-149.8506293028151
 30
0.0
 10
126.2517252288537
 20
-149.8506293028151
 30
0.0
 10
126.2792859927357
 20
-149.8568304746885
 30
0.0
 10
126.2878987314488
 20
-149.8568304746885
 30
0.0
 10
126.3574896602509
 20
-149.8568304746885
 30
0.0
 10
126.3574896602509
 20
-149.8568304746885
 30
0.0
 10
126.4908148555301
 20
-149.8568304746885
 30
0.0
 10
126.4908148555301
 20
-149.8568304746885
 30
0.0
 10
126.4908148555301
 20
-149.786895036338
 30
0.0
 10
126.4908148555301
 20
-149.7045572542405
 30
0.0
 10
126.4887477982389
 20
-149.7004231396582
 30
0.0
 10
126.4804795690743
 20
-149.5205891553282
 30
0.0
 10
126.4804795690743
 20
-149.5012966206108
 30
0.0
 10
126.4780680022346
 20
-149.4547878315599
 30
0.0
 10
126.4780680022346
 20
-149.4547878315599
 30
0.0
 10
126.6940754891598
 20
-149.463400570273
 30
0.0
 10
126.6940754891598
 20
-149.463400570273
 30
0.0
 10
126.7044107756156
 20
-149.463400570273
 30
0.0
 10
126.7257703676241
 20
-149.4654676275642
 30
0.0
 10
126.7257703676241
 20
-149.4823485954419
 30
0.0
 10
126.7257703676241
 20
-149.5012966206108
 30
0.0
 10
126.7109564570375
 20
-149.511976416615
 30
0.0
 10
126.6854627504467
 20
-149.5309244417839
 30
0.0
 10
126.6854627504467
 20
-149.5819118549656
 30
0.0
 10
126.6792615785732
 20
-149.8103216856377
 30
0.0
 10
126.6813286358644
 20
-149.8568304746885
 30
0.0
 10
126.8101752070127
 20
-149.8568304746885
 30
0.0
 10
126.8229220603081
 20
-149.8568304746885
 30
0.0
 10
126.9204182625407
 20
-149.8485622455239
 30
0.0
 10
126.9204182625407
 20
-149.8485622455239
 30
0.0
 10
126.9204182625407
 20
-150.042865630892
 30
0.0
 10
126.9204182625407
 20
-150.042865630892
 30
0.0
 10
126.8821777026544
 20
-150.0407985736009
 30
0.0
 10
126.8146538311435
 20
-150.0366644590186
 30
0.0
 10
126.6792615785732
 20
-150.0387315163098
 30
0.0
 10
126.6792615785732
 20
-150.0387315163098
 30
0.0
 10
126.6792615785732
 20
-150.3773844025098
 30
0.0
 10
126.6792615785732
 20
-150.3773844025098
 30
0.0
 10
126.7340385967887
 20
-150.3539577532101
 30
0.0
 10
126.799839920557
 20
-150.3263969893281
 30
0.0
 10
126.848415766899
 20
-150.3033148495769
 30
0.0
 10
126.848415766899
 20
-150.3033148495769
 30
0.0
 10
126.848415766899
 20
-150.125547922538
 30
0.0
 10
126.848415766899
 20
-150.125547922538
 30
0.0
 10
126.9627929370093
 20
-150.1382947758335
 30
0.0
 10
127.0809597121534
 20
-150.1382947758335
 30
0.0
 10
127.1974039395548
 20
-150.1382947758335
 30
0.0
 10
127.1743217998036
 20
-150.042865630892
 30
0.0
 10
127.1467610359216
 20
-149.9605278487946
 30
0.0
 10
127.083371278993
 20
-149.8272026535154
 30
0.0
 10
127.0389295472333
 20
-149.8292697108066
 30
0.0
 10
126.9562472555873
 20
-149.8337483349374
 30
0.0
 10
126.9183512052496
 20
-149.8358153922285
 30
0.0
 10
126.9183512052496
 20
-149.8358153922285
 30
0.0
 10
126.9183512052496
 20
-149.6559814078985
 30
0.0
 10
126.9183512052496
 20
-149.6559814078985
 30
0.0
 10
127.0430636618156
 20
-149.6642496370631
 30
0.0
 10
127.2163519647237
 20
-149.6687282611939
 30
0.0
 10
127.2990342563697
 20
-149.6687282611939
 30
0.0
 10
127.2990342563697
 20
-149.6687282611939
 30
0.0
 10
127.3813720384671
 20
-149.6687282611939
 30
0.0
 10
127.3813720384671
 20
-149.6687282611939
 30
0.0
 10
127.3813720384671
 20
-149.5057752447416
 30
0.0
 10
127.3813720384671
 20
-149.4950954487373
 30
0.0
 10
127.379304981176
 20
-149.4399739209733
 30
0.0
 10
127.379304981176
 20
-149.4399739209733
 30
0.0
 10
127.6035806972658
 20
-149.4654676275642
 30
0.0
 10
127.6035806972658
 20
-149.4654676275642
 30
0.0
 10
127.6077148118481
 20
-149.4654676275642
 30
0.0
 10
127.6290744038566
 20
-149.4675346848553
 30
0.0
 10
127.6290744038566
 20
-149.484415652733
 30
0.0
 10
127.6290744038566
 20
-149.4992295633196
 30
0.0
 10
127.6183946078523
 20
-149.5078423020328
 30
0.0
 10
127.5908338439703
 20
-149.5226562126193
 30
0.0
 10
127.5846326720969
 20
-149.5881130268391
 30
0.0
 10
127.5825656148057
 20
-149.6094726188476
 30
0.0
 10
127.5825656148057
 20
-149.6687282611939
 30
0.0
 10
127.5825656148057
 20
-149.6687282611939
 30
0.0
 10
127.6776502501986
 20
-149.6687282611939
 30
0.0
 10
127.6776502501986
 20
-149.6687282611939
 30
0.0
 10
127.7603325418446
 20
-149.6687282611939
 30
0.0
 10
127.9336208447527
 20
-149.6642496370631
 30
0.0
 10
128.0583333013187
 20
-149.6559814078985
 30
0.0
 10
128.0583333013187
 20
-149.6559814078985
 30
0.0
 10
128.0583333013187
 20
-149.8358153922285
 30
0.0
 10
128.0583333013187
 20
-149.8358153922285
 30
0.0
 10
128.0287054801456
 20
-149.8337483349374
 30
0.0
 10
127.9105387050015
 20
-149.8292697108066
 30
0.0
 10
127.8702310878241
 20
-149.8272026535154
 30
0.0
 10
127.8554171772375
 20
-149.8781900666971
 30
0.0
 10
127.8216552414821
 20
-149.9901556699677
 30
0.0
 10
127.7558539177138
 20
-150.1296820371203
 30
0.0
 10
127.7982285921824
 20
-150.1296820371203
 30
0.0
 10
128.075558778745
 20
-150.1107340119514
 30
0.0
 10
128.1368814783824
 20
-150.1086669546603
 30
0.0
 10
128.1368814783824
 20
-150.1086669546603
 30
0.0
 10
128.1368814783824
 20
-150.2926350535727
 30
0.0
 10
128.1368814783824
 20
-150.2926350535727
 30
0.0
 10
128.1072536572093
 20
-150.2926350535727
 30
0.0
 10
128.0903726893316
 20
-150.2885009389903
 30
0.0
 10
127.9274196728792
 20
-150.2885009389903
 30
0.0
  0
HATCH
  5
144
330
13D
100
AcDbEntity
  8
レイヤー 1
 62
    18
420
        0
440
 33554687
100
AcDbHatch
 10
0.0
 20
0.0
 30
0.0
210
0.0
220
0.0
230
1.0
  2
SOLID
 70
     1
 71
     1
 91
        3
 92
        1
 93
        1
 72
     4
 94
        3
 73
     0
 74
     0
 95
       17
 96
       13
 40
0.0
 40
0.0
 40
0.0
 40
0.0
 40
1.0
 40
1.0
 40
1.0
 40
2.0
 40
2.0
 40
2.0
 40
3.0
 40
3.0
 40
3.0
 40
4.0
 40
4.0
 40
4.0
 40
4.0
 10
127.3624240132983
 20
-150.6733181046928
 10
127.3455430454205
 20
-150.7029459258659
 10
127.2949001417874
 20
-150.7963080135162
 10
127.2842203457831
 20
-150.8152560386851
 10
127.4747341261174
 20
-150.8745116810314
 10
127.4957492085774
 20
-150.8807128529048
 10
127.5677517042192
 20
-150.9082736167868
 10
127.6225287224346
 20
-150.8214572105585
 10
127.6459553717343
 20
-150.7473876576256
 10
127.6607692823209
 20
-150.6733181046928
 10
127.6607692823209
 20
-150.6733181046928
 10
127.3624240132983
 20
-150.6733181046928
 10
127.3624240132983
 20
-150.6733181046928
 97
        0
 97
        1
330
141
 92
        1
 93
        1
 72
     4
 94
        3
 73
     0
 74
     0
 95
       20
 96
       16
 40
0.0
 40
0.0
 40
0.0
 40
0.0
 40
1.0
 40
1.0
 40
1.0
 40
2.0
 40
2.0
 40
2.0
 40
3.0
 40
3.0
 40
3.0
 40
4.0
 40
4.0
 40
4.0
 40
5.0
 40
5.0
 40
5.0
 40
5.0
 10
127.2990342563697
 20
-149.8230685389331
 10
127.2990342563697
 20
-149.8230685389331
 10
127.2673393779054
 20
-149.8230685389331
 10
127.2673393779054
 20
-149.8230685389331
 10
127.3138481669562
 20
-149.9222872889083
 10
127.3455430454205
 20
-150.0029025232632
 10
127.379304981176
 20
-150.1296820371203
 10
127.379304981176
 20
-150.1296820371203
 10
127.586699729388
 20
-150.1296820371203
 10
127.586699729388
 20
-150.1296820371203
 10
127.6183946078523
 20
-150.0366644590186
 10
127.641821257152
 20
-149.9519151100814
 10
127.6649033969032
 20
-149.8230685389331
 10
127.6649033969032
 20
-149.8230685389331
 10
127.2990342563697
 20
-149.8230685389331
 10
127.2990342563697
 20
-149.8230685389331
 97
        0
 97
        1
330
142
 92
        1
 93
        1
 72
     4
 94
        3
 73
     0
 74
     0
 95
      242
 96
      238
 40
0.0
 40
0.0
 40
0.0
 40
0.0
 40
1.0
 40
1.0
 40
1.0
 40
2.0
 40
2.0
 40
2.0
 40
3.0
 40
3.0
 40
3.0
 40
4.0
 40
4.0
 40
4.0
 40
5.0
 40
5.0
 40
5.0
 40
6.0
 40
6.0
 40
6.0
 40
7.0
 40
7.0
 40
7.0
 40
8.0
 40
8.0
 40
8.0
 40
9.0
 40
9.0
 40
9.0
 40
10.0
 40
10.0
 40
10.0
 40
11.0
 40
11.0
 40
11.0
 40
12.0
 40
12.0
 40
12.0
 40
13.0
 40
13.0
 40
13.0
 40
14.0
 40
14.0
 40
14.0
 40
15.0
 40
15.0
 40
15.0
 40
16.0
 40
16.0
 40
16.0
 40
17.0
 40
17.0
 40
17.0
 40
18.0
 40
18.0
 40
18.0
 40
19.0
 40
19.0
 40
19.0
 40
20.0
 40
20.0
 40
20.0
 40
21.0
 40
21.0
 40
21.0
 40
22.0
 40
22.0
 40
22.0
 40
23.0
 40
23.0
 40
23.0
 40
24.0
 40
24.0
 40
24.0
 40
25.0
 40
25.0
 40
25.0
 40
26.0
 40
26.0
 40
26.0
 40
27.0
 40
27.0
 40
27.0
 40
28.0
 40
28.0
 40
28.0
 40
29.0
 40
29.0
 40
29.0
 40
30.0
 40
30.0
 40
30.0
 40
31.0
 40
31.0
 40
31.0
 40
32.0
 40
32.0
 40
32.0
 40
33.0
 40
33.0
 40
33.0
 40
34.0
 40
34.0
 40
34.0
 40
35.0
 40
35.0
 40
35.0
 40
36.0
 40
36.0
 40
36.0
 40
37.0
 40
37.0
 40
37.0
 40
38.0
 40
38.0
 40
38.0
 40
39.0
 40
39.0
 40
39.0
 40
40.0
 40
40.0
 40
40.0
 40
41.0
 40
41.0
 40
41.0
 40
42.0
 40
42.0
 40
42.0
 40
43.0
 40
43.0
 40
43.0
 40
44.0
 40
44.0
 40
44.0
 40
45.0
 40
45.0
 40
45.0
 40
46.0
 40
46.0
 40
46.0
 40
47.0
 40
47.0
 40
47.0
 40
48.0
 40
48.0
 40
48.0
 40
49.0
 40
49.0
 40
49.0
 40
50.0
 40
50.0
 40
50.0
 40
51.0
 40
51.0
 40
51.0
 40
52.0
 40
52.0
 40
52.0
 40
53.0
 40
53.0
 40
53.0
 40
54.0
 40
54.0
 40
54.0
 40
55.0
 40
55.0
 40
55.0
 40
56.0
 40
56.0
 40
56.0
 40
57.0
 40
57.0
 40
57.0
 40
58.0
 40
58.0
 40
58.0
 40
59.0
 40
59.0
 40
59.0
 40
60.0
 40
60.0
 40
60.0
 40
61.0
 40
61.0
 40
61.0
 40
62.0
 40
62.0
 40
62.0
 40
63.0
 40
63.0
 40
63.0
 40
64.0
 40
64.0
 40
64.0
 40
65.0
 40
65.0
 40
65.0
 40
66.0
 40
66.0
 40
66.0
 40
67.0
 40
67.0
 40
67.0
 40
68.0
 40
68.0
 40
68.0
 40
69.0
 40
69.0
 40
69.0
 40
70.0
 40
70.0
 40
70.0
 40
71.0
 40
71.0
 40
71.0
 40
72.0
 40
72.0
 40
72.0
 40
73.0
 40
73.0
 40
73.0
 40
74.0
 40
74.0
 40
74.0
 40
75.0
 40
75.0
 40
75.0
 40
76.0
 40
76.0
 40
76.0
 40
77.0
 40
77.0
 40
77.0
 40
78.0
 40
78.0
 40
78.0
 40
79.0
 40
79.0
 40
79.0
 40
79.0
 10
127.9274196728792
 20
-150.2885009389903
 10
127.9274196728792
 20
-150.2885009389903
 10
127.6735161356163
 20
-150.2885009389903
 10
127.6735161356163
 20
-150.2885009389903
 10
127.6735161356163
 20
-150.2885009389903
 10
127.3961859490537
 20
-150.2885009389903
 10
127.3961859490537
 20
-150.2885009389903
 10
127.3961859490537
 20
-150.2885009389903
 10
127.5233099724594
 20
-150.3308756134589
 10
127.5233099724594
 20
-150.3308756134589
 10
127.5339897684637
 20
-150.3350097280412
 10
127.5463921122106
 20
-150.3412108999147
 10
127.5463921122106
 20
-150.3539577532101
 10
127.5463921122106
 20
-150.3753173452187
 10
127.5146972337463
 20
-150.3815185170921
 10
127.4936821512863
 20
-150.3856526316744
 10
127.483002355282
 20
-150.4090792809741
 10
127.4533745341089
 20
-150.4745360951939
 10
127.43442650894
 20
-150.5189778269536
 10
127.43442650894
 20
-150.5189778269536
 10
127.7052110140806
 20
-150.5189778269536
 10
127.7052110140806
 20
-150.5189778269536
 10
127.7961615348912
 20
-150.5189778269536
 10
127.992876487099
 20
-150.5148437123713
 10
128.1344699115427
 20
-150.5062309736582
 10
128.1344699115427
 20
-150.5062309736582
 10
128.1344699115427
 20
-150.683997900697
 10
128.1344699115427
 20
-150.683997900697
 10
128.0521321294453
 20
-150.6798637861147
 10
128.0311170469853
 20
-150.6798637861147
 10
127.8512830626552
 20
-150.6757296715324
 10
127.8195881841909
 20
-150.8300699492716
 10
127.7751464524312
 20
-150.910340674078
 10
127.7307047206715
 20
-150.9802761124285
 10
127.8512830626552
 20
-151.0395317547748
 10
127.9570474940524
 20
-151.1070556262857
 10
128.0607448681584
 20
-151.1897379179317
 10
128.0607448681584
 20
-151.1897379179317
 10
127.9422335834658
 20
-151.3568250489663
 10
127.9422335834658
 20
-151.3568250489663
 10
127.9188069341661
 20
-151.3378770237975
 10
127.9060600808707
 20
-151.3292642850843
 10
127.7940944776001
 20
-151.2445149361472
 10
127.745518631258
 20
-151.2066188858094
 10
127.6862629889118
 20
-151.1704453832143
 10
127.6056477545569
 20
-151.1260036514546
 10
127.3941188917626
 20
-151.3123833172066
 10
127.1891357103902
 20
-151.3354654569578
 10
126.8990586705322
 20
-151.3650932781309
 10
126.8990586705322
 20
-151.3650932781309
 10
126.7953612964261
 20
-151.1852592938009
 10
126.7953612964261
 20
-151.1852592938009
 10
127.1129991001662
 20
-151.1811251792186
 10
127.2883544603654
 20
-151.1556314726277
 10
127.4406276808134
 20
-151.0457329266483
 10
127.3221163961208
 20
-150.9950900230151
 10
127.2335774421499
 20
-150.9675292591331
 10
127.1974039395548
 20
-150.9547824058377
 10
127.1784559143859
 20
-150.9823431697197
 10
127.1636420037993
 20
-151.0012911948886
 10
127.1360812399173
 20
-151.035053130644
 10
127.1360812399173
 20
-151.035053130644
 10
126.9393662877096
 20
-150.9527153485465
 10
126.9393662877096
 20
-150.9527153485465
 10
127.0220485793556
 20
-150.8724446237402
 10
127.083371278993
 20
-150.7770154787988
 10
127.1402153544997
 20
-150.6757296715324
 10
126.9500460837139
 20
-150.6798637861147
 10
126.9286864917053
 20
-150.6798637861147
 10
126.8463487096078
 20
-150.683997900697
 10
126.8463487096078
 20
-150.683997900697
 10
126.8463487096078
 20
-150.5062309736582
 10
126.8463487096078
 20
-150.5062309736582
 10
126.9858750767605
 20
-150.5127766550801
 10
127.1953368822636
 20
-150.5169107696624
 10
127.2208305888545
 20
-150.5169107696624
 10
127.2377115567322
 20
-150.483148833907
 10
127.2928330844962
 20
-150.3625704919232
 10
127.3117811096651
 20
-150.2885009389903
 10
127.2928330844962
 20
-150.2885009389903
 10
127.1150661574573
 20
-150.2947021108638
 10
126.9204182625407
 20
-150.3074489641592
 10
126.9204182625407
 20
-150.3074489641592
 10
126.9204182625407
 20
-150.4407741594384
 10
126.9204182625407
 20
-150.4407741594384
 10
126.8718424161987
 20
-150.4662678660293
 10
126.8125867738524
 20
-150.4979627444936
 10
126.6792615785732
 20
-150.5634195587133
 10
126.6792615785732
 20
-150.5634195587133
 10
126.6792615785732
 20
-150.7094916072879
 10
126.6792615785732
 20
-150.7094916072879
 10
126.6792615785732
 20
-150.7094916072879
 10
126.6792615785732
 20
-151.1769910646363
 10
126.6792615785732
 20
-151.1769910646363
 10
126.6792615785732
 20
-151.3037705784935
 10
126.6430880759781
 20
-151.3630262208398
 10
126.359556717542
 20
-151.3547579916752
 10
126.359556717542
 20
-151.3547579916752
 10
126.2562038529845
 20
-151.1473632434631
 10
126.2562038529845
 20
-151.1473632434631
 10
126.3195936099132
 20
-151.1601100967586
 10
126.3681694562552
 20
-151.1642442113409
 10
126.4084770734326
 20
-151.1642442113409
 10
126.4846136836566
 20
-151.1642442113409
 10
126.4949489701123
 20
-151.1408175620412
 10
126.4949489701123
 20
-151.0753607478214
 10
126.4949489701123
 20
-151.0753607478214
 10
126.4949489701123
 20
-150.6461018503593
 10
126.4949489701123
 20
-150.6461018503593
 10
126.3977972774283
 20
-150.6860649579882
 10
126.3809163095506
 20
-150.6926106394102
 10
126.3344075204997
 20
-150.711558664579
 10
126.3302734059174
 20
-150.7325737470391
 10
126.3257947817866
 20
-150.7622015682122
 10
126.3068467566177
 20
-150.7622015682122
 10
126.2982340179046
 20
-150.7622015682122
 10
126.2878987314488
 20
-150.7580674536299
 10
126.2813530500269
 20
-150.7346408043302
 10
126.2813530500269
 20
-150.7346408043302
 10
126.2286430891025
 20
-150.5424044762533
 10
126.2286430891025
 20
-150.5424044762533
 10
126.3743706281286
 20
-150.4958956872024
 10
126.4401719518969
 20
-150.4724690379027
 10
126.4949489701123
 20
-150.4514539554427
 10
126.4949489701123
 20
-150.4514539554427
 10
126.4949489701123
 20
-150.0387315163098
 10
126.4949489701123
 20
-150.0387315163098
 10
126.4949489701123
 20
-150.0387315163098
 10
126.442239009188
 20
-150.0387315163098
 10
126.442239009188
 20
-150.0387315163098
 10
126.442239009188
 20
-150.0387315163098
 10
126.3640353416729
 20
-150.0387315163098
 10
126.3640353416729
 20
-150.0387315163098
 10
126.2961669606134
 20
-150.0387315163098
 10
126.2878987314488
 20
-150.0387315163098
 10
126.2517252288537
 20
-150.0452771977317
 10
126.2517252288537
 20
-150.0452771977317
 10
126.2517252288537
 20
-149.8506293028151
 10
126.2517252288537
 20
-149.8506293028151
 10
126.2792859927357
 20
-149.8568304746885
 10
126.2878987314488
 20
-149.8568304746885
 10
126.3574896602509
 20
-149.8568304746885
 10
126.3574896602509
 20
-149.8568304746885
 10
126.4908148555301
 20
-149.8568304746885
 10
126.4908148555301
 20
-149.8568304746885
 10
126.4908148555301
 20
-149.786895036338
 10
126.4908148555301
 20
-149.7045572542405
 10
126.4887477982389
 20
-149.7004231396582
 10
126.4804795690743
 20
-149.5205891553282
 10
126.4804795690743
 20
-149.5012966206108
 10
126.4780680022346
 20
-149.4547878315599
 10
126.4780680022346
 20
-149.4547878315599
 10
126.6940754891598
 20
-149.463400570273
 10
126.6940754891598
 20
-149.463400570273
 10
126.7044107756156
 20
-149.463400570273
 10
126.7257703676241
 20
-149.4654676275642
 10
126.7257703676241
 20
-149.4823485954419
 10
126.7257703676241
 20
-149.5012966206108
 10
126.7109564570375
 20
-149.511976416615
 10
126.6854627504467
 20
-149.5309244417839
 10
126.6854627504467
 20
-149.5819118549656
 10
126.6792615785732
 20
-149.8103216856377
 10
126.6813286358644
 20
-149.8568304746885
 10
126.8101752070127
 20
-149.8568304746885
 10
126.8229220603081
 20
-149.8568304746885
 10
126.9204182625407
 20
-149.8485622455239
 10
126.9204182625407
 20
-149.8485622455239
 10
126.9204182625407
 20
-150.042865630892
 10
126.9204182625407
 20
-150.042865630892
 10
126.8821777026544
 20
-150.0407985736009
 10
126.8146538311435
 20
-150.0366644590186
 10
126.6792615785732
 20
-150.0387315163098
 10
126.6792615785732
 20
-150.0387315163098
 10
126.6792615785732
 20
-150.3773844025098
 10
126.6792615785732
 20
-150.3773844025098
 10
126.7340385967887
 20
-150.3539577532101
 10
126.799839920557
 20
-150.3263969893281
 10
126.848415766899
 20
-150.3033148495769
 10
126.848415766899
 20
-150.3033148495769
 10
126.848415766899
 20
-150.125547922538
 10
126.848415766899
 20
-150.125547922538
 10
126.9627929370093
 20
-150.1382947758335
 10
127.0809597121534
 20
-150.1382947758335
 10
127.1974039395548
 20
-150.1382947758335
 10
127.1743217998036
 20
-150.042865630892
 10
127.1467610359216
 20
-149.9605278487946
 10
127.083371278993
 20
-149.8272026535154
 10
127.0389295472333
 20
-149.8292697108066
 10
126.9562472555873
 20
-149.8337483349374
 10
126.9183512052496
 20
-149.8358153922285
 10
126.9183512052496
 20
-149.8358153922285
 10
126.9183512052496
 20
-149.6559814078985
 10
126.9183512052496
 20
-149.6559814078985
 10
127.0430636618156
 20
-149.6642496370631
 10
127.2163519647237
 20
-149.6687282611939
 10
127.2990342563697
 20
-149.6687282611939
 10
127.2990342563697
 20
-149.6687282611939
 10
127.3813720384671
 20
-149.6687282611939
 10
127.3813720384671
 20
-149.6687282611939
 10
127.3813720384671
 20
-149.5057752447416
 10
127.3813720384671
 20
-149.4950954487373
 10
127.379304981176
 20
-149.4399739209733
 10
127.379304981176
 20
-149.4399739209733
 10
127.6035806972658
 20
-149.4654676275642
 10
127.6035806972658
 20
-149.4654676275642
 10
127.6077148118481
 20
-149.4654676275642
 10
127.6290744038566
 20
-149.4675346848553
 10
127.6290744038566
 20
-149.484415652733
 10
127.6290744038566
 20
-149.4992295633196
 10
127.6183946078523
 20
-149.5078423020328
 10
127.5908338439703
 20
-149.5226562126193
 10
127.5846326720969
 20
-149.5881130268391
 10
127.5825656148057
 20
-149.6094726188476
 10
127.5825656148057
 20
-149.6687282611939
 10
127.5825656148057
 20
-149.6687282611939
 10
127.6776502501986
 20
-149.6687282611939
 10
127.6776502501986
 20
-149.6687282611939
 10
127.7603325418446
 20
-149.6687282611939
 10
127.9336208447527
 20
-149.6642496370631
 10
128.0583333013187
 20
-149.6559814078985
 10
128.0583333013187
 20
-149.6559814078985
 10
128.0583333013187
 20
-149.8358153922285
 10
128.0583333013187
 20
-149.8358153922285
 10
128.0287054801456
 20
-149.8337483349374
 10
127.9105387050015
 20
-149.8292697108066
 10
127.8702310878241
 20
-149.8272026535154
 10
127.8554171772375
 20
-149.8781900666971
 10
127.8216552414821
 20
-149.9901556699677
 10
127.7558539177138
 20
-150.1296820371203
 10
127.7982285921824
 20
-150.1296820371203
 10
128.075558778745
 20
-150.1107340119514
 10
128.1368814783824
 20
-150.1086669546603
 10
128.1368814783824
 20
-150.1086669546603
 10
128.1368814783824
 20
-150.2926350535727
 10
128.1368814783824
 20
-150.2926350535727
 10
128.1072536572093
 20
-150.2926350535727
 10
128.0903726893316
 20
-150.2885009389903
 10
127.9274196728792
 20
-150.2885009389903
 97
        0
 97
        1
330
143
 75
     2
 76
     1
 98
        1
 10
0.0
 20
0.0
450
        0
451
        0
460
0.0
461
0.0
452
        0
462
0.0
453
        0
470

  0
SPLINE
  5
145
330
13D
100
AcDbEntity
  8
レイヤー 1
100
AcDbSpline
210
0.0
220
0.0
230
1.0
 70
    11
 71
     3
 72
    17
 73
    13
 74
     0
 42
0.0000000001
 43
0.0000000001
 40
0.0
 40
0.0
 40
0.0
 40
0.0
 40
1.0
 40
1.0
 40
1.0
 40
2.0
 40
2.0
 40
2.0
 40
3.0
 40
3.0
 40
3.0
 40
4.0
 40
4.0
 40
4.0
 40
4.0
 10
129.7836371203318
 20
-151.0881076011168
 30
0.0
 10
129.7836371203318
 20
-151.0881076011168
 30
0.0
 10
129.0770480363071
 20
-151.0881076011168
 30
0.0
 10
129.0770480363071
 20
-151.0881076011168
 30
0.0
 10
129.0770480363071
 20
-151.0881076011168
 30
0.0
 10
129.0770480363071
 20
-151.2024847712272
 30
0.0
 10
129.0770480363071
 20
-151.2024847712272
 30
0.0
 10
129.0770480363071
 20
-151.2024847712272
 30
0.0
 10
129.7836371203318
 20
-151.2024847712272
 30
0.0
 10
129.7836371203318
 20
-151.2024847712272
 30
0.0
 10
129.7836371203318
 20
-151.2024847712272
 30
0.0
 10
129.7836371203318
 20
-151.0881076011168
 30
0.0
 10
129.7836371203318
 20
-151.0881076011168
 30
0.0
  0
SPLINE
  5
146
330
13D
100
AcDbEntity
  8
レイヤー 1
100
AcDbSpline
210
0.0
220
0.0
230
1.0
 70
    11
 71
     3
 72
    17
 73
    13
 74
     0
 42
0.0000000001
 43
0.0000000001
 40
0.0
 40
0.0
 40
0.0
 40
0.0
 40
1.0
 40
1.0
 40
1.0
 40
2.0
 40
2.0
 40
2.0
 40
3.0
 40
3.0
 40
3.0
 40
4.0
 40
4.0
 40
4.0
 40
4.0
 10
129.7836371203318
 20
-150.8448838598582
 30
0.0
 10
129.7836371203318
 20
-150.8448838598582
 30
0.0
 10
129.0770480363071
 20
-150.8448838598582
 30
0.0
 10
129.0770480363071
 20
-150.8448838598582
 30
0.0
 10
129.0770480363071
 20
-150.8448838598582
 30
0.0
 10
129.0770480363071
 20
-150.95891652042
 30
0.0
 10
129.0770480363071
 20
-150.95891652042
 30
0.0
 10
129.0770480363071
 20
-150.95891652042
 30
0.0
 10
129.7836371203318
 20
-150.95891652042
 30
0.0
 10
129.7836371203318
 20
-150.95891652042
 30
0.0
 10
129.7836371203318
 20
-150.95891652042
 30
0.0
 10
129.7836371203318
 20
-150.8448838598582
 30
0.0
 10
129.7836371203318
 20
-150.8448838598582
 30
0.0
  0
SPLINE
  5
147
330
13D
100
AcDbEntity
  8
レイヤー 1
100
AcDbSpline
210
0.0
220
0.0
230
1.0
 70
    11
 71
     3
 72
    17
 73
    13
 74
     0
 42
0.0000000001
 43
0.0000000001
 40
0.0
 40
0.0
 40
0.0
 40
0.0
 40
1.0
 40
1.0
 40
1.0
 40
2.0
 40
2.0
 40
2.0
 40
3.0
 40
3.0
 40
3.0
 40
4.0
 40
4.0
 40
4.0
 40
4.0
 10
129.7836371203318
 20
-150.6119954050553
 30
0.0
 10
129.7836371203318
 20
-150.6119954050553
 30
0.0
 10
129.0770480363071
 20
-150.6119954050553
 30
0.0
 10
129.0770480363071
 20
-150.6119954050553
 30
0.0
 10
129.0770480363071
 20
-150.6119954050553
 30
0.0
 10
129.0770480363071
 20
-150.7198268937436
 30
0.0
 10
129.0770480363071
 20
-150.7198268937436
 30
0.0
 10
129.0770480363071
 20
-150.7198268937436
 30
0.0
 10
129.7836371203318
 20
-150.7198268937436
 30
0.0
 10
129.7836371203318
 20
-150.7198268937436
 30
0.0
 10
129.7836371203318
 20
-150.7198268937436
 30
0.0
 10
129.7836371203318
 20
-150.6119954050553
 30
0.0
 10
129.7836371203318
 20
-150.6119954050553
 30
0.0
  0
SPLINE
  5
148
330
13D
100
AcDbEntity
  8
レイヤー 1
100
AcDbSpline
210
0.0
220
0.0
230
1.0
 70
     9
 71
     3
 72
   203
 73
   199
 74
     0
 42
0.0000000001
 43
0.0000000001
 40
0.0
 40
0.0
 40
0.0
 40
0.0
 40
1.0
 40
1.0
 40
1.0
 40
2.0
 40
2.0
 40
2.0
 40
3.0
 40
3.0
 40
3.0
 40
4.0
 40
4.0
 40
4.0
 40
5.0
 40
5.0
 40
5.0
 40
6.0
 40
6.0
 40
6.0
 40
7.0
 40
7.0
 40
7.0
 40
8.0
 40
8.0
 40
8.0
 40
9.0
 40
9.0
 40
9.0
 40
10.0
 40
10.0
 40
10.0
 40
11.0
 40
11.0
 40
11.0
 40
12.0
 40
12.0
 40
12.0
 40
13.0
 40
13.0
 40
13.0
 40
14.0
 40
14.0
 40
14.0
 40
15.0
 40
15.0
 40
15.0
 40
16.0
 40
16.0
 40
16.0
 40
17.0
 40
17.0
 40
17.0
 40
18.0
 40
18.0
 40
18.0
 40
19.0
 40
19.0
 40
19.0
 40
20.0
 40
20.0
 40
20.0
 40
21.0
 40
21.0
 40
21.0
 40
22.0
 40
22.0
 40
22.0
 40
23.0
 40
23.0
 40
23.0
 40
24.0
 40
24.0
 40
24.0
 40
25.0
 40
25.0
 40
25.0
 40
26.0
 40
26.0
 40
26.0
 40
27.0
 40
27.0
 40
27.0
 40
28.0
 40
28.0
 40
28.0
 40
29.0
 40
29.0
 40
29.0
 40
30.0
 40
30.0
 40
30.0
 40
31.0
 40
31.0
 40
31.0
 40
32.0
 40
32.0
 40
32.0
 40
33.0
 40
33.0
 40
33.0
 40
34.0
 40
34.0
 40
34.0
 40
35.0
 40
35.0
 40
35.0
 40
36.0
 40
36.0
 40
36.0
 40
37.0
 40
37.0
 40
37.0
 40
38.0
 40
38.0
 40
38.0
 40
39.0
 40
39.0
 40
39.0
 40
40.0
 40
40.0
 40
40.0
 40
41.0
 40
41.0
 40
41.0
 40
42.0
 40
42.0
 40
42.0
 40
43.0
 40
43.0
 40
43.0
 40
44.0
 40
44.0
 40
44.0
 40
45.0
 40
45.0
 40
45.0
 40
46.0
 40
46.0
 40
46.0
 40
47.0
 40
47.0
 40
47.0
 40
48.0
 40
48.0
 40
48.0
 40
49.0
 40
49.0
 40
49.0
 40
50.0
 40
50.0
 40
50.0
 40
51.0
 40
51.0
 40
51.0
 40
52.0
 40
52.0
 40
52.0
 40
53.0
 40
53.0
 40
53.0
 40
54.0
 40
54.0
 40
54.0
 40
55.0
 40
55.0
 40
55.0
 40
56.0
 40
56.0
 40
56.0
 40
57.0
 40
57.0
 40
57.0
 40
58.0
 40
58.0
 40
58.0
 40
59.0
 40
59.0
 40
59.0
 40
60.0
 40
60.0
 40
60.0
 40
61.0
 40
61.0
 40
61.0
 40
62.0
 40
62.0
 40
62.0
 40
63.0
 40
63.0
 40
63.0
 40
64.0
 40
64.0
 40
64.0
 40
65.0
 40
65.0
 40
65.0
 40
66.0
 40
66.0
 40
66.0
 40
66.0
 10
129.6186170465884
 20
-150.3560248105013
 30
0.0
 10
129.6186170465884
 20
-150.3560248105013
 30
0.0
 10
129.0601670684294
 20
-150.3560248105013
 30
0.0
 10
129.0601670684294
 20
-150.3560248105013
 30
0.0
 10
129.0498317819736
 20
-150.400466542261
 30
0.0
 10
129.0412190432605
 20
-150.4321614207253
 30
0.0
 10
129.0284721899651
 20
-150.4704019806115
 30
0.0
 10
129.0539658965559
 20
-150.4704019806115
 30
0.0
 10
129.0687798071425
 20
-150.4724690379027
 30
0.0
 10
129.0749809790159
 20
-150.4724690379027
 30
0.0
 10
129.0749809790159
 20
-150.4724690379027
 30
0.0
 10
129.2634277020591
 20
-150.4724690379027
 30
0.0
 10
129.2634277020591
 20
-150.4724690379027
 30
0.0
 10
129.2634277020591
 20
-150.4724690379027
 30
0.0
 10
129.6379095813058
 20
-150.4724690379027
 30
0.0
 10
129.6379095813058
 20
-150.4724690379027
 30
0.0
 10
129.688552484939
 20
-150.4724690379027
 30
0.0
 10
129.972083843375
 20
-150.4597221846073
 30
0.0
 10
130.0037787218393
 20
-150.4597221846073
 30
0.0
 10
130.0017116645482
 20
-150.4872829484893
 30
0.0
 10
129.999644607257
 20
-150.5062309736582
 30
0.0
 10
129.999644607257
 20
-150.5358587948313
 30
0.0
 10
129.9975775499659
 20
-150.5675536732956
 30
0.0
 10
129.9975775499659
 20
-150.7029459258659
 30
0.0
 10
129.9975775499659
 20
-150.7305066897479
 30
0.0
 10
129.9975775499659
 20
-150.7305066897479
 30
0.0
 10
129.9975775499659
 20
-150.9757974882977
 30
0.0
 10
129.9975775499659
 20
-150.9757974882977
 30
0.0
 10
129.9975775499659
 20
-151.0202392200574
 30
0.0
 10
130.0017116645482
 20
-151.2172986818137
 30
0.0
 10
130.0058457791305
 20
-151.3695719022618
 30
0.0
 10
130.0058457791305
 20
-151.3695719022618
 30
0.0
 10
129.7795030057496
 20
-151.3695719022618
 30
0.0
 10
129.7795030057496
 20
-151.3695719022618
 30
0.0
 10
129.7795030057496
 20
-151.3695719022618
 30
0.0
 10
129.7815700630407
 20
-151.3354654569578
 30
0.0
 10
129.7815700630407
 20
-151.3354654569578
 30
0.0
 10
129.7815700630407
 20
-151.3354654569578
 30
0.0
 10
129.0794596031468
 20
-151.3354654569578
 30
0.0
 10
129.0794596031468
 20
-151.3354654569578
 30
0.0
 10
129.0794596031468
 20
-151.3354654569578
 30
0.0
 10
129.0815266604379
 20
-151.3695719022618
 30
0.0
 10
129.0815266604379
 20
-151.3695719022618
 30
0.0
 10
129.0815266604379
 20
-151.3695719022618
 30
0.0
 10
128.8634521162216
 20
-151.3695719022618
 30
0.0
 10
128.8634521162216
 20
-151.3695719022618
 30
0.0
 10
128.8679307403524
 20
-151.3144503744978
 30
0.0
 10
128.8679307403524
 20
-151.3017035212024
 30
0.0
 10
128.8741319122259
 20
-151.1876708606406
 30
0.0
 10
128.876198969517
 20
-151.1601100967586
 30
0.0
 10
128.8782660268082
 20
-151.0267849014794
 30
0.0
 10
128.8782660268082
 20
-151.0078368763105
 30
0.0
 10
128.8782660268082
 20
-151.0078368763105
 30
0.0
 10
128.8782660268082
 20
-150.8045762426808
 30
0.0
 10
128.8782660268082
 20
-150.8045762426808
 30
0.0
 10
128.7387396596556
 20
-151.0543456653614
 30
0.0
 10
128.5695854713298
 20
-151.1852592938009
 30
0.0
 10
128.4638210399327
 20
-151.2510606175692
 30
0.0
 10
128.4638210399327
 20
-151.2510606175692
 30
0.0
 10
128.2901882274761
 20
-151.111189740868
 30
0.0
 10
128.2901882274761
 20
-151.111189740868
 30
0.0
 10
128.3790716909955
 20
-151.0605468372349
 30
0.0
 10
128.523076682279
 20
-150.9737304310065
 30
0.0
 10
128.6605359921404
 20
-150.7790825360899
 30
0.0
 10
128.751486512951
 20
-150.6523030222327
 30
0.0
 10
128.8169433271707
 20
-150.5082980309493
 30
0.0
 10
128.8507052629262
 20
-150.3560248105013
 30
0.0
 10
128.6222954322541
 20
-150.3580918677924
 30
0.0
 10
128.4424614479241
 20
-150.3646375492144
 30
0.0
 10
128.3473768125312
 20
-150.3667046065055
 30
0.0
 10
128.3473768125312
 20
-150.3667046065055
 30
0.0
 10
128.3473768125312
 20
-150.1889376794666
 30
0.0
 10
128.3473768125312
 20
-150.1889376794666
 30
0.0
 10
128.544091764739
 20
-150.1954833608886
 30
0.0
 10
128.827623123175
 20
-150.1996174754709
 30
0.0
 10
128.9778292863319
 20
-150.1996174754709
 30
0.0
 10
128.9778292863319
 20
-150.1996174754709
 30
0.0
 10
129.1914252064174
 20
-150.1996174754709
 30
0.0
 10
129.1914252064174
 20
-150.1996174754709
 30
0.0
 10
129.1914252064174
 20
-150.1996174754709
 30
0.0
 10
129.1914252064174
 20
-150.0917859867826
 30
0.0
 10
129.1914252064174
 20
-150.0917859867826
 30
0.0
 10
129.1914252064174
 20
-150.0917859867826
 30
0.0
 10
129.0453531578428
 20
-150.0917859867826
 30
0.0
 10
129.0453531578428
 20
-150.0917859867826
 30
0.0
 10
128.876198969517
 20
-150.0917859867826
 30
0.0
 10
128.7070447811913
 20
-150.0959201013649
 30
0.0
 10
128.5399576501567
 20
-150.1021212732383
 30
0.0
 10
128.5399576501567
 20
-150.1021212732383
 30
0.0
 10
128.5399576501567
 20
-149.9309000276214
 30
0.0
 10
128.5399576501567
 20
-149.9309000276214
 30
0.0
 10
128.6942979278959
 20
-149.9415798236257
 30
0.0
 10
128.8803330840993
 20
-149.9415798236257
 30
0.0
 10
129.0453531578428
 20
-149.9415798236257
 30
0.0
 10
129.0453531578428
 20
-149.9415798236257
 30
0.0
 10
129.1914252064174
 20
-149.9415798236257
 30
0.0
 10
129.1914252064174
 20
-149.9415798236257
 30
0.0
 10
129.1914252064174
 20
-149.9415798236257
 30
0.0
 10
129.1914252064174
 20
-149.8230685389331
 30
0.0
 10
129.1914252064174
 20
-149.8230685389331
 30
0.0
 10
129.1914252064174
 20
-149.8230685389331
 30
0.0
 10
129.0601670684294
 20
-149.8230685389331
 30
0.0
 10
129.0601670684294
 20
-149.8230685389331
 30
0.0
 10
129.0136582793785
 20
-149.8230685389331
 30
0.0
 10
128.8107421552973
 20
-149.8313367680977
 30
0.0
 10
128.7683674808287
 20
-149.8313367680977
 30
0.0
 10
128.565106847199
 20
-149.8358153922285
 30
0.0
 10
128.488970236975
 20
-149.8378824495197
 30
0.0
 10
128.4107665694598
 20
-149.8399495068108
 30
0.0
 10
128.4107665694598
 20
-149.8399495068108
 30
0.0
 10
128.4107665694598
 20
-149.6559814078985
 30
0.0
 10
128.4107665694598
 20
-149.6559814078985
 30
0.0
 10
128.5251437395701
 20
-149.6642496370631
 30
0.0
 10
128.5695854713298
 20
-149.6642496370631
 30
0.0
 10
128.9523355797411
 20
-149.6728623757762
 30
0.0
 10
128.8889458228125
 20
-149.5777777403833
 30
0.0
 10
128.8613850589305
 20
-149.5502169765013
 30
0.0
 10
128.8255560658839
 20
-149.5140434739062
 30
0.0
 10
128.8255560658839
 20
-149.5140434739062
 30
0.0
 10
129.0009114260831
 20
-149.4317056918087
 30
0.0
 10
129.0009114260831
 20
-149.4317056918087
 30
0.0
 10
129.0412190432605
 20
-149.4675346848553
 30
0.0
 10
129.0856607750202
 20
-149.5099093593239
 30
0.0
 10
129.1597303279531
 20
-149.6198079053034
 30
0.0
 10
129.1597303279531
 20
-149.6198079053034
 30
0.0
 10
129.0453531578428
 20
-149.6749294330673
 30
0.0
 10
129.0453531578428
 20
-149.6749294330673
 30
0.0
 10
129.0453531578428
 20
-149.6749294330673
 30
0.0
 10
129.0560329538471
 20
-149.6749294330673
 30
0.0
 10
129.0560329538471
 20
-149.6749294330673
 30
0.0
 10
129.0560329538471
 20
-149.6749294330673
 30
0.0
 10
129.5786539389595
 20
-149.6749294330673
 30
0.0
 10
129.5786539389595
 20
-149.6749294330673
 30
0.0
 10
129.5786539389595
 20
-149.6749294330673
 30
0.0
 10
129.4832247940181
 20
-149.6304877013076
 30
0.0
 10
129.4832247940181
 20
-149.6304877013076
 30
0.0
 10
129.5107855579
 20
-149.5925916509699
 30
0.0
 10
129.5679741429552
 20
-149.511976416615
 30
0.0
 10
129.5827880535418
 20
-149.4379068636822
 30
0.0
 10
129.5827880535418
 20
-149.4379068636822
 30
0.0
 10
129.7963839736273
 20
-149.5012966206108
 30
0.0
 10
129.7963839736273
 20
-149.5012966206108
 30
0.0
 10
129.8049967123404
 20
-149.5037081874504
 30
0.0
 10
129.8260117948004
 20
-149.5140434739062
 30
0.0
 10
129.8260117948004
 20
-149.5354030659147
 30
0.0
 10
129.8260117948004
 20
-149.5732991162525
 30
0.0
 10
129.7605549805807
 20
-149.5732991162525
 30
0.0
 10
129.7416069554118
 20
-149.5732991162525
 30
0.0
 10
129.7309271594075
 20
-149.5925916509699
 30
0.0
 10
129.7075005101078
 20
-149.6325547585988
 30
0.0
 10
129.6778726889347
 20
-149.6728623757762
 30
0.0
 10
130.0778482747722
 20
-149.6663166943542
 30
0.0
 10
130.1074760959453
 20
-149.6642496370631
 30
0.0
 10
130.1836127061694
 20
-149.6580484651896
 30
0.0
 10
130.1836127061694
 20
-149.6580484651896
 30
0.0
 10
130.1836127061694
 20
-149.8399495068108
 30
0.0
 10
130.1836127061694
 20
-149.8399495068108
 30
0.0
 10
130.1646646810005
 20
-149.8399495068108
 30
0.0
 10
130.1391709744097
 20
-149.8378824495197
 30
0.0
 10
129.9190293729022
 20
-149.8292697108066
 30
0.0
 10
129.868386469269
 20
-149.8272026535154
 30
0.0
 10
129.6482448677615
 20
-149.8230685389331
 30
0.0
 10
129.6038031360018
 20
-149.8230685389331
 30
0.0
 10
129.6038031360018
 20
-149.8230685389331
 30
0.0
 10
129.3881401586252
 20
-149.8230685389331
 30
0.0
 10
129.3881401586252
 20
-149.8230685389331
 30
0.0
 10
129.3881401586252
 20
-149.8230685389331
 30
0.0
 10
129.3881401586252
 20
-149.9415798236257
 30
0.0
 10
129.3881401586252
 20
-149.9415798236257
 30
0.0
 10
129.3881401586252
 20
-149.9415798236257
 30
0.0
 10
129.5617729710818
 20
-149.9415798236257
 30
0.0
 10
129.5617729710818
 20
-149.9415798236257
 30
0.0
 10
129.7243814779856
 20
-149.9415798236257
 30
0.0
 10
129.9148952583199
 20
-149.9415798236257
 30
0.0
 10
130.0716471028987
 20
-149.9309000276214
 30
0.0
 10
130.0716471028987
 20
-149.9309000276214
 30
0.0
 10
130.0716471028987
 20
-150.1021212732383
 30
0.0
 10
130.0716471028987
 20
-150.1021212732383
 30
0.0
 10
129.8621852973955
 20
-150.0938530440737
 30
0.0
 10
129.6654703451878
 20
-150.0917859867826
 30
0.0
 10
129.5617729710818
 20
-150.0917859867826
 30
0.0
 10
129.5617729710818
 20
-150.0917859867826
 30
0.0
 10
129.3881401586252
 20
-150.0917859867826
 30
0.0
 10
129.3881401586252
 20
-150.0917859867826
 30
0.0
 10
129.3881401586252
 20
-150.0917859867826
 30
0.0
 10
129.3881401586252
 20
-150.1996174754709
 30
0.0
 10
129.3881401586252
 20
-150.1996174754709
 30
0.0
 10
129.3881401586252
 20
-150.1996174754709
 30
0.0
 10
129.6186170465884
 20
-150.1996174754709
 30
0.0
 10
129.6186170465884
 20
-150.1996174754709
 30
0.0
 10
129.7519422418675
 20
-150.1996174754709
 30
0.0
 10
130.0396077148859
 20
-150.1954833608886
 30
0.0
 10
130.2490695203891
 20
-150.1889376794666
 30
0.0
 10
130.2490695203891
 20
-150.1889376794666
 30
0.0
 10
130.2490695203891
 20
-150.3667046065055
 30
0.0
 10
130.2490695203891
 20
-150.3667046065055
 30
0.0
 10
130.0568331923122
 20
-150.3605034346321
 30
0.0
 10
129.7436740127029
 20
-150.3560248105013
 30
0.0
 10
129.6186170465884
 20
-150.3560248105013
 30
0.0
  0
HATCH
  5
149
330
13D
100
AcDbEntity
  8
レイヤー 1
 62
    18
420
        0
440
 33554687
100
AcDbHatch
 10
0.0
 20
0.0
 30
0.0
210
0.0
220
0.0
230
1.0
  2
SOLID
 70
     1
 71
     1
 91
        4
 92
        1
 93
        1
 72
     4
 94
        3
 73
     0
 74
     0
 95
       17
 96
       13
 40
0.0
 40
0.0
 40
0.0
 40
0.0
 40
1.0
 40
1.0
 40
1.0
 40
2.0
 40
2.0
 40
2.0
 40
3.0
 40
3.0
 40
3.0
 40
4.0
 40
4.0
 40
4.0
 40
4.0
 10
129.7836371203318
 20
-151.0881076011168
 10
129.7836371203318
 20
-151.0881076011168
 10
129.0770480363071
 20
-151.0881076011168
 10
129.0770480363071
 20
-151.0881076011168
 10
129.0770480363071
 20
-151.0881076011168
 10
129.0770480363071
 20
-151.2024847712272
 10
129.0770480363071
 20
-151.2024847712272
 10
129.0770480363071
 20
-151.2024847712272
 10
129.7836371203318
 20
-151.2024847712272
 10
129.7836371203318
 20
-151.2024847712272
 10
129.7836371203318
 20
-151.2024847712272
 10
129.7836371203318
 20
-151.0881076011168
 10
129.7836371203318
 20
-151.0881076011168
 97
        0
 97
        1
330
145
 92
        1
 93
        1
 72
     4
 94
        3
 73
     0
 74
     0
 95
       17
 96
       13
 40
0.0
 40
0.0
 40
0.0
 40
0.0
 40
1.0
 40
1.0
 40
1.0
 40
2.0
 40
2.0
 40
2.0
 40
3.0
 40
3.0
 40
3.0
 40
4.0
 40
4.0
 40
4.0
 40
4.0
 10
129.7836371203318
 20
-150.8448838598582
 10
129.7836371203318
 20
-150.8448838598582
 10
129.0770480363071
 20
-150.8448838598582
 10
129.0770480363071
 20
-150.8448838598582
 10
129.0770480363071
 20
-150.8448838598582
 10
129.0770480363071
 20
-150.95891652042
 10
129.0770480363071
 20
-150.95891652042
 10
129.0770480363071
 20
-150.95891652042
 10
129.7836371203318
 20
-150.95891652042
 10
129.7836371203318
 20
-150.95891652042
 10
129.7836371203318
 20
-150.95891652042
 10
129.7836371203318
 20
-150.8448838598582
 10
129.7836371203318
 20
-150.8448838598582
 97
        0
 97
        1
330
146
 92
        1
 93
        1
 72
     4
 94
        3
 73
     0
 74
     0
 95
       17
 96
       13
 40
0.0
 40
0.0
 40
0.0
 40
0.0
 40
1.0
 40
1.0
 40
1.0
 40
2.0
 40
2.0
 40
2.0
 40
3.0
 40
3.0
 40
3.0
 40
4.0
 40
4.0
 40
4.0
 40
4.0
 10
129.7836371203318
 20
-150.6119954050553
 10
129.7836371203318
 20
-150.6119954050553
 10
129.0770480363071
 20
-150.6119954050553
 10
129.0770480363071
 20
-150.6119954050553
 10
129.0770480363071
 20
-150.6119954050553
 10
129.0770480363071
 20
-150.7198268937436
 10
129.0770480363071
 20
-150.7198268937436
 10
129.0770480363071
 20
-150.7198268937436
 10
129.7836371203318
 20
-150.7198268937436
 10
129.7836371203318
 20
-150.7198268937436
 10
129.7836371203318
 20
-150.7198268937436
 10
129.7836371203318
 20
-150.6119954050553
 10
129.7836371203318
 20
-150.6119954050553
 97
        0
 97
        1
330
147
 92
        1
 93
        1
 72
     4
 94
        3
 73
     0
 74
     0
 95
      203
 96
      199
 40
0.0
 40
0.0
 40
0.0
 40
0.0
 40
1.0
 40
1.0
 40
1.0
 40
2.0
 40
2.0
 40
2.0
 40
3.0
 40
3.0
 40
3.0
 40
4.0
 40
4.0
 40
4.0
 40
5.0
 40
5.0
 40
5.0
 40
6.0
 40
6.0
 40
6.0
 40
7.0
 40
7.0
 40
7.0
 40
8.0
 40
8.0
 40
8.0
 40
9.0
 40
9.0
 40
9.0
 40
10.0
 40
10.0
 40
10.0
 40
11.0
 40
11.0
 40
11.0
 40
12.0
 40
12.0
 40
12.0
 40
13.0
 40
13.0
 40
13.0
 40
14.0
 40
14.0
 40
14.0
 40
15.0
 40
15.0
 40
15.0
 40
16.0
 40
16.0
 40
16.0
 40
17.0
 40
17.0
 40
17.0
 40
18.0
 40
18.0
 40
18.0
 40
19.0
 40
19.0
 40
19.0
 40
20.0
 40
20.0
 40
20.0
 40
21.0
 40
21.0
 40
21.0
 40
22.0
 40
22.0
 40
22.0
 40
23.0
 40
23.0
 40
23.0
 40
24.0
 40
24.0
 40
24.0
 40
25.0
 40
25.0
 40
25.0
 40
26.0
 40
26.0
 40
26.0
 40
27.0
 40
27.0
 40
27.0
 40
28.0
 40
28.0
 40
28.0
 40
29.0
 40
29.0
 40
29.0
 40
30.0
 40
30.0
 40
30.0
 40
31.0
 40
31.0
 40
31.0
 40
32.0
 40
32.0
 40
32.0
 40
33.0
 40
33.0
 40
33.0
 40
34.0
 40
34.0
 40
34.0
 40
35.0
 40
35.0
 40
35.0
 40
36.0
 40
36.0
 40
36.0
 40
37.0
 40
37.0
 40
37.0
 40
38.0
 40
38.0
 40
38.0
 40
39.0
 40
39.0
 40
39.0
 40
40.0
 40
40.0
 40
40.0
 40
41.0
 40
41.0
 40
41.0
 40
42.0
 40
42.0
 40
42.0
 40
43.0
 40
43.0
 40
43.0
 40
44.0
 40
44.0
 40
44.0
 40
45.0
 40
45.0
 40
45.0
 40
46.0
 40
46.0
 40
46.0
 40
47.0
 40
47.0
 40
47.0
 40
48.0
 40
48.0
 40
48.0
 40
49.0
 40
49.0
 40
49.0
 40
50.0
 40
50.0
 40
50.0
 40
51.0
 40
51.0
 40
51.0
 40
52.0
 40
52.0
 40
52.0
 40
53.0
 40
53.0
 40
53.0
 40
54.0
 40
54.0
 40
54.0
 40
55.0
 40
55.0
 40
55.0
 40
56.0
 40
56.0
 40
56.0
 40
57.0
 40
57.0
 40
57.0
 40
58.0
 40
58.0
 40
58.0
 40
59.0
 40
59.0
 40
59.0
 40
60.0
 40
60.0
 40
60.0
 40
61.0
 40
61.0
 40
61.0
 40
62.0
 40
62.0
 40
62.0
 40
63.0
 40
63.0
 40
63.0
 40
64.0
 40
64.0
 40
64.0
 40
65.0
 40
65.0
 40
65.0
 40
66.0
 40
66.0
 40
66.0
 40
66.0
 10
129.6186170465884
 20
-150.3560248105013
 10
129.6186170465884
 20
-150.3560248105013
 10
129.0601670684294
 20
-150.3560248105013
 10
129.0601670684294
 20
-150.3560248105013
 10
129.0498317819736
 20
-150.400466542261
 10
129.0412190432605
 20
-150.4321614207253
 10
129.0284721899651
 20
-150.4704019806115
 10
129.0539658965559
 20
-150.4704019806115
 10
129.0687798071425
 20
-150.4724690379027
 10
129.0749809790159
 20
-150.4724690379027
 10
129.0749809790159
 20
-150.4724690379027
 10
129.2634277020591
 20
-150.4724690379027
 10
129.2634277020591
 20
-150.4724690379027
 10
129.2634277020591
 20
-150.4724690379027
 10
129.6379095813058
 20
-150.4724690379027
 10
129.6379095813058
 20
-150.4724690379027
 10
129.688552484939
 20
-150.4724690379027
 10
129.972083843375
 20
-150.4597221846073
 10
130.0037787218393
 20
-150.4597221846073
 10
130.0017116645482
 20
-150.4872829484893
 10
129.999644607257
 20
-150.5062309736582
 10
129.999644607257
 20
-150.5358587948313
 10
129.9975775499659
 20
-150.5675536732956
 10
129.9975775499659
 20
-150.7029459258659
 10
129.9975775499659
 20
-150.7305066897479
 10
129.9975775499659
 20
-150.7305066897479
 10
129.9975775499659
 20
-150.9757974882977
 10
129.9975775499659
 20
-150.9757974882977
 10
129.9975775499659
 20
-151.0202392200574
 10
130.0017116645482
 20
-151.2172986818137
 10
130.0058457791305
 20
-151.3695719022618
 10
130.0058457791305
 20
-151.3695719022618
 10
129.7795030057496
 20
-151.3695719022618
 10
129.7795030057496
 20
-151.3695719022618
 10
129.7795030057496
 20
-151.3695719022618
 10
129.7815700630407
 20
-151.3354654569578
 10
129.7815700630407
 20
-151.3354654569578
 10
129.7815700630407
 20
-151.3354654569578
 10
129.0794596031468
 20
-151.3354654569578
 10
129.0794596031468
 20
-151.3354654569578
 10
129.0794596031468
 20
-151.3354654569578
 10
129.0815266604379
 20
-151.3695719022618
 10
129.0815266604379
 20
-151.3695719022618
 10
129.0815266604379
 20
-151.3695719022618
 10
128.8634521162216
 20
-151.3695719022618
 10
128.8634521162216
 20
-151.3695719022618
 10
128.8679307403524
 20
-151.3144503744978
 10
128.8679307403524
 20
-151.3017035212024
 10
128.8741319122259
 20
-151.1876708606406
 10
128.876198969517
 20
-151.1601100967586
 10
128.8782660268082
 20
-151.0267849014794
 10
128.8782660268082
 20
-151.0078368763105
 10
128.8782660268082
 20
-151.0078368763105
 10
128.8782660268082
 20
-150.8045762426808
 10
128.8782660268082
 20
-150.8045762426808
 10
128.7387396596556
 20
-151.0543456653614
 10
128.5695854713298
 20
-151.1852592938009
 10
128.4638210399327
 20
-151.2510606175692
 10
128.4638210399327
 20
-151.2510606175692
 10
128.2901882274761
 20
-151.111189740868
 10
128.2901882274761
 20
-151.111189740868
 10
128.3790716909955
 20
-151.0605468372349
 10
128.523076682279
 20
-150.9737304310065
 10
128.6605359921404
 20
-150.7790825360899
 10
128.751486512951
 20
-150.6523030222327
 10
128.8169433271707
 20
-150.5082980309493
 10
128.8507052629262
 20
-150.3560248105013
 10
128.6222954322541
 20
-150.3580918677924
 10
128.4424614479241
 20
-150.3646375492144
 10
128.3473768125312
 20
-150.3667046065055
 10
128.3473768125312
 20
-150.3667046065055
 10
128.3473768125312
 20
-150.1889376794666
 10
128.3473768125312
 20
-150.1889376794666
 10
128.544091764739
 20
-150.1954833608886
 10
128.827623123175
 20
-150.1996174754709
 10
128.9778292863319
 20
-150.1996174754709
 10
128.9778292863319
 20
-150.1996174754709
 10
129.1914252064174
 20
-150.1996174754709
 10
129.1914252064174
 20
-150.1996174754709
 10
129.1914252064174
 20
-150.1996174754709
 10
129.1914252064174
 20
-150.0917859867826
 10
129.1914252064174
 20
-150.0917859867826
 10
129.1914252064174
 20
-150.0917859867826
 10
129.0453531578428
 20
-150.0917859867826
 10
129.0453531578428
 20
-150.0917859867826
 10
128.876198969517
 20
-150.0917859867826
 10
128.7070447811913
 20
-150.0959201013649
 10
128.5399576501567
 20
-150.1021212732383
 10
128.5399576501567
 20
-150.1021212732383
 10
128.5399576501567
 20
-149.9309000276214
 10
128.5399576501567
 20
-149.9309000276214
 10
128.6942979278959
 20
-149.9415798236257
 10
128.8803330840993
 20
-149.9415798236257
 10
129.0453531578428
 20
-149.9415798236257
 10
129.0453531578428
 20
-149.9415798236257
 10
129.1914252064174
 20
-149.9415798236257
 10
129.1914252064174
 20
-149.9415798236257
 10
129.1914252064174
 20
-149.9415798236257
 10
129.1914252064174
 20
-149.8230685389331
 10
129.1914252064174
 20
-149.8230685389331
 10
129.1914252064174
 20
-149.8230685389331
 10
129.0601670684294
 20
-149.8230685389331
 10
129.0601670684294
 20
-149.8230685389331
 10
129.0136582793785
 20
-149.8230685389331
 10
128.8107421552973
 20
-149.8313367680977
 10
128.7683674808287
 20
-149.8313367680977
 10
128.565106847199
 20
-149.8358153922285
 10
128.488970236975
 20
-149.8378824495197
 10
128.4107665694598
 20
-149.8399495068108
 10
128.4107665694598
 20
-149.8399495068108
 10
128.4107665694598
 20
-149.6559814078985
 10
128.4107665694598
 20
-149.6559814078985
 10
128.5251437395701
 20
-149.6642496370631
 10
128.5695854713298
 20
-149.6642496370631
 10
128.9523355797411
 20
-149.6728623757762
 10
128.8889458228125
 20
-149.5777777403833
 10
128.8613850589305
 20
-149.5502169765013
 10
128.8255560658839
 20
-149.5140434739062
 10
128.8255560658839
 20
-149.5140434739062
 10
129.0009114260831
 20
-149.4317056918087
 10
129.0009114260831
 20
-149.4317056918087
 10
129.0412190432605
 20
-149.4675346848553
 10
129.0856607750202
 20
-149.5099093593239
 10
129.1597303279531
 20
-149.6198079053034
 10
129.1597303279531
 20
-149.6198079053034
 10
129.0453531578428
 20
-149.6749294330673
 10
129.0453531578428
 20
-149.6749294330673
 10
129.0453531578428
 20
-149.6749294330673
 10
129.0560329538471
 20
-149.6749294330673
 10
129.0560329538471
 20
-149.6749294330673
 10
129.0560329538471
 20
-149.6749294330673
 10
129.5786539389595
 20
-149.6749294330673
 10
129.5786539389595
 20
-149.6749294330673
 10
129.5786539389595
 20
-149.6749294330673
 10
129.4832247940181
 20
-149.6304877013076
 10
129.4832247940181
 20
-149.6304877013076
 10
129.5107855579
 20
-149.5925916509699
 10
129.5679741429552
 20
-149.511976416615
 10
129.5827880535418
 20
-149.4379068636822
 10
129.5827880535418
 20
-149.4379068636822
 10
129.7963839736273
 20
-149.5012966206108
 10
129.7963839736273
 20
-149.5012966206108
 10
129.8049967123404
 20
-149.5037081874504
 10
129.8260117948004
 20
-149.5140434739062
 10
129.8260117948004
 20
-149.5354030659147
 10
129.8260117948004
 20
-149.5732991162525
 10
129.7605549805807
 20
-149.5732991162525
 10
129.7416069554118
 20
-149.5732991162525
 10
129.7309271594075
 20
-149.5925916509699
 10
129.7075005101078
 20
-149.6325547585988
 10
129.6778726889347
 20
-149.6728623757762
 10
130.0778482747722
 20
-149.6663166943542
 10
130.1074760959453
 20
-149.6642496370631
 10
130.1836127061694
 20
-149.6580484651896
 10
130.1836127061694
 20
-149.6580484651896
 10
130.1836127061694
 20
-149.8399495068108
 10
130.1836127061694
 20
-149.8399495068108
 10
130.1646646810005
 20
-149.8399495068108
 10
130.1391709744097
 20
-149.8378824495197
 10
129.9190293729022
 20
-149.8292697108066
 10
129.868386469269
 20
-149.8272026535154
 10
129.6482448677615
 20
-149.8230685389331
 10
129.6038031360018
 20
-149.8230685389331
 10
129.6038031360018
 20
-149.8230685389331
 10
129.3881401586252
 20
-149.8230685389331
 10
129.3881401586252
 20
-149.8230685389331
 10
129.3881401586252
 20
-149.8230685389331
 10
129.3881401586252
 20
-149.9415798236257
 10
129.3881401586252
 20
-149.9415798236257
 10
129.3881401586252
 20
-149.9415798236257
 10
129.5617729710818
 20
-149.9415798236257
 10
129.5617729710818
 20
-149.9415798236257
 10
129.7243814779856
 20
-149.9415798236257
 10
129.9148952583199
 20
-149.9415798236257
 10
130.0716471028987
 20
-149.9309000276214
 10
130.0716471028987
 20
-149.9309000276214
 10
130.0716471028987
 20
-150.1021212732383
 10
130.0716471028987
 20
-150.1021212732383
 10
129.8621852973955
 20
-150.0938530440737
 10
129.6654703451878
 20
-150.0917859867826
 10
129.5617729710818
 20
-150.0917859867826
 10
129.5617729710818
 20
-150.0917859867826
 10
129.3881401586252
 20
-150.0917859867826
 10
129.3881401586252
 20
-150.0917859867826
 10
129.3881401586252
 20
-150.0917859867826
 10
129.3881401586252
 20
-150.1996174754709
 10
129.3881401586252
 20
-150.1996174754709
 10
129.3881401586252
 20
-150.1996174754709
 10
129.6186170465884
 20
-150.1996174754709
 10
129.6186170465884
 20
-150.1996174754709
 10
129.7519422418675
 20
-150.1996174754709
 10
130.0396077148859
 20
-150.1954833608886
 10
130.2490695203891
 20
-150.1889376794666
 10
130.2490695203891
 20
-150.1889376794666
 10
130.2490695203891
 20
-150.3667046065055
 10
130.2490695203891
 20
-150.3667046065055
 10
130.0568331923122
 20
-150.3605034346321
 10
129.7436740127029
 20
-150.3560248105013
 10
129.6186170465884
 20
-150.3560248105013
 97
        0
 97
        1
330
148
 75
     2
 76
     1
 98
        1
 10
0.0
 20
0.0
450
        0
451
        0
460
0.0
461
0.0
452
        0
462
0.0
453
        0
470

  0
SPLINE
  5
14A
330
13D
100
AcDbEntity
  8
レイヤー 1
100
AcDbSpline
210
0.0
220
0.0
230
1.0
 70
     9
 71
     3
 72
    29
 73
    25
 74
     0
 42
0.0000000001
 43
0.0000000001
 40
0.0
 40
0.0
 40
0.0
 40
0.0
 40
1.0
 40
1.0
 40
1.0
 40
2.0
 40
2.0
 40
2.0
 40
3.0
 40
3.0
 40
3.0
 40
4.0
 40
4.0
 40
4.0
 40
5.0
 40
5.0
 40
5.0
 40
6.0
 40
6.0
 40
6.0
 40
7.0
 40
7.0
 40
7.0
 40
8.0
 40
8.0
 40
8.0
 40
8.0
 10
131.4941270287584
 20
-149.8041205137642
 30
0.0
 10
131.4941270287584
 20
-149.8041205137642
 30
0.0
 10
131.1410047415203
 20
-149.8041205137642
 30
0.0
 10
131.1410047415203
 20
-149.8041205137642
 30
0.0
 10
131.0286946287011
 20
-149.8041205137642
 30
0.0
 10
130.8891682615485
 20
-149.8103216856377
 30
0.0
 10
130.7813367728602
 20
-149.8230685389331
 30
0.0
 10
130.7813367728602
 20
-149.8230685389331
 30
0.0
 10
130.7813367728602
 20
-149.5881130268391
 30
0.0
 10
130.7813367728602
 20
-149.5881130268391
 30
0.0
 10
130.8998480575528
 20
-149.6029269374256
 30
0.0
 10
131.0838161564651
 20
-149.6074055615564
 30
0.0
 10
131.1410047415203
 20
-149.6074055615564
 30
0.0
 10
131.1410047415203
 20
-149.6074055615564
 30
0.0
 10
131.4941270287584
 20
-149.6074055615564
 30
0.0
 10
131.4941270287584
 20
-149.6074055615564
 30
0.0
 10
131.5134195634758
 20
-149.6074055615564
 30
0.0
 10
131.716335687557
 20
-149.6074055615564
 30
0.0
 10
131.8579291120008
 20
-149.5881130268391
 30
0.0
 10
131.8579291120008
 20
-149.5881130268391
 30
0.0
 10
131.8579291120008
 20
-149.8230685389331
 30
0.0
 10
131.8579291120008
 20
-149.8230685389331
 30
0.0
 10
131.7015217769704
 20
-149.8041205137642
 30
0.0
 10
131.5110079966361
 20
-149.8041205137642
 30
0.0
 10
131.4941270287584
 20
-149.8041205137642
 30
0.0
  0
SPLINE
  5
14B
330
13D
100
AcDbEntity
  8
レイヤー 1
100
AcDbSpline
210
0.0
220
0.0
230
1.0
 70
     9
 71
     3
 72
    47
 73
    43
 74
     0
 42
0.0000000001
 43
0.0000000001
 40
0.0
 40
0.0
 40
0.0
 40
0.0
 40
1.0
 40
1.0
 40
1.0
 40
2.0
 40
2.0
 40
2.0
 40
3.0
 40
3.0
 40
3.0
 40
4.0
 40
4.0
 40
4.0
 40
5.0
 40
5.0
 40
5.0
 40
6.0
 40
6.0
 40
6.0
 40
7.0
 40
7.0
 40
7.0
 40
8.0
 40
8.0
 40
8.0
 40
9.0
 40
9.0
 40
9.0
 40
10.0
 40
10.0
 40
10.0
 40
11.0
 40
11.0
 40
11.0
 40
12.0
 40
12.0
 40
12.0
 40
13.0
 40
13.0
 40
13.0
 40
14.0
 40
14.0
 40
14.0
 40
14.0
 10
131.5957573455732
 20
-150.3329426707501
 30
0.0
 10
131.5957573455732
 20
-150.3329426707501
 30
0.0
 10
131.4941270287584
 20
-150.3329426707501
 30
0.0
 10
131.4941270287584
 20
-150.3329426707501
 30
0.0
 10
131.4941270287584
 20
-150.4197590769784
 30
0.0
 10
131.4731119462984
 20
-150.8087103572631
 30
0.0
 10
131.2763969940906
 20
-151.0288519587705
 30
0.0
 10
131.1241237736426
 20
-151.1980061470963
 30
0.0
 10
130.9167290254305
 20
-151.2679415854469
 30
0.0
 10
130.8319796764934
 20
-151.2955023493289
 30
0.0
 10
130.8319796764934
 20
-151.2955023493289
 30
0.0
 10
130.6373317815768
 20
-151.1284152182943
 30
0.0
 10
130.6373317815768
 20
-151.1284152182943
 30
0.0
 10
130.7348279838093
 20
-151.1156683649988
 30
0.0
 10
130.9101833440085
 20
-151.0922417156991
 30
0.0
 10
131.0986300670517
 20
-150.9041395022045
 30
0.0
 10
131.1726996199846
 20
-150.8321370065628
 30
0.0
 10
131.2763969940906
 20
-150.6926106394102
 30
0.0
 10
131.2763969940906
 20
-150.3329426707501
 30
0.0
 10
131.2763969940906
 20
-150.3329426707501
 30
0.0
 10
131.0455755965789
 20
-150.3329426707501
 30
0.0
 10
131.0455755965789
 20
-150.3329426707501
 30
0.0
 10
130.8595404403754
 20
-150.3329426707501
 30
0.0
 10
130.6735052841719
 20
-150.3370767853324
 30
0.0
 10
130.4871256184199
 20
-150.3518906959189
 30
0.0
 10
130.4871256184199
 20
-150.3518906959189
 30
0.0
 10
130.4871256184199
 20
-150.1317490944115
 30
0.0
 10
130.4871256184199
 20
-150.1317490944115
 30
0.0
 10
130.675572341463
 20
-150.1465630049981
 30
0.0
 10
130.9611707571902
 20
-150.1510416291289
 30
0.0
 10
131.0455755965789
 20
-150.1510416291289
 30
0.0
 10
131.0455755965789
 20
-150.1510416291289
 30
0.0
 10
131.5957573455732
 20
-150.1510416291289
 30
0.0
 10
131.5957573455732
 20
-150.1510416291289
 30
0.0
 10
131.6147053707422
 20
-150.1510416291289
 30
0.0
 10
131.9319986649337
 20
-150.1510416291289
 30
0.0
 10
132.1607530051542
 20
-150.1317490944115
 30
0.0
 10
132.1607530051542
 20
-150.1317490944115
 30
0.0
 10
132.1607530051542
 20
-150.3518906959189
 30
0.0
 10
132.1607530051542
 20
-150.3518906959189
 30
0.0
 10
131.9723062821111
 20
-150.3370767853324
 30
0.0
 10
131.7842040686164
 20
-150.3329426707501
 30
0.0
 10
131.5957573455732
 20
-150.3329426707501
 30
0.0
  0
HATCH
  5
14C
330
13D
100
AcDbEntity
  8
レイヤー 1
 62
    18
420
        0
440
 33554687
100
AcDbHatch
 10
0.0
 20
0.0
 30
0.0
210
0.0
220
0.0
230
1.0
  2
SOLID
 70
     1
 71
     1
 91
        2
 92
        1
 93
        1
 72
     4
 94
        3
 73
     0
 74
     0
 95
       29
 96
       25
 40
0.0
 40
0.0
 40
0.0
 40
0.0
 40
1.0
 40
1.0
 40
1.0
 40
2.0
 40
2.0
 40
2.0
 40
3.0
 40
3.0
 40
3.0
 40
4.0
 40
4.0
 40
4.0
 40
5.0
 40
5.0
 40
5.0
 40
6.0
 40
6.0
 40
6.0
 40
7.0
 40
7.0
 40
7.0
 40
8.0
 40
8.0
 40
8.0
 40
8.0
 10
131.4941270287584
 20
-149.8041205137642
 10
131.4941270287584
 20
-149.8041205137642
 10
131.1410047415203
 20
-149.8041205137642
 10
131.1410047415203
 20
-149.8041205137642
 10
131.0286946287011
 20
-149.8041205137642
 10
130.8891682615485
 20
-149.8103216856377
 10
130.7813367728602
 20
-149.8230685389331
 10
130.7813367728602
 20
-149.8230685389331
 10
130.7813367728602
 20
-149.5881130268391
 10
130.7813367728602
 20
-149.5881130268391
 10
130.8998480575528
 20
-149.6029269374256
 10
131.0838161564651
 20
-149.6074055615564
 10
131.1410047415203
 20
-149.6074055615564
 10
131.1410047415203
 20
-149.6074055615564
 10
131.4941270287584
 20
-149.6074055615564
 10
131.4941270287584
 20
-149.6074055615564
 10
131.5134195634758
 20
-149.6074055615564
 10
131.716335687557
 20
-149.6074055615564
 10
131.8579291120008
 20
-149.5881130268391
 10
131.8579291120008
 20
-149.5881130268391
 10
131.8579291120008
 20
-149.8230685389331
 10
131.8579291120008
 20
-149.8230685389331
 10
131.7015217769704
 20
-149.8041205137642
 10
131.5110079966361
 20
-149.8041205137642
 10
131.4941270287584
 20
-149.8041205137642
 97
        0
 97
        1
330
14A
 92
        1
 93
        1
 72
     4
 94
        3
 73
     0
 74
     0
 95
       47
 96
       43
 40
0.0
 40
0.0
 40
0.0
 40
0.0
 40
1.0
 40
1.0
 40
1.0
 40
2.0
 40
2.0
 40
2.0
 40
3.0
 40
3.0
 40
3.0
 40
4.0
 40
4.0
 40
4.0
 40
5.0
 40
5.0
 40
5.0
 40
6.0
 40
6.0
 40
6.0
 40
7.0
 40
7.0
 40
7.0
 40
8.0
 40
8.0
 40
8.0
 40
9.0
 40
9.0
 40
9.0
 40
10.0
 40
10.0
 40
10.0
 40
11.0
 40
11.0
 40
11.0
 40
12.0
 40
12.0
 40
12.0
 40
13.0
 40
13.0
 40
13.0
 40
14.0
 40
14.0
 40
14.0
 40
14.0
 10
131.5957573455732
 20
-150.3329426707501
 10
131.5957573455732
 20
-150.3329426707501
 10
131.4941270287584
 20
-150.3329426707501
 10
131.4941270287584
 20
-150.3329426707501
 10
131.4941270287584
 20
-150.4197590769784
 10
131.4731119462984
 20
-150.8087103572631
 10
131.2763969940906
 20
-151.0288519587705
 10
131.1241237736426
 20
-151.1980061470963
 10
130.9167290254305
 20
-151.2679415854469
 10
130.8319796764934
 20
-151.2955023493289
 10
130.8319796764934
 20
-151.2955023493289
 10
130.6373317815768
 20
-151.1284152182943
 10
130.6373317815768
 20
-151.1284152182943
 10
130.7348279838093
 20
-151.1156683649988
 10
130.9101833440085
 20
-151.0922417156991
 10
131.0986300670517
 20
-150.9041395022045
 10
131.1726996199846
 20
-150.8321370065628
 10
131.2763969940906
 20
-150.6926106394102
 10
131.2763969940906
 20
-150.3329426707501
 10
131.2763969940906
 20
-150.3329426707501
 10
131.0455755965789
 20
-150.3329426707501
 10
131.0455755965789
 20
-150.3329426707501
 10
130.8595404403754
 20
-150.3329426707501
 10
130.6735052841719
 20
-150.3370767853324
 10
130.4871256184199
 20
-150.3518906959189
 10
130.4871256184199
 20
-150.3518906959189
 10
130.4871256184199
 20
-150.1317490944115
 10
130.4871256184199
 20
-150.1317490944115
 10
130.675572341463
 20
-150.1465630049981
 10
130.9611707571902
 20
-150.1510416291289
 10
131.0455755965789
 20
-150.1510416291289
 10
131.0455755965789
 20
-150.1510416291289
 10
131.5957573455732
 20
-150.1510416291289
 10
131.5957573455732
 20
-150.1510416291289
 10
131.6147053707422
 20
-150.1510416291289
 10
131.9319986649337
 20
-150.1510416291289
 10
132.1607530051542
 20
-150.1317490944115
 10
132.1607530051542
 20
-150.1317490944115
 10
132.1607530051542
 20
-150.3518906959189
 10
132.1607530051542
 20
-150.3518906959189
 10
131.9723062821111
 20
-150.3370767853324
 10
131.7842040686164
 20
-150.3329426707501
 10
131.5957573455732
 20
-150.3329426707501
 97
        0
 97
        1
330
14B
 75
     2
 76
     1
 98
        1
 10
0.0
 20
0.0
450
        0
451
        0
460
0.0
461
0.0
452
        0
462
0.0
453
        0
470

  0
SPLINE
  5
14D
330
13D
100
AcDbEntity
  8
レイヤー 1
100
AcDbSpline
210
0.0
220
0.0
230
1.0
 70
     9
 71
     3
 72
    29
 73
    25
 74
     0
 42
0.0000000001
 43
0.0000000001
 40
0.0
 40
0.0
 40
0.0
 40
0.0
 40
1.0
 40
1.0
 40
1.0
 40
2.0
 40
2.0
 40
2.0
 40
3.0
 40
3.0
 40
3.0
 40
4.0
 40
4.0
 40
4.0
 40
5.0
 40
5.0
 40
5.0
 40
6.0
 40
6.0
 40
6.0
 40
7.0
 40
7.0
 40
7.0
 40
8.0
 40
8.0
 40
8.0
 40
8.0
 10
133.4416395065701
 20
-150.4958956872024
 30
0.0
 10
133.4416395065701
 20
-150.4958956872024
 30
0.0
 10
132.957259081344
 20
-150.4958956872024
 30
0.0
 10
132.957259081344
 20
-150.4958956872024
 30
0.0
 10
132.929698317462
 20
-150.4958956872024
 30
0.0
 10
132.6124050232705
 20
-150.4958956872024
 30
0.0
 10
132.4008761604761
 20
-150.5210448842447
 30
0.0
 10
132.4008761604761
 20
-150.5210448842447
 30
0.0
 10
132.4008761604761
 20
-150.2905679962815
 30
0.0
 10
132.4008761604761
 20
-150.2905679962815
 30
0.0
 10
132.5593505527976
 20
-150.3136501360327
 30
0.0
 10
132.749864333132
 20
-150.3160617028724
 30
0.0
 10
132.957259081344
 20
-150.3160617028724
 30
0.0
 10
132.957259081344
 20
-150.3160617028724
 30
0.0
 10
133.4416395065701
 20
-150.3160617028724
 30
0.0
 10
133.4416395065701
 20
-150.3160617028724
 30
0.0
 10
133.6276746627736
 20
-150.3160617028724
 30
0.0
 10
133.8137098189771
 20
-150.3136501360327
 30
0.0
 10
133.998022427438
 20
-150.2905679962815
 30
0.0
 10
133.998022427438
 20
-150.2905679962815
 30
0.0
 10
133.998022427438
 20
-150.5210448842447
 30
0.0
 10
133.998022427438
 20
-150.5210448842447
 30
0.0
 10
133.8137098189771
 20
-150.4979627444936
 30
0.0
 10
133.5663519631362
 20
-150.4958956872024
 30
0.0
 10
133.4416395065701
 20
-150.4958956872024
 30
0.0
  0
HATCH
  5
14E
330
13D
100
AcDbEntity
  8
レイヤー 1
 62
    18
420
        0
440
 33554687
100
AcDbHatch
 10
0.0
 20
0.0
 30
0.0
210
0.0
220
0.0
230
1.0
  2
SOLID
 70
     1
 71
     1
 91
        1
 92
        1
 93
        1
 72
     4
 94
        3
 73
     0
 74
     0
 95
       29
 96
       25
 40
0.0
 40
0.0
 40
0.0
 40
0.0
 40
1.0
 40
1.0
 40
1.0
 40
2.0
 40
2.0
 40
2.0
 40
3.0
 40
3.0
 40
3.0
 40
4.0
 40
4.0
 40
4.0
 40
5.0
 40
5.0
 40
5.0
 40
6.0
 40
6.0
 40
6.0
 40
7.0
 40
7.0
 40
7.0
 40
8.0
 40
8.0
 40
8.0
 40
8.0
 10
133.4416395065701
 20
-150.4958956872024
 10
133.4416395065701
 20
-150.4958956872024
 10
132.957259081344
 20
-150.4958956872024
 10
132.957259081344
 20
-150.4958956872024
 10
132.929698317462
 20
-150.4958956872024
 10
132.6124050232705
 20
-150.4958956872024
 10
132.4008761604761
 20
-150.5210448842447
 10
132.4008761604761
 20
-150.5210448842447
 10
132.4008761604761
 20
-150.2905679962815
 10
132.4008761604761
 20
-150.2905679962815
 10
132.5593505527976
 20
-150.3136501360327
 10
132.749864333132
 20
-150.3160617028724
 10
132.957259081344
 20
-150.3160617028724
 10
132.957259081344
 20
-150.3160617028724
 10
133.4416395065701
 20
-150.3160617028724
 10
133.4416395065701
 20
-150.3160617028724
 10
133.6276746627736
 20
-150.3160617028724
 10
133.8137098189771
 20
-150.3136501360327
 10
133.998022427438
 20
-150.2905679962815
 10
133.998022427438
 20
-150.2905679962815
 10
133.998022427438
 20
-150.5210448842447
 10
133.998022427438
 20
-150.5210448842447
 10
133.8137098189771
 20
-150.4979627444936
 10
133.5663519631362
 20
-150.4958956872024
 10
133.4416395065701
 20
-150.4958956872024
 97
        0
 97
        1
330
14D
 75
     2
 76
     1
 98
        1
 10
0.0
 20
0.0
450
        0
451
        0
460
0.0
461
0.0
452
        0
462
0.0
453
        0
470

  0
SPLINE
  5
14F
330
13D
100
AcDbEntity
  8
レイヤー 1
100
AcDbSpline
210
0.0
220
0.0
230
1.0
 70
     9
 71
     3
 72
    47
 73
    43
 74
     0
 42
0.0000000001
 43
0.0000000001
 40
0.0
 40
0.0
 40
0.0
 40
0.0
 40
1.0
 40
1.0
 40
1.0
 40
2.0
 40
2.0
 40
2.0
 40
3.0
 40
3.0
 40
3.0
 40
4.0
 40
4.0
 40
4.0
 40
5.0
 40
5.0
 40
5.0
 40
6.0
 40
6.0
 40
6.0
 40
7.0
 40
7.0
 40
7.0
 40
8.0
 40
8.0
 40
8.0
 40
9.0
 40
9.0
 40
9.0
 40
10.0
 40
10.0
 40
10.0
 40
11.0
 40
11.0
 40
11.0
 40
12.0
 40
12.0
 40
12.0
 40
13.0
 40
13.0
 40
13.0
 40
14.0
 40
14.0
 40
14.0
 40
14.0
 10
135.6616590372651
 20
-149.9012722064483
 30
0.0
 10
135.5920681084631
 20
-150.180669450302
 30
0.0
 10
135.5155869886905
 20
-150.4852158911981
 30
0.0
 10
135.2027723186298
 20
-150.8173230959762
 30
0.0
 10
134.9657497492447
 20
-151.0670925186568
 30
0.0
 10
134.7204589506949
 20
-151.166311268632
 30
0.0
 10
134.6146945192977
 20
-151.2086859431006
 30
0.0
 10
134.6146945192977
 20
-151.2086859431006
 30
0.0
 10
134.4200466243811
 20
-151.0267849014794
 30
0.0
 10
134.4200466243811
 20
-151.0267849014794
 30
0.0
 10
134.6060817805846
 20
-150.9802761124285
 30
0.0
 10
134.9678168065358
 20
-150.8872585343268
 30
0.0
 10
135.2640950182673
 20
-150.3921983130964
 30
0.0
 10
135.4246364678799
 20
-150.125547922538
 30
0.0
 10
135.4373833211754
 20
-149.9519151100814
 30
0.0
 10
135.4459960598885
 20
-149.8609645892708
 30
0.0
 10
135.4459960598885
 20
-149.8609645892708
 30
0.0
 10
134.9402560426538
 20
-149.8609645892708
 30
0.0
 10
134.9402560426538
 20
-149.8609645892708
 30
0.0
 10
134.8217447579612
 20
-149.8609645892708
 30
0.0
 10
134.4007540896637
 20
-149.8802571239883
 30
0.0
 10
134.2484808692156
 20
-149.890592410444
 30
0.0
 10
134.2484808692156
 20
-149.890592410444
 30
0.0
 10
134.2484808692156
 20
-149.6811306049408
 30
0.0
 10
134.2484808692156
 20
-149.6811306049408
 30
0.0
 10
134.3904188032079
 20
-149.6938774582362
 30
0.0
 10
134.667404480222
 20
-149.6983560823671
 30
0.0
 10
134.7838487076235
 20
-149.6983560823671
 30
0.0
 10
134.7838487076235
 20
-149.6983560823671
 30
0.0
 10
135.1390380521527
 20
-149.6983560823671
 30
0.0
 10
135.1390380521527
 20
-149.6983560823671
 30
0.0
 10
135.1665988160347
 20
-149.6983560823671
 30
0.0
 10
135.3274847751959
 20
-149.6959445155274
 30
0.0
 10
135.4373833211754
 20
-149.6811306049408
 30
0.0
 10
135.4945719062305
 20
-149.6749294330673
 30
0.0
 10
135.5114528741082
 20
-149.6559814078985
 30
0.0
 10
135.5348795234079
 20
-149.6325547585988
 30
0.0
 10
135.5348795234079
 20
-149.6325547585988
 30
0.0
 10
135.7229817369026
 20
-149.7827609217557
 30
0.0
 10
135.7229817369026
 20
-149.7827609217557
 30
0.0
 10
135.708167826316
 20
-149.8123887429288
 30
0.0
 10
135.6978325398602
 20
-149.8313367680977
 30
0.0
 10
135.6616590372651
 20
-149.9012722064483
 30
0.0
  0
HATCH
  5
150
330
13D
100
AcDbEntity
  8
レイヤー 1
 62
    18
420
        0
440
 33554687
100
AcDbHatch
 10
0.0
 20
0.0
 30
0.0
210
0.0
220
0.0
230
1.0
  2
SOLID
 70
     1
 71
     1
 91
        1
 92
        1
 93
        1
 72
     4
 94
        3
 73
     0
 74
     0
 95
       47
 96
       43
 40
0.0
 40
0.0
 40
0.0
 40
0.0
 40
1.0
 40
1.0
 40
1.0
 40
2.0
 40
2.0
 40
2.0
 40
3.0
 40
3.0
 40
3.0
 40
4.0
 40
4.0
 40
4.0
 40
5.0
 40
5.0
 40
5.0
 40
6.0
 40
6.0
 40
6.0
 40
7.0
 40
7.0
 40
7.0
 40
8.0
 40
8.0
 40
8.0
 40
9.0
 40
9.0
 40
9.0
 40
10.0
 40
10.0
 40
10.0
 40
11.0
 40
11.0
 40
11.0
 40
12.0
 40
12.0
 40
12.0
 40
13.0
 40
13.0
 40
13.0
 40
14.0
 40
14.0
 40
14.0
 40
14.0
 10
135.6616590372651
 20
-149.9012722064483
 10
135.5920681084631
 20
-150.180669450302
 10
135.5155869886905
 20
-150.4852158911981
 10
135.2027723186298
 20
-150.8173230959762
 10
134.9657497492447
 20
-151.0670925186568
 10
134.7204589506949
 20
-151.166311268632
 10
134.6146945192977
 20
-151.2086859431006
 10
134.6146945192977
 20
-151.2086859431006
 10
134.4200466243811
 20
-151.0267849014794
 10
134.4200466243811
 20
-151.0267849014794
 10
134.6060817805846
 20
-150.9802761124285
 10
134.9678168065358
 20
-150.8872585343268
 10
135.2640950182673
 20
-150.3921983130964
 10
135.4246364678799
 20
-150.125547922538
 10
135.4373833211754
 20
-149.9519151100814
 10
135.4459960598885
 20
-149.8609645892708
 10
135.4459960598885
 20
-149.8609645892708
 10
134.9402560426538
 20
-149.8609645892708
 10
134.9402560426538
 20
-149.8609645892708
 10
134.8217447579612
 20
-149.8609645892708
 10
134.4007540896637
 20
-149.8802571239883
 10
134.2484808692156
 20
-149.890592410444
 10
134.2484808692156
 20
-149.890592410444
 10
134.2484808692156
 20
-149.6811306049408
 10
134.2484808692156
 20
-149.6811306049408
 10
134.3904188032079
 20
-149.6938774582362
 10
134.667404480222
 20
-149.6983560823671
 10
134.7838487076235
 20
-149.6983560823671
 10
134.7838487076235
 20
-149.6983560823671
 10
135.1390380521527
 20
-149.6983560823671
 10
135.1390380521527
 20
-149.6983560823671
 10
135.1665988160347
 20
-149.6983560823671
 10
135.3274847751959
 20
-149.6959445155274
 10
135.4373833211754
 20
-149.6811306049408
 10
135.4945719062305
 20
-149.6749294330673
 10
135.5114528741082
 20
-149.6559814078985
 10
135.5348795234079
 20
-149.6325547585988
 10
135.5348795234079
 20
-149.6325547585988
 10
135.7229817369026
 20
-149.7827609217557
 10
135.7229817369026
 20
-149.7827609217557
 10
135.708167826316
 20
-149.8123887429288
 10
135.6978325398602
 20
-149.8313367680977
 10
135.6616590372651
 20
-149.9012722064483
 97
        0
 97
        1
330
14F
 75
     2
 76
     1
 98
        1
 10
0.0
 20
0.0
450
        0
451
        0
460
0.0
461
0.0
452
        0
462
0.0
453
        0
470

  0
SPLINE
  5
151
330
13D
100
AcDbEntity
  8
レイヤー 1
100
AcDbSpline
210
0.0
220
0.0
230
1.0
 70
     9
 71
     3
 72
    17
 73
    13
 74
     0
 42
0.0000000001
 43
0.0000000001
 40
0.0
 40
0.0
 40
0.0
 40
0.0
 40
1.0
 40
1.0
 40
1.0
 40
2.0
 40
2.0
 40
2.0
 40
3.0
 40
3.0
 40
3.0
 40
4.0
 40
4.0
 40
4.0
 40
4.0
 10
136.0519883557439
 20
-149.6835421717805
 30
0.0
 10
136.0519883557439
 20
-149.7424533045782
 30
0.0
 10
136.0984971447948
 20
-149.7893066031777
 30
0.0
 10
136.1577527871411
 20
-149.7893066031777
 30
0.0
 10
136.2170084294874
 20
-149.7893066031777
 30
0.0
 10
136.2655842758294
 20
-149.7424533045782
 30
0.0
 10
136.2655842758294
 20
-149.6835421717805
 30
0.0
 10
136.2655842758294
 20
-149.6242865294342
 30
0.0
 10
136.2170084294874
 20
-149.5753661735436
 30
0.0
 10
136.1577527871411
 20
-149.5753661735436
 30
0.0
 10
136.0984971447948
 20
-149.5753661735436
 30
0.0
 10
136.0519883557439
 20
-149.6242865294342
 30
0.0
 10
136.0519883557439
 20
-149.6835421717805
 30
0.0
  0
SPLINE
  5
152
330
13D
100
AcDbEntity
  8
レイヤー 1
100
AcDbSpline
210
0.0
220
0.0
230
1.0
 70
     9
 71
     3
 72
    17
 73
    13
 74
     0
 42
0.0000000001
 43
0.0000000001
 40
0.0
 40
0.0
 40
0.0
 40
0.0
 40
1.0
 40
1.0
 40
1.0
 40
2.0
 40
2.0
 40
2.0
 40
3.0
 40
3.0
 40
3.0
 40
4.0
 40
4.0
 40
4.0
 40
4.0
 10
136.3672145926443
 20
-149.6835421717805
 30
0.0
 10
136.3672145926443
 20
-149.7975748323423
 30
0.0
 10
136.2741970145425
 20
-149.8926594677351
 30
0.0
 10
136.1577527871411
 20
-149.8926594677351
 30
0.0
 10
136.0433756170308
 20
-149.8926594677351
 30
0.0
 10
135.9482909816379
 20
-149.7975748323423
 30
0.0
 10
135.9482909816379
 20
-149.6835421717805
 30
0.0
 10
135.9482909816379
 20
-149.5670979443791
 30
0.0
 10
136.0433756170308
 20
-149.4740803662773
 30
0.0
 10
136.1577527871411
 20
-149.4740803662773
 30
0.0
 10
136.2721299572514
 20
-149.4740803662773
 30
0.0
 10
136.3672145926443
 20
-149.5670979443791
 30
0.0
 10
136.3672145926443
 20
-149.6835421717805
 30
0.0
  0
HATCH
  5
153
330
13D
100
AcDbEntity
  8
レイヤー 1
 62
    18
420
        0
440
 33554687
100
AcDbHatch
 10
0.0
 20
0.0
 30
0.0
210
0.0
220
0.0
230
1.0
  2
SOLID
 70
     1
 71
     1
 91
        2
 92
        1
 93
        1
 72
     4
 94
        3
 73
     0
 74
     0
 95
       17
 96
       13
 40
0.0
 40
0.0
 40
0.0
 40
0.0
 40
1.0
 40
1.0
 40
1.0
 40
2.0
 40
2.0
 40
2.0
 40
3.0
 40
3.0
 40
3.0
 40
4.0
 40
4.0
 40
4.0
 40
4.0
 10
136.0519883557439
 20
-149.6835421717805
 10
136.0519883557439
 20
-149.7424533045782
 10
136.0984971447948
 20
-149.7893066031777
 10
136.1577527871411
 20
-149.7893066031777
 10
136.2170084294874
 20
-149.7893066031777
 10
136.2655842758294
 20
-149.7424533045782
 10
136.2655842758294
 20
-149.6835421717805
 10
136.2655842758294
 20
-149.6242865294342
 10
136.2170084294874
 20
-149.5753661735436
 10
136.1577527871411
 20
-149.5753661735436
 10
136.0984971447948
 20
-149.5753661735436
 10
136.0519883557439
 20
-149.6242865294342
 10
136.0519883557439
 20
-149.6835421717805
 97
        0
 97
        1
330
151
 92
        1
 93
        1
 72
     4
 94
        3
 73
     0
 74
     0
 95
       17
 96
       13
 40
0.0
 40
0.0
 40
0.0
 40
0.0
 40
1.0
 40
1.0
 40
1.0
 40
2.0
 40
2.0
 40
2.0
 40
3.0
 40
3.0
 40
3.0
 40
4.0
 40
4.0
 40
4.0
 40
4.0
 10
136.3672145926443
 20
-149.6835421717805
 10
136.3672145926443
 20
-149.7975748323423
 10
136.2741970145425
 20
-149.8926594677351
 10
136.1577527871411
 20
-149.8926594677351
 10
136.0433756170308
 20
-149.8926594677351
 10
135.9482909816379
 20
-149.7975748323423
 10
135.9482909816379
 20
-149.6835421717805
 10
135.9482909816379
 20
-149.5670979443791
 10
136.0433756170308
 20
-149.4740803662773
 10
136.1577527871411
 20
-149.4740803662773
 10
136.2721299572514
 20
-149.4740803662773
 10
136.3672145926443
 20
-149.5670979443791
 10
136.3672145926443
 20
-149.6835421717805
 97
        0
 97
        1
330
152
 75
     2
 76
     1
 98
        1
 10
0.0
 20
0.0
450
        0
451
        0
460
0.0
461
0.0
452
        0
462
0.0
453
        0
470

  0
ENDBLK
  5
140
330
13D
100
AcDbEntity
  8
0
100
AcDbBlockEnd
  0
BLOCK
  5
15D
330
15B
100
AcDbEntity
  8
0
100
AcDbBlockBegin
  2
Block_14
 70
     0
 10
0.0
 20
0.0
 30
0.0
  3
Block_14
  1

  0
INSERT
  5
160
330
15B
100
AcDbEntity
  8
レイヤー 1
100
AcDbBlockReference
  2
Block_15
 10
0.0
 20
0.0
 30
0.0
  0
ENDBLK
  5
15E
330
15B
100
AcDbEntity
  8
0
100
AcDbBlockEnd
  0
BLOCK
  5
161
330
15F
100
AcDbEntity
  8
0
100
AcDbBlockBegin
  2
Block_15
 70
     0
 10
0.0
 20
0.0
 30
0.0
  3
Block_15
  1

  0
SPLINE
  5
163
330
15F
100
AcDbEntity
  8
レイヤー 1
100
AcDbSpline
210
0.0
220
0.0
230
1.0
 70
    11
 71
     3
 72
    26
 73
    22
 74
     0
 42
0.0000000001
 43
0.0000000001
 40
0.0
 40
0.0
 40
0.0
 40
0.0
 40
1.0
 40
1.0
 40
1.0
 40
2.0
 40
2.0
 40
2.0
 40
3.0
 40
3.0
 40
3.0
 40
4.0
 40
4.0
 40
4.0
 40
5.0
 40
5.0
 40
5.0
 40
6.0
 40
6.0
 40
6.0
 40
7.0
 40
7.0
 40
7.0
 40
7.0
 10
102.7318860962788
 20
-157.3278645440014
 30
0.0
 10
102.7318860962788
 20
-157.3278645440014
 30
0.0
 10
102.7318860962788
 20
-156.2237114409788
 30
0.0
 10
102.7318860962788
 20
-156.2237114409788
 30
0.0
 10
102.7318860962788
 20
-156.2237114409788
 30
0.0
 10
102.4018459487919
 20
-156.2237114409788
 30
0.0
 10
102.4018459487919
 20
-156.2237114409788
 30
0.0
 10
102.4018459487919
 20
-156.2237114409788
 30
0.0
 10
102.4018459487919
 20
-156.075572335113
 30
0.0
 10
102.4018459487919
 20
-156.075572335113
 30
0.0
 10
102.73395315357
 20
-156.0607584245265
 30
0.0
 10
102.7804619426208
 20
-155.8978054080741
 30
0.0
 10
102.810089763794
 20
-155.7834282379638
 30
0.0
 10
102.810089763794
 20
-155.7834282379638
 30
0.0
 10
102.9561618123686
 20
-155.7834282379638
 30
0.0
 10
102.9561618123686
 20
-155.7834282379638
 30
0.0
 10
102.9561618123686
 20
-155.7834282379638
 30
0.0
 10
102.9561618123686
 20
-157.3278645440014
 30
0.0
 10
102.9561618123686
 20
-157.3278645440014
 30
0.0
 10
102.9561618123686
 20
-157.3278645440014
 30
0.0
 10
102.7318860962788
 20
-157.3278645440014
 30
0.0
 10
102.7318860962788
 20
-157.3278645440014
 30
0.0
  0
HATCH
  5
164
330
15F
100
AcDbEntity
  8
レイヤー 1
 62
   250
420
  2299925
440
 33554687
100
AcDbHatch
 10
0.0
 20
0.0
 30
0.0
210
0.0
220
0.0
230
1.0
  2
SOLID
 70
     1
 71
     1
 91
        1
 92
        1
 93
        1
 72
     4
 94
        3
 73
     0
 74
     0
 95
       26
 96
       22
 40
0.0
 40
0.0
 40
0.0
 40
0.0
 40
1.0
 40
1.0
 40
1.0
 40
2.0
 40
2.0
 40
2.0
 40
3.0
 40
3.0
 40
3.0
 40
4.0
 40
4.0
 40
4.0
 40
5.0
 40
5.0
 40
5.0
 40
6.0
 40
6.0
 40
6.0
 40
7.0
 40
7.0
 40
7.0
 40
7.0
 10
102.7318860962788
 20
-157.3278645440014
 10
102.7318860962788
 20
-157.3278645440014
 10
102.7318860962788
 20
-156.2237114409788
 10
102.7318860962788
 20
-156.2237114409788
 10
102.7318860962788
 20
-156.2237114409788
 10
102.4018459487919
 20
-156.2237114409788
 10
102.4018459487919
 20
-156.2237114409788
 10
102.4018459487919
 20
-156.2237114409788
 10
102.4018459487919
 20
-156.075572335113
 10
102.4018459487919
 20
-156.075572335113
 10
102.73395315357
 20
-156.0607584245265
 10
102.7804619426208
 20
-155.8978054080741
 10
102.810089763794
 20
-155.7834282379638
 10
102.810089763794
 20
-155.7834282379638
 10
102.9561618123686
 20
-155.7834282379638
 10
102.9561618123686
 20
-155.7834282379638
 10
102.9561618123686
 20
-155.7834282379638
 10
102.9561618123686
 20
-157.3278645440014
 10
102.9561618123686
 20
-157.3278645440014
 10
102.9561618123686
 20
-157.3278645440014
 10
102.7318860962788
 20
-157.3278645440014
 10
102.7318860962788
 20
-157.3278645440014
 97
        0
 97
        1
330
163
 75
     2
 76
     1
 98
        1
 10
0.0
 20
0.0
450
        0
451
        0
460
0.0
461
0.0
452
        0
462
0.0
453
        0
470

  0
SPLINE
  5
165
330
15F
100
AcDbEntity
  8
レイヤー 1
100
AcDbSpline
210
0.0
220
0.0
230
1.0
 70
    11
 71
     3
 72
    26
 73
    22
 74
     0
 42
0.0000000001
 43
0.0000000001
 40
0.0
 40
0.0
 40
0.0
 40
0.0
 40
1.0
 40
1.0
 40
1.0
 40
2.0
 40
2.0
 40
2.0
 40
3.0
 40
3.0
 40
3.0
 40
4.0
 40
4.0
 40
4.0
 40
5.0
 40
5.0
 40
5.0
 40
6.0
 40
6.0
 40
6.0
 40
7.0
 40
7.0
 40
7.0
 40
7.0
 10
103.9087307140402
 20
-157.3278645440014
 30
0.0
 10
103.9087307140402
 20
-157.3278645440014
 30
0.0
 10
103.9087307140402
 20
-156.2237114409788
 30
0.0
 10
103.9087307140402
 20
-156.2237114409788
 30
0.0
 10
103.9087307140402
 20
-156.2237114409788
 30
0.0
 10
103.5786905665532
 20
-156.2237114409788
 30
0.0
 10
103.5786905665532
 20
-156.2237114409788
 30
0.0
 10
103.5786905665532
 20
-156.2237114409788
 30
0.0
 10
103.5786905665532
 20
-156.075572335113
 30
0.0
 10
103.5786905665532
 20
-156.075572335113
 30
0.0
 10
103.9107977713313
 20
-156.0607584245265
 30
0.0
 10
103.9573065603822
 20
-155.8978054080741
 30
0.0
 10
103.9869343815553
 20
-155.7834282379638
 30
0.0
 10
103.9869343815553
 20
-155.7834282379638
 30
0.0
 10
104.1330064301299
 20
-155.7834282379638
 30
0.0
 10
104.1330064301299
 20
-155.7834282379638
 30
0.0
 10
104.1330064301299
 20
-155.7834282379638
 30
0.0
 10
104.1330064301299
 20
-157.3278645440014
 30
0.0
 10
104.1330064301299
 20
-157.3278645440014
 30
0.0
 10
104.1330064301299
 20
-157.3278645440014
 30
0.0
 10
103.9087307140402
 20
-157.3278645440014
 30
0.0
 10
103.9087307140402
 20
-157.3278645440014
 30
0.0
  0
HATCH
  5
166
330
15F
100
AcDbEntity
  8
レイヤー 1
 62
   250
420
  2299925
440
 33554687
100
AcDbHatch
 10
0.0
 20
0.0
 30
0.0
210
0.0
220
0.0
230
1.0
  2
SOLID
 70
     1
 71
     1
 91
        1
 92
        1
 93
        1
 72
     4
 94
        3
 73
     0
 74
     0
 95
       26
 96
       22
 40
0.0
 40
0.0
 40
0.0
 40
0.0
 40
1.0
 40
1.0
 40
1.0
 40
2.0
 40
2.0
 40
2.0
 40
3.0
 40
3.0
 40
3.0
 40
4.0
 40
4.0
 40
4.0
 40
5.0
 40
5.0
 40
5.0
 40
6.0
 40
6.0
 40
6.0
 40
7.0
 40
7.0
 40
7.0
 40
7.0
 10
103.9087307140402
 20
-157.3278645440014
 10
103.9087307140402
 20
-157.3278645440014
 10
103.9087307140402
 20
-156.2237114409788
 10
103.9087307140402
 20
-156.2237114409788
 10
103.9087307140402
 20
-156.2237114409788
 10
103.5786905665532
 20
-156.2237114409788
 10
103.5786905665532
 20
-156.2237114409788
 10
103.5786905665532
 20
-156.2237114409788
 10
103.5786905665532
 20
-156.075572335113
 10
103.5786905665532
 20
-156.075572335113
 10
103.9107977713313
 20
-156.0607584245265
 10
103.9573065603822
 20
-155.8978054080741
 10
103.9869343815553
 20
-155.7834282379638
 10
103.9869343815553
 20
-155.7834282379638
 10
104.1330064301299
 20
-155.7834282379638
 10
104.1330064301299
 20
-155.7834282379638
 10
104.1330064301299
 20
-155.7834282379638
 10
104.1330064301299
 20
-157.3278645440014
 10
104.1330064301299
 20
-157.3278645440014
 10
104.1330064301299
 20
-157.3278645440014
 10
103.9087307140402
 20
-157.3278645440014
 10
103.9087307140402
 20
-157.3278645440014
 97
        0
 97
        1
330
165
 75
     2
 76
     1
 98
        1
 10
0.0
 20
0.0
450
        0
451
        0
460
0.0
461
0.0
452
        0
462
0.0
453
        0
470

  0
ENDBLK
  5
162
330
15F
100
AcDbEntity
  8
0
100
AcDbBlockEnd
  0
ENDSEC
  0
SECTION
  2
ENTITIES
  0
INSERT
  5
7A
330
70
100
AcDbEntity
  8
レイヤー 1
100
AcDbBlockReference
  2
Block_0
 10
0.0
 20
0.0
 30
0.0
  0
INSERT
  5
12F
330
70
100
AcDbEntity
  8
レイヤー 1
100
AcDbBlockReference
  2
Block_10
 10
0.0
 20
0.0
 30
0.0
  0
SPLINE
  5
154
330
70
100
AcDbEntity
  8
レイヤー 1
 62
   250
420
  2299925
370
     9
100
AcDbSpline
210
0.0
220
0.0
230
1.0
 70
     9
 71
     3
 72
    17
 73
    13
 74
     0
 42
0.0000000001
 43
0.0000000001
 40
0.0
 40
0.0
 40
0.0
 40
0.0
 40
1.0
 40
1.0
 40
1.0
 40
2.0
 40
2.0
 40
2.0
 40
3.0
 40
3.0
 40
3.0
 40
4.0
 40
4.0
 40
4.0
 40
4.0
 10
97.8555481149209
 20
-158.041515671586
 30
0.0
 10
97.8555481149209
 20
-157.9863765049335
 30
0.0
 10
97.81056857748069
 20
-157.9415737271668
 30
0.0
 10
97.75517693382846
 20
-157.9415737271668
 30
0.0
 10
97.70052765241052
 20
-157.9415737271668
 30
0.0
 10
97.65554811497031
 20
-157.9863765049335
 30
0.0
 10
97.65554811497031
 20
-158.041515671586
 30
0.0
 10
97.65554811497031
 20
-158.0966195604615
 30
0.0
 10
97.70052765241052
 20
-158.1414223382283
 30
0.0
 10
97.75517693382846
 20
-158.1414223382283
 30
0.0
 10
97.81056857748069
 20
-158.1414223382283
 30
0.0
 10
97.8555481149209
 20
-158.0966195604615
 30
0.0
 10
97.8555481149209
 20
-158.041515671586
 30
0.0
  0
HATCH
  5
155
330
70
100
AcDbEntity
  8
レイヤー 1
 62
   250
420
  2299925
440
 33554687
100
AcDbHatch
 10
0.0
 20
0.0
 30
0.0
210
0.0
220
0.0
230
1.0
  2
SOLID
 70
     1
 71
     1
 91
        1
 92
        1
 93
        1
 72
     4
 94
        3
 73
     0
 74
     0
 95
       17
 96
       13
 40
0.0
 40
0.0
 40
0.0
 40
0.0
 40
1.0
 40
1.0
 40
1.0
 40
2.0
 40
2.0
 40
2.0
 40
3.0
 40
3.0
 40
3.0
 40
4.0
 40
4.0
 40
4.0
 40
4.0
 10
97.8555481149209
 20
-158.041515671586
 10
97.8555481149209
 20
-157.9863765049335
 10
97.81056857748069
 20
-157.9415737271668
 10
97.75517693382846
 20
-157.9415737271668
 10
97.70052765241052
 20
-157.9415737271668
 10
97.65554811497031
 20
-157.9863765049335
 10
97.65554811497031
 20
-158.041515671586
 10
97.65554811497031
 20
-158.0966195604615
 10
97.70052765241052
 20
-158.1414223382283
 10
97.75517693382846
 20
-158.1414223382283
 10
97.81056857748069
 20
-158.1414223382283
 10
97.8555481149209
 20
-158.0966195604615
 10
97.8555481149209
 20
-158.041515671586
 97
        0
 97
        1
330
154
 75
     2
 76
     1
 98
        1
 10
0.0
 20
0.0
450
        0
451
        0
460
0.0
461
0.0
452
        0
462
0.0
453
        0
470

  0
SPLINE
  5
156
330
70
100
AcDbEntity
  8
レイヤー 1
 62
   250
420
  2299925
370
     9
100
AcDbSpline
210
0.0
220
0.0
230
1.0
 70
     9
 71
     3
 72
    17
 73
    13
 74
     0
 42
0.0000000001
 43
0.0000000001
 40
0.0
 40
0.0
 40
0.0
 40
0.0
 40
1.0
 40
1.0
 40
1.0
 40
2.0
 40
2.0
 40
2.0
 40
3.0
 40
3.0
 40
3.0
 40
4.0
 40
4.0
 40
4.0
 40
4.0
 10
108.8982345856761
 20
-158.041515671586
 30
0.0
 10
108.8982345856761
 20
-157.9863765049335
 30
0.0
 10
108.8536209579751
 20
-157.9415737271668
 30
0.0
 10
108.7985962149359
 20
-157.9415737271668
 30
0.0
 10
108.7428482134278
 20
-157.9415737271668
 30
0.0
 10
108.6982345857255
 20
-157.9863765049335
 30
0.0
 10
108.6982345857255
 20
-158.041515671586
 30
0.0
 10
108.6982345857255
 20
-158.0966195604615
 30
0.0
 10
108.7428482134278
 20
-158.1414223382283
 30
0.0
 10
108.7985962149359
 20
-158.1414223382283
 30
0.0
 10
108.8536209579751
 20
-158.1414223382283
 30
0.0
 10
108.8982345856761
 20
-158.0966195604615
 30
0.0
 10
108.8982345856761
 20
-158.041515671586
 30
0.0
  0
HATCH
  5
157
330
70
100
AcDbEntity
  8
レイヤー 1
 62
   250
420
  2299925
440
 33554687
100
AcDbHatch
 10
0.0
 20
0.0
 30
0.0
210
0.0
220
0.0
230
1.0
  2
SOLID
 70
     1
 71
     1
 91
        1
 92
        1
 93
        1
 72
     4
 94
        3
 73
     0
 74
     0
 95
       17
 96
       13
 40
0.0
 40
0.0
 40
0.0
 40
0.0
 40
1.0
 40
1.0
 40
1.0
 40
2.0
 40
2.0
 40
2.0
 40
3.0
 40
3.0
 40
3.0
 40
4.0
 40
4.0
 40
4.0
 40
4.0
 10
108.8982345856761
 20
-158.041515671586
 10
108.8982345856761
 20
-157.9863765049335
 10
108.8536209579751
 20
-157.9415737271668
 10
108.7985962149359
 20
-157.9415737271668
 10
108.7428482134278
 20
-157.9415737271668
 10
108.6982345857255
 20
-157.9863765049335
 10
108.6982345857255
 20
-158.041515671586
 10
108.6982345857255
 20
-158.0966195604615
 10
108.7428482134278
 20
-158.1414223382283
 10
108.7985962149359
 20
-158.1414223382283
 10
108.8536209579751
 20
-158.1414223382283
 10
108.8982345856761
 20
-158.0966195604615
 10
108.8982345856761
 20
-158.041515671586
 97
        0
 97
        1
330
156
 75
     2
 76
     1
 98
        1
 10
0.0
 20
0.0
450
        0
451
        0
460
0.0
461
0.0
452
        0
462
0.0
453
        0
470

  0
LINE
  5
158
330
70
100
AcDbEntity
  8
レイヤー 1
 62
   250
420
  2299925
370
     9
100
AcDbLine
 10
108.7989048912772
 20
-158.041515671586
 30
0.0
 11
97.75486019829616
 21
-158.041515671586
 31
0.0
  0
LINE
  5
159
330
70
100
AcDbEntity
  8
レイヤー 1
 62
   250
420
  2299925
370
     9
100
AcDbLine
 10
108.7989048634621
 20
-156.5814742830623
 30
0.0
 11
108.7989048634621
 21
-159.0416053935588
 31
0.0
  0
LINE
  5
15A
330
70
100
AcDbEntity
  8
レイヤー 1
 62
   250
420
  2299925
370
     9
100
AcDbLine
 10
97.75486019829616
 20
-156.5814742830623
 30
0.0
 11
97.75486019829616
 21
-159.0416053935588
 31
0.0
  0
INSERT
  5
15C
330
70
100
AcDbEntity
  8
レイヤー 1
100
AcDbBlockReference
  2
Block_14
 10
0.0
 20
0.0
 30
0.0
  0
ENDSEC
  0
SECTION
  2
OBJECTS
  0
DICTIONARY
  5
C
330
0
100
AcDbDictionary
281
     1
  3
ACAD_COLOR
350
63
  3
ACAD_DETAILVIEWSTYLE
350
6A
  3
ACAD_GROUP
350
D
  3
ACAD_LAYOUT
350
62
  3
ACAD_MATERIAL
350
10
  3
ACAD_MLEADERSTYLE
350
66
  3
ACAD_MLINESTYLE
350
5F
  3
ACAD_PLOTSETTINGS
350
61
  3
ACAD_PLOTSTYLENAME
350
E
  3
ACAD_SCALELIST
350
42
  3
ACAD_SECTIONVIEWSTYLE
350
68
  3
ACAD_TABLESTYLE
350
64
  3
ACAD_VISUALSTYLE
350
29
  3
ACDB_RECOMPOSE_DATA
350
16F
  3
AcDbVariableDictionary
350
167
  0
DICTIONARY
  5
63
102
{ACAD_REACTORS
330
C
102
}
330
C
100
AcDbDictionary
281
     1
  0
DICTIONARY
  5
6A
102
{ACAD_REACTORS
330
C
102
}
330
C
100
AcDbDictionary
281
     1
  3
Imperial24
350
6B
  0
DICTIONARY
  5
D
102
{ACAD_REACTORS
330
C
102
}
330
C
100
AcDbDictionary
281
     1
  0
DICTIONARY
  5
62
102
{ACAD_REACTORS
330
C
102
}
330
C
100
AcDbDictionary
281
     1
  3
Layout1
350
6F
  3
Layout2
350
77
  3
Model
350
73
  0
DICTIONARY
  5
10
102
{ACAD_REACTORS
330
C
102
}
330
C
100
AcDbDictionary
281
     1
  3
ByBlock
350
19
  3
ByLayer
350
11
  3
Global
350
21
  0
DICTIONARY
  5
66
102
{ACAD_REACTORS
330
C
102
}
330
C
100
AcDbDictionary
281
     1
  3
Standard
350
67
  0
DICTIONARY
  5
5F
102
{ACAD_REACTORS
330
C
102
}
330
C
100
AcDbDictionary
281
     1
  3
Standard
350
60
  0
DICTIONARY
  5
61
102
{ACAD_REACTORS
330
C
102
}
330
C
100
AcDbDictionary
281
     1
  0
ACDBDICTIONARYWDFLT
  5
E
102
{ACAD_REACTORS
330
C
102
}
330
C
100
AcDbDictionary
281
     1
  3
Normal
350
F
100
AcDbDictionaryWithDefault
340
F
  0
DICTIONARY
  5
42
102
{ACAD_REACTORS
330
C
102
}
330
C
100
AcDbDictionary
281
     1
  3
A0
350
43
  3
A1
350
44
  3
A2
350
45
  3
A3
350
46
  3
A4
350
47
  3
A5
350
48
  3
A6
350
49
  3
A7
350
4A
  3
A8
350
4B
  3
A9
350
4C
  3
B0
350
4D
  3
B1
350
4E
  3
B2
350
4F
  3
B3
350
50
  3
B4
350
51
  3
B5
350
52
  3
B6
350
53
  0
DICTIONARY
  5
68
102
{ACAD_REACTORS
330
C
102
}
330
C
100
AcDbDictionary
281
     1
  3
Imperial24
350
69
  0
DICTIONARY
  5
64
102
{ACAD_REACTORS
330
C
102
}
330
C
100
AcDbDictionary
281
     1
  3
Standard
350
65
  0
DICTIONARY
  5
29
102
{ACAD_REACTORS
330
C
102
}
330
C
100
AcDbDictionary
281
     1
  3
2dWireframe
350
2F
  3
Basic
350
2E
  3
Brighten
350
35
  3
ColorChange
350
39
  3
Conceptual
350
32
  3
Dim
350
34
  3
EdgeColorOff
350
41
  3
Facepattern
350
38
  3
Flat
350
2A
  3
FlatWithEdges
350
2B
  3
Gouraud
350
2C
  3
GouraudWithEdges
350
2D
  3
Hidden
350
31
  3
JitterOff
350
3F
  3
Linepattern
350
37
  3
OverhangOff
350
40
  3
Realistic
350
33
  3
Shaded
350
3E
  3
Shaded with edges
350
3D
  3
Shades of Gray
350
3A
  3
Sketchy
350
3B
  3
Thicken
350
36
  3
Wireframe
350
30
  3
X-Ray
350
3C
  0
XRECORD
  5
16F
102
{ACAD_REACTORS
330
C
102
}
330
C
100
AcDbXrecord
280
     1
 90
        1
330
65
  0
DICTIONARY
  5
167
102
{ACAD_REACTORS
330
C
102
}
330
C
100
AcDbDictionary
281
     1
  3
CANNOSCALE
350
16C
  3
CMLEADERSTYLE
350
169
  3
CTABLESTYLE
350
168
  3
CVIEWDETAILSTYLE
350
16A
  3
CVIEWSECTIONSTYLE
350
16B
  0
ACDBDETAILVIEWSTYLE
  5
6B
102
{ACAD_XDICTIONARY
360
1A4
102
}
102
{ACAD_REACTORS
330
6A
102
}
330
6A
100
AcDbModelDocViewStyle
 70
     0
  3
Imperial24
290
     0
100
AcDbDetailViewStyle
 70
     0
 71
     0
 90
        3
 71
     1
340
55
 62
   256
 40
0.24
340
0
 62
   256
 40
0.24
300

 40
0.36
280
     3
 71
     2
340
5D
 90
       25
 62
   256
 71
     3
340
55
 62
   256
 40
0.24
 90
        1
 40
0.75
 90
        1
300
%<\AcVar ViewType \f "%tc1">% %<\AcVar ViewDetailId>%\PSCALE %<\AcVar ViewScale \f "%sn">%
 71
     4
340
5D
 90
       25
 62
   256
340
5D
 90
       25
 62
   256
280
     0
  0
LAYOUT
  5
6F
102
{ACAD_REACTORS
330
62
102
}
330
62
100
AcDbPlotSettings
  1

  2

  4

  6

 40
0.0
 41
0.0
 42
0.0
 43
0.0
 44
0.0
 45
0.0
 46
0.0
 47
0.0
 48
0.0
 49
0.0
140
0.0
141
0.0
142
1.0
143
1.0
 70
   688
 72
     0
 73
     0
 74
     5
  7

 75
    16
147
1.0
 76
     0
 77
     2
 78
   300
148
0.0
149
0.0
100
AcDbLayout
  1
Layout1
 70
     1
 71
     1
 10
0.0
 20
0.0
 11
12.0
 21
9.0
 12
0.0
 22
0.0
 32
0.0
 14
0.0
 24
0.0
 34
0.0
 15
0.0
 25
0.0
 35
0.0
146
0.0
 13
0.0
 23
0.0
 33
0.0
 16
1.0
 26
0.0
 36
0.0
 17
0.0
 27
1.0
 37
0.0
 76
     0
330
6C
  0
LAYOUT
  5
77
102
{ACAD_REACTORS
330
62
102
}
330
62
100
AcDbPlotSettings
  1

  2

  4

  6

 40
0.0
 41
0.0
 42
0.0
 43
0.0
 44
0.0
 45
0.0
 46
0.0
 47
0.0
 48
0.0
 49
0.0
140
0.0
141
0.0
142
1.0
143
1.0
 70
   688
 72
     0
 73
     0
 74
     5
  7

 75
    16
147
1.0
 76
     0
 77
     2
 78
   300
148
0.0
149
0.0
100
AcDbLayout
  1
Layout2
 70
     1
 71
     2
 10
0.0
 20
0.0
 11
12.0
 21
9.0
 12
0.0
 22
0.0
 32
0.0
 14
0.0
 24
0.0
 34
0.0
 15
0.0
 25
0.0
 35
0.0
146
0.0
 13
0.0
 23
0.0
 33
0.0
 16
1.0
 26
0.0
 36
0.0
 17
0.0
 27
1.0
 37
0.0
 76
     0
330
74
  0
LAYOUT
  5
73
102
{ACAD_REACTORS
330
62
102
}
330
62
100
AcDbPlotSettings
  1

  2

  4

  6

 40
0.0
 41
0.0
 42
0.0
 43
0.0
 44
0.0
 45
0.0
 46
0.0
 47
0.0
 48
0.0
 49
0.0
140
0.0
141
0.0
142
1.0
143
1.0
 70
  1712
 72
     0
 73
     0
 74
     0
  7

 75
     0
147
1.0
 76
     0
 77
     2
 78
   300
148
0.0
149
0.0
100
AcDbLayout
  1
Model
 70
     1
 71
     0
 10
0.0
 20
0.0
 11
12.0
 21
9.0
 12
0.0
 22
0.0
 32
0.0
 14
0.0
 24
0.0
 34
0.0
 15
0.0
 25
0.0
 35
0.0
146
0.0
 13
0.0
 23
0.0
 33
0.0
 16
1.0
 26
0.0
 36
0.0
 17
0.0
 27
1.0
 37
0.0
 76
     0
330
70
  0
MATERIAL
  5
19
102
{ACAD_XDICTIONARY
360
1A
102
}
102
{ACAD_REACTORS
330
10
102
}
330
10
100
AcDbMaterial
  1
ByBlock
 72
     0
 43
0.0208333333333333
 43
0.0
 43
0.0
 43
0.0
 43
0.0
 43
0.0208333333333333
 43
0.0
 43
0.0
 43
0.0
 43
0.0
 43
1.0
 43
0.0
 43
0.0
 43
0.0
 43
0.0
 43
1.0
 77
     0
 47
0.0208333333333333
 47
0.0
 47
0.0
 47
0.0
 47
0.0
 47
0.0208333333333333
 47
0.0
 47
0.0
 47
0.0
 47
0.0
 47
1.0
 47
0.0
 47
0.0
 47
0.0
 47
0.0
 47
1.0
171
     0
 49
0.0208333333333333
 49
0.0
 49
0.0
 49
0.0
 49
0.0
 49
0.0208333333333333
 49
0.0
 49
0.0
 49
0.0
 49
0.0
 49
1.0
 49
0.0
 49
0.0
 49
0.0
 49
0.0
 49
1.0
175
     0
142
0.0208333333333333
142
0.0
142
0.0
142
0.0
142
0.0
142
0.0208333333333333
142
0.0
142
0.0
142
0.0
142
0.0
142
1.0
142
0.0
142
0.0
142
0.0
142
0.0
142
1.0
179
     0
144
0.0208333333333333
144
0.0
144
0.0
144
0.0
144
0.0
144
0.0208333333333333
144
0.0
144
0.0
144
0.0
144
0.0
144
1.0
144
0.0
144
0.0
144
0.0
144
0.0
144
1.0
147
0.0208333333333333
147
0.0
147
0.0
147
0.0
147
0.0
147
0.0208333333333333
147
0.0
147
0.0
147
0.0
147
0.0
147
1.0
147
0.0
147
0.0
147
0.0
147
0.0
147
1.0
  0
MATERIAL
  5
11
102
{ACAD_XDICTIONARY
360
12
102
}
102
{ACAD_REACTORS
330
10
102
}
330
10
100
AcDbMaterial
  1
ByLayer
 72
     0
 43
0.0208333333333333
 43
0.0
 43
0.0
 43
0.0
 43
0.0
 43
0.0208333333333333
 43
0.0
 43
0.0
 43
0.0
 43
0.0
 43
1.0
 43
0.0
 43
0.0
 43
0.0
 43
0.0
 43
1.0
 77
     0
 47
0.0208333333333333
 47
0.0
 47
0.0
 47
0.0
 47
0.0
 47
0.0208333333333333
 47
0.0
 47
0.0
 47
0.0
 47
0.0
 47
1.0
 47
0.0
 47
0.0
 47
0.0
 47
0.0
 47
1.0
171
     0
 49
0.0208333333333333
 49
0.0
 49
0.0
 49
0.0
 49
0.0
 49
0.0208333333333333
 49
0.0
 49
0.0
 49
0.0
 49
0.0
 49
1.0
 49
0.0
 49
0.0
 49
0.0
 49
0.0
 49
1.0
175
     0
142
0.0208333333333333
142
0.0
142
0.0
142
0.0
142
0.0
142
0.0208333333333333
142
0.0
142
0.0
142
0.0
142
0.0
142
1.0
142
0.0
142
0.0
142
0.0
142
0.0
142
1.0
179
     0
144
0.0208333333333333
144
0.0
144
0.0
144
0.0
144
0.0
144
0.0208333333333333
144
0.0
144
0.0
144
0.0
144
0.0
144
1.0
144
0.0
144
0.0
144
0.0
144
0.0
144
1.0
147
0.0208333333333333
147
0.0
147
0.0
147
0.0
147
0.0
147
0.0208333333333333
147
0.0
147
0.0
147
0.0
147
0.0
147
1.0
147
0.0
147
0.0
147
0.0
147
0.0
147
1.0
  0
MATERIAL
  5
21
102
{ACAD_XDICTIONARY
360
22
102
}
102
{ACAD_REACTORS
330
10
102
}
330
10
100
AcDbMaterial
  1
Global
 72
     0
 43
0.0208333333333333
 43
0.0
 43
0.0
 43
0.0
 43
0.0
 43
0.0208333333333333
 43
0.0
 43
0.0
 43
0.0
 43
0.0
 43
1.0
 43
0.0
 43
0.0
 43
0.0
 43
0.0
 43
1.0
 77
     0
 47
0.0208333333333333
 47
0.0
 47
0.0
 47
0.0
 47
0.0
 47
0.0208333333333333
 47
0.0
 47
0.0
 47
0.0
 47
0.0
 47
1.0
 47
0.0
 47
0.0
 47
0.0
 47
0.0
 47
1.0
171
     0
 49
0.0208333333333333
 49
0.0
 49
0.0
 49
0.0
 49
0.0
 49
0.0208333333333333
 49
0.0
 49
0.0
 49
0.0
 49
0.0
 49
1.0
 49
0.0
 49
0.0
 49
0.0
 49
0.0
 49
1.0
175
     0
142
0.0208333333333333
142
0.0
142
0.0
142
0.0
142
0.0
142
0.0208333333333333
142
0.0
142
0.0
142
0.0
142
0.0
142
1.0
142
0.0
142
0.0
142
0.0
142
0.0
142
1.0
179
     0
144
0.0208333333333333
144
0.0
144
0.0
144
0.0
144
0.0
144
0.0208333333333333
144
0.0
144
0.0
144
0.0
144
0.0
144
1.0
144
0.0
144
0.0
144
0.0
144
0.0
144
1.0
147
0.0208333333333333
147
0.0
147
0.0
147
0.0
147
0.0
147
0.0208333333333333
147
0.0
147
0.0
147
0.0
147
0.0
147
1.0
147
0.0
147
0.0
147
0.0
147
0.0
147
1.0
  0
MLEADERSTYLE
  5
67
102
{ACAD_XDICTIONARY
360
1A0
102
}
102
{ACAD_REACTORS
330
66
102
}
330
66
100
AcDbMLeaderStyle
179
     2
170
     2
171
     1
172
     0
 90
        2
 40
0.0
 41
0.0
173
     1
 91
-1056964608
340
5B
 92
       -2
290
     1
 42
0.09
291
     1
 43
0.36
  3
Standard
 44
0.18
300

342
55
174
     1
178
     6
175
     1
176
     0
 93
-1056964608
 45
0.18
292
     0
297
     0
 46
0.18
 94
-1056964608
 47
1.0
 49
1.0
140
1.0
293
     1
141
0.0
294
     1
177
     0
142
1.0
295
     0
296
     0
143
0.125
271
     0
272
     9
273
     9
  0
MLINESTYLE
  5
60
102
{ACAD_REACTORS
330
5F
102
}
330
5F
100
AcDbMlineStyle
  2
STANDARD
 70
     0
  3

 62
   256
 51
90.0
 52
90.0
 71
     2
 49
0.5
 62
   256
  6
BYLAYER
 49
-0.5
 62
   256
  6
BYLAYER
  0
ACDBPLACEHOLDER
  5
F
102
{ACAD_REACTORS
330
E
102
}
330
E
  0
SCALE
  5
43
102
{ACAD_REACTORS
330
42
102
}
330
42
100
AcDbScale
 70
     0
300
1:1
140
1.0
141
1.0
290
     1
  0
SCALE
  5
44
102
{ACAD_REACTORS
330
42
102
}
330
42
100
AcDbScale
 70
     0
300
1/128" = 1'-0"
140
0.0078125
141
12.0
290
     0
  0
SCALE
  5
45
102
{ACAD_REACTORS
330
42
102
}
330
42
100
AcDbScale
 70
     0
300
1/64" = 1'-0"
140
0.015625
141
12.0
290
     0
  0
SCALE
  5
46
102
{ACAD_REACTORS
330
42
102
}
330
42
100
AcDbScale
 70
     0
300
1/32" = 1'-0"
140
0.03125
141
12.0
290
     0
  0
SCALE
  5
47
102
{ACAD_REACTORS
330
42
102
}
330
42
100
AcDbScale
 70
     0
300
1/16" = 1'-0"
140
0.0625
141
12.0
290
     0
  0
SCALE
  5
48
102
{ACAD_REACTORS
330
42
102
}
330
42
100
AcDbScale
 70
     0
300
3/32" = 1'-0"
140
0.09375
141
12.0
290
     0
  0
SCALE
  5
49
102
{ACAD_REACTORS
330
42
102
}
330
42
100
AcDbScale
 70
     0
300
1/8" = 1'-0"
140
0.125
141
12.0
290
     0
  0
SCALE
  5
4A
102
{ACAD_REACTORS
330
42
102
}
330
42
100
AcDbScale
 70
     0
300
3/16" = 1'-0"
140
0.1875
141
12.0
290
     0
  0
SCALE
  5
4B
102
{ACAD_REACTORS
330
42
102
}
330
42
100
AcDbScale
 70
     0
300
1/4" = 1'-0"
140
0.25
141
12.0
290
     0
  0
SCALE
  5
4C
102
{ACAD_REACTORS
330
42
102
}
330
42
100
AcDbScale
 70
     0
300
3/8" = 1'-0"
140
0.375
141
12.0
290
     0
  0
SCALE
  5
4D
102
{ACAD_REACTORS
330
42
102
}
330
42
100
AcDbScale
 70
     0
300
1/2" = 1'-0"
140
0.5
141
12.0
290
     0
  0
SCALE
  5
4E
102
{ACAD_REACTORS
330
42
102
}
330
42
100
AcDbScale
 70
     0
300
3/4" = 1'-0"
140
0.75
141
12.0
290
     0
  0
SCALE
  5
4F
102
{ACAD_REACTORS
330
42
102
}
330
42
100
AcDbScale
 70
     0
300
1" = 1'-0"
140
1.0
141
12.0
290
     0
  0
SCALE
  5
50
102
{ACAD_REACTORS
330
42
102
}
330
42
100
AcDbScale
 70
     0
300
1-1/2" = 1'-0"
140
1.5
141
12.0
290
     0
  0
SCALE
  5
51
102
{ACAD_REACTORS
330
42
102
}
330
42
100
AcDbScale
 70
     0
300
3" = 1'-0"
140
3.0
141
12.0
290
     0
  0
SCALE
  5
52
102
{ACAD_REACTORS
330
42
102
}
330
42
100
AcDbScale
 70
     0
300
6" = 1'-0"
140
6.0
141
12.0
290
     0
  0
SCALE
  5
53
102
{ACAD_REACTORS
330
42
102
}
330
42
100
AcDbScale
 70
     0
300
1'-0" = 1'-0"
140
12.0
141
12.0
290
     0
  0
ACDBSECTIONVIEWSTYLE
  5
69
102
{ACAD_XDICTIONARY
360
1A2
102
}
102
{ACAD_REACTORS
330
68
102
}
330
68
100
AcDbModelDocViewStyle
 70
     0
  3
Imperial24
290
     0
100
AcDbSectionViewStyle
 70
     0
 71
     0
 90
       78
 71
     1
340
55
 62
   256
 40
0.24
340
0
340
0
 62
   256
 40
0.24
300
I, O, Q, S, X, Z
 40
0.48
 90
        3
 40
0.18
 90
        1
 71
     2
340
5D
 90
       25
 62
   256
340
5D
 90
       50
 62
   256
 40
0.24
 40
0.0
 40
0.24
 71
     3
340
55
 62
   256
 40
0.24
 90
        1
 40
0.75
 90
        1
300
%<\AcVar ViewType \f "%tc1">% %<\AcVar ViewSectionStartId>%-%<\AcVar ViewSectionEndId>%\PSCALE %<\AcVar ViewScale \f "%sn">%
 71
     4
 62
   256
 62
   257
300
ANSI31
 40
1.0
 90
        0
290
     0
290
     0
 90
        6
 40
0.0
 40
1.570796326794896
 40
0.2617993877991494
 40
1.308996938995747
 40
-0.2617993877991494
 40
1.832595714594046
  0
TABLESTYLE
  5
65
102
{ACAD_XDICTIONARY
360
16D
102
}
102
{ACAD_REACTORS
330
64
102
}
330
64
100
AcDbTableStyle
280
     0
  3
Standard
 70
     0
 71
     0
 40
0.06
 41
0.06
280
     0
281
     0
  7
Standard
140
0.18
170
     2
 62
     0
 63
     7
283
     0
 90
      512
 91
        0
  1

274
    -2
284
     1
 64
     0
275
    -2
285
     1
 65
     0
276
    -2
286
     1
 66
     0
277
    -2
287
     1
 67
     0
278
    -2
288
     1
 68
     0
279
    -2
289
     1
 69
     0
  7
Standard
140
0.25
170
     5
 62
     0
 63
     7
283
     0
 90
      512
 91
        0
  1

274
    -2
284
     1
 64
     0
275
    -2
285
     1
 65
     0
276
    -2
286
     1
 66
     0
277
    -2
287
     1
 67
     0
278
    -2
288
     1
 68
     0
279
    -2
289
     1
 69
     0
  7
Standard
140
0.18
170
     5
 62
     0
 63
     7
283
     0
 90
      512
 91
        0
  1

274
    -2
284
     1
 64
     0
275
    -2
285
     1
 65
     0
276
    -2
286
     1
 66
     0
277
    -2
287
     1
 67
     0
278
    -2
288
     1
 68
     0
279
    -2
289
     1
 69
     0
  0
VISUALSTYLE
  5
2F
102
{ACAD_XDICTIONARY
360
17A
102
}
102
{ACAD_REACTORS
330
29
102
}
330
29
100
AcDbVisualStyle
  2
2dWireframe
 70
     4
177
     2
291
     0
 71
     0
176
     1
 72
     2
176
     1
 73
     0
176
     1
 90
        0
176
     1
 40
0.6
176
     1
 41
30.0
176
     1
 63
     7
421
 16777215
176
     1
 74
     1
176
     1
 91
        4
176
     1
 64
     7
176
     1
 65
   257
176
     1
 75
     1
176
     1
175
     1
176
     1
 42
1.0
176
     1
 92
        0
176
     1
 66
   257
176
     1
 43
1.0
176
     1
 76
     1
176
     1
 77
     6
176
     1
 78
     2
176
     1
 67
     7
176
     1
 79
     5
176
     1
170
     0
176
     1
171
     0
176
     1
290
     0
176
     1
 93
        1
176
     1
 44
0.0
176
     1
173
     0
176
     1
1001
ACAD
1000
AcDbSavedByObjectVersion
1070
     0
  0
VISUALSTYLE
  5
2E
102
{ACAD_XDICTIONARY
360
178
102
}
102
{ACAD_REACTORS
330
29
102
}
330
29
100
AcDbVisualStyle
  2
Basic
 70
     7
177
     2
291
     1
 71
     1
176
     1
 72
     0
176
     1
 73
     1
176
     1
 90
        0
176
     1
 40
0.6
176
     1
 41
30.0
176
     1
 63
     7
421
 16777215
176
     1
 74
     0
176
     1
 91
        4
176
     1
 64
     7
176
     1
 65
   257
176
     1
 75
     1
176
     1
175
     1
176
     1
 42
1.0
176
     1
 92
        8
176
     1
 66
     7
176
     1
 43
1.0
176
     1
 76
     1
176
     1
 77
     6
176
     1
 78
     2
176
     1
 67
     7
176
     1
 79
     5
176
     1
170
     0
176
     1
171
     0
176
     1
290
     0
176
     1
 93
        1
176
     1
 44
0.0
176
     1
173
     0
176
     1
1001
ACAD
1000
AcDbSavedByObjectVersion
1070
     0
  0
VISUALSTYLE
  5
35
102
{ACAD_XDICTIONARY
360
186
102
}
102
{ACAD_REACTORS
330
29
102
}
330
29
100
AcDbVisualStyle
  2
Brighten
 70
    12
177
     2
291
     1
 71
     2
176
     1
 72
     2
176
     1
 73
     0
176
     1
 90
        0
176
     1
 40
0.6
176
     1
 41
30.0
176
     1
 63
     7
421
 16777215
176
     1
 74
     1
176
     1
 91
        4
176
     1
 64
     7
176
     1
 65
   257
176
     1
 75
     1
176
     1
175
     1
176
     1
 42
1.0
176
     1
 92
        8
176
     1
 66
     7
176
     1
 43
1.0
176
     1
 76
     1
176
     1
 77
     6
176
     1
 78
     2
176
     1
 67
     7
176
     1
 79
     5
176
     1
170
     0
176
     1
171
     0
176
     1
290
     0
176
     1
 93
        1
176
     1
 44
50.0
176
     1
173
     0
176
     1
1001
ACAD
1000
AcDbSavedByObjectVersion
1070
     0
  0
VISUALSTYLE
  5
39
102
{ACAD_XDICTIONARY
360
18E
102
}
102
{ACAD_REACTORS
330
29
102
}
330
29
100
AcDbVisualStyle
  2
ColorChange
 70
    16
177
     2
291
     1
 71
     2
176
     1
 72
     2
176
     1
 73
     3
176
     1
 90
        0
176
     1
 40
0.6
176
     1
 41
30.0
176
     1
 63
     8
421
  8421504
176
     1
 74
     1
176
     1
 91
        4
176
     1
 64
     7
176
     1
 65
   257
176
     1
 75
     1
176
     1
175
     1
176
     1
 42
1.0
176
     1
 92
        8
176
     1
 66
     8
424
  8421504
176
     1
 43
1.0
176
     1
 76
     1
176
     1
 77
     6
176
     1
 78
     2
176
     1
 67
     7
176
     1
 79
     5
176
     1
170
     0
176
     1
171
     0
176
     1
290
     0
176
     1
 93
        1
176
     1
 44
0.0
176
     1
173
     0
176
     1
1001
ACAD
1000
AcDbSavedByObjectVersion
1070
     0
  0
VISUALSTYLE
  5
32
102
{ACAD_XDICTIONARY
360
180
102
}
102
{ACAD_REACTORS
330
29
102
}
330
29
100
AcDbVisualStyle
  2
Conceptual
 70
     9
177
     2
291
     0
 71
     3
176
     1
 72
     2
176
     1
 73
     0
176
     1
 90
        0
176
     1
 40
0.6
176
     1
 41
30.0
176
     1
 63
     7
421
 16777215
176
     1
 74
     2
176
     1
 91
        2
176
     1
 64
     7
176
     1
 65
   257
176
     1
 75
     1
176
     1
175
     1
176
     1
 42
179.0
176
     1
 92
        8
176
     1
 66
     7
176
     1
 43
1.0
176
     1
 76
     1
176
     1
 77
     6
176
     1
 78
     2
176
     1
 67
     7
176
     1
 79
     3
176
     1
170
     0
176
     1
171
     0
176
     1
290
     0
176
     1
 93
        1
176
     1
 44
0.0
176
     1
173
     0
176
     1
1001
ACAD
1000
AcDbSavedByObjectVersion
1070
     0
  0
VISUALSTYLE
  5
34
102
{ACAD_XDICTIONARY
360
184
102
}
102
{ACAD_REACTORS
330
29
102
}
330
29
100
AcDbVisualStyle
  2
Dim
 70
    11
177
     2
291
     1
 71
     2
176
     1
 72
     2
176
     1
 73
     0
176
     1
 90
        0
176
     1
 40
0.6
176
     1
 41
30.0
176
     1
 63
     7
421
 16777215
176
     1
 74
     1
176
     1
 91
        4
176
     1
 64
     7
176
     1
 65
   257
176
     1
 75
     1
176
     1
175
     1
176
     1
 42
1.0
176
     1
 92
        8
176
     1
 66
     7
176
     1
 43
1.0
176
     1
 76
     1
176
     1
 77
     6
176
     1
 78
     2
176
     1
 67
     7
176
     1
 79
     5
176
     1
170
     0
176
     1
171
     0
176
     1
290
     0
176
     1
 93
        1
176
     1
 44
-50.0
176
     1
173
     0
176
     1
1001
ACAD
1000
AcDbSavedByObjectVersion
1070
     0
  0
VISUALSTYLE
  5
41
102
{ACAD_XDICTIONARY
360
19E
102
}
102
{ACAD_REACTORS
330
29
102
}
330
29
100
AcDbVisualStyle
  2
EdgeColorOff
 70
    22
177
     2
291
     1
 71
     2
176
     0
 72
     2
176
     0
 73
     0
176
     0
 90
        0
176
     0
 40
0.6
176
     0
 41
30.0
176
     0
 63
     7
421
 16777215
176
     0
 74
     1
176
     0
 91
        4
176
     0
 64
     7
176
     0
 65
   257
176
     0
 75
     1
176
     0
175
     1
176
     0
 42
1.0
176
     0
 92
        8
176
     2
 66
     7
176
     0
 43
1.0
176
     0
 76
     1
176
     0
 77
     6
176
     0
 78
     2
176
     0
 67
     7
176
     0
 79
     5
176
     0
170
     0
176
     0
171
     0
176
     0
290
     0
176
     0
 93
        1
176
     0
 44
0.0
176
     0
173
     0
176
     0
1001
ACAD
1000
AcDbSavedByObjectVersion
1070
     0
  0
VISUALSTYLE
  5
38
102
{ACAD_XDICTIONARY
360
18C
102
}
102
{ACAD_REACTORS
330
29
102
}
330
29
100
AcDbVisualStyle
  2
Facepattern
 70
    15
177
     2
291
     1
 71
     2
176
     1
 72
     2
176
     1
 73
     0
176
     1
 90
        0
176
     1
 40
0.6
176
     1
 41
30.0
176
     1
 63
     7
421
 16777215
176
     1
 74
     1
176
     1
 91
        4
176
     1
 64
     7
176
     1
 65
   257
176
     1
 75
     1
176
     1
175
     1
176
     1
 42
1.0
176
     1
 92
        8
176
     1
 66
     7
176
     1
 43
1.0
176
     1
 76
     1
176
     1
 77
     6
176
     1
 78
     2
176
     1
 67
     7
176
     1
 79
     5
176
     1
170
     0
176
     1
171
     0
176
     1
290
     0
176
     1
 93
        1
176
     1
 44
0.0
176
     1
173
     0
176
     1
1001
ACAD
1000
AcDbSavedByObjectVersion
1070
     0
  0
VISUALSTYLE
  5
2A
102
{ACAD_XDICTIONARY
360
170
102
}
102
{ACAD_REACTORS
330
29
102
}
330
29
100
AcDbVisualStyle
  2
Flat
 70
     0
177
     2
291
     1
 71
     2
176
     1
 72
     1
176
     1
 73
     1
176
     1
 90
        2
176
     1
 40
0.6
176
     1
 41
30.0
176
     1
 63
     7
421
 16777215
176
     1
 74
     0
176
     1
 91
        0
176
     1
 64
     7
176
     1
 65
   257
176
     1
 75
     1
176
     1
175
     1
176
     1
 42
1.0
176
     1
 92
        8
176
     1
 66
     7
176
     1
 43
1.0
176
     1
 76
     1
176
     1
 77
     6
176
     1
 78
     2
176
     1
 67
     7
176
     1
 79
     5
176
     1
170
     0
176
     1
171
     0
176
     1
290
     0
176
     1
 93
       13
176
     1
 44
0.0
176
     1
173
     0
176
     1
1001
ACAD
1000
AcDbSavedByObjectVersion
1070
     0
  0
VISUALSTYLE
  5
2B
102
{ACAD_XDICTIONARY
360
172
102
}
102
{ACAD_REACTORS
330
29
102
}
330
29
100
AcDbVisualStyle
  2
FlatWithEdges
 70
     1
177
     2
291
     1
 71
     2
176
     1
 72
     1
176
     1
 73
     1
176
     1
 90
        2
176
     1
 40
0.6
176
     1
 41
30.0
176
     1
 63
     7
421
 16777215
176
     1
 74
     1
176
     1
 91
        0
176
     1
 64
     7
176
     1
 65
   257
176
     1
 75
     1
176
     1
175
     1
176
     1
 42
1.0
176
     1
 92
        0
176
     1
 66
   257
176
     1
 43
1.0
176
     1
 76
     1
176
     1
 77
     6
176
     1
 78
     2
176
     1
 67
     7
176
     1
 79
     5
176
     1
170
     0
176
     1
171
     0
176
     1
290
     0
176
     1
 93
       13
176
     1
 44
0.0
176
     1
173
     0
176
     1
1001
ACAD
1000
AcDbSavedByObjectVersion
1070
     0
  0
VISUALSTYLE
  5
2C
102
{ACAD_XDICTIONARY
360
174
102
}
102
{ACAD_REACTORS
330
29
102
}
330
29
100
AcDbVisualStyle
  2
Gouraud
 70
     2
177
     2
291
     1
 71
     2
176
     1
 72
     2
176
     1
 73
     1
176
     1
 90
        2
176
     1
 40
0.6
176
     1
 41
30.0
176
     1
 63
     7
421
 16777215
176
     1
 74
     0
176
     1
 91
        0
176
     1
 64
     7
176
     1
 65
   257
176
     1
 75
     1
176
     1
175
     1
176
     1
 42
1.0
176
     1
 92
        0
176
     1
 66
     7
176
     1
 43
1.0
176
     1
 76
     1
176
     1
 77
     6
176
     1
 78
     2
176
     1
 67
     7
176
     1
 79
     5
176
     1
170
     0
176
     1
171
     0
176
     1
290
     0
176
     1
 93
       13
176
     1
 44
0.0
176
     1
173
     0
176
     1
1001
ACAD
1000
AcDbSavedByObjectVersion
1070
     0
  0
VISUALSTYLE
  5
2D
102
{ACAD_XDICTIONARY
360
176
102
}
102
{ACAD_REACTORS
330
29
102
}
330
29
100
AcDbVisualStyle
  2
GouraudWithEdges
 70
     3
177
     2
291
     1
 71
     2
176
     1
 72
     2
176
     1
 73
     1
176
     1
 90
        2
176
     1
 40
0.6
176
     1
 41
30.0
176
     1
 63
     7
421
 16777215
176
     1
 74
     1
176
     1
 91
        0
176
     1
 64
     7
176
     1
 65
   257
176
     1
 75
     1
176
     1
175
     1
176
     1
 42
1.0
176
     1
 92
        0
176
     1
 66
   257
176
     1
 43
1.0
176
     1
 76
     1
176
     1
 77
     6
176
     1
 78
     2
176
     1
 67
     7
176
     1
 79
     5
176
     1
170
     0
176
     1
171
     0
176
     1
290
     0
176
     1
 93
       13
176
     1
 44
0.0
176
     1
173
     0
176
     1
1001
ACAD
1000
AcDbSavedByObjectVersion
1070
     0
  0
VISUALSTYLE
  5
31
102
{ACAD_XDICTIONARY
360
17E
102
}
102
{ACAD_REACTORS
330
29
102
}
330
29
100
AcDbVisualStyle
  2
Hidden
 70
     6
177
     2
291
     0
 71
     1
176
     1
 72
     2
176
     1
 73
     2
176
     1
 90
        0
176
     1
 40
0.6
176
     1
 41
30.0
176
     1
 63
     7
421
 16777215
176
     1
 74
     2
176
     1
 91
        2
176
     1
 64
     7
176
     1
 65
   257
176
     1
 75
     2
176
     1
175
     1
176
     1
 42
40.0
176
     1
 92
        0
176
     1
 66
   257
176
     1
 43
1.0
176
     1
 76
     1
176
     1
 77
     6
176
     1
 78
     2
176
     1
 67
     7
176
     1
 79
     3
176
     1
170
     0
176
     1
171
     0
176
     1
290
     0
176
     1
 93
        1
176
     1
 44
0.0
176
     1
173
     0
176
     1
1001
ACAD
1000
AcDbSavedByObjectVersion
1070
     0
  0
VISUALSTYLE
  5
3F
102
{ACAD_XDICTIONARY
360
19A
102
}
102
{ACAD_REACTORS
330
29
102
}
330
29
100
AcDbVisualStyle
  2
JitterOff
 70
    20
177
     2
291
     1
 71
     2
176
     0
 72
     2
176
     0
 73
     0
176
     0
 90
        0
176
     0
 40
0.6
176
     0
 41
30.0
176
     0
 63
     7
421
 16777215
176
     0
 74
     1
176
     0
 91
        4
176
     0
 64
     7
176
     0
 65
   257
176
     0
 75
     1
176
     0
175
     1
176
     0
 42
1.0
176
     0
 92
       10
176
     2
 66
     7
176
     0
 43
1.0
176
     0
 76
     1
176
     0
 77
     6
176
     0
 78
     2
176
     0
 67
     7
176
     0
 79
     5
176
     0
170
     0
176
     0
171
     0
176
     0
290
     0
176
     0
 93
        1
176
     0
 44
0.0
176
     0
173
     0
176
     0
1001
ACAD
1000
AcDbSavedByObjectVersion
1070
     0
  0
VISUALSTYLE
  5
37
102
{ACAD_XDICTIONARY
360
18A
102
}
102
{ACAD_REACTORS
330
29
102
}
330
29
100
AcDbVisualStyle
  2
Linepattern
 70
    14
177
     2
291
     1
 71
     2
176
     1
 72
     2
176
     1
 73
     0
176
     1
 90
        0
176
     1
 40
0.6
176
     1
 41
30.0
176
     1
 63
     7
421
 16777215
176
     1
 74
     1
176
     1
 91
        4
176
     1
 64
     7
176
     1
 65
   257
176
     1
 75
     7
176
     1
175
     7
176
     1
 42
1.0
176
     1
 92
        8
176
     1
 66
     7
176
     1
 43
1.0
176
     1
 76
     1
176
     1
 77
     6
176
     1
 78
     2
176
     1
 67
     7
176
     1
 79
     5
176
     1
170
     0
176
     1
171
     0
176
     1
290
     0
176
     1
 93
        1
176
     1
 44
0.0
176
     1
173
     0
176
     1
1001
ACAD
1000
AcDbSavedByObjectVersion
1070
     0
  0
VISUALSTYLE
  5
40
102
{ACAD_XDICTIONARY
360
19C
102
}
102
{ACAD_REACTORS
330
29
102
}
330
29
100
AcDbVisualStyle
  2
OverhangOff
 70
    21
177
     2
291
     1
 71
     2
176
     0
 72
     2
176
     0
 73
     0
176
     0
 90
        0
176
     0
 40
0.6
176
     0
 41
30.0
176
     0
 63
     7
421
 16777215
176
     0
 74
     1
176
     0
 91
        4
176
     0
 64
     7
176
     0
 65
   257
176
     0
 75
     1
176
     0
175
     1
176
     0
 42
1.0
176
     0
 92
        9
176
     2
 66
     7
176
     0
 43
1.0
176
     0
 76
     1
176
     0
 77
     6
176
     0
 78
     2
176
     0
 67
     7
176
     0
 79
     5
176
     0
170
     0
176
     0
171
     0
176
     0
290
     0
176
     0
 93
        1
176
     0
 44
0.0
176
     0
173
     0
176
     0
1001
ACAD
1000
AcDbSavedByObjectVersion
1070
     0
  0
VISUALSTYLE
  5
33
102
{ACAD_XDICTIONARY
360
182
102
}
102
{ACAD_REACTORS
330
29
102
}
330
29
100
AcDbVisualStyle
  2
Realistic
 70
     8
177
     2
291
     0
 71
     2
176
     1
 72
     3
176
     1
 73
     0
176
     1
 90
        2
176
     1
 40
0.6
176
     1
 41
30.0
176
     1
 63
     7
421
 16777215
176
     1
 74
     0
176
     1
 91
        0
176
     1
 64
     7
176
     1
 65
   257
176
     1
 75
     1
176
     1
175
     1
176
     1
 42
1.0
176
     1
 92
        8
176
     1
 66
   257
176
     1
 43
1.0
176
     1
 76
     1
176
     1
 77
     6
176
     1
 78
     2
176
     1
 67
     7
176
     1
 79
     3
176
     1
170
     0
176
     1
171
     0
176
     1
290
     0
176
     1
 93
       13
176
     1
 44
0.0
176
     1
173
     0
176
     1
1001
ACAD
1000
AcDbSavedByObjectVersion
1070
     0
  0
VISUALSTYLE
  5
3E
102
{ACAD_XDICTIONARY
360
198
102
}
102
{ACAD_REACTORS
330
29
102
}
330
29
100
AcDbVisualStyle
  2
Shaded
 70
    27
177
     2
291
     0
 71
     2
176
     1
 72
     2
176
     1
 73
     1
176
     1
 90
        2
176
     1
 40
0.6
176
     1
 41
30.0
176
     1
 63
     7
421
 16777215
176
     1
 74
     0
176
     1
 91
        4
176
     1
 64
     7
176
     1
 65
   257
176
     1
 75
     1
176
     1
175
     1
176
     1
 42
1.0
176
     1
 92
        8
176
     1
 66
   257
176
     1
 43
1.0
176
     1
 76
     1
176
     1
 77
     6
176
     1
 78
     2
176
     1
 67
     8
425
  7895160
176
     1
 79
     3
176
     1
170
     0
176
     1
171
     0
176
     1
290
     0
176
     1
 93
        5
176
     1
 44
0.0
176
     1
173
     0
176
     1
1001
ACAD
1000
AcDbSavedByObjectVersion
1070
     0
  0
VISUALSTYLE
  5
3D
102
{ACAD_XDICTIONARY
360
196
102
}
102
{ACAD_REACTORS
330
29
102
}
330
29
100
AcDbVisualStyle
  2
Shaded with edges
 70
    26
177
     2
291
     0
 71
     2
176
     1
 72
     2
176
     1
 73
     1
176
     1
 90
        2
176
     1
 40
0.6
176
     1
 41
30.0
176
     1
 63
     7
421
 16777215
176
     1
 74
     1
176
     1
 91
        2
176
     1
 64
     7
176
     1
 65
   257
176
     1
 75
     2
176
     1
175
     1
176
     1
 42
1.0
176
     1
 92
        8
176
     1
 66
   257
176
     1
 43
1.0
176
     1
 76
     1
176
     1
 77
     6
176
     1
 78
     2
176
     1
 67
     7
176
     1
 79
     3
176
     1
170
     0
176
     1
171
     0
176
     1
290
     0
176
     1
 93
        5
176
     1
 44
0.0
176
     1
173
     0
176
     1
1001
ACAD
1000
AcDbSavedByObjectVersion
1070
     0
  0
VISUALSTYLE
  5
3A
102
{ACAD_XDICTIONARY
360
190
102
}
102
{ACAD_REACTORS
330
29
102
}
330
29
100
AcDbVisualStyle
  2
Shades of Gray
 70
    23
177
     2
291
     0
 71
     2
176
     1
 72
     2
176
     1
 73
     3
176
     1
 90
        0
176
     1
 40
0.6
176
     1
 41
30.0
176
     1
 63
     7
421
 16777215
176
     1
 74
     2
176
     1
 91
        2
176
     1
 64
     7
176
     1
 65
     7
176
     1
 75
     1
176
     1
175
     1
176
     1
 42
40.0
176
     1
 92
        8
176
     1
 66
     7
176
     1
 43
1.0
176
     1
 76
     1
176
     1
 77
     6
176
     1
 78
     2
176
     1
 67
     7
176
     1
 79
     3
176
     1
170
     0
176
     1
171
     0
176
     1
290
     0
176
     1
 93
        1
176
     1
 44
0.0
176
     1
173
     0
176
     1
1001
ACAD
1000
AcDbSavedByObjectVersion
1070
     0
  0
VISUALSTYLE
  5
3B
102
{ACAD_XDICTIONARY
360
192
102
}
102
{ACAD_REACTORS
330
29
102
}
330
29
100
AcDbVisualStyle
  2
Sketchy
 70
    24
177
     2
291
     0
 71
     1
176
     1
 72
     2
176
     1
 73
     2
176
     1
 90
        0
176
     1
 40
0.6
176
     1
 41
30.0
176
     1
 63
     7
421
 16777215
176
     1
 74
     2
176
     1
 91
        2
176
     1
 64
     7
176
     1
 65
     7
176
     1
 75
     1
176
     1
175
     1
176
     1
 42
40.0
176
     1
 92
       11
176
     1
 66
     7
176
     1
 43
1.0
176
     1
 76
     1
176
     1
 77
     6
176
     1
 78
     2
176
     1
 67
     7
176
     1
 79
     6
176
     1
170
     0
176
     1
171
     0
176
     1
290
     0
176
     1
 93
        1
176
     1
 44
0.0
176
     1
173
     0
176
     1
1001
ACAD
1000
AcDbSavedByObjectVersion
1070
     0
  0
VISUALSTYLE
  5
36
102
{ACAD_XDICTIONARY
360
188
102
}
102
{ACAD_REACTORS
330
29
102
}
330
29
100
AcDbVisualStyle
  2
Thicken
 70
    13
177
     2
291
     1
 71
     2
176
     1
 72
     2
176
     1
 73
     0
176
     1
 90
        0
176
     1
 40
0.6
176
     1
 41
30.0
176
     1
 63
     7
421
 16777215
176
     1
 74
     1
176
     1
 91
        4
176
     1
 64
     7
176
     1
 65
   257
176
     1
 75
     1
176
     1
175
     1
176
     1
 42
1.0
176
     1
 92
       12
176
     1
 66
     7
176
     1
 43
1.0
176
     1
 76
     1
176
     1
 77
     6
176
     1
 78
     2
176
     1
 67
     7
176
     1
 79
     5
176
     1
170
     0
176
     1
171
     0
176
     1
290
     0
176
     1
 93
        1
176
     1
 44
0.0
176
     1
173
     0
176
     1
1001
ACAD
1000
AcDbSavedByObjectVersion
1070
     0
  0
VISUALSTYLE
  5
30
102
{ACAD_XDICTIONARY
360
17C
102
}
102
{ACAD_REACTORS
330
29
102
}
330
29
100
AcDbVisualStyle
  2
Wireframe
 70
     5
177
     2
291
     0
 71
     0
176
     1
 72
     2
176
     1
 73
     0
176
     1
 90
        0
176
     1
 40
0.6
176
     1
 41
30.0
176
     1
 63
     7
421
 16777215
176
     1
 74
     1
176
     1
 91
        4
176
     1
 64
     7
176
     1
 65
   257
176
     1
 75
     1
176
     1
175
     1
176
     1
 42
1.0
176
     1
 92
        0
176
     1
 66
   257
176
     1
 43
1.0
176
     1
 76
     1
176
     1
 77
     6
176
     1
 78
     2
176
     1
 67
     7
176
     1
 79
     3
176
     1
170
     0
176
     1
171
     0
176
     1
290
     0
176
     1
 93
        1
176
     1
 44
0.0
176
     1
173
     0
176
     1
1001
ACAD
1000
AcDbSavedByObjectVersion
1070
     0
  0
VISUALSTYLE
  5
3C
102
{ACAD_XDICTIONARY
360
194
102
}
102
{ACAD_REACTORS
330
29
102
}
330
29
100
AcDbVisualStyle
  2
X-Ray
 70
    25
177
     2
291
     0
 71
     2
176
     1
 72
     2
176
     1
 73
     1
176
     1
 90
        1
176
     1
 40
0.5
176
     1
 41
30.0
176
     1
 63
     7
421
 16777215
176
     1
 74
     1
176
     1
 91
        0
176
     1
 64
     7
176
     1
 65
   257
176
     1
 75
     1
176
     1
175
     1
176
     1
 42
1.0
176
     1
 92
        8
176
     1
 66
     7
176
     1
 43
1.0
176
     1
 76
     1
176
     1
 77
     6
176
     1
 78
     2
176
     1
 67
     7
176
     1
 79
     3
176
     1
170
     0
176
     1
171
     0
176
     1
290
     0
176
     1
 93
       13
176
     1
 44
0.0
176
     1
173
     0
176
     1
1001
ACAD
1000
AcDbSavedByObjectVersion
1070
     0
  0
DICTIONARYVAR
  5
16C
102
{ACAD_REACTORS
330
167
102
}
330
167
100
DictionaryVariables
280
     0
  1
1:1
  0
DICTIONARYVAR
  5
169
102
{ACAD_REACTORS
330
167
102
}
330
167
100
DictionaryVariables
280
     0
  1
STANDARD
  0
DICTIONARYVAR
  5
168
102
{ACAD_REACTORS
330
167
102
}
330
167
100
DictionaryVariables
280
     0
  1
STANDARD
  0
DICTIONARYVAR
  5
16A
102
{ACAD_REACTORS
330
167
102
}
330
167
100
DictionaryVariables
280
     0
  1
Imperial24
  0
DICTIONARYVAR
  5
16B
102
{ACAD_REACTORS
330
167
102
}
330
167
100
DictionaryVariables
280
     0
  1
Imperial24
  0
DICTIONARY
  5
1A4
330
6B
100
AcDbDictionary
280
     1
281
     1
  3
ACAD_XREC_ROUNDTRIP
360
1A5
  0
DICTIONARY
  5
1A
330
19
100
AcDbDictionary
280
     1
281
     1
  3
BUMPTILE
360
1C
  3
DIFFUSETILE
360
1B
  3
OPACITYTILE
360
1F
  3
REFLECTIONTILE
360
1E
  3
REFRACTIONTILE
360
20
  3
SPECULARTILE
360
1D
  0
DICTIONARY
  5
12
330
11
100
AcDbDictionary
280
     1
281
     1
  3
BUMPTILE
360
14
  3
DIFFUSETILE
360
13
  3
OPACITYTILE
360
17
  3
REFLECTIONTILE
360
16
  3
REFRACTIONTILE
360
18
  3
SPECULARTILE
360
15
  0
DICTIONARY
  5
22
330
21
100
AcDbDictionary
280
     1
281
     1
  3
BUMPTILE
360
24
  3
DIFFUSETILE
360
23
  3
OPACITYTILE
360
27
  3
REFLECTIONTILE
360
26
  3
REFRACTIONTILE
360
28
  3
SPECULARTILE
360
25
  0
DICTIONARY
  5
1A0
330
67
100
AcDbDictionary
280
     1
281
     1
  3
ACAD_XREC_ROUNDTRIP
360
1A1
  0
DICTIONARY
  5
1A2
330
69
100
AcDbDictionary
280
     1
281
     1
  3
ACAD_XREC_ROUNDTRIP
360
1A3
  0
DICTIONARY
  5
16D
330
65
100
AcDbDictionary
280
     1
281
     1
  3
ACAD_ROUNDTRIP_2008_TABLESTYLE_CELLSTYLEMAP
360
16E
  0
DICTIONARY
  5
17A
330
2F
100
AcDbDictionary
280
     1
281
     1
  3
ACAD_XREC_ROUNDTRIP
360
17B
  0
DICTIONARY
  5
178
330
2E
100
AcDbDictionary
280
     1
281
     1
  3
ACAD_XREC_ROUNDTRIP
360
179
  0
DICTIONARY
  5
186
330
35
100
AcDbDictionary
280
     1
281
     1
  3
ACAD_XREC_ROUNDTRIP
360
187
  0
DICTIONARY
  5
18E
330
39
100
AcDbDictionary
280
     1
281
     1
  3
ACAD_XREC_ROUNDTRIP
360
18F
  0
DICTIONARY
  5
180
330
32
100
AcDbDictionary
280
     1
281
     1
  3
ACAD_XREC_ROUNDTRIP
360
181
  0
DICTIONARY
  5
184
330
34
100
AcDbDictionary
280
     1
281
     1
  3
ACAD_XREC_ROUNDTRIP
360
185
  0
DICTIONARY
  5
19E
330
41
100
AcDbDictionary
280
     1
281
     1
  3
ACAD_XREC_ROUNDTRIP
360
19F
  0
DICTIONARY
  5
18C
330
38
100
AcDbDictionary
280
     1
281
     1
  3
ACAD_XREC_ROUNDTRIP
360
18D
  0
DICTIONARY
  5
170
330
2A
100
AcDbDictionary
280
     1
281
     1
  3
ACAD_XREC_ROUNDTRIP
360
171
  0
DICTIONARY
  5
172
330
2B
100
AcDbDictionary
280
     1
281
     1
  3
ACAD_XREC_ROUNDTRIP
360
173
  0
DICTIONARY
  5
174
330
2C
100
AcDbDictionary
280
     1
281
     1
  3
ACAD_XREC_ROUNDTRIP
360
175
  0
DICTIONARY
  5
176
330
2D
100
AcDbDictionary
280
     1
281
     1
  3
ACAD_XREC_ROUNDTRIP
360
177
  0
DICTIONARY
  5
17E
330
31
100
AcDbDictionary
280
     1
281
     1
  3
ACAD_XREC_ROUNDTRIP
360
17F
  0
DICTIONARY
  5
19A
330
3F
100
AcDbDictionary
280
     1
281
     1
  3
ACAD_XREC_ROUNDTRIP
360
19B
  0
DICTIONARY
  5
18A
330
37
100
AcDbDictionary
280
     1
281
     1
  3
ACAD_XREC_ROUNDTRIP
360
18B
  0
DICTIONARY
  5
19C
330
40
100
AcDbDictionary
280
     1
281
     1
  3
ACAD_XREC_ROUNDTRIP
360
19D
  0
DICTIONARY
  5
182
330
33
100
AcDbDictionary
280
     1
281
     1
  3
ACAD_XREC_ROUNDTRIP
360
183
  0
DICTIONARY
  5
198
330
3E
100
AcDbDictionary
280
     1
281
     1
  3
ACAD_XREC_ROUNDTRIP
360
199
  0
DICTIONARY
  5
196
330
3D
100
AcDbDictionary
280
     1
281
     1
  3
ACAD_XREC_ROUNDTRIP
360
197
  0
DICTIONARY
  5
190
330
3A
100
AcDbDictionary
280
     1
281
     1
  3
ACAD_XREC_ROUNDTRIP
360
191
  0
DICTIONARY
  5
192
330
3B
100
AcDbDictionary
280
     1
281
     1
  3
ACAD_XREC_ROUNDTRIP
360
193
  0
DICTIONARY
  5
188
330
36
100
AcDbDictionary
280
     1
281
     1
  3
ACAD_XREC_ROUNDTRIP
360
189
  0
DICTIONARY
  5
17C
330
30
100
AcDbDictionary
280
     1
281
     1
  3
ACAD_XREC_ROUNDTRIP
360
17D
  0
DICTIONARY
  5
194
330
3C
100
AcDbDictionary
280
     1
281
     1
  3
ACAD_XREC_ROUNDTRIP
360
195
  0
XRECORD
  5
1A5
102
{ACAD_REACTORS
330
1A4
102
}
330
1A4
100
AcDbXrecord
280
     1
102
DISPLAYNAME
  1
Imperial24
102
FLAGS
 90
        0
  0
XRECORD
  5
1C
102
{ACAD_REACTORS
330
1A
102
}
330
1A
100
AcDbXrecord
280
     1
270
     1
271
     1
  0
XRECORD
  5
1B
102
{ACAD_REACTORS
330
1A
102
}
330
1A
100
AcDbXrecord
280
     1
270
     1
271
     1
  0
XRECORD
  5
1F
102
{ACAD_REACTORS
330
1A
102
}
330
1A
100
AcDbXrecord
280
     1
270
     1
271
     1
  0
XRECORD
  5
1E
102
{ACAD_REACTORS
330
1A
102
}
330
1A
100
AcDbXrecord
280
     1
270
     1
271
     1
  0
XRECORD
  5
20
102
{ACAD_REACTORS
330
1A
102
}
330
1A
100
AcDbXrecord
280
     1
270
     1
271
     1
  0
XRECORD
  5
1D
102
{ACAD_REACTORS
330
1A
102
}
330
1A
100
AcDbXrecord
280
     1
270
     1
271
     1
  0
XRECORD
  5
14
102
{ACAD_REACTORS
330
12
102
}
330
12
100
AcDbXrecord
280
     1
270
     1
271
     1
  0
XRECORD
  5
13
102
{ACAD_REACTORS
330
12
102
}
330
12
100
AcDbXrecord
280
     1
270
     1
271
     1
  0
XRECORD
  5
17
102
{ACAD_REACTORS
330
12
102
}
330
12
100
AcDbXrecord
280
     1
270
     1
271
     1
  0
XRECORD
  5
16
102
{ACAD_REACTORS
330
12
102
}
330
12
100
AcDbXrecord
280
     1
270
     1
271
     1
  0
XRECORD
  5
18
102
{ACAD_REACTORS
330
12
102
}
330
12
100
AcDbXrecord
280
     1
270
     1
271
     1
  0
XRECORD
  5
15
102
{ACAD_REACTORS
330
12
102
}
330
12
100
AcDbXrecord
280
     1
270
     1
271
     1
  0
XRECORD
  5
24
102
{ACAD_REACTORS
330
22
102
}
330
22
100
AcDbXrecord
280
     1
270
     1
271
     1
  0
XRECORD
  5
23
102
{ACAD_REACTORS
330
22
102
}
330
22
100
AcDbXrecord
280
     1
270
     1
271
     1
  0
XRECORD
  5
27
102
{ACAD_REACTORS
330
22
102
}
330
22
100
AcDbXrecord
280
     1
270
     1
271
     1
  0
XRECORD
  5
26
102
{ACAD_REACTORS
330
22
102
}
330
22
100
AcDbXrecord
280
     1
270
     1
271
     1
  0
XRECORD
  5
28
102
{ACAD_REACTORS
330
22
102
}
330
22
100
AcDbXrecord
280
     1
270
     1
271
     1
  0
XRECORD
  5
25
102
{ACAD_REACTORS
330
22
102
}
330
22
100
AcDbXrecord
280
     1
270
     1
271
     1
  0
XRECORD
  5
1A1
102
{ACAD_REACTORS
330
1A0
102
}
330
1A0
100
AcDbXrecord
280
     1
102
ACAD_ROUNDTRIP_2012_MLEADER_STYLE
298
     1
  0
XRECORD
  5
1A3
102
{ACAD_REACTORS
330
1A2
102
}
330
1A2
100
AcDbXrecord
280
     1
102
DISPLAYNAME
  1
Imperial24
102
FLAGS
 90
        0
  0
CELLSTYLEMAP
  5
16E
102
{ACAD_REACTORS
330
16D
102
}
330
16D
100
AcDbCellStyleMap
 90
        3
300
CELLSTYLE
  1
TABLEFORMAT_BEGIN
 90
        5
170
     1
 91
        0
 92
    32768
 62
   257
 93
        1
300
CONTENTFORMAT
  1
CONTENTFORMAT_BEGIN
 90
        0
 91
        0
 92
      512
 93
        0
300

 40
0.0
140
1.0
 94
        5
 62
     0
340
55
144
0.25
309
CONTENTFORMAT_END
171
     0
 94
        0
309
TABLEFORMAT_END
  1
CELLSTYLE_BEGIN
 90
        1
 91
        1
300
_TITLE
309
CELLSTYLE_END
300
CELLSTYLE
  1
TABLEFORMAT_BEGIN
 90
        5
170
     1
 91
        0
 92
        0
 62
   257
 93
        1
300
CONTENTFORMAT
  1
CONTENTFORMAT_BEGIN
 90
        0
 91
        0
 92
      512
 93
        0
300

 40
0.0
140
1.0
 94
        5
 62
     0
340
55
144
0.18
309
CONTENTFORMAT_END
171
     0
 94
        0
309
TABLEFORMAT_END
  1
CELLSTYLE_BEGIN
 90
        2
 91
        1
300
_HEADER
309
CELLSTYLE_END
300
CELLSTYLE
  1
TABLEFORMAT_BEGIN
 90
        5
170
     1
 91
        0
 92
        0
 62
   257
 93
        1
300
CONTENTFORMAT
  1
CONTENTFORMAT_BEGIN
 90
        0
 91
        0
 92
      512
 93
        0
300

 40
0.0
140
1.0
 94
        2
 62
     0
340
55
144
0.18
309
CONTENTFORMAT_END
171
     0
 94
        0
309
TABLEFORMAT_END
  1
CELLSTYLE_BEGIN
 90
        3
 91
        2
300
_DATA
309
CELLSTYLE_END
  0
XRECORD
  5
17B
102
{ACAD_REACTORS
330
17A
102
}
330
17A
100
AcDbXrecord
280
     1
102
RTVSPost2010Prop28
280
     1
102
RTVSPost2010PropOp28
 70
     1
102
RTVSPost2010Prop29
280
     1
102
RTVSPost2010PropOp29
 70
     1
102
RTVSPost2010Prop30
280
     0
102
RTVSPost2010PropOp30
 70
     1
102
RTVSPost2010Prop31
280
     0
102
RTVSPost2010PropOp31
 70
     1
102
RTVSPost2010Prop32
280
     0
102
RTVSPost2010PropOp32
 70
     1
102
RTVSPost2010Prop33
280
     0
102
RTVSPost2010PropOp33
 70
     1
102
RTVSPost2010Prop34
280
     0
102
RTVSPost2010PropOp34
 70
     1
102
RTVSPost2010Prop35
280
     0
102
RTVSPost2010PropOp35
 70
     1
102
RTVSPost2010Prop36
280
     0
102
RTVSPost2010PropOp36
 70
     1
102
RTVSPost2010Prop37
 90
       50
102
RTVSPost2010PropOp37
 70
     1
102
RTVSPost2010Prop38
140
0.0
102
RTVSPost2010PropOp38
 70
     1
102
RTVSPost2010Prop39
140
1.0
102
RTVSPost2010PropOp39
 70
     1
102
RTVSPost2010Prop40
 90
        0
102
RTVSPost2010PropOp40
 70
     1
102
RTVSPost2010Prop41ColorIndex
 90
       18
102
RTVSPost2010Prop41ColorRGB
 90
        0
102
RTVSPost2010PropOp41
 70
     1
102
RTVSPost2010Prop42
 90
       50
102
RTVSPost2010PropOp42
 70
     1
102
RTVSPost2010Prop43
 90
        3
102
RTVSPost2010PropOp43
 70
     1
102
RTVSPost2010Prop44ColorIndex
 90
        5
102
RTVSPost2010Prop44ColorRGB
 90
      255
102
RTVSPost2010PropOp44
 70
     1
102
RTVSPost2010Prop45
280
     0
102
RTVSPost2010PropOp45
 70
     1
102
RTVSPost2010Prop46
 90
       50
102
RTVSPost2010PropOp46
 70
     1
102
RTVSPost2010Prop47
 90
       50
102
RTVSPost2010PropOp47
 70
     1
102
RTVSPost2010Prop48
 90
       50
102
RTVSPost2010PropOp48
 70
     1
102
RTVSPost2010Prop49
280
     0
102
RTVSPost2010PropOp49
 70
     1
102
RTVSPost2010Prop50
 90
       50
102
RTVSPost2010PropOp50
 70
     1
102
RTVSPost2010Prop51ColorIndex
 90
      256
102
RTVSPost2010Prop51ColorRGB
 90
-16777216
102
RTVSPost2010PropOp51
 70
     0
102
RTVSPost2010Prop52
140
1.0
102
RTVSPost2010PropOp52
 70
     0
102
RTVSPost2010Prop53
 90
        2
102
RTVSPost2010PropOp53
 70
     1
102
RTVSPost2010Prop54
  1
strokes_ogs.tif
102
RTVSPost2010PropOp54
 70
     1
102
RTVSPost2010Prop55
280
     0
102
RTVSPost2010PropOp55
 70
     1
102
RTVSPost2010Prop56
140
1.0
102
RTVSPost2010PropOp56
 70
     1
102
RTVSPost2010Prop57
140
1.0
102
RTVSPost2010PropOp57
 70
     1
  0
XRECORD
  5
179
102
{ACAD_REACTORS
330
178
102
}
330
178
100
AcDbXrecord
280
     1
102
RTVSPost2010Prop28
280
     0
102
RTVSPost2010PropOp28
 70
     1
102
RTVSPost2010Prop29
280
     1
102
RTVSPost2010PropOp29
 70
     1
102
RTVSPost2010Prop30
280
     1
102
RTVSPost2010PropOp30
 70
     1
102
RTVSPost2010Prop31
280
     0
102
RTVSPost2010PropOp31
 70
     1
102
RTVSPost2010Prop32
280
     0
102
RTVSPost2010PropOp32
 70
     1
102
RTVSPost2010Prop33
280
     0
102
RTVSPost2010PropOp33
 70
     1
102
RTVSPost2010Prop34
280
     0
102
RTVSPost2010PropOp34
 70
     1
102
RTVSPost2010Prop35
280
     0
102
RTVSPost2010PropOp35
 70
     1
102
RTVSPost2010Prop36
280
     0
102
RTVSPost2010PropOp36
 70
     1
102
RTVSPost2010Prop37
 90
       50
102
RTVSPost2010PropOp37
 70
     1
102
RTVSPost2010Prop38
140
0.0
102
RTVSPost2010PropOp38
 70
     1
102
RTVSPost2010Prop39
140
1.0
102
RTVSPost2010PropOp39
 70
     1
102
RTVSPost2010Prop40
 90
        0
102
RTVSPost2010PropOp40
 70
     1
102
RTVSPost2010Prop41ColorIndex
 90
       18
102
RTVSPost2010Prop41ColorRGB
 90
        0
102
RTVSPost2010PropOp41
 70
     1
102
RTVSPost2010Prop42
 90
       50
102
RTVSPost2010PropOp42
 70
     1
102
RTVSPost2010Prop43
 90
        3
102
RTVSPost2010PropOp43
 70
     1
102
RTVSPost2010Prop44ColorIndex
 90
        5
102
RTVSPost2010Prop44ColorRGB
 90
      255
102
RTVSPost2010PropOp44
 70
     1
102
RTVSPost2010Prop45
280
     0
102
RTVSPost2010PropOp45
 70
     1
102
RTVSPost2010Prop46
 90
       50
102
RTVSPost2010PropOp46
 70
     1
102
RTVSPost2010Prop47
 90
       50
102
RTVSPost2010PropOp47
 70
     1
102
RTVSPost2010Prop48
 90
       50
102
RTVSPost2010PropOp48
 70
     1
102
RTVSPost2010Prop49
280
     0
102
RTVSPost2010PropOp49
 70
     1
102
RTVSPost2010Prop50
 90
       50
102
RTVSPost2010PropOp50
 70
     1
102
RTVSPost2010Prop51ColorIndex
 90
      256
102
RTVSPost2010Prop51ColorRGB
 90
-16777216
102
RTVSPost2010PropOp51
 70
     0
102
RTVSPost2010Prop52
140
1.0
102
RTVSPost2010PropOp52
 70
     0
102
RTVSPost2010Prop53
 90
        2
102
RTVSPost2010PropOp53
 70
     1
102
RTVSPost2010Prop54
  1
strokes_ogs.tif
102
RTVSPost2010PropOp54
 70
     1
102
RTVSPost2010Prop55
280
     0
102
RTVSPost2010PropOp55
 70
     1
102
RTVSPost2010Prop56
140
1.0
102
RTVSPost2010PropOp56
 70
     1
102
RTVSPost2010Prop57
140
1.0
102
RTVSPost2010PropOp57
 70
     1
  0
XRECORD
  5
187
102
{ACAD_REACTORS
330
186
102
}
330
186
100
AcDbXrecord
280
     1
102
RTVSPost2010Prop28
280
     0
102
RTVSPost2010PropOp28
 70
     1
102
RTVSPost2010Prop29
280
     1
102
RTVSPost2010PropOp29
 70
     1
102
RTVSPost2010Prop30
280
     1
102
RTVSPost2010PropOp30
 70
     1
102
RTVSPost2010Prop31
280
     0
102
RTVSPost2010PropOp31
 70
     1
102
RTVSPost2010Prop32
280
     0
102
RTVSPost2010PropOp32
 70
     1
102
RTVSPost2010Prop33
280
     0
102
RTVSPost2010PropOp33
 70
     1
102
RTVSPost2010Prop34
280
     0
102
RTVSPost2010PropOp34
 70
     1
102
RTVSPost2010Prop35
280
     0
102
RTVSPost2010PropOp35
 70
     1
102
RTVSPost2010Prop36
280
     0
102
RTVSPost2010PropOp36
 70
     1
102
RTVSPost2010Prop37
 90
       50
102
RTVSPost2010PropOp37
 70
     1
102
RTVSPost2010Prop38
140
0.0
102
RTVSPost2010PropOp38
 70
     1
102
RTVSPost2010Prop39
140
1.0
102
RTVSPost2010PropOp39
 70
     1
102
RTVSPost2010Prop40
 90
        0
102
RTVSPost2010PropOp40
 70
     1
102
RTVSPost2010Prop41ColorIndex
 90
       18
102
RTVSPost2010Prop41ColorRGB
 90
        0
102
RTVSPost2010PropOp41
 70
     1
102
RTVSPost2010Prop42
 90
       50
102
RTVSPost2010PropOp42
 70
     1
102
RTVSPost2010Prop43
 90
        3
102
RTVSPost2010PropOp43
 70
     1
102
RTVSPost2010Prop44ColorIndex
 90
        5
102
RTVSPost2010Prop44ColorRGB
 90
      255
102
RTVSPost2010PropOp44
 70
     1
102
RTVSPost2010Prop45
280
     0
102
RTVSPost2010PropOp45
 70
     1
102
RTVSPost2010Prop46
 90
       50
102
RTVSPost2010PropOp46
 70
     1
102
RTVSPost2010Prop47
 90
       50
102
RTVSPost2010PropOp47
 70
     1
102
RTVSPost2010Prop48
 90
       50
102
RTVSPost2010PropOp48
 70
     1
102
RTVSPost2010Prop49
280
     0
102
RTVSPost2010PropOp49
 70
     1
102
RTVSPost2010Prop50
 90
       50
102
RTVSPost2010PropOp50
 70
     1
102
RTVSPost2010Prop51ColorIndex
 90
      256
102
RTVSPost2010Prop51ColorRGB
 90
-16777216
102
RTVSPost2010PropOp51
 70
     0
102
RTVSPost2010Prop52
140
1.0
102
RTVSPost2010PropOp52
 70
     0
102
RTVSPost2010Prop53
 90
        2
102
RTVSPost2010PropOp53
 70
     1
102
RTVSPost2010Prop54
  1
strokes_ogs.tif
102
RTVSPost2010PropOp54
 70
     1
102
RTVSPost2010Prop55
280
     0
102
RTVSPost2010PropOp55
 70
     1
102
RTVSPost2010Prop56
140
1.0
102
RTVSPost2010PropOp56
 70
     1
102
RTVSPost2010Prop57
140
1.0
102
RTVSPost2010PropOp57
 70
     1
  0
XRECORD
  5
18F
102
{ACAD_REACTORS
330
18E
102
}
330
18E
100
AcDbXrecord
280
     1
102
RTVSPost2010Prop28
280
     0
102
RTVSPost2010PropOp28
 70
     1
102
RTVSPost2010Prop29
280
     1
102
RTVSPost2010PropOp29
 70
     1
102
RTVSPost2010Prop30
280
     1
102
RTVSPost2010PropOp30
 70
     1
102
RTVSPost2010Prop31
280
     0
102
RTVSPost2010PropOp31
 70
     1
102
RTVSPost2010Prop32
280
     0
102
RTVSPost2010PropOp32
 70
     1
102
RTVSPost2010Prop33
280
     0
102
RTVSPost2010PropOp33
 70
     1
102
RTVSPost2010Prop34
280
     0
102
RTVSPost2010PropOp34
 70
     1
102
RTVSPost2010Prop35
280
     0
102
RTVSPost2010PropOp35
 70
     1
102
RTVSPost2010Prop36
280
     0
102
RTVSPost2010PropOp36
 70
     1
102
RTVSPost2010Prop37
 90
       50
102
RTVSPost2010PropOp37
 70
     1
102
RTVSPost2010Prop38
140
0.0
102
RTVSPost2010PropOp38
 70
     1
102
RTVSPost2010Prop39
140
1.0
102
RTVSPost2010PropOp39
 70
     1
102
RTVSPost2010Prop40
 90
        0
102
RTVSPost2010PropOp40
 70
     1
102
RTVSPost2010Prop41ColorIndex
 90
       18
102
RTVSPost2010Prop41ColorRGB
 90
        0
102
RTVSPost2010PropOp41
 70
     1
102
RTVSPost2010Prop42
 90
       50
102
RTVSPost2010PropOp42
 70
     1
102
RTVSPost2010Prop43
 90
        3
102
RTVSPost2010PropOp43
 70
     1
102
RTVSPost2010Prop44ColorIndex
 90
        5
102
RTVSPost2010Prop44ColorRGB
 90
      255
102
RTVSPost2010PropOp44
 70
     1
102
RTVSPost2010Prop45
280
     0
102
RTVSPost2010PropOp45
 70
     1
102
RTVSPost2010Prop46
 90
       50
102
RTVSPost2010PropOp46
 70
     1
102
RTVSPost2010Prop47
 90
       50
102
RTVSPost2010PropOp47
 70
     1
102
RTVSPost2010Prop48
 90
       50
102
RTVSPost2010PropOp48
 70
     1
102
RTVSPost2010Prop49
280
     0
102
RTVSPost2010PropOp49
 70
     1
102
RTVSPost2010Prop50
 90
       50
102
RTVSPost2010PropOp50
 70
     1
102
RTVSPost2010Prop51ColorIndex
 90
      256
102
RTVSPost2010Prop51ColorRGB
 90
-16777216
102
RTVSPost2010PropOp51
 70
     0
102
RTVSPost2010Prop52
140
1.0
102
RTVSPost2010PropOp52
 70
     0
102
RTVSPost2010Prop53
 90
        2
102
RTVSPost2010PropOp53
 70
     1
102
RTVSPost2010Prop54
  1
strokes_ogs.tif
102
RTVSPost2010PropOp54
 70
     1
102
RTVSPost2010Prop55
280
     0
102
RTVSPost2010PropOp55
 70
     1
102
RTVSPost2010Prop56
140
1.0
102
RTVSPost2010PropOp56
 70
     1
102
RTVSPost2010Prop57
140
1.0
102
RTVSPost2010PropOp57
 70
     1
  0
XRECORD
  5
181
102
{ACAD_REACTORS
330
180
102
}
330
180
100
AcDbXrecord
280
     1
102
RTVSPost2010Prop28
280
     0
102
RTVSPost2010PropOp28
 70
     1
102
RTVSPost2010Prop29
280
     1
102
RTVSPost2010PropOp29
 70
     1
102
RTVSPost2010Prop30
280
     1
102
RTVSPost2010PropOp30
 70
     1
102
RTVSPost2010Prop31
280
     0
102
RTVSPost2010PropOp31
 70
     1
102
RTVSPost2010Prop32
280
     0
102
RTVSPost2010PropOp32
 70
     1
102
RTVSPost2010Prop33
280
     0
102
RTVSPost2010PropOp33
 70
     1
102
RTVSPost2010Prop34
280
     0
102
RTVSPost2010PropOp34
 70
     1
102
RTVSPost2010Prop35
280
     0
102
RTVSPost2010PropOp35
 70
     1
102
RTVSPost2010Prop36
280
     0
102
RTVSPost2010PropOp36
 70
     1
102
RTVSPost2010Prop37
 90
       50
102
RTVSPost2010PropOp37
 70
     1
102
RTVSPost2010Prop38
140
0.0
102
RTVSPost2010PropOp38
 70
     1
102
RTVSPost2010Prop39
140
1.0
102
RTVSPost2010PropOp39
 70
     1
102
RTVSPost2010Prop40
 90
        0
102
RTVSPost2010PropOp40
 70
     1
102
RTVSPost2010Prop41ColorIndex
 90
       18
102
RTVSPost2010Prop41ColorRGB
 90
        0
102
RTVSPost2010PropOp41
 70
     1
102
RTVSPost2010Prop42
 90
       50
102
RTVSPost2010PropOp42
 70
     1
102
RTVSPost2010Prop43
 90
        3
102
RTVSPost2010PropOp43
 70
     1
102
RTVSPost2010Prop44ColorIndex
 90
        5
102
RTVSPost2010Prop44ColorRGB
 90
      255
102
RTVSPost2010PropOp44
 70
     1
102
RTVSPost2010Prop45
280
     0
102
RTVSPost2010PropOp45
 70
     1
102
RTVSPost2010Prop46
 90
       50
102
RTVSPost2010PropOp46
 70
     1
102
RTVSPost2010Prop47
 90
       50
102
RTVSPost2010PropOp47
 70
     1
102
RTVSPost2010Prop48
 90
       50
102
RTVSPost2010PropOp48
 70
     1
102
RTVSPost2010Prop49
280
     0
102
RTVSPost2010PropOp49
 70
     1
102
RTVSPost2010Prop50
 90
       50
102
RTVSPost2010PropOp50
 70
     1
102
RTVSPost2010Prop51ColorIndex
 90
      256
102
RTVSPost2010Prop51ColorRGB
 90
-16777216
102
RTVSPost2010PropOp51
 70
     0
102
RTVSPost2010Prop52
140
1.0
102
RTVSPost2010PropOp52
 70
     0
102
RTVSPost2010Prop53
 90
        2
102
RTVSPost2010PropOp53
 70
     1
102
RTVSPost2010Prop54
  1
strokes_ogs.tif
102
RTVSPost2010PropOp54
 70
     1
102
RTVSPost2010Prop55
280
     0
102
RTVSPost2010PropOp55
 70
     1
102
RTVSPost2010Prop56
140
1.0
102
RTVSPost2010PropOp56
 70
     1
102
RTVSPost2010Prop57
140
1.0
102
RTVSPost2010PropOp57
 70
     1
  0
XRECORD
  5
185
102
{ACAD_REACTORS
330
184
102
}
330
184
100
AcDbXrecord
280
     1
102
RTVSPost2010Prop28
280
     0
102
RTVSPost2010PropOp28
 70
     1
102
RTVSPost2010Prop29
280
     1
102
RTVSPost2010PropOp29
 70
     1
102
RTVSPost2010Prop30
280
     1
102
RTVSPost2010PropOp30
 70
     1
102
RTVSPost2010Prop31
280
     0
102
RTVSPost2010PropOp31
 70
     1
102
RTVSPost2010Prop32
280
     0
102
RTVSPost2010PropOp32
 70
     1
102
RTVSPost2010Prop33
280
     0
102
RTVSPost2010PropOp33
 70
     1
102
RTVSPost2010Prop34
280
     0
102
RTVSPost2010PropOp34
 70
     1
102
RTVSPost2010Prop35
280
     0
102
RTVSPost2010PropOp35
 70
     1
102
RTVSPost2010Prop36
280
     0
102
RTVSPost2010PropOp36
 70
     1
102
RTVSPost2010Prop37
 90
       50
102
RTVSPost2010PropOp37
 70
     1
102
RTVSPost2010Prop38
140
0.0
102
RTVSPost2010PropOp38
 70
     1
102
RTVSPost2010Prop39
140
1.0
102
RTVSPost2010PropOp39
 70
     1
102
RTVSPost2010Prop40
 90
        0
102
RTVSPost2010PropOp40
 70
     1
102
RTVSPost2010Prop41ColorIndex
 90
       18
102
RTVSPost2010Prop41ColorRGB
 90
        0
102
RTVSPost2010PropOp41
 70
     1
102
RTVSPost2010Prop42
 90
       50
102
RTVSPost2010PropOp42
 70
     1
102
RTVSPost2010Prop43
 90
        3
102
RTVSPost2010PropOp43
 70
     1
102
RTVSPost2010Prop44ColorIndex
 90
        5
102
RTVSPost2010Prop44ColorRGB
 90
      255
102
RTVSPost2010PropOp44
 70
     1
102
RTVSPost2010Prop45
280
     0
102
RTVSPost2010PropOp45
 70
     1
102
RTVSPost2010Prop46
 90
       50
102
RTVSPost2010PropOp46
 70
     1
102
RTVSPost2010Prop47
 90
       50
102
RTVSPost2010PropOp47
 70
     1
102
RTVSPost2010Prop48
 90
       50
102
RTVSPost2010PropOp48
 70
     1
102
RTVSPost2010Prop49
280
     0
102
RTVSPost2010PropOp49
 70
     1
102
RTVSPost2010Prop50
 90
       50
102
RTVSPost2010PropOp50
 70
     1
102
RTVSPost2010Prop51ColorIndex
 90
      256
102
RTVSPost2010Prop51ColorRGB
 90
-16777216
102
RTVSPost2010PropOp51
 70
     0
102
RTVSPost2010Prop52
140
1.0
102
RTVSPost2010PropOp52
 70
     0
102
RTVSPost2010Prop53
 90
        2
102
RTVSPost2010PropOp53
 70
     1
102
RTVSPost2010Prop54
  1
strokes_ogs.tif
102
RTVSPost2010PropOp54
 70
     1
102
RTVSPost2010Prop55
280
     0
102
RTVSPost2010PropOp55
 70
     1
102
RTVSPost2010Prop56
140
1.0
102
RTVSPost2010PropOp56
 70
     1
102
RTVSPost2010Prop57
140
1.0
102
RTVSPost2010PropOp57
 70
     1
  0
XRECORD
  5
19F
102
{ACAD_REACTORS
330
19E
102
}
330
19E
100
AcDbXrecord
280
     1
102
RTVSPost2010Prop28
280
     0
102
RTVSPost2010PropOp28
 70
     0
102
RTVSPost2010Prop29
280
     1
102
RTVSPost2010PropOp29
 70
     0
102
RTVSPost2010Prop30
280
     1
102
RTVSPost2010PropOp30
 70
     0
102
RTVSPost2010Prop31
280
     0
102
RTVSPost2010PropOp31
 70
     0
102
RTVSPost2010Prop32
280
     0
102
RTVSPost2010PropOp32
 70
     0
102
RTVSPost2010Prop33
280
     0
102
RTVSPost2010PropOp33
 70
     0
102
RTVSPost2010Prop34
280
     0
102
RTVSPost2010PropOp34
 70
     0
102
RTVSPost2010Prop35
280
     0
102
RTVSPost2010PropOp35
 70
     0
102
RTVSPost2010Prop36
280
     0
102
RTVSPost2010PropOp36
 70
     0
102
RTVSPost2010Prop37
 90
       50
102
RTVSPost2010PropOp37
 70
     0
102
RTVSPost2010Prop38
140
0.0
102
RTVSPost2010PropOp38
 70
     0
102
RTVSPost2010Prop39
140
1.0
102
RTVSPost2010PropOp39
 70
     0
102
RTVSPost2010Prop40
 90
        0
102
RTVSPost2010PropOp40
 70
     0
102
RTVSPost2010Prop41ColorIndex
 90
       18
102
RTVSPost2010Prop41ColorRGB
 90
        0
102
RTVSPost2010PropOp41
 70
     0
102
RTVSPost2010Prop42
 90
       50
102
RTVSPost2010PropOp42
 70
     0
102
RTVSPost2010Prop43
 90
        3
102
RTVSPost2010PropOp43
 70
     0
102
RTVSPost2010Prop44ColorIndex
 90
        5
102
RTVSPost2010Prop44ColorRGB
 90
      255
102
RTVSPost2010PropOp44
 70
     0
102
RTVSPost2010Prop45
280
     0
102
RTVSPost2010PropOp45
 70
     0
102
RTVSPost2010Prop46
 90
       50
102
RTVSPost2010PropOp46
 70
     0
102
RTVSPost2010Prop47
 90
       50
102
RTVSPost2010PropOp47
 70
     0
102
RTVSPost2010Prop48
 90
       50
102
RTVSPost2010PropOp48
 70
     0
102
RTVSPost2010Prop49
280
     0
102
RTVSPost2010PropOp49
 70
     0
102
RTVSPost2010Prop50
 90
       50
102
RTVSPost2010PropOp50
 70
     0
102
RTVSPost2010Prop51ColorIndex
 90
      256
102
RTVSPost2010Prop51ColorRGB
 90
-16777216
102
RTVSPost2010PropOp51
 70
     0
102
RTVSPost2010Prop52
140
1.0
102
RTVSPost2010PropOp52
 70
     0
102
RTVSPost2010Prop53
 90
        2
102
RTVSPost2010PropOp53
 70
     0
102
RTVSPost2010Prop54
  1
strokes_ogs.tif
102
RTVSPost2010PropOp54
 70
     0
102
RTVSPost2010Prop55
280
     0
102
RTVSPost2010PropOp55
 70
     0
102
RTVSPost2010Prop56
140
1.0
102
RTVSPost2010PropOp56
 70
     0
102
RTVSPost2010Prop57
140
1.0
102
RTVSPost2010PropOp57
 70
     0
  0
XRECORD
  5
18D
102
{ACAD_REACTORS
330
18C
102
}
330
18C
100
AcDbXrecord
280
     1
102
RTVSPost2010Prop28
280
     0
102
RTVSPost2010PropOp28
 70
     1
102
RTVSPost2010Prop29
280
     1
102
RTVSPost2010PropOp29
 70
     1
102
RTVSPost2010Prop30
280
     1
102
RTVSPost2010PropOp30
 70
     1
102
RTVSPost2010Prop31
280
     0
102
RTVSPost2010PropOp31
 70
     1
102
RTVSPost2010Prop32
280
     0
102
RTVSPost2010PropOp32
 70
     1
102
RTVSPost2010Prop33
280
     0
102
RTVSPost2010PropOp33
 70
     1
102
RTVSPost2010Prop34
280
     0
102
RTVSPost2010PropOp34
 70
     1
102
RTVSPost2010Prop35
280
     0
102
RTVSPost2010PropOp35
 70
     1
102
RTVSPost2010Prop36
280
     0
102
RTVSPost2010PropOp36
 70
     1
102
RTVSPost2010Prop37
 90
       50
102
RTVSPost2010PropOp37
 70
     1
102
RTVSPost2010Prop38
140
0.0
102
RTVSPost2010PropOp38
 70
     1
102
RTVSPost2010Prop39
140
1.0
102
RTVSPost2010PropOp39
 70
     1
102
RTVSPost2010Prop40
 90
        0
102
RTVSPost2010PropOp40
 70
     1
102
RTVSPost2010Prop41ColorIndex
 90
       18
102
RTVSPost2010Prop41ColorRGB
 90
        0
102
RTVSPost2010PropOp41
 70
     1
102
RTVSPost2010Prop42
 90
       50
102
RTVSPost2010PropOp42
 70
     1
102
RTVSPost2010Prop43
 90
        3
102
RTVSPost2010PropOp43
 70
     1
102
RTVSPost2010Prop44ColorIndex
 90
        5
102
RTVSPost2010Prop44ColorRGB
 90
      255
102
RTVSPost2010PropOp44
 70
     1
102
RTVSPost2010Prop45
280
     0
102
RTVSPost2010PropOp45
 70
     1
102
RTVSPost2010Prop46
 90
       50
102
RTVSPost2010PropOp46
 70
     1
102
RTVSPost2010Prop47
 90
       50
102
RTVSPost2010PropOp47
 70
     1
102
RTVSPost2010Prop48
 90
       50
102
RTVSPost2010PropOp48
 70
     1
102
RTVSPost2010Prop49
280
     0
102
RTVSPost2010PropOp49
 70
     1
102
RTVSPost2010Prop50
 90
       50
102
RTVSPost2010PropOp50
 70
     1
102
RTVSPost2010Prop51ColorIndex
 90
      256
102
RTVSPost2010Prop51ColorRGB
 90
-16777216
102
RTVSPost2010PropOp51
 70
     0
102
RTVSPost2010Prop52
140
1.0
102
RTVSPost2010PropOp52
 70
     0
102
RTVSPost2010Prop53
 90
        2
102
RTVSPost2010PropOp53
 70
     1
102
RTVSPost2010Prop54
  1
strokes_ogs.tif
102
RTVSPost2010PropOp54
 70
     1
102
RTVSPost2010Prop55
280
     0
102
RTVSPost2010PropOp55
 70
     1
102
RTVSPost2010Prop56
140
1.0
102
RTVSPost2010PropOp56
 70
     1
102
RTVSPost2010Prop57
140
1.0
102
RTVSPost2010PropOp57
 70
     1
  0
XRECORD
  5
171
102
{ACAD_REACTORS
330
170
102
}
330
170
100
AcDbXrecord
280
     1
102
RTVSPost2010Prop28
280
     0
102
RTVSPost2010PropOp28
 70
     1
102
RTVSPost2010Prop29
280
     1
102
RTVSPost2010PropOp29
 70
     1
102
RTVSPost2010Prop30
280
     1
102
RTVSPost2010PropOp30
 70
     1
102
RTVSPost2010Prop31
280
     0
102
RTVSPost2010PropOp31
 70
     1
102
RTVSPost2010Prop32
280
     0
102
RTVSPost2010PropOp32
 70
     1
102
RTVSPost2010Prop33
280
     0
102
RTVSPost2010PropOp33
 70
     1
102
RTVSPost2010Prop34
280
     0
102
RTVSPost2010PropOp34
 70
     1
102
RTVSPost2010Prop35
280
     0
102
RTVSPost2010PropOp35
 70
     1
102
RTVSPost2010Prop36
280
     0
102
RTVSPost2010PropOp36
 70
     1
102
RTVSPost2010Prop37
 90
       50
102
RTVSPost2010PropOp37
 70
     1
102
RTVSPost2010Prop38
140
0.0
102
RTVSPost2010PropOp38
 70
     1
102
RTVSPost2010Prop39
140
1.0
102
RTVSPost2010PropOp39
 70
     1
102
RTVSPost2010Prop40
 90
        0
102
RTVSPost2010PropOp40
 70
     1
102
RTVSPost2010Prop41ColorIndex
 90
       18
102
RTVSPost2010Prop41ColorRGB
 90
        0
102
RTVSPost2010PropOp41
 70
     1
102
RTVSPost2010Prop42
 90
       50
102
RTVSPost2010PropOp42
 70
     1
102
RTVSPost2010Prop43
 90
        3
102
RTVSPost2010PropOp43
 70
     1
102
RTVSPost2010Prop44ColorIndex
 90
        5
102
RTVSPost2010Prop44ColorRGB
 90
      255
102
RTVSPost2010PropOp44
 70
     1
102
RTVSPost2010Prop45
280
     0
102
RTVSPost2010PropOp45
 70
     1
102
RTVSPost2010Prop46
 90
       50
102
RTVSPost2010PropOp46
 70
     1
102
RTVSPost2010Prop47
 90
       50
102
RTVSPost2010PropOp47
 70
     1
102
RTVSPost2010Prop48
 90
       50
102
RTVSPost2010PropOp48
 70
     1
102
RTVSPost2010Prop49
280
     0
102
RTVSPost2010PropOp49
 70
     1
102
RTVSPost2010Prop50
 90
       50
102
RTVSPost2010PropOp50
 70
     1
102
RTVSPost2010Prop51ColorIndex
 90
      256
102
RTVSPost2010Prop51ColorRGB
 90
-16777216
102
RTVSPost2010PropOp51
 70
     0
102
RTVSPost2010Prop52
140
1.0
102
RTVSPost2010PropOp52
 70
     0
102
RTVSPost2010Prop53
 90
        2
102
RTVSPost2010PropOp53
 70
     1
102
RTVSPost2010Prop54
  1
strokes_ogs.tif
102
RTVSPost2010PropOp54
 70
     1
102
RTVSPost2010Prop55
280
     0
102
RTVSPost2010PropOp55
 70
     1
102
RTVSPost2010Prop56
140
1.0
102
RTVSPost2010PropOp56
 70
     1
102
RTVSPost2010Prop57
140
1.0
102
RTVSPost2010PropOp57
 70
     1
  0
XRECORD
  5
173
102
{ACAD_REACTORS
330
172
102
}
330
172
100
AcDbXrecord
280
     1
102
RTVSPost2010Prop28
280
     0
102
RTVSPost2010PropOp28
 70
     1
102
RTVSPost2010Prop29
280
     1
102
RTVSPost2010PropOp29
 70
     1
102
RTVSPost2010Prop30
280
     1
102
RTVSPost2010PropOp30
 70
     1
102
RTVSPost2010Prop31
280
     0
102
RTVSPost2010PropOp31
 70
     1
102
RTVSPost2010Prop32
280
     0
102
RTVSPost2010PropOp32
 70
     1
102
RTVSPost2010Prop33
280
     0
102
RTVSPost2010PropOp33
 70
     1
102
RTVSPost2010Prop34
280
     0
102
RTVSPost2010PropOp34
 70
     1
102
RTVSPost2010Prop35
280
     0
102
RTVSPost2010PropOp35
 70
     1
102
RTVSPost2010Prop36
280
     0
102
RTVSPost2010PropOp36
 70
     1
102
RTVSPost2010Prop37
 90
       50
102
RTVSPost2010PropOp37
 70
     1
102
RTVSPost2010Prop38
140
0.0
102
RTVSPost2010PropOp38
 70
     1
102
RTVSPost2010Prop39
140
1.0
102
RTVSPost2010PropOp39
 70
     1
102
RTVSPost2010Prop40
 90
        0
102
RTVSPost2010PropOp40
 70
     1
102
RTVSPost2010Prop41ColorIndex
 90
       18
102
RTVSPost2010Prop41ColorRGB
 90
        0
102
RTVSPost2010PropOp41
 70
     1
102
RTVSPost2010Prop42
 90
       50
102
RTVSPost2010PropOp42
 70
     1
102
RTVSPost2010Prop43
 90
        3
102
RTVSPost2010PropOp43
 70
     1
102
RTVSPost2010Prop44ColorIndex
 90
        5
102
RTVSPost2010Prop44ColorRGB
 90
      255
102
RTVSPost2010PropOp44
 70
     1
102
RTVSPost2010Prop45
280
     0
102
RTVSPost2010PropOp45
 70
     1
102
RTVSPost2010Prop46
 90
       50
102
RTVSPost2010PropOp46
 70
     1
102
RTVSPost2010Prop47
 90
       50
102
RTVSPost2010PropOp47
 70
     1
102
RTVSPost2010Prop48
 90
       50
102
RTVSPost2010PropOp48
 70
     1
102
RTVSPost2010Prop49
280
     0
102
RTVSPost2010PropOp49
 70
     1
102
RTVSPost2010Prop50
 90
       50
102
RTVSPost2010PropOp50
 70
     1
102
RTVSPost2010Prop51ColorIndex
 90
      256
102
RTVSPost2010Prop51ColorRGB
 90
-16777216
102
RTVSPost2010PropOp51
 70
     0
102
RTVSPost2010Prop52
140
1.0
102
RTVSPost2010PropOp52
 70
     0
102
RTVSPost2010Prop53
 90
        2
102
RTVSPost2010PropOp53
 70
     1
102
RTVSPost2010Prop54
  1
strokes_ogs.tif
102
RTVSPost2010PropOp54
 70
     1
102
RTVSPost2010Prop55
280
     0
102
RTVSPost2010PropOp55
 70
     1
102
RTVSPost2010Prop56
140
1.0
102
RTVSPost2010PropOp56
 70
     1
102
RTVSPost2010Prop57
140
1.0
102
RTVSPost2010PropOp57
 70
     1
  0
XRECORD
  5
175
102
{ACAD_REACTORS
330
174
102
}
330
174
100
AcDbXrecord
280
     1
102
RTVSPost2010Prop28
280
     0
102
RTVSPost2010PropOp28
 70
     1
102
RTVSPost2010Prop29
280
     1
102
RTVSPost2010PropOp29
 70
     1
102
RTVSPost2010Prop30
280
     1
102
RTVSPost2010PropOp30
 70
     1
102
RTVSPost2010Prop31
280
     0
102
RTVSPost2010PropOp31
 70
     1
102
RTVSPost2010Prop32
280
     0
102
RTVSPost2010PropOp32
 70
     1
102
RTVSPost2010Prop33
280
     0
102
RTVSPost2010PropOp33
 70
     1
102
RTVSPost2010Prop34
280
     0
102
RTVSPost2010PropOp34
 70
     1
102
RTVSPost2010Prop35
280
     0
102
RTVSPost2010PropOp35
 70
     1
102
RTVSPost2010Prop36
280
     0
102
RTVSPost2010PropOp36
 70
     1
102
RTVSPost2010Prop37
 90
       50
102
RTVSPost2010PropOp37
 70
     1
102
RTVSPost2010Prop38
140
0.0
102
RTVSPost2010PropOp38
 70
     1
102
RTVSPost2010Prop39
140
1.0
102
RTVSPost2010PropOp39
 70
     1
102
RTVSPost2010Prop40
 90
        0
102
RTVSPost2010PropOp40
 70
     1
102
RTVSPost2010Prop41ColorIndex
 90
       18
102
RTVSPost2010Prop41ColorRGB
 90
        0
102
RTVSPost2010PropOp41
 70
     1
102
RTVSPost2010Prop42
 90
       50
102
RTVSPost2010PropOp42
 70
     1
102
RTVSPost2010Prop43
 90
        3
102
RTVSPost2010PropOp43
 70
     1
102
RTVSPost2010Prop44ColorIndex
 90
        5
102
RTVSPost2010Prop44ColorRGB
 90
      255
102
RTVSPost2010PropOp44
 70
     1
102
RTVSPost2010Prop45
280
     0
102
RTVSPost2010PropOp45
 70
     1
102
RTVSPost2010Prop46
 90
       50
102
RTVSPost2010PropOp46
 70
     1
102
RTVSPost2010Prop47
 90
       50
102
RTVSPost2010PropOp47
 70
     1
102
RTVSPost2010Prop48
 90
       50
102
RTVSPost2010PropOp48
 70
     1
102
RTVSPost2010Prop49
280
     0
102
RTVSPost2010PropOp49
 70
     1
102
RTVSPost2010Prop50
 90
       50
102
RTVSPost2010PropOp50
 70
     1
102
RTVSPost2010Prop51ColorIndex
 90
      256
102
RTVSPost2010Prop51ColorRGB
 90
-16777216
102
RTVSPost2010PropOp51
 70
     0
102
RTVSPost2010Prop52
140
1.0
102
RTVSPost2010PropOp52
 70
     0
102
RTVSPost2010Prop53
 90
        2
102
RTVSPost2010PropOp53
 70
     1
102
RTVSPost2010Prop54
  1
strokes_ogs.tif
102
RTVSPost2010PropOp54
 70
     1
102
RTVSPost2010Prop55
280
     0
102
RTVSPost2010PropOp55
 70
     1
102
RTVSPost2010Prop56
140
1.0
102
RTVSPost2010PropOp56
 70
     1
102
RTVSPost2010Prop57
140
1.0
102
RTVSPost2010PropOp57
 70
     1
  0
XRECORD
  5
177
102
{ACAD_REACTORS
330
176
102
}
330
176
100
AcDbXrecord
280
     1
102
RTVSPost2010Prop28
280
     0
102
RTVSPost2010PropOp28
 70
     1
102
RTVSPost2010Prop29
280
     1
102
RTVSPost2010PropOp29
 70
     1
102
RTVSPost2010Prop30
280
     1
102
RTVSPost2010PropOp30
 70
     1
102
RTVSPost2010Prop31
280
     0
102
RTVSPost2010PropOp31
 70
     1
102
RTVSPost2010Prop32
280
     0
102
RTVSPost2010PropOp32
 70
     1
102
RTVSPost2010Prop33
280
     0
102
RTVSPost2010PropOp33
 70
     1
102
RTVSPost2010Prop34
280
     0
102
RTVSPost2010PropOp34
 70
     1
102
RTVSPost2010Prop35
280
     0
102
RTVSPost2010PropOp35
 70
     1
102
RTVSPost2010Prop36
280
     0
102
RTVSPost2010PropOp36
 70
     1
102
RTVSPost2010Prop37
 90
       50
102
RTVSPost2010PropOp37
 70
     1
102
RTVSPost2010Prop38
140
0.0
102
RTVSPost2010PropOp38
 70
     1
102
RTVSPost2010Prop39
140
1.0
102
RTVSPost2010PropOp39
 70
     1
102
RTVSPost2010Prop40
 90
        0
102
RTVSPost2010PropOp40
 70
     1
102
RTVSPost2010Prop41ColorIndex
 90
       18
102
RTVSPost2010Prop41ColorRGB
 90
        0
102
RTVSPost2010PropOp41
 70
     1
102
RTVSPost2010Prop42
 90
       50
102
RTVSPost2010PropOp42
 70
     1
102
RTVSPost2010Prop43
 90
        3
102
RTVSPost2010PropOp43
 70
     1
102
RTVSPost2010Prop44ColorIndex
 90
        5
102
RTVSPost2010Prop44ColorRGB
 90
      255
102
RTVSPost2010PropOp44
 70
     1
102
RTVSPost2010Prop45
280
     0
102
RTVSPost2010PropOp45
 70
     1
102
RTVSPost2010Prop46
 90
       50
102
RTVSPost2010PropOp46
 70
     1
102
RTVSPost2010Prop47
 90
       50
102
RTVSPost2010PropOp47
 70
     1
102
RTVSPost2010Prop48
 90
       50
102
RTVSPost2010PropOp48
 70
     1
102
RTVSPost2010Prop49
280
     0
102
RTVSPost2010PropOp49
 70
     1
102
RTVSPost2010Prop50
 90
       50
102
RTVSPost2010PropOp50
 70
     1
102
RTVSPost2010Prop51ColorIndex
 90
      256
102
RTVSPost2010Prop51ColorRGB
 90
-16777216
102
RTVSPost2010PropOp51
 70
     0
102
RTVSPost2010Prop52
140
1.0
102
RTVSPost2010PropOp52
 70
     0
102
RTVSPost2010Prop53
 90
        2
102
RTVSPost2010PropOp53
 70
     1
102
RTVSPost2010Prop54
  1
strokes_ogs.tif
102
RTVSPost2010PropOp54
 70
     1
102
RTVSPost2010Prop55
280
     0
102
RTVSPost2010PropOp55
 70
     1
102
RTVSPost2010Prop56
140
1.0
102
RTVSPost2010PropOp56
 70
     1
102
RTVSPost2010Prop57
140
1.0
102
RTVSPost2010PropOp57
 70
     1
  0
XRECORD
  5
17F
102
{ACAD_REACTORS
330
17E
102
}
330
17E
100
AcDbXrecord
280
     1
102
RTVSPost2010Prop28
280
     0
102
RTVSPost2010PropOp28
 70
     1
102
RTVSPost2010Prop29
280
     1
102
RTVSPost2010PropOp29
 70
     1
102
RTVSPost2010Prop30
280
     1
102
RTVSPost2010PropOp30
 70
     1
102
RTVSPost2010Prop31
280
     0
102
RTVSPost2010PropOp31
 70
     1
102
RTVSPost2010Prop32
280
     0
102
RTVSPost2010PropOp32
 70
     1
102
RTVSPost2010Prop33
280
     0
102
RTVSPost2010PropOp33
 70
     1
102
RTVSPost2010Prop34
280
     0
102
RTVSPost2010PropOp34
 70
     1
102
RTVSPost2010Prop35
280
     0
102
RTVSPost2010PropOp35
 70
     1
102
RTVSPost2010Prop36
280
     0
102
RTVSPost2010PropOp36
 70
     1
102
RTVSPost2010Prop37
 90
       50
102
RTVSPost2010PropOp37
 70
     1
102
RTVSPost2010Prop38
140
0.0
102
RTVSPost2010PropOp38
 70
     1
102
RTVSPost2010Prop39
140
1.0
102
RTVSPost2010PropOp39
 70
     1
102
RTVSPost2010Prop40
 90
        0
102
RTVSPost2010PropOp40
 70
     1
102
RTVSPost2010Prop41ColorIndex
 90
       18
102
RTVSPost2010Prop41ColorRGB
 90
        0
102
RTVSPost2010PropOp41
 70
     1
102
RTVSPost2010Prop42
 90
       50
102
RTVSPost2010PropOp42
 70
     1
102
RTVSPost2010Prop43
 90
        3
102
RTVSPost2010PropOp43
 70
     1
102
RTVSPost2010Prop44ColorIndex
 90
        5
102
RTVSPost2010Prop44ColorRGB
 90
      255
102
RTVSPost2010PropOp44
 70
     1
102
RTVSPost2010Prop45
280
     0
102
RTVSPost2010PropOp45
 70
     1
102
RTVSPost2010Prop46
 90
       50
102
RTVSPost2010PropOp46
 70
     1
102
RTVSPost2010Prop47
 90
       50
102
RTVSPost2010PropOp47
 70
     1
102
RTVSPost2010Prop48
 90
       50
102
RTVSPost2010PropOp48
 70
     1
102
RTVSPost2010Prop49
280
     0
102
RTVSPost2010PropOp49
 70
     1
102
RTVSPost2010Prop50
 90
       50
102
RTVSPost2010PropOp50
 70
     1
102
RTVSPost2010Prop51ColorIndex
 90
      256
102
RTVSPost2010Prop51ColorRGB
 90
-16777216
102
RTVSPost2010PropOp51
 70
     0
102
RTVSPost2010Prop52
140
1.0
102
RTVSPost2010PropOp52
 70
     0
102
RTVSPost2010Prop53
 90
        2
102
RTVSPost2010PropOp53
 70
     1
102
RTVSPost2010Prop54
  1
strokes_ogs.tif
102
RTVSPost2010PropOp54
 70
     1
102
RTVSPost2010Prop55
280
     0
102
RTVSPost2010PropOp55
 70
     1
102
RTVSPost2010Prop56
140
1.0
102
RTVSPost2010PropOp56
 70
     1
102
RTVSPost2010Prop57
140
1.0
102
RTVSPost2010PropOp57
 70
     1
  0
XRECORD
  5
19B
102
{ACAD_REACTORS
330
19A
102
}
330
19A
100
AcDbXrecord
280
     1
102
RTVSPost2010Prop28
280
     0
102
RTVSPost2010PropOp28
 70
     0
102
RTVSPost2010Prop29
280
     1
102
RTVSPost2010PropOp29
 70
     0
102
RTVSPost2010Prop30
280
     1
102
RTVSPost2010PropOp30
 70
     0
102
RTVSPost2010Prop31
280
     0
102
RTVSPost2010PropOp31
 70
     0
102
RTVSPost2010Prop32
280
     0
102
RTVSPost2010PropOp32
 70
     0
102
RTVSPost2010Prop33
280
     0
102
RTVSPost2010PropOp33
 70
     0
102
RTVSPost2010Prop34
280
     0
102
RTVSPost2010PropOp34
 70
     0
102
RTVSPost2010Prop35
280
     0
102
RTVSPost2010PropOp35
 70
     0
102
RTVSPost2010Prop36
280
     0
102
RTVSPost2010PropOp36
 70
     0
102
RTVSPost2010Prop37
 90
       50
102
RTVSPost2010PropOp37
 70
     0
102
RTVSPost2010Prop38
140
0.0
102
RTVSPost2010PropOp38
 70
     0
102
RTVSPost2010Prop39
140
1.0
102
RTVSPost2010PropOp39
 70
     0
102
RTVSPost2010Prop40
 90
        0
102
RTVSPost2010PropOp40
 70
     0
102
RTVSPost2010Prop41ColorIndex
 90
       18
102
RTVSPost2010Prop41ColorRGB
 90
        0
102
RTVSPost2010PropOp41
 70
     0
102
RTVSPost2010Prop42
 90
       50
102
RTVSPost2010PropOp42
 70
     0
102
RTVSPost2010Prop43
 90
        3
102
RTVSPost2010PropOp43
 70
     0
102
RTVSPost2010Prop44ColorIndex
 90
        5
102
RTVSPost2010Prop44ColorRGB
 90
      255
102
RTVSPost2010PropOp44
 70
     0
102
RTVSPost2010Prop45
280
     0
102
RTVSPost2010PropOp45
 70
     0
102
RTVSPost2010Prop46
 90
       50
102
RTVSPost2010PropOp46
 70
     0
102
RTVSPost2010Prop47
 90
       50
102
RTVSPost2010PropOp47
 70
     0
102
RTVSPost2010Prop48
 90
       50
102
RTVSPost2010PropOp48
 70
     0
102
RTVSPost2010Prop49
280
     0
102
RTVSPost2010PropOp49
 70
     0
102
RTVSPost2010Prop50
 90
       50
102
RTVSPost2010PropOp50
 70
     0
102
RTVSPost2010Prop51ColorIndex
 90
      256
102
RTVSPost2010Prop51ColorRGB
 90
-16777216
102
RTVSPost2010PropOp51
 70
     0
102
RTVSPost2010Prop52
140
1.0
102
RTVSPost2010PropOp52
 70
     0
102
RTVSPost2010Prop53
 90
        2
102
RTVSPost2010PropOp53
 70
     0
102
RTVSPost2010Prop54
  1
strokes_ogs.tif
102
RTVSPost2010PropOp54
 70
     0
102
RTVSPost2010Prop55
280
     0
102
RTVSPost2010PropOp55
 70
     0
102
RTVSPost2010Prop56
140
1.0
102
RTVSPost2010PropOp56
 70
     0
102
RTVSPost2010Prop57
140
1.0
102
RTVSPost2010PropOp57
 70
     0
  0
XRECORD
  5
18B
102
{ACAD_REACTORS
330
18A
102
}
330
18A
100
AcDbXrecord
280
     1
102
RTVSPost2010Prop28
280
     0
102
RTVSPost2010PropOp28
 70
     1
102
RTVSPost2010Prop29
280
     1
102
RTVSPost2010PropOp29
 70
     1
102
RTVSPost2010Prop30
280
     1
102
RTVSPost2010PropOp30
 70
     1
102
RTVSPost2010Prop31
280
     0
102
RTVSPost2010PropOp31
 70
     1
102
RTVSPost2010Prop32
280
     0
102
RTVSPost2010PropOp32
 70
     1
102
RTVSPost2010Prop33
280
     0
102
RTVSPost2010PropOp33
 70
     1
102
RTVSPost2010Prop34
280
     0
102
RTVSPost2010PropOp34
 70
     1
102
RTVSPost2010Prop35
280
     0
102
RTVSPost2010PropOp35
 70
     1
102
RTVSPost2010Prop36
280
     0
102
RTVSPost2010PropOp36
 70
     1
102
RTVSPost2010Prop37
 90
       50
102
RTVSPost2010PropOp37
 70
     1
102
RTVSPost2010Prop38
140
0.0
102
RTVSPost2010PropOp38
 70
     1
102
RTVSPost2010Prop39
140
1.0
102
RTVSPost2010PropOp39
 70
     1
102
RTVSPost2010Prop40
 90
        0
102
RTVSPost2010PropOp40
 70
     1
102
RTVSPost2010Prop41ColorIndex
 90
       18
102
RTVSPost2010Prop41ColorRGB
 90
        0
102
RTVSPost2010PropOp41
 70
     1
102
RTVSPost2010Prop42
 90
       50
102
RTVSPost2010PropOp42
 70
     1
102
RTVSPost2010Prop43
 90
        3
102
RTVSPost2010PropOp43
 70
     1
102
RTVSPost2010Prop44ColorIndex
 90
        5
102
RTVSPost2010Prop44ColorRGB
 90
      255
102
RTVSPost2010PropOp44
 70
     1
102
RTVSPost2010Prop45
280
     0
102
RTVSPost2010PropOp45
 70
     1
102
RTVSPost2010Prop46
 90
       50
102
RTVSPost2010PropOp46
 70
     1
102
RTVSPost2010Prop47
 90
       50
102
RTVSPost2010PropOp47
 70
     1
102
RTVSPost2010Prop48
 90
       50
102
RTVSPost2010PropOp48
 70
     1
102
RTVSPost2010Prop49
280
     0
102
RTVSPost2010PropOp49
 70
     1
102
RTVSPost2010Prop50
 90
       50
102
RTVSPost2010PropOp50
 70
     1
102
RTVSPost2010Prop51ColorIndex
 90
      256
102
RTVSPost2010Prop51ColorRGB
 90
-16777216
102
RTVSPost2010PropOp51
 70
     0
102
RTVSPost2010Prop52
140
1.0
102
RTVSPost2010PropOp52
 70
     0
102
RTVSPost2010Prop53
 90
        2
102
RTVSPost2010PropOp53
 70
     1
102
RTVSPost2010Prop54
  1
strokes_ogs.tif
102
RTVSPost2010PropOp54
 70
     1
102
RTVSPost2010Prop55
280
     0
102
RTVSPost2010PropOp55
 70
     1
102
RTVSPost2010Prop56
140
1.0
102
RTVSPost2010PropOp56
 70
     1
102
RTVSPost2010Prop57
140
1.0
102
RTVSPost2010PropOp57
 70
     1
  0
XRECORD
  5
19D
102
{ACAD_REACTORS
330
19C
102
}
330
19C
100
AcDbXrecord
280
     1
102
RTVSPost2010Prop28
280
     0
102
RTVSPost2010PropOp28
 70
     0
102
RTVSPost2010Prop29
280
     1
102
RTVSPost2010PropOp29
 70
     0
102
RTVSPost2010Prop30
280
     1
102
RTVSPost2010PropOp30
 70
     0
102
RTVSPost2010Prop31
280
     0
102
RTVSPost2010PropOp31
 70
     0
102
RTVSPost2010Prop32
280
     0
102
RTVSPost2010PropOp32
 70
     0
102
RTVSPost2010Prop33
280
     0
102
RTVSPost2010PropOp33
 70
     0
102
RTVSPost2010Prop34
280
     0
102
RTVSPost2010PropOp34
 70
     0
102
RTVSPost2010Prop35
280
     0
102
RTVSPost2010PropOp35
 70
     0
102
RTVSPost2010Prop36
280
     0
102
RTVSPost2010PropOp36
 70
     0
102
RTVSPost2010Prop37
 90
       50
102
RTVSPost2010PropOp37
 70
     0
102
RTVSPost2010Prop38
140
0.0
102
RTVSPost2010PropOp38
 70
     0
102
RTVSPost2010Prop39
140
1.0
102
RTVSPost2010PropOp39
 70
     0
102
RTVSPost2010Prop40
 90
        0
102
RTVSPost2010PropOp40
 70
     0
102
RTVSPost2010Prop41ColorIndex
 90
       18
102
RTVSPost2010Prop41ColorRGB
 90
        0
102
RTVSPost2010PropOp41
 70
     0
102
RTVSPost2010Prop42
 90
       50
102
RTVSPost2010PropOp42
 70
     0
102
RTVSPost2010Prop43
 90
        3
102
RTVSPost2010PropOp43
 70
     0
102
RTVSPost2010Prop44ColorIndex
 90
        5
102
RTVSPost2010Prop44ColorRGB
 90
      255
102
RTVSPost2010PropOp44
 70
     0
102
RTVSPost2010Prop45
280
     0
102
RTVSPost2010PropOp45
 70
     0
102
RTVSPost2010Prop46
 90
       50
102
RTVSPost2010PropOp46
 70
     0
102
RTVSPost2010Prop47
 90
       50
102
RTVSPost2010PropOp47
 70
     0
102
RTVSPost2010Prop48
 90
       50
102
RTVSPost2010PropOp48
 70
     0
102
RTVSPost2010Prop49
280
     0
102
RTVSPost2010PropOp49
 70
     0
102
RTVSPost2010Prop50
 90
       50
102
RTVSPost2010PropOp50
 70
     0
102
RTVSPost2010Prop51ColorIndex
 90
      256
102
RTVSPost2010Prop51ColorRGB
 90
-16777216
102
RTVSPost2010PropOp51
 70
     0
102
RTVSPost2010Prop52
140
1.0
102
RTVSPost2010PropOp52
 70
     0
102
RTVSPost2010Prop53
 90
        2
102
RTVSPost2010PropOp53
 70
     0
102
RTVSPost2010Prop54
  1
strokes_ogs.tif
102
RTVSPost2010PropOp54
 70
     0
102
RTVSPost2010Prop55
280
     0
102
RTVSPost2010PropOp55
 70
     0
102
RTVSPost2010Prop56
140
1.0
102
RTVSPost2010PropOp56
 70
     0
102
RTVSPost2010Prop57
140
1.0
102
RTVSPost2010PropOp57
 70
     0
  0
XRECORD
  5
183
102
{ACAD_REACTORS
330
182
102
}
330
182
100
AcDbXrecord
280
     1
102
RTVSPost2010Prop28
280
     0
102
RTVSPost2010PropOp28
 70
     1
102
RTVSPost2010Prop29
280
     1
102
RTVSPost2010PropOp29
 70
     1
102
RTVSPost2010Prop30
280
     1
102
RTVSPost2010PropOp30
 70
     1
102
RTVSPost2010Prop31
280
     0
102
RTVSPost2010PropOp31
 70
     1
102
RTVSPost2010Prop32
280
     0
102
RTVSPost2010PropOp32
 70
     1
102
RTVSPost2010Prop33
280
     0
102
RTVSPost2010PropOp33
 70
     1
102
RTVSPost2010Prop34
280
     0
102
RTVSPost2010PropOp34
 70
     1
102
RTVSPost2010Prop35
280
     0
102
RTVSPost2010PropOp35
 70
     1
102
RTVSPost2010Prop36
280
     0
102
RTVSPost2010PropOp36
 70
     1
102
RTVSPost2010Prop37
 90
       50
102
RTVSPost2010PropOp37
 70
     1
102
RTVSPost2010Prop38
140
0.0
102
RTVSPost2010PropOp38
 70
     1
102
RTVSPost2010Prop39
140
1.0
102
RTVSPost2010PropOp39
 70
     1
102
RTVSPost2010Prop40
 90
        0
102
RTVSPost2010PropOp40
 70
     1
102
RTVSPost2010Prop41ColorIndex
 90
       18
102
RTVSPost2010Prop41ColorRGB
 90
        0
102
RTVSPost2010PropOp41
 70
     1
102
RTVSPost2010Prop42
 90
       50
102
RTVSPost2010PropOp42
 70
     1
102
RTVSPost2010Prop43
 90
        3
102
RTVSPost2010PropOp43
 70
     1
102
RTVSPost2010Prop44ColorIndex
 90
        5
102
RTVSPost2010Prop44ColorRGB
 90
      255
102
RTVSPost2010PropOp44
 70
     1
102
RTVSPost2010Prop45
280
     0
102
RTVSPost2010PropOp45
 70
     1
102
RTVSPost2010Prop46
 90
       50
102
RTVSPost2010PropOp46
 70
     1
102
RTVSPost2010Prop47
 90
       50
102
RTVSPost2010PropOp47
 70
     1
102
RTVSPost2010Prop48
 90
       50
102
RTVSPost2010PropOp48
 70
     1
102
RTVSPost2010Prop49
280
     0
102
RTVSPost2010PropOp49
 70
     1
102
RTVSPost2010Prop50
 90
       50
102
RTVSPost2010PropOp50
 70
     1
102
RTVSPost2010Prop51ColorIndex
 90
      256
102
RTVSPost2010Prop51ColorRGB
 90
-16777216
102
RTVSPost2010PropOp51
 70
     0
102
RTVSPost2010Prop52
140
1.0
102
RTVSPost2010PropOp52
 70
     0
102
RTVSPost2010Prop53
 90
        2
102
RTVSPost2010PropOp53
 70
     1
102
RTVSPost2010Prop54
  1
strokes_ogs.tif
102
RTVSPost2010PropOp54
 70
     1
102
RTVSPost2010Prop55
280
     0
102
RTVSPost2010PropOp55
 70
     1
102
RTVSPost2010Prop56
140
1.0
102
RTVSPost2010PropOp56
 70
     1
102
RTVSPost2010Prop57
140
1.0
102
RTVSPost2010PropOp57
 70
     1
  0
XRECORD
  5
199
102
{ACAD_REACTORS
330
198
102
}
330
198
100
AcDbXrecord
280
     1
102
RTVSPost2010Prop28
280
     0
102
RTVSPost2010PropOp28
 70
     1
102
RTVSPost2010Prop29
280
     1
102
RTVSPost2010PropOp29
 70
     1
102
RTVSPost2010Prop30
280
     1
102
RTVSPost2010PropOp30
 70
     1
102
RTVSPost2010Prop31
280
     0
102
RTVSPost2010PropOp31
 70
     1
102
RTVSPost2010Prop32
280
     0
102
RTVSPost2010PropOp32
 70
     1
102
RTVSPost2010Prop33
280
     0
102
RTVSPost2010PropOp33
 70
     1
102
RTVSPost2010Prop34
280
     0
102
RTVSPost2010PropOp34
 70
     1
102
RTVSPost2010Prop35
280
     0
102
RTVSPost2010PropOp35
 70
     1
102
RTVSPost2010Prop36
280
     0
102
RTVSPost2010PropOp36
 70
     1
102
RTVSPost2010Prop37
 90
       50
102
RTVSPost2010PropOp37
 70
     1
102
RTVSPost2010Prop38
140
0.0
102
RTVSPost2010PropOp38
 70
     1
102
RTVSPost2010Prop39
140
1.0
102
RTVSPost2010PropOp39
 70
     1
102
RTVSPost2010Prop40
 90
        0
102
RTVSPost2010PropOp40
 70
     1
102
RTVSPost2010Prop41ColorIndex
 90
       18
102
RTVSPost2010Prop41ColorRGB
 90
        0
102
RTVSPost2010PropOp41
 70
     1
102
RTVSPost2010Prop42
 90
       50
102
RTVSPost2010PropOp42
 70
     1
102
RTVSPost2010Prop43
 90
        3
102
RTVSPost2010PropOp43
 70
     1
102
RTVSPost2010Prop44ColorIndex
 90
        5
102
RTVSPost2010Prop44ColorRGB
 90
      255
102
RTVSPost2010PropOp44
 70
     1
102
RTVSPost2010Prop45
280
     0
102
RTVSPost2010PropOp45
 70
     1
102
RTVSPost2010Prop46
 90
       50
102
RTVSPost2010PropOp46
 70
     1
102
RTVSPost2010Prop47
 90
       50
102
RTVSPost2010PropOp47
 70
     1
102
RTVSPost2010Prop48
 90
       50
102
RTVSPost2010PropOp48
 70
     1
102
RTVSPost2010Prop49
280
     0
102
RTVSPost2010PropOp49
 70
     1
102
RTVSPost2010Prop50
 90
       50
102
RTVSPost2010PropOp50
 70
     1
102
RTVSPost2010Prop51ColorIndex
 90
      256
102
RTVSPost2010Prop51ColorRGB
 90
-16777216
102
RTVSPost2010PropOp51
 70
     0
102
RTVSPost2010Prop52
140
1.0
102
RTVSPost2010PropOp52
 70
     0
102
RTVSPost2010Prop53
 90
        2
102
RTVSPost2010PropOp53
 70
     1
102
RTVSPost2010Prop54
  1
strokes_ogs.tif
102
RTVSPost2010PropOp54
 70
     1
102
RTVSPost2010Prop55
280
     0
102
RTVSPost2010PropOp55
 70
     1
102
RTVSPost2010Prop56
140
1.0
102
RTVSPost2010PropOp56
 70
     1
102
RTVSPost2010Prop57
140
1.0
102
RTVSPost2010PropOp57
 70
     1
  0
XRECORD
  5
197
102
{ACAD_REACTORS
330
196
102
}
330
196
100
AcDbXrecord
280
     1
102
RTVSPost2010Prop28
280
     0
102
RTVSPost2010PropOp28
 70
     1
102
RTVSPost2010Prop29
280
     1
102
RTVSPost2010PropOp29
 70
     1
102
RTVSPost2010Prop30
280
     1
102
RTVSPost2010PropOp30
 70
     1
102
RTVSPost2010Prop31
280
     0
102
RTVSPost2010PropOp31
 70
     1
102
RTVSPost2010Prop32
280
     0
102
RTVSPost2010PropOp32
 70
     1
102
RTVSPost2010Prop33
280
     0
102
RTVSPost2010PropOp33
 70
     1
102
RTVSPost2010Prop34
280
     0
102
RTVSPost2010PropOp34
 70
     1
102
RTVSPost2010Prop35
280
     0
102
RTVSPost2010PropOp35
 70
     1
102
RTVSPost2010Prop36
280
     0
102
RTVSPost2010PropOp36
 70
     1
102
RTVSPost2010Prop37
 90
       50
102
RTVSPost2010PropOp37
 70
     1
102
RTVSPost2010Prop38
140
0.0
102
RTVSPost2010PropOp38
 70
     1
102
RTVSPost2010Prop39
140
1.0
102
RTVSPost2010PropOp39
 70
     1
102
RTVSPost2010Prop40
 90
        0
102
RTVSPost2010PropOp40
 70
     1
102
RTVSPost2010Prop41ColorIndex
 90
       18
102
RTVSPost2010Prop41ColorRGB
 90
        0
102
RTVSPost2010PropOp41
 70
     1
102
RTVSPost2010Prop42
 90
       50
102
RTVSPost2010PropOp42
 70
     1
102
RTVSPost2010Prop43
 90
        3
102
RTVSPost2010PropOp43
 70
     1
102
RTVSPost2010Prop44ColorIndex
 90
        5
102
RTVSPost2010Prop44ColorRGB
 90
      255
102
RTVSPost2010PropOp44
 70
     1
102
RTVSPost2010Prop45
280
     0
102
RTVSPost2010PropOp45
 70
     1
102
RTVSPost2010Prop46
 90
       50
102
RTVSPost2010PropOp46
 70
     1
102
RTVSPost2010Prop47
 90
       50
102
RTVSPost2010PropOp47
 70
     1
102
RTVSPost2010Prop48
 90
       50
102
RTVSPost2010PropOp48
 70
     1
102
RTVSPost2010Prop49
280
     0
102
RTVSPost2010PropOp49
 70
     1
102
RTVSPost2010Prop50
 90
       50
102
RTVSPost2010PropOp50
 70
     1
102
RTVSPost2010Prop51ColorIndex
 90
      256
102
RTVSPost2010Prop51ColorRGB
 90
-16777216
102
RTVSPost2010PropOp51
 70
     0
102
RTVSPost2010Prop52
140
1.0
102
RTVSPost2010PropOp52
 70
     0
102
RTVSPost2010Prop53
 90
        2
102
RTVSPost2010PropOp53
 70
     1
102
RTVSPost2010Prop54
  1
strokes_ogs.tif
102
RTVSPost2010PropOp54
 70
     1
102
RTVSPost2010Prop55
280
     0
102
RTVSPost2010PropOp55
 70
     1
102
RTVSPost2010Prop56
140
1.0
102
RTVSPost2010PropOp56
 70
     1
102
RTVSPost2010Prop57
140
1.0
102
RTVSPost2010PropOp57
 70
     1
  0
XRECORD
  5
191
102
{ACAD_REACTORS
330
190
102
}
330
190
100
AcDbXrecord
280
     1
102
RTVSPost2010Prop28
280
     0
102
RTVSPost2010PropOp28
 70
     1
102
RTVSPost2010Prop29
280
     1
102
RTVSPost2010PropOp29
 70
     1
102
RTVSPost2010Prop30
280
     1
102
RTVSPost2010PropOp30
 70
     1
102
RTVSPost2010Prop31
280
     0
102
RTVSPost2010PropOp31
 70
     1
102
RTVSPost2010Prop32
280
     0
102
RTVSPost2010PropOp32
 70
     1
102
RTVSPost2010Prop33
280
     0
102
RTVSPost2010PropOp33
 70
     1
102
RTVSPost2010Prop34
280
     0
102
RTVSPost2010PropOp34
 70
     1
102
RTVSPost2010Prop35
280
     0
102
RTVSPost2010PropOp35
 70
     1
102
RTVSPost2010Prop36
280
     0
102
RTVSPost2010PropOp36
 70
     1
102
RTVSPost2010Prop37
 90
       50
102
RTVSPost2010PropOp37
 70
     1
102
RTVSPost2010Prop38
140
0.0
102
RTVSPost2010PropOp38
 70
     1
102
RTVSPost2010Prop39
140
1.0
102
RTVSPost2010PropOp39
 70
     1
102
RTVSPost2010Prop40
 90
        0
102
RTVSPost2010PropOp40
 70
     1
102
RTVSPost2010Prop41ColorIndex
 90
       18
102
RTVSPost2010Prop41ColorRGB
 90
        0
102
RTVSPost2010PropOp41
 70
     1
102
RTVSPost2010Prop42
 90
       50
102
RTVSPost2010PropOp42
 70
     1
102
RTVSPost2010Prop43
 90
        3
102
RTVSPost2010PropOp43
 70
     1
102
RTVSPost2010Prop44ColorIndex
 90
        5
102
RTVSPost2010Prop44ColorRGB
 90
      255
102
RTVSPost2010PropOp44
 70
     1
102
RTVSPost2010Prop45
280
     0
102
RTVSPost2010PropOp45
 70
     1
102
RTVSPost2010Prop46
 90
       50
102
RTVSPost2010PropOp46
 70
     1
102
RTVSPost2010Prop47
 90
       50
102
RTVSPost2010PropOp47
 70
     1
102
RTVSPost2010Prop48
 90
       50
102
RTVSPost2010PropOp48
 70
     1
102
RTVSPost2010Prop49
280
     0
102
RTVSPost2010PropOp49
 70
     1
102
RTVSPost2010Prop50
 90
       50
102
RTVSPost2010PropOp50
 70
     1
102
RTVSPost2010Prop51ColorIndex
 90
      256
102
RTVSPost2010Prop51ColorRGB
 90
-16777216
102
RTVSPost2010PropOp51
 70
     0
102
RTVSPost2010Prop52
140
1.0
102
RTVSPost2010PropOp52
 70
     0
102
RTVSPost2010Prop53
 90
        2
102
RTVSPost2010PropOp53
 70
     1
102
RTVSPost2010Prop54
  1
strokes_ogs.tif
102
RTVSPost2010PropOp54
 70
     1
102
RTVSPost2010Prop55
280
     0
102
RTVSPost2010PropOp55
 70
     1
102
RTVSPost2010Prop56
140
1.0
102
RTVSPost2010PropOp56
 70
     1
102
RTVSPost2010Prop57
140
1.0
102
RTVSPost2010PropOp57
 70
     1
  0
XRECORD
  5
193
102
{ACAD_REACTORS
330
192
102
}
330
192
100
AcDbXrecord
280
     1
102
RTVSPost2010Prop28
280
     0
102
RTVSPost2010PropOp28
 70
     1
102
RTVSPost2010Prop29
280
     1
102
RTVSPost2010PropOp29
 70
     1
102
RTVSPost2010Prop30
280
     1
102
RTVSPost2010PropOp30
 70
     1
102
RTVSPost2010Prop31
280
     0
102
RTVSPost2010PropOp31
 70
     1
102
RTVSPost2010Prop32
280
     0
102
RTVSPost2010PropOp32
 70
     1
102
RTVSPost2010Prop33
280
     0
102
RTVSPost2010PropOp33
 70
     1
102
RTVSPost2010Prop34
280
     0
102
RTVSPost2010PropOp34
 70
     1
102
RTVSPost2010Prop35
280
     0
102
RTVSPost2010PropOp35
 70
     1
102
RTVSPost2010Prop36
280
     0
102
RTVSPost2010PropOp36
 70
     1
102
RTVSPost2010Prop37
 90
       50
102
RTVSPost2010PropOp37
 70
     1
102
RTVSPost2010Prop38
140
0.0
102
RTVSPost2010PropOp38
 70
     1
102
RTVSPost2010Prop39
140
1.0
102
RTVSPost2010PropOp39
 70
     1
102
RTVSPost2010Prop40
 90
        0
102
RTVSPost2010PropOp40
 70
     1
102
RTVSPost2010Prop41ColorIndex
 90
       18
102
RTVSPost2010Prop41ColorRGB
 90
        0
102
RTVSPost2010PropOp41
 70
     1
102
RTVSPost2010Prop42
 90
       50
102
RTVSPost2010PropOp42
 70
     1
102
RTVSPost2010Prop43
 90
        3
102
RTVSPost2010PropOp43
 70
     1
102
RTVSPost2010Prop44ColorIndex
 90
        5
102
RTVSPost2010Prop44ColorRGB
 90
      255
102
RTVSPost2010PropOp44
 70
     1
102
RTVSPost2010Prop45
280
     0
102
RTVSPost2010PropOp45
 70
     1
102
RTVSPost2010Prop46
 90
       50
102
RTVSPost2010PropOp46
 70
     1
102
RTVSPost2010Prop47
 90
       50
102
RTVSPost2010PropOp47
 70
     1
102
RTVSPost2010Prop48
 90
       50
102
RTVSPost2010PropOp48
 70
     1
102
RTVSPost2010Prop49
280
     0
102
RTVSPost2010PropOp49
 70
     1
102
RTVSPost2010Prop50
 90
       50
102
RTVSPost2010PropOp50
 70
     1
102
RTVSPost2010Prop51ColorIndex
 90
      256
102
RTVSPost2010Prop51ColorRGB
 90
-16777216
102
RTVSPost2010PropOp51
 70
     0
102
RTVSPost2010Prop52
140
1.0
102
RTVSPost2010PropOp52
 70
     0
102
RTVSPost2010Prop53
 90
        2
102
RTVSPost2010PropOp53
 70
     1
102
RTVSPost2010Prop54
  1
strokes_ogs.tif
102
RTVSPost2010PropOp54
 70
     1
102
RTVSPost2010Prop55
280
     0
102
RTVSPost2010PropOp55
 70
     1
102
RTVSPost2010Prop56
140
1.0
102
RTVSPost2010PropOp56
 70
     1
102
RTVSPost2010Prop57
140
1.0
102
RTVSPost2010PropOp57
 70
     1
  0
XRECORD
  5
189
102
{ACAD_REACTORS
330
188
102
}
330
188
100
AcDbXrecord
280
     1
102
RTVSPost2010Prop28
280
     0
102
RTVSPost2010PropOp28
 70
     1
102
RTVSPost2010Prop29
280
     1
102
RTVSPost2010PropOp29
 70
     1
102
RTVSPost2010Prop30
280
     1
102
RTVSPost2010PropOp30
 70
     1
102
RTVSPost2010Prop31
280
     0
102
RTVSPost2010PropOp31
 70
     1
102
RTVSPost2010Prop32
280
     0
102
RTVSPost2010PropOp32
 70
     1
102
RTVSPost2010Prop33
280
     0
102
RTVSPost2010PropOp33
 70
     1
102
RTVSPost2010Prop34
280
     0
102
RTVSPost2010PropOp34
 70
     1
102
RTVSPost2010Prop35
280
     0
102
RTVSPost2010PropOp35
 70
     1
102
RTVSPost2010Prop36
280
     0
102
RTVSPost2010PropOp36
 70
     1
102
RTVSPost2010Prop37
 90
       50
102
RTVSPost2010PropOp37
 70
     1
102
RTVSPost2010Prop38
140
0.0
102
RTVSPost2010PropOp38
 70
     1
102
RTVSPost2010Prop39
140
1.0
102
RTVSPost2010PropOp39
 70
     1
102
RTVSPost2010Prop40
 90
        0
102
RTVSPost2010PropOp40
 70
     1
102
RTVSPost2010Prop41ColorIndex
 90
       18
102
RTVSPost2010Prop41ColorRGB
 90
        0
102
RTVSPost2010PropOp41
 70
     1
102
RTVSPost2010Prop42
 90
       50
102
RTVSPost2010PropOp42
 70
     1
102
RTVSPost2010Prop43
 90
        3
102
RTVSPost2010PropOp43
 70
     1
102
RTVSPost2010Prop44ColorIndex
 90
        5
102
RTVSPost2010Prop44ColorRGB
 90
      255
102
RTVSPost2010PropOp44
 70
     1
102
RTVSPost2010Prop45
280
     0
102
RTVSPost2010PropOp45
 70
     1
102
RTVSPost2010Prop46
 90
       50
102
RTVSPost2010PropOp46
 70
     1
102
RTVSPost2010Prop47
 90
       50
102
RTVSPost2010PropOp47
 70
     1
102
RTVSPost2010Prop48
 90
       50
102
RTVSPost2010PropOp48
 70
     1
102
RTVSPost2010Prop49
280
     0
102
RTVSPost2010PropOp49
 70
     1
102
RTVSPost2010Prop50
 90
       50
102
RTVSPost2010PropOp50
 70
     1
102
RTVSPost2010Prop51ColorIndex
 90
      256
102
RTVSPost2010Prop51ColorRGB
 90
-16777216
102
RTVSPost2010PropOp51
 70
     0
102
RTVSPost2010Prop52
140
1.0
102
RTVSPost2010PropOp52
 70
     0
102
RTVSPost2010Prop53
 90
        2
102
RTVSPost2010PropOp53
 70
     1
102
RTVSPost2010Prop54
  1
strokes_ogs.tif
102
RTVSPost2010PropOp54
 70
     1
102
RTVSPost2010Prop55
280
     0
102
RTVSPost2010PropOp55
 70
     1
102
RTVSPost2010Prop56
140
1.0
102
RTVSPost2010PropOp56
 70
     1
102
RTVSPost2010Prop57
140
1.0
102
RTVSPost2010PropOp57
 70
     1
  0
XRECORD
  5
17D
102
{ACAD_REACTORS
330
17C
102
}
330
17C
100
AcDbXrecord
280
     1
102
RTVSPost2010Prop28
280
     0
102
RTVSPost2010PropOp28
 70
     1
102
RTVSPost2010Prop29
280
     1
102
RTVSPost2010PropOp29
 70
     1
102
RTVSPost2010Prop30
280
     1
102
RTVSPost2010PropOp30
 70
     1
102
RTVSPost2010Prop31
280
     0
102
RTVSPost2010PropOp31
 70
     1
102
RTVSPost2010Prop32
280
     0
102
RTVSPost2010PropOp32
 70
     1
102
RTVSPost2010Prop33
280
     0
102
RTVSPost2010PropOp33
 70
     1
102
RTVSPost2010Prop34
280
     0
102
RTVSPost2010PropOp34
 70
     1
102
RTVSPost2010Prop35
280
     0
102
RTVSPost2010PropOp35
 70
     1
102
RTVSPost2010Prop36
280
     0
102
RTVSPost2010PropOp36
 70
     1
102
RTVSPost2010Prop37
 90
       50
102
RTVSPost2010PropOp37
 70
     1
102
RTVSPost2010Prop38
140
0.0
102
RTVSPost2010PropOp38
 70
     1
102
RTVSPost2010Prop39
140
1.0
102
RTVSPost2010PropOp39
 70
     1
102
RTVSPost2010Prop40
 90
        0
102
RTVSPost2010PropOp40
 70
     1
102
RTVSPost2010Prop41ColorIndex
 90
       18
102
RTVSPost2010Prop41ColorRGB
 90
        0
102
RTVSPost2010PropOp41
 70
     1
102
RTVSPost2010Prop42
 90
       50
102
RTVSPost2010PropOp42
 70
     1
102
RTVSPost2010Prop43
 90
        3
102
RTVSPost2010PropOp43
 70
     1
102
RTVSPost2010Prop44ColorIndex
 90
        5
102
RTVSPost2010Prop44ColorRGB
 90
      255
102
RTVSPost2010PropOp44
 70
     1
102
RTVSPost2010Prop45
280
     0
102
RTVSPost2010PropOp45
 70
     1
102
RTVSPost2010Prop46
 90
       50
102
RTVSPost2010PropOp46
 70
     1
102
RTVSPost2010Prop47
 90
       50
102
RTVSPost2010PropOp47
 70
     1
102
RTVSPost2010Prop48
 90
       50
102
RTVSPost2010PropOp48
 70
     1
102
RTVSPost2010Prop49
280
     0
102
RTVSPost2010PropOp49
 70
     1
102
RTVSPost2010Prop50
 90
       50
102
RTVSPost2010PropOp50
 70
     1
102
RTVSPost2010Prop51ColorIndex
 90
      256
102
RTVSPost2010Prop51ColorRGB
 90
-16777216
102
RTVSPost2010PropOp51
 70
     0
102
RTVSPost2010Prop52
140
1.0
102
RTVSPost2010PropOp52
 70
     0
102
RTVSPost2010Prop53
 90
        2
102
RTVSPost2010PropOp53
 70
     1
102
RTVSPost2010Prop54
  1
strokes_ogs.tif
102
RTVSPost2010PropOp54
 70
     1
102
RTVSPost2010Prop55
280
     0
102
RTVSPost2010PropOp55
 70
     1
102
RTVSPost2010Prop56
140
1.0
102
RTVSPost2010PropOp56
 70
     1
102
RTVSPost2010Prop57
140
1.0
102
RTVSPost2010PropOp57
 70
     1
  0
XRECORD
  5
195
102
{ACAD_REACTORS
330
194
102
}
330
194
100
AcDbXrecord
280
     1
102
RTVSPost2010Prop28
280
     0
102
RTVSPost2010PropOp28
 70
     1
102
RTVSPost2010Prop29
280
     1
102
RTVSPost2010PropOp29
 70
     1
102
RTVSPost2010Prop30
280
     1
102
RTVSPost2010PropOp30
 70
     1
102
RTVSPost2010Prop31
280
     0
102
RTVSPost2010PropOp31
 70
     1
102
RTVSPost2010Prop32
280
     0
102
RTVSPost2010PropOp32
 70
     1
102
RTVSPost2010Prop33
280
     0
102
RTVSPost2010PropOp33
 70
     1
102
RTVSPost2010Prop34
280
     0
102
RTVSPost2010PropOp34
 70
     1
102
RTVSPost2010Prop35
280
     0
102
RTVSPost2010PropOp35
 70
     1
102
RTVSPost2010Prop36
280
     0
102
RTVSPost2010PropOp36
 70
     1
102
RTVSPost2010Prop37
 90
       50
102
RTVSPost2010PropOp37
 70
     1
102
RTVSPost2010Prop38
140
0.0
102
RTVSPost2010PropOp38
 70
     1
102
RTVSPost2010Prop39
140
1.0
102
RTVSPost2010PropOp39
 70
     1
102
RTVSPost2010Prop40
 90
        0
102
RTVSPost2010PropOp40
 70
     1
102
RTVSPost2010Prop41ColorIndex
 90
       18
102
RTVSPost2010Prop41ColorRGB
 90
        0
102
RTVSPost2010PropOp41
 70
     1
102
RTVSPost2010Prop42
 90
       50
102
RTVSPost2010PropOp42
 70
     1
102
RTVSPost2010Prop43
 90
        3
102
RTVSPost2010PropOp43
 70
     1
102
RTVSPost2010Prop44ColorIndex
 90
        5
102
RTVSPost2010Prop44ColorRGB
 90
      255
102
RTVSPost2010PropOp44
 70
     1
102
RTVSPost2010Prop45
280
     0
102
RTVSPost2010PropOp45
 70
     1
102
RTVSPost2010Prop46
 90
       50
102
RTVSPost2010PropOp46
 70
     1
102
RTVSPost2010Prop47
 90
       50
102
RTVSPost2010PropOp47
 70
     1
102
RTVSPost2010Prop48
 90
       50
102
RTVSPost2010PropOp48
 70
     1
102
RTVSPost2010Prop49
280
     0
102
RTVSPost2010PropOp49
 70
     1
102
RTVSPost2010Prop50
 90
       50
102
RTVSPost2010PropOp50
 70
     1
102
RTVSPost2010Prop51ColorIndex
 90
      256
102
RTVSPost2010Prop51ColorRGB
 90
-16777216
102
RTVSPost2010PropOp51
 70
     0
102
RTVSPost2010Prop52
140
1.0
102
RTVSPost2010PropOp52
 70
     0
102
RTVSPost2010Prop53
 90
        2
102
RTVSPost2010PropOp53
 70
     1
102
RTVSPost2010Prop54
  1
strokes_ogs.tif
102
RTVSPost2010PropOp54
 70
     1
102
RTVSPost2010Prop55
280
     0
102
RTVSPost2010PropOp55
 70
     1
102
RTVSPost2010Prop56
140
1.0
102
RTVSPost2010PropOp56
 70
     1
102
RTVSPost2010Prop57
140
1.0
102
RTVSPost2010PropOp57
 70
     1
  0
ENDSEC
  0
EOF
