  0
SECTION
  2
HEADER
  9
$ACADVER
  1
AC1024
  9
$ACADMAINTVER
 70
   226
  9
$DWGCODEPAGE
  3
ANSI_932
  9
$INSBASE
 10
0.0
 20
0.0
 30
0.0
  9
$EXTMIN
 10
1.000000000000000E+20
 20
1.000000000000000E+20
 30
1.000000000000000E+20
  9
$EXTMAX
 10
-1.000000000000000E+20
 20
-1.000000000000000E+20
 30
-1.000000000000000E+20
  9
$LIMMIN
 10
0.0
 20
0.0
  9
$LIMMAX
 10
12.0
 20
9.0
  9
$ORTHOMODE
 70
     0
  9
$REGENMODE
 70
     1
  9
$FILLMODE
 70
     1
  9
$QTEXTMODE
 70
     0
  9
$MIRRTEXT
 70
     0
  9
$LTSCALE
 40
1.0
  9
$ATTMODE
 70
     1
  9
$TEXTSIZE
 40
0.2
  9
$TRACEWID
 40
0.05
  9
$TEXTSTYLE
  7
Standard
  9
$CLAYER
  8
0
  9
$CELTYPE
  6
ByLayer
  9
$CECOLOR
 62
   256
  9
$CELTSCALE
 40
1.0
  9
$DISPSILH
 70
     0
  9
$DIMSCALE
 40
1.0
  9
$DIMASZ
 40
0.18
  9
$DIMEXO
 40
0.0625
  9
$DIMDLI
 40
0.38
  9
$DIMRND
 40
0.0
  9
$DIMDLE
 40
0.0
  9
$DIMEXE
 40
0.18
  9
$DIMTP
 40
0.0
  9
$DIMTM
 40
0.0
  9
$DIMTXT
 40
0.18
  9
$DIMCEN
 40
0.09
  9
$DIMTSZ
 40
0.0
  9
$DIMTOL
 70
     0
  9
$DIMLIM
 70
     0
  9
$DIMTIH
 70
     1
  9
$DIMTOH
 70
     1
  9
$DIMSE1
 70
     0
  9
$DIMSE2
 70
     0
  9
$DIMTAD
 70
     0
  9
$DIMZIN
 70
     0
  9
$DIMBLK
  1

  9
$DIMASO
 70
     1
  9
$DIMSHO
 70
     1
  9
$DIMPOST
  1

  9
$DIMAPOST
  1

  9
$DIMALT
 70
     0
  9
$DIMALTD
 70
     2
  9
$DIMALTF
 40
25.4
  9
$DIMLFAC
 40
1.0
  9
$DIMTOFL
 70
     0
  9
$DIMTVP
 40
0.0
  9
$DIMTIX
 70
     0
  9
$DIMSOXD
 70
     0
  9
$DIMSAH
 70
     0
  9
$DIMBLK1
  1

  9
$DIMBLK2
  1

  9
$DIMSTYLE
  2
Standard
  9
$DIMCLRD
 70
     0
  9
$DIMCLRE
 70
     0
  9
$DIMCLRT
 70
     0
  9
$DIMTFAC
 40
1.0
  9
$DIMGAP
 40
0.09
  9
$DIMJUST
 70
     0
  9
$DIMSD1
 70
     0
  9
$DIMSD2
 70
     0
  9
$DIMTOLJ
 70
     1
  9
$DIMTZIN
 70
     0
  9
$DIMALTZ
 70
     0
  9
$DIMALTTZ
 70
     0
  9
$DIMUPT
 70
     0
  9
$DIMDEC
 70
     4
  9
$DIMTDEC
 70
     4
  9
$DIMALTU
 70
     2
  9
$DIMALTTD
 70
     2
  9
$DIMTXSTY
  7
Standard
  9
$DIMAUNIT
 70
     0
  9
$DIMADEC
 70
     0
  9
$DIMALTRND
 40
0.0
  9
$DIMAZIN
 70
     0
  9
$DIMDSEP
 70
    46
  9
$DIMATFIT
 70
     3
  9
$DIMFRAC
 70
     0
  9
$DIMLDRBLK
  1

  9
$DIMLUNIT
 70
     2
  9
$DIMLWD
 70
    -2
  9
$DIMLWE
 70
    -2
  9
$DIMTMOVE
 70
     0
  9
$DIMFXL
 40
1.0
  9
$DIMFXLON
 70
     0
  9
$DIMJOGANG
 40
0.7853981633974483
  9
$DIMTFILL
 70
     0
  9
$DIMTFILLCLR
 70
     0
  9
$DIMARCSYM
 70
     0
  9
$DIMLTYPE
  6

  9
$DIMLTEX1
  6

  9
$DIMLTEX2
  6

  9
$DIMTXTDIRECTION
 70
     0
  9
$LUNITS
 70
     2
  9
$LUPREC
 70
     4
  9
$SKETCHINC
 40
0.1
  9
$FILLETRAD
 40
0.0
  9
$AUNITS
 70
     0
  9
$AUPREC
 70
     0
  9
$MENU
  1
.
  9
$ELEVATION
 40
0.0
  9
$PELEVATION
 40
0.0
  9
$THICKNESS
 40
0.0
  9
$LIMCHECK
 70
     0
  9
$CHAMFERA
 40
0.0
  9
$CHAMFERB
 40
0.0
  9
$CHAMFERC
 40
0.0
  9
$CHAMFERD
 40
0.0
  9
$SKPOLY
 70
     0
  9
$TDCREATE
 40
2459569.489004630
  9
$TDUCREATE
 40
2459569.114004630
  9
$TDUPDATE
 40
2459569.489004630
  9
$TDUUPDATE
 40
2459569.114004630
  9
$TDINDWG
 40
0.0000000000
  9
$TDUSRTIMER
 40
0.0000000000
  9
$USRTIMER
 70
     1
  9
$ANGBASE
 50
0.0
  9
$ANGDIR
 70
     0
  9
$PDMODE
 70
     0
  9
$PDSIZE
 40
0.0
  9
$PLINEWID
 40
0.0
  9
$SPLFRAME
 70
     0
  9
$SPLINETYPE
 70
     6
  9
$SPLINESEGS
 70
     8
  9
$HANDSEED
  5
120
  9
$SURFTAB1
 70
     6
  9
$SURFTAB2
 70
     6
  9
$SURFTYPE
 70
     6
  9
$SURFU
 70
     6
  9
$SURFV
 70
     6
  9
$UCSBASE
  2

  9
$UCSNAME
  2

  9
$UCSORG
 10
0.0
 20
0.0
 30
0.0
  9
$UCSXDIR
 10
1.0
 20
0.0
 30
0.0
  9
$UCSYDIR
 10
0.0
 20
1.0
 30
0.0
  9
$UCSORTHOREF
  2

  9
$UCSORTHOVIEW
 70
     0
  9
$UCSORGTOP
 10
0.0
 20
0.0
 30
0.0
  9
$UCSORGBOTTOM
 10
0.0
 20
0.0
 30
0.0
  9
$UCSORGLEFT
 10
0.0
 20
0.0
 30
0.0
  9
$UCSORGRIGHT
 10
0.0
 20
0.0
 30
0.0
  9
$UCSORGFRONT
 10
0.0
 20
0.0
 30
0.0
  9
$UCSORGBACK
 10
0.0
 20
0.0
 30
0.0
  9
$PUCSBASE
  2

  9
$PUCSNAME
  2

  9
$PUCSORG
 10
0.0
 20
0.0
 30
0.0
  9
$PUCSXDIR
 10
1.0
 20
0.0
 30
0.0
  9
$PUCSYDIR
 10
0.0
 20
1.0
 30
0.0
  9
$PUCSORTHOREF
  2

  9
$PUCSORTHOVIEW
 70
     0
  9
$PUCSORGTOP
 10
0.0
 20
0.0
 30
0.0
  9
$PUCSORGBOTTOM
 10
0.0
 20
0.0
 30
0.0
  9
$PUCSORGLEFT
 10
0.0
 20
0.0
 30
0.0
  9
$PUCSORGRIGHT
 10
0.0
 20
0.0
 30
0.0
  9
$PUCSORGFRONT
 10
0.0
 20
0.0
 30
0.0
  9
$PUCSORGBACK
 10
0.0
 20
0.0
 30
0.0
  9
$USERI1
 70
     0
  9
$USERI2
 70
     0
  9
$USERI3
 70
     0
  9
$USERI4
 70
     0
  9
$USERI5
 70
     0
  9
$USERR1
 40
0.0
  9
$USERR2
 40
0.0
  9
$USERR3
 40
0.0
  9
$USERR4
 40
0.0
  9
$USERR5
 40
0.0
  9
$WORLDVIEW
 70
     1
  9
$SHADEDGE
 70
     3
  9
$SHADEDIF
 70
    70
  9
$TILEMODE
 70
     1
  9
$MAXACTVP
 70
    64
  9
$PINSBASE
 10
0.0
 20
0.0
 30
0.0
  9
$PLIMCHECK
 70
     0
  9
$PEXTMIN
 10
1.000000000000000E+20
 20
1.000000000000000E+20
 30
1.000000000000000E+20
  9
$PEXTMAX
 10
-1.000000000000000E+20
 20
-1.000000000000000E+20
 30
-1.000000000000000E+20
  9
$PLIMMIN
 10
0.0
 20
0.0
  9
$PLIMMAX
 10
12.0
 20
9.0
  9
$UNITMODE
 70
     0
  9
$VISRETAIN
 70
     1
  9
$PLINEGEN
 70
     0
  9
$PSLTSCALE
 70
     1
  9
$TREEDEPTH
 70
  3020
  9
$CMLSTYLE
  2
Standard
  9
$CMLJUST
 70
     0
  9
$CMLSCALE
 40
1.0
  9
$PROXYGRAPHICS
 70
     1
  9
$MEASUREMENT
 70
     0
  9
$CELWEIGHT
370
    -1
  9
$ENDCAPS
280
     0
  9
$JOINSTYLE
280
     0
  9
$LWDISPLAY
290
     1
  9
$INSUNITS
 70
     4
  9
$HYPERLINKBASE
  1

  9
$STYLESHEET
  1

  9
$XEDIT
290
     1
  9
$CEPSNTYPE
380
     0
  9
$PSTYLEMODE
290
     1
  9
$FINGERPRINTGUID
  2
{BB92DC56-E20D-6048-9120-F25437C3E76C}
  9
$VERSIONGUID
  2
{74253FBF-3629-174C-9BD4-1823D1A4198F}
  9
$EXTNAMES
290
     1
  9
$PSVPSCALE
 40
0.0
  9
$OLESTARTUP
290
     0
  9
$SORTENTS
280
   127
  9
$INDEXCTL
280
     0
  9
$HIDETEXT
280
     1
  9
$XCLIPFRAME
280
     2
  9
$HALOGAP
280
     0
  9
$OBSCOLOR
 70
   257
  9
$OBSLTYPE
280
     0
  9
$INTERSECTIONDISPLAY
280
     0
  9
$INTERSECTIONCOLOR
 70
   257
  9
$DIMASSOC
280
     2
  9
$PROJECTNAME
  1

  9
$CAMERADISPLAY
290
     0
  9
$LENSLENGTH
 40
50.0
  9
$CAMERAHEIGHT
 40
0.0
  9
$STEPSPERSEC
 40
2.0
  9
$STEPSIZE
 40
6.0
  9
$3DDWFPREC
 40
2.0
  9
$PSOLWIDTH
 40
0.25
  9
$PSOLHEIGHT
 40
4.0
  9
$LOFTANG1
 40
1.570796326794896
  9
$LOFTANG2
 40
1.570796326794896
  9
$LOFTMAG1
 40
0.0
  9
$LOFTMAG2
 40
0.0
  9
$LOFTPARAM
 70
     7
  9
$LOFTNORMALS
280
     1
  9
$LATITUDE
 40
37.795
  9
$LONGITUDE
 40
-122.394
  9
$NORTHDIRECTION
 40
0.0
  9
$TIMEZONE
 70
 -8000
  9
$LIGHTGLYPHDISPLAY
280
     1
  9
$TILEMODELIGHTSYNCH
280
     1
  9
$CMATERIAL
347
11
  9
$SOLIDHIST
280
     0
  9
$SHOWHIST
280
     1
  9
$DWFFRAME
280
     2
  9
$DGNFRAME
280
     0
  9
$REALWORLDSCALE
290
     1
  9
$INTERFERECOLOR
 62
     1
  9
$INTERFEREOBJVS
345
33
  9
$INTERFEREVPVS
346
30
  9
$CSHADOW
280
     0
  9
$SHADOWPLANELOCATION
 40
0.0
  0
ENDSEC
  0
SECTION
  2
CLASSES
  0
CLASS
  1
ACDBDICTIONARYWDFLT
  2
AcDbDictionaryWithDefault
  3
ObjectDBX Classes
 90
        0
 91
        1
280
     0
281
     0
  0
CLASS
  1
MATERIAL
  2
AcDbMaterial
  3
ObjectDBX Classes
 90
     1153
 91
        3
280
     0
281
     0
  0
CLASS
  1
VISUALSTYLE
  2
AcDbVisualStyle
  3
ObjectDBX Classes
 90
     4095
 91
       24
280
     0
281
     0
  0
CLASS
  1
SCALE
  2
AcDbScale
  3
ObjectDBX Classes
 90
     1153
 91
       17
280
     0
281
     0
  0
CLASS
  1
TABLESTYLE
  2
AcDbTableStyle
  3
ObjectDBX Classes
 90
     4095
 91
        1
280
     0
281
     0
  0
CLASS
  1
MLEADERSTYLE
  2
AcDbMLeaderStyle
  3
ACDB_MLEADERSTYLE_CLASS
 90
     4095
 91
        1
280
     0
281
     0
  0
CLASS
  1
ACDBSECTIONVIEWSTYLE
  2
AcDbSectionViewStyle
  3
ObjectDBX Classes
 90
     1025
 91
        1
280
     0
281
     0
  0
CLASS
  1
ACDBDETAILVIEWSTYLE
  2
AcDbDetailViewStyle
  3
ObjectDBX Classes
 90
     1025
 91
        1
280
     0
281
     0
  0
CLASS
  1
DICTIONARYVAR
  2
AcDbDictionaryVar
  3
ObjectDBX Classes
 90
        0
 91
        5
280
     0
281
     0
  0
CLASS
  1
CELLSTYLEMAP
  2
AcDbCellStyleMap
  3
ObjectDBX Classes
 90
     1152
 91
        1
280
     0
281
     0
  0
ENDSEC
  0
SECTION
  2
TABLES
  0
TABLE
  2
VPORT
  5
8
330
0
100
AcDbSymbolTable
 70
     1
  0
VPORT
  5
57
330
8
100
AcDbSymbolTableRecord
100
AcDbViewportTableRecord
  2
*Active
 70
     0
 10
0.0
 20
0.0
 11
1.0
 21
1.0
 12
0.0
 22
0.0
 13
0.0
 23
0.0
 14
1.0
 24
1.0
 15
0.0
 25
0.0
 16
0.0
 26
0.0
 36
1.0
 17
104.9999999737534
 27
-148.4999999628701
 37
0.0
 40
302.939999924255
 41
0.7070707070707534
 42
50.0
 43
0.0
 44
0.0
 50
0.0
 51
0.0
 71
     0
 72
   100
 73
     1
 74
     0
 75
     1
 76
     0
 77
     0
 78
     0
281
     0
 65
     1
110
0.0
120
0.0
130
0.0
111
1.0
121
0.0
131
0.0
112
0.0
122
1.0
132
0.0
 79
     0
146
0.0
 60
     3
 61
     5
292
     1
282
     1
141
0.0
142
0.0
 63
   250
421
  3355443
  0
ENDTAB
  0
TABLE
  2
LTYPE
  5
5
330
0
100
AcDbSymbolTable
 70
     2
  0
LTYPE
  5
5B
330
5
100
AcDbSymbolTableRecord
100
AcDbLinetypeTableRecord
  2
ByBlock
 70
     0
  3

 72
    65
 73
     0
 40
0.0
  0
LTYPE
  5
5C
330
5
100
AcDbSymbolTableRecord
100
AcDbLinetypeTableRecord
  2
ByLayer
 70
     0
  3

 72
    65
 73
     0
 40
0.0
  0
LTYPE
  5
5D
330
5
100
AcDbSymbolTableRecord
100
AcDbLinetypeTableRecord
  2
Continuous
 70
     0
  3
Solid line
 72
    65
 73
     0
 40
0.0
  0
LTYPE
  5
BC
330
5
100
AcDbSymbolTableRecord
100
AcDbLinetypeTableRecord
  2
AI-Linetype-0
 70
     0
  3
Adobe Illustrator Linetype No. 0
 72
    65
 73
     2
 40
1.411111110758333
 49
0.7055555553791667
 74
     0
 49
-0.7055555553791667
 74
     0
  0
ENDTAB
  0
TABLE
  2
LAYER
  5
2
330
0
100
AcDbSymbolTable
 70
     2
  0
LAYER
  5
54
330
2
100
AcDbSymbolTableRecord
100
AcDbLayerTableRecord
  2
0
 70
     0
 62
     7
  6
Continuous
370
    -3
390
F
347
21
  0
LAYER
  5
78
330
2
100
AcDbSymbolTableRecord
100
AcDbLayerTableRecord
  2
レイヤー 1
 70
     0
 62
     7
  6
Continuous
370
     0
390
F
347
21
  0
ENDTAB
  0
TABLE
  2
STYLE
  5
3
330
0
100
AcDbSymbolTable
 70
     2
  0
STYLE
  5
55
330
3
100
AcDbSymbolTableRecord
100
AcDbTextStyleTableRecord
  2
Standard
 70
     0
 40
0.0
 41
1.0
 50
0.0
 71
     0
 42
0.2
  3
txt
  4

  0
STYLE
  5
5A
330
3
100
AcDbSymbolTableRecord
100
AcDbTextStyleTableRecord
  2
Annotative
 70
     0
 40
0.0
 41
1.0
 50
0.0
 71
     0
 42
0.2
  3
txt
  4

1001
AcadAnnotative
1000
AnnotativeData
1002
{
1070
     1
1070
     1
1002
}
  0
ENDTAB
  0
TABLE
  2
VIEW
  5
6
330
0
100
AcDbSymbolTable
 70
     0
  0
ENDTAB
  0
TABLE
  2
UCS
  5
7
330
0
100
AcDbSymbolTable
 70
     0
  0
ENDTAB
  0
TABLE
  2
APPID
  5
9
330
0
100
AcDbSymbolTable
 70
     2
  0
APPID
  5
56
330
9
100
AcDbSymbolTableRecord
100
AcDbRegAppTableRecord
  2
ACAD
 70
     0
  0
APPID
  5
5E
330
9
100
AcDbSymbolTableRecord
100
AcDbRegAppTableRecord
  2
AcadAnnotative
 70
     0
  0
ENDTAB
  0
TABLE
  2
DIMSTYLE
  5
A
330
0
100
AcDbSymbolTable
 70
     2
100
AcDbDimStyleTable
 71
     0
  0
DIMSTYLE
105
58
330
A
100
AcDbSymbolTableRecord
100
AcDbDimStyleTableRecord
  2
Standard
 70
     0
340
55
  0
DIMSTYLE
105
59
330
A
100
AcDbSymbolTableRecord
100
AcDbDimStyleTableRecord
  2
Annotative
 70
     0
340
55
1001
AcadAnnotative
1000
AnnotativeData
1002
{
1070
     1
1070
     1
1002
}
  0
ENDTAB
  0
TABLE
  2
BLOCK_RECORD
  5
1
330
0
100
AcDbSymbolTable
 70
    10
  0
BLOCK_RECORD
  5
70
330
1
100
AcDbSymbolTableRecord
100
AcDbBlockTableRecord
  2
*Model_Space
340
73
 70
     0
280
     1
281
     0
  0
BLOCK_RECORD
  5
6C
330
1
100
AcDbSymbolTableRecord
100
AcDbBlockTableRecord
  2
*Paper_Space
340
6F
 70
     0
280
     1
281
     0
  0
BLOCK_RECORD
  5
74
330
1
100
AcDbSymbolTableRecord
100
AcDbBlockTableRecord
  2
*Paper_Space0
340
77
 70
     0
280
     1
281
     0
  0
BLOCK_RECORD
  5
7E
330
1
100
AcDbSymbolTableRecord
100
AcDbBlockTableRecord
  2
Block_0
340
0
102
{BLKREFS
331
7F
102
}
 70
     0
280
     1
281
     0
  0
BLOCK_RECORD
  5
8D
330
1
100
AcDbSymbolTableRecord
100
AcDbBlockTableRecord
  2
Block_1
340
0
102
{BLKREFS
331
8E
102
}
 70
     0
280
     1
281
     0
  0
BLOCK_RECORD
  5
91
330
1
100
AcDbSymbolTableRecord
100
AcDbBlockTableRecord
  2
Block_2
340
0
102
{BLKREFS
331
92
102
}
 70
     0
280
     1
281
     0
  0
BLOCK_RECORD
  5
9F
330
1
100
AcDbSymbolTableRecord
100
AcDbBlockTableRecord
  2
Block_3
340
0
102
{BLKREFS
331
A0
102
}
 70
     0
280
     1
281
     0
  0
BLOCK_RECORD
  5
A3
330
1
100
AcDbSymbolTableRecord
100
AcDbBlockTableRecord
  2
Block_4
340
0
102
{BLKREFS
331
A4
102
}
 70
     0
280
     1
281
     0
  0
BLOCK_RECORD
  5
AE
330
1
100
AcDbSymbolTableRecord
100
AcDbBlockTableRecord
  2
Block_5
340
0
102
{BLKREFS
331
AF
102
}
 70
     0
280
     1
281
     0
  0
BLOCK_RECORD
  5
B2
330
1
100
AcDbSymbolTableRecord
100
AcDbBlockTableRecord
  2
Block_6
340
0
102
{BLKREFS
331
B3
102
}
 70
     0
280
     1
281
     0
  0
BLOCK_RECORD
  5
BE
330
1
100
AcDbSymbolTableRecord
100
AcDbBlockTableRecord
  2
Block_7
340
0
102
{BLKREFS
331
BF
102
}
 70
     0
280
     1
281
     0
  0
BLOCK_RECORD
  5
C2
330
1
100
AcDbSymbolTableRecord
100
AcDbBlockTableRecord
  2
Block_8
340
0
102
{BLKREFS
331
C3
102
}
 70
     0
280
     1
281
     0
  0
ENDTAB
  0
ENDSEC
  0
SECTION
  2
BLOCKS
  0
BLOCK
  5
71
330
70
100
AcDbEntity
  8
0
100
AcDbBlockBegin
  2
*Model_Space
 70
     0
 10
0.0
 20
0.0
 30
0.0
  3
*Model_Space
  1

  0
ENDBLK
  5
72
330
70
100
AcDbEntity
  8
0
100
AcDbBlockEnd
  0
BLOCK
  5
6D
330
6C
100
AcDbEntity
 67
     1
  8
0
100
AcDbBlockBegin
  2
*Paper_Space
 70
     0
 10
0.0
 20
0.0
 30
0.0
  3
*Paper_Space
  1

  0
ENDBLK
  5
6E
330
6C
100
AcDbEntity
 67
     1
  8
0
100
AcDbBlockEnd
  0
BLOCK
  5
75
330
74
100
AcDbEntity
 67
     1
  8
0
100
AcDbBlockBegin
  2
*Paper_Space0
 70
     0
 10
0.0
 20
0.0
 30
0.0
  3
*Paper_Space0
  1

  0
ENDBLK
  5
76
330
74
100
AcDbEntity
 67
     1
  8
0
100
AcDbBlockEnd
  0
BLOCK
  5
80
330
7E
100
AcDbEntity
  8
0
100
AcDbBlockBegin
  2
Block_0
 70
     0
 10
0.0
 20
0.0
 30
0.0
  3
Block_0
  1

  0
SPLINE
  5
82
330
7E
100
AcDbEntity
  8
レイヤー 1
100
AcDbSpline
210
0.0
220
0.0
230
1.0
 70
     9
 71
     3
 72
    17
 73
    13
 74
     0
 42
0.0000000001
 43
0.0000000001
 40
0.0
 40
0.0
 40
0.0
 40
0.0
 40
1.0
 40
1.0
 40
1.0
 40
2.0
 40
2.0
 40
2.0
 40
3.0
 40
3.0
 40
3.0
 40
4.0
 40
4.0
 40
4.0
 40
4.0
 10
96.3958387345816
 20
-159.3432454028725
 30
0.0
 10
96.277327449889
 20
-159.3432454028725
 30
0.0
 10
96.10179983491553
 20
-159.4004339879276
 30
0.0
 10
96.10179983491553
 20
-159.6860324036549
 30
0.0
 10
96.10179983491553
 20
-159.9123751770358
 30
0.0
 10
96.24132620206815
 20
-160.0074598124287
 30
0.0
 10
96.37671845463847
 20
-160.0074598124287
 30
0.0
 10
96.63906247584023
 20
-160.0074598124287
 30
0.0
 10
96.67713078095225
 20
-159.7979980069255
 30
0.0
 10
96.67713078095225
 20
-159.681553779524
 30
0.0
 10
96.67713078095225
 20
-159.5061984193248
 30
0.0
 10
96.58204614555936
 20
-159.3432454028725
 30
0.0
 10
96.3958387345816
 20
-159.3432454028725
 30
0.0
  0
SPLINE
  5
83
330
7E
100
AcDbEntity
  8
レイヤー 1
100
AcDbSpline
210
0.0
220
0.0
230
1.0
 70
     9
 71
     3
 72
    32
 73
    28
 74
     0
 42
0.0000000001
 43
0.0000000001
 40
0.0
 40
0.0
 40
0.0
 40
0.0
 40
1.0
 40
1.0
 40
1.0
 40
2.0
 40
2.0
 40
2.0
 40
3.0
 40
3.0
 40
3.0
 40
4.0
 40
4.0
 40
4.0
 40
5.0
 40
5.0
 40
5.0
 40
6.0
 40
6.0
 40
6.0
 40
7.0
 40
7.0
 40
7.0
 40
8.0
 40
8.0
 40
8.0
 40
9.0
 40
9.0
 40
9.0
 40
9.0
 10
96.35553111740419
 20
-160.7943196212598
 30
0.0
 10
96.18207055972185
 20
-160.7943196212598
 30
0.0
 10
95.93677976117206
 20
-160.7247286924577
 30
0.0
 10
95.89871145606004
 20
-160.3926214876796
 30
0.0
 10
95.89871145606004
 20
-160.3926214876796
 30
0.0
 10
96.11230737614555
 20
-160.3926214876796
 30
0.0
 10
96.11230737614555
 20
-160.3926214876796
 30
0.0
 10
96.12298717214983
 20
-160.4518771300259
 30
0.0
 10
96.15468205061411
 20
-160.5996717263431
 30
0.0
 10
96.3577704294696
 20
-160.5996717263431
 30
0.0
 10
96.64974227184451
 20
-160.5996717263431
 30
0.0
 10
96.68781057695653
 20
-160.2699760884047
 30
0.0
 10
96.70038517547769
 20
-160.0646483974838
 30
0.0
 10
96.60943465466708
 20
-160.1449191222901
 30
0.0
 10
96.54173852838193
 20
-160.2021077073453
 30
0.0
 10
96.35983748676075
 20
-160.2021077073453
 30
0.0
 10
96.1800035024307
 20
-160.2021077073453
 30
0.0
 10
95.87752411882576
 20
-160.0963432759481
 30
0.0
 10
95.87752411882576
 20
-159.6901665182372
 30
0.0
 10
95.87752411882576
 20
-159.3708061667545
 30
0.0
 10
96.07630612832467
 20
-159.150664565247
 30
0.0
 10
96.39377167729044
 20
-159.150664565247
 30
0.0
 10
96.90777992368973
 20
-159.150664565247
 30
0.0
 10
96.91828746491975
 20
-159.7049804288237
 30
0.0
 10
96.91828746491975
 20
-159.9185763489092
 30
0.0
 10
96.91828746491975
 20
-160.1490532368725
 30
0.0
 10
96.89933943975086
 20
-160.7943196212598
 30
0.0
 10
96.35553111740419
 20
-160.7943196212598
 30
0.0
  0
HATCH
  5
84
330
7E
100
AcDbEntity
  8
レイヤー 1
 62
    18
420
        0
440
 33554687
100
AcDbHatch
 10
0.0
 20
0.0
 30
0.0
210
0.0
220
0.0
230
1.0
  2
SOLID
 70
     1
 71
     1
 91
        2
 92
        1
 93
        1
 72
     4
 94
        3
 73
     0
 74
     0
 95
       17
 96
       13
 40
0.0
 40
0.0
 40
0.0
 40
0.0
 40
1.0
 40
1.0
 40
1.0
 40
2.0
 40
2.0
 40
2.0
 40
3.0
 40
3.0
 40
3.0
 40
4.0
 40
4.0
 40
4.0
 40
4.0
 10
96.3958387345816
 20
-159.3432454028725
 10
96.277327449889
 20
-159.3432454028725
 10
96.10179983491553
 20
-159.4004339879276
 10
96.10179983491553
 20
-159.6860324036549
 10
96.10179983491553
 20
-159.9123751770358
 10
96.24132620206815
 20
-160.0074598124287
 10
96.37671845463847
 20
-160.0074598124287
 10
96.63906247584023
 20
-160.0074598124287
 10
96.67713078095225
 20
-159.7979980069255
 10
96.67713078095225
 20
-159.681553779524
 10
96.67713078095225
 20
-159.5061984193248
 10
96.58204614555936
 20
-159.3432454028725
 10
96.3958387345816
 20
-159.3432454028725
 97
        0
 97
        1
330
82
 92
        1
 93
        1
 72
     4
 94
        3
 73
     0
 74
     0
 95
       32
 96
       28
 40
0.0
 40
0.0
 40
0.0
 40
0.0
 40
1.0
 40
1.0
 40
1.0
 40
2.0
 40
2.0
 40
2.0
 40
3.0
 40
3.0
 40
3.0
 40
4.0
 40
4.0
 40
4.0
 40
5.0
 40
5.0
 40
5.0
 40
6.0
 40
6.0
 40
6.0
 40
7.0
 40
7.0
 40
7.0
 40
8.0
 40
8.0
 40
8.0
 40
9.0
 40
9.0
 40
9.0
 40
9.0
 10
96.35553111740419
 20
-160.7943196212598
 10
96.18207055972185
 20
-160.7943196212598
 10
95.93677976117206
 20
-160.7247286924577
 10
95.89871145606004
 20
-160.3926214876796
 10
95.89871145606004
 20
-160.3926214876796
 10
96.11230737614555
 20
-160.3926214876796
 10
96.11230737614555
 20
-160.3926214876796
 10
96.12298717214983
 20
-160.4518771300259
 10
96.15468205061411
 20
-160.5996717263431
 10
96.3577704294696
 20
-160.5996717263431
 10
96.64974227184451
 20
-160.5996717263431
 10
96.68781057695653
 20
-160.2699760884047
 10
96.70038517547769
 20
-160.0646483974838
 10
96.60943465466708
 20
-160.1449191222901
 10
96.54173852838193
 20
-160.2021077073453
 10
96.35983748676075
 20
-160.2021077073453
 10
96.1800035024307
 20
-160.2021077073453
 10
95.87752411882576
 20
-160.0963432759481
 10
95.87752411882576
 20
-159.6901665182372
 10
95.87752411882576
 20
-159.3708061667545
 10
96.07630612832467
 20
-159.150664565247
 10
96.39377167729044
 20
-159.150664565247
 10
96.90777992368973
 20
-159.150664565247
 10
96.91828746491975
 20
-159.7049804288237
 10
96.91828746491975
 20
-159.9185763489092
 10
96.91828746491975
 20
-160.1490532368725
 10
96.89933943975086
 20
-160.7943196212598
 10
96.35553111740419
 20
-160.7943196212598
 97
        0
 97
        1
330
83
 75
     2
 76
     1
 98
        1
 10
0.0
 20
0.0
450
        0
451
        0
460
0.0
461
0.0
452
        0
462
0.0
453
        0
470

  0
ENDBLK
  5
81
330
7E
100
AcDbEntity
  8
0
100
AcDbBlockEnd
  0
BLOCK
  5
8F
330
8D
100
AcDbEntity
  8
0
100
AcDbBlockBegin
  2
Block_1
 70
     0
 10
0.0
 20
0.0
 30
0.0
  3
Block_1
  1

  0
INSERT
  5
92
330
8D
100
AcDbEntity
  8
レイヤー 1
100
AcDbBlockReference
  2
Block_2
 10
0.0
 20
0.0
 30
0.0
  0
ENDBLK
  5
90
330
8D
100
AcDbEntity
  8
0
100
AcDbBlockEnd
  0
BLOCK
  5
93
330
91
100
AcDbEntity
  8
0
100
AcDbBlockBegin
  2
Block_2
 70
     0
 10
0.0
 20
0.0
 30
0.0
  3
Block_2
  1

  0
SPLINE
  5
95
330
91
100
AcDbEntity
  8
レイヤー 1
100
AcDbSpline
210
0.0
220
0.0
230
1.0
 70
     9
 71
     3
 72
    17
 73
    13
 74
     0
 42
0.0000000001
 43
0.0000000001
 40
0.0
 40
0.0
 40
0.0
 40
0.0
 40
1.0
 40
1.0
 40
1.0
 40
2.0
 40
2.0
 40
2.0
 40
3.0
 40
3.0
 40
3.0
 40
4.0
 40
4.0
 40
4.0
 40
4.0
 10
122.4400715839733
 20
-140.0362412844354
 30
0.0
 10
122.4400715839733
 20
-140.154752569128
 30
0.0
 10
122.4972601690284
 20
-140.3304524388757
 30
0.0
 10
122.7828585847557
 20
-140.3304524388757
 30
0.0
 10
123.0092013581366
 20
-140.3304524388757
 30
0.0
 10
123.1042859935295
 20
-140.1905815621745
 30
0.0
 10
123.1042859935295
 20
-140.0551893096042
 30
0.0
 10
123.1042859935295
 20
-139.7930175431767
 30
0.0
 10
122.8948241880263
 20
-139.7547769832904
 30
0.0
 10
122.7783799606248
 20
-139.7547769832904
 30
0.0
 10
122.6030246004256
 20
-139.7547769832904
 30
0.0
 10
122.4400715839733
 20
-139.8502061282319
 30
0.0
 10
122.4400715839733
 20
-140.0362412844354
 30
0.0
  0
SPLINE
  5
96
330
91
100
AcDbEntity
  8
レイヤー 1
100
AcDbSpline
210
0.0
220
0.0
230
1.0
 70
     9
 71
     3
 72
    32
 73
    28
 74
     0
 42
0.0000000001
 43
0.0000000001
 40
0.0
 40
0.0
 40
0.0
 40
0.0
 40
1.0
 40
1.0
 40
1.0
 40
2.0
 40
2.0
 40
2.0
 40
3.0
 40
3.0
 40
3.0
 40
4.0
 40
4.0
 40
4.0
 40
5.0
 40
5.0
 40
5.0
 40
6.0
 40
6.0
 40
6.0
 40
7.0
 40
7.0
 40
7.0
 40
8.0
 40
8.0
 40
8.0
 40
9.0
 40
9.0
 40
9.0
 40
9.0
 10
123.8911458023605
 20
-140.0765489016128
 30
0.0
 10
123.8911458023605
 20
-140.2498372045208
 30
0.0
 10
123.8215548735585
 20
-140.4954725126192
 30
0.0
 10
123.4894476687804
 20
-140.5333685629569
 30
0.0
 10
123.4894476687804
 20
-140.5333685629569
 30
0.0
 10
123.4894476687804
 20
-140.3197726428714
 30
0.0
 10
123.4894476687804
 20
-140.3197726428714
 30
0.0
 10
123.5487033111267
 20
-140.3090928468671
 30
0.0
 10
123.6964979074439
 20
-140.2773979684029
 30
0.0
 10
123.6964979074439
 20
-140.0744818443216
 30
0.0
 10
123.6964979074439
 20
-139.7823377471725
 30
0.0
 10
123.366457759957
 20
-139.7444416968347
 30
0.0
 10
123.1614745785846
 20
-139.7316948435393
 30
0.0
 10
123.2417453033909
 20
-139.8226453643499
 30
0.0
 10
123.2989338884461
 20
-139.8901692358608
 30
0.0
 10
123.2989338884461
 20
-140.072070277482
 30
0.0
 10
123.2989338884461
 20
-140.251904261812
 30
0.0
 10
123.1931694570489
 20
-140.5547281549655
 30
0.0
 10
122.786992699338
 20
-140.5547281549655
 30
0.0
 10
122.4676323478553
 20
-140.5547281549655
 30
0.0
 10
122.2474907463478
 20
-140.355601635918
 30
0.0
 10
122.2474907463478
 20
-140.0383083417265
 30
0.0
 10
122.2474907463478
 20
-139.5243000953273
 30
0.0
 10
122.8018066099245
 20
-139.513620299323
 30
0.0
 10
123.01540253001
 20
-139.513620299323
 30
0.0
 10
123.2458794179732
 20
-139.513620299323
 30
0.0
 10
123.8911458023605
 20
-139.5329128340404
 30
0.0
 10
123.8911458023605
 20
-140.0765489016128
 30
0.0
  0
HATCH
  5
97
330
91
100
AcDbEntity
  8
レイヤー 1
 62
    18
420
        0
440
 33554687
100
AcDbHatch
 10
0.0
 20
0.0
 30
0.0
210
0.0
220
0.0
230
1.0
  2
SOLID
 70
     1
 71
     1
 91
        2
 92
        1
 93
        1
 72
     4
 94
        3
 73
     0
 74
     0
 95
       17
 96
       13
 40
0.0
 40
0.0
 40
0.0
 40
0.0
 40
1.0
 40
1.0
 40
1.0
 40
2.0
 40
2.0
 40
2.0
 40
3.0
 40
3.0
 40
3.0
 40
4.0
 40
4.0
 40
4.0
 40
4.0
 10
122.4400715839733
 20
-140.0362412844354
 10
122.4400715839733
 20
-140.154752569128
 10
122.4972601690284
 20
-140.3304524388757
 10
122.7828585847557
 20
-140.3304524388757
 10
123.0092013581366
 20
-140.3304524388757
 10
123.1042859935295
 20
-140.1905815621745
 10
123.1042859935295
 20
-140.0551893096042
 10
123.1042859935295
 20
-139.7930175431767
 10
122.8948241880263
 20
-139.7547769832904
 10
122.7783799606248
 20
-139.7547769832904
 10
122.6030246004256
 20
-139.7547769832904
 10
122.4400715839733
 20
-139.8502061282319
 10
122.4400715839733
 20
-140.0362412844354
 97
        0
 97
        1
330
95
 92
        1
 93
        1
 72
     4
 94
        3
 73
     0
 74
     0
 95
       32
 96
       28
 40
0.0
 40
0.0
 40
0.0
 40
0.0
 40
1.0
 40
1.0
 40
1.0
 40
2.0
 40
2.0
 40
2.0
 40
3.0
 40
3.0
 40
3.0
 40
4.0
 40
4.0
 40
4.0
 40
5.0
 40
5.0
 40
5.0
 40
6.0
 40
6.0
 40
6.0
 40
7.0
 40
7.0
 40
7.0
 40
8.0
 40
8.0
 40
8.0
 40
9.0
 40
9.0
 40
9.0
 40
9.0
 10
123.8911458023605
 20
-140.0765489016128
 10
123.8911458023605
 20
-140.2498372045208
 10
123.8215548735585
 20
-140.4954725126192
 10
123.4894476687804
 20
-140.5333685629569
 10
123.4894476687804
 20
-140.5333685629569
 10
123.4894476687804
 20
-140.3197726428714
 10
123.4894476687804
 20
-140.3197726428714
 10
123.5487033111267
 20
-140.3090928468671
 10
123.6964979074439
 20
-140.2773979684029
 10
123.6964979074439
 20
-140.0744818443216
 10
123.6964979074439
 20
-139.7823377471725
 10
123.366457759957
 20
-139.7444416968347
 10
123.1614745785846
 20
-139.7316948435393
 10
123.2417453033909
 20
-139.8226453643499
 10
123.2989338884461
 20
-139.8901692358608
 10
123.2989338884461
 20
-140.072070277482
 10
123.2989338884461
 20
-140.251904261812
 10
123.1931694570489
 20
-140.5547281549655
 10
122.786992699338
 20
-140.5547281549655
 10
122.4676323478553
 20
-140.5547281549655
 10
122.2474907463478
 20
-140.355601635918
 10
122.2474907463478
 20
-140.0383083417265
 10
122.2474907463478
 20
-139.5243000953273
 10
122.8018066099245
 20
-139.513620299323
 10
123.01540253001
 20
-139.513620299323
 10
123.2458794179732
 20
-139.513620299323
 10
123.8911458023605
 20
-139.5329128340404
 10
123.8911458023605
 20
-140.0765489016128
 97
        0
 97
        1
330
96
 75
     2
 76
     1
 98
        1
 10
0.0
 20
0.0
450
        0
451
        0
460
0.0
461
0.0
452
        0
462
0.0
453
        0
470

  0
SPLINE
  5
98
330
91
100
AcDbEntity
  8
レイヤー 1
100
AcDbSpline
210
0.0
220
0.0
230
1.0
 70
    11
 71
     3
 72
    17
 73
    13
 74
     0
 42
0.0000000001
 43
0.0000000001
 40
0.0
 40
0.0
 40
0.0
 40
0.0
 40
1.0
 40
1.0
 40
1.0
 40
2.0
 40
2.0
 40
2.0
 40
3.0
 40
3.0
 40
3.0
 40
4.0
 40
4.0
 40
4.0
 40
4.0
 10
123.8405028987274
 20
-139.2972683028493
 30
0.0
 10
123.8405028987274
 20
-139.2972683028493
 30
0.0
 10
123.5886664187556
 20
-139.2972683028493
 30
0.0
 10
123.5886664187556
 20
-139.2972683028493
 30
0.0
 10
123.5886664187556
 20
-139.2972683028493
 30
0.0
 10
123.5886664187556
 20
-139.0454318228775
 30
0.0
 10
123.5886664187556
 20
-139.0454318228775
 30
0.0
 10
123.5886664187556
 20
-139.0454318228775
 30
0.0
 10
123.8405028987274
 20
-139.0454318228775
 30
0.0
 10
123.8405028987274
 20
-139.0454318228775
 30
0.0
 10
123.8405028987274
 20
-139.0454318228775
 30
0.0
 10
123.8405028987274
 20
-139.2972683028493
 30
0.0
 10
123.8405028987274
 20
-139.2972683028493
 30
0.0
  0
HATCH
  5
99
330
91
100
AcDbEntity
  8
レイヤー 1
 62
    18
420
        0
440
 33554687
100
AcDbHatch
 10
0.0
 20
0.0
 30
0.0
210
0.0
220
0.0
230
1.0
  2
SOLID
 70
     1
 71
     1
 91
        1
 92
        1
 93
        1
 72
     4
 94
        3
 73
     0
 74
     0
 95
       17
 96
       13
 40
0.0
 40
0.0
 40
0.0
 40
0.0
 40
1.0
 40
1.0
 40
1.0
 40
2.0
 40
2.0
 40
2.0
 40
3.0
 40
3.0
 40
3.0
 40
4.0
 40
4.0
 40
4.0
 40
4.0
 10
123.8405028987274
 20
-139.2972683028493
 10
123.8405028987274
 20
-139.2972683028493
 10
123.5886664187556
 20
-139.2972683028493
 10
123.5886664187556
 20
-139.2972683028493
 10
123.5886664187556
 20
-139.2972683028493
 10
123.5886664187556
 20
-139.0454318228775
 10
123.5886664187556
 20
-139.0454318228775
 10
123.5886664187556
 20
-139.0454318228775
 10
123.8405028987274
 20
-139.0454318228775
 10
123.8405028987274
 20
-139.0454318228775
 10
123.8405028987274
 20
-139.0454318228775
 10
123.8405028987274
 20
-139.2972683028493
 10
123.8405028987274
 20
-139.2972683028493
 97
        0
 97
        1
330
98
 75
     2
 76
     1
 98
        1
 10
0.0
 20
0.0
450
        0
451
        0
460
0.0
461
0.0
452
        0
462
0.0
453
        0
470

  0
SPLINE
  5
9A
330
91
100
AcDbEntity
  8
レイヤー 1
100
AcDbSpline
210
0.0
220
0.0
230
1.0
 70
     9
 71
     3
 72
    53
 73
    49
 74
     0
 42
0.0000000001
 43
0.0000000001
 40
0.0
 40
0.0
 40
0.0
 40
0.0
 40
1.0
 40
1.0
 40
1.0
 40
2.0
 40
2.0
 40
2.0
 40
3.0
 40
3.0
 40
3.0
 40
4.0
 40
4.0
 40
4.0
 40
5.0
 40
5.0
 40
5.0
 40
6.0
 40
6.0
 40
6.0
 40
7.0
 40
7.0
 40
7.0
 40
8.0
 40
8.0
 40
8.0
 40
9.0
 40
9.0
 40
9.0
 40
10.0
 40
10.0
 40
10.0
 40
11.0
 40
11.0
 40
11.0
 40
12.0
 40
12.0
 40
12.0
 40
13.0
 40
13.0
 40
13.0
 40
14.0
 40
14.0
 40
14.0
 40
15.0
 40
15.0
 40
15.0
 40
16.0
 40
16.0
 40
16.0
 40
16.0
 10
123.8911458023605
 20
-138.3281629428485
 30
0.0
 10
123.8911458023605
 20
-138.4063666103637
 30
0.0
 10
123.8742648344828
 20
-138.5079969271785
 30
0.0
 10
123.8108750775542
 20
-138.6096272439934
 30
0.0
 10
123.7009765315747
 20
-138.7829155469015
 30
0.0
 10
123.5697183935867
 20
-138.80427513891
 30
0.0
 10
123.4618869048984
 20
-138.8232231640789
 30
0.0
 10
123.4618869048984
 20
-138.8232231640789
 30
0.0
 10
123.4618869048984
 20
-138.6010145052803
 30
0.0
 10
123.4618869048984
 20
-138.6010145052803
 30
0.0
 10
123.6606689143973
 20
-138.5462374870648
 30
0.0
 10
123.6902967355705
 20
-138.4191134636591
 30
0.0
 10
123.6902967355705
 20
-138.3260958855573
 30
0.0
 10
123.6902967355705
 20
-138.1865695184047
 30
0.0
 10
123.5907334760467
 20
-138.0342962979567
 30
0.0
 10
123.3581895307924
 20
-138.0342962979567
 30
0.0
 10
123.1022189362383
 20
-138.0342962979567
 30
0.0
 10
123.0322834978877
 20
-138.2141302822867
 30
0.0
 10
123.0322834978877
 20
-138.3347086242705
 30
0.0
 10
123.0322834978877
 20
-138.3664035027348
 30
0.0
 10
123.0322834978877
 20
-138.5079969271785
 30
0.0
 10
123.1614745785846
 20
-138.596880390698
 30
0.0
 10
123.1614745785846
 20
-138.596880390698
 30
0.0
 10
123.1425265534157
 20
-138.7725802604457
 30
0.0
 10
123.1425265534157
 20
-138.7725802604457
 30
0.0
 10
123.1425265534157
 20
-138.7725802604457
 30
0.0
 10
122.2960665926899
 20
-138.652001918462
 30
0.0
 10
122.2960665926899
 20
-138.652001918462
 30
0.0
 10
122.2960665926899
 20
-138.652001918462
 30
0.0
 10
122.2960665926899
 20
-137.8734103387955
 30
0.0
 10
122.2960665926899
 20
-137.8734103387955
 30
0.0
 10
122.2960665926899
 20
-137.8734103387955
 30
0.0
 10
122.4907144876065
 20
-137.8734103387955
 30
0.0
 10
122.4907144876065
 20
-137.8734103387955
 30
0.0
 10
122.4907144876065
 20
-137.8734103387955
 30
0.0
 10
122.4907144876065
 20
-138.4890489020097
 30
0.0
 10
122.4907144876065
 20
-138.4890489020097
 30
0.0
 10
122.4907144876065
 20
-138.4890489020097
 30
0.0
 10
122.9137722131951
 20
-138.5545057162294
 30
0.0
 10
122.9137722131951
 20
-138.5545057162294
 30
0.0
 10
122.8800102774397
 20
-138.493183016592
 30
0.0
 10
122.8397026602623
 20
-138.4108452344945
 30
0.0
 10
122.8397026602623
 20
-138.2923339498019
 30
0.0
 10
122.8397026602623
 20
-138.038430412539
 30
0.0
 10
123.0260823260143
 20
-137.8014078431538
 30
0.0
 10
123.3392415056235
 20
-137.8014078431538
 30
0.0
 10
123.656534799815
 20
-137.8014078431538
 30
0.0
 10
123.8911458023605
 20
-138.0256835592436
 30
0.0
 10
123.8911458023605
 20
-138.3281629428485
 30
0.0
  0
HATCH
  5
9B
330
91
100
AcDbEntity
  8
レイヤー 1
 62
    18
420
        0
440
 33554687
100
AcDbHatch
 10
0.0
 20
0.0
 30
0.0
210
0.0
220
0.0
230
1.0
  2
SOLID
 70
     1
 71
     1
 91
        1
 92
        1
 93
        1
 72
     4
 94
        3
 73
     0
 74
     0
 95
       53
 96
       49
 40
0.0
 40
0.0
 40
0.0
 40
0.0
 40
1.0
 40
1.0
 40
1.0
 40
2.0
 40
2.0
 40
2.0
 40
3.0
 40
3.0
 40
3.0
 40
4.0
 40
4.0
 40
4.0
 40
5.0
 40
5.0
 40
5.0
 40
6.0
 40
6.0
 40
6.0
 40
7.0
 40
7.0
 40
7.0
 40
8.0
 40
8.0
 40
8.0
 40
9.0
 40
9.0
 40
9.0
 40
10.0
 40
10.0
 40
10.0
 40
11.0
 40
11.0
 40
11.0
 40
12.0
 40
12.0
 40
12.0
 40
13.0
 40
13.0
 40
13.0
 40
14.0
 40
14.0
 40
14.0
 40
15.0
 40
15.0
 40
15.0
 40
16.0
 40
16.0
 40
16.0
 40
16.0
 10
123.8911458023605
 20
-138.3281629428485
 10
123.8911458023605
 20
-138.4063666103637
 10
123.8742648344828
 20
-138.5079969271785
 10
123.8108750775542
 20
-138.6096272439934
 10
123.7009765315747
 20
-138.7829155469015
 10
123.5697183935867
 20
-138.80427513891
 10
123.4618869048984
 20
-138.8232231640789
 10
123.4618869048984
 20
-138.8232231640789
 10
123.4618869048984
 20
-138.6010145052803
 10
123.4618869048984
 20
-138.6010145052803
 10
123.6606689143973
 20
-138.5462374870648
 10
123.6902967355705
 20
-138.4191134636591
 10
123.6902967355705
 20
-138.3260958855573
 10
123.6902967355705
 20
-138.1865695184047
 10
123.5907334760467
 20
-138.0342962979567
 10
123.3581895307924
 20
-138.0342962979567
 10
123.1022189362383
 20
-138.0342962979567
 10
123.0322834978877
 20
-138.2141302822867
 10
123.0322834978877
 20
-138.3347086242705
 10
123.0322834978877
 20
-138.3664035027348
 10
123.0322834978877
 20
-138.5079969271785
 10
123.1614745785846
 20
-138.596880390698
 10
123.1614745785846
 20
-138.596880390698
 10
123.1425265534157
 20
-138.7725802604457
 10
123.1425265534157
 20
-138.7725802604457
 10
123.1425265534157
 20
-138.7725802604457
 10
122.2960665926899
 20
-138.652001918462
 10
122.2960665926899
 20
-138.652001918462
 10
122.2960665926899
 20
-138.652001918462
 10
122.2960665926899
 20
-137.8734103387955
 10
122.2960665926899
 20
-137.8734103387955
 10
122.2960665926899
 20
-137.8734103387955
 10
122.4907144876065
 20
-137.8734103387955
 10
122.4907144876065
 20
-137.8734103387955
 10
122.4907144876065
 20
-137.8734103387955
 10
122.4907144876065
 20
-138.4890489020097
 10
122.4907144876065
 20
-138.4890489020097
 10
122.4907144876065
 20
-138.4890489020097
 10
122.9137722131951
 20
-138.5545057162294
 10
122.9137722131951
 20
-138.5545057162294
 10
122.8800102774397
 20
-138.493183016592
 10
122.8397026602623
 20
-138.4108452344945
 10
122.8397026602623
 20
-138.2923339498019
 10
122.8397026602623
 20
-138.038430412539
 10
123.0260823260143
 20
-137.8014078431538
 10
123.3392415056235
 20
-137.8014078431538
 10
123.656534799815
 20
-137.8014078431538
 10
123.8911458023605
 20
-138.0256835592436
 10
123.8911458023605
 20
-138.3281629428485
 97
        0
 97
        1
330
9A
 75
     2
 76
     1
 98
        1
 10
0.0
 20
0.0
450
        0
451
        0
460
0.0
461
0.0
452
        0
462
0.0
453
        0
470

  0
ENDBLK
  5
94
330
91
100
AcDbEntity
  8
0
100
AcDbBlockEnd
  0
BLOCK
  5
A1
330
9F
100
AcDbEntity
  8
0
100
AcDbBlockBegin
  2
Block_3
 70
     0
 10
0.0
 20
0.0
 30
0.0
  3
Block_3
  1

  0
INSERT
  5
A4
330
9F
100
AcDbEntity
  8
レイヤー 1
100
AcDbBlockReference
  2
Block_4
 10
0.0
 20
0.0
 30
0.0
  0
ENDBLK
  5
A2
330
9F
100
AcDbEntity
  8
0
100
AcDbBlockEnd
  0
BLOCK
  5
A5
330
A3
100
AcDbEntity
  8
0
100
AcDbBlockBegin
  2
Block_4
 70
     0
 10
0.0
 20
0.0
 30
0.0
  3
Block_4
  1

  0
SPLINE
  5
A7
330
A3
100
AcDbEntity
  8
レイヤー 1
100
AcDbSpline
210
0.0
220
0.0
230
1.0
 70
     9
 71
     3
 72
    44
 73
    40
 74
     0
 42
0.0000000001
 43
0.0000000001
 40
0.0
 40
0.0
 40
0.0
 40
0.0
 40
1.0
 40
1.0
 40
1.0
 40
2.0
 40
2.0
 40
2.0
 40
3.0
 40
3.0
 40
3.0
 40
4.0
 40
4.0
 40
4.0
 40
5.0
 40
5.0
 40
5.0
 40
6.0
 40
6.0
 40
6.0
 40
7.0
 40
7.0
 40
7.0
 40
8.0
 40
8.0
 40
8.0
 40
9.0
 40
9.0
 40
9.0
 40
10.0
 40
10.0
 40
10.0
 40
11.0
 40
11.0
 40
11.0
 40
12.0
 40
12.0
 40
12.0
 40
13.0
 40
13.0
 40
13.0
 40
13.0
 10
85.61906329239732
 20
-146.4169026326666
 30
0.0
 10
85.77770993949307
 20
-146.6346326673344
 30
0.0
 10
85.85177949242595
 20
-146.7276502454361
 30
0.0
 10
85.99561222893512
 20
-146.7765706013267
 30
0.0
 10
85.99561222893512
 20
-146.7765706013267
 30
0.0
 10
85.99561222893512
 20
-145.9979790216602
 30
0.0
 10
85.99561222893512
 20
-145.9979790216602
 30
0.0
 10
85.99561222893512
 20
-145.9979790216602
 30
0.0
 10
86.20076766508175
 20
-145.9979790216602
 30
0.0
 10
86.20076766508175
 20
-145.9979790216602
 30
0.0
 10
86.20076766508175
 20
-145.9979790216602
 30
0.0
 10
86.20076766508175
 20
-147.0259955144588
 30
0.0
 10
86.20076766508175
 20
-147.0259955144588
 30
0.0
 10
85.84316675371281
 20
-146.9943006359945
 30
0.0
 10
85.76496308619764
 20
-146.9288438217747
 30
0.0
 10
85.46661781717501
 20
-146.5436821465238
 30
0.0
 10
85.26783580767611
 20
-146.2877115519697
 30
0.0
 10
85.20013968139094
 20
-146.22225473775
 30
0.0
 10
85.06268037152947
 20
-146.22225473775
 30
0.0
 10
84.94416908683687
 20
-146.22225473775
 30
0.0
 10
84.81308320362312
 20
-146.2942572333917
 30
0.0
 10
84.81308320362312
 20
-146.4909721855994
 30
0.0
 10
84.81308320362312
 20
-146.7510768947358
 30
0.0
 10
85.04356009158632
 20
-146.7596896334489
 30
0.0
 10
85.16000431898778
 20
-146.7638237480313
 30
0.0
 10
85.16000431898778
 20
-146.7638237480313
 30
0.0
 10
85.16000431898778
 20
-146.988099464121
 30
0.0
 10
85.16000431898778
 20
-146.988099464121
 30
0.0
 10
85.03305255035632
 20
-146.9794867254079
 30
0.0
 10
84.92091469231144
 20
-146.9688069294036
 30
0.0
 10
84.80240340761886
 20
-146.8885362045973
 30
0.0
 10
84.64168970323195
 20
-146.7786376586178
 30
0.0
 10
84.60775551270222
 20
-146.5922579928658
 30
0.0
 10
84.60775551270222
 20
-146.4761582750129
 30
0.0
 10
84.60775551270222
 20
-146.1988280884503
 30
0.0
 10
84.79189586638884
 20
-145.9914333402382
 30
0.0
 10
85.06474742882062
 20
-145.9914333402382
 30
0.0
 10
85.29315725949269
 20
-145.9914333402382
 30
0.0
 10
85.3927205190164
 20
-146.1078775676397
 30
0.0
 10
85.61906329239732
 20
-146.4169026326666
 30
0.0
  0
HATCH
  5
A8
330
A3
100
AcDbEntity
  8
レイヤー 1
 62
    18
420
        0
440
 33554687
100
AcDbHatch
 10
0.0
 20
0.0
 30
0.0
210
0.0
220
0.0
230
1.0
  2
SOLID
 70
     1
 71
     1
 91
        1
 92
        1
 93
        1
 72
     4
 94
        3
 73
     0
 74
     0
 95
       44
 96
       40
 40
0.0
 40
0.0
 40
0.0
 40
0.0
 40
1.0
 40
1.0
 40
1.0
 40
2.0
 40
2.0
 40
2.0
 40
3.0
 40
3.0
 40
3.0
 40
4.0
 40
4.0
 40
4.0
 40
5.0
 40
5.0
 40
5.0
 40
6.0
 40
6.0
 40
6.0
 40
7.0
 40
7.0
 40
7.0
 40
8.0
 40
8.0
 40
8.0
 40
9.0
 40
9.0
 40
9.0
 40
10.0
 40
10.0
 40
10.0
 40
11.0
 40
11.0
 40
11.0
 40
12.0
 40
12.0
 40
12.0
 40
13.0
 40
13.0
 40
13.0
 40
13.0
 10
85.61906329239732
 20
-146.4169026326666
 10
85.77770993949307
 20
-146.6346326673344
 10
85.85177949242595
 20
-146.7276502454361
 10
85.99561222893512
 20
-146.7765706013267
 10
85.99561222893512
 20
-146.7765706013267
 10
85.99561222893512
 20
-145.9979790216602
 10
85.99561222893512
 20
-145.9979790216602
 10
85.99561222893512
 20
-145.9979790216602
 10
86.20076766508175
 20
-145.9979790216602
 10
86.20076766508175
 20
-145.9979790216602
 10
86.20076766508175
 20
-145.9979790216602
 10
86.20076766508175
 20
-147.0259955144588
 10
86.20076766508175
 20
-147.0259955144588
 10
85.84316675371281
 20
-146.9943006359945
 10
85.76496308619764
 20
-146.9288438217747
 10
85.46661781717501
 20
-146.5436821465238
 10
85.26783580767611
 20
-146.2877115519697
 10
85.20013968139094
 20
-146.22225473775
 10
85.06268037152947
 20
-146.22225473775
 10
84.94416908683687
 20
-146.22225473775
 10
84.81308320362312
 20
-146.2942572333917
 10
84.81308320362312
 20
-146.4909721855994
 10
84.81308320362312
 20
-146.7510768947358
 10
85.04356009158632
 20
-146.7596896334489
 10
85.16000431898778
 20
-146.7638237480313
 10
85.16000431898778
 20
-146.7638237480313
 10
85.16000431898778
 20
-146.988099464121
 10
85.16000431898778
 20
-146.988099464121
 10
85.03305255035632
 20
-146.9794867254079
 10
84.92091469231144
 20
-146.9688069294036
 10
84.80240340761886
 20
-146.8885362045973
 10
84.64168970323195
 20
-146.7786376586178
 10
84.60775551270222
 20
-146.5922579928658
 10
84.60775551270222
 20
-146.4761582750129
 10
84.60775551270222
 20
-146.1988280884503
 10
84.79189586638884
 20
-145.9914333402382
 10
85.06474742882062
 20
-145.9914333402382
 10
85.29315725949269
 20
-145.9914333402382
 10
85.3927205190164
 20
-146.1078775676397
 10
85.61906329239732
 20
-146.4169026326666
 97
        0
 97
        1
330
A7
 75
     2
 76
     1
 98
        1
 10
0.0
 20
0.0
450
        0
451
        0
460
0.0
461
0.0
452
        0
462
0.0
453
        0
470

  0
SPLINE
  5
A9
330
A3
100
AcDbEntity
  8
レイヤー 1
100
AcDbSpline
210
0.0
220
0.0
230
1.0
 70
     9
 71
     3
 72
    62
 73
    58
 74
     0
 42
0.0000000001
 43
0.0000000001
 40
0.0
 40
0.0
 40
0.0
 40
0.0
 40
1.0
 40
1.0
 40
1.0
 40
2.0
 40
2.0
 40
2.0
 40
3.0
 40
3.0
 40
3.0
 40
4.0
 40
4.0
 40
4.0
 40
5.0
 40
5.0
 40
5.0
 40
6.0
 40
6.0
 40
6.0
 40
7.0
 40
7.0
 40
7.0
 40
8.0
 40
8.0
 40
8.0
 40
9.0
 40
9.0
 40
9.0
 40
10.0
 40
10.0
 40
10.0
 40
11.0
 40
11.0
 40
11.0
 40
12.0
 40
12.0
 40
12.0
 40
13.0
 40
13.0
 40
13.0
 40
14.0
 40
14.0
 40
14.0
 40
15.0
 40
15.0
 40
15.0
 40
16.0
 40
16.0
 40
16.0
 40
17.0
 40
17.0
 40
17.0
 40
18.0
 40
18.0
 40
18.0
 40
19.0
 40
19.0
 40
19.0
 40
19.0
 10
86.25158282348918
 20
-145.3413438221716
 30
0.0
 10
86.25158282348918
 20
-145.436772967113
 30
0.0
 10
86.2303954862549
 20
-145.6545030017808
 30
0.0
 10
86.04418807527714
 20
-145.7795599678954
 30
0.0
 10
85.93205021723226
 20
-145.8536295208283
 30
0.0
 10
85.83265921248282
 20
-145.8577636354106
 30
0.0
 10
85.74808211831992
 20
-145.8618977499928
 30
0.0
 10
85.74808211831992
 20
-145.8618977499928
 30
0.0
 10
85.74808211831992
 20
-145.6417561484854
 30
0.0
 10
85.74808211831992
 20
-145.6417561484854
 30
0.0
 10
85.8221516712528
 20
-145.6396890911942
 30
0.0
 10
86.05693492857257
 20
-145.6293538047385
 30
0.0
 10
86.05693492857257
 20
-145.3458224463024
 30
0.0
 10
86.05693492857257
 20
-145.2083631364409
 30
0.0
 10
85.98717174499626
 20
-145.0557454064444
 30
0.0
 10
85.75858965954994
 20
-145.0557454064444
 30
0.0
 10
85.64231768692275
 20
-145.0557454064444
 30
0.0
 10
85.59356958580648
 20
-145.0939859663306
 30
0.0
 10
85.56187470734217
 20
-145.125680844795
 30
0.0
 10
85.48780515440929
 20
-145.1997503977278
 30
0.0
 10
85.47523055588815
 20
-145.3161946251293
 30
0.0
 10
85.47523055588815
 20
-145.3709716433448
 30
0.0
 10
85.47523055588815
 20
-145.3902641780621
 30
0.0
 10
85.47729761317929
 20
-145.4260931711087
 30
0.0
 10
85.48143172776159
 20
-145.4536539349907
 30
0.0
 10
85.48143172776159
 20
-145.4536539349907
 30
0.0
 10
85.28678383284498
 20
-145.4536539349907
 30
0.0
 10
85.28678383284498
 20
-145.4536539349907
 30
0.0
 10
85.29315725949269
 20
-145.4154133751045
 30
0.0
 10
85.2953965715581
 20
-145.3733832101844
 30
0.0
 10
85.2953965715581
 20
-145.3668375287624
 30
0.0
 10
85.2953965715581
 20
-145.3013807145427
 30
0.0
 10
85.2742092343238
 20
-145.1025987050438
 30
0.0
 10
85.03718666493863
 20
-145.1025987050438
 30
0.0
 10
84.859591992674
 20
-145.1025987050438
 30
0.0
 10
84.80447046490999
 20
-145.2335123334833
 30
0.0
 10
84.80447046490999
 20
-145.3437553890112
 30
0.0
 10
84.80447046490999
 20
-145.6079942127299
 30
0.0
 10
85.03718666493863
 20
-145.6166069514431
 30
0.0
 10
85.10918916058034
 20
-145.6207410660254
 30
0.0
 10
85.10918916058034
 20
-145.6207410660254
 30
0.0
 10
85.10918916058034
 20
-145.8240016996551
 30
0.0
 10
85.10918916058034
 20
-145.8240016996551
 30
0.0
 10
84.98430444924004
 20
-145.815388960942
 30
0.0
 10
84.60775551270222
 20
-145.7878281970599
 30
0.0
 10
84.60775551270222
 20
-145.3310085357158
 30
0.0
 10
84.60775551270222
 20
-145.1067328196261
 30
0.0
 10
84.73470728133369
 20
-144.8655761356586
 30
0.0
 10
85.03081323829091
 20
-144.8655761356586
 30
0.0
 10
85.21702064926866
 20
-144.8655761356586
 30
0.0
 10
85.29953068614039
 20
-144.9606607710515
 30
0.0
 10
85.36085338577784
 20
-145.0602240305752
 30
0.0
 10
85.38841414965984
 20
-144.9989013309378
 30
0.0
 10
85.46885712924042
 20
-144.8170002893166
 30
0.0
 10
85.74601506102878
 20
-144.8170002893166
 30
0.0
 10
86.08449569245458
 20
-144.8170002893166
 30
0.0
 10
86.25158282348918
 20
-145.0643581451575
 30
0.0
 10
86.25158282348918
 20
-145.3413438221716
 30
0.0
  0
HATCH
  5
AA
330
A3
100
AcDbEntity
  8
レイヤー 1
 62
    18
420
        0
440
 33554687
100
AcDbHatch
 10
0.0
 20
0.0
 30
0.0
210
0.0
220
0.0
230
1.0
  2
SOLID
 70
     1
 71
     1
 91
        1
 92
        1
 93
        1
 72
     4
 94
        3
 73
     0
 74
     0
 95
       62
 96
       58
 40
0.0
 40
0.0
 40
0.0
 40
0.0
 40
1.0
 40
1.0
 40
1.0
 40
2.0
 40
2.0
 40
2.0
 40
3.0
 40
3.0
 40
3.0
 40
4.0
 40
4.0
 40
4.0
 40
5.0
 40
5.0
 40
5.0
 40
6.0
 40
6.0
 40
6.0
 40
7.0
 40
7.0
 40
7.0
 40
8.0
 40
8.0
 40
8.0
 40
9.0
 40
9.0
 40
9.0
 40
10.0
 40
10.0
 40
10.0
 40
11.0
 40
11.0
 40
11.0
 40
12.0
 40
12.0
 40
12.0
 40
13.0
 40
13.0
 40
13.0
 40
14.0
 40
14.0
 40
14.0
 40
15.0
 40
15.0
 40
15.0
 40
16.0
 40
16.0
 40
16.0
 40
17.0
 40
17.0
 40
17.0
 40
18.0
 40
18.0
 40
18.0
 40
19.0
 40
19.0
 40
19.0
 40
19.0
 10
86.25158282348918
 20
-145.3413438221716
 10
86.25158282348918
 20
-145.436772967113
 10
86.2303954862549
 20
-145.6545030017808
 10
86.04418807527714
 20
-145.7795599678954
 10
85.93205021723226
 20
-145.8536295208283
 10
85.83265921248282
 20
-145.8577636354106
 10
85.74808211831992
 20
-145.8618977499928
 10
85.74808211831992
 20
-145.8618977499928
 10
85.74808211831992
 20
-145.6417561484854
 10
85.74808211831992
 20
-145.6417561484854
 10
85.8221516712528
 20
-145.6396890911942
 10
86.05693492857257
 20
-145.6293538047385
 10
86.05693492857257
 20
-145.3458224463024
 10
86.05693492857257
 20
-145.2083631364409
 10
85.98717174499626
 20
-145.0557454064444
 10
85.75858965954994
 20
-145.0557454064444
 10
85.64231768692275
 20
-145.0557454064444
 10
85.59356958580648
 20
-145.0939859663306
 10
85.56187470734217
 20
-145.125680844795
 10
85.48780515440929
 20
-145.1997503977278
 10
85.47523055588815
 20
-145.3161946251293
 10
85.47523055588815
 20
-145.3709716433448
 10
85.47523055588815
 20
-145.3902641780621
 10
85.47729761317929
 20
-145.4260931711087
 10
85.48143172776159
 20
-145.4536539349907
 10
85.48143172776159
 20
-145.4536539349907
 10
85.28678383284498
 20
-145.4536539349907
 10
85.28678383284498
 20
-145.4536539349907
 10
85.29315725949269
 20
-145.4154133751045
 10
85.2953965715581
 20
-145.3733832101844
 10
85.2953965715581
 20
-145.3668375287624
 10
85.2953965715581
 20
-145.3013807145427
 10
85.2742092343238
 20
-145.1025987050438
 10
85.03718666493863
 20
-145.1025987050438
 10
84.859591992674
 20
-145.1025987050438
 10
84.80447046490999
 20
-145.2335123334833
 10
84.80447046490999
 20
-145.3437553890112
 10
84.80447046490999
 20
-145.6079942127299
 10
85.03718666493863
 20
-145.6166069514431
 10
85.10918916058034
 20
-145.6207410660254
 10
85.10918916058034
 20
-145.6207410660254
 10
85.10918916058034
 20
-145.8240016996551
 10
85.10918916058034
 20
-145.8240016996551
 10
84.98430444924004
 20
-145.815388960942
 10
84.60775551270222
 20
-145.7878281970599
 10
84.60775551270222
 20
-145.3310085357158
 10
84.60775551270222
 20
-145.1067328196261
 10
84.73470728133369
 20
-144.8655761356586
 10
85.03081323829091
 20
-144.8655761356586
 10
85.21702064926866
 20
-144.8655761356586
 10
85.29953068614039
 20
-144.9606607710515
 10
85.36085338577784
 20
-145.0602240305752
 10
85.38841414965984
 20
-144.9989013309378
 10
85.46885712924042
 20
-144.8170002893166
 10
85.74601506102878
 20
-144.8170002893166
 10
86.08449569245458
 20
-144.8170002893166
 10
86.25158282348918
 20
-145.0643581451575
 10
86.25158282348918
 20
-145.3413438221716
 97
        0
 97
        1
330
A9
 75
     2
 76
     1
 98
        1
 10
0.0
 20
0.0
450
        0
451
        0
460
0.0
461
0.0
452
        0
462
0.0
453
        0
470

  0
ENDBLK
  5
A6
330
A3
100
AcDbEntity
  8
0
100
AcDbBlockEnd
  0
BLOCK
  5
B0
330
AE
100
AcDbEntity
  8
0
100
AcDbBlockBegin
  2
Block_5
 70
     0
 10
0.0
 20
0.0
 30
0.0
  3
Block_5
  1

  0
INSERT
  5
B3
330
AE
100
AcDbEntity
  8
レイヤー 1
100
AcDbBlockReference
  2
Block_6
 10
0.0
 20
0.0
 30
0.0
  0
ENDBLK
  5
B1
330
AE
100
AcDbEntity
  8
0
100
AcDbBlockEnd
  0
BLOCK
  5
B4
330
B2
100
AcDbEntity
  8
0
100
AcDbBlockBegin
  2
Block_6
 70
     0
 10
0.0
 20
0.0
 30
0.0
  3
Block_6
  1

  0
SPLINE
  5
B6
330
B2
100
AcDbEntity
  8
レイヤー 1
100
AcDbSpline
210
0.0
220
0.0
230
1.0
 70
     9
 71
     3
 72
    44
 73
    40
 74
     0
 42
0.0000000001
 43
0.0000000001
 40
0.0
 40
0.0
 40
0.0
 40
0.0
 40
1.0
 40
1.0
 40
1.0
 40
2.0
 40
2.0
 40
2.0
 40
3.0
 40
3.0
 40
3.0
 40
4.0
 40
4.0
 40
4.0
 40
5.0
 40
5.0
 40
5.0
 40
6.0
 40
6.0
 40
6.0
 40
7.0
 40
7.0
 40
7.0
 40
8.0
 40
8.0
 40
8.0
 40
9.0
 40
9.0
 40
9.0
 40
10.0
 40
10.0
 40
10.0
 40
11.0
 40
11.0
 40
11.0
 40
12.0
 40
12.0
 40
12.0
 40
13.0
 40
13.0
 40
13.0
 40
13.0
 10
110.4025634489618
 20
-160.1618000901679
 30
0.0
 10
110.1848334142941
 20
-160.3206189920379
 30
0.0
 10
110.0918158361923
 20
-160.3946885449708
 30
0.0
 10
110.0428954803017
 20
-160.5383490267057
 30
0.0
 10
110.0428954803017
 20
-160.5383490267057
 30
0.0
 10
110.8214870599682
 20
-160.5383490267057
 30
0.0
 10
110.8214870599682
 20
-160.5383490267057
 30
0.0
 10
110.8214870599682
 20
-160.5383490267057
 30
0.0
 10
110.8214870599682
 20
-160.7436767176266
 30
0.0
 10
110.8214870599682
 20
-160.7436767176266
 30
0.0
 10
110.8214870599682
 20
-160.7436767176266
 30
0.0
 10
109.7934705671697
 20
-160.7436767176266
 30
0.0
 10
109.7934705671697
 20
-160.7436767176266
 30
0.0
 10
109.825165445634
 20
-160.3860758062576
 30
0.0
 10
109.8906222598537
 20
-160.3078721387425
 30
0.0
 10
110.2757839351046
 20
-160.0095268697198
 30
0.0
 10
110.5317545296587
 20
-159.8107448602209
 30
0.0
 10
110.5972113438784
 20
-159.7428764791615
 30
0.0
 10
110.5972113438784
 20
-159.6054171693
 30
0.0
 10
110.5972113438784
 20
-159.4869058846074
 30
0.0
 10
110.5252088482367
 20
-159.3559922561679
 30
0.0
 10
110.328493896029
 20
-159.3559922561679
 30
0.0
 10
110.0683891868926
 20
-159.3559922561679
 30
0.0
 10
110.0597764481795
 20
-159.5864691441311
 30
0.0
 10
110.0556423335972
 20
-159.7029133715326
 30
0.0
 10
110.0556423335972
 20
-159.7029133715326
 30
0.0
 10
109.8313666175074
 20
-159.7029133715326
 30
0.0
 10
109.8313666175074
 20
-159.7029133715326
 30
0.0
 10
109.8399793562205
 20
-159.5757893481269
 30
0.0
 10
109.8506591522248
 20
-159.4638237448562
 30
0.0
 10
109.9309298770311
 20
-159.3453124601636
 30
0.0
 10
110.0408284230106
 20
-159.1844265010025
 30
0.0
 10
110.2272080887626
 20
-159.150664565247
 30
0.0
 10
110.3433078066155
 20
-159.150664565247
 30
0.0
 10
110.6206379931782
 20
-159.150664565247
 30
0.0
 10
110.8276882318417
 20
-159.3346326641594
 30
0.0
 10
110.8276882318417
 20
-159.6074842265912
 30
0.0
 10
110.8276882318417
 20
-159.8362385668117
 30
0.0
 10
110.7115885139887
 20
-159.9354573167869
 30
0.0
 10
110.4025634489618
 20
-160.1618000901679
 30
0.0
  0
HATCH
  5
B7
330
B2
100
AcDbEntity
  8
レイヤー 1
 62
    18
420
        0
440
 33554687
100
AcDbHatch
 10
0.0
 20
0.0
 30
0.0
210
0.0
220
0.0
230
1.0
  2
SOLID
 70
     1
 71
     1
 91
        1
 92
        1
 93
        1
 72
     4
 94
        3
 73
     0
 74
     0
 95
       44
 96
       40
 40
0.0
 40
0.0
 40
0.0
 40
0.0
 40
1.0
 40
1.0
 40
1.0
 40
2.0
 40
2.0
 40
2.0
 40
3.0
 40
3.0
 40
3.0
 40
4.0
 40
4.0
 40
4.0
 40
5.0
 40
5.0
 40
5.0
 40
6.0
 40
6.0
 40
6.0
 40
7.0
 40
7.0
 40
7.0
 40
8.0
 40
8.0
 40
8.0
 40
9.0
 40
9.0
 40
9.0
 40
10.0
 40
10.0
 40
10.0
 40
11.0
 40
11.0
 40
11.0
 40
12.0
 40
12.0
 40
12.0
 40
13.0
 40
13.0
 40
13.0
 40
13.0
 10
110.4025634489618
 20
-160.1618000901679
 10
110.1848334142941
 20
-160.3206189920379
 10
110.0918158361923
 20
-160.3946885449708
 10
110.0428954803017
 20
-160.5383490267057
 10
110.0428954803017
 20
-160.5383490267057
 10
110.8214870599682
 20
-160.5383490267057
 10
110.8214870599682
 20
-160.5383490267057
 10
110.8214870599682
 20
-160.5383490267057
 10
110.8214870599682
 20
-160.7436767176266
 10
110.8214870599682
 20
-160.7436767176266
 10
110.8214870599682
 20
-160.7436767176266
 10
109.7934705671697
 20
-160.7436767176266
 10
109.7934705671697
 20
-160.7436767176266
 10
109.825165445634
 20
-160.3860758062576
 10
109.8906222598537
 20
-160.3078721387425
 10
110.2757839351046
 20
-160.0095268697198
 10
110.5317545296587
 20
-159.8107448602209
 10
110.5972113438784
 20
-159.7428764791615
 10
110.5972113438784
 20
-159.6054171693
 10
110.5972113438784
 20
-159.4869058846074
 10
110.5252088482367
 20
-159.3559922561679
 10
110.328493896029
 20
-159.3559922561679
 10
110.0683891868926
 20
-159.3559922561679
 10
110.0597764481795
 20
-159.5864691441311
 10
110.0556423335972
 20
-159.7029133715326
 10
110.0556423335972
 20
-159.7029133715326
 10
109.8313666175074
 20
-159.7029133715326
 10
109.8313666175074
 20
-159.7029133715326
 10
109.8399793562205
 20
-159.5757893481269
 10
109.8506591522248
 20
-159.4638237448562
 10
109.9309298770311
 20
-159.3453124601636
 10
110.0408284230106
 20
-159.1844265010025
 10
110.2272080887626
 20
-159.150664565247
 10
110.3433078066155
 20
-159.150664565247
 10
110.6206379931782
 20
-159.150664565247
 10
110.8276882318417
 20
-159.3346326641594
 10
110.8276882318417
 20
-159.6074842265912
 10
110.8276882318417
 20
-159.8362385668117
 10
110.7115885139887
 20
-159.9354573167869
 10
110.4025634489618
 20
-160.1618000901679
 97
        0
 97
        1
330
B6
 75
     2
 76
     1
 98
        1
 10
0.0
 20
0.0
450
        0
451
        0
460
0.0
461
0.0
452
        0
462
0.0
453
        0
470

  0
SPLINE
  5
B8
330
B2
100
AcDbEntity
  8
レイヤー 1
100
AcDbSpline
210
0.0
220
0.0
230
1.0
 70
     9
 71
     3
 72
    17
 73
    13
 74
     0
 42
0.0000000001
 43
0.0000000001
 40
0.0
 40
0.0
 40
0.0
 40
0.0
 40
1.0
 40
1.0
 40
1.0
 40
2.0
 40
2.0
 40
2.0
 40
3.0
 40
3.0
 40
3.0
 40
4.0
 40
4.0
 40
4.0
 40
4.0
 10
111.4863904886215
 20
-159.3432454028725
 30
0.0
 10
111.2366210659408
 20
-159.3432454028725
 30
0.0
 10
111.1901122768899
 20
-159.6267767613086
 30
0.0
 10
111.1901122768899
 20
-159.9716308193821
 30
0.0
 10
111.1901122768899
 20
-160.2909911708648
 30
0.0
 10
111.2262857794851
 20
-160.5996717263431
 30
0.0
 10
111.4863904886215
 20
-160.5996717263431
 30
0.0
 10
111.7340928540109
 20
-160.5996717263431
 30
0.0
 10
111.7826687003529
 20
-160.3185519347467
 30
0.0
 10
111.7826687003529
 20
-159.9716308193821
 30
0.0
 10
111.7826687003529
 20
-159.6519259583509
 30
0.0
 10
111.7444281404667
 20
-159.3432454028725
 30
0.0
 10
111.4863904886215
 20
-159.3432454028725
 30
0.0
  0
SPLINE
  5
B9
330
B2
100
AcDbEntity
  8
レイヤー 1
100
AcDbSpline
210
0.0
220
0.0
230
1.0
 70
     9
 71
     3
 72
    29
 73
    25
 74
     0
 42
0.0000000001
 43
0.0000000001
 40
0.0
 40
0.0
 40
0.0
 40
0.0
 40
1.0
 40
1.0
 40
1.0
 40
2.0
 40
2.0
 40
2.0
 40
3.0
 40
3.0
 40
3.0
 40
4.0
 40
4.0
 40
4.0
 40
5.0
 40
5.0
 40
5.0
 40
6.0
 40
6.0
 40
6.0
 40
7.0
 40
7.0
 40
7.0
 40
8.0
 40
8.0
 40
8.0
 40
8.0
 10
111.8842990171678
 20
-160.5659097905877
 30
0.0
 10
111.776123018931
 20
-160.7753715960908
 30
0.0
 10
111.6028347160229
 20
-160.7943196212598
 30
0.0
 10
111.4863904886215
 20
-160.7943196212598
 30
0.0
 10
111.3255045294603
 20
-160.7943196212598
 30
0.0
 10
111.1839111050165
 20
-160.7478108322089
 30
0.0
 10
111.0888264696236
 20
-160.5659097905877
 30
0.0
 10
110.9851290955176
 20
-160.3712618956711
 30
0.0
 10
110.9658365608002
 20
-160.1342393262859
 30
0.0
 10
110.9658365608002
 20
-159.9716308193821
 30
0.0
 10
110.9658365608002
 20
-159.8276258280986
 30
0.0
 10
110.9830620382264
 20
-159.5757893481269
 30
0.0
 10
111.0888264696236
 20
-159.377007338628
 30
0.0
 10
111.1966579583119
 20
-159.1740912145468
 30
0.0
 10
111.3575439174731
 20
-159.150664565247
 30
0.0
 10
111.4863904886215
 20
-159.150664565247
 30
0.0
 10
111.6452093904915
 20
-159.150664565247
 30
0.0
 10
111.7888698722264
 20
-159.1951062970068
 30
0.0
 10
111.8842990171678
 20
-159.377007338628
 30
0.0
 10
111.983517767143
 20
-159.5695881762534
 30
0.0
 10
112.0069444164427
 20
-159.7979980069255
 30
0.0
 10
112.0069444164427
 20
-159.9716308193821
 30
0.0
 10
112.0069444164427
 20
-160.142852064999
 30
0.0
 10
111.9855848244341
 20
-160.3733289529622
 30
0.0
 10
111.8842990171678
 20
-160.5659097905877
 30
0.0
  0
HATCH
  5
BA
330
B2
100
AcDbEntity
  8
レイヤー 1
 62
    18
420
        0
440
 33554687
100
AcDbHatch
 10
0.0
 20
0.0
 30
0.0
210
0.0
220
0.0
230
1.0
  2
SOLID
 70
     1
 71
     1
 91
        2
 92
        1
 93
        1
 72
     4
 94
        3
 73
     0
 74
     0
 95
       17
 96
       13
 40
0.0
 40
0.0
 40
0.0
 40
0.0
 40
1.0
 40
1.0
 40
1.0
 40
2.0
 40
2.0
 40
2.0
 40
3.0
 40
3.0
 40
3.0
 40
4.0
 40
4.0
 40
4.0
 40
4.0
 10
111.4863904886215
 20
-159.3432454028725
 10
111.2366210659408
 20
-159.3432454028725
 10
111.1901122768899
 20
-159.6267767613086
 10
111.1901122768899
 20
-159.9716308193821
 10
111.1901122768899
 20
-160.2909911708648
 10
111.2262857794851
 20
-160.5996717263431
 10
111.4863904886215
 20
-160.5996717263431
 10
111.7340928540109
 20
-160.5996717263431
 10
111.7826687003529
 20
-160.3185519347467
 10
111.7826687003529
 20
-159.9716308193821
 10
111.7826687003529
 20
-159.6519259583509
 10
111.7444281404667
 20
-159.3432454028725
 10
111.4863904886215
 20
-159.3432454028725
 97
        0
 97
        1
330
B8
 92
        1
 93
        1
 72
     4
 94
        3
 73
     0
 74
     0
 95
       29
 96
       25
 40
0.0
 40
0.0
 40
0.0
 40
0.0
 40
1.0
 40
1.0
 40
1.0
 40
2.0
 40
2.0
 40
2.0
 40
3.0
 40
3.0
 40
3.0
 40
4.0
 40
4.0
 40
4.0
 40
5.0
 40
5.0
 40
5.0
 40
6.0
 40
6.0
 40
6.0
 40
7.0
 40
7.0
 40
7.0
 40
8.0
 40
8.0
 40
8.0
 40
8.0
 10
111.8842990171678
 20
-160.5659097905877
 10
111.776123018931
 20
-160.7753715960908
 10
111.6028347160229
 20
-160.7943196212598
 10
111.4863904886215
 20
-160.7943196212598
 10
111.3255045294603
 20
-160.7943196212598
 10
111.1839111050165
 20
-160.7478108322089
 10
111.0888264696236
 20
-160.5659097905877
 10
110.9851290955176
 20
-160.3712618956711
 10
110.9658365608002
 20
-160.1342393262859
 10
110.9658365608002
 20
-159.9716308193821
 10
110.9658365608002
 20
-159.8276258280986
 10
110.9830620382264
 20
-159.5757893481269
 10
111.0888264696236
 20
-159.377007338628
 10
111.1966579583119
 20
-159.1740912145468
 10
111.3575439174731
 20
-159.150664565247
 10
111.4863904886215
 20
-159.150664565247
 10
111.6452093904915
 20
-159.150664565247
 10
111.7888698722264
 20
-159.1951062970068
 10
111.8842990171678
 20
-159.377007338628
 10
111.983517767143
 20
-159.5695881762534
 10
112.0069444164427
 20
-159.7979980069255
 10
112.0069444164427
 20
-159.9716308193821
 10
112.0069444164427
 20
-160.142852064999
 10
111.9855848244341
 20
-160.3733289529622
 10
111.8842990171678
 20
-160.5659097905877
 97
        0
 97
        1
330
B9
 75
     2
 76
     1
 98
        1
 10
0.0
 20
0.0
450
        0
451
        0
460
0.0
461
0.0
452
        0
462
0.0
453
        0
470

  0
ENDBLK
  5
B5
330
B2
100
AcDbEntity
  8
0
100
AcDbBlockEnd
  0
BLOCK
  5
C0
330
BE
100
AcDbEntity
  8
0
100
AcDbBlockBegin
  2
Block_7
 70
     0
 10
0.0
 20
0.0
 30
0.0
  3
Block_7
  1

  0
INSERT
  5
C3
330
BE
100
AcDbEntity
  8
レイヤー 1
100
AcDbBlockReference
  2
Block_8
 10
0.0
 20
0.0
 30
0.0
  0
ENDBLK
  5
C1
330
BE
100
AcDbEntity
  8
0
100
AcDbBlockEnd
  0
BLOCK
  5
C4
330
C2
100
AcDbEntity
  8
0
100
AcDbBlockBegin
  2
Block_8
 70
     0
 10
0.0
 20
0.0
 30
0.0
  3
Block_8
  1

  0
SPLINE
  5
C6
330
C2
100
AcDbEntity
  8
レイヤー 1
100
AcDbSpline
210
0.0
220
0.0
230
1.0
 70
     9
 71
     3
 72
    59
 73
    55
 74
     0
 42
0.0000000001
 43
0.0000000001
 40
0.0
 40
0.0
 40
0.0
 40
0.0
 40
1.0
 40
1.0
 40
1.0
 40
2.0
 40
2.0
 40
2.0
 40
3.0
 40
3.0
 40
3.0
 40
4.0
 40
4.0
 40
4.0
 40
5.0
 40
5.0
 40
5.0
 40
6.0
 40
6.0
 40
6.0
 40
7.0
 40
7.0
 40
7.0
 40
8.0
 40
8.0
 40
8.0
 40
9.0
 40
9.0
 40
9.0
 40
10.0
 40
10.0
 40
10.0
 40
11.0
 40
11.0
 40
11.0
 40
12.0
 40
12.0
 40
12.0
 40
13.0
 40
13.0
 40
13.0
 40
14.0
 40
14.0
 40
14.0
 40
15.0
 40
15.0
 40
15.0
 40
16.0
 40
16.0
 40
16.0
 40
17.0
 40
17.0
 40
17.0
 40
18.0
 40
18.0
 40
18.0
 40
18.0
 10
103.7430216211996
 20
-150.910340674078
 30
0.0
 10
103.575934490165
 20
-151.3971326661438
 30
0.0
 10
103.3265095770329
 20
-151.9194091417076
 30
0.0
 10
102.7277519816965
 20
-152.2367024358992
 30
0.0
 10
102.7277519816965
 20
-152.2367024358992
 30
0.0
 10
102.5393052586534
 20
-152.0844292154511
 30
0.0
 10
102.5393052586534
 20
-152.0844292154511
 30
0.0
 10
102.7001912178145
 20
-152.0148382866491
 30
0.0
 10
102.9454820163643
 20
-151.904595231121
 30
0.0
 10
103.1973184963361
 20
-151.5745550836341
 30
0.0
 10
103.4343410657213
 20
-151.2617404135734
 30
0.0
 10
103.4915296507764
 20
-151.0057698190194
 30
0.0
 10
103.5187459051099
 20
-150.8786457956137
 30
0.0
 10
103.5187459051099
 20
-150.8786457956137
 30
0.0
 10
102.8714124634314
 20
-150.8786457956137
 30
0.0
 10
102.8714124634314
 20
-150.8786457956137
 30
0.0
 10
102.7677150893254
 20
-151.0395317547748
 30
0.0
 10
102.6471367473417
 20
-151.2066188858094
 30
0.0
 10
102.4549004192647
 20
-151.3778401314264
 30
0.0
 10
102.4549004192647
 20
-151.3778401314264
 30
0.0
 10
102.2812676068081
 20
-151.2551947321515
 30
0.0
 10
102.2812676068081
 20
-151.2551947321515
 30
0.0
 10
102.3405232491544
 20
-151.2086859431006
 30
0.0
 10
102.4886623550202
 20
-151.09672033983
 30
0.0
 10
102.6536824287636
 20
-150.8469509171493
 30
0.0
 10
102.7298190389877
 20
-150.7284396324568
 30
0.0
 10
102.8335164130937
 20
-150.559285444131
 30
0.0
 10
102.8590101196845
 20
-150.4366400448561
 30
0.0
 10
102.8590101196845
 20
-150.4366400448561
 30
0.0
 10
103.0894870076477
 20
-150.5379258521224
 30
0.0
 10
103.0894870076477
 20
-150.5379258521224
 30
0.0
 10
103.1043009182343
 20
-150.5444715335444
 30
0.0
 10
103.1191148288209
 20
-150.552739762709
 30
0.0
 10
103.1191148288209
 20
-150.5675536732956
 30
0.0
 10
103.1191148288209
 20
-150.5889132653041
 30
0.0
 10
103.0936211222301
 20
-150.6016601185996
 30
0.0
 10
103.0853528930655
 20
-150.6037271758907
 30
0.0
 10
103.0577921291834
 20
-150.6119954050553
 30
0.0
 10
103.0491793904703
 20
-150.6099283477642
 30
0.0
 10
103.0236856838795
 20
-150.635422054355
 30
0.0
 10
102.9985364868372
 20
-150.6609157609459
 30
0.0
 10
103.0006035441283
 20
-150.6691839901105
 30
0.0
 10
102.968908665664
 20
-150.7222384605833
 30
0.0
 10
102.968908665664
 20
-150.7222384605833
 30
0.0
 10
103.3030829277332
 20
-150.7222384605833
 30
0.0
 10
103.3030829277332
 20
-150.7222384605833
 30
0.0
 10
103.5590535222873
 20
-150.7222384605833
 30
0.0
 10
103.5907484007516
 20
-150.7094916072879
 30
0.0
 10
103.6479369858067
 20
-150.6798637861147
 30
0.0
 10
103.6479369858067
 20
-150.6798637861147
 30
0.0
 10
103.8043443208371
 20
-150.8448838598582
 30
0.0
 10
103.8043443208371
 20
-150.8448838598582
 30
0.0
 10
103.7705823850816
 20
-150.8807128529048
 30
0.0
 10
103.7685153277905
 20
-150.882779910196
 30
0.0
 10
103.7430216211996
 20
-150.910340674078
 30
0.0
  0
HATCH
  5
C7
330
C2
100
AcDbEntity
  8
レイヤー 1
 62
   250
420
  2299925
440
 33554687
100
AcDbHatch
 10
0.0
 20
0.0
 30
0.0
210
0.0
220
0.0
230
1.0
  2
SOLID
 70
     1
 71
     1
 91
        1
 92
        1
 93
        1
 72
     4
 94
        3
 73
     0
 74
     0
 95
       59
 96
       55
 40
0.0
 40
0.0
 40
0.0
 40
0.0
 40
1.0
 40
1.0
 40
1.0
 40
2.0
 40
2.0
 40
2.0
 40
3.0
 40
3.0
 40
3.0
 40
4.0
 40
4.0
 40
4.0
 40
5.0
 40
5.0
 40
5.0
 40
6.0
 40
6.0
 40
6.0
 40
7.0
 40
7.0
 40
7.0
 40
8.0
 40
8.0
 40
8.0
 40
9.0
 40
9.0
 40
9.0
 40
10.0
 40
10.0
 40
10.0
 40
11.0
 40
11.0
 40
11.0
 40
12.0
 40
12.0
 40
12.0
 40
13.0
 40
13.0
 40
13.0
 40
14.0
 40
14.0
 40
14.0
 40
15.0
 40
15.0
 40
15.0
 40
16.0
 40
16.0
 40
16.0
 40
17.0
 40
17.0
 40
17.0
 40
18.0
 40
18.0
 40
18.0
 40
18.0
 10
103.7430216211996
 20
-150.910340674078
 10
103.575934490165
 20
-151.3971326661438
 10
103.3265095770329
 20
-151.9194091417076
 10
102.7277519816965
 20
-152.2367024358992
 10
102.7277519816965
 20
-152.2367024358992
 10
102.5393052586534
 20
-152.0844292154511
 10
102.5393052586534
 20
-152.0844292154511
 10
102.7001912178145
 20
-152.0148382866491
 10
102.9454820163643
 20
-151.904595231121
 10
103.1973184963361
 20
-151.5745550836341
 10
103.4343410657213
 20
-151.2617404135734
 10
103.4915296507764
 20
-151.0057698190194
 10
103.5187459051099
 20
-150.8786457956137
 10
103.5187459051099
 20
-150.8786457956137
 10
102.8714124634314
 20
-150.8786457956137
 10
102.8714124634314
 20
-150.8786457956137
 10
102.7677150893254
 20
-151.0395317547748
 10
102.6471367473417
 20
-151.2066188858094
 10
102.4549004192647
 20
-151.3778401314264
 10
102.4549004192647
 20
-151.3778401314264
 10
102.2812676068081
 20
-151.2551947321515
 10
102.2812676068081
 20
-151.2551947321515
 10
102.3405232491544
 20
-151.2086859431006
 10
102.4886623550202
 20
-151.09672033983
 10
102.6536824287636
 20
-150.8469509171493
 10
102.7298190389877
 20
-150.7284396324568
 10
102.8335164130937
 20
-150.559285444131
 10
102.8590101196845
 20
-150.4366400448561
 10
102.8590101196845
 20
-150.4366400448561
 10
103.0894870076477
 20
-150.5379258521224
 10
103.0894870076477
 20
-150.5379258521224
 10
103.1043009182343
 20
-150.5444715335444
 10
103.1191148288209
 20
-150.552739762709
 10
103.1191148288209
 20
-150.5675536732956
 10
103.1191148288209
 20
-150.5889132653041
 10
103.0936211222301
 20
-150.6016601185996
 10
103.0853528930655
 20
-150.6037271758907
 10
103.0577921291834
 20
-150.6119954050553
 10
103.0491793904703
 20
-150.6099283477642
 10
103.0236856838795
 20
-150.635422054355
 10
102.9985364868372
 20
-150.6609157609459
 10
103.0006035441283
 20
-150.6691839901105
 10
102.968908665664
 20
-150.7222384605833
 10
102.968908665664
 20
-150.7222384605833
 10
103.3030829277332
 20
-150.7222384605833
 10
103.3030829277332
 20
-150.7222384605833
 10
103.5590535222873
 20
-150.7222384605833
 10
103.5907484007516
 20
-150.7094916072879
 10
103.6479369858067
 20
-150.6798637861147
 10
103.6479369858067
 20
-150.6798637861147
 10
103.8043443208371
 20
-150.8448838598582
 10
103.8043443208371
 20
-150.8448838598582
 10
103.7705823850816
 20
-150.8807128529048
 10
103.7685153277905
 20
-150.882779910196
 10
103.7430216211996
 20
-150.910340674078
 97
        0
 97
        1
330
C6
 75
     2
 76
     1
 98
        1
 10
0.0
 20
0.0
450
        0
451
        0
460
0.0
461
0.0
452
        0
462
0.0
453
        0
470

  0
SPLINE
  5
C8
330
C2
100
AcDbEntity
  8
レイヤー 1
100
AcDbSpline
210
0.0
220
0.0
230
1.0
 70
    11
 71
     3
 72
    17
 73
    13
 74
     0
 42
0.0000000001
 43
0.0000000001
 40
0.0
 40
0.0
 40
0.0
 40
0.0
 40
1.0
 40
1.0
 40
1.0
 40
2.0
 40
2.0
 40
2.0
 40
3.0
 40
3.0
 40
3.0
 40
4.0
 40
4.0
 40
4.0
 40
4.0
 10
105.3856431485667
 20
-150.8193901532674
 30
0.0
 10
105.3856431485667
 20
-150.8193901532674
 30
0.0
 10
104.3448798024728
 20
-150.8193901532674
 30
0.0
 10
104.3448798024728
 20
-150.8193901532674
 30
0.0
 10
104.3448798024728
 20
-150.8193901532674
 30
0.0
 10
104.3448798024728
 20
-151.7078802789133
 30
0.0
 10
104.3448798024728
 20
-151.7078802789133
 30
0.0
 10
104.3448798024728
 20
-151.7078802789133
 30
0.0
 10
105.3856431485667
 20
-151.7078802789133
 30
0.0
 10
105.3856431485667
 20
-151.7078802789133
 30
0.0
 10
105.3856431485667
 20
-151.7078802789133
 30
0.0
 10
105.3856431485667
 20
-150.8193901532674
 30
0.0
 10
105.3856431485667
 20
-150.8193901532674
 30
0.0
  0
SPLINE
  5
C9
330
C2
100
AcDbEntity
  8
レイヤー 1
100
AcDbSpline
210
0.0
220
0.0
230
1.0
 70
     9
 71
     3
 72
    53
 73
    49
 74
     0
 42
0.0000000001
 43
0.0000000001
 40
0.0
 40
0.0
 40
0.0
 40
0.0
 40
1.0
 40
1.0
 40
1.0
 40
2.0
 40
2.0
 40
2.0
 40
3.0
 40
3.0
 40
3.0
 40
4.0
 40
4.0
 40
4.0
 40
5.0
 40
5.0
 40
5.0
 40
6.0
 40
6.0
 40
6.0
 40
7.0
 40
7.0
 40
7.0
 40
8.0
 40
8.0
 40
8.0
 40
9.0
 40
9.0
 40
9.0
 40
10.0
 40
10.0
 40
10.0
 40
11.0
 40
11.0
 40
11.0
 40
12.0
 40
12.0
 40
12.0
 40
13.0
 40
13.0
 40
13.0
 40
14.0
 40
14.0
 40
14.0
 40
15.0
 40
15.0
 40
15.0
 40
16.0
 40
16.0
 40
16.0
 40
16.0
 10
105.3625610088156
 20
-152.0231065158136
 30
0.0
 10
105.3708292379802
 20
-151.978664784054
 30
0.0
 10
105.3708292379802
 20
-151.9703965548893
 30
0.0
 10
105.3773749194022
 20
-151.8963270019565
 30
0.0
 10
105.3773749194022
 20
-151.8963270019565
 30
0.0
 10
104.3469468597639
 20
-151.8963270019565
 30
0.0
 10
104.3469468597639
 20
-151.8963270019565
 30
0.0
 10
104.3469468597639
 20
-151.9280218804208
 30
0.0
 10
104.3469468597639
 20
-151.9831434081848
 30
0.0
 10
104.3514254838947
 20
-152.0189724012313
 30
0.0
 10
104.3514254838947
 20
-152.0189724012313
 30
0.0
 10
104.1102687999273
 20
-152.0189724012313
 30
0.0
 10
104.1102687999273
 20
-152.0189724012313
 30
0.0
 10
104.1164699718007
 20
-151.9638508734673
 30
0.0
 10
104.127149767805
 20
-151.8729003526568
 30
0.0
 10
104.127149767805
 20
-151.7440537815084
 30
0.0
 10
104.1292168250961
 20
-151.5387260905875
 30
0.0
 10
104.1292168250961
 20
-151.5152994412878
 30
0.0
 10
104.1292168250961
 20
-151.4922173015366
 30
0.0
 10
104.1292168250961
 20
-151.4922173015366
 30
0.0
 10
104.1292168250961
 20
-151.0522786080703
 30
0.0
 10
104.1292168250961
 20
-151.0522786080703
 30
0.0
 10
104.1292168250961
 20
-150.986477284302
 30
0.0
 10
104.1226711436742
 20
-150.662982818237
 30
0.0
 10
104.1185370290919
 20
-150.607861290473
 30
0.0
 10
104.2432494856579
 20
-150.6206081437684
 30
0.0
 10
104.5078328189251
 20
-150.6247422583508
 30
0.0
 10
104.6390909569131
 20
-150.6247422583508
 30
0.0
 10
104.6390909569131
 20
-150.6247422583508
 30
0.0
 10
105.0938435609661
 20
-150.6247422583508
 30
0.0
 10
105.0938435609661
 20
-150.6247422583508
 30
0.0
 10
105.244049724123
 20
-150.6247422583508
 30
0.0
 10
105.4683254402128
 20
-150.6226752010596
 30
0.0
 10
105.6142252340131
 20
-150.614406971895
 30
0.0
 10
105.6056124953
 20
-150.7243055178745
 30
0.0
 10
105.6014783807177
 20
-150.9737304310065
 30
0.0
 10
105.6014783807177
 20
-151.0922417156991
 30
0.0
 10
105.6014783807177
 20
-151.0922417156991
 30
0.0
 10
105.6014783807177
 20
-151.5111653267055
 30
0.0
 10
105.6014783807177
 20
-151.5111653267055
 30
0.0
 10
105.6014783807177
 20
-151.5535400011741
 30
0.0
 10
105.6076795525911
 20
-151.7354410427953
 30
0.0
 10
105.6076795525911
 20
-151.7736816026816
 30
0.0
 10
105.6097466098823
 20
-151.9238877658385
 30
0.0
 10
105.6183593485954
 20
-151.9745306694716
 30
0.0
 10
105.62662757776
 20
-152.0231065158136
 30
0.0
 10
105.62662757776
 20
-152.0231065158136
 30
0.0
 10
105.3625610088156
 20
-152.0231065158136
 30
0.0
 10
105.3625610088156
 20
-152.0231065158136
 30
0.0
  0
HATCH
  5
CA
330
C2
100
AcDbEntity
  8
レイヤー 1
 62
   250
420
  2299925
440
 33554687
100
AcDbHatch
 10
0.0
 20
0.0
 30
0.0
210
0.0
220
0.0
230
1.0
  2
SOLID
 70
     1
 71
     1
 91
        2
 92
        1
 93
        1
 72
     4
 94
        3
 73
     0
 74
     0
 95
       17
 96
       13
 40
0.0
 40
0.0
 40
0.0
 40
0.0
 40
1.0
 40
1.0
 40
1.0
 40
2.0
 40
2.0
 40
2.0
 40
3.0
 40
3.0
 40
3.0
 40
4.0
 40
4.0
 40
4.0
 40
4.0
 10
105.3856431485667
 20
-150.8193901532674
 10
105.3856431485667
 20
-150.8193901532674
 10
104.3448798024728
 20
-150.8193901532674
 10
104.3448798024728
 20
-150.8193901532674
 10
104.3448798024728
 20
-150.8193901532674
 10
104.3448798024728
 20
-151.7078802789133
 10
104.3448798024728
 20
-151.7078802789133
 10
104.3448798024728
 20
-151.7078802789133
 10
105.3856431485667
 20
-151.7078802789133
 10
105.3856431485667
 20
-151.7078802789133
 10
105.3856431485667
 20
-151.7078802789133
 10
105.3856431485667
 20
-150.8193901532674
 10
105.3856431485667
 20
-150.8193901532674
 97
        0
 97
        1
330
C8
 92
        1
 93
        1
 72
     4
 94
        3
 73
     0
 74
     0
 95
       53
 96
       49
 40
0.0
 40
0.0
 40
0.0
 40
0.0
 40
1.0
 40
1.0
 40
1.0
 40
2.0
 40
2.0
 40
2.0
 40
3.0
 40
3.0
 40
3.0
 40
4.0
 40
4.0
 40
4.0
 40
5.0
 40
5.0
 40
5.0
 40
6.0
 40
6.0
 40
6.0
 40
7.0
 40
7.0
 40
7.0
 40
8.0
 40
8.0
 40
8.0
 40
9.0
 40
9.0
 40
9.0
 40
10.0
 40
10.0
 40
10.0
 40
11.0
 40
11.0
 40
11.0
 40
12.0
 40
12.0
 40
12.0
 40
13.0
 40
13.0
 40
13.0
 40
14.0
 40
14.0
 40
14.0
 40
15.0
 40
15.0
 40
15.0
 40
16.0
 40
16.0
 40
16.0
 40
16.0
 10
105.3625610088156
 20
-152.0231065158136
 10
105.3708292379802
 20
-151.978664784054
 10
105.3708292379802
 20
-151.9703965548893
 10
105.3773749194022
 20
-151.8963270019565
 10
105.3773749194022
 20
-151.8963270019565
 10
104.3469468597639
 20
-151.8963270019565
 10
104.3469468597639
 20
-151.8963270019565
 10
104.3469468597639
 20
-151.9280218804208
 10
104.3469468597639
 20
-151.9831434081848
 10
104.3514254838947
 20
-152.0189724012313
 10
104.3514254838947
 20
-152.0189724012313
 10
104.1102687999273
 20
-152.0189724012313
 10
104.1102687999273
 20
-152.0189724012313
 10
104.1164699718007
 20
-151.9638508734673
 10
104.127149767805
 20
-151.8729003526568
 10
104.127149767805
 20
-151.7440537815084
 10
104.1292168250961
 20
-151.5387260905875
 10
104.1292168250961
 20
-151.5152994412878
 10
104.1292168250961
 20
-151.4922173015366
 10
104.1292168250961
 20
-151.4922173015366
 10
104.1292168250961
 20
-151.0522786080703
 10
104.1292168250961
 20
-151.0522786080703
 10
104.1292168250961
 20
-150.986477284302
 10
104.1226711436742
 20
-150.662982818237
 10
104.1185370290919
 20
-150.607861290473
 10
104.2432494856579
 20
-150.6206081437684
 10
104.5078328189251
 20
-150.6247422583508
 10
104.6390909569131
 20
-150.6247422583508
 10
104.6390909569131
 20
-150.6247422583508
 10
105.0938435609661
 20
-150.6247422583508
 10
105.0938435609661
 20
-150.6247422583508
 10
105.244049724123
 20
-150.6247422583508
 10
105.4683254402128
 20
-150.6226752010596
 10
105.6142252340131
 20
-150.614406971895
 10
105.6056124953
 20
-150.7243055178745
 10
105.6014783807177
 20
-150.9737304310065
 10
105.6014783807177
 20
-151.0922417156991
 10
105.6014783807177
 20
-151.0922417156991
 10
105.6014783807177
 20
-151.5111653267055
 10
105.6014783807177
 20
-151.5111653267055
 10
105.6014783807177
 20
-151.5535400011741
 10
105.6076795525911
 20
-151.7354410427953
 10
105.6076795525911
 20
-151.7736816026816
 10
105.6097466098823
 20
-151.9238877658385
 10
105.6183593485954
 20
-151.9745306694716
 10
105.62662757776
 20
-152.0231065158136
 10
105.62662757776
 20
-152.0231065158136
 10
105.3625610088156
 20
-152.0231065158136
 10
105.3625610088156
 20
-152.0231065158136
 97
        0
 97
        1
330
C9
 75
     2
 76
     1
 98
        1
 10
0.0
 20
0.0
450
        0
451
        0
460
0.0
461
0.0
452
        0
462
0.0
453
        0
470

  0
SPLINE
  5
CB
330
C2
100
AcDbEntity
  8
レイヤー 1
100
AcDbSpline
210
0.0
220
0.0
230
1.0
 70
     9
 71
     3
 72
    56
 73
    52
 74
     0
 42
0.0000000001
 43
0.0000000001
 40
0.0
 40
0.0
 40
0.0
 40
0.0
 40
1.0
 40
1.0
 40
1.0
 40
2.0
 40
2.0
 40
2.0
 40
3.0
 40
3.0
 40
3.0
 40
4.0
 40
4.0
 40
4.0
 40
5.0
 40
5.0
 40
5.0
 40
6.0
 40
6.0
 40
6.0
 40
7.0
 40
7.0
 40
7.0
 40
8.0
 40
8.0
 40
8.0
 40
9.0
 40
9.0
 40
9.0
 40
10.0
 40
10.0
 40
10.0
 40
11.0
 40
11.0
 40
11.0
 40
12.0
 40
12.0
 40
12.0
 40
13.0
 40
13.0
 40
13.0
 40
14.0
 40
14.0
 40
14.0
 40
15.0
 40
15.0
 40
15.0
 40
16.0
 40
16.0
 40
16.0
 40
17.0
 40
17.0
 40
17.0
 40
17.0
 10
107.3732909887816
 20
-152.0889078395819
 30
0.0
 10
107.1807101511562
 20
-151.779882774555
 30
0.0
 10
106.922672499311
 20
-151.5745550836341
 30
0.0
 10
106.8317219785004
 20
-151.5090982694144
 30
0.0
 10
106.5375108240601
 20
-151.8477511556144
 30
0.0
 10
106.2477782937505
 20
-152.0000243760625
 30
0.0
 10
106.0489962842516
 20
-152.0930419541642
 30
0.0
 10
106.0489962842516
 20
-152.0930419541642
 30
0.0
 10
105.8901773823816
 20
-151.904595231121
 30
0.0
 10
105.8901773823816
 20
-151.904595231121
 30
0.0
 10
105.9938747564876
 20
-151.8687662380744
 30
0.0
 10
106.2074706765731
 20
-151.7926296278504
 30
0.0
 10
106.440359131376
 20
-151.6065944716469
 30
0.0
 10
106.7045979550947
 20
-151.3947210993041
 30
0.0
 10
106.8909776208467
 20
-151.1070556262857
 30
0.0
 10
107.0136230201216
 20
-150.794240956225
 30
0.0
 10
107.0136230201216
 20
-150.794240956225
 30
0.0
 10
106.6370740835838
 20
-150.794240956225
 30
0.0
 10
106.6370740835838
 20
-150.794240956225
 30
0.0
 10
106.4848008631357
 20
-150.794240956225
 30
0.0
 10
106.2753390576325
 20
-150.7983750708073
 30
0.0
 10
106.1251328944756
 20
-150.8173230959762
 30
0.0
 10
106.1251328944756
 20
-150.8173230959762
 30
0.0
 10
106.1251328944756
 20
-150.6057942331818
 30
0.0
 10
106.1251328944756
 20
-150.6057942331818
 30
0.0
 10
106.1926567659865
 20
-150.6119954050553
 30
0.0
 10
106.4531059846714
 20
-150.6226752010596
 30
0.0
 10
106.5395778813512
 20
-150.6226752010596
 30
0.0
 10
106.5395778813512
 20
-150.6226752010596
 30
0.0
 10
106.8506700036693
 20
-150.6226752010596
 30
0.0
 10
106.8506700036693
 20
-150.6226752010596
 30
0.0
 10
107.0580647518813
 20
-150.6226752010596
 30
0.0
 10
107.0811468916325
 20
-150.6164740291862
 30
0.0
 10
107.1045735409322
 20
-150.6119954050553
 30
0.0
 10
107.1490152726919
 20
-150.6057942331818
 30
0.0
 10
107.1869113230296
 20
-150.580300526591
 30
0.0
 10
107.2082709150382
 20
-150.5634195587133
 30
0.0
 10
107.2082709150382
 20
-150.5634195587133
 30
0.0
 10
107.3646782500685
 20
-150.7370523711699
 30
0.0
 10
107.3646782500685
 20
-150.7370523711699
 30
0.0
 10
107.3247151424396
 20
-150.7646131350519
 30
0.0
 10
107.3119682891442
 20
-150.7749484215076
 30
0.0
 10
107.2630479332537
 20
-150.8111219241028
 30
0.0
 10
107.1342013621053
 20
-151.0584797799437
 30
0.0
 10
107.053930637299
 20
-151.2086859431006
 30
0.0
 10
106.950233263193
 20
-151.3547579916752
 30
0.0
 10
107.2630479332537
 20
-151.572488026343
 30
0.0
 10
107.4918022734743
 20
-151.8580864420702
 30
0.0
 10
107.5445122343986
 20
-151.9362901095854
 30
0.0
 10
107.5445122343986
 20
-151.9362901095854
 30
0.0
 10
107.3732909887816
 20
-152.0889078395819
 30
0.0
 10
107.3732909887816
 20
-152.0889078395819
 30
0.0
  0
HATCH
  5
CC
330
C2
100
AcDbEntity
  8
レイヤー 1
 62
   250
420
  2299925
440
 33554687
100
AcDbHatch
 10
0.0
 20
0.0
 30
0.0
210
0.0
220
0.0
230
1.0
  2
SOLID
 70
     1
 71
     1
 91
        1
 92
        1
 93
        1
 72
     4
 94
        3
 73
     0
 74
     0
 95
       56
 96
       52
 40
0.0
 40
0.0
 40
0.0
 40
0.0
 40
1.0
 40
1.0
 40
1.0
 40
2.0
 40
2.0
 40
2.0
 40
3.0
 40
3.0
 40
3.0
 40
4.0
 40
4.0
 40
4.0
 40
5.0
 40
5.0
 40
5.0
 40
6.0
 40
6.0
 40
6.0
 40
7.0
 40
7.0
 40
7.0
 40
8.0
 40
8.0
 40
8.0
 40
9.0
 40
9.0
 40
9.0
 40
10.0
 40
10.0
 40
10.0
 40
11.0
 40
11.0
 40
11.0
 40
12.0
 40
12.0
 40
12.0
 40
13.0
 40
13.0
 40
13.0
 40
14.0
 40
14.0
 40
14.0
 40
15.0
 40
15.0
 40
15.0
 40
16.0
 40
16.0
 40
16.0
 40
17.0
 40
17.0
 40
17.0
 40
17.0
 10
107.3732909887816
 20
-152.0889078395819
 10
107.1807101511562
 20
-151.779882774555
 10
106.922672499311
 20
-151.5745550836341
 10
106.8317219785004
 20
-151.5090982694144
 10
106.5375108240601
 20
-151.8477511556144
 10
106.2477782937505
 20
-152.0000243760625
 10
106.0489962842516
 20
-152.0930419541642
 10
106.0489962842516
 20
-152.0930419541642
 10
105.8901773823816
 20
-151.904595231121
 10
105.8901773823816
 20
-151.904595231121
 10
105.9938747564876
 20
-151.8687662380744
 10
106.2074706765731
 20
-151.7926296278504
 10
106.440359131376
 20
-151.6065944716469
 10
106.7045979550947
 20
-151.3947210993041
 10
106.8909776208467
 20
-151.1070556262857
 10
107.0136230201216
 20
-150.794240956225
 10
107.0136230201216
 20
-150.794240956225
 10
106.6370740835838
 20
-150.794240956225
 10
106.6370740835838
 20
-150.794240956225
 10
106.4848008631357
 20
-150.794240956225
 10
106.2753390576325
 20
-150.7983750708073
 10
106.1251328944756
 20
-150.8173230959762
 10
106.1251328944756
 20
-150.8173230959762
 10
106.1251328944756
 20
-150.6057942331818
 10
106.1251328944756
 20
-150.6057942331818
 10
106.1926567659865
 20
-150.6119954050553
 10
106.4531059846714
 20
-150.6226752010596
 10
106.5395778813512
 20
-150.6226752010596
 10
106.5395778813512
 20
-150.6226752010596
 10
106.8506700036693
 20
-150.6226752010596
 10
106.8506700036693
 20
-150.6226752010596
 10
107.0580647518813
 20
-150.6226752010596
 10
107.0811468916325
 20
-150.6164740291862
 10
107.1045735409322
 20
-150.6119954050553
 10
107.1490152726919
 20
-150.6057942331818
 10
107.1869113230296
 20
-150.580300526591
 10
107.2082709150382
 20
-150.5634195587133
 10
107.2082709150382
 20
-150.5634195587133
 10
107.3646782500685
 20
-150.7370523711699
 10
107.3646782500685
 20
-150.7370523711699
 10
107.3247151424396
 20
-150.7646131350519
 10
107.3119682891442
 20
-150.7749484215076
 10
107.2630479332537
 20
-150.8111219241028
 10
107.1342013621053
 20
-151.0584797799437
 10
107.053930637299
 20
-151.2086859431006
 10
106.950233263193
 20
-151.3547579916752
 10
107.2630479332537
 20
-151.572488026343
 10
107.4918022734743
 20
-151.8580864420702
 10
107.5445122343986
 20
-151.9362901095854
 10
107.5445122343986
 20
-151.9362901095854
 10
107.3732909887816
 20
-152.0889078395819
 10
107.3732909887816
 20
-152.0889078395819
 97
        0
 97
        1
330
CB
 75
     2
 76
     1
 98
        1
 10
0.0
 20
0.0
450
        0
451
        0
460
0.0
461
0.0
452
        0
462
0.0
453
        0
470

  0
SPLINE
  5
CD
330
C2
100
AcDbEntity
  8
レイヤー 1
100
AcDbSpline
210
0.0
220
0.0
230
1.0
 70
    11
 71
     3
 72
    17
 73
    13
 74
     0
 42
0.0000000001
 43
0.0000000001
 40
0.0
 40
0.0
 40
0.0
 40
0.0
 40
1.0
 40
1.0
 40
1.0
 40
2.0
 40
2.0
 40
2.0
 40
3.0
 40
3.0
 40
3.0
 40
4.0
 40
4.0
 40
4.0
 40
4.0
 10
109.2550021428251
 20
-151.1115342504165
 30
0.0
 10
109.2550021428251
 20
-151.1115342504165
 30
0.0
 10
108.7957709146413
 20
-151.1115342504165
 30
0.0
 10
108.7957709146413
 20
-151.1115342504165
 30
0.0
 10
108.7957709146413
 20
-151.1115342504165
 30
0.0
 10
108.7957709146413
 20
-151.4202148058949
 30
0.0
 10
108.7957709146413
 20
-151.4202148058949
 30
0.0
 10
108.7957709146413
 20
-151.4202148058949
 30
0.0
 10
109.2550021428251
 20
-151.4202148058949
 30
0.0
 10
109.2550021428251
 20
-151.4202148058949
 30
0.0
 10
109.2550021428251
 20
-151.4202148058949
 30
0.0
 10
109.2550021428251
 20
-151.1115342504165
 30
0.0
 10
109.2550021428251
 20
-151.1115342504165
 30
0.0
  0
SPLINE
  5
CE
330
C2
100
AcDbEntity
  8
レイヤー 1
100
AcDbSpline
210
0.0
220
0.0
230
1.0
 70
    11
 71
     3
 72
    17
 73
    13
 74
     0
 42
0.0000000001
 43
0.0000000001
 40
0.0
 40
0.0
 40
0.0
 40
0.0
 40
1.0
 40
1.0
 40
1.0
 40
2.0
 40
2.0
 40
2.0
 40
3.0
 40
3.0
 40
3.0
 40
4.0
 40
4.0
 40
4.0
 40
4.0
 10
109.2550021428251
 20
-150.6395561689373
 30
0.0
 10
109.2550021428251
 20
-150.6395561689373
 30
0.0
 10
108.7957709146413
 20
-150.6395561689373
 30
0.0
 10
108.7957709146413
 20
-150.6395561689373
 30
0.0
 10
108.7957709146413
 20
-150.6395561689373
 30
0.0
 10
108.7957709146413
 20
-150.9441026098334
 30
0.0
 10
108.7957709146413
 20
-150.9441026098334
 30
0.0
 10
108.7957709146413
 20
-150.9441026098334
 30
0.0
 10
109.2550021428251
 20
-150.9441026098334
 30
0.0
 10
109.2550021428251
 20
-150.9441026098334
 30
0.0
 10
109.2550021428251
 20
-150.9441026098334
 30
0.0
 10
109.2550021428251
 20
-150.6395561689373
 30
0.0
 10
109.2550021428251
 20
-150.6395561689373
 30
0.0
  0
SPLINE
  5
CF
330
C2
100
AcDbEntity
  8
レイヤー 1
100
AcDbSpline
210
0.0
220
0.0
230
1.0
 70
    11
 71
     3
 72
    17
 73
    13
 74
     0
 42
0.0000000001
 43
0.0000000001
 40
0.0
 40
0.0
 40
0.0
 40
0.0
 40
1.0
 40
1.0
 40
1.0
 40
2.0
 40
2.0
 40
2.0
 40
3.0
 40
3.0
 40
3.0
 40
4.0
 40
4.0
 40
4.0
 40
4.0
 10
108.6056016438555
 20
-151.1115342504165
 30
0.0
 10
108.6056016438555
 20
-151.1115342504165
 30
0.0
 10
108.1677300076803
 20
-151.1115342504165
 30
0.0
 10
108.1677300076803
 20
-151.1115342504165
 30
0.0
 10
108.1677300076803
 20
-151.1115342504165
 30
0.0
 10
108.1677300076803
 20
-151.4202148058949
 30
0.0
 10
108.1677300076803
 20
-151.4202148058949
 30
0.0
 10
108.1677300076803
 20
-151.4202148058949
 30
0.0
 10
108.6056016438555
 20
-151.4202148058949
 30
0.0
 10
108.6056016438555
 20
-151.4202148058949
 30
0.0
 10
108.6056016438555
 20
-151.4202148058949
 30
0.0
 10
108.6056016438555
 20
-151.1115342504165
 30
0.0
 10
108.6056016438555
 20
-151.1115342504165
 30
0.0
  0
SPLINE
  5
D0
330
C2
100
AcDbEntity
  8
レイヤー 1
100
AcDbSpline
210
0.0
220
0.0
230
1.0
 70
    11
 71
     3
 72
    17
 73
    13
 74
     0
 42
0.0000000001
 43
0.0000000001
 40
0.0
 40
0.0
 40
0.0
 40
0.0
 40
1.0
 40
1.0
 40
1.0
 40
2.0
 40
2.0
 40
2.0
 40
3.0
 40
3.0
 40
3.0
 40
4.0
 40
4.0
 40
4.0
 40
4.0
 10
108.6056016438555
 20
-150.6395561689373
 30
0.0
 10
108.6056016438555
 20
-150.6395561689373
 30
0.0
 10
108.1677300076803
 20
-150.6395561689373
 30
0.0
 10
108.1677300076803
 20
-150.6395561689373
 30
0.0
 10
108.1677300076803
 20
-150.6395561689373
 30
0.0
 10
108.1677300076803
 20
-150.9441026098334
 30
0.0
 10
108.1677300076803
 20
-150.9441026098334
 30
0.0
 10
108.1677300076803
 20
-150.9441026098334
 30
0.0
 10
108.6056016438555
 20
-150.9441026098334
 30
0.0
 10
108.6056016438555
 20
-150.9441026098334
 30
0.0
 10
108.6056016438555
 20
-150.9441026098334
 30
0.0
 10
108.6056016438555
 20
-150.6395561689373
 30
0.0
 10
108.6056016438555
 20
-150.6395561689373
 30
0.0
  0
SPLINE
  5
D1
330
C2
100
AcDbEntity
  8
レイヤー 1
100
AcDbSpline
210
0.0
220
0.0
230
1.0
 70
     9
 71
     3
 72
    77
 73
    73
 74
     0
 42
0.0000000001
 43
0.0000000001
 40
0.0
 40
0.0
 40
0.0
 40
0.0
 40
1.0
 40
1.0
 40
1.0
 40
2.0
 40
2.0
 40
2.0
 40
3.0
 40
3.0
 40
3.0
 40
4.0
 40
4.0
 40
4.0
 40
5.0
 40
5.0
 40
5.0
 40
6.0
 40
6.0
 40
6.0
 40
7.0
 40
7.0
 40
7.0
 40
8.0
 40
8.0
 40
8.0
 40
9.0
 40
9.0
 40
9.0
 40
10.0
 40
10.0
 40
10.0
 40
11.0
 40
11.0
 40
11.0
 40
12.0
 40
12.0
 40
12.0
 40
13.0
 40
13.0
 40
13.0
 40
14.0
 40
14.0
 40
14.0
 40
15.0
 40
15.0
 40
15.0
 40
16.0
 40
16.0
 40
16.0
 40
17.0
 40
17.0
 40
17.0
 40
18.0
 40
18.0
 40
18.0
 40
19.0
 40
19.0
 40
19.0
 40
20.0
 40
20.0
 40
20.0
 40
21.0
 40
21.0
 40
21.0
 40
22.0
 40
22.0
 40
22.0
 40
23.0
 40
23.0
 40
23.0
 40
24.0
 40
24.0
 40
24.0
 40
24.0
 10
109.3903943953954
 20
-152.2263671494434
 30
0.0
 10
109.3438856063446
 20
-152.2515163464857
 30
0.0
 10
109.2191731497785
 20
-152.2642631997811
 30
0.0
 10
109.1406249727148
 20
-152.2642631997811
 30
0.0
 10
109.1282226289679
 20
-152.2642631997811
 30
0.0
 10
109.1027289223771
 20
-152.2642631997811
 30
0.0
 10
109.0689669866216
 20
-152.2601290851988
 30
0.0
 10
109.0689669866216
 20
-152.2601290851988
 30
0.0
 10
108.9714707843891
 20
-152.0337863118179
 30
0.0
 10
108.9714707843891
 20
-152.0337863118179
 30
0.0
 10
109.0010986055622
 20
-152.0399874836914
 30
0.0
 10
109.0582871906174
 20
-152.0486002224045
 30
0.0
 10
109.1747314180188
 20
-152.0486002224045
 30
0.0
 10
109.252935085534
 20
-152.0486002224045
 30
0.0
 10
109.2550021428251
 20
-152.0062255479359
 30
0.0
 10
109.2550021428251
 20
-151.9490369628808
 30
0.0
 10
109.2550021428251
 20
-151.9490369628808
 30
0.0
 10
109.2550021428251
 20
-151.600048790225
 30
0.0
 10
109.2550021428251
 20
-151.600048790225
 30
0.0
 10
109.2550021428251
 20
-151.600048790225
 30
0.0
 10
108.7957709146413
 20
-151.600048790225
 30
0.0
 10
108.7957709146413
 20
-151.600048790225
 30
0.0
 10
108.798182481481
 20
-151.7375081000865
 30
0.0
 10
108.8002495387721
 20
-151.9362901095854
 30
0.0
 10
108.8064507106456
 20
-152.0696153048645
 30
0.0
 10
108.8085177679367
 20
-152.0971760687465
 30
0.0
 10
108.8085177679367
 20
-152.1416178005063
 30
0.0
 10
108.8212646212322
 20
-152.2029405001437
 30
0.0
 10
108.8212646212322
 20
-152.2029405001437
 30
0.0
 10
108.5801079372647
 20
-152.2029405001437
 30
0.0
 10
108.5801079372647
 20
-152.2029405001437
 30
0.0
 10
108.6056016438555
 20
-152.0782280435776
 30
0.0
 10
108.6056016438555
 20
-151.7375081000865
 30
0.0
 10
108.6056016438555
 20
-151.600048790225
 30
0.0
 10
108.6056016438555
 20
-151.600048790225
 30
0.0
 10
108.1632513835494
 20
-151.600048790225
 30
0.0
 10
108.1632513835494
 20
-151.600048790225
 30
0.0
 10
108.1401692437983
 20
-151.807443538437
 30
0.0
 10
108.0747124295785
 20
-152.0761609862865
 30
0.0
 10
107.8776529678222
 20
-152.2601290851988
 30
0.0
 10
107.8776529678222
 20
-152.2601290851988
 30
0.0
 10
107.6895507543276
 20
-152.1374836859239
 30
0.0
 10
107.6895507543276
 20
-152.1374836859239
 30
0.0
 10
107.9434542915905
 20
-151.9173420844165
 30
0.0
 10
107.9751491700548
 20
-151.5852348796384
 30
0.0
 10
107.9751491700548
 20
-151.2531276748603
 30
0.0
 10
107.9751491700548
 20
-151.2531276748603
 30
0.0
 10
107.9751491700548
 20
-150.8173230959762
 30
0.0
 10
107.9751491700548
 20
-150.8173230959762
 30
0.0
 10
107.9751491700548
 20
-150.7814941029296
 30
0.0
 10
107.9730821127637
 20
-150.5486056481267
 30
0.0
 10
107.9644693740505
 20
-150.4469753313119
 30
0.0
 10
108.1043402507517
 20
-150.4576551273161
 30
0.0
 10
108.3454969347191
 20
-150.4576551273161
 30
0.0
 10
108.4891574164541
 20
-150.4576551273161
 30
0.0
 10
108.4891574164541
 20
-150.4576551273161
 30
0.0
 10
108.9483886446379
 20
-150.4576551273161
 30
0.0
 10
108.9483886446379
 20
-150.4576551273161
 30
0.0
 10
108.9632025552245
 20
-150.4576551273161
 30
0.0
 10
109.3121907278803
 20
-150.4576551273161
 30
0.0
 10
109.4706651202018
 20
-150.4469753313119
 30
0.0
 10
109.4685980629106
 20
-150.5000298017847
 30
0.0
 10
109.4623968910372
 20
-150.6609157609459
 30
0.0
 10
109.4623968910372
 20
-150.711558664579
 30
0.0
 10
109.4623968910372
 20
-150.711558664579
 30
0.0
 10
109.4623968910372
 20
-151.3185844890801
 30
0.0
 10
109.4623968910372
 20
-151.3185844890801
 30
0.0
 10
109.4623968910372
 20
-151.3378770237975
 30
0.0
 10
109.4727321774929
 20
-151.9090738552519
 30
0.0
 10
109.4727321774929
 20
-152.0210394585225
 30
0.0
 10
109.4727321774929
 20
-152.0782280435776
 30
0.0
 10
109.4727321774929
 20
-152.1798583603925
 30
0.0
 10
109.3903943953954
 20
-152.2263671494434
 30
0.0
  0
HATCH
  5
D2
330
C2
100
AcDbEntity
  8
レイヤー 1
 62
   250
420
  2299925
440
 33554687
100
AcDbHatch
 10
0.0
 20
0.0
 30
0.0
210
0.0
220
0.0
230
1.0
  2
SOLID
 70
     1
 71
     1
 91
        5
 92
        1
 93
        1
 72
     4
 94
        3
 73
     0
 74
     0
 95
       17
 96
       13
 40
0.0
 40
0.0
 40
0.0
 40
0.0
 40
1.0
 40
1.0
 40
1.0
 40
2.0
 40
2.0
 40
2.0
 40
3.0
 40
3.0
 40
3.0
 40
4.0
 40
4.0
 40
4.0
 40
4.0
 10
109.2550021428251
 20
-151.1115342504165
 10
109.2550021428251
 20
-151.1115342504165
 10
108.7957709146413
 20
-151.1115342504165
 10
108.7957709146413
 20
-151.1115342504165
 10
108.7957709146413
 20
-151.1115342504165
 10
108.7957709146413
 20
-151.4202148058949
 10
108.7957709146413
 20
-151.4202148058949
 10
108.7957709146413
 20
-151.4202148058949
 10
109.2550021428251
 20
-151.4202148058949
 10
109.2550021428251
 20
-151.4202148058949
 10
109.2550021428251
 20
-151.4202148058949
 10
109.2550021428251
 20
-151.1115342504165
 10
109.2550021428251
 20
-151.1115342504165
 97
        0
 97
        1
330
CD
 92
        1
 93
        1
 72
     4
 94
        3
 73
     0
 74
     0
 95
       17
 96
       13
 40
0.0
 40
0.0
 40
0.0
 40
0.0
 40
1.0
 40
1.0
 40
1.0
 40
2.0
 40
2.0
 40
2.0
 40
3.0
 40
3.0
 40
3.0
 40
4.0
 40
4.0
 40
4.0
 40
4.0
 10
109.2550021428251
 20
-150.6395561689373
 10
109.2550021428251
 20
-150.6395561689373
 10
108.7957709146413
 20
-150.6395561689373
 10
108.7957709146413
 20
-150.6395561689373
 10
108.7957709146413
 20
-150.6395561689373
 10
108.7957709146413
 20
-150.9441026098334
 10
108.7957709146413
 20
-150.9441026098334
 10
108.7957709146413
 20
-150.9441026098334
 10
109.2550021428251
 20
-150.9441026098334
 10
109.2550021428251
 20
-150.9441026098334
 10
109.2550021428251
 20
-150.9441026098334
 10
109.2550021428251
 20
-150.6395561689373
 10
109.2550021428251
 20
-150.6395561689373
 97
        0
 97
        1
330
CE
 92
        1
 93
        1
 72
     4
 94
        3
 73
     0
 74
     0
 95
       17
 96
       13
 40
0.0
 40
0.0
 40
0.0
 40
0.0
 40
1.0
 40
1.0
 40
1.0
 40
2.0
 40
2.0
 40
2.0
 40
3.0
 40
3.0
 40
3.0
 40
4.0
 40
4.0
 40
4.0
 40
4.0
 10
108.6056016438555
 20
-151.1115342504165
 10
108.6056016438555
 20
-151.1115342504165
 10
108.1677300076803
 20
-151.1115342504165
 10
108.1677300076803
 20
-151.1115342504165
 10
108.1677300076803
 20
-151.1115342504165
 10
108.1677300076803
 20
-151.4202148058949
 10
108.1677300076803
 20
-151.4202148058949
 10
108.1677300076803
 20
-151.4202148058949
 10
108.6056016438555
 20
-151.4202148058949
 10
108.6056016438555
 20
-151.4202148058949
 10
108.6056016438555
 20
-151.4202148058949
 10
108.6056016438555
 20
-151.1115342504165
 10
108.6056016438555
 20
-151.1115342504165
 97
        0
 97
        1
330
CF
 92
        1
 93
        1
 72
     4
 94
        3
 73
     0
 74
     0
 95
       17
 96
       13
 40
0.0
 40
0.0
 40
0.0
 40
0.0
 40
1.0
 40
1.0
 40
1.0
 40
2.0
 40
2.0
 40
2.0
 40
3.0
 40
3.0
 40
3.0
 40
4.0
 40
4.0
 40
4.0
 40
4.0
 10
108.6056016438555
 20
-150.6395561689373
 10
108.6056016438555
 20
-150.6395561689373
 10
108.1677300076803
 20
-150.6395561689373
 10
108.1677300076803
 20
-150.6395561689373
 10
108.1677300076803
 20
-150.6395561689373
 10
108.1677300076803
 20
-150.9441026098334
 10
108.1677300076803
 20
-150.9441026098334
 10
108.1677300076803
 20
-150.9441026098334
 10
108.6056016438555
 20
-150.9441026098334
 10
108.6056016438555
 20
-150.9441026098334
 10
108.6056016438555
 20
-150.9441026098334
 10
108.6056016438555
 20
-150.6395561689373
 10
108.6056016438555
 20
-150.6395561689373
 97
        0
 97
        1
330
D0
 92
        1
 93
        1
 72
     4
 94
        3
 73
     0
 74
     0
 95
       77
 96
       73
 40
0.0
 40
0.0
 40
0.0
 40
0.0
 40
1.0
 40
1.0
 40
1.0
 40
2.0
 40
2.0
 40
2.0
 40
3.0
 40
3.0
 40
3.0
 40
4.0
 40
4.0
 40
4.0
 40
5.0
 40
5.0
 40
5.0
 40
6.0
 40
6.0
 40
6.0
 40
7.0
 40
7.0
 40
7.0
 40
8.0
 40
8.0
 40
8.0
 40
9.0
 40
9.0
 40
9.0
 40
10.0
 40
10.0
 40
10.0
 40
11.0
 40
11.0
 40
11.0
 40
12.0
 40
12.0
 40
12.0
 40
13.0
 40
13.0
 40
13.0
 40
14.0
 40
14.0
 40
14.0
 40
15.0
 40
15.0
 40
15.0
 40
16.0
 40
16.0
 40
16.0
 40
17.0
 40
17.0
 40
17.0
 40
18.0
 40
18.0
 40
18.0
 40
19.0
 40
19.0
 40
19.0
 40
20.0
 40
20.0
 40
20.0
 40
21.0
 40
21.0
 40
21.0
 40
22.0
 40
22.0
 40
22.0
 40
23.0
 40
23.0
 40
23.0
 40
24.0
 40
24.0
 40
24.0
 40
24.0
 10
109.3903943953954
 20
-152.2263671494434
 10
109.3438856063446
 20
-152.2515163464857
 10
109.2191731497785
 20
-152.2642631997811
 10
109.1406249727148
 20
-152.2642631997811
 10
109.1282226289679
 20
-152.2642631997811
 10
109.1027289223771
 20
-152.2642631997811
 10
109.0689669866216
 20
-152.2601290851988
 10
109.0689669866216
 20
-152.2601290851988
 10
108.9714707843891
 20
-152.0337863118179
 10
108.9714707843891
 20
-152.0337863118179
 10
109.0010986055622
 20
-152.0399874836914
 10
109.0582871906174
 20
-152.0486002224045
 10
109.1747314180188
 20
-152.0486002224045
 10
109.252935085534
 20
-152.0486002224045
 10
109.2550021428251
 20
-152.0062255479359
 10
109.2550021428251
 20
-151.9490369628808
 10
109.2550021428251
 20
-151.9490369628808
 10
109.2550021428251
 20
-151.600048790225
 10
109.2550021428251
 20
-151.600048790225
 10
109.2550021428251
 20
-151.600048790225
 10
108.7957709146413
 20
-151.600048790225
 10
108.7957709146413
 20
-151.600048790225
 10
108.798182481481
 20
-151.7375081000865
 10
108.8002495387721
 20
-151.9362901095854
 10
108.8064507106456
 20
-152.0696153048645
 10
108.8085177679367
 20
-152.0971760687465
 10
108.8085177679367
 20
-152.1416178005063
 10
108.8212646212322
 20
-152.2029405001437
 10
108.8212646212322
 20
-152.2029405001437
 10
108.5801079372647
 20
-152.2029405001437
 10
108.5801079372647
 20
-152.2029405001437
 10
108.6056016438555
 20
-152.0782280435776
 10
108.6056016438555
 20
-151.7375081000865
 10
108.6056016438555
 20
-151.600048790225
 10
108.6056016438555
 20
-151.600048790225
 10
108.1632513835494
 20
-151.600048790225
 10
108.1632513835494
 20
-151.600048790225
 10
108.1401692437983
 20
-151.807443538437
 10
108.0747124295785
 20
-152.0761609862865
 10
107.8776529678222
 20
-152.2601290851988
 10
107.8776529678222
 20
-152.2601290851988
 10
107.6895507543276
 20
-152.1374836859239
 10
107.6895507543276
 20
-152.1374836859239
 10
107.9434542915905
 20
-151.9173420844165
 10
107.9751491700548
 20
-151.5852348796384
 10
107.9751491700548
 20
-151.2531276748603
 10
107.9751491700548
 20
-151.2531276748603
 10
107.9751491700548
 20
-150.8173230959762
 10
107.9751491700548
 20
-150.8173230959762
 10
107.9751491700548
 20
-150.7814941029296
 10
107.9730821127637
 20
-150.5486056481267
 10
107.9644693740505
 20
-150.4469753313119
 10
108.1043402507517
 20
-150.4576551273161
 10
108.3454969347191
 20
-150.4576551273161
 10
108.4891574164541
 20
-150.4576551273161
 10
108.4891574164541
 20
-150.4576551273161
 10
108.9483886446379
 20
-150.4576551273161
 10
108.9483886446379
 20
-150.4576551273161
 10
108.9632025552245
 20
-150.4576551273161
 10
109.3121907278803
 20
-150.4576551273161
 10
109.4706651202018
 20
-150.4469753313119
 10
109.4685980629106
 20
-150.5000298017847
 10
109.4623968910372
 20
-150.6609157609459
 10
109.4623968910372
 20
-150.711558664579
 10
109.4623968910372
 20
-150.711558664579
 10
109.4623968910372
 20
-151.3185844890801
 10
109.4623968910372
 20
-151.3185844890801
 10
109.4623968910372
 20
-151.3378770237975
 10
109.4727321774929
 20
-151.9090738552519
 10
109.4727321774929
 20
-152.0210394585225
 10
109.4727321774929
 20
-152.0782280435776
 10
109.4727321774929
 20
-152.1798583603925
 10
109.3903943953954
 20
-152.2263671494434
 97
        0
 97
        1
330
D1
 75
     2
 76
     1
 98
        1
 10
0.0
 20
0.0
450
        0
451
        0
460
0.0
461
0.0
452
        0
462
0.0
453
        0
470

  0
SPLINE
  5
D3
330
C2
100
AcDbEntity
  8
レイヤー 1
100
AcDbSpline
210
0.0
220
0.0
230
1.0
 70
     9
 71
     3
 72
    17
 73
    13
 74
     0
 42
0.0000000001
 43
0.0000000001
 40
0.0
 40
0.0
 40
0.0
 40
0.0
 40
1.0
 40
1.0
 40
1.0
 40
2.0
 40
2.0
 40
2.0
 40
3.0
 40
3.0
 40
3.0
 40
4.0
 40
4.0
 40
4.0
 40
4.0
 10
111.4750216735201
 20
-150.4469753313119
 30
0.0
 10
111.4202446553046
 20
-150.4469753313119
 30
0.0
 10
111.3758029235449
 20
-150.4914170630716
 30
0.0
 10
111.3758029235449
 20
-150.5465385908355
 30
0.0
 10
111.3758029235449
 20
-150.6037271758907
 30
0.0
 10
111.4202446553046
 20
-150.6523030222327
 30
0.0
 10
111.4791557881024
 20
-150.6523030222327
 30
0.0
 10
111.5384114304487
 20
-150.6523030222327
 30
0.0
 10
111.5787190476261
 20
-150.6016601185996
 30
0.0
 10
111.5787190476261
 20
-150.5486056481267
 30
0.0
 10
111.5787190476261
 20
-150.4914170630716
 30
0.0
 10
111.5322102585753
 20
-150.4469753313119
 30
0.0
 10
111.4750216735201
 20
-150.4469753313119
 30
0.0
  0
SPLINE
  5
D4
330
C2
100
AcDbEntity
  8
レイヤー 1
100
AcDbSpline
210
0.0
220
0.0
230
1.0
 70
     9
 71
     3
 72
    17
 73
    13
 74
     0
 42
0.0000000001
 43
0.0000000001
 40
0.0
 40
0.0
 40
0.0
 40
0.0
 40
1.0
 40
1.0
 40
1.0
 40
2.0
 40
2.0
 40
2.0
 40
3.0
 40
3.0
 40
3.0
 40
4.0
 40
4.0
 40
4.0
 40
4.0
 10
111.4770887308113
 20
-150.7770154787988
 30
0.0
 10
111.3503092169541
 20
-150.7770154787988
 30
0.0
 10
111.2486789001392
 20
-150.6757296715324
 30
0.0
 10
111.2486789001392
 20
-150.5486056481267
 30
0.0
 10
111.2486789001392
 20
-150.4218261342695
 30
0.0
 10
111.3503092169541
 20
-150.3181287601635
 30
0.0
 10
111.4770887308113
 20
-150.3181287601635
 30
0.0
 10
111.604212754217
 20
-150.3181287601635
 30
0.0
 10
111.707910128323
 20
-150.4218261342695
 30
0.0
 10
111.707910128323
 20
-150.5486056481267
 30
0.0
 10
111.707910128323
 20
-150.6757296715324
 30
0.0
 10
111.604212754217
 20
-150.7770154787988
 30
0.0
 10
111.4770887308113
 20
-150.7770154787988
 30
0.0
  0
SPLINE
  5
D5
330
C2
100
AcDbEntity
  8
レイヤー 1
100
AcDbSpline
210
0.0
220
0.0
230
1.0
 70
     9
 71
     3
 72
    44
 73
    40
 74
     0
 42
0.0000000001
 43
0.0000000001
 40
0.0
 40
0.0
 40
0.0
 40
0.0
 40
1.0
 40
1.0
 40
1.0
 40
2.0
 40
2.0
 40
2.0
 40
3.0
 40
3.0
 40
3.0
 40
4.0
 40
4.0
 40
4.0
 40
5.0
 40
5.0
 40
5.0
 40
6.0
 40
6.0
 40
6.0
 40
7.0
 40
7.0
 40
7.0
 40
8.0
 40
8.0
 40
8.0
 40
9.0
 40
9.0
 40
9.0
 40
10.0
 40
10.0
 40
10.0
 40
11.0
 40
11.0
 40
11.0
 40
12.0
 40
12.0
 40
12.0
 40
13.0
 40
13.0
 40
13.0
 40
13.0
 10
111.2676269253081
 20
-150.9761419978462
 30
0.0
 10
111.1556613220374
 20
-151.3440781956709
 30
0.0
 10
111.1050184184043
 20
-151.5028970975409
 30
0.0
 10
110.9083034661965
 20
-151.752322010673
 30
0.0
 10
110.7239908577356
 20
-151.9831434081848
 30
0.0
 10
110.487312797899
 20
-152.1691785643882
 30
0.0
 10
110.2079155540452
 20
-152.26219614249
 30
0.0
 10
110.2079155540452
 20
-152.26219614249
 30
0.0
 10
110.0153347164198
 20
-152.08236215816
 30
0.0
 10
110.0153347164198
 20
-152.08236215816
 30
0.0
 10
110.6564669862247
 20
-151.9300889377119
 30
0.0
 10
110.9865071337117
 20
-151.373706016844
 30
0.0
 10
111.0498968906403
 20
-150.9337673233777
 30
0.0
 10
111.0498968906403
 20
-150.9337673233777
 30
0.0
 10
110.2840521642692
 20
-150.9337673233777
 30
0.0
 10
110.2840521642692
 20
-150.9337673233777
 30
0.0
 10
110.1910345861675
 20
-150.9337673233777
 30
0.0
 10
110.0070664872552
 20
-150.9379014379599
 30
0.0
 10
109.8503146426763
 20
-150.9568494631288
 30
0.0
 10
109.8503146426763
 20
-150.9568494631288
 30
0.0
 10
109.8503146426763
 20
-150.7370523711699
 30
0.0
 10
109.8503146426763
 20
-150.7370523711699
 30
0.0
 10
109.9371310489046
 20
-150.7580674536299
 30
0.0
 10
110.1889675288763
 20
-150.7580674536299
 30
0.0
 10
110.2881862788515
 20
-150.7580674536299
 30
0.0
 10
110.2881862788515
 20
-150.7580674536299
 30
0.0
 10
110.7198567431533
 20
-150.7580674536299
 30
0.0
 10
110.7198567431533
 20
-150.7580674536299
 30
0.0
 10
110.7622314176219
 20
-150.7580674536299
 30
0.0
 10
110.9968424201674
 20
-150.7560003963388
 30
0.0
 10
111.0350829800537
 20
-150.7497992244653
 30
0.0
 10
111.0774576545223
 20
-150.7432535430433
 30
0.0
 10
111.0795247118134
 20
-150.7411864857522
 30
0.0
 10
111.1408474114509
 20
-150.7008788685748
 30
0.0
 10
111.1408474114509
 20
-150.7008788685748
 30
0.0
 10
111.3289496249455
 20
-150.8555636558625
 30
0.0
 10
111.3289496249455
 20
-150.8555636558625
 30
0.0
 10
111.2996663133209
 20
-150.8851914770356
 30
0.0
 10
111.2848524027343
 20
-150.9168863554999
 30
0.0
 10
111.2676269253081
 20
-150.9761419978462
 30
0.0
  0
HATCH
  5
D6
330
C2
100
AcDbEntity
  8
レイヤー 1
 62
   250
420
  2299925
440
 33554687
100
AcDbHatch
 10
0.0
 20
0.0
 30
0.0
210
0.0
220
0.0
230
1.0
  2
SOLID
 70
     1
 71
     1
 91
        3
 92
        1
 93
        1
 72
     4
 94
        3
 73
     0
 74
     0
 95
       17
 96
       13
 40
0.0
 40
0.0
 40
0.0
 40
0.0
 40
1.0
 40
1.0
 40
1.0
 40
2.0
 40
2.0
 40
2.0
 40
3.0
 40
3.0
 40
3.0
 40
4.0
 40
4.0
 40
4.0
 40
4.0
 10
111.4750216735201
 20
-150.4469753313119
 10
111.4202446553046
 20
-150.4469753313119
 10
111.3758029235449
 20
-150.4914170630716
 10
111.3758029235449
 20
-150.5465385908355
 10
111.3758029235449
 20
-150.6037271758907
 10
111.4202446553046
 20
-150.6523030222327
 10
111.4791557881024
 20
-150.6523030222327
 10
111.5384114304487
 20
-150.6523030222327
 10
111.5787190476261
 20
-150.6016601185996
 10
111.5787190476261
 20
-150.5486056481267
 10
111.5787190476261
 20
-150.4914170630716
 10
111.5322102585753
 20
-150.4469753313119
 10
111.4750216735201
 20
-150.4469753313119
 97
        0
 97
        1
330
D3
 92
        1
 93
        1
 72
     4
 94
        3
 73
     0
 74
     0
 95
       17
 96
       13
 40
0.0
 40
0.0
 40
0.0
 40
0.0
 40
1.0
 40
1.0
 40
1.0
 40
2.0
 40
2.0
 40
2.0
 40
3.0
 40
3.0
 40
3.0
 40
4.0
 40
4.0
 40
4.0
 40
4.0
 10
111.4770887308113
 20
-150.7770154787988
 10
111.3503092169541
 20
-150.7770154787988
 10
111.2486789001392
 20
-150.6757296715324
 10
111.2486789001392
 20
-150.5486056481267
 10
111.2486789001392
 20
-150.4218261342695
 10
111.3503092169541
 20
-150.3181287601635
 10
111.4770887308113
 20
-150.3181287601635
 10
111.604212754217
 20
-150.3181287601635
 10
111.707910128323
 20
-150.4218261342695
 10
111.707910128323
 20
-150.5486056481267
 10
111.707910128323
 20
-150.6757296715324
 10
111.604212754217
 20
-150.7770154787988
 10
111.4770887308113
 20
-150.7770154787988
 97
        0
 97
        1
330
D4
 92
        1
 93
        1
 72
     4
 94
        3
 73
     0
 74
     0
 95
       44
 96
       40
 40
0.0
 40
0.0
 40
0.0
 40
0.0
 40
1.0
 40
1.0
 40
1.0
 40
2.0
 40
2.0
 40
2.0
 40
3.0
 40
3.0
 40
3.0
 40
4.0
 40
4.0
 40
4.0
 40
5.0
 40
5.0
 40
5.0
 40
6.0
 40
6.0
 40
6.0
 40
7.0
 40
7.0
 40
7.0
 40
8.0
 40
8.0
 40
8.0
 40
9.0
 40
9.0
 40
9.0
 40
10.0
 40
10.0
 40
10.0
 40
11.0
 40
11.0
 40
11.0
 40
12.0
 40
12.0
 40
12.0
 40
13.0
 40
13.0
 40
13.0
 40
13.0
 10
111.2676269253081
 20
-150.9761419978462
 10
111.1556613220374
 20
-151.3440781956709
 10
111.1050184184043
 20
-151.5028970975409
 10
110.9083034661965
 20
-151.752322010673
 10
110.7239908577356
 20
-151.9831434081848
 10
110.487312797899
 20
-152.1691785643882
 10
110.2079155540452
 20
-152.26219614249
 10
110.2079155540452
 20
-152.26219614249
 10
110.0153347164198
 20
-152.08236215816
 10
110.0153347164198
 20
-152.08236215816
 10
110.6564669862247
 20
-151.9300889377119
 10
110.9865071337117
 20
-151.373706016844
 10
111.0498968906403
 20
-150.9337673233777
 10
111.0498968906403
 20
-150.9337673233777
 10
110.2840521642692
 20
-150.9337673233777
 10
110.2840521642692
 20
-150.9337673233777
 10
110.1910345861675
 20
-150.9337673233777
 10
110.0070664872552
 20
-150.9379014379599
 10
109.8503146426763
 20
-150.9568494631288
 10
109.8503146426763
 20
-150.9568494631288
 10
109.8503146426763
 20
-150.7370523711699
 10
109.8503146426763
 20
-150.7370523711699
 10
109.9371310489046
 20
-150.7580674536299
 10
110.1889675288763
 20
-150.7580674536299
 10
110.2881862788515
 20
-150.7580674536299
 10
110.2881862788515
 20
-150.7580674536299
 10
110.7198567431533
 20
-150.7580674536299
 10
110.7198567431533
 20
-150.7580674536299
 10
110.7622314176219
 20
-150.7580674536299
 10
110.9968424201674
 20
-150.7560003963388
 10
111.0350829800537
 20
-150.7497992244653
 10
111.0774576545223
 20
-150.7432535430433
 10
111.0795247118134
 20
-150.7411864857522
 10
111.1408474114509
 20
-150.7008788685748
 10
111.1408474114509
 20
-150.7008788685748
 10
111.3289496249455
 20
-150.8555636558625
 10
111.3289496249455
 20
-150.8555636558625
 10
111.2996663133209
 20
-150.8851914770356
 10
111.2848524027343
 20
-150.9168863554999
 10
111.2676269253081
 20
-150.9761419978462
 97
        0
 97
        1
330
D5
 75
     2
 76
     1
 98
        1
 10
0.0
 20
0.0
450
        0
451
        0
460
0.0
461
0.0
452
        0
462
0.0
453
        0
470

  0
SPLINE
  5
D7
330
C2
100
AcDbEntity
  8
レイヤー 1
100
AcDbSpline
210
0.0
220
0.0
230
1.0
 70
     9
 71
     3
 72
    29
 73
    25
 74
     0
 42
0.0000000001
 43
0.0000000001
 40
0.0
 40
0.0
 40
0.0
 40
0.0
 40
1.0
 40
1.0
 40
1.0
 40
2.0
 40
2.0
 40
2.0
 40
3.0
 40
3.0
 40
3.0
 40
4.0
 40
4.0
 40
4.0
 40
5.0
 40
5.0
 40
5.0
 40
6.0
 40
6.0
 40
6.0
 40
7.0
 40
7.0
 40
7.0
 40
8.0
 40
8.0
 40
8.0
 40
8.0
 10
112.7793348242357
 20
-150.6588487036547
 30
0.0
 10
112.7793348242357
 20
-150.6588487036547
 30
0.0
 10
112.4386148807445
 20
-150.6588487036547
 30
0.0
 10
112.4386148807445
 20
-150.6588487036547
 30
0.0
 10
112.3245822201827
 20
-150.6588487036547
 30
0.0
 10
112.2081379927813
 20
-150.662982818237
 30
0.0
 10
112.093760822671
 20
-150.6777967288236
 30
0.0
 10
112.093760822671
 20
-150.6777967288236
 30
0.0
 10
112.093760822671
 20
-150.4683349233204
 30
0.0
 10
112.093760822671
 20
-150.4683349233204
 30
0.0
 10
112.2122721073636
 20
-150.483148833907
 30
0.0
 10
112.3859049198202
 20
-150.4872829484893
 30
0.0
 10
112.4386148807445
 20
-150.4872829484893
 30
0.0
 10
112.4386148807445
 20
-150.4872829484893
 30
0.0
 10
112.7793348242357
 20
-150.4872829484893
 30
0.0
 10
112.7793348242357
 20
-150.4872829484893
 30
0.0
 10
112.8957790516372
 20
-150.4872829484893
 30
0.0
 10
113.0118787694901
 20
-150.483148833907
 30
0.0
 10
113.1283229968915
 20
-150.4683349233204
 30
0.0
 10
113.1283229968915
 20
-150.4683349233204
 30
0.0
 10
113.1283229968915
 20
-150.6777967288236
 30
0.0
 10
113.1283229968915
 20
-150.6777967288236
 30
0.0
 10
112.9781168337346
 20
-150.6588487036547
 30
0.0
 10
112.7941487348223
 20
-150.6588487036547
 30
0.0
 10
112.7793348242357
 20
-150.6588487036547
 30
0.0
  0
SPLINE
  5
D8
330
C2
100
AcDbEntity
  8
レイヤー 1
100
AcDbSpline
210
0.0
220
0.0
230
1.0
 70
     9
 71
     3
 72
    50
 73
    46
 74
     0
 42
0.0000000001
 43
0.0000000001
 40
0.0
 40
0.0
 40
0.0
 40
0.0
 40
1.0
 40
1.0
 40
1.0
 40
2.0
 40
2.0
 40
2.0
 40
3.0
 40
3.0
 40
3.0
 40
4.0
 40
4.0
 40
4.0
 40
5.0
 40
5.0
 40
5.0
 40
6.0
 40
6.0
 40
6.0
 40
7.0
 40
7.0
 40
7.0
 40
8.0
 40
8.0
 40
8.0
 40
9.0
 40
9.0
 40
9.0
 40
10.0
 40
10.0
 40
10.0
 40
11.0
 40
11.0
 40
11.0
 40
12.0
 40
12.0
 40
12.0
 40
13.0
 40
13.0
 40
13.0
 40
14.0
 40
14.0
 40
14.0
 40
15.0
 40
15.0
 40
15.0
 40
15.0
 10
113.272327988175
 20
-151.2848225533246
 30
0.0
 10
113.1937798111113
 20
-151.4625894803635
 30
0.0
 10
113.0583875585409
 20
-151.6699842285756
 30
0.0
 10
112.9209282486795
 20
-151.8095105957282
 30
0.0
 10
112.7517740603537
 20
-151.9807318413451
 30
0.0
 10
112.5888210439014
 20
-152.0696153048645
 30
0.0
 10
112.2694606924187
 20
-152.2115532388568
 30
0.0
 10
112.2694606924187
 20
-152.2115532388568
 30
0.0
 10
112.100306504093
 20
-152.0231065158136
 30
0.0
 10
112.100306504093
 20
-152.0231065158136
 30
0.0
 10
112.2863416602964
 20
-152.0000243760625
 30
0.0
 10
112.4575629059134
 20
-151.9132079698342
 30
0.0
 10
112.6101806359099
 20
-151.807443538437
 30
0.0
 10
112.8723524023374
 20
-151.6255424968158
 30
0.0
 10
113.0628661826718
 20
-151.3123833172066
 30
0.0
 10
113.1114420290138
 20
-151.1304822755854
 30
0.0
 10
113.1114420290138
 20
-151.1304822755854
 30
0.0
 10
112.4406819380356
 20
-151.1304822755854
 30
0.0
 10
112.4406819380356
 20
-151.1304822755854
 30
0.0
 10
112.2822075457142
 20
-151.1304822755854
 30
0.0
 10
111.990063448565
 20
-151.13875050475
 30
0.0
 10
111.8377902281169
 20
-151.1559759821763
 30
0.0
 10
111.8377902281169
 20
-151.1559759821763
 30
0.0
 10
111.8377902281169
 20
-150.9272216419557
 30
0.0
 10
111.8377902281169
 20
-150.9272216419557
 30
0.0
 10
111.8718966734209
 20
-150.9337673233777
 30
0.0
 10
111.8970458704632
 20
-150.9399684952511
 30
0.0
 10
111.9501003409361
 20
-150.9441026098334
 30
0.0
 10
112.0513861482024
 20
-150.9506482912554
 30
0.0
 10
112.2484456099587
 20
-150.9527153485465
 30
0.0
 10
112.3328504493473
 20
-150.9527153485465
 30
0.0
 10
112.3328504493473
 20
-150.9527153485465
 30
0.0
 10
112.838590466582
 20
-150.9527153485465
 30
0.0
 10
112.838590466582
 20
-150.9527153485465
 30
0.0
 10
112.9061143380929
 20
-150.9527153485465
 30
0.0
 10
113.0521863866675
 20
-150.9485812339642
 30
0.0
 10
113.1135090863049
 20
-150.9420355525423
 30
0.0
 10
113.1855115819467
 20
-150.9337673233777
 30
0.0
 10
113.2130723458287
 20
-150.9189534127911
 30
0.0
 10
113.2468342815841
 20
-150.8955267634914
 30
0.0
 10
113.2468342815841
 20
-150.8955267634914
 30
0.0
 10
113.4118543553276
 20
-151.062613894526
 30
0.0
 10
113.4118543553276
 20
-151.062613894526
 30
0.0
 10
113.341918916977
 20
-151.1304822755854
 30
0.0
 10
113.2954101279261
 20
-151.2341796496914
 30
0.0
 10
113.272327988175
 20
-151.2848225533246
 30
0.0
  0
HATCH
  5
D9
330
C2
100
AcDbEntity
  8
レイヤー 1
 62
   250
420
  2299925
440
 33554687
100
AcDbHatch
 10
0.0
 20
0.0
 30
0.0
210
0.0
220
0.0
230
1.0
  2
SOLID
 70
     1
 71
     1
 91
        2
 92
        1
 93
        1
 72
     4
 94
        3
 73
     0
 74
     0
 95
       29
 96
       25
 40
0.0
 40
0.0
 40
0.0
 40
0.0
 40
1.0
 40
1.0
 40
1.0
 40
2.0
 40
2.0
 40
2.0
 40
3.0
 40
3.0
 40
3.0
 40
4.0
 40
4.0
 40
4.0
 40
5.0
 40
5.0
 40
5.0
 40
6.0
 40
6.0
 40
6.0
 40
7.0
 40
7.0
 40
7.0
 40
8.0
 40
8.0
 40
8.0
 40
8.0
 10
112.7793348242357
 20
-150.6588487036547
 10
112.7793348242357
 20
-150.6588487036547
 10
112.4386148807445
 20
-150.6588487036547
 10
112.4386148807445
 20
-150.6588487036547
 10
112.3245822201827
 20
-150.6588487036547
 10
112.2081379927813
 20
-150.662982818237
 10
112.093760822671
 20
-150.6777967288236
 10
112.093760822671
 20
-150.6777967288236
 10
112.093760822671
 20
-150.4683349233204
 10
112.093760822671
 20
-150.4683349233204
 10
112.2122721073636
 20
-150.483148833907
 10
112.3859049198202
 20
-150.4872829484893
 10
112.4386148807445
 20
-150.4872829484893
 10
112.4386148807445
 20
-150.4872829484893
 10
112.7793348242357
 20
-150.4872829484893
 10
112.7793348242357
 20
-150.4872829484893
 10
112.8957790516372
 20
-150.4872829484893
 10
113.0118787694901
 20
-150.483148833907
 10
113.1283229968915
 20
-150.4683349233204
 10
113.1283229968915
 20
-150.4683349233204
 10
113.1283229968915
 20
-150.6777967288236
 10
113.1283229968915
 20
-150.6777967288236
 10
112.9781168337346
 20
-150.6588487036547
 10
112.7941487348223
 20
-150.6588487036547
 10
112.7793348242357
 20
-150.6588487036547
 97
        0
 97
        1
330
D7
 92
        1
 93
        1
 72
     4
 94
        3
 73
     0
 74
     0
 95
       50
 96
       46
 40
0.0
 40
0.0
 40
0.0
 40
0.0
 40
1.0
 40
1.0
 40
1.0
 40
2.0
 40
2.0
 40
2.0
 40
3.0
 40
3.0
 40
3.0
 40
4.0
 40
4.0
 40
4.0
 40
5.0
 40
5.0
 40
5.0
 40
6.0
 40
6.0
 40
6.0
 40
7.0
 40
7.0
 40
7.0
 40
8.0
 40
8.0
 40
8.0
 40
9.0
 40
9.0
 40
9.0
 40
10.0
 40
10.0
 40
10.0
 40
11.0
 40
11.0
 40
11.0
 40
12.0
 40
12.0
 40
12.0
 40
13.0
 40
13.0
 40
13.0
 40
14.0
 40
14.0
 40
14.0
 40
15.0
 40
15.0
 40
15.0
 40
15.0
 10
113.272327988175
 20
-151.2848225533246
 10
113.1937798111113
 20
-151.4625894803635
 10
113.0583875585409
 20
-151.6699842285756
 10
112.9209282486795
 20
-151.8095105957282
 10
112.7517740603537
 20
-151.9807318413451
 10
112.5888210439014
 20
-152.0696153048645
 10
112.2694606924187
 20
-152.2115532388568
 10
112.2694606924187
 20
-152.2115532388568
 10
112.100306504093
 20
-152.0231065158136
 10
112.100306504093
 20
-152.0231065158136
 10
112.2863416602964
 20
-152.0000243760625
 10
112.4575629059134
 20
-151.9132079698342
 10
112.6101806359099
 20
-151.807443538437
 10
112.8723524023374
 20
-151.6255424968158
 10
113.0628661826718
 20
-151.3123833172066
 10
113.1114420290138
 20
-151.1304822755854
 10
113.1114420290138
 20
-151.1304822755854
 10
112.4406819380356
 20
-151.1304822755854
 10
112.4406819380356
 20
-151.1304822755854
 10
112.2822075457142
 20
-151.1304822755854
 10
111.990063448565
 20
-151.13875050475
 10
111.8377902281169
 20
-151.1559759821763
 10
111.8377902281169
 20
-151.1559759821763
 10
111.8377902281169
 20
-150.9272216419557
 10
111.8377902281169
 20
-150.9272216419557
 10
111.8718966734209
 20
-150.9337673233777
 10
111.8970458704632
 20
-150.9399684952511
 10
111.9501003409361
 20
-150.9441026098334
 10
112.0513861482024
 20
-150.9506482912554
 10
112.2484456099587
 20
-150.9527153485465
 10
112.3328504493473
 20
-150.9527153485465
 10
112.3328504493473
 20
-150.9527153485465
 10
112.838590466582
 20
-150.9527153485465
 10
112.838590466582
 20
-150.9527153485465
 10
112.9061143380929
 20
-150.9527153485465
 10
113.0521863866675
 20
-150.9485812339642
 10
113.1135090863049
 20
-150.9420355525423
 10
113.1855115819467
 20
-150.9337673233777
 10
113.2130723458287
 20
-150.9189534127911
 10
113.2468342815841
 20
-150.8955267634914
 10
113.2468342815841
 20
-150.8955267634914
 10
113.4118543553276
 20
-151.062613894526
 10
113.4118543553276
 20
-151.062613894526
 10
113.341918916977
 20
-151.1304822755854
 10
113.2954101279261
 20
-151.2341796496914
 10
113.272327988175
 20
-151.2848225533246
 97
        0
 97
        1
330
D8
 75
     2
 76
     1
 98
        1
 10
0.0
 20
0.0
450
        0
451
        0
460
0.0
461
0.0
452
        0
462
0.0
453
        0
470

  0
SPLINE
  5
DA
330
C2
100
AcDbEntity
  8
レイヤー 1
100
AcDbSpline
210
0.0
220
0.0
230
1.0
 70
     9
 71
     3
 72
    50
 73
    46
 74
     0
 42
0.0000000001
 43
0.0000000001
 40
0.0
 40
0.0
 40
0.0
 40
0.0
 40
1.0
 40
1.0
 40
1.0
 40
2.0
 40
2.0
 40
2.0
 40
3.0
 40
3.0
 40
3.0
 40
4.0
 40
4.0
 40
4.0
 40
5.0
 40
5.0
 40
5.0
 40
6.0
 40
6.0
 40
6.0
 40
7.0
 40
7.0
 40
7.0
 40
8.0
 40
8.0
 40
8.0
 40
9.0
 40
9.0
 40
9.0
 40
10.0
 40
10.0
 40
10.0
 40
11.0
 40
11.0
 40
11.0
 40
12.0
 40
12.0
 40
12.0
 40
13.0
 40
13.0
 40
13.0
 40
14.0
 40
14.0
 40
14.0
 40
15.0
 40
15.0
 40
15.0
 40
15.0
 10
114.982473387053
 20
-150.6440347930681
 30
0.0
 10
114.7730115815498
 20
-150.8576307131536
 30
0.0
 10
114.7013535954566
 20
-150.9296332087953
 30
0.0
 10
114.5594156614643
 20
-151.0477999839394
 30
0.0
 10
114.5594156614643
 20
-151.0477999839394
 30
0.0
 10
114.5594156614643
 20
-151.6148627008115
 30
0.0
 10
114.5594156614643
 20
-151.6148627008115
 30
0.0
 10
114.5594156614643
 20
-151.7650688639684
 30
0.0
 10
114.5659613428863
 20
-151.7840168891373
 30
0.0
 10
114.5700954574686
 20
-151.9617838161762
 30
0.0
 10
114.5721625147597
 20
-152.0930419541642
 30
0.0
 10
114.5783636866332
 20
-152.1416178005063
 30
0.0
 10
114.5849093680551
 20
-152.2008734428525
 30
0.0
 10
114.5849093680551
 20
-152.2008734428525
 30
0.0
 10
114.3585665946742
 20
-152.2008734428525
 30
0.0
 10
114.3585665946742
 20
-152.2008734428525
 30
0.0
 10
114.3627007092565
 20
-152.1564317110928
 30
0.0
 10
114.3668348238388
 20
-152.1099229220419
 30
0.0
 10
114.3668348238388
 20
-152.1013101833288
 30
0.0
 10
114.3668348238388
 20
-152.0210394585225
 30
0.0
 10
114.3713134479697
 20
-151.6699842285756
 30
0.0
 10
114.3713134479697
 20
-151.5979817329338
 30
0.0
 10
114.3713134479697
 20
-151.5979817329338
 30
0.0
 10
114.3713134479697
 20
-151.1918049752229
 30
0.0
 10
114.3713134479697
 20
-151.1918049752229
 30
0.0
 10
114.1894124063485
 20
-151.3165174317889
 30
0.0
 10
113.9947645114318
 20
-151.4267604873169
 30
0.0
 10
113.7915038778021
 20
-151.5132323839967
 30
0.0
 10
113.7915038778021
 20
-151.5132323839967
 30
0.0
 10
113.5885877537209
 20
-151.3502793675443
 30
0.0
 10
113.5885877537209
 20
-151.3502793675443
 30
0.0
 10
113.7112331529958
 20
-151.3144503744978
 30
0.0
 10
113.9672037475498
 20
-151.2403808215649
 30
0.0
 10
114.3120578056234
 20
-150.9844102270108
 30
0.0
 10
114.527720783
 20
-150.8259358346893
 30
0.0
 10
114.7203016206255
 20
-150.6374891116462
 30
0.0
 10
114.8725748410735
 20
-150.4173475101387
 30
0.0
 10
114.8725748410735
 20
-150.4173475101387
 30
0.0
 10
115.065155678699
 20
-150.5613525014221
 30
0.0
 10
115.065155678699
 20
-150.5613525014221
 30
0.0
 10
115.0779025319944
 20
-150.5720322974264
 30
0.0
 10
115.086170761159
 20
-150.586846208013
 30
0.0
 10
115.086170761159
 20
-150.5995930613084
 30
0.0
 10
115.086170761159
 20
-150.6395561689373
 30
0.0
 10
115.0482747108213
 20
-150.6395561689373
 30
0.0
 10
114.982473387053
 20
-150.6440347930681
 30
0.0
  0
HATCH
  5
DB
330
C2
100
AcDbEntity
  8
レイヤー 1
 62
   250
420
  2299925
440
 33554687
100
AcDbHatch
 10
0.0
 20
0.0
 30
0.0
210
0.0
220
0.0
230
1.0
  2
SOLID
 70
     1
 71
     1
 91
        1
 92
        1
 93
        1
 72
     4
 94
        3
 73
     0
 74
     0
 95
       50
 96
       46
 40
0.0
 40
0.0
 40
0.0
 40
0.0
 40
1.0
 40
1.0
 40
1.0
 40
2.0
 40
2.0
 40
2.0
 40
3.0
 40
3.0
 40
3.0
 40
4.0
 40
4.0
 40
4.0
 40
5.0
 40
5.0
 40
5.0
 40
6.0
 40
6.0
 40
6.0
 40
7.0
 40
7.0
 40
7.0
 40
8.0
 40
8.0
 40
8.0
 40
9.0
 40
9.0
 40
9.0
 40
10.0
 40
10.0
 40
10.0
 40
11.0
 40
11.0
 40
11.0
 40
12.0
 40
12.0
 40
12.0
 40
13.0
 40
13.0
 40
13.0
 40
14.0
 40
14.0
 40
14.0
 40
15.0
 40
15.0
 40
15.0
 40
15.0
 10
114.982473387053
 20
-150.6440347930681
 10
114.7730115815498
 20
-150.8576307131536
 10
114.7013535954566
 20
-150.9296332087953
 10
114.5594156614643
 20
-151.0477999839394
 10
114.5594156614643
 20
-151.0477999839394
 10
114.5594156614643
 20
-151.6148627008115
 10
114.5594156614643
 20
-151.6148627008115
 10
114.5594156614643
 20
-151.7650688639684
 10
114.5659613428863
 20
-151.7840168891373
 10
114.5700954574686
 20
-151.9617838161762
 10
114.5721625147597
 20
-152.0930419541642
 10
114.5783636866332
 20
-152.1416178005063
 10
114.5849093680551
 20
-152.2008734428525
 10
114.5849093680551
 20
-152.2008734428525
 10
114.3585665946742
 20
-152.2008734428525
 10
114.3585665946742
 20
-152.2008734428525
 10
114.3627007092565
 20
-152.1564317110928
 10
114.3668348238388
 20
-152.1099229220419
 10
114.3668348238388
 20
-152.1013101833288
 10
114.3668348238388
 20
-152.0210394585225
 10
114.3713134479697
 20
-151.6699842285756
 10
114.3713134479697
 20
-151.5979817329338
 10
114.3713134479697
 20
-151.5979817329338
 10
114.3713134479697
 20
-151.1918049752229
 10
114.3713134479697
 20
-151.1918049752229
 10
114.1894124063485
 20
-151.3165174317889
 10
113.9947645114318
 20
-151.4267604873169
 10
113.7915038778021
 20
-151.5132323839967
 10
113.7915038778021
 20
-151.5132323839967
 10
113.5885877537209
 20
-151.3502793675443
 10
113.5885877537209
 20
-151.3502793675443
 10
113.7112331529958
 20
-151.3144503744978
 10
113.9672037475498
 20
-151.2403808215649
 10
114.3120578056234
 20
-150.9844102270108
 10
114.527720783
 20
-150.8259358346893
 10
114.7203016206255
 20
-150.6374891116462
 10
114.8725748410735
 20
-150.4173475101387
 10
114.8725748410735
 20
-150.4173475101387
 10
115.065155678699
 20
-150.5613525014221
 10
115.065155678699
 20
-150.5613525014221
 10
115.0779025319944
 20
-150.5720322974264
 10
115.086170761159
 20
-150.586846208013
 10
115.086170761159
 20
-150.5995930613084
 10
115.086170761159
 20
-150.6395561689373
 10
115.0482747108213
 20
-150.6395561689373
 10
114.982473387053
 20
-150.6440347930681
 97
        0
 97
        1
330
DA
 75
     2
 76
     1
 98
        1
 10
0.0
 20
0.0
450
        0
451
        0
460
0.0
461
0.0
452
        0
462
0.0
453
        0
470

  0
SPLINE
  5
DC
330
C2
100
AcDbEntity
  8
レイヤー 1
100
AcDbSpline
210
0.0
220
0.0
230
1.0
 70
     9
 71
     3
 72
    50
 73
    46
 74
     0
 42
0.0000000001
 43
0.0000000001
 40
0.0
 40
0.0
 40
0.0
 40
0.0
 40
1.0
 40
1.0
 40
1.0
 40
2.0
 40
2.0
 40
2.0
 40
3.0
 40
3.0
 40
3.0
 40
4.0
 40
4.0
 40
4.0
 40
5.0
 40
5.0
 40
5.0
 40
6.0
 40
6.0
 40
6.0
 40
7.0
 40
7.0
 40
7.0
 40
8.0
 40
8.0
 40
8.0
 40
9.0
 40
9.0
 40
9.0
 40
10.0
 40
10.0
 40
10.0
 40
11.0
 40
11.0
 40
11.0
 40
12.0
 40
12.0
 40
12.0
 40
13.0
 40
13.0
 40
13.0
 40
14.0
 40
14.0
 40
14.0
 40
15.0
 40
15.0
 40
15.0
 40
15.0
 10
116.6908962381884
 20
-151.1707898927628
 30
0.0
 10
116.6295735385509
 20
-151.2424478788561
 30
0.0
 10
116.369124319866
 20
-151.5597411730476
 30
0.0
 10
116.3122802443594
 20
-151.6234754395247
 30
0.0
 10
116.396685083748
 20
-151.7206271322087
 30
0.0
 10
116.4476724969297
 20
-151.7840168891373
 30
0.0
 10
116.5131293111495
 20
-151.8749674099479
 30
0.0
 10
116.5131293111495
 20
-151.8749674099479
 30
0.0
 10
116.3291612122371
 20
-152.0127712293579
 30
0.0
 10
116.3291612122371
 20
-152.0127712293579
 30
0.0
 10
116.1937689596668
 20
-151.800897857015
 30
0.0
 10
116.0222032045014
 20
-151.5769666504738
 30
0.0
 10
115.7283365596096
 20
-151.3778401314264
 30
0.0
 10
115.7283365596096
 20
-151.3778401314264
 30
0.0
 10
115.8764756654753
 20
-151.2234998536872
 30
0.0
 10
115.8764756654753
 20
-151.2234998536872
 30
0.0
 10
115.9863742114548
 20
-151.3037705784935
 30
0.0
 10
116.0900715855608
 20
-151.3926540420129
 30
0.0
 10
116.1872232782448
 20
-151.4880831869544
 30
0.0
 10
116.2550916593042
 20
-151.4119465767303
 30
0.0
 10
116.4580077833855
 20
-151.1683783259232
 30
0.0
 10
116.5913329786646
 20
-150.9399684952511
 30
0.0
 10
116.5913329786646
 20
-150.9399684952511
 30
0.0
 10
115.9185058303954
 20
-150.9399684952511
 30
0.0
 10
115.9185058303954
 20
-150.9399684952511
 30
0.0
 10
115.7937933738293
 20
-150.9399684952511
 30
0.0
 10
115.5419568938576
 20
-150.9485812339642
 30
0.0
 10
115.3324950883543
 20
-150.95891652042
 30
0.0
 10
115.3324950883543
 20
-150.95891652042
 30
0.0
 10
115.3324950883543
 20
-150.739119428461
 30
0.0
 10
115.3324950883543
 20
-150.739119428461
 30
0.0
 10
115.5168076968152
 20
-150.7580674536299
 30
0.0
 10
115.7217908781876
 20
-150.7622015682122
 30
0.0
 10
115.9102376012308
 20
-150.7622015682122
 30
0.0
 10
115.9102376012308
 20
-150.7622015682122
 30
0.0
 10
116.4135660516258
 20
-150.7622015682122
 30
0.0
 10
116.4135660516258
 20
-150.7622015682122
 30
0.0
 10
116.7522189378258
 20
-150.7622015682122
 30
0.0
 10
116.7966606695855
 20
-150.7473876576256
 30
0.0
 10
116.878998451683
 20
-150.7074245499967
 30
0.0
 10
116.878998451683
 20
-150.7074245499967
 30
0.0
 10
117.0460855827176
 20
-150.8658989423182
 30
0.0
 10
117.0460855827176
 20
-150.8658989423182
 30
0.0
 10
116.8938123622696
 20
-150.9379014379599
 30
0.0
 10
116.7501518805347
 20
-151.1008544544123
 30
0.0
 10
116.6908962381884
 20
-151.1707898927628
 30
0.0
  0
HATCH
  5
DD
330
C2
100
AcDbEntity
  8
レイヤー 1
 62
   250
420
  2299925
440
 33554687
100
AcDbHatch
 10
0.0
 20
0.0
 30
0.0
210
0.0
220
0.0
230
1.0
  2
SOLID
 70
     1
 71
     1
 91
        1
 92
        1
 93
        1
 72
     4
 94
        3
 73
     0
 74
     0
 95
       50
 96
       46
 40
0.0
 40
0.0
 40
0.0
 40
0.0
 40
1.0
 40
1.0
 40
1.0
 40
2.0
 40
2.0
 40
2.0
 40
3.0
 40
3.0
 40
3.0
 40
4.0
 40
4.0
 40
4.0
 40
5.0
 40
5.0
 40
5.0
 40
6.0
 40
6.0
 40
6.0
 40
7.0
 40
7.0
 40
7.0
 40
8.0
 40
8.0
 40
8.0
 40
9.0
 40
9.0
 40
9.0
 40
10.0
 40
10.0
 40
10.0
 40
11.0
 40
11.0
 40
11.0
 40
12.0
 40
12.0
 40
12.0
 40
13.0
 40
13.0
 40
13.0
 40
14.0
 40
14.0
 40
14.0
 40
15.0
 40
15.0
 40
15.0
 40
15.0
 10
116.6908962381884
 20
-151.1707898927628
 10
116.6295735385509
 20
-151.2424478788561
 10
116.369124319866
 20
-151.5597411730476
 10
116.3122802443594
 20
-151.6234754395247
 10
116.396685083748
 20
-151.7206271322087
 10
116.4476724969297
 20
-151.7840168891373
 10
116.5131293111495
 20
-151.8749674099479
 10
116.5131293111495
 20
-151.8749674099479
 10
116.3291612122371
 20
-152.0127712293579
 10
116.3291612122371
 20
-152.0127712293579
 10
116.1937689596668
 20
-151.800897857015
 10
116.0222032045014
 20
-151.5769666504738
 10
115.7283365596096
 20
-151.3778401314264
 10
115.7283365596096
 20
-151.3778401314264
 10
115.8764756654753
 20
-151.2234998536872
 10
115.8764756654753
 20
-151.2234998536872
 10
115.9863742114548
 20
-151.3037705784935
 10
116.0900715855608
 20
-151.3926540420129
 10
116.1872232782448
 20
-151.4880831869544
 10
116.2550916593042
 20
-151.4119465767303
 10
116.4580077833855
 20
-151.1683783259232
 10
116.5913329786646
 20
-150.9399684952511
 10
116.5913329786646
 20
-150.9399684952511
 10
115.9185058303954
 20
-150.9399684952511
 10
115.9185058303954
 20
-150.9399684952511
 10
115.7937933738293
 20
-150.9399684952511
 10
115.5419568938576
 20
-150.9485812339642
 10
115.3324950883543
 20
-150.95891652042
 10
115.3324950883543
 20
-150.95891652042
 10
115.3324950883543
 20
-150.739119428461
 10
115.3324950883543
 20
-150.739119428461
 10
115.5168076968152
 20
-150.7580674536299
 10
115.7217908781876
 20
-150.7622015682122
 10
115.9102376012308
 20
-150.7622015682122
 10
115.9102376012308
 20
-150.7622015682122
 10
116.4135660516258
 20
-150.7622015682122
 10
116.4135660516258
 20
-150.7622015682122
 10
116.7522189378258
 20
-150.7622015682122
 10
116.7966606695855
 20
-150.7473876576256
 10
116.878998451683
 20
-150.7074245499967
 10
116.878998451683
 20
-150.7074245499967
 10
117.0460855827176
 20
-150.8658989423182
 10
117.0460855827176
 20
-150.8658989423182
 10
116.8938123622696
 20
-150.9379014379599
 10
116.7501518805347
 20
-151.1008544544123
 10
116.6908962381884
 20
-151.1707898927628
 97
        0
 97
        1
330
DC
 75
     2
 76
     1
 98
        1
 10
0.0
 20
0.0
450
        0
451
        0
460
0.0
461
0.0
452
        0
462
0.0
453
        0
470

  0
SPLINE
  5
DE
330
C2
100
AcDbEntity
  8
レイヤー 1
100
AcDbSpline
210
0.0
220
0.0
230
1.0
 70
     9
 71
     3
 72
    29
 73
    25
 74
     0
 42
0.0000000001
 43
0.0000000001
 40
0.0
 40
0.0
 40
0.0
 40
0.0
 40
1.0
 40
1.0
 40
1.0
 40
2.0
 40
2.0
 40
2.0
 40
3.0
 40
3.0
 40
3.0
 40
4.0
 40
4.0
 40
4.0
 40
5.0
 40
5.0
 40
5.0
 40
6.0
 40
6.0
 40
6.0
 40
7.0
 40
7.0
 40
7.0
 40
8.0
 40
8.0
 40
8.0
 40
8.0
 10
118.3145697403866
 20
-151.4140136340215
 30
0.0
 10
118.3145697403866
 20
-151.4140136340215
 30
0.0
 10
117.8301893151605
 20
-151.4140136340215
 30
0.0
 10
117.8301893151605
 20
-151.4140136340215
 30
0.0
 10
117.8026285512785
 20
-151.4140136340215
 30
0.0
 10
117.485335257087
 20
-151.4140136340215
 30
0.0
 10
117.2738063942926
 20
-151.4391628310638
 30
0.0
 10
117.2738063942926
 20
-151.4391628310638
 30
0.0
 10
117.2738063942926
 20
-151.2086859431006
 30
0.0
 10
117.2738063942926
 20
-151.2086859431006
 30
0.0
 10
117.4322807866141
 20
-151.2321125924003
 30
0.0
 10
117.6227945669484
 20
-151.2341796496914
 30
0.0
 10
117.8301893151605
 20
-151.2341796496914
 30
0.0
 10
117.8301893151605
 20
-151.2341796496914
 30
0.0
 10
118.3145697403866
 20
-151.2341796496914
 30
0.0
 10
118.3145697403866
 20
-151.2341796496914
 30
0.0
 10
118.5006048965901
 20
-151.2341796496914
 30
0.0
 10
118.6869845623421
 20
-151.2321125924003
 30
0.0
 10
118.8709526612545
 20
-151.2086859431006
 30
0.0
 10
118.8709526612545
 20
-151.2086859431006
 30
0.0
 10
118.8709526612545
 20
-151.4391628310638
 30
0.0
 10
118.8709526612545
 20
-151.4391628310638
 30
0.0
 10
118.6869845623421
 20
-151.4160806913126
 30
0.0
 10
118.4392821969527
 20
-151.4140136340215
 30
0.0
 10
118.3145697403866
 20
-151.4140136340215
 30
0.0
  0
HATCH
  5
DF
330
C2
100
AcDbEntity
  8
レイヤー 1
 62
   250
420
  2299925
440
 33554687
100
AcDbHatch
 10
0.0
 20
0.0
 30
0.0
210
0.0
220
0.0
230
1.0
  2
SOLID
 70
     1
 71
     1
 91
        1
 92
        1
 93
        1
 72
     4
 94
        3
 73
     0
 74
     0
 95
       29
 96
       25
 40
0.0
 40
0.0
 40
0.0
 40
0.0
 40
1.0
 40
1.0
 40
1.0
 40
2.0
 40
2.0
 40
2.0
 40
3.0
 40
3.0
 40
3.0
 40
4.0
 40
4.0
 40
4.0
 40
5.0
 40
5.0
 40
5.0
 40
6.0
 40
6.0
 40
6.0
 40
7.0
 40
7.0
 40
7.0
 40
8.0
 40
8.0
 40
8.0
 40
8.0
 10
118.3145697403866
 20
-151.4140136340215
 10
118.3145697403866
 20
-151.4140136340215
 10
117.8301893151605
 20
-151.4140136340215
 10
117.8301893151605
 20
-151.4140136340215
 10
117.8026285512785
 20
-151.4140136340215
 10
117.485335257087
 20
-151.4140136340215
 10
117.2738063942926
 20
-151.4391628310638
 10
117.2738063942926
 20
-151.4391628310638
 10
117.2738063942926
 20
-151.2086859431006
 10
117.2738063942926
 20
-151.2086859431006
 10
117.4322807866141
 20
-151.2321125924003
 10
117.6227945669484
 20
-151.2341796496914
 10
117.8301893151605
 20
-151.2341796496914
 10
117.8301893151605
 20
-151.2341796496914
 10
118.3145697403866
 20
-151.2341796496914
 10
118.3145697403866
 20
-151.2341796496914
 10
118.5006048965901
 20
-151.2341796496914
 10
118.6869845623421
 20
-151.2321125924003
 10
118.8709526612545
 20
-151.2086859431006
 10
118.8709526612545
 20
-151.2086859431006
 10
118.8709526612545
 20
-151.4391628310638
 10
118.8709526612545
 20
-151.4391628310638
 10
118.6869845623421
 20
-151.4160806913126
 10
118.4392821969527
 20
-151.4140136340215
 10
118.3145697403866
 20
-151.4140136340215
 97
        0
 97
        1
330
DE
 75
     2
 76
     1
 98
        1
 10
0.0
 20
0.0
450
        0
451
        0
460
0.0
461
0.0
452
        0
462
0.0
453
        0
470

  0
ENDBLK
  5
C5
330
C2
100
AcDbEntity
  8
0
100
AcDbBlockEnd
  0
ENDSEC
  0
SECTION
  2
ENTITIES
  0
CIRCLE
  5
79
330
70
100
AcDbEntity
  8
レイヤー 1
 62
    18
420
        0
370
     9
100
AcDbCircle
 10
100.9537952934248
 20
-161.5053763501655
 30
0.0
 40
0.0999066653797365
  0
LINE
  5
7A
330
70
100
AcDbEntity
  8
レイヤー 1
 62
    18
420
        0
370
     9
100
AcDbLine
 10
91.89888914467939
 20
-161.5053764801487
 30
0.0
 11
100.8987943810014
 21
-161.5053764801487
 31
0.0
  0
LINE
  5
7B
330
70
100
AcDbEntity
  8
レイヤー 1
 62
    18
420
        0
370
     9
100
AcDbLine
 10
100.9537631034087
 20
-147.1351303156674
 30
0.0
 11
100.9537631034087
 21
-162.5051531969137
 31
0.0
  0
CIRCLE
  5
7C
330
70
100
AcDbEntity
  8
レイヤー 1
 62
    18
420
        0
370
     9
100
AcDbCircle
 10
91.95379554998806
 20
-161.5053763501655
 30
0.0
 40
0.0999066653798568
  0
LINE
  5
7D
330
70
100
AcDbEntity
  8
レイヤー 1
 62
    18
420
        0
370
     9
100
AcDbLine
 10
91.95376335997158
 20
-158.9820966898129
 30
0.0
 11
91.95376335997158
 21
-162.5051531969137
 31
0.0
  0
INSERT
  5
7F
330
70
100
AcDbEntity
  8
レイヤー 1
100
AcDbBlockReference
  2
Block_0
 10
0.0
 20
0.0
 30
0.0
  0
LINE
  5
85
330
70
100
AcDbEntity
  8
レイヤー 1
 62
    18
420
        0
370
    25
100
AcDbLine
 10
91.54320223342521
 20
-157.4211486736708
 30
0.0
 11
90.94320223357534
 21
-157.4156453395358
 31
0.0
  0
CIRCLE
  5
86
330
70
100
AcDbEntity
  8
レイヤー 1
 62
    18
420
        0
370
     9
100
AcDbCircle
 10
86.94320196268227
 20
-134.4211535645907
 30
0.0
 40
0.0999066653797365
  0
CIRCLE
  5
87
330
70
100
AcDbEntity
  8
レイヤー 1
 62
    18
420
        0
370
     9
100
AcDbCircle
 10
86.94320196268227
 20
-157.4211486736708
 30
0.0
 40
0.0999066653797365
  0
CIRCLE
  5
88
330
70
100
AcDbEntity
  8
レイヤー 1
 62
    18
420
        0
370
     9
100
AcDbCircle
 10
124.9432015971932
 20
-143.9215057073392
 30
0.0
 40
0.0999066641179156
  0
SPLINE
  5
89
330
70
100
AcDbEntity
  8
レイヤー 1
 62
    18
420
        0
370
     9
100
AcDbSpline
210
0.0
220
0.0
230
1.0
 70
     9
 71
     3
 72
    17
 73
    13
 74
     0
 42
0.0000000001
 43
0.0000000001
 40
0.0
 40
0.0
 40
0.0
 40
0.0
 40
1.0
 40
1.0
 40
1.0
 40
2.0
 40
2.0
 40
2.0
 40
3.0
 40
3.0
 40
3.0
 40
4.0
 40
4.0
 40
4.0
 40
4.0
 10
124.9432015971933
 20
-134.5217603063514
 30
0.0
 10
124.9983407624526
 20
-134.5217603063514
 30
0.0
 10
125.0431082613111
 20
-134.4769575297166
 30
0.0
 10
125.0431082613111
 20
-134.421148086696
 30
0.0
 10
125.0431082613111
 20
-134.3660441992129
 30
0.0
 10
124.9983407624526
 20
-134.3212414225782
 30
0.0
 10
124.9432015971933
 20
-134.3212414225782
 30
0.0
 10
124.8880977097096
 20
-134.3212414225782
 30
0.0
 10
124.8432949330748
 20
-134.3660441992129
 30
0.0
 10
124.8432949330748
 20
-134.421148086696
 30
0.0
 10
124.8432949330748
 20
-134.4769575297166
 30
0.0
 10
124.8880977097096
 20
-134.5217603063514
 30
0.0
 10
124.9432015971933
 20
-134.5217603063514
 30
0.0
  0
LINE
  5
8A
330
70
100
AcDbEntity
  8
レイヤー 1
 62
    18
420
        0
370
     9
100
AcDbLine
 10
124.9432015971933
 20
-134.4215007952521
 30
0.0
 11
124.9432015971933
 21
-143.9215007928772
 31
0.0
  0
LINE
  5
8B
330
70
100
AcDbEntity
  8
レイヤー 1
 62
    18
420
        0
370
     9
100
AcDbLine
 10
125.931237699065
 20
-134.4211535592552
 30
0.0
 11
105.9546075082429
 21
-134.4211535592552
 31
0.0
  0
LINE
  5
8C
330
70
100
AcDbEntity
  8
レイヤー 1
 62
    18
420
        0
370
     9
100
AcDbLine
 10
125.9312615719852
 20
-143.9215057073392
 30
0.0
 11
122.8713377611614
 21
-143.9215057073392
 31
0.0
  0
INSERT
  5
8E
330
70
100
AcDbEntity
  8
レイヤー 1
100
AcDbBlockReference
  2
Block_1
 10
0.0
 20
0.0
 30
0.0
  0
LINE
  5
9C
330
70
100
AcDbEntity
  8
レイヤー 1
 62
    18
420
        0
370
     9
100
AcDbLine
 10
86.94320196268227
 20
-134.4211486539486
 30
0.0
 11
86.94320196268227
 21
-157.4211486481992
 31
0.0
  0
LINE
  5
9D
330
70
100
AcDbEntity
  8
レイヤー 1
 62
    18
420
        0
370
     9
100
AcDbLine
 10
85.65334057411597
 20
-134.4211535219562
 30
0.0
 11
90.01346223969271
 21
-134.4211535219562
 31
0.0
  0
LINE
  5
9E
330
70
100
AcDbEntity
  8
レイヤー 1
 62
    18
420
        0
370
     9
100
AcDbLine
 10
85.65334057411597
 20
-157.4211486736708
 30
0.0
 11
90.01346223969271
 21
-157.4211486736708
 31
0.0
  0
INSERT
  5
A0
330
70
100
AcDbEntity
  8
レイヤー 1
100
AcDbBlockReference
  2
Block_3
 10
0.0
 20
0.0
 30
0.0
  0
LINE
  5
AB
330
70
100
AcDbEntity
  8
レイヤー 1
 62
    18
420
        0
370
     9
100
AcDbLine
 10
100.8987952997903
 20
-161.5053763501655
 30
0.0
 11
120.8966468219774
 21
-161.5053763501655
 31
0.0
  0
CIRCLE
  5
AC
330
70
100
AcDbEntity
  8
レイヤー 1
 62
    18
420
        0
370
     9
100
AcDbCircle
 10
120.9432671199211
 20
-161.5106301444361
 30
0.0
 40
0.0999066653798167
  0
LINE
  5
AD
330
70
100
AcDbEntity
  8
レイヤー 1
 62
    18
420
        0
370
     9
100
AcDbLine
 10
120.943170944183
 20
-145.9838381547503
 30
0.0
 11
120.9432017698994
 21
-162.5104212848764
 31
0.0
  0
INSERT
  5
AF
330
70
100
AcDbEntity
  8
レイヤー 1
100
AcDbBlockReference
  2
Block_5
 10
0.0
 20
0.0
 30
0.0
  0
LWPOLYLINE
  5
BB
330
70
100
AcDbEntity
  8
レイヤー 1
  6
AI-Linetype-0
 62
   154
420
    23468
370
    25
100
AcDbPolyline
 90
        5
 70
     0
 43
0.0
 10
120.9432016108453
 20
-145.1811586055289
 10
100.2840291472187
 20
-145.5811586054288
 10
100.283170981348
 20
-136.0811570829324
 10
92.59924229096665
 20
-136.0811570829324
 10
92.14317660076448
 20
-157.4848973640035
  0
LINE
  5
BD
330
70
100
AcDbEntity
  8
レイヤー 1
 62
   250
420
  2299925
370
     9
100
AcDbLine
 10
110.5957601294715
 20
-145.7534154538657
 30
0.0
 11
110.5957601294715
 21
-150.1358261494534
 31
0.0
  0
INSERT
  5
BF
330
70
100
AcDbEntity
  8
レイヤー 1
100
AcDbBlockReference
  2
Block_7
 10
0.0
 20
0.0
 30
0.0
  0
LWPOLYLINE
  5
E0
330
70
100
AcDbEntity
  8
レイヤー 1
 62
    18
420
        0
370
    25
100
AcDbPolyline
 90
       16
 70
     1
 43
0.0
 10
101.9431985638378
 20
-143.9211550454601
 10
101.9431985638378
 20
-135.4211570820903
 10
101.9431985638378
 20
-134.4211535219562
 10
100.9431950037034
 20
-134.4211535219562
 10
91.94320602619027
 20
-134.4211535219562
 10
90.94320246605585
 20
-134.4211535219562
 10
90.94320246605585
 20
-135.4211570820903
 10
90.94320246605585
 20
-157.4211492776533
 10
91.54320602629038
 20
-157.4211492776533
 10
91.94320602619027
 20
-135.4211570820903
 10
100.9431950037034
 20
-135.4211570820903
 10
100.9431950037034
 20
-143.9211550454601
 10
100.9431950037034
 20
-144.9211586055942
 10
101.9431985638378
 20
-144.9211586055942
 10
120.9432016108453
 20
-144.5211586056946
 10
120.9432016108453
 20
-143.9211550454601
  0
ENDSEC
  0
SECTION
  2
OBJECTS
  0
DICTIONARY
  5
C
330
0
100
AcDbDictionary
281
     1
  3
ACAD_COLOR
350
63
  3
ACAD_DETAILVIEWSTYLE
350
6A
  3
ACAD_GROUP
350
D
  3
ACAD_LAYOUT
350
62
  3
ACAD_MATERIAL
350
10
  3
ACAD_MLEADERSTYLE
350
66
  3
ACAD_MLINESTYLE
350
5F
  3
ACAD_PLOTSETTINGS
350
61
  3
ACAD_PLOTSTYLENAME
350
E
  3
ACAD_SCALELIST
350
42
  3
ACAD_SECTIONVIEWSTYLE
350
68
  3
ACAD_TABLESTYLE
350
64
  3
ACAD_VISUALSTYLE
350
29
  3
ACDB_RECOMPOSE_DATA
350
E9
  3
AcDbVariableDictionary
350
E1
  0
DICTIONARY
  5
63
102
{ACAD_REACTORS
330
C
102
}
330
C
100
AcDbDictionary
281
     1
  0
DICTIONARY
  5
6A
102
{ACAD_REACTORS
330
C
102
}
330
C
100
AcDbDictionary
281
     1
  3
Imperial24
350
6B
  0
DICTIONARY
  5
D
102
{ACAD_REACTORS
330
C
102
}
330
C
100
AcDbDictionary
281
     1
  0
DICTIONARY
  5
62
102
{ACAD_REACTORS
330
C
102
}
330
C
100
AcDbDictionary
281
     1
  3
Layout1
350
6F
  3
Layout2
350
77
  3
Model
350
73
  0
DICTIONARY
  5
10
102
{ACAD_REACTORS
330
C
102
}
330
C
100
AcDbDictionary
281
     1
  3
ByBlock
350
19
  3
ByLayer
350
11
  3
Global
350
21
  0
DICTIONARY
  5
66
102
{ACAD_REACTORS
330
C
102
}
330
C
100
AcDbDictionary
281
     1
  3
Standard
350
67
  0
DICTIONARY
  5
5F
102
{ACAD_REACTORS
330
C
102
}
330
C
100
AcDbDictionary
281
     1
  3
Standard
350
60
  0
DICTIONARY
  5
61
102
{ACAD_REACTORS
330
C
102
}
330
C
100
AcDbDictionary
281
     1
  0
ACDBDICTIONARYWDFLT
  5
E
102
{ACAD_REACTORS
330
C
102
}
330
C
100
AcDbDictionary
281
     1
  3
Normal
350
F
100
AcDbDictionaryWithDefault
340
F
  0
DICTIONARY
  5
42
102
{ACAD_REACTORS
330
C
102
}
330
C
100
AcDbDictionary
281
     1
  3
A0
350
43
  3
A1
350
44
  3
A2
350
45
  3
A3
350
46
  3
A4
350
47
  3
A5
350
48
  3
A6
350
49
  3
A7
350
4A
  3
A8
350
4B
  3
A9
350
4C
  3
B0
350
4D
  3
B1
350
4E
  3
B2
350
4F
  3
B3
350
50
  3
B4
350
51
  3
B5
350
52
  3
B6
350
53
  0
DICTIONARY
  5
68
102
{ACAD_REACTORS
330
C
102
}
330
C
100
AcDbDictionary
281
     1
  3
Imperial24
350
69
  0
DICTIONARY
  5
64
102
{ACAD_REACTORS
330
C
102
}
330
C
100
AcDbDictionary
281
     1
  3
Standard
350
65
  0
DICTIONARY
  5
29
102
{ACAD_REACTORS
330
C
102
}
330
C
100
AcDbDictionary
281
     1
  3
2dWireframe
350
2F
  3
Basic
350
2E
  3
Brighten
350
35
  3
ColorChange
350
39
  3
Conceptual
350
32
  3
Dim
350
34
  3
EdgeColorOff
350
41
  3
Facepattern
350
38
  3
Flat
350
2A
  3
FlatWithEdges
350
2B
  3
Gouraud
350
2C
  3
GouraudWithEdges
350
2D
  3
Hidden
350
31
  3
JitterOff
350
3F
  3
Linepattern
350
37
  3
OverhangOff
350
40
  3
Realistic
350
33
  3
Shaded
350
3E
  3
Shaded with edges
350
3D
  3
Shades of Gray
350
3A
  3
Sketchy
350
3B
  3
Thicken
350
36
  3
Wireframe
350
30
  3
X-Ray
350
3C
  0
XRECORD
  5
E9
102
{ACAD_REACTORS
330
C
102
}
330
C
100
AcDbXrecord
280
     1
 90
        1
330
65
  0
DICTIONARY
  5
E1
102
{ACAD_REACTORS
330
C
102
}
330
C
100
AcDbDictionary
281
     1
  3
CANNOSCALE
350
E6
  3
CMLEADERSTYLE
350
E3
  3
CTABLESTYLE
350
E2
  3
CVIEWDETAILSTYLE
350
E4
  3
CVIEWSECTIONSTYLE
350
E5
  0
ACDBDETAILVIEWSTYLE
  5
6B
102
{ACAD_XDICTIONARY
360
11E
102
}
102
{ACAD_REACTORS
330
6A
102
}
330
6A
100
AcDbModelDocViewStyle
 70
     0
  3
Imperial24
290
     0
100
AcDbDetailViewStyle
 70
     0
 71
     0
 90
        3
 71
     1
340
55
 62
   256
 40
0.24
340
0
 62
   256
 40
0.24
300

 40
0.36
280
     3
 71
     2
340
5D
 90
       25
 62
   256
 71
     3
340
55
 62
   256
 40
0.24
 90
        1
 40
0.75
 90
        1
300
%<\AcVar ViewType \f "%tc1">% %<\AcVar ViewDetailId>%\PSCALE %<\AcVar ViewScale \f "%sn">%
 71
     4
340
5D
 90
       25
 62
   256
340
5D
 90
       25
 62
   256
280
     0
  0
LAYOUT
  5
6F
102
{ACAD_REACTORS
330
62
102
}
330
62
100
AcDbPlotSettings
  1

  2

  4

  6

 40
0.0
 41
0.0
 42
0.0
 43
0.0
 44
0.0
 45
0.0
 46
0.0
 47
0.0
 48
0.0
 49
0.0
140
0.0
141
0.0
142
1.0
143
1.0
 70
   688
 72
     0
 73
     0
 74
     5
  7

 75
    16
147
1.0
 76
     0
 77
     2
 78
   300
148
0.0
149
0.0
100
AcDbLayout
  1
Layout1
 70
     1
 71
     1
 10
0.0
 20
0.0
 11
12.0
 21
9.0
 12
0.0
 22
0.0
 32
0.0
 14
0.0
 24
0.0
 34
0.0
 15
0.0
 25
0.0
 35
0.0
146
0.0
 13
0.0
 23
0.0
 33
0.0
 16
1.0
 26
0.0
 36
0.0
 17
0.0
 27
1.0
 37
0.0
 76
     0
330
6C
  0
LAYOUT
  5
77
102
{ACAD_REACTORS
330
62
102
}
330
62
100
AcDbPlotSettings
  1

  2

  4

  6

 40
0.0
 41
0.0
 42
0.0
 43
0.0
 44
0.0
 45
0.0
 46
0.0
 47
0.0
 48
0.0
 49
0.0
140
0.0
141
0.0
142
1.0
143
1.0
 70
   688
 72
     0
 73
     0
 74
     5
  7

 75
    16
147
1.0
 76
     0
 77
     2
 78
   300
148
0.0
149
0.0
100
AcDbLayout
  1
Layout2
 70
     1
 71
     2
 10
0.0
 20
0.0
 11
12.0
 21
9.0
 12
0.0
 22
0.0
 32
0.0
 14
0.0
 24
0.0
 34
0.0
 15
0.0
 25
0.0
 35
0.0
146
0.0
 13
0.0
 23
0.0
 33
0.0
 16
1.0
 26
0.0
 36
0.0
 17
0.0
 27
1.0
 37
0.0
 76
     0
330
74
  0
LAYOUT
  5
73
102
{ACAD_REACTORS
330
62
102
}
330
62
100
AcDbPlotSettings
  1

  2

  4

  6

 40
0.0
 41
0.0
 42
0.0
 43
0.0
 44
0.0
 45
0.0
 46
0.0
 47
0.0
 48
0.0
 49
0.0
140
0.0
141
0.0
142
1.0
143
1.0
 70
  1712
 72
     0
 73
     0
 74
     0
  7

 75
     0
147
1.0
 76
     0
 77
     2
 78
   300
148
0.0
149
0.0
100
AcDbLayout
  1
Model
 70
     1
 71
     0
 10
0.0
 20
0.0
 11
12.0
 21
9.0
 12
0.0
 22
0.0
 32
0.0
 14
0.0
 24
0.0
 34
0.0
 15
0.0
 25
0.0
 35
0.0
146
0.0
 13
0.0
 23
0.0
 33
0.0
 16
1.0
 26
0.0
 36
0.0
 17
0.0
 27
1.0
 37
0.0
 76
     0
330
70
  0
MATERIAL
  5
19
102
{ACAD_XDICTIONARY
360
1A
102
}
102
{ACAD_REACTORS
330
10
102
}
330
10
100
AcDbMaterial
  1
ByBlock
 72
     0
 43
0.0208333333333333
 43
0.0
 43
0.0
 43
0.0
 43
0.0
 43
0.0208333333333333
 43
0.0
 43
0.0
 43
0.0
 43
0.0
 43
1.0
 43
0.0
 43
0.0
 43
0.0
 43
0.0
 43
1.0
 77
     0
 47
0.0208333333333333
 47
0.0
 47
0.0
 47
0.0
 47
0.0
 47
0.0208333333333333
 47
0.0
 47
0.0
 47
0.0
 47
0.0
 47
1.0
 47
0.0
 47
0.0
 47
0.0
 47
0.0
 47
1.0
171
     0
 49
0.0208333333333333
 49
0.0
 49
0.0
 49
0.0
 49
0.0
 49
0.0208333333333333
 49
0.0
 49
0.0
 49
0.0
 49
0.0
 49
1.0
 49
0.0
 49
0.0
 49
0.0
 49
0.0
 49
1.0
175
     0
142
0.0208333333333333
142
0.0
142
0.0
142
0.0
142
0.0
142
0.0208333333333333
142
0.0
142
0.0
142
0.0
142
0.0
142
1.0
142
0.0
142
0.0
142
0.0
142
0.0
142
1.0
179
     0
144
0.0208333333333333
144
0.0
144
0.0
144
0.0
144
0.0
144
0.0208333333333333
144
0.0
144
0.0
144
0.0
144
0.0
144
1.0
144
0.0
144
0.0
144
0.0
144
0.0
144
1.0
147
0.0208333333333333
147
0.0
147
0.0
147
0.0
147
0.0
147
0.0208333333333333
147
0.0
147
0.0
147
0.0
147
0.0
147
1.0
147
0.0
147
0.0
147
0.0
147
0.0
147
1.0
  0
MATERIAL
  5
11
102
{ACAD_XDICTIONARY
360
12
102
}
102
{ACAD_REACTORS
330
10
102
}
330
10
100
AcDbMaterial
  1
ByLayer
 72
     0
 43
0.0208333333333333
 43
0.0
 43
0.0
 43
0.0
 43
0.0
 43
0.0208333333333333
 43
0.0
 43
0.0
 43
0.0
 43
0.0
 43
1.0
 43
0.0
 43
0.0
 43
0.0
 43
0.0
 43
1.0
 77
     0
 47
0.0208333333333333
 47
0.0
 47
0.0
 47
0.0
 47
0.0
 47
0.0208333333333333
 47
0.0
 47
0.0
 47
0.0
 47
0.0
 47
1.0
 47
0.0
 47
0.0
 47
0.0
 47
0.0
 47
1.0
171
     0
 49
0.0208333333333333
 49
0.0
 49
0.0
 49
0.0
 49
0.0
 49
0.0208333333333333
 49
0.0
 49
0.0
 49
0.0
 49
0.0
 49
1.0
 49
0.0
 49
0.0
 49
0.0
 49
0.0
 49
1.0
175
     0
142
0.0208333333333333
142
0.0
142
0.0
142
0.0
142
0.0
142
0.0208333333333333
142
0.0
142
0.0
142
0.0
142
0.0
142
1.0
142
0.0
142
0.0
142
0.0
142
0.0
142
1.0
179
     0
144
0.0208333333333333
144
0.0
144
0.0
144
0.0
144
0.0
144
0.0208333333333333
144
0.0
144
0.0
144
0.0
144
0.0
144
1.0
144
0.0
144
0.0
144
0.0
144
0.0
144
1.0
147
0.0208333333333333
147
0.0
147
0.0
147
0.0
147
0.0
147
0.0208333333333333
147
0.0
147
0.0
147
0.0
147
0.0
147
1.0
147
0.0
147
0.0
147
0.0
147
0.0
147
1.0
  0
MATERIAL
  5
21
102
{ACAD_XDICTIONARY
360
22
102
}
102
{ACAD_REACTORS
330
10
102
}
330
10
100
AcDbMaterial
  1
Global
 72
     0
 43
0.0208333333333333
 43
0.0
 43
0.0
 43
0.0
 43
0.0
 43
0.0208333333333333
 43
0.0
 43
0.0
 43
0.0
 43
0.0
 43
1.0
 43
0.0
 43
0.0
 43
0.0
 43
0.0
 43
1.0
 77
     0
 47
0.0208333333333333
 47
0.0
 47
0.0
 47
0.0
 47
0.0
 47
0.0208333333333333
 47
0.0
 47
0.0
 47
0.0
 47
0.0
 47
1.0
 47
0.0
 47
0.0
 47
0.0
 47
0.0
 47
1.0
171
     0
 49
0.0208333333333333
 49
0.0
 49
0.0
 49
0.0
 49
0.0
 49
0.0208333333333333
 49
0.0
 49
0.0
 49
0.0
 49
0.0
 49
1.0
 49
0.0
 49
0.0
 49
0.0
 49
0.0
 49
1.0
175
     0
142
0.0208333333333333
142
0.0
142
0.0
142
0.0
142
0.0
142
0.0208333333333333
142
0.0
142
0.0
142
0.0
142
0.0
142
1.0
142
0.0
142
0.0
142
0.0
142
0.0
142
1.0
179
     0
144
0.0208333333333333
144
0.0
144
0.0
144
0.0
144
0.0
144
0.0208333333333333
144
0.0
144
0.0
144
0.0
144
0.0
144
1.0
144
0.0
144
0.0
144
0.0
144
0.0
144
1.0
147
0.0208333333333333
147
0.0
147
0.0
147
0.0
147
0.0
147
0.0208333333333333
147
0.0
147
0.0
147
0.0
147
0.0
147
1.0
147
0.0
147
0.0
147
0.0
147
0.0
147
1.0
  0
MLEADERSTYLE
  5
67
102
{ACAD_XDICTIONARY
360
11A
102
}
102
{ACAD_REACTORS
330
66
102
}
330
66
100
AcDbMLeaderStyle
179
     2
170
     2
171
     1
172
     0
 90
        2
 40
0.0
 41
0.0
173
     1
 91
-1056964608
340
5B
 92
       -2
290
     1
 42
0.09
291
     1
 43
0.36
  3
Standard
 44
0.18
300

342
55
174
     1
178
     6
175
     1
176
     0
 93
-1056964608
 45
0.18
292
     0
297
     0
 46
0.18
 94
-1056964608
 47
1.0
 49
1.0
140
1.0
293
     1
141
0.0
294
     1
177
     0
142
1.0
295
     0
296
     0
143
0.125
271
     0
272
     9
273
     9
  0
MLINESTYLE
  5
60
102
{ACAD_REACTORS
330
5F
102
}
330
5F
100
AcDbMlineStyle
  2
STANDARD
 70
     0
  3

 62
   256
 51
90.0
 52
90.0
 71
     2
 49
0.5
 62
   256
  6
BYLAYER
 49
-0.5
 62
   256
  6
BYLAYER
  0
ACDBPLACEHOLDER
  5
F
102
{ACAD_REACTORS
330
E
102
}
330
E
  0
SCALE
  5
43
102
{ACAD_REACTORS
330
42
102
}
330
42
100
AcDbScale
 70
     0
300
1:1
140
1.0
141
1.0
290
     1
  0
SCALE
  5
44
102
{ACAD_REACTORS
330
42
102
}
330
42
100
AcDbScale
 70
     0
300
1/128" = 1'-0"
140
0.0078125
141
12.0
290
     0
  0
SCALE
  5
45
102
{ACAD_REACTORS
330
42
102
}
330
42
100
AcDbScale
 70
     0
300
1/64" = 1'-0"
140
0.015625
141
12.0
290
     0
  0
SCALE
  5
46
102
{ACAD_REACTORS
330
42
102
}
330
42
100
AcDbScale
 70
     0
300
1/32" = 1'-0"
140
0.03125
141
12.0
290
     0
  0
SCALE
  5
47
102
{ACAD_REACTORS
330
42
102
}
330
42
100
AcDbScale
 70
     0
300
1/16" = 1'-0"
140
0.0625
141
12.0
290
     0
  0
SCALE
  5
48
102
{ACAD_REACTORS
330
42
102
}
330
42
100
AcDbScale
 70
     0
300
3/32" = 1'-0"
140
0.09375
141
12.0
290
     0
  0
SCALE
  5
49
102
{ACAD_REACTORS
330
42
102
}
330
42
100
AcDbScale
 70
     0
300
1/8" = 1'-0"
140
0.125
141
12.0
290
     0
  0
SCALE
  5
4A
102
{ACAD_REACTORS
330
42
102
}
330
42
100
AcDbScale
 70
     0
300
3/16" = 1'-0"
140
0.1875
141
12.0
290
     0
  0
SCALE
  5
4B
102
{ACAD_REACTORS
330
42
102
}
330
42
100
AcDbScale
 70
     0
300
1/4" = 1'-0"
140
0.25
141
12.0
290
     0
  0
SCALE
  5
4C
102
{ACAD_REACTORS
330
42
102
}
330
42
100
AcDbScale
 70
     0
300
3/8" = 1'-0"
140
0.375
141
12.0
290
     0
  0
SCALE
  5
4D
102
{ACAD_REACTORS
330
42
102
}
330
42
100
AcDbScale
 70
     0
300
1/2" = 1'-0"
140
0.5
141
12.0
290
     0
  0
SCALE
  5
4E
102
{ACAD_REACTORS
330
42
102
}
330
42
100
AcDbScale
 70
     0
300
3/4" = 1'-0"
140
0.75
141
12.0
290
     0
  0
SCALE
  5
4F
102
{ACAD_REACTORS
330
42
102
}
330
42
100
AcDbScale
 70
     0
300
1" = 1'-0"
140
1.0
141
12.0
290
     0
  0
SCALE
  5
50
102
{ACAD_REACTORS
330
42
102
}
330
42
100
AcDbScale
 70
     0
300
1-1/2" = 1'-0"
140
1.5
141
12.0
290
     0
  0
SCALE
  5
51
102
{ACAD_REACTORS
330
42
102
}
330
42
100
AcDbScale
 70
     0
300
3" = 1'-0"
140
3.0
141
12.0
290
     0
  0
SCALE
  5
52
102
{ACAD_REACTORS
330
42
102
}
330
42
100
AcDbScale
 70
     0
300
6" = 1'-0"
140
6.0
141
12.0
290
     0
  0
SCALE
  5
53
102
{ACAD_REACTORS
330
42
102
}
330
42
100
AcDbScale
 70
     0
300
1'-0" = 1'-0"
140
12.0
141
12.0
290
     0
  0
ACDBSECTIONVIEWSTYLE
  5
69
102
{ACAD_XDICTIONARY
360
11C
102
}
102
{ACAD_REACTORS
330
68
102
}
330
68
100
AcDbModelDocViewStyle
 70
     0
  3
Imperial24
290
     0
100
AcDbSectionViewStyle
 70
     0
 71
     0
 90
       78
 71
     1
340
55
 62
   256
 40
0.24
340
0
340
0
 62
   256
 40
0.24
300
I, O, Q, S, X, Z
 40
0.48
 90
        3
 40
0.18
 90
        1
 71
     2
340
5D
 90
       25
 62
   256
340
5D
 90
       50
 62
   256
 40
0.24
 40
0.0
 40
0.24
 71
     3
340
55
 62
   256
 40
0.24
 90
        1
 40
0.75
 90
        1
300
%<\AcVar ViewType \f "%tc1">% %<\AcVar ViewSectionStartId>%-%<\AcVar ViewSectionEndId>%\PSCALE %<\AcVar ViewScale \f "%sn">%
 71
     4
 62
   256
 62
   257
300
ANSI31
 40
1.0
 90
        0
290
     0
290
     0
 90
        6
 40
0.0
 40
1.570796326794896
 40
0.2617993877991494
 40
1.308996938995747
 40
-0.2617993877991494
 40
1.832595714594046
  0
TABLESTYLE
  5
65
102
{ACAD_XDICTIONARY
360
E7
102
}
102
{ACAD_REACTORS
330
64
102
}
330
64
100
AcDbTableStyle
280
     0
  3
Standard
 70
     0
 71
     0
 40
0.06
 41
0.06
280
     0
281
     0
  7
Standard
140
0.18
170
     2
 62
     0
 63
     7
283
     0
 90
      512
 91
        0
  1

274
    -2
284
     1
 64
     0
275
    -2
285
     1
 65
     0
276
    -2
286
     1
 66
     0
277
    -2
287
     1
 67
     0
278
    -2
288
     1
 68
     0
279
    -2
289
     1
 69
     0
  7
Standard
140
0.25
170
     5
 62
     0
 63
     7
283
     0
 90
      512
 91
        0
  1

274
    -2
284
     1
 64
     0
275
    -2
285
     1
 65
     0
276
    -2
286
     1
 66
     0
277
    -2
287
     1
 67
     0
278
    -2
288
     1
 68
     0
279
    -2
289
     1
 69
     0
  7
Standard
140
0.18
170
     5
 62
     0
 63
     7
283
     0
 90
      512
 91
        0
  1

274
    -2
284
     1
 64
     0
275
    -2
285
     1
 65
     0
276
    -2
286
     1
 66
     0
277
    -2
287
     1
 67
     0
278
    -2
288
     1
 68
     0
279
    -2
289
     1
 69
     0
  0
VISUALSTYLE
  5
2F
102
{ACAD_XDICTIONARY
360
F4
102
}
102
{ACAD_REACTORS
330
29
102
}
330
29
100
AcDbVisualStyle
  2
2dWireframe
 70
     4
177
     2
291
     0
 71
     0
176
     1
 72
     2
176
     1
 73
     0
176
     1
 90
        0
176
     1
 40
0.6
176
     1
 41
30.0
176
     1
 63
     7
421
 16777215
176
     1
 74
     1
176
     1
 91
        4
176
     1
 64
     7
176
     1
 65
   257
176
     1
 75
     1
176
     1
175
     1
176
     1
 42
1.0
176
     1
 92
        0
176
     1
 66
   257
176
     1
 43
1.0
176
     1
 76
     1
176
     1
 77
     6
176
     1
 78
     2
176
     1
 67
     7
176
     1
 79
     5
176
     1
170
     0
176
     1
171
     0
176
     1
290
     0
176
     1
 93
        1
176
     1
 44
0.0
176
     1
173
     0
176
     1
1001
ACAD
1000
AcDbSavedByObjectVersion
1070
     0
  0
VISUALSTYLE
  5
2E
102
{ACAD_XDICTIONARY
360
F2
102
}
102
{ACAD_REACTORS
330
29
102
}
330
29
100
AcDbVisualStyle
  2
Basic
 70
     7
177
     2
291
     1
 71
     1
176
     1
 72
     0
176
     1
 73
     1
176
     1
 90
        0
176
     1
 40
0.6
176
     1
 41
30.0
176
     1
 63
     7
421
 16777215
176
     1
 74
     0
176
     1
 91
        4
176
     1
 64
     7
176
     1
 65
   257
176
     1
 75
     1
176
     1
175
     1
176
     1
 42
1.0
176
     1
 92
        8
176
     1
 66
     7
176
     1
 43
1.0
176
     1
 76
     1
176
     1
 77
     6
176
     1
 78
     2
176
     1
 67
     7
176
     1
 79
     5
176
     1
170
     0
176
     1
171
     0
176
     1
290
     0
176
     1
 93
        1
176
     1
 44
0.0
176
     1
173
     0
176
     1
1001
ACAD
1000
AcDbSavedByObjectVersion
1070
     0
  0
VISUALSTYLE
  5
35
102
{ACAD_XDICTIONARY
360
100
102
}
102
{ACAD_REACTORS
330
29
102
}
330
29
100
AcDbVisualStyle
  2
Brighten
 70
    12
177
     2
291
     1
 71
     2
176
     1
 72
     2
176
     1
 73
     0
176
     1
 90
        0
176
     1
 40
0.6
176
     1
 41
30.0
176
     1
 63
     7
421
 16777215
176
     1
 74
     1
176
     1
 91
        4
176
     1
 64
     7
176
     1
 65
   257
176
     1
 75
     1
176
     1
175
     1
176
     1
 42
1.0
176
     1
 92
        8
176
     1
 66
     7
176
     1
 43
1.0
176
     1
 76
     1
176
     1
 77
     6
176
     1
 78
     2
176
     1
 67
     7
176
     1
 79
     5
176
     1
170
     0
176
     1
171
     0
176
     1
290
     0
176
     1
 93
        1
176
     1
 44
50.0
176
     1
173
     0
176
     1
1001
ACAD
1000
AcDbSavedByObjectVersion
1070
     0
  0
VISUALSTYLE
  5
39
102
{ACAD_XDICTIONARY
360
108
102
}
102
{ACAD_REACTORS
330
29
102
}
330
29
100
AcDbVisualStyle
  2
ColorChange
 70
    16
177
     2
291
     1
 71
     2
176
     1
 72
     2
176
     1
 73
     3
176
     1
 90
        0
176
     1
 40
0.6
176
     1
 41
30.0
176
     1
 63
     8
421
  8421504
176
     1
 74
     1
176
     1
 91
        4
176
     1
 64
     7
176
     1
 65
   257
176
     1
 75
     1
176
     1
175
     1
176
     1
 42
1.0
176
     1
 92
        8
176
     1
 66
     8
424
  8421504
176
     1
 43
1.0
176
     1
 76
     1
176
     1
 77
     6
176
     1
 78
     2
176
     1
 67
     7
176
     1
 79
     5
176
     1
170
     0
176
     1
171
     0
176
     1
290
     0
176
     1
 93
        1
176
     1
 44
0.0
176
     1
173
     0
176
     1
1001
ACAD
1000
AcDbSavedByObjectVersion
1070
     0
  0
VISUALSTYLE
  5
32
102
{ACAD_XDICTIONARY
360
FA
102
}
102
{ACAD_REACTORS
330
29
102
}
330
29
100
AcDbVisualStyle
  2
Conceptual
 70
     9
177
     2
291
     0
 71
     3
176
     1
 72
     2
176
     1
 73
     0
176
     1
 90
        0
176
     1
 40
0.6
176
     1
 41
30.0
176
     1
 63
     7
421
 16777215
176
     1
 74
     2
176
     1
 91
        2
176
     1
 64
     7
176
     1
 65
   257
176
     1
 75
     1
176
     1
175
     1
176
     1
 42
179.0
176
     1
 92
        8
176
     1
 66
     7
176
     1
 43
1.0
176
     1
 76
     1
176
     1
 77
     6
176
     1
 78
     2
176
     1
 67
     7
176
     1
 79
     3
176
     1
170
     0
176
     1
171
     0
176
     1
290
     0
176
     1
 93
        1
176
     1
 44
0.0
176
     1
173
     0
176
     1
1001
ACAD
1000
AcDbSavedByObjectVersion
1070
     0
  0
VISUALSTYLE
  5
34
102
{ACAD_XDICTIONARY
360
FE
102
}
102
{ACAD_REACTORS
330
29
102
}
330
29
100
AcDbVisualStyle
  2
Dim
 70
    11
177
     2
291
     1
 71
     2
176
     1
 72
     2
176
     1
 73
     0
176
     1
 90
        0
176
     1
 40
0.6
176
     1
 41
30.0
176
     1
 63
     7
421
 16777215
176
     1
 74
     1
176
     1
 91
        4
176
     1
 64
     7
176
     1
 65
   257
176
     1
 75
     1
176
     1
175
     1
176
     1
 42
1.0
176
     1
 92
        8
176
     1
 66
     7
176
     1
 43
1.0
176
     1
 76
     1
176
     1
 77
     6
176
     1
 78
     2
176
     1
 67
     7
176
     1
 79
     5
176
     1
170
     0
176
     1
171
     0
176
     1
290
     0
176
     1
 93
        1
176
     1
 44
-50.0
176
     1
173
     0
176
     1
1001
ACAD
1000
AcDbSavedByObjectVersion
1070
     0
  0
VISUALSTYLE
  5
41
102
{ACAD_XDICTIONARY
360
118
102
}
102
{ACAD_REACTORS
330
29
102
}
330
29
100
AcDbVisualStyle
  2
EdgeColorOff
 70
    22
177
     2
291
     1
 71
     2
176
     0
 72
     2
176
     0
 73
     0
176
     0
 90
        0
176
     0
 40
0.6
176
     0
 41
30.0
176
     0
 63
     7
421
 16777215
176
     0
 74
     1
176
     0
 91
        4
176
     0
 64
     7
176
     0
 65
   257
176
     0
 75
     1
176
     0
175
     1
176
     0
 42
1.0
176
     0
 92
        8
176
     2
 66
     7
176
     0
 43
1.0
176
     0
 76
     1
176
     0
 77
     6
176
     0
 78
     2
176
     0
 67
     7
176
     0
 79
     5
176
     0
170
     0
176
     0
171
     0
176
     0
290
     0
176
     0
 93
        1
176
     0
 44
0.0
176
     0
173
     0
176
     0
1001
ACAD
1000
AcDbSavedByObjectVersion
1070
     0
  0
VISUALSTYLE
  5
38
102
{ACAD_XDICTIONARY
360
106
102
}
102
{ACAD_REACTORS
330
29
102
}
330
29
100
AcDbVisualStyle
  2
Facepattern
 70
    15
177
     2
291
     1
 71
     2
176
     1
 72
     2
176
     1
 73
     0
176
     1
 90
        0
176
     1
 40
0.6
176
     1
 41
30.0
176
     1
 63
     7
421
 16777215
176
     1
 74
     1
176
     1
 91
        4
176
     1
 64
     7
176
     1
 65
   257
176
     1
 75
     1
176
     1
175
     1
176
     1
 42
1.0
176
     1
 92
        8
176
     1
 66
     7
176
     1
 43
1.0
176
     1
 76
     1
176
     1
 77
     6
176
     1
 78
     2
176
     1
 67
     7
176
     1
 79
     5
176
     1
170
     0
176
     1
171
     0
176
     1
290
     0
176
     1
 93
        1
176
     1
 44
0.0
176
     1
173
     0
176
     1
1001
ACAD
1000
AcDbSavedByObjectVersion
1070
     0
  0
VISUALSTYLE
  5
2A
102
{ACAD_XDICTIONARY
360
EA
102
}
102
{ACAD_REACTORS
330
29
102
}
330
29
100
AcDbVisualStyle
  2
Flat
 70
     0
177
     2
291
     1
 71
     2
176
     1
 72
     1
176
     1
 73
     1
176
     1
 90
        2
176
     1
 40
0.6
176
     1
 41
30.0
176
     1
 63
     7
421
 16777215
176
     1
 74
     0
176
     1
 91
        0
176
     1
 64
     7
176
     1
 65
   257
176
     1
 75
     1
176
     1
175
     1
176
     1
 42
1.0
176
     1
 92
        8
176
     1
 66
     7
176
     1
 43
1.0
176
     1
 76
     1
176
     1
 77
     6
176
     1
 78
     2
176
     1
 67
     7
176
     1
 79
     5
176
     1
170
     0
176
     1
171
     0
176
     1
290
     0
176
     1
 93
       13
176
     1
 44
0.0
176
     1
173
     0
176
     1
1001
ACAD
1000
AcDbSavedByObjectVersion
1070
     0
  0
VISUALSTYLE
  5
2B
102
{ACAD_XDICTIONARY
360
EC
102
}
102
{ACAD_REACTORS
330
29
102
}
330
29
100
AcDbVisualStyle
  2
FlatWithEdges
 70
     1
177
     2
291
     1
 71
     2
176
     1
 72
     1
176
     1
 73
     1
176
     1
 90
        2
176
     1
 40
0.6
176
     1
 41
30.0
176
     1
 63
     7
421
 16777215
176
     1
 74
     1
176
     1
 91
        0
176
     1
 64
     7
176
     1
 65
   257
176
     1
 75
     1
176
     1
175
     1
176
     1
 42
1.0
176
     1
 92
        0
176
     1
 66
   257
176
     1
 43
1.0
176
     1
 76
     1
176
     1
 77
     6
176
     1
 78
     2
176
     1
 67
     7
176
     1
 79
     5
176
     1
170
     0
176
     1
171
     0
176
     1
290
     0
176
     1
 93
       13
176
     1
 44
0.0
176
     1
173
     0
176
     1
1001
ACAD
1000
AcDbSavedByObjectVersion
1070
     0
  0
VISUALSTYLE
  5
2C
102
{ACAD_XDICTIONARY
360
EE
102
}
102
{ACAD_REACTORS
330
29
102
}
330
29
100
AcDbVisualStyle
  2
Gouraud
 70
     2
177
     2
291
     1
 71
     2
176
     1
 72
     2
176
     1
 73
     1
176
     1
 90
        2
176
     1
 40
0.6
176
     1
 41
30.0
176
     1
 63
     7
421
 16777215
176
     1
 74
     0
176
     1
 91
        0
176
     1
 64
     7
176
     1
 65
   257
176
     1
 75
     1
176
     1
175
     1
176
     1
 42
1.0
176
     1
 92
        0
176
     1
 66
     7
176
     1
 43
1.0
176
     1
 76
     1
176
     1
 77
     6
176
     1
 78
     2
176
     1
 67
     7
176
     1
 79
     5
176
     1
170
     0
176
     1
171
     0
176
     1
290
     0
176
     1
 93
       13
176
     1
 44
0.0
176
     1
173
     0
176
     1
1001
ACAD
1000
AcDbSavedByObjectVersion
1070
     0
  0
VISUALSTYLE
  5
2D
102
{ACAD_XDICTIONARY
360
F0
102
}
102
{ACAD_REACTORS
330
29
102
}
330
29
100
AcDbVisualStyle
  2
GouraudWithEdges
 70
     3
177
     2
291
     1
 71
     2
176
     1
 72
     2
176
     1
 73
     1
176
     1
 90
        2
176
     1
 40
0.6
176
     1
 41
30.0
176
     1
 63
     7
421
 16777215
176
     1
 74
     1
176
     1
 91
        0
176
     1
 64
     7
176
     1
 65
   257
176
     1
 75
     1
176
     1
175
     1
176
     1
 42
1.0
176
     1
 92
        0
176
     1
 66
   257
176
     1
 43
1.0
176
     1
 76
     1
176
     1
 77
     6
176
     1
 78
     2
176
     1
 67
     7
176
     1
 79
     5
176
     1
170
     0
176
     1
171
     0
176
     1
290
     0
176
     1
 93
       13
176
     1
 44
0.0
176
     1
173
     0
176
     1
1001
ACAD
1000
AcDbSavedByObjectVersion
1070
     0
  0
VISUALSTYLE
  5
31
102
{ACAD_XDICTIONARY
360
F8
102
}
102
{ACAD_REACTORS
330
29
102
}
330
29
100
AcDbVisualStyle
  2
Hidden
 70
     6
177
     2
291
     0
 71
     1
176
     1
 72
     2
176
     1
 73
     2
176
     1
 90
        0
176
     1
 40
0.6
176
     1
 41
30.0
176
     1
 63
     7
421
 16777215
176
     1
 74
     2
176
     1
 91
        2
176
     1
 64
     7
176
     1
 65
   257
176
     1
 75
     2
176
     1
175
     1
176
     1
 42
40.0
176
     1
 92
        0
176
     1
 66
   257
176
     1
 43
1.0
176
     1
 76
     1
176
     1
 77
     6
176
     1
 78
     2
176
     1
 67
     7
176
     1
 79
     3
176
     1
170
     0
176
     1
171
     0
176
     1
290
     0
176
     1
 93
        1
176
     1
 44
0.0
176
     1
173
     0
176
     1
1001
ACAD
1000
AcDbSavedByObjectVersion
1070
     0
  0
VISUALSTYLE
  5
3F
102
{ACAD_XDICTIONARY
360
114
102
}
102
{ACAD_REACTORS
330
29
102
}
330
29
100
AcDbVisualStyle
  2
JitterOff
 70
    20
177
     2
291
     1
 71
     2
176
     0
 72
     2
176
     0
 73
     0
176
     0
 90
        0
176
     0
 40
0.6
176
     0
 41
30.0
176
     0
 63
     7
421
 16777215
176
     0
 74
     1
176
     0
 91
        4
176
     0
 64
     7
176
     0
 65
   257
176
     0
 75
     1
176
     0
175
     1
176
     0
 42
1.0
176
     0
 92
       10
176
     2
 66
     7
176
     0
 43
1.0
176
     0
 76
     1
176
     0
 77
     6
176
     0
 78
     2
176
     0
 67
     7
176
     0
 79
     5
176
     0
170
     0
176
     0
171
     0
176
     0
290
     0
176
     0
 93
        1
176
     0
 44
0.0
176
     0
173
     0
176
     0
1001
ACAD
1000
AcDbSavedByObjectVersion
1070
     0
  0
VISUALSTYLE
  5
37
102
{ACAD_XDICTIONARY
360
104
102
}
102
{ACAD_REACTORS
330
29
102
}
330
29
100
AcDbVisualStyle
  2
Linepattern
 70
    14
177
     2
291
     1
 71
     2
176
     1
 72
     2
176
     1
 73
     0
176
     1
 90
        0
176
     1
 40
0.6
176
     1
 41
30.0
176
     1
 63
     7
421
 16777215
176
     1
 74
     1
176
     1
 91
        4
176
     1
 64
     7
176
     1
 65
   257
176
     1
 75
     7
176
     1
175
     7
176
     1
 42
1.0
176
     1
 92
        8
176
     1
 66
     7
176
     1
 43
1.0
176
     1
 76
     1
176
     1
 77
     6
176
     1
 78
     2
176
     1
 67
     7
176
     1
 79
     5
176
     1
170
     0
176
     1
171
     0
176
     1
290
     0
176
     1
 93
        1
176
     1
 44
0.0
176
     1
173
     0
176
     1
1001
ACAD
1000
AcDbSavedByObjectVersion
1070
     0
  0
VISUALSTYLE
  5
40
102
{ACAD_XDICTIONARY
360
116
102
}
102
{ACAD_REACTORS
330
29
102
}
330
29
100
AcDbVisualStyle
  2
OverhangOff
 70
    21
177
     2
291
     1
 71
     2
176
     0
 72
     2
176
     0
 73
     0
176
     0
 90
        0
176
     0
 40
0.6
176
     0
 41
30.0
176
     0
 63
     7
421
 16777215
176
     0
 74
     1
176
     0
 91
        4
176
     0
 64
     7
176
     0
 65
   257
176
     0
 75
     1
176
     0
175
     1
176
     0
 42
1.0
176
     0
 92
        9
176
     2
 66
     7
176
     0
 43
1.0
176
     0
 76
     1
176
     0
 77
     6
176
     0
 78
     2
176
     0
 67
     7
176
     0
 79
     5
176
     0
170
     0
176
     0
171
     0
176
     0
290
     0
176
     0
 93
        1
176
     0
 44
0.0
176
     0
173
     0
176
     0
1001
ACAD
1000
AcDbSavedByObjectVersion
1070
     0
  0
VISUALSTYLE
  5
33
102
{ACAD_XDICTIONARY
360
FC
102
}
102
{ACAD_REACTORS
330
29
102
}
330
29
100
AcDbVisualStyle
  2
Realistic
 70
     8
177
     2
291
     0
 71
     2
176
     1
 72
     3
176
     1
 73
     0
176
     1
 90
        2
176
     1
 40
0.6
176
     1
 41
30.0
176
     1
 63
     7
421
 16777215
176
     1
 74
     0
176
     1
 91
        0
176
     1
 64
     7
176
     1
 65
   257
176
     1
 75
     1
176
     1
175
     1
176
     1
 42
1.0
176
     1
 92
        8
176
     1
 66
   257
176
     1
 43
1.0
176
     1
 76
     1
176
     1
 77
     6
176
     1
 78
     2
176
     1
 67
     7
176
     1
 79
     3
176
     1
170
     0
176
     1
171
     0
176
     1
290
     0
176
     1
 93
       13
176
     1
 44
0.0
176
     1
173
     0
176
     1
1001
ACAD
1000
AcDbSavedByObjectVersion
1070
     0
  0
VISUALSTYLE
  5
3E
102
{ACAD_XDICTIONARY
360
112
102
}
102
{ACAD_REACTORS
330
29
102
}
330
29
100
AcDbVisualStyle
  2
Shaded
 70
    27
177
     2
291
     0
 71
     2
176
     1
 72
     2
176
     1
 73
     1
176
     1
 90
        2
176
     1
 40
0.6
176
     1
 41
30.0
176
     1
 63
     7
421
 16777215
176
     1
 74
     0
176
     1
 91
        4
176
     1
 64
     7
176
     1
 65
   257
176
     1
 75
     1
176
     1
175
     1
176
     1
 42
1.0
176
     1
 92
        8
176
     1
 66
   257
176
     1
 43
1.0
176
     1
 76
     1
176
     1
 77
     6
176
     1
 78
     2
176
     1
 67
     8
425
  7895160
176
     1
 79
     3
176
     1
170
     0
176
     1
171
     0
176
     1
290
     0
176
     1
 93
        5
176
     1
 44
0.0
176
     1
173
     0
176
     1
1001
ACAD
1000
AcDbSavedByObjectVersion
1070
     0
  0
VISUALSTYLE
  5
3D
102
{ACAD_XDICTIONARY
360
110
102
}
102
{ACAD_REACTORS
330
29
102
}
330
29
100
AcDbVisualStyle
  2
Shaded with edges
 70
    26
177
     2
291
     0
 71
     2
176
     1
 72
     2
176
     1
 73
     1
176
     1
 90
        2
176
     1
 40
0.6
176
     1
 41
30.0
176
     1
 63
     7
421
 16777215
176
     1
 74
     1
176
     1
 91
        2
176
     1
 64
     7
176
     1
 65
   257
176
     1
 75
     2
176
     1
175
     1
176
     1
 42
1.0
176
     1
 92
        8
176
     1
 66
   257
176
     1
 43
1.0
176
     1
 76
     1
176
     1
 77
     6
176
     1
 78
     2
176
     1
 67
     7
176
     1
 79
     3
176
     1
170
     0
176
     1
171
     0
176
     1
290
     0
176
     1
 93
        5
176
     1
 44
0.0
176
     1
173
     0
176
     1
1001
ACAD
1000
AcDbSavedByObjectVersion
1070
     0
  0
VISUALSTYLE
  5
3A
102
{ACAD_XDICTIONARY
360
10A
102
}
102
{ACAD_REACTORS
330
29
102
}
330
29
100
AcDbVisualStyle
  2
Shades of Gray
 70
    23
177
     2
291
     0
 71
     2
176
     1
 72
     2
176
     1
 73
     3
176
     1
 90
        0
176
     1
 40
0.6
176
     1
 41
30.0
176
     1
 63
     7
421
 16777215
176
     1
 74
     2
176
     1
 91
        2
176
     1
 64
     7
176
     1
 65
     7
176
     1
 75
     1
176
     1
175
     1
176
     1
 42
40.0
176
     1
 92
        8
176
     1
 66
     7
176
     1
 43
1.0
176
     1
 76
     1
176
     1
 77
     6
176
     1
 78
     2
176
     1
 67
     7
176
     1
 79
     3
176
     1
170
     0
176
     1
171
     0
176
     1
290
     0
176
     1
 93
        1
176
     1
 44
0.0
176
     1
173
     0
176
     1
1001
ACAD
1000
AcDbSavedByObjectVersion
1070
     0
  0
VISUALSTYLE
  5
3B
102
{ACAD_XDICTIONARY
360
10C
102
}
102
{ACAD_REACTORS
330
29
102
}
330
29
100
AcDbVisualStyle
  2
Sketchy
 70
    24
177
     2
291
     0
 71
     1
176
     1
 72
     2
176
     1
 73
     2
176
     1
 90
        0
176
     1
 40
0.6
176
     1
 41
30.0
176
     1
 63
     7
421
 16777215
176
     1
 74
     2
176
     1
 91
        2
176
     1
 64
     7
176
     1
 65
     7
176
     1
 75
     1
176
     1
175
     1
176
     1
 42
40.0
176
     1
 92
       11
176
     1
 66
     7
176
     1
 43
1.0
176
     1
 76
     1
176
     1
 77
     6
176
     1
 78
     2
176
     1
 67
     7
176
     1
 79
     6
176
     1
170
     0
176
     1
171
     0
176
     1
290
     0
176
     1
 93
        1
176
     1
 44
0.0
176
     1
173
     0
176
     1
1001
ACAD
1000
AcDbSavedByObjectVersion
1070
     0
  0
VISUALSTYLE
  5
36
102
{ACAD_XDICTIONARY
360
102
102
}
102
{ACAD_REACTORS
330
29
102
}
330
29
100
AcDbVisualStyle
  2
Thicken
 70
    13
177
     2
291
     1
 71
     2
176
     1
 72
     2
176
     1
 73
     0
176
     1
 90
        0
176
     1
 40
0.6
176
     1
 41
30.0
176
     1
 63
     7
421
 16777215
176
     1
 74
     1
176
     1
 91
        4
176
     1
 64
     7
176
     1
 65
   257
176
     1
 75
     1
176
     1
175
     1
176
     1
 42
1.0
176
     1
 92
       12
176
     1
 66
     7
176
     1
 43
1.0
176
     1
 76
     1
176
     1
 77
     6
176
     1
 78
     2
176
     1
 67
     7
176
     1
 79
     5
176
     1
170
     0
176
     1
171
     0
176
     1
290
     0
176
     1
 93
        1
176
     1
 44
0.0
176
     1
173
     0
176
     1
1001
ACAD
1000
AcDbSavedByObjectVersion
1070
     0
  0
VISUALSTYLE
  5
30
102
{ACAD_XDICTIONARY
360
F6
102
}
102
{ACAD_REACTORS
330
29
102
}
330
29
100
AcDbVisualStyle
  2
Wireframe
 70
     5
177
     2
291
     0
 71
     0
176
     1
 72
     2
176
     1
 73
     0
176
     1
 90
        0
176
     1
 40
0.6
176
     1
 41
30.0
176
     1
 63
     7
421
 16777215
176
     1
 74
     1
176
     1
 91
        4
176
     1
 64
     7
176
     1
 65
   257
176
     1
 75
     1
176
     1
175
     1
176
     1
 42
1.0
176
     1
 92
        0
176
     1
 66
   257
176
     1
 43
1.0
176
     1
 76
     1
176
     1
 77
     6
176
     1
 78
     2
176
     1
 67
     7
176
     1
 79
     3
176
     1
170
     0
176
     1
171
     0
176
     1
290
     0
176
     1
 93
        1
176
     1
 44
0.0
176
     1
173
     0
176
     1
1001
ACAD
1000
AcDbSavedByObjectVersion
1070
     0
  0
VISUALSTYLE
  5
3C
102
{ACAD_XDICTIONARY
360
10E
102
}
102
{ACAD_REACTORS
330
29
102
}
330
29
100
AcDbVisualStyle
  2
X-Ray
 70
    25
177
     2
291
     0
 71
     2
176
     1
 72
     2
176
     1
 73
     1
176
     1
 90
        1
176
     1
 40
0.5
176
     1
 41
30.0
176
     1
 63
     7
421
 16777215
176
     1
 74
     1
176
     1
 91
        0
176
     1
 64
     7
176
     1
 65
   257
176
     1
 75
     1
176
     1
175
     1
176
     1
 42
1.0
176
     1
 92
        8
176
     1
 66
     7
176
     1
 43
1.0
176
     1
 76
     1
176
     1
 77
     6
176
     1
 78
     2
176
     1
 67
     7
176
     1
 79
     3
176
     1
170
     0
176
     1
171
     0
176
     1
290
     0
176
     1
 93
       13
176
     1
 44
0.0
176
     1
173
     0
176
     1
1001
ACAD
1000
AcDbSavedByObjectVersion
1070
     0
  0
DICTIONARYVAR
  5
E6
102
{ACAD_REACTORS
330
E1
102
}
330
E1
100
DictionaryVariables
280
     0
  1
1:1
  0
DICTIONARYVAR
  5
E3
102
{ACAD_REACTORS
330
E1
102
}
330
E1
100
DictionaryVariables
280
     0
  1
STANDARD
  0
DICTIONARYVAR
  5
E2
102
{ACAD_REACTORS
330
E1
102
}
330
E1
100
DictionaryVariables
280
     0
  1
STANDARD
  0
DICTIONARYVAR
  5
E4
102
{ACAD_REACTORS
330
E1
102
}
330
E1
100
DictionaryVariables
280
     0
  1
Imperial24
  0
DICTIONARYVAR
  5
E5
102
{ACAD_REACTORS
330
E1
102
}
330
E1
100
DictionaryVariables
280
     0
  1
Imperial24
  0
DICTIONARY
  5
11E
330
6B
100
AcDbDictionary
280
     1
281
     1
  3
ACAD_XREC_ROUNDTRIP
360
11F
  0
DICTIONARY
  5
1A
330
19
100
AcDbDictionary
280
     1
281
     1
  3
BUMPTILE
360
1C
  3
DIFFUSETILE
360
1B
  3
OPACITYTILE
360
1F
  3
REFLECTIONTILE
360
1E
  3
REFRACTIONTILE
360
20
  3
SPECULARTILE
360
1D
  0
DICTIONARY
  5
12
330
11
100
AcDbDictionary
280
     1
281
     1
  3
BUMPTILE
360
14
  3
DIFFUSETILE
360
13
  3
OPACITYTILE
360
17
  3
REFLECTIONTILE
360
16
  3
REFRACTIONTILE
360
18
  3
SPECULARTILE
360
15
  0
DICTIONARY
  5
22
330
21
100
AcDbDictionary
280
     1
281
     1
  3
BUMPTILE
360
24
  3
DIFFUSETILE
360
23
  3
OPACITYTILE
360
27
  3
REFLECTIONTILE
360
26
  3
REFRACTIONTILE
360
28
  3
SPECULARTILE
360
25
  0
DICTIONARY
  5
11A
330
67
100
AcDbDictionary
280
     1
281
     1
  3
ACAD_XREC_ROUNDTRIP
360
11B
  0
DICTIONARY
  5
11C
330
69
100
AcDbDictionary
280
     1
281
     1
  3
ACAD_XREC_ROUNDTRIP
360
11D
  0
DICTIONARY
  5
E7
330
65
100
AcDbDictionary
280
     1
281
     1
  3
ACAD_ROUNDTRIP_2008_TABLESTYLE_CELLSTYLEMAP
360
E8
  0
DICTIONARY
  5
F4
330
2F
100
AcDbDictionary
280
     1
281
     1
  3
ACAD_XREC_ROUNDTRIP
360
F5
  0
DICTIONARY
  5
F2
330
2E
100
AcDbDictionary
280
     1
281
     1
  3
ACAD_XREC_ROUNDTRIP
360
F3
  0
DICTIONARY
  5
100
330
35
100
AcDbDictionary
280
     1
281
     1
  3
ACAD_XREC_ROUNDTRIP
360
101
  0
DICTIONARY
  5
108
330
39
100
AcDbDictionary
280
     1
281
     1
  3
ACAD_XREC_ROUNDTRIP
360
109
  0
DICTIONARY
  5
FA
330
32
100
AcDbDictionary
280
     1
281
     1
  3
ACAD_XREC_ROUNDTRIP
360
FB
  0
DICTIONARY
  5
FE
330
34
100
AcDbDictionary
280
     1
281
     1
  3
ACAD_XREC_ROUNDTRIP
360
FF
  0
DICTIONARY
  5
118
330
41
100
AcDbDictionary
280
     1
281
     1
  3
ACAD_XREC_ROUNDTRIP
360
119
  0
DICTIONARY
  5
106
330
38
100
AcDbDictionary
280
     1
281
     1
  3
ACAD_XREC_ROUNDTRIP
360
107
  0
DICTIONARY
  5
EA
330
2A
100
AcDbDictionary
280
     1
281
     1
  3
ACAD_XREC_ROUNDTRIP
360
EB
  0
DICTIONARY
  5
EC
330
2B
100
AcDbDictionary
280
     1
281
     1
  3
ACAD_XREC_ROUNDTRIP
360
ED
  0
DICTIONARY
  5
EE
330
2C
100
AcDbDictionary
280
     1
281
     1
  3
ACAD_XREC_ROUNDTRIP
360
EF
  0
DICTIONARY
  5
F0
330
2D
100
AcDbDictionary
280
     1
281
     1
  3
ACAD_XREC_ROUNDTRIP
360
F1
  0
DICTIONARY
  5
F8
330
31
100
AcDbDictionary
280
     1
281
     1
  3
ACAD_XREC_ROUNDTRIP
360
F9
  0
DICTIONARY
  5
114
330
3F
100
AcDbDictionary
280
     1
281
     1
  3
ACAD_XREC_ROUNDTRIP
360
115
  0
DICTIONARY
  5
104
330
37
100
AcDbDictionary
280
     1
281
     1
  3
ACAD_XREC_ROUNDTRIP
360
105
  0
DICTIONARY
  5
116
330
40
100
AcDbDictionary
280
     1
281
     1
  3
ACAD_XREC_ROUNDTRIP
360
117
  0
DICTIONARY
  5
FC
330
33
100
AcDbDictionary
280
     1
281
     1
  3
ACAD_XREC_ROUNDTRIP
360
FD
  0
DICTIONARY
  5
112
330
3E
100
AcDbDictionary
280
     1
281
     1
  3
ACAD_XREC_ROUNDTRIP
360
113
  0
DICTIONARY
  5
110
330
3D
100
AcDbDictionary
280
     1
281
     1
  3
ACAD_XREC_ROUNDTRIP
360
111
  0
DICTIONARY
  5
10A
330
3A
100
AcDbDictionary
280
     1
281
     1
  3
ACAD_XREC_ROUNDTRIP
360
10B
  0
DICTIONARY
  5
10C
330
3B
100
AcDbDictionary
280
     1
281
     1
  3
ACAD_XREC_ROUNDTRIP
360
10D
  0
DICTIONARY
  5
102
330
36
100
AcDbDictionary
280
     1
281
     1
  3
ACAD_XREC_ROUNDTRIP
360
103
  0
DICTIONARY
  5
F6
330
30
100
AcDbDictionary
280
     1
281
     1
  3
ACAD_XREC_ROUNDTRIP
360
F7
  0
DICTIONARY
  5
10E
330
3C
100
AcDbDictionary
280
     1
281
     1
  3
ACAD_XREC_ROUNDTRIP
360
10F
  0
XRECORD
  5
11F
102
{ACAD_REACTORS
330
11E
102
}
330
11E
100
AcDbXrecord
280
     1
102
DISPLAYNAME
  1
Imperial24
102
FLAGS
 90
        0
  0
XRECORD
  5
1C
102
{ACAD_REACTORS
330
1A
102
}
330
1A
100
AcDbXrecord
280
     1
270
     1
271
     1
  0
XRECORD
  5
1B
102
{ACAD_REACTORS
330
1A
102
}
330
1A
100
AcDbXrecord
280
     1
270
     1
271
     1
  0
XRECORD
  5
1F
102
{ACAD_REACTORS
330
1A
102
}
330
1A
100
AcDbXrecord
280
     1
270
     1
271
     1
  0
XRECORD
  5
1E
102
{ACAD_REACTORS
330
1A
102
}
330
1A
100
AcDbXrecord
280
     1
270
     1
271
     1
  0
XRECORD
  5
20
102
{ACAD_REACTORS
330
1A
102
}
330
1A
100
AcDbXrecord
280
     1
270
     1
271
     1
  0
XRECORD
  5
1D
102
{ACAD_REACTORS
330
1A
102
}
330
1A
100
AcDbXrecord
280
     1
270
     1
271
     1
  0
XRECORD
  5
14
102
{ACAD_REACTORS
330
12
102
}
330
12
100
AcDbXrecord
280
     1
270
     1
271
     1
  0
XRECORD
  5
13
102
{ACAD_REACTORS
330
12
102
}
330
12
100
AcDbXrecord
280
     1
270
     1
271
     1
  0
XRECORD
  5
17
102
{ACAD_REACTORS
330
12
102
}
330
12
100
AcDbXrecord
280
     1
270
     1
271
     1
  0
XRECORD
  5
16
102
{ACAD_REACTORS
330
12
102
}
330
12
100
AcDbXrecord
280
     1
270
     1
271
     1
  0
XRECORD
  5
18
102
{ACAD_REACTORS
330
12
102
}
330
12
100
AcDbXrecord
280
     1
270
     1
271
     1
  0
XRECORD
  5
15
102
{ACAD_REACTORS
330
12
102
}
330
12
100
AcDbXrecord
280
     1
270
     1
271
     1
  0
XRECORD
  5
24
102
{ACAD_REACTORS
330
22
102
}
330
22
100
AcDbXrecord
280
     1
270
     1
271
     1
  0
XRECORD
  5
23
102
{ACAD_REACTORS
330
22
102
}
330
22
100
AcDbXrecord
280
     1
270
     1
271
     1
  0
XRECORD
  5
27
102
{ACAD_REACTORS
330
22
102
}
330
22
100
AcDbXrecord
280
     1
270
     1
271
     1
  0
XRECORD
  5
26
102
{ACAD_REACTORS
330
22
102
}
330
22
100
AcDbXrecord
280
     1
270
     1
271
     1
  0
XRECORD
  5
28
102
{ACAD_REACTORS
330
22
102
}
330
22
100
AcDbXrecord
280
     1
270
     1
271
     1
  0
XRECORD
  5
25
102
{ACAD_REACTORS
330
22
102
}
330
22
100
AcDbXrecord
280
     1
270
     1
271
     1
  0
XRECORD
  5
11B
102
{ACAD_REACTORS
330
11A
102
}
330
11A
100
AcDbXrecord
280
     1
102
ACAD_ROUNDTRIP_2012_MLEADER_STYLE
298
     1
  0
XRECORD
  5
11D
102
{ACAD_REACTORS
330
11C
102
}
330
11C
100
AcDbXrecord
280
     1
102
DISPLAYNAME
  1
Imperial24
102
FLAGS
 90
        0
  0
CELLSTYLEMAP
  5
E8
102
{ACAD_REACTORS
330
E7
102
}
330
E7
100
AcDbCellStyleMap
 90
        3
300
CELLSTYLE
  1
TABLEFORMAT_BEGIN
 90
        5
170
     1
 91
        0
 92
    32768
 62
   257
 93
        1
300
CONTENTFORMAT
  1
CONTENTFORMAT_BEGIN
 90
        0
 91
        0
 92
      512
 93
        0
300

 40
0.0
140
1.0
 94
        5
 62
     0
340
55
144
0.25
309
CONTENTFORMAT_END
171
     0
 94
        0
309
TABLEFORMAT_END
  1
CELLSTYLE_BEGIN
 90
        1
 91
        1
300
_TITLE
309
CELLSTYLE_END
300
CELLSTYLE
  1
TABLEFORMAT_BEGIN
 90
        5
170
     1
 91
        0
 92
        0
 62
   257
 93
        1
300
CONTENTFORMAT
  1
CONTENTFORMAT_BEGIN
 90
        0
 91
        0
 92
      512
 93
        0
300

 40
0.0
140
1.0
 94
        5
 62
     0
340
55
144
0.18
309
CONTENTFORMAT_END
171
     0
 94
        0
309
TABLEFORMAT_END
  1
CELLSTYLE_BEGIN
 90
        2
 91
        1
300
_HEADER
309
CELLSTYLE_END
300
CELLSTYLE
  1
TABLEFORMAT_BEGIN
 90
        5
170
     1
 91
        0
 92
        0
 62
   257
 93
        1
300
CONTENTFORMAT
  1
CONTENTFORMAT_BEGIN
 90
        0
 91
        0
 92
      512
 93
        0
300

 40
0.0
140
1.0
 94
        2
 62
     0
340
55
144
0.18
309
CONTENTFORMAT_END
171
     0
 94
        0
309
TABLEFORMAT_END
  1
CELLSTYLE_BEGIN
 90
        3
 91
        2
300
_DATA
309
CELLSTYLE_END
  0
XRECORD
  5
F5
102
{ACAD_REACTORS
330
F4
102
}
330
F4
100
AcDbXrecord
280
     1
102
RTVSPost2010Prop28
280
     1
102
RTVSPost2010PropOp28
 70
     1
102
RTVSPost2010Prop29
280
     1
102
RTVSPost2010PropOp29
 70
     1
102
RTVSPost2010Prop30
280
     0
102
RTVSPost2010PropOp30
 70
     1
102
RTVSPost2010Prop31
280
     0
102
RTVSPost2010PropOp31
 70
     1
102
RTVSPost2010Prop32
280
     0
102
RTVSPost2010PropOp32
 70
     1
102
RTVSPost2010Prop33
280
     0
102
RTVSPost2010PropOp33
 70
     1
102
RTVSPost2010Prop34
280
     0
102
RTVSPost2010PropOp34
 70
     1
102
RTVSPost2010Prop35
280
     0
102
RTVSPost2010PropOp35
 70
     1
102
RTVSPost2010Prop36
280
     0
102
RTVSPost2010PropOp36
 70
     1
102
RTVSPost2010Prop37
 90
       50
102
RTVSPost2010PropOp37
 70
     1
102
RTVSPost2010Prop38
140
0.0
102
RTVSPost2010PropOp38
 70
     1
102
RTVSPost2010Prop39
140
1.0
102
RTVSPost2010PropOp39
 70
     1
102
RTVSPost2010Prop40
 90
        0
102
RTVSPost2010PropOp40
 70
     1
102
RTVSPost2010Prop41ColorIndex
 90
       18
102
RTVSPost2010Prop41ColorRGB
 90
        0
102
RTVSPost2010PropOp41
 70
     1
102
RTVSPost2010Prop42
 90
       50
102
RTVSPost2010PropOp42
 70
     1
102
RTVSPost2010Prop43
 90
        3
102
RTVSPost2010PropOp43
 70
     1
102
RTVSPost2010Prop44ColorIndex
 90
        5
102
RTVSPost2010Prop44ColorRGB
 90
      255
102
RTVSPost2010PropOp44
 70
     1
102
RTVSPost2010Prop45
280
     0
102
RTVSPost2010PropOp45
 70
     1
102
RTVSPost2010Prop46
 90
       50
102
RTVSPost2010PropOp46
 70
     1
102
RTVSPost2010Prop47
 90
       50
102
RTVSPost2010PropOp47
 70
     1
102
RTVSPost2010Prop48
 90
       50
102
RTVSPost2010PropOp48
 70
     1
102
RTVSPost2010Prop49
280
     0
102
RTVSPost2010PropOp49
 70
     1
102
RTVSPost2010Prop50
 90
       50
102
RTVSPost2010PropOp50
 70
     1
102
RTVSPost2010Prop51ColorIndex
 90
      256
102
RTVSPost2010Prop51ColorRGB
 90
-16777216
102
RTVSPost2010PropOp51
 70
     0
102
RTVSPost2010Prop52
140
1.0
102
RTVSPost2010PropOp52
 70
     0
102
RTVSPost2010Prop53
 90
        2
102
RTVSPost2010PropOp53
 70
     1
102
RTVSPost2010Prop54
  1
strokes_ogs.tif
102
RTVSPost2010PropOp54
 70
     1
102
RTVSPost2010Prop55
280
     0
102
RTVSPost2010PropOp55
 70
     1
102
RTVSPost2010Prop56
140
1.0
102
RTVSPost2010PropOp56
 70
     1
102
RTVSPost2010Prop57
140
1.0
102
RTVSPost2010PropOp57
 70
     1
  0
XRECORD
  5
F3
102
{ACAD_REACTORS
330
F2
102
}
330
F2
100
AcDbXrecord
280
     1
102
RTVSPost2010Prop28
280
     0
102
RTVSPost2010PropOp28
 70
     1
102
RTVSPost2010Prop29
280
     1
102
RTVSPost2010PropOp29
 70
     1
102
RTVSPost2010Prop30
280
     1
102
RTVSPost2010PropOp30
 70
     1
102
RTVSPost2010Prop31
280
     0
102
RTVSPost2010PropOp31
 70
     1
102
RTVSPost2010Prop32
280
     0
102
RTVSPost2010PropOp32
 70
     1
102
RTVSPost2010Prop33
280
     0
102
RTVSPost2010PropOp33
 70
     1
102
RTVSPost2010Prop34
280
     0
102
RTVSPost2010PropOp34
 70
     1
102
RTVSPost2010Prop35
280
     0
102
RTVSPost2010PropOp35
 70
     1
102
RTVSPost2010Prop36
280
     0
102
RTVSPost2010PropOp36
 70
     1
102
RTVSPost2010Prop37
 90
       50
102
RTVSPost2010PropOp37
 70
     1
102
RTVSPost2010Prop38
140
0.0
102
RTVSPost2010PropOp38
 70
     1
102
RTVSPost2010Prop39
140
1.0
102
RTVSPost2010PropOp39
 70
     1
102
RTVSPost2010Prop40
 90
        0
102
RTVSPost2010PropOp40
 70
     1
102
RTVSPost2010Prop41ColorIndex
 90
       18
102
RTVSPost2010Prop41ColorRGB
 90
        0
102
RTVSPost2010PropOp41
 70
     1
102
RTVSPost2010Prop42
 90
       50
102
RTVSPost2010PropOp42
 70
     1
102
RTVSPost2010Prop43
 90
        3
102
RTVSPost2010PropOp43
 70
     1
102
RTVSPost2010Prop44ColorIndex
 90
        5
102
RTVSPost2010Prop44ColorRGB
 90
      255
102
RTVSPost2010PropOp44
 70
     1
102
RTVSPost2010Prop45
280
     0
102
RTVSPost2010PropOp45
 70
     1
102
RTVSPost2010Prop46
 90
       50
102
RTVSPost2010PropOp46
 70
     1
102
RTVSPost2010Prop47
 90
       50
102
RTVSPost2010PropOp47
 70
     1
102
RTVSPost2010Prop48
 90
       50
102
RTVSPost2010PropOp48
 70
     1
102
RTVSPost2010Prop49
280
     0
102
RTVSPost2010PropOp49
 70
     1
102
RTVSPost2010Prop50
 90
       50
102
RTVSPost2010PropOp50
 70
     1
102
RTVSPost2010Prop51ColorIndex
 90
      256
102
RTVSPost2010Prop51ColorRGB
 90
-16777216
102
RTVSPost2010PropOp51
 70
     0
102
RTVSPost2010Prop52
140
1.0
102
RTVSPost2010PropOp52
 70
     0
102
RTVSPost2010Prop53
 90
        2
102
RTVSPost2010PropOp53
 70
     1
102
RTVSPost2010Prop54
  1
strokes_ogs.tif
102
RTVSPost2010PropOp54
 70
     1
102
RTVSPost2010Prop55
280
     0
102
RTVSPost2010PropOp55
 70
     1
102
RTVSPost2010Prop56
140
1.0
102
RTVSPost2010PropOp56
 70
     1
102
RTVSPost2010Prop57
140
1.0
102
RTVSPost2010PropOp57
 70
     1
  0
XRECORD
  5
101
102
{ACAD_REACTORS
330
100
102
}
330
100
100
AcDbXrecord
280
     1
102
RTVSPost2010Prop28
280
     0
102
RTVSPost2010PropOp28
 70
     1
102
RTVSPost2010Prop29
280
     1
102
RTVSPost2010PropOp29
 70
     1
102
RTVSPost2010Prop30
280
     1
102
RTVSPost2010PropOp30
 70
     1
102
RTVSPost2010Prop31
280
     0
102
RTVSPost2010PropOp31
 70
     1
102
RTVSPost2010Prop32
280
     0
102
RTVSPost2010PropOp32
 70
     1
102
RTVSPost2010Prop33
280
     0
102
RTVSPost2010PropOp33
 70
     1
102
RTVSPost2010Prop34
280
     0
102
RTVSPost2010PropOp34
 70
     1
102
RTVSPost2010Prop35
280
     0
102
RTVSPost2010PropOp35
 70
     1
102
RTVSPost2010Prop36
280
     0
102
RTVSPost2010PropOp36
 70
     1
102
RTVSPost2010Prop37
 90
       50
102
RTVSPost2010PropOp37
 70
     1
102
RTVSPost2010Prop38
140
0.0
102
RTVSPost2010PropOp38
 70
     1
102
RTVSPost2010Prop39
140
1.0
102
RTVSPost2010PropOp39
 70
     1
102
RTVSPost2010Prop40
 90
        0
102
RTVSPost2010PropOp40
 70
     1
102
RTVSPost2010Prop41ColorIndex
 90
       18
102
RTVSPost2010Prop41ColorRGB
 90
        0
102
RTVSPost2010PropOp41
 70
     1
102
RTVSPost2010Prop42
 90
       50
102
RTVSPost2010PropOp42
 70
     1
102
RTVSPost2010Prop43
 90
        3
102
RTVSPost2010PropOp43
 70
     1
102
RTVSPost2010Prop44ColorIndex
 90
        5
102
RTVSPost2010Prop44ColorRGB
 90
      255
102
RTVSPost2010PropOp44
 70
     1
102
RTVSPost2010Prop45
280
     0
102
RTVSPost2010PropOp45
 70
     1
102
RTVSPost2010Prop46
 90
       50
102
RTVSPost2010PropOp46
 70
     1
102
RTVSPost2010Prop47
 90
       50
102
RTVSPost2010PropOp47
 70
     1
102
RTVSPost2010Prop48
 90
       50
102
RTVSPost2010PropOp48
 70
     1
102
RTVSPost2010Prop49
280
     0
102
RTVSPost2010PropOp49
 70
     1
102
RTVSPost2010Prop50
 90
       50
102
RTVSPost2010PropOp50
 70
     1
102
RTVSPost2010Prop51ColorIndex
 90
      256
102
RTVSPost2010Prop51ColorRGB
 90
-16777216
102
RTVSPost2010PropOp51
 70
     0
102
RTVSPost2010Prop52
140
1.0
102
RTVSPost2010PropOp52
 70
     0
102
RTVSPost2010Prop53
 90
        2
102
RTVSPost2010PropOp53
 70
     1
102
RTVSPost2010Prop54
  1
strokes_ogs.tif
102
RTVSPost2010PropOp54
 70
     1
102
RTVSPost2010Prop55
280
     0
102
RTVSPost2010PropOp55
 70
     1
102
RTVSPost2010Prop56
140
1.0
102
RTVSPost2010PropOp56
 70
     1
102
RTVSPost2010Prop57
140
1.0
102
RTVSPost2010PropOp57
 70
     1
  0
XRECORD
  5
109
102
{ACAD_REACTORS
330
108
102
}
330
108
100
AcDbXrecord
280
     1
102
RTVSPost2010Prop28
280
     0
102
RTVSPost2010PropOp28
 70
     1
102
RTVSPost2010Prop29
280
     1
102
RTVSPost2010PropOp29
 70
     1
102
RTVSPost2010Prop30
280
     1
102
RTVSPost2010PropOp30
 70
     1
102
RTVSPost2010Prop31
280
     0
102
RTVSPost2010PropOp31
 70
     1
102
RTVSPost2010Prop32
280
     0
102
RTVSPost2010PropOp32
 70
     1
102
RTVSPost2010Prop33
280
     0
102
RTVSPost2010PropOp33
 70
     1
102
RTVSPost2010Prop34
280
     0
102
RTVSPost2010PropOp34
 70
     1
102
RTVSPost2010Prop35
280
     0
102
RTVSPost2010PropOp35
 70
     1
102
RTVSPost2010Prop36
280
     0
102
RTVSPost2010PropOp36
 70
     1
102
RTVSPost2010Prop37
 90
       50
102
RTVSPost2010PropOp37
 70
     1
102
RTVSPost2010Prop38
140
0.0
102
RTVSPost2010PropOp38
 70
     1
102
RTVSPost2010Prop39
140
1.0
102
RTVSPost2010PropOp39
 70
     1
102
RTVSPost2010Prop40
 90
        0
102
RTVSPost2010PropOp40
 70
     1
102
RTVSPost2010Prop41ColorIndex
 90
       18
102
RTVSPost2010Prop41ColorRGB
 90
        0
102
RTVSPost2010PropOp41
 70
     1
102
RTVSPost2010Prop42
 90
       50
102
RTVSPost2010PropOp42
 70
     1
102
RTVSPost2010Prop43
 90
        3
102
RTVSPost2010PropOp43
 70
     1
102
RTVSPost2010Prop44ColorIndex
 90
        5
102
RTVSPost2010Prop44ColorRGB
 90
      255
102
RTVSPost2010PropOp44
 70
     1
102
RTVSPost2010Prop45
280
     0
102
RTVSPost2010PropOp45
 70
     1
102
RTVSPost2010Prop46
 90
       50
102
RTVSPost2010PropOp46
 70
     1
102
RTVSPost2010Prop47
 90
       50
102
RTVSPost2010PropOp47
 70
     1
102
RTVSPost2010Prop48
 90
       50
102
RTVSPost2010PropOp48
 70
     1
102
RTVSPost2010Prop49
280
     0
102
RTVSPost2010PropOp49
 70
     1
102
RTVSPost2010Prop50
 90
       50
102
RTVSPost2010PropOp50
 70
     1
102
RTVSPost2010Prop51ColorIndex
 90
      256
102
RTVSPost2010Prop51ColorRGB
 90
-16777216
102
RTVSPost2010PropOp51
 70
     0
102
RTVSPost2010Prop52
140
1.0
102
RTVSPost2010PropOp52
 70
     0
102
RTVSPost2010Prop53
 90
        2
102
RTVSPost2010PropOp53
 70
     1
102
RTVSPost2010Prop54
  1
strokes_ogs.tif
102
RTVSPost2010PropOp54
 70
     1
102
RTVSPost2010Prop55
280
     0
102
RTVSPost2010PropOp55
 70
     1
102
RTVSPost2010Prop56
140
1.0
102
RTVSPost2010PropOp56
 70
     1
102
RTVSPost2010Prop57
140
1.0
102
RTVSPost2010PropOp57
 70
     1
  0
XRECORD
  5
FB
102
{ACAD_REACTORS
330
FA
102
}
330
FA
100
AcDbXrecord
280
     1
102
RTVSPost2010Prop28
280
     0
102
RTVSPost2010PropOp28
 70
     1
102
RTVSPost2010Prop29
280
     1
102
RTVSPost2010PropOp29
 70
     1
102
RTVSPost2010Prop30
280
     1
102
RTVSPost2010PropOp30
 70
     1
102
RTVSPost2010Prop31
280
     0
102
RTVSPost2010PropOp31
 70
     1
102
RTVSPost2010Prop32
280
     0
102
RTVSPost2010PropOp32
 70
     1
102
RTVSPost2010Prop33
280
     0
102
RTVSPost2010PropOp33
 70
     1
102
RTVSPost2010Prop34
280
     0
102
RTVSPost2010PropOp34
 70
     1
102
RTVSPost2010Prop35
280
     0
102
RTVSPost2010PropOp35
 70
     1
102
RTVSPost2010Prop36
280
     0
102
RTVSPost2010PropOp36
 70
     1
102
RTVSPost2010Prop37
 90
       50
102
RTVSPost2010PropOp37
 70
     1
102
RTVSPost2010Prop38
140
0.0
102
RTVSPost2010PropOp38
 70
     1
102
RTVSPost2010Prop39
140
1.0
102
RTVSPost2010PropOp39
 70
     1
102
RTVSPost2010Prop40
 90
        0
102
RTVSPost2010PropOp40
 70
     1
102
RTVSPost2010Prop41ColorIndex
 90
       18
102
RTVSPost2010Prop41ColorRGB
 90
        0
102
RTVSPost2010PropOp41
 70
     1
102
RTVSPost2010Prop42
 90
       50
102
RTVSPost2010PropOp42
 70
     1
102
RTVSPost2010Prop43
 90
        3
102
RTVSPost2010PropOp43
 70
     1
102
RTVSPost2010Prop44ColorIndex
 90
        5
102
RTVSPost2010Prop44ColorRGB
 90
      255
102
RTVSPost2010PropOp44
 70
     1
102
RTVSPost2010Prop45
280
     0
102
RTVSPost2010PropOp45
 70
     1
102
RTVSPost2010Prop46
 90
       50
102
RTVSPost2010PropOp46
 70
     1
102
RTVSPost2010Prop47
 90
       50
102
RTVSPost2010PropOp47
 70
     1
102
RTVSPost2010Prop48
 90
       50
102
RTVSPost2010PropOp48
 70
     1
102
RTVSPost2010Prop49
280
     0
102
RTVSPost2010PropOp49
 70
     1
102
RTVSPost2010Prop50
 90
       50
102
RTVSPost2010PropOp50
 70
     1
102
RTVSPost2010Prop51ColorIndex
 90
      256
102
RTVSPost2010Prop51ColorRGB
 90
-16777216
102
RTVSPost2010PropOp51
 70
     0
102
RTVSPost2010Prop52
140
1.0
102
RTVSPost2010PropOp52
 70
     0
102
RTVSPost2010Prop53
 90
        2
102
RTVSPost2010PropOp53
 70
     1
102
RTVSPost2010Prop54
  1
strokes_ogs.tif
102
RTVSPost2010PropOp54
 70
     1
102
RTVSPost2010Prop55
280
     0
102
RTVSPost2010PropOp55
 70
     1
102
RTVSPost2010Prop56
140
1.0
102
RTVSPost2010PropOp56
 70
     1
102
RTVSPost2010Prop57
140
1.0
102
RTVSPost2010PropOp57
 70
     1
  0
XRECORD
  5
FF
102
{ACAD_REACTORS
330
FE
102
}
330
FE
100
AcDbXrecord
280
     1
102
RTVSPost2010Prop28
280
     0
102
RTVSPost2010PropOp28
 70
     1
102
RTVSPost2010Prop29
280
     1
102
RTVSPost2010PropOp29
 70
     1
102
RTVSPost2010Prop30
280
     1
102
RTVSPost2010PropOp30
 70
     1
102
RTVSPost2010Prop31
280
     0
102
RTVSPost2010PropOp31
 70
     1
102
RTVSPost2010Prop32
280
     0
102
RTVSPost2010PropOp32
 70
     1
102
RTVSPost2010Prop33
280
     0
102
RTVSPost2010PropOp33
 70
     1
102
RTVSPost2010Prop34
280
     0
102
RTVSPost2010PropOp34
 70
     1
102
RTVSPost2010Prop35
280
     0
102
RTVSPost2010PropOp35
 70
     1
102
RTVSPost2010Prop36
280
     0
102
RTVSPost2010PropOp36
 70
     1
102
RTVSPost2010Prop37
 90
       50
102
RTVSPost2010PropOp37
 70
     1
102
RTVSPost2010Prop38
140
0.0
102
RTVSPost2010PropOp38
 70
     1
102
RTVSPost2010Prop39
140
1.0
102
RTVSPost2010PropOp39
 70
     1
102
RTVSPost2010Prop40
 90
        0
102
RTVSPost2010PropOp40
 70
     1
102
RTVSPost2010Prop41ColorIndex
 90
       18
102
RTVSPost2010Prop41ColorRGB
 90
        0
102
RTVSPost2010PropOp41
 70
     1
102
RTVSPost2010Prop42
 90
       50
102
RTVSPost2010PropOp42
 70
     1
102
RTVSPost2010Prop43
 90
        3
102
RTVSPost2010PropOp43
 70
     1
102
RTVSPost2010Prop44ColorIndex
 90
        5
102
RTVSPost2010Prop44ColorRGB
 90
      255
102
RTVSPost2010PropOp44
 70
     1
102
RTVSPost2010Prop45
280
     0
102
RTVSPost2010PropOp45
 70
     1
102
RTVSPost2010Prop46
 90
       50
102
RTVSPost2010PropOp46
 70
     1
102
RTVSPost2010Prop47
 90
       50
102
RTVSPost2010PropOp47
 70
     1
102
RTVSPost2010Prop48
 90
       50
102
RTVSPost2010PropOp48
 70
     1
102
RTVSPost2010Prop49
280
     0
102
RTVSPost2010PropOp49
 70
     1
102
RTVSPost2010Prop50
 90
       50
102
RTVSPost2010PropOp50
 70
     1
102
RTVSPost2010Prop51ColorIndex
 90
      256
102
RTVSPost2010Prop51ColorRGB
 90
-16777216
102
RTVSPost2010PropOp51
 70
     0
102
RTVSPost2010Prop52
140
1.0
102
RTVSPost2010PropOp52
 70
     0
102
RTVSPost2010Prop53
 90
        2
102
RTVSPost2010PropOp53
 70
     1
102
RTVSPost2010Prop54
  1
strokes_ogs.tif
102
RTVSPost2010PropOp54
 70
     1
102
RTVSPost2010Prop55
280
     0
102
RTVSPost2010PropOp55
 70
     1
102
RTVSPost2010Prop56
140
1.0
102
RTVSPost2010PropOp56
 70
     1
102
RTVSPost2010Prop57
140
1.0
102
RTVSPost2010PropOp57
 70
     1
  0
XRECORD
  5
119
102
{ACAD_REACTORS
330
118
102
}
330
118
100
AcDbXrecord
280
     1
102
RTVSPost2010Prop28
280
     0
102
RTVSPost2010PropOp28
 70
     0
102
RTVSPost2010Prop29
280
     1
102
RTVSPost2010PropOp29
 70
     0
102
RTVSPost2010Prop30
280
     1
102
RTVSPost2010PropOp30
 70
     0
102
RTVSPost2010Prop31
280
     0
102
RTVSPost2010PropOp31
 70
     0
102
RTVSPost2010Prop32
280
     0
102
RTVSPost2010PropOp32
 70
     0
102
RTVSPost2010Prop33
280
     0
102
RTVSPost2010PropOp33
 70
     0
102
RTVSPost2010Prop34
280
     0
102
RTVSPost2010PropOp34
 70
     0
102
RTVSPost2010Prop35
280
     0
102
RTVSPost2010PropOp35
 70
     0
102
RTVSPost2010Prop36
280
     0
102
RTVSPost2010PropOp36
 70
     0
102
RTVSPost2010Prop37
 90
       50
102
RTVSPost2010PropOp37
 70
     0
102
RTVSPost2010Prop38
140
0.0
102
RTVSPost2010PropOp38
 70
     0
102
RTVSPost2010Prop39
140
1.0
102
RTVSPost2010PropOp39
 70
     0
102
RTVSPost2010Prop40
 90
        0
102
RTVSPost2010PropOp40
 70
     0
102
RTVSPost2010Prop41ColorIndex
 90
       18
102
RTVSPost2010Prop41ColorRGB
 90
        0
102
RTVSPost2010PropOp41
 70
     0
102
RTVSPost2010Prop42
 90
       50
102
RTVSPost2010PropOp42
 70
     0
102
RTVSPost2010Prop43
 90
        3
102
RTVSPost2010PropOp43
 70
     0
102
RTVSPost2010Prop44ColorIndex
 90
        5
102
RTVSPost2010Prop44ColorRGB
 90
      255
102
RTVSPost2010PropOp44
 70
     0
102
RTVSPost2010Prop45
280
     0
102
RTVSPost2010PropOp45
 70
     0
102
RTVSPost2010Prop46
 90
       50
102
RTVSPost2010PropOp46
 70
     0
102
RTVSPost2010Prop47
 90
       50
102
RTVSPost2010PropOp47
 70
     0
102
RTVSPost2010Prop48
 90
       50
102
RTVSPost2010PropOp48
 70
     0
102
RTVSPost2010Prop49
280
     0
102
RTVSPost2010PropOp49
 70
     0
102
RTVSPost2010Prop50
 90
       50
102
RTVSPost2010PropOp50
 70
     0
102
RTVSPost2010Prop51ColorIndex
 90
      256
102
RTVSPost2010Prop51ColorRGB
 90
-16777216
102
RTVSPost2010PropOp51
 70
     0
102
RTVSPost2010Prop52
140
1.0
102
RTVSPost2010PropOp52
 70
     0
102
RTVSPost2010Prop53
 90
        2
102
RTVSPost2010PropOp53
 70
     0
102
RTVSPost2010Prop54
  1
strokes_ogs.tif
102
RTVSPost2010PropOp54
 70
     0
102
RTVSPost2010Prop55
280
     0
102
RTVSPost2010PropOp55
 70
     0
102
RTVSPost2010Prop56
140
1.0
102
RTVSPost2010PropOp56
 70
     0
102
RTVSPost2010Prop57
140
1.0
102
RTVSPost2010PropOp57
 70
     0
  0
XRECORD
  5
107
102
{ACAD_REACTORS
330
106
102
}
330
106
100
AcDbXrecord
280
     1
102
RTVSPost2010Prop28
280
     0
102
RTVSPost2010PropOp28
 70
     1
102
RTVSPost2010Prop29
280
     1
102
RTVSPost2010PropOp29
 70
     1
102
RTVSPost2010Prop30
280
     1
102
RTVSPost2010PropOp30
 70
     1
102
RTVSPost2010Prop31
280
     0
102
RTVSPost2010PropOp31
 70
     1
102
RTVSPost2010Prop32
280
     0
102
RTVSPost2010PropOp32
 70
     1
102
RTVSPost2010Prop33
280
     0
102
RTVSPost2010PropOp33
 70
     1
102
RTVSPost2010Prop34
280
     0
102
RTVSPost2010PropOp34
 70
     1
102
RTVSPost2010Prop35
280
     0
102
RTVSPost2010PropOp35
 70
     1
102
RTVSPost2010Prop36
280
     0
102
RTVSPost2010PropOp36
 70
     1
102
RTVSPost2010Prop37
 90
       50
102
RTVSPost2010PropOp37
 70
     1
102
RTVSPost2010Prop38
140
0.0
102
RTVSPost2010PropOp38
 70
     1
102
RTVSPost2010Prop39
140
1.0
102
RTVSPost2010PropOp39
 70
     1
102
RTVSPost2010Prop40
 90
        0
102
RTVSPost2010PropOp40
 70
     1
102
RTVSPost2010Prop41ColorIndex
 90
       18
102
RTVSPost2010Prop41ColorRGB
 90
        0
102
RTVSPost2010PropOp41
 70
     1
102
RTVSPost2010Prop42
 90
       50
102
RTVSPost2010PropOp42
 70
     1
102
RTVSPost2010Prop43
 90
        3
102
RTVSPost2010PropOp43
 70
     1
102
RTVSPost2010Prop44ColorIndex
 90
        5
102
RTVSPost2010Prop44ColorRGB
 90
      255
102
RTVSPost2010PropOp44
 70
     1
102
RTVSPost2010Prop45
280
     0
102
RTVSPost2010PropOp45
 70
     1
102
RTVSPost2010Prop46
 90
       50
102
RTVSPost2010PropOp46
 70
     1
102
RTVSPost2010Prop47
 90
       50
102
RTVSPost2010PropOp47
 70
     1
102
RTVSPost2010Prop48
 90
       50
102
RTVSPost2010PropOp48
 70
     1
102
RTVSPost2010Prop49
280
     0
102
RTVSPost2010PropOp49
 70
     1
102
RTVSPost2010Prop50
 90
       50
102
RTVSPost2010PropOp50
 70
     1
102
RTVSPost2010Prop51ColorIndex
 90
      256
102
RTVSPost2010Prop51ColorRGB
 90
-16777216
102
RTVSPost2010PropOp51
 70
     0
102
RTVSPost2010Prop52
140
1.0
102
RTVSPost2010PropOp52
 70
     0
102
RTVSPost2010Prop53
 90
        2
102
RTVSPost2010PropOp53
 70
     1
102
RTVSPost2010Prop54
  1
strokes_ogs.tif
102
RTVSPost2010PropOp54
 70
     1
102
RTVSPost2010Prop55
280
     0
102
RTVSPost2010PropOp55
 70
     1
102
RTVSPost2010Prop56
140
1.0
102
RTVSPost2010PropOp56
 70
     1
102
RTVSPost2010Prop57
140
1.0
102
RTVSPost2010PropOp57
 70
     1
  0
XRECORD
  5
EB
102
{ACAD_REACTORS
330
EA
102
}
330
EA
100
AcDbXrecord
280
     1
102
RTVSPost2010Prop28
280
     0
102
RTVSPost2010PropOp28
 70
     1
102
RTVSPost2010Prop29
280
     1
102
RTVSPost2010PropOp29
 70
     1
102
RTVSPost2010Prop30
280
     1
102
RTVSPost2010PropOp30
 70
     1
102
RTVSPost2010Prop31
280
     0
102
RTVSPost2010PropOp31
 70
     1
102
RTVSPost2010Prop32
280
     0
102
RTVSPost2010PropOp32
 70
     1
102
RTVSPost2010Prop33
280
     0
102
RTVSPost2010PropOp33
 70
     1
102
RTVSPost2010Prop34
280
     0
102
RTVSPost2010PropOp34
 70
     1
102
RTVSPost2010Prop35
280
     0
102
RTVSPost2010PropOp35
 70
     1
102
RTVSPost2010Prop36
280
     0
102
RTVSPost2010PropOp36
 70
     1
102
RTVSPost2010Prop37
 90
       50
102
RTVSPost2010PropOp37
 70
     1
102
RTVSPost2010Prop38
140
0.0
102
RTVSPost2010PropOp38
 70
     1
102
RTVSPost2010Prop39
140
1.0
102
RTVSPost2010PropOp39
 70
     1
102
RTVSPost2010Prop40
 90
        0
102
RTVSPost2010PropOp40
 70
     1
102
RTVSPost2010Prop41ColorIndex
 90
       18
102
RTVSPost2010Prop41ColorRGB
 90
        0
102
RTVSPost2010PropOp41
 70
     1
102
RTVSPost2010Prop42
 90
       50
102
RTVSPost2010PropOp42
 70
     1
102
RTVSPost2010Prop43
 90
        3
102
RTVSPost2010PropOp43
 70
     1
102
RTVSPost2010Prop44ColorIndex
 90
        5
102
RTVSPost2010Prop44ColorRGB
 90
      255
102
RTVSPost2010PropOp44
 70
     1
102
RTVSPost2010Prop45
280
     0
102
RTVSPost2010PropOp45
 70
     1
102
RTVSPost2010Prop46
 90
       50
102
RTVSPost2010PropOp46
 70
     1
102
RTVSPost2010Prop47
 90
       50
102
RTVSPost2010PropOp47
 70
     1
102
RTVSPost2010Prop48
 90
       50
102
RTVSPost2010PropOp48
 70
     1
102
RTVSPost2010Prop49
280
     0
102
RTVSPost2010PropOp49
 70
     1
102
RTVSPost2010Prop50
 90
       50
102
RTVSPost2010PropOp50
 70
     1
102
RTVSPost2010Prop51ColorIndex
 90
      256
102
RTVSPost2010Prop51ColorRGB
 90
-16777216
102
RTVSPost2010PropOp51
 70
     0
102
RTVSPost2010Prop52
140
1.0
102
RTVSPost2010PropOp52
 70
     0
102
RTVSPost2010Prop53
 90
        2
102
RTVSPost2010PropOp53
 70
     1
102
RTVSPost2010Prop54
  1
strokes_ogs.tif
102
RTVSPost2010PropOp54
 70
     1
102
RTVSPost2010Prop55
280
     0
102
RTVSPost2010PropOp55
 70
     1
102
RTVSPost2010Prop56
140
1.0
102
RTVSPost2010PropOp56
 70
     1
102
RTVSPost2010Prop57
140
1.0
102
RTVSPost2010PropOp57
 70
     1
  0
XRECORD
  5
ED
102
{ACAD_REACTORS
330
EC
102
}
330
EC
100
AcDbXrecord
280
     1
102
RTVSPost2010Prop28
280
     0
102
RTVSPost2010PropOp28
 70
     1
102
RTVSPost2010Prop29
280
     1
102
RTVSPost2010PropOp29
 70
     1
102
RTVSPost2010Prop30
280
     1
102
RTVSPost2010PropOp30
 70
     1
102
RTVSPost2010Prop31
280
     0
102
RTVSPost2010PropOp31
 70
     1
102
RTVSPost2010Prop32
280
     0
102
RTVSPost2010PropOp32
 70
     1
102
RTVSPost2010Prop33
280
     0
102
RTVSPost2010PropOp33
 70
     1
102
RTVSPost2010Prop34
280
     0
102
RTVSPost2010PropOp34
 70
     1
102
RTVSPost2010Prop35
280
     0
102
RTVSPost2010PropOp35
 70
     1
102
RTVSPost2010Prop36
280
     0
102
RTVSPost2010PropOp36
 70
     1
102
RTVSPost2010Prop37
 90
       50
102
RTVSPost2010PropOp37
 70
     1
102
RTVSPost2010Prop38
140
0.0
102
RTVSPost2010PropOp38
 70
     1
102
RTVSPost2010Prop39
140
1.0
102
RTVSPost2010PropOp39
 70
     1
102
RTVSPost2010Prop40
 90
        0
102
RTVSPost2010PropOp40
 70
     1
102
RTVSPost2010Prop41ColorIndex
 90
       18
102
RTVSPost2010Prop41ColorRGB
 90
        0
102
RTVSPost2010PropOp41
 70
     1
102
RTVSPost2010Prop42
 90
       50
102
RTVSPost2010PropOp42
 70
     1
102
RTVSPost2010Prop43
 90
        3
102
RTVSPost2010PropOp43
 70
     1
102
RTVSPost2010Prop44ColorIndex
 90
        5
102
RTVSPost2010Prop44ColorRGB
 90
      255
102
RTVSPost2010PropOp44
 70
     1
102
RTVSPost2010Prop45
280
     0
102
RTVSPost2010PropOp45
 70
     1
102
RTVSPost2010Prop46
 90
       50
102
RTVSPost2010PropOp46
 70
     1
102
RTVSPost2010Prop47
 90
       50
102
RTVSPost2010PropOp47
 70
     1
102
RTVSPost2010Prop48
 90
       50
102
RTVSPost2010PropOp48
 70
     1
102
RTVSPost2010Prop49
280
     0
102
RTVSPost2010PropOp49
 70
     1
102
RTVSPost2010Prop50
 90
       50
102
RTVSPost2010PropOp50
 70
     1
102
RTVSPost2010Prop51ColorIndex
 90
      256
102
RTVSPost2010Prop51ColorRGB
 90
-16777216
102
RTVSPost2010PropOp51
 70
     0
102
RTVSPost2010Prop52
140
1.0
102
RTVSPost2010PropOp52
 70
     0
102
RTVSPost2010Prop53
 90
        2
102
RTVSPost2010PropOp53
 70
     1
102
RTVSPost2010Prop54
  1
strokes_ogs.tif
102
RTVSPost2010PropOp54
 70
     1
102
RTVSPost2010Prop55
280
     0
102
RTVSPost2010PropOp55
 70
     1
102
RTVSPost2010Prop56
140
1.0
102
RTVSPost2010PropOp56
 70
     1
102
RTVSPost2010Prop57
140
1.0
102
RTVSPost2010PropOp57
 70
     1
  0
XRECORD
  5
EF
102
{ACAD_REACTORS
330
EE
102
}
330
EE
100
AcDbXrecord
280
     1
102
RTVSPost2010Prop28
280
     0
102
RTVSPost2010PropOp28
 70
     1
102
RTVSPost2010Prop29
280
     1
102
RTVSPost2010PropOp29
 70
     1
102
RTVSPost2010Prop30
280
     1
102
RTVSPost2010PropOp30
 70
     1
102
RTVSPost2010Prop31
280
     0
102
RTVSPost2010PropOp31
 70
     1
102
RTVSPost2010Prop32
280
     0
102
RTVSPost2010PropOp32
 70
     1
102
RTVSPost2010Prop33
280
     0
102
RTVSPost2010PropOp33
 70
     1
102
RTVSPost2010Prop34
280
     0
102
RTVSPost2010PropOp34
 70
     1
102
RTVSPost2010Prop35
280
     0
102
RTVSPost2010PropOp35
 70
     1
102
RTVSPost2010Prop36
280
     0
102
RTVSPost2010PropOp36
 70
     1
102
RTVSPost2010Prop37
 90
       50
102
RTVSPost2010PropOp37
 70
     1
102
RTVSPost2010Prop38
140
0.0
102
RTVSPost2010PropOp38
 70
     1
102
RTVSPost2010Prop39
140
1.0
102
RTVSPost2010PropOp39
 70
     1
102
RTVSPost2010Prop40
 90
        0
102
RTVSPost2010PropOp40
 70
     1
102
RTVSPost2010Prop41ColorIndex
 90
       18
102
RTVSPost2010Prop41ColorRGB
 90
        0
102
RTVSPost2010PropOp41
 70
     1
102
RTVSPost2010Prop42
 90
       50
102
RTVSPost2010PropOp42
 70
     1
102
RTVSPost2010Prop43
 90
        3
102
RTVSPost2010PropOp43
 70
     1
102
RTVSPost2010Prop44ColorIndex
 90
        5
102
RTVSPost2010Prop44ColorRGB
 90
      255
102
RTVSPost2010PropOp44
 70
     1
102
RTVSPost2010Prop45
280
     0
102
RTVSPost2010PropOp45
 70
     1
102
RTVSPost2010Prop46
 90
       50
102
RTVSPost2010PropOp46
 70
     1
102
RTVSPost2010Prop47
 90
       50
102
RTVSPost2010PropOp47
 70
     1
102
RTVSPost2010Prop48
 90
       50
102
RTVSPost2010PropOp48
 70
     1
102
RTVSPost2010Prop49
280
     0
102
RTVSPost2010PropOp49
 70
     1
102
RTVSPost2010Prop50
 90
       50
102
RTVSPost2010PropOp50
 70
     1
102
RTVSPost2010Prop51ColorIndex
 90
      256
102
RTVSPost2010Prop51ColorRGB
 90
-16777216
102
RTVSPost2010PropOp51
 70
     0
102
RTVSPost2010Prop52
140
1.0
102
RTVSPost2010PropOp52
 70
     0
102
RTVSPost2010Prop53
 90
        2
102
RTVSPost2010PropOp53
 70
     1
102
RTVSPost2010Prop54
  1
strokes_ogs.tif
102
RTVSPost2010PropOp54
 70
     1
102
RTVSPost2010Prop55
280
     0
102
RTVSPost2010PropOp55
 70
     1
102
RTVSPost2010Prop56
140
1.0
102
RTVSPost2010PropOp56
 70
     1
102
RTVSPost2010Prop57
140
1.0
102
RTVSPost2010PropOp57
 70
     1
  0
XRECORD
  5
F1
102
{ACAD_REACTORS
330
F0
102
}
330
F0
100
AcDbXrecord
280
     1
102
RTVSPost2010Prop28
280
     0
102
RTVSPost2010PropOp28
 70
     1
102
RTVSPost2010Prop29
280
     1
102
RTVSPost2010PropOp29
 70
     1
102
RTVSPost2010Prop30
280
     1
102
RTVSPost2010PropOp30
 70
     1
102
RTVSPost2010Prop31
280
     0
102
RTVSPost2010PropOp31
 70
     1
102
RTVSPost2010Prop32
280
     0
102
RTVSPost2010PropOp32
 70
     1
102
RTVSPost2010Prop33
280
     0
102
RTVSPost2010PropOp33
 70
     1
102
RTVSPost2010Prop34
280
     0
102
RTVSPost2010PropOp34
 70
     1
102
RTVSPost2010Prop35
280
     0
102
RTVSPost2010PropOp35
 70
     1
102
RTVSPost2010Prop36
280
     0
102
RTVSPost2010PropOp36
 70
     1
102
RTVSPost2010Prop37
 90
       50
102
RTVSPost2010PropOp37
 70
     1
102
RTVSPost2010Prop38
140
0.0
102
RTVSPost2010PropOp38
 70
     1
102
RTVSPost2010Prop39
140
1.0
102
RTVSPost2010PropOp39
 70
     1
102
RTVSPost2010Prop40
 90
        0
102
RTVSPost2010PropOp40
 70
     1
102
RTVSPost2010Prop41ColorIndex
 90
       18
102
RTVSPost2010Prop41ColorRGB
 90
        0
102
RTVSPost2010PropOp41
 70
     1
102
RTVSPost2010Prop42
 90
       50
102
RTVSPost2010PropOp42
 70
     1
102
RTVSPost2010Prop43
 90
        3
102
RTVSPost2010PropOp43
 70
     1
102
RTVSPost2010Prop44ColorIndex
 90
        5
102
RTVSPost2010Prop44ColorRGB
 90
      255
102
RTVSPost2010PropOp44
 70
     1
102
RTVSPost2010Prop45
280
     0
102
RTVSPost2010PropOp45
 70
     1
102
RTVSPost2010Prop46
 90
       50
102
RTVSPost2010PropOp46
 70
     1
102
RTVSPost2010Prop47
 90
       50
102
RTVSPost2010PropOp47
 70
     1
102
RTVSPost2010Prop48
 90
       50
102
RTVSPost2010PropOp48
 70
     1
102
RTVSPost2010Prop49
280
     0
102
RTVSPost2010PropOp49
 70
     1
102
RTVSPost2010Prop50
 90
       50
102
RTVSPost2010PropOp50
 70
     1
102
RTVSPost2010Prop51ColorIndex
 90
      256
102
RTVSPost2010Prop51ColorRGB
 90
-16777216
102
RTVSPost2010PropOp51
 70
     0
102
RTVSPost2010Prop52
140
1.0
102
RTVSPost2010PropOp52
 70
     0
102
RTVSPost2010Prop53
 90
        2
102
RTVSPost2010PropOp53
 70
     1
102
RTVSPost2010Prop54
  1
strokes_ogs.tif
102
RTVSPost2010PropOp54
 70
     1
102
RTVSPost2010Prop55
280
     0
102
RTVSPost2010PropOp55
 70
     1
102
RTVSPost2010Prop56
140
1.0
102
RTVSPost2010PropOp56
 70
     1
102
RTVSPost2010Prop57
140
1.0
102
RTVSPost2010PropOp57
 70
     1
  0
XRECORD
  5
F9
102
{ACAD_REACTORS
330
F8
102
}
330
F8
100
AcDbXrecord
280
     1
102
RTVSPost2010Prop28
280
     0
102
RTVSPost2010PropOp28
 70
     1
102
RTVSPost2010Prop29
280
     1
102
RTVSPost2010PropOp29
 70
     1
102
RTVSPost2010Prop30
280
     1
102
RTVSPost2010PropOp30
 70
     1
102
RTVSPost2010Prop31
280
     0
102
RTVSPost2010PropOp31
 70
     1
102
RTVSPost2010Prop32
280
     0
102
RTVSPost2010PropOp32
 70
     1
102
RTVSPost2010Prop33
280
     0
102
RTVSPost2010PropOp33
 70
     1
102
RTVSPost2010Prop34
280
     0
102
RTVSPost2010PropOp34
 70
     1
102
RTVSPost2010Prop35
280
     0
102
RTVSPost2010PropOp35
 70
     1
102
RTVSPost2010Prop36
280
     0
102
RTVSPost2010PropOp36
 70
     1
102
RTVSPost2010Prop37
 90
       50
102
RTVSPost2010PropOp37
 70
     1
102
RTVSPost2010Prop38
140
0.0
102
RTVSPost2010PropOp38
 70
     1
102
RTVSPost2010Prop39
140
1.0
102
RTVSPost2010PropOp39
 70
     1
102
RTVSPost2010Prop40
 90
        0
102
RTVSPost2010PropOp40
 70
     1
102
RTVSPost2010Prop41ColorIndex
 90
       18
102
RTVSPost2010Prop41ColorRGB
 90
        0
102
RTVSPost2010PropOp41
 70
     1
102
RTVSPost2010Prop42
 90
       50
102
RTVSPost2010PropOp42
 70
     1
102
RTVSPost2010Prop43
 90
        3
102
RTVSPost2010PropOp43
 70
     1
102
RTVSPost2010Prop44ColorIndex
 90
        5
102
RTVSPost2010Prop44ColorRGB
 90
      255
102
RTVSPost2010PropOp44
 70
     1
102
RTVSPost2010Prop45
280
     0
102
RTVSPost2010PropOp45
 70
     1
102
RTVSPost2010Prop46
 90
       50
102
RTVSPost2010PropOp46
 70
     1
102
RTVSPost2010Prop47
 90
       50
102
RTVSPost2010PropOp47
 70
     1
102
RTVSPost2010Prop48
 90
       50
102
RTVSPost2010PropOp48
 70
     1
102
RTVSPost2010Prop49
280
     0
102
RTVSPost2010PropOp49
 70
     1
102
RTVSPost2010Prop50
 90
       50
102
RTVSPost2010PropOp50
 70
     1
102
RTVSPost2010Prop51ColorIndex
 90
      256
102
RTVSPost2010Prop51ColorRGB
 90
-16777216
102
RTVSPost2010PropOp51
 70
     0
102
RTVSPost2010Prop52
140
1.0
102
RTVSPost2010PropOp52
 70
     0
102
RTVSPost2010Prop53
 90
        2
102
RTVSPost2010PropOp53
 70
     1
102
RTVSPost2010Prop54
  1
strokes_ogs.tif
102
RTVSPost2010PropOp54
 70
     1
102
RTVSPost2010Prop55
280
     0
102
RTVSPost2010PropOp55
 70
     1
102
RTVSPost2010Prop56
140
1.0
102
RTVSPost2010PropOp56
 70
     1
102
RTVSPost2010Prop57
140
1.0
102
RTVSPost2010PropOp57
 70
     1
  0
XRECORD
  5
115
102
{ACAD_REACTORS
330
114
102
}
330
114
100
AcDbXrecord
280
     1
102
RTVSPost2010Prop28
280
     0
102
RTVSPost2010PropOp28
 70
     0
102
RTVSPost2010Prop29
280
     1
102
RTVSPost2010PropOp29
 70
     0
102
RTVSPost2010Prop30
280
     1
102
RTVSPost2010PropOp30
 70
     0
102
RTVSPost2010Prop31
280
     0
102
RTVSPost2010PropOp31
 70
     0
102
RTVSPost2010Prop32
280
     0
102
RTVSPost2010PropOp32
 70
     0
102
RTVSPost2010Prop33
280
     0
102
RTVSPost2010PropOp33
 70
     0
102
RTVSPost2010Prop34
280
     0
102
RTVSPost2010PropOp34
 70
     0
102
RTVSPost2010Prop35
280
     0
102
RTVSPost2010PropOp35
 70
     0
102
RTVSPost2010Prop36
280
     0
102
RTVSPost2010PropOp36
 70
     0
102
RTVSPost2010Prop37
 90
       50
102
RTVSPost2010PropOp37
 70
     0
102
RTVSPost2010Prop38
140
0.0
102
RTVSPost2010PropOp38
 70
     0
102
RTVSPost2010Prop39
140
1.0
102
RTVSPost2010PropOp39
 70
     0
102
RTVSPost2010Prop40
 90
        0
102
RTVSPost2010PropOp40
 70
     0
102
RTVSPost2010Prop41ColorIndex
 90
       18
102
RTVSPost2010Prop41ColorRGB
 90
        0
102
RTVSPost2010PropOp41
 70
     0
102
RTVSPost2010Prop42
 90
       50
102
RTVSPost2010PropOp42
 70
     0
102
RTVSPost2010Prop43
 90
        3
102
RTVSPost2010PropOp43
 70
     0
102
RTVSPost2010Prop44ColorIndex
 90
        5
102
RTVSPost2010Prop44ColorRGB
 90
      255
102
RTVSPost2010PropOp44
 70
     0
102
RTVSPost2010Prop45
280
     0
102
RTVSPost2010PropOp45
 70
     0
102
RTVSPost2010Prop46
 90
       50
102
RTVSPost2010PropOp46
 70
     0
102
RTVSPost2010Prop47
 90
       50
102
RTVSPost2010PropOp47
 70
     0
102
RTVSPost2010Prop48
 90
       50
102
RTVSPost2010PropOp48
 70
     0
102
RTVSPost2010Prop49
280
     0
102
RTVSPost2010PropOp49
 70
     0
102
RTVSPost2010Prop50
 90
       50
102
RTVSPost2010PropOp50
 70
     0
102
RTVSPost2010Prop51ColorIndex
 90
      256
102
RTVSPost2010Prop51ColorRGB
 90
-16777216
102
RTVSPost2010PropOp51
 70
     0
102
RTVSPost2010Prop52
140
1.0
102
RTVSPost2010PropOp52
 70
     0
102
RTVSPost2010Prop53
 90
        2
102
RTVSPost2010PropOp53
 70
     0
102
RTVSPost2010Prop54
  1
strokes_ogs.tif
102
RTVSPost2010PropOp54
 70
     0
102
RTVSPost2010Prop55
280
     0
102
RTVSPost2010PropOp55
 70
     0
102
RTVSPost2010Prop56
140
1.0
102
RTVSPost2010PropOp56
 70
     0
102
RTVSPost2010Prop57
140
1.0
102
RTVSPost2010PropOp57
 70
     0
  0
XRECORD
  5
105
102
{ACAD_REACTORS
330
104
102
}
330
104
100
AcDbXrecord
280
     1
102
RTVSPost2010Prop28
280
     0
102
RTVSPost2010PropOp28
 70
     1
102
RTVSPost2010Prop29
280
     1
102
RTVSPost2010PropOp29
 70
     1
102
RTVSPost2010Prop30
280
     1
102
RTVSPost2010PropOp30
 70
     1
102
RTVSPost2010Prop31
280
     0
102
RTVSPost2010PropOp31
 70
     1
102
RTVSPost2010Prop32
280
     0
102
RTVSPost2010PropOp32
 70
     1
102
RTVSPost2010Prop33
280
     0
102
RTVSPost2010PropOp33
 70
     1
102
RTVSPost2010Prop34
280
     0
102
RTVSPost2010PropOp34
 70
     1
102
RTVSPost2010Prop35
280
     0
102
RTVSPost2010PropOp35
 70
     1
102
RTVSPost2010Prop36
280
     0
102
RTVSPost2010PropOp36
 70
     1
102
RTVSPost2010Prop37
 90
       50
102
RTVSPost2010PropOp37
 70
     1
102
RTVSPost2010Prop38
140
0.0
102
RTVSPost2010PropOp38
 70
     1
102
RTVSPost2010Prop39
140
1.0
102
RTVSPost2010PropOp39
 70
     1
102
RTVSPost2010Prop40
 90
        0
102
RTVSPost2010PropOp40
 70
     1
102
RTVSPost2010Prop41ColorIndex
 90
       18
102
RTVSPost2010Prop41ColorRGB
 90
        0
102
RTVSPost2010PropOp41
 70
     1
102
RTVSPost2010Prop42
 90
       50
102
RTVSPost2010PropOp42
 70
     1
102
RTVSPost2010Prop43
 90
        3
102
RTVSPost2010PropOp43
 70
     1
102
RTVSPost2010Prop44ColorIndex
 90
        5
102
RTVSPost2010Prop44ColorRGB
 90
      255
102
RTVSPost2010PropOp44
 70
     1
102
RTVSPost2010Prop45
280
     0
102
RTVSPost2010PropOp45
 70
     1
102
RTVSPost2010Prop46
 90
       50
102
RTVSPost2010PropOp46
 70
     1
102
RTVSPost2010Prop47
 90
       50
102
RTVSPost2010PropOp47
 70
     1
102
RTVSPost2010Prop48
 90
       50
102
RTVSPost2010PropOp48
 70
     1
102
RTVSPost2010Prop49
280
     0
102
RTVSPost2010PropOp49
 70
     1
102
RTVSPost2010Prop50
 90
       50
102
RTVSPost2010PropOp50
 70
     1
102
RTVSPost2010Prop51ColorIndex
 90
      256
102
RTVSPost2010Prop51ColorRGB
 90
-16777216
102
RTVSPost2010PropOp51
 70
     0
102
RTVSPost2010Prop52
140
1.0
102
RTVSPost2010PropOp52
 70
     0
102
RTVSPost2010Prop53
 90
        2
102
RTVSPost2010PropOp53
 70
     1
102
RTVSPost2010Prop54
  1
strokes_ogs.tif
102
RTVSPost2010PropOp54
 70
     1
102
RTVSPost2010Prop55
280
     0
102
RTVSPost2010PropOp55
 70
     1
102
RTVSPost2010Prop56
140
1.0
102
RTVSPost2010PropOp56
 70
     1
102
RTVSPost2010Prop57
140
1.0
102
RTVSPost2010PropOp57
 70
     1
  0
XRECORD
  5
117
102
{ACAD_REACTORS
330
116
102
}
330
116
100
AcDbXrecord
280
     1
102
RTVSPost2010Prop28
280
     0
102
RTVSPost2010PropOp28
 70
     0
102
RTVSPost2010Prop29
280
     1
102
RTVSPost2010PropOp29
 70
     0
102
RTVSPost2010Prop30
280
     1
102
RTVSPost2010PropOp30
 70
     0
102
RTVSPost2010Prop31
280
     0
102
RTVSPost2010PropOp31
 70
     0
102
RTVSPost2010Prop32
280
     0
102
RTVSPost2010PropOp32
 70
     0
102
RTVSPost2010Prop33
280
     0
102
RTVSPost2010PropOp33
 70
     0
102
RTVSPost2010Prop34
280
     0
102
RTVSPost2010PropOp34
 70
     0
102
RTVSPost2010Prop35
280
     0
102
RTVSPost2010PropOp35
 70
     0
102
RTVSPost2010Prop36
280
     0
102
RTVSPost2010PropOp36
 70
     0
102
RTVSPost2010Prop37
 90
       50
102
RTVSPost2010PropOp37
 70
     0
102
RTVSPost2010Prop38
140
0.0
102
RTVSPost2010PropOp38
 70
     0
102
RTVSPost2010Prop39
140
1.0
102
RTVSPost2010PropOp39
 70
     0
102
RTVSPost2010Prop40
 90
        0
102
RTVSPost2010PropOp40
 70
     0
102
RTVSPost2010Prop41ColorIndex
 90
       18
102
RTVSPost2010Prop41ColorRGB
 90
        0
102
RTVSPost2010PropOp41
 70
     0
102
RTVSPost2010Prop42
 90
       50
102
RTVSPost2010PropOp42
 70
     0
102
RTVSPost2010Prop43
 90
        3
102
RTVSPost2010PropOp43
 70
     0
102
RTVSPost2010Prop44ColorIndex
 90
        5
102
RTVSPost2010Prop44ColorRGB
 90
      255
102
RTVSPost2010PropOp44
 70
     0
102
RTVSPost2010Prop45
280
     0
102
RTVSPost2010PropOp45
 70
     0
102
RTVSPost2010Prop46
 90
       50
102
RTVSPost2010PropOp46
 70
     0
102
RTVSPost2010Prop47
 90
       50
102
RTVSPost2010PropOp47
 70
     0
102
RTVSPost2010Prop48
 90
       50
102
RTVSPost2010PropOp48
 70
     0
102
RTVSPost2010Prop49
280
     0
102
RTVSPost2010PropOp49
 70
     0
102
RTVSPost2010Prop50
 90
       50
102
RTVSPost2010PropOp50
 70
     0
102
RTVSPost2010Prop51ColorIndex
 90
      256
102
RTVSPost2010Prop51ColorRGB
 90
-16777216
102
RTVSPost2010PropOp51
 70
     0
102
RTVSPost2010Prop52
140
1.0
102
RTVSPost2010PropOp52
 70
     0
102
RTVSPost2010Prop53
 90
        2
102
RTVSPost2010PropOp53
 70
     0
102
RTVSPost2010Prop54
  1
strokes_ogs.tif
102
RTVSPost2010PropOp54
 70
     0
102
RTVSPost2010Prop55
280
     0
102
RTVSPost2010PropOp55
 70
     0
102
RTVSPost2010Prop56
140
1.0
102
RTVSPost2010PropOp56
 70
     0
102
RTVSPost2010Prop57
140
1.0
102
RTVSPost2010PropOp57
 70
     0
  0
XRECORD
  5
FD
102
{ACAD_REACTORS
330
FC
102
}
330
FC
100
AcDbXrecord
280
     1
102
RTVSPost2010Prop28
280
     0
102
RTVSPost2010PropOp28
 70
     1
102
RTVSPost2010Prop29
280
     1
102
RTVSPost2010PropOp29
 70
     1
102
RTVSPost2010Prop30
280
     1
102
RTVSPost2010PropOp30
 70
     1
102
RTVSPost2010Prop31
280
     0
102
RTVSPost2010PropOp31
 70
     1
102
RTVSPost2010Prop32
280
     0
102
RTVSPost2010PropOp32
 70
     1
102
RTVSPost2010Prop33
280
     0
102
RTVSPost2010PropOp33
 70
     1
102
RTVSPost2010Prop34
280
     0
102
RTVSPost2010PropOp34
 70
     1
102
RTVSPost2010Prop35
280
     0
102
RTVSPost2010PropOp35
 70
     1
102
RTVSPost2010Prop36
280
     0
102
RTVSPost2010PropOp36
 70
     1
102
RTVSPost2010Prop37
 90
       50
102
RTVSPost2010PropOp37
 70
     1
102
RTVSPost2010Prop38
140
0.0
102
RTVSPost2010PropOp38
 70
     1
102
RTVSPost2010Prop39
140
1.0
102
RTVSPost2010PropOp39
 70
     1
102
RTVSPost2010Prop40
 90
        0
102
RTVSPost2010PropOp40
 70
     1
102
RTVSPost2010Prop41ColorIndex
 90
       18
102
RTVSPost2010Prop41ColorRGB
 90
        0
102
RTVSPost2010PropOp41
 70
     1
102
RTVSPost2010Prop42
 90
       50
102
RTVSPost2010PropOp42
 70
     1
102
RTVSPost2010Prop43
 90
        3
102
RTVSPost2010PropOp43
 70
     1
102
RTVSPost2010Prop44ColorIndex
 90
        5
102
RTVSPost2010Prop44ColorRGB
 90
      255
102
RTVSPost2010PropOp44
 70
     1
102
RTVSPost2010Prop45
280
     0
102
RTVSPost2010PropOp45
 70
     1
102
RTVSPost2010Prop46
 90
       50
102
RTVSPost2010PropOp46
 70
     1
102
RTVSPost2010Prop47
 90
       50
102
RTVSPost2010PropOp47
 70
     1
102
RTVSPost2010Prop48
 90
       50
102
RTVSPost2010PropOp48
 70
     1
102
RTVSPost2010Prop49
280
     0
102
RTVSPost2010PropOp49
 70
     1
102
RTVSPost2010Prop50
 90
       50
102
RTVSPost2010PropOp50
 70
     1
102
RTVSPost2010Prop51ColorIndex
 90
      256
102
RTVSPost2010Prop51ColorRGB
 90
-16777216
102
RTVSPost2010PropOp51
 70
     0
102
RTVSPost2010Prop52
140
1.0
102
RTVSPost2010PropOp52
 70
     0
102
RTVSPost2010Prop53
 90
        2
102
RTVSPost2010PropOp53
 70
     1
102
RTVSPost2010Prop54
  1
strokes_ogs.tif
102
RTVSPost2010PropOp54
 70
     1
102
RTVSPost2010Prop55
280
     0
102
RTVSPost2010PropOp55
 70
     1
102
RTVSPost2010Prop56
140
1.0
102
RTVSPost2010PropOp56
 70
     1
102
RTVSPost2010Prop57
140
1.0
102
RTVSPost2010PropOp57
 70
     1
  0
XRECORD
  5
113
102
{ACAD_REACTORS
330
112
102
}
330
112
100
AcDbXrecord
280
     1
102
RTVSPost2010Prop28
280
     0
102
RTVSPost2010PropOp28
 70
     1
102
RTVSPost2010Prop29
280
     1
102
RTVSPost2010PropOp29
 70
     1
102
RTVSPost2010Prop30
280
     1
102
RTVSPost2010PropOp30
 70
     1
102
RTVSPost2010Prop31
280
     0
102
RTVSPost2010PropOp31
 70
     1
102
RTVSPost2010Prop32
280
     0
102
RTVSPost2010PropOp32
 70
     1
102
RTVSPost2010Prop33
280
     0
102
RTVSPost2010PropOp33
 70
     1
102
RTVSPost2010Prop34
280
     0
102
RTVSPost2010PropOp34
 70
     1
102
RTVSPost2010Prop35
280
     0
102
RTVSPost2010PropOp35
 70
     1
102
RTVSPost2010Prop36
280
     0
102
RTVSPost2010PropOp36
 70
     1
102
RTVSPost2010Prop37
 90
       50
102
RTVSPost2010PropOp37
 70
     1
102
RTVSPost2010Prop38
140
0.0
102
RTVSPost2010PropOp38
 70
     1
102
RTVSPost2010Prop39
140
1.0
102
RTVSPost2010PropOp39
 70
     1
102
RTVSPost2010Prop40
 90
        0
102
RTVSPost2010PropOp40
 70
     1
102
RTVSPost2010Prop41ColorIndex
 90
       18
102
RTVSPost2010Prop41ColorRGB
 90
        0
102
RTVSPost2010PropOp41
 70
     1
102
RTVSPost2010Prop42
 90
       50
102
RTVSPost2010PropOp42
 70
     1
102
RTVSPost2010Prop43
 90
        3
102
RTVSPost2010PropOp43
 70
     1
102
RTVSPost2010Prop44ColorIndex
 90
        5
102
RTVSPost2010Prop44ColorRGB
 90
      255
102
RTVSPost2010PropOp44
 70
     1
102
RTVSPost2010Prop45
280
     0
102
RTVSPost2010PropOp45
 70
     1
102
RTVSPost2010Prop46
 90
       50
102
RTVSPost2010PropOp46
 70
     1
102
RTVSPost2010Prop47
 90
       50
102
RTVSPost2010PropOp47
 70
     1
102
RTVSPost2010Prop48
 90
       50
102
RTVSPost2010PropOp48
 70
     1
102
RTVSPost2010Prop49
280
     0
102
RTVSPost2010PropOp49
 70
     1
102
RTVSPost2010Prop50
 90
       50
102
RTVSPost2010PropOp50
 70
     1
102
RTVSPost2010Prop51ColorIndex
 90
      256
102
RTVSPost2010Prop51ColorRGB
 90
-16777216
102
RTVSPost2010PropOp51
 70
     0
102
RTVSPost2010Prop52
140
1.0
102
RTVSPost2010PropOp52
 70
     0
102
RTVSPost2010Prop53
 90
        2
102
RTVSPost2010PropOp53
 70
     1
102
RTVSPost2010Prop54
  1
strokes_ogs.tif
102
RTVSPost2010PropOp54
 70
     1
102
RTVSPost2010Prop55
280
     0
102
RTVSPost2010PropOp55
 70
     1
102
RTVSPost2010Prop56
140
1.0
102
RTVSPost2010PropOp56
 70
     1
102
RTVSPost2010Prop57
140
1.0
102
RTVSPost2010PropOp57
 70
     1
  0
XRECORD
  5
111
102
{ACAD_REACTORS
330
110
102
}
330
110
100
AcDbXrecord
280
     1
102
RTVSPost2010Prop28
280
     0
102
RTVSPost2010PropOp28
 70
     1
102
RTVSPost2010Prop29
280
     1
102
RTVSPost2010PropOp29
 70
     1
102
RTVSPost2010Prop30
280
     1
102
RTVSPost2010PropOp30
 70
     1
102
RTVSPost2010Prop31
280
     0
102
RTVSPost2010PropOp31
 70
     1
102
RTVSPost2010Prop32
280
     0
102
RTVSPost2010PropOp32
 70
     1
102
RTVSPost2010Prop33
280
     0
102
RTVSPost2010PropOp33
 70
     1
102
RTVSPost2010Prop34
280
     0
102
RTVSPost2010PropOp34
 70
     1
102
RTVSPost2010Prop35
280
     0
102
RTVSPost2010PropOp35
 70
     1
102
RTVSPost2010Prop36
280
     0
102
RTVSPost2010PropOp36
 70
     1
102
RTVSPost2010Prop37
 90
       50
102
RTVSPost2010PropOp37
 70
     1
102
RTVSPost2010Prop38
140
0.0
102
RTVSPost2010PropOp38
 70
     1
102
RTVSPost2010Prop39
140
1.0
102
RTVSPost2010PropOp39
 70
     1
102
RTVSPost2010Prop40
 90
        0
102
RTVSPost2010PropOp40
 70
     1
102
RTVSPost2010Prop41ColorIndex
 90
       18
102
RTVSPost2010Prop41ColorRGB
 90
        0
102
RTVSPost2010PropOp41
 70
     1
102
RTVSPost2010Prop42
 90
       50
102
RTVSPost2010PropOp42
 70
     1
102
RTVSPost2010Prop43
 90
        3
102
RTVSPost2010PropOp43
 70
     1
102
RTVSPost2010Prop44ColorIndex
 90
        5
102
RTVSPost2010Prop44ColorRGB
 90
      255
102
RTVSPost2010PropOp44
 70
     1
102
RTVSPost2010Prop45
280
     0
102
RTVSPost2010PropOp45
 70
     1
102
RTVSPost2010Prop46
 90
       50
102
RTVSPost2010PropOp46
 70
     1
102
RTVSPost2010Prop47
 90
       50
102
RTVSPost2010PropOp47
 70
     1
102
RTVSPost2010Prop48
 90
       50
102
RTVSPost2010PropOp48
 70
     1
102
RTVSPost2010Prop49
280
     0
102
RTVSPost2010PropOp49
 70
     1
102
RTVSPost2010Prop50
 90
       50
102
RTVSPost2010PropOp50
 70
     1
102
RTVSPost2010Prop51ColorIndex
 90
      256
102
RTVSPost2010Prop51ColorRGB
 90
-16777216
102
RTVSPost2010PropOp51
 70
     0
102
RTVSPost2010Prop52
140
1.0
102
RTVSPost2010PropOp52
 70
     0
102
RTVSPost2010Prop53
 90
        2
102
RTVSPost2010PropOp53
 70
     1
102
RTVSPost2010Prop54
  1
strokes_ogs.tif
102
RTVSPost2010PropOp54
 70
     1
102
RTVSPost2010Prop55
280
     0
102
RTVSPost2010PropOp55
 70
     1
102
RTVSPost2010Prop56
140
1.0
102
RTVSPost2010PropOp56
 70
     1
102
RTVSPost2010Prop57
140
1.0
102
RTVSPost2010PropOp57
 70
     1
  0
XRECORD
  5
10B
102
{ACAD_REACTORS
330
10A
102
}
330
10A
100
AcDbXrecord
280
     1
102
RTVSPost2010Prop28
280
     0
102
RTVSPost2010PropOp28
 70
     1
102
RTVSPost2010Prop29
280
     1
102
RTVSPost2010PropOp29
 70
     1
102
RTVSPost2010Prop30
280
     1
102
RTVSPost2010PropOp30
 70
     1
102
RTVSPost2010Prop31
280
     0
102
RTVSPost2010PropOp31
 70
     1
102
RTVSPost2010Prop32
280
     0
102
RTVSPost2010PropOp32
 70
     1
102
RTVSPost2010Prop33
280
     0
102
RTVSPost2010PropOp33
 70
     1
102
RTVSPost2010Prop34
280
     0
102
RTVSPost2010PropOp34
 70
     1
102
RTVSPost2010Prop35
280
     0
102
RTVSPost2010PropOp35
 70
     1
102
RTVSPost2010Prop36
280
     0
102
RTVSPost2010PropOp36
 70
     1
102
RTVSPost2010Prop37
 90
       50
102
RTVSPost2010PropOp37
 70
     1
102
RTVSPost2010Prop38
140
0.0
102
RTVSPost2010PropOp38
 70
     1
102
RTVSPost2010Prop39
140
1.0
102
RTVSPost2010PropOp39
 70
     1
102
RTVSPost2010Prop40
 90
        0
102
RTVSPost2010PropOp40
 70
     1
102
RTVSPost2010Prop41ColorIndex
 90
       18
102
RTVSPost2010Prop41ColorRGB
 90
        0
102
RTVSPost2010PropOp41
 70
     1
102
RTVSPost2010Prop42
 90
       50
102
RTVSPost2010PropOp42
 70
     1
102
RTVSPost2010Prop43
 90
        3
102
RTVSPost2010PropOp43
 70
     1
102
RTVSPost2010Prop44ColorIndex
 90
        5
102
RTVSPost2010Prop44ColorRGB
 90
      255
102
RTVSPost2010PropOp44
 70
     1
102
RTVSPost2010Prop45
280
     0
102
RTVSPost2010PropOp45
 70
     1
102
RTVSPost2010Prop46
 90
       50
102
RTVSPost2010PropOp46
 70
     1
102
RTVSPost2010Prop47
 90
       50
102
RTVSPost2010PropOp47
 70
     1
102
RTVSPost2010Prop48
 90
       50
102
RTVSPost2010PropOp48
 70
     1
102
RTVSPost2010Prop49
280
     0
102
RTVSPost2010PropOp49
 70
     1
102
RTVSPost2010Prop50
 90
       50
102
RTVSPost2010PropOp50
 70
     1
102
RTVSPost2010Prop51ColorIndex
 90
      256
102
RTVSPost2010Prop51ColorRGB
 90
-16777216
102
RTVSPost2010PropOp51
 70
     0
102
RTVSPost2010Prop52
140
1.0
102
RTVSPost2010PropOp52
 70
     0
102
RTVSPost2010Prop53
 90
        2
102
RTVSPost2010PropOp53
 70
     1
102
RTVSPost2010Prop54
  1
strokes_ogs.tif
102
RTVSPost2010PropOp54
 70
     1
102
RTVSPost2010Prop55
280
     0
102
RTVSPost2010PropOp55
 70
     1
102
RTVSPost2010Prop56
140
1.0
102
RTVSPost2010PropOp56
 70
     1
102
RTVSPost2010Prop57
140
1.0
102
RTVSPost2010PropOp57
 70
     1
  0
XRECORD
  5
10D
102
{ACAD_REACTORS
330
10C
102
}
330
10C
100
AcDbXrecord
280
     1
102
RTVSPost2010Prop28
280
     0
102
RTVSPost2010PropOp28
 70
     1
102
RTVSPost2010Prop29
280
     1
102
RTVSPost2010PropOp29
 70
     1
102
RTVSPost2010Prop30
280
     1
102
RTVSPost2010PropOp30
 70
     1
102
RTVSPost2010Prop31
280
     0
102
RTVSPost2010PropOp31
 70
     1
102
RTVSPost2010Prop32
280
     0
102
RTVSPost2010PropOp32
 70
     1
102
RTVSPost2010Prop33
280
     0
102
RTVSPost2010PropOp33
 70
     1
102
RTVSPost2010Prop34
280
     0
102
RTVSPost2010PropOp34
 70
     1
102
RTVSPost2010Prop35
280
     0
102
RTVSPost2010PropOp35
 70
     1
102
RTVSPost2010Prop36
280
     0
102
RTVSPost2010PropOp36
 70
     1
102
RTVSPost2010Prop37
 90
       50
102
RTVSPost2010PropOp37
 70
     1
102
RTVSPost2010Prop38
140
0.0
102
RTVSPost2010PropOp38
 70
     1
102
RTVSPost2010Prop39
140
1.0
102
RTVSPost2010PropOp39
 70
     1
102
RTVSPost2010Prop40
 90
        0
102
RTVSPost2010PropOp40
 70
     1
102
RTVSPost2010Prop41ColorIndex
 90
       18
102
RTVSPost2010Prop41ColorRGB
 90
        0
102
RTVSPost2010PropOp41
 70
     1
102
RTVSPost2010Prop42
 90
       50
102
RTVSPost2010PropOp42
 70
     1
102
RTVSPost2010Prop43
 90
        3
102
RTVSPost2010PropOp43
 70
     1
102
RTVSPost2010Prop44ColorIndex
 90
        5
102
RTVSPost2010Prop44ColorRGB
 90
      255
102
RTVSPost2010PropOp44
 70
     1
102
RTVSPost2010Prop45
280
     0
102
RTVSPost2010PropOp45
 70
     1
102
RTVSPost2010Prop46
 90
       50
102
RTVSPost2010PropOp46
 70
     1
102
RTVSPost2010Prop47
 90
       50
102
RTVSPost2010PropOp47
 70
     1
102
RTVSPost2010Prop48
 90
       50
102
RTVSPost2010PropOp48
 70
     1
102
RTVSPost2010Prop49
280
     0
102
RTVSPost2010PropOp49
 70
     1
102
RTVSPost2010Prop50
 90
       50
102
RTVSPost2010PropOp50
 70
     1
102
RTVSPost2010Prop51ColorIndex
 90
      256
102
RTVSPost2010Prop51ColorRGB
 90
-16777216
102
RTVSPost2010PropOp51
 70
     0
102
RTVSPost2010Prop52
140
1.0
102
RTVSPost2010PropOp52
 70
     0
102
RTVSPost2010Prop53
 90
        2
102
RTVSPost2010PropOp53
 70
     1
102
RTVSPost2010Prop54
  1
strokes_ogs.tif
102
RTVSPost2010PropOp54
 70
     1
102
RTVSPost2010Prop55
280
     0
102
RTVSPost2010PropOp55
 70
     1
102
RTVSPost2010Prop56
140
1.0
102
RTVSPost2010PropOp56
 70
     1
102
RTVSPost2010Prop57
140
1.0
102
RTVSPost2010PropOp57
 70
     1
  0
XRECORD
  5
103
102
{ACAD_REACTORS
330
102
102
}
330
102
100
AcDbXrecord
280
     1
102
RTVSPost2010Prop28
280
     0
102
RTVSPost2010PropOp28
 70
     1
102
RTVSPost2010Prop29
280
     1
102
RTVSPost2010PropOp29
 70
     1
102
RTVSPost2010Prop30
280
     1
102
RTVSPost2010PropOp30
 70
     1
102
RTVSPost2010Prop31
280
     0
102
RTVSPost2010PropOp31
 70
     1
102
RTVSPost2010Prop32
280
     0
102
RTVSPost2010PropOp32
 70
     1
102
RTVSPost2010Prop33
280
     0
102
RTVSPost2010PropOp33
 70
     1
102
RTVSPost2010Prop34
280
     0
102
RTVSPost2010PropOp34
 70
     1
102
RTVSPost2010Prop35
280
     0
102
RTVSPost2010PropOp35
 70
     1
102
RTVSPost2010Prop36
280
     0
102
RTVSPost2010PropOp36
 70
     1
102
RTVSPost2010Prop37
 90
       50
102
RTVSPost2010PropOp37
 70
     1
102
RTVSPost2010Prop38
140
0.0
102
RTVSPost2010PropOp38
 70
     1
102
RTVSPost2010Prop39
140
1.0
102
RTVSPost2010PropOp39
 70
     1
102
RTVSPost2010Prop40
 90
        0
102
RTVSPost2010PropOp40
 70
     1
102
RTVSPost2010Prop41ColorIndex
 90
       18
102
RTVSPost2010Prop41ColorRGB
 90
        0
102
RTVSPost2010PropOp41
 70
     1
102
RTVSPost2010Prop42
 90
       50
102
RTVSPost2010PropOp42
 70
     1
102
RTVSPost2010Prop43
 90
        3
102
RTVSPost2010PropOp43
 70
     1
102
RTVSPost2010Prop44ColorIndex
 90
        5
102
RTVSPost2010Prop44ColorRGB
 90
      255
102
RTVSPost2010PropOp44
 70
     1
102
RTVSPost2010Prop45
280
     0
102
RTVSPost2010PropOp45
 70
     1
102
RTVSPost2010Prop46
 90
       50
102
RTVSPost2010PropOp46
 70
     1
102
RTVSPost2010Prop47
 90
       50
102
RTVSPost2010PropOp47
 70
     1
102
RTVSPost2010Prop48
 90
       50
102
RTVSPost2010PropOp48
 70
     1
102
RTVSPost2010Prop49
280
     0
102
RTVSPost2010PropOp49
 70
     1
102
RTVSPost2010Prop50
 90
       50
102
RTVSPost2010PropOp50
 70
     1
102
RTVSPost2010Prop51ColorIndex
 90
      256
102
RTVSPost2010Prop51ColorRGB
 90
-16777216
102
RTVSPost2010PropOp51
 70
     0
102
RTVSPost2010Prop52
140
1.0
102
RTVSPost2010PropOp52
 70
     0
102
RTVSPost2010Prop53
 90
        2
102
RTVSPost2010PropOp53
 70
     1
102
RTVSPost2010Prop54
  1
strokes_ogs.tif
102
RTVSPost2010PropOp54
 70
     1
102
RTVSPost2010Prop55
280
     0
102
RTVSPost2010PropOp55
 70
     1
102
RTVSPost2010Prop56
140
1.0
102
RTVSPost2010PropOp56
 70
     1
102
RTVSPost2010Prop57
140
1.0
102
RTVSPost2010PropOp57
 70
     1
  0
XRECORD
  5
F7
102
{ACAD_REACTORS
330
F6
102
}
330
F6
100
AcDbXrecord
280
     1
102
RTVSPost2010Prop28
280
     0
102
RTVSPost2010PropOp28
 70
     1
102
RTVSPost2010Prop29
280
     1
102
RTVSPost2010PropOp29
 70
     1
102
RTVSPost2010Prop30
280
     1
102
RTVSPost2010PropOp30
 70
     1
102
RTVSPost2010Prop31
280
     0
102
RTVSPost2010PropOp31
 70
     1
102
RTVSPost2010Prop32
280
     0
102
RTVSPost2010PropOp32
 70
     1
102
RTVSPost2010Prop33
280
     0
102
RTVSPost2010PropOp33
 70
     1
102
RTVSPost2010Prop34
280
     0
102
RTVSPost2010PropOp34
 70
     1
102
RTVSPost2010Prop35
280
     0
102
RTVSPost2010PropOp35
 70
     1
102
RTVSPost2010Prop36
280
     0
102
RTVSPost2010PropOp36
 70
     1
102
RTVSPost2010Prop37
 90
       50
102
RTVSPost2010PropOp37
 70
     1
102
RTVSPost2010Prop38
140
0.0
102
RTVSPost2010PropOp38
 70
     1
102
RTVSPost2010Prop39
140
1.0
102
RTVSPost2010PropOp39
 70
     1
102
RTVSPost2010Prop40
 90
        0
102
RTVSPost2010PropOp40
 70
     1
102
RTVSPost2010Prop41ColorIndex
 90
       18
102
RTVSPost2010Prop41ColorRGB
 90
        0
102
RTVSPost2010PropOp41
 70
     1
102
RTVSPost2010Prop42
 90
       50
102
RTVSPost2010PropOp42
 70
     1
102
RTVSPost2010Prop43
 90
        3
102
RTVSPost2010PropOp43
 70
     1
102
RTVSPost2010Prop44ColorIndex
 90
        5
102
RTVSPost2010Prop44ColorRGB
 90
      255
102
RTVSPost2010PropOp44
 70
     1
102
RTVSPost2010Prop45
280
     0
102
RTVSPost2010PropOp45
 70
     1
102
RTVSPost2010Prop46
 90
       50
102
RTVSPost2010PropOp46
 70
     1
102
RTVSPost2010Prop47
 90
       50
102
RTVSPost2010PropOp47
 70
     1
102
RTVSPost2010Prop48
 90
       50
102
RTVSPost2010PropOp48
 70
     1
102
RTVSPost2010Prop49
280
     0
102
RTVSPost2010PropOp49
 70
     1
102
RTVSPost2010Prop50
 90
       50
102
RTVSPost2010PropOp50
 70
     1
102
RTVSPost2010Prop51ColorIndex
 90
      256
102
RTVSPost2010Prop51ColorRGB
 90
-16777216
102
RTVSPost2010PropOp51
 70
     0
102
RTVSPost2010Prop52
140
1.0
102
RTVSPost2010PropOp52
 70
     0
102
RTVSPost2010Prop53
 90
        2
102
RTVSPost2010PropOp53
 70
     1
102
RTVSPost2010Prop54
  1
strokes_ogs.tif
102
RTVSPost2010PropOp54
 70
     1
102
RTVSPost2010Prop55
280
     0
102
RTVSPost2010PropOp55
 70
     1
102
RTVSPost2010Prop56
140
1.0
102
RTVSPost2010PropOp56
 70
     1
102
RTVSPost2010Prop57
140
1.0
102
RTVSPost2010PropOp57
 70
     1
  0
XRECORD
  5
10F
102
{ACAD_REACTORS
330
10E
102
}
330
10E
100
AcDbXrecord
280
     1
102
RTVSPost2010Prop28
280
     0
102
RTVSPost2010PropOp28
 70
     1
102
RTVSPost2010Prop29
280
     1
102
RTVSPost2010PropOp29
 70
     1
102
RTVSPost2010Prop30
280
     1
102
RTVSPost2010PropOp30
 70
     1
102
RTVSPost2010Prop31
280
     0
102
RTVSPost2010PropOp31
 70
     1
102
RTVSPost2010Prop32
280
     0
102
RTVSPost2010PropOp32
 70
     1
102
RTVSPost2010Prop33
280
     0
102
RTVSPost2010PropOp33
 70
     1
102
RTVSPost2010Prop34
280
     0
102
RTVSPost2010PropOp34
 70
     1
102
RTVSPost2010Prop35
280
     0
102
RTVSPost2010PropOp35
 70
     1
102
RTVSPost2010Prop36
280
     0
102
RTVSPost2010PropOp36
 70
     1
102
RTVSPost2010Prop37
 90
       50
102
RTVSPost2010PropOp37
 70
     1
102
RTVSPost2010Prop38
140
0.0
102
RTVSPost2010PropOp38
 70
     1
102
RTVSPost2010Prop39
140
1.0
102
RTVSPost2010PropOp39
 70
     1
102
RTVSPost2010Prop40
 90
        0
102
RTVSPost2010PropOp40
 70
     1
102
RTVSPost2010Prop41ColorIndex
 90
       18
102
RTVSPost2010Prop41ColorRGB
 90
        0
102
RTVSPost2010PropOp41
 70
     1
102
RTVSPost2010Prop42
 90
       50
102
RTVSPost2010PropOp42
 70
     1
102
RTVSPost2010Prop43
 90
        3
102
RTVSPost2010PropOp43
 70
     1
102
RTVSPost2010Prop44ColorIndex
 90
        5
102
RTVSPost2010Prop44ColorRGB
 90
      255
102
RTVSPost2010PropOp44
 70
     1
102
RTVSPost2010Prop45
280
     0
102
RTVSPost2010PropOp45
 70
     1
102
RTVSPost2010Prop46
 90
       50
102
RTVSPost2010PropOp46
 70
     1
102
RTVSPost2010Prop47
 90
       50
102
RTVSPost2010PropOp47
 70
     1
102
RTVSPost2010Prop48
 90
       50
102
RTVSPost2010PropOp48
 70
     1
102
RTVSPost2010Prop49
280
     0
102
RTVSPost2010PropOp49
 70
     1
102
RTVSPost2010Prop50
 90
       50
102
RTVSPost2010PropOp50
 70
     1
102
RTVSPost2010Prop51ColorIndex
 90
      256
102
RTVSPost2010Prop51ColorRGB
 90
-16777216
102
RTVSPost2010PropOp51
 70
     0
102
RTVSPost2010Prop52
140
1.0
102
RTVSPost2010PropOp52
 70
     0
102
RTVSPost2010Prop53
 90
        2
102
RTVSPost2010PropOp53
 70
     1
102
RTVSPost2010Prop54
  1
strokes_ogs.tif
102
RTVSPost2010PropOp54
 70
     1
102
RTVSPost2010Prop55
280
     0
102
RTVSPost2010PropOp55
 70
     1
102
RTVSPost2010Prop56
140
1.0
102
RTVSPost2010PropOp56
 70
     1
102
RTVSPost2010Prop57
140
1.0
102
RTVSPost2010PropOp57
 70
     1
  0
ENDSEC
  0
EOF
