  0
SECTION
  2
HEADER
  9
$ACADVER
  1
AC1024
  9
$ACADMAINTVER
 70
     6
  9
$DWGCODEPAGE
  3
UNDEFINED
  9
$INSBASE
 10
0.0
 20
0.0
 30
0.0
  9
$EXTMIN
 10
1.000000000000000E+20
 20
1.000000000000000E+20
 30
1.000000000000000E+20
  9
$EXTMAX
 10
-1.000000000000000E+20
 20
-1.000000000000000E+20
 30
-1.000000000000000E+20
  9
$LIMMIN
 10
0.0
 20
0.0
  9
$LIMMAX
 10
12.0
 20
9.0
  9
$ORTHOMODE
 70
     0
  9
$REGENMODE
 70
     1
  9
$FILLMODE
 70
     1
  9
$QTEXTMODE
 70
     0
  9
$MIRRTEXT
 70
     1
  9
$LTSCALE
 40
1.0
  9
$ATTMODE
 70
     1
  9
$TEXTSIZE
 40
0.2
  9
$TRACEWID
 40
0.05
  9
$TEXTSTYLE
  7
Standard
  9
$CLAYER
  8
0
  9
$CELTYPE
  6
ByLayer
  9
$CECOLOR
 62
   256
  9
$CELTSCALE
 40
1.0
  9
$DISPSILH
 70
     0
  9
$DIMSCALE
 40
1.0
  9
$DIMASZ
 40
0.18
  9
$DIMEXO
 40
0.0625
  9
$DIMDLI
 40
0.38
  9
$DIMRND
 40
0.0
  9
$DIMDLE
 40
0.0
  9
$DIMEXE
 40
0.18
  9
$DIMTP
 40
0.0
  9
$DIMTM
 40
0.0
  9
$DIMTXT
 40
0.18
  9
$DIMCEN
 40
0.09
  9
$DIMTSZ
 40
0.0
  9
$DIMTOL
 70
     0
  9
$DIMLIM
 70
     0
  9
$DIMTIH
 70
     1
  9
$DIMTOH
 70
     1
  9
$DIMSE1
 70
     0
  9
$DIMSE2
 70
     0
  9
$DIMTAD
 70
     0
  9
$DIMZIN
 70
     0
  9
$DIMBLK
  1

  9
$DIMASO
 70
     1
  9
$DIMSHO
 70
     1
  9
$DIMPOST
  1

  9
$DIMAPOST
  1

  9
$DIMALT
 70
     0
  9
$DIMALTD
 70
     2
  9
$DIMALTF
 40
25.4
  9
$DIMLFAC
 40
1.0
  9
$DIMTOFL
 70
     0
  9
$DIMTVP
 40
0.0
  9
$DIMTIX
 70
     0
  9
$DIMSOXD
 70
     0
  9
$DIMSAH
 70
     0
  9
$DIMBLK1
  1

  9
$DIMBLK2
  1

  9
$DIMSTYLE
  2
Standard
  9
$DIMCLRD
 70
     0
  9
$DIMCLRE
 70
     0
  9
$DIMCLRT
 70
     0
  9
$DIMTFAC
 40
1.0
  9
$DIMGAP
 40
0.09
  9
$DIMJUST
 70
     0
  9
$DIMSD1
 70
     0
  9
$DIMSD2
 70
     0
  9
$DIMTOLJ
 70
     1
  9
$DIMTZIN
 70
     0
  9
$DIMALTZ
 70
     0
  9
$DIMALTTZ
 70
     0
  9
$DIMUPT
 70
     0
  9
$DIMDEC
 70
     4
  9
$DIMTDEC
 70
     4
  9
$DIMALTU
 70
     2
  9
$DIMALTTD
 70
     2
  9
$DIMTXSTY
  7
Standard
  9
$DIMAUNIT
 70
     0
  9
$DIMADEC
 70
     0
  9
$DIMALTRND
 40
0.0
  9
$DIMAZIN
 70
     0
  9
$DIMDSEP
 70
    46
  9
$DIMATFIT
 70
     3
  9
$DIMFRAC
 70
     0
  9
$DIMLDRBLK
  1

  9
$DIMLUNIT
 70
     2
  9
$DIMLWD
 70
    -2
  9
$DIMLWE
 70
    -2
  9
$DIMTMOVE
 70
     0
  9
$DIMFXL
 40
1.0
  9
$DIMFXLON
 70
     0
  9
$DIMJOGANG
 40
0.7853981633974483
  9
$DIMTFILL
 70
     0
  9
$DIMTFILLCLR
 70
     0
  9
$DIMARCSYM
 70
     0
  9
$DIMLTYPE
  6

  9
$DIMLTEX1
  6

  9
$DIMLTEX2
  6

  9
$DIMTXTDIRECTION
 70
     0
  9
$LUNITS
 70
     2
  9
$LUPREC
 70
     4
  9
$SKETCHINC
 40
0.1
  9
$FILLETRAD
 40
0.5
  9
$AUNITS
 70
     0
  9
$AUPREC
 70
     0
  9
$MENU
  1
.
  9
$ELEVATION
 40
0.0
  9
$PELEVATION
 40
0.0
  9
$THICKNESS
 40
0.0
  9
$LIMCHECK
 70
     0
  9
$CHAMFERA
 40
0.5
  9
$CHAMFERB
 40
0.5
  9
$CHAMFERC
 40
1.0
  9
$CHAMFERD
 40
0.0
  9
$SKPOLY
 70
     0
  9
$TDCREATE
 40
2458263.575312488
  9
$TDUCREATE
 40
2458263.2003125
  9
$TDUPDATE
 40
2458263.575312488
  9
$TDUUPDATE
 40
2458263.2003125
  9
$TDINDWG
 40
0.0000000116
  9
$TDUSRTIMER
 40
0.0000000116
  9
$USRTIMER
 70
     1
  9
$ANGBASE
 50
0.0
  9
$ANGDIR
 70
     0
  9
$PDMODE
 70
     0
  9
$PDSIZE
 40
0.0
  9
$PLINEWID
 40
0.0
  9
$SPLFRAME
 70
     0
  9
$SPLINETYPE
 70
     6
  9
$SPLINESEGS
 70
     8
  9
$HANDSEED
  5
FC
  9
$SURFTAB1
 70
     6
  9
$SURFTAB2
 70
     6
  9
$SURFTYPE
 70
     6
  9
$SURFU
 70
     6
  9
$SURFV
 70
     6
  9
$UCSBASE
  2

  9
$UCSNAME
  2

  9
$UCSORG
 10
0.0
 20
0.0
 30
0.0
  9
$UCSXDIR
 10
1.0
 20
0.0
 30
0.0
  9
$UCSYDIR
 10
0.0
 20
1.0
 30
0.0
  9
$UCSORTHOREF
  2

  9
$UCSORTHOVIEW
 70
     0
  9
$UCSORGTOP
 10
0.0
 20
0.0
 30
0.0
  9
$UCSORGBOTTOM
 10
0.0
 20
0.0
 30
0.0
  9
$UCSORGLEFT
 10
0.0
 20
0.0
 30
0.0
  9
$UCSORGRIGHT
 10
0.0
 20
0.0
 30
0.0
  9
$UCSORGFRONT
 10
0.0
 20
0.0
 30
0.0
  9
$UCSORGBACK
 10
0.0
 20
0.0
 30
0.0
  9
$PUCSBASE
  2

  9
$PUCSNAME
  2

  9
$PUCSORG
 10
0.0
 20
0.0
 30
0.0
  9
$PUCSXDIR
 10
1.0
 20
0.0
 30
0.0
  9
$PUCSYDIR
 10
0.0
 20
1.0
 30
0.0
  9
$PUCSORTHOREF
  2

  9
$PUCSORTHOVIEW
 70
     0
  9
$PUCSORGTOP
 10
0.0
 20
0.0
 30
0.0
  9
$PUCSORGBOTTOM
 10
0.0
 20
0.0
 30
0.0
  9
$PUCSORGLEFT
 10
0.0
 20
0.0
 30
0.0
  9
$PUCSORGRIGHT
 10
0.0
 20
0.0
 30
0.0
  9
$PUCSORGFRONT
 10
0.0
 20
0.0
 30
0.0
  9
$PUCSORGBACK
 10
0.0
 20
0.0
 30
0.0
  9
$USERI1
 70
     0
  9
$USERI2
 70
     0
  9
$USERI3
 70
     0
  9
$USERI4
 70
     0
  9
$USERI5
 70
     0
  9
$USERR1
 40
0.0
  9
$USERR2
 40
0.0
  9
$USERR3
 40
0.0
  9
$USERR4
 40
0.0
  9
$USERR5
 40
0.0
  9
$WORLDVIEW
 70
     1
  9
$SHADEDGE
 70
     3
  9
$SHADEDIF
 70
    70
  9
$TILEMODE
 70
     1
  9
$MAXACTVP
 70
    64
  9
$PINSBASE
 10
0.0
 20
0.0
 30
0.0
  9
$PLIMCHECK
 70
     0
  9
$PEXTMIN
 10
1.000000000000000E+20
 20
1.000000000000000E+20
 30
1.000000000000000E+20
  9
$PEXTMAX
 10
-1.000000000000000E+20
 20
-1.000000000000000E+20
 30
-1.000000000000000E+20
  9
$PLIMMIN
 10
0.0
 20
0.0
  9
$PLIMMAX
 10
12.0
 20
9.0
  9
$UNITMODE
 70
     0
  9
$VISRETAIN
 70
     1
  9
$PLINEGEN
 70
     0
  9
$PSLTSCALE
 70
     1
  9
$TREEDEPTH
 70
  3020
  9
$CMLSTYLE
  2
Standard
  9
$CMLJUST
 70
     0
  9
$CMLSCALE
 40
1.0
  9
$PROXYGRAPHICS
 70
     1
  9
$MEASUREMENT
 70
     0
  9
$CELWEIGHT
370
    -1
  9
$ENDCAPS
280
     0
  9
$JOINSTYLE
280
     0
  9
$LWDISPLAY
290
     1
  9
$INSUNITS
 70
     1
  9
$HYPERLINKBASE
  1

  9
$STYLESHEET
  1

  9
$XEDIT
290
     1
  9
$CEPSNTYPE
380
     0
  9
$PSTYLEMODE
290
     1
  9
$FINGERPRINTGUID
  2
{D9C659B2-12D8-8344-5E2B-EDE0439C2B79}
  9
$VERSIONGUID
  2
{FAEB1C32-E019-11D5-929B-00C0DF256EC4}
  9
$EXTNAMES
290
     1
  9
$PSVPSCALE
 40
0.0
  9
$OLESTARTUP
290
     0
  9
$SORTENTS
280
   127
  9
$INDEXCTL
280
     0
  9
$HIDETEXT
280
     1
  9
$XCLIPFRAME
280
     2
  9
$HALOGAP
280
     0
  9
$OBSCOLOR
 70
   257
  9
$OBSLTYPE
280
     0
  9
$INTERSECTIONDISPLAY
280
     0
  9
$INTERSECTIONCOLOR
 70
   257
  9
$DIMASSOC
280
     2
  9
$PROJECTNAME
  1

  9
$CAMERADISPLAY
290
     0
  9
$LENSLENGTH
 40
50.0
  9
$CAMERAHEIGHT
 40
0.0
  9
$STEPSPERSEC
 40
2.0
  9
$STEPSIZE
 40
6.0
  9
$3DDWFPREC
 40
2.0
  9
$PSOLWIDTH
 40
0.25
  9
$PSOLHEIGHT
 40
4.0
  9
$LOFTANG1
 40
1.570796326794897
  9
$LOFTANG2
 40
1.570796326794897
  9
$LOFTMAG1
 40
0.0
  9
$LOFTMAG2
 40
0.0
  9
$LOFTPARAM
 70
     7
  9
$LOFTNORMALS
280
     1
  9
$LATITUDE
 40
37.795
  9
$LONGITUDE
 40
-122.394
  9
$NORTHDIRECTION
 40
0.0
  9
$TIMEZONE
 70
 -8000
  9
$LIGHTGLYPHDISPLAY
280
     1
  9
$TILEMODELIGHTSYNCH
280
     1
  9
$CMATERIAL
347
3C
  9
$SOLIDHIST
280
     1
  9
$SHOWHIST
280
     1
  9
$DWFFRAME
280
     2
  9
$DGNFRAME
280
     2
  9
$REALWORLDSCALE
290
     1
  9
$INTERFERECOLOR
 62
   256
  9
$CSHADOW
280
     0
  9
$SHADOWPLANELOCATION
 40
0.0
  0
ENDSEC
  0
SECTION
  2
CLASSES
  0
CLASS
  1
ACDBDICTIONARYWDFLT
  2
AcDbDictionaryWithDefault
  3
ObjectDBX Classes
 90
        0
 91
        4
280
     0
281
     0
  0
CLASS
  1
VISUALSTYLE
  2
AcDbVisualStyle
  3
ObjectDBX Classes
 90
     4095
 91
        4
280
     0
281
     0
  0
CLASS
  1
MATERIAL
  2
AcDbMaterial
  3
ObjectDBX Classes
 90
     1153
 91
        4
280
     0
281
     0
  0
CLASS
  1
SUN
  2
AcDbSun
  3
SCENEOE
 90
     1024
 91
        4
280
     0
281
     0
  0
ENDSEC
  0
SECTION
  2
TABLES
  0
TABLE
  2
VPORT
  5
8
330
0
100
AcDbSymbolTable
 70
     1
  0
VPORT
  5
29
330
8
100
AcDbSymbolTableRecord
100
AcDbViewportTableRecord
  2
*Active
 70
     0
 10
0.0
 20
0.0
 11
1.0
 21
1.0
 12
0.0
 22
0.0
 13
0.0
 23
0.0
 14
0.5
 24
0.5
 15
0.5
 25
0.5
 16
0.0
 26
0.0
 36
1.0
 17
105.0007777515277
 27
-148.5000416295416
 37
0.0
 40
297.0000832590831
 41
0.7070757462376333
 42
50.0
 43
0.0
 44
0.0
 50
0.0
 51
0.0
 71
     0
 72
   100
 73
     1
 74
     3
 75
     0
 76
     0
 77
     0
 78
     0
281
     0
 65
     1
110
0.0
120
0.0
130
0.0
111
1.0
121
0.0
131
0.0
112
0.0
122
1.0
132
0.0
 79
     0
146
0.0
 60
     3
 61
     5
292
     1
282
     1
141
0.0
142
0.0
 63
   250
361
3F
  0
ENDTAB
  0
TABLE
  2
LTYPE
  5
5
330
0
100
AcDbSymbolTable
 70
     1
  0
LTYPE
  5
14
330
5
100
AcDbSymbolTableRecord
100
AcDbLinetypeTableRecord
  2
ByBlock
 70
     0
  3

 72
    65
 73
     0
 40
0.0
  0
LTYPE
  5
15
330
5
100
AcDbSymbolTableRecord
100
AcDbLinetypeTableRecord
  2
ByLayer
 70
     0
  3

 72
    65
 73
     0
 40
0.0
  0
LTYPE
  5
16
330
5
100
AcDbSymbolTableRecord
100
AcDbLinetypeTableRecord
  2
Continuous
 70
     0
  3
Solid line
 72
    65
 73
     0
 40
0.0
  0
ENDTAB
  0
TABLE
  2
LAYER
  5
2
330
0
100
AcDbSymbolTable
 70
     2
  0
LAYER
  5
10
330
2
100
AcDbSymbolTableRecord
100
AcDbLayerTableRecord
  2
0
 70
     0
 62
     7
  6
Continuous
370
    -3
390
F
347
3E
  0
LAYER
  5
40
330
2
100
AcDbSymbolTableRecord
100
AcDbLayerTableRecord
  2
_U+30EC_U+30A4_U+30E4_U+30FC 1
 70
     0
 62
     7
  6
Continuous
370
    -3
390
F
347
3E
  0
ENDTAB
  0
TABLE
  2
STYLE
  5
3
330
0
100
AcDbSymbolTable
 70
     1
  0
STYLE
  5
11
330
3
100
AcDbSymbolTableRecord
100
AcDbTextStyleTableRecord
  2
Standard
 70
     0
 40
0.0
 41
1.0
 50
0.0
 71
     0
 42
0.2
  3
txt
  4

  0
ENDTAB
  0
TABLE
  2
VIEW
  5
6
330
0
100
AcDbSymbolTable
 70
     0
  0
ENDTAB
  0
TABLE
  2
UCS
  5
7
330
0
100
AcDbSymbolTable
 70
     0
  0
ENDTAB
  0
TABLE
  2
APPID
  5
9
330
0
100
AcDbSymbolTable
 70
     1
  0
APPID
  5
12
330
9
100
AcDbSymbolTableRecord
100
AcDbRegAppTableRecord
  2
ACAD
 70
     0
  0
ENDTAB
  0
TABLE
  2
DIMSTYLE
  5
A
330
0
100
AcDbSymbolTable
 70
     1
100
AcDbDimStyleTable
  0
DIMSTYLE
105
27
330
A
100
AcDbSymbolTableRecord
100
AcDbDimStyleTableRecord
  2
Standard
 70
     0
178
     0
340
11
  0
ENDTAB
  0
TABLE
  2
BLOCK_RECORD
  5
1
330
0
100
AcDbSymbolTable
 70
     7
  0
BLOCK_RECORD
  5
1F
330
1
100
AcDbSymbolTableRecord
100
AcDbBlockTableRecord
  2
*Model_Space
340
22
 70
     0
280
     1
281
     0
  0
BLOCK_RECORD
  5
1B
330
1
100
AcDbSymbolTableRecord
100
AcDbBlockTableRecord
  2
*Paper_Space
340
1E
 70
     0
280
     1
281
     0
  0
BLOCK_RECORD
  5
23
330
1
100
AcDbSymbolTableRecord
100
AcDbBlockTableRecord
  2
*Paper_Space0
340
26
 70
     0
280
     1
281
     0
  0
BLOCK_RECORD
  5
7C
330
1
100
AcDbSymbolTableRecord
100
AcDbBlockTableRecord
  2
block 2
340
0
102
{BLKREFS
331
7D
102
}
 70
     0
280
     1
281
     0
  0
BLOCK_RECORD
  5
8E
330
1
100
AcDbSymbolTableRecord
100
AcDbBlockTableRecord
  2
block 3
340
0
102
{BLKREFS
331
8F
102
}
 70
     0
280
     1
281
     0
  0
BLOCK_RECORD
  5
B7
330
1
100
AcDbSymbolTableRecord
100
AcDbBlockTableRecord
  2
block 4
340
0
102
{BLKREFS
331
B8
102
}
 70
     0
280
     1
281
     0
  0
BLOCK_RECORD
  5
CA
330
1
100
AcDbSymbolTableRecord
100
AcDbBlockTableRecord
  2
block 5
340
0
102
{BLKREFS
331
CB
102
}
 70
     0
280
     1
281
     0
  0
BLOCK_RECORD
  5
E3
330
1
100
AcDbSymbolTableRecord
100
AcDbBlockTableRecord
  2
block 6
340
0
102
{BLKREFS
331
E4
102
}
 70
     0
280
     1
281
     0
  0
BLOCK_RECORD
  5
F3
330
1
100
AcDbSymbolTableRecord
100
AcDbBlockTableRecord
  2
block 7
340
0
102
{BLKREFS
331
F4
102
}
 70
     0
280
     1
281
     0
  0
ENDTAB
  0
ENDSEC
  0
SECTION
  2
BLOCKS
  0
BLOCK
  5
20
330
1F
100
AcDbEntity
  8
0
100
AcDbBlockBegin
  2
*Model_Space
 70
     0
 10
0.0
 20
0.0
 30
0.0
  3
*Model_Space
  1

  0
ENDBLK
  5
21
330
1F
100
AcDbEntity
  8
0
100
AcDbBlockEnd
  0
BLOCK
  5
1C
330
1B
100
AcDbEntity
 67
     1
  8
0
100
AcDbBlockBegin
  2
*Paper_Space
 70
     0
 10
0.0
 20
0.0
 30
0.0
  3
*Paper_Space
  1

  0
ENDBLK
  5
1D
330
1B
100
AcDbEntity
 67
     1
  8
0
100
AcDbBlockEnd
  0
BLOCK
  5
24
330
23
100
AcDbEntity
  8
0
100
AcDbBlockBegin
  2
*Paper_Space0
 70
     0
 10
0.0
 20
0.0
 30
0.0
  3
*Paper_Space0
  1

  0
ENDBLK
  5
25
330
23
100
AcDbEntity
  8
0
100
AcDbBlockEnd
  0
BLOCK
  5
7E
330
7C
100
AcDbEntity
  8
0
100
AcDbBlockBegin
  2
block 2
 70
     0
 10
0.0
 20
0.0
 30
0.0
  3
block 2
  1

  0
SPLINE
  5
80
330
7C
100
AcDbEntity
  8
_U+30EC_U+30A4_U+30E4_U+30FC 1
370
     0
100
AcDbSpline
210
0.0
220
0.0
230
1.0
 70
    11
 71
     3
 72
    26
 73
    22
 74
     0
 42
0.0000000001
 43
0.0000000001
 12
1.0
 22
0.0
 32
0.0
 13
1.0
 23
0.0
 33
0.0
 40
0.0
 40
0.0
 40
0.0
 40
0.0
 40
1.0
 40
1.0
 40
1.0
 40
2.0
 40
2.0
 40
2.0
 40
3.0
 40
3.0
 40
3.0
 40
4.0
 40
4.0
 40
4.0
 40
5.0
 40
5.0
 40
5.0
 40
6.0
 40
6.0
 40
6.0
 40
7.0
 40
7.0
 40
7.0
 40
7.0
 10
103.8071003972253
 20
-142.0249226532958
 30
0.0
 10
103.8071003972253
 20
-142.0249226532958
 30
0.0
 10
103.8071003972253
 20
-140.9207695502733
 30
0.0
 10
103.8071003972253
 20
-140.9207695502733
 30
0.0
 10
103.8071003972253
 20
-140.9207695502733
 30
0.0
 10
103.4543226195357
 20
-140.9207695502733
 30
0.0
 10
103.4543226195357
 20
-140.9207695502733
 30
0.0
 10
103.4543226195357
 20
-140.9207695502733
 30
0.0
 10
103.4543226195357
 20
-140.7726304444076
 30
0.0
 10
103.4543226195357
 20
-140.7726304444076
 30
0.0
 10
103.8093397092907
 20
-140.757816533821
 30
0.0
 10
103.8591213390526
 20
-140.5948635173687
 30
0.0
 10
103.8906439627426
 20
-140.4804863472584
 30
0.0
 10
103.8906439627426
 20
-140.4804863472584
 30
0.0
 10
104.0467067882244
 20
-140.4804863472584
 30
0.0
 10
104.0467067882244
 20
-140.4804863472584
 30
0.0
 10
104.0467067882244
 20
-140.4804863472584
 30
0.0
 10
104.0467067882244
 20
-142.0249226532958
 30
0.0
 10
104.0467067882244
 20
-142.0249226532958
 30
0.0
 10
104.0467067882244
 20
-142.0249226532958
 30
0.0
 10
103.8071003972253
 20
-142.0249226532958
 30
0.0
 10
103.8071003972253
 20
-142.0249226532958
 30
0.0
  0
HATCH
  5
81
330
7C
100
AcDbEntity
  8
_U+30EC_U+30A4_U+30E4_U+30FC 1
 62
   179
420
  2234388
100
AcDbHatch
 10
0.0
 20
0.0
 30
0.0
210
0.0
220
0.0
230
1.0
  2
SOLID
 70
     1
 71
     0
 91
        1
 92
        1
 93
        1
 72
     4
 94
        3
 73
     0
 74
     1
 95
       26
 96
       22
 40
0.0
 40
0.0
 40
0.0
 40
0.0
 40
1.0
 40
1.0
 40
1.0
 40
2.0
 40
2.0
 40
2.0
 40
3.0
 40
3.0
 40
3.0
 40
4.0
 40
4.0
 40
4.0
 40
5.0
 40
5.0
 40
5.0
 40
6.0
 40
6.0
 40
6.0
 40
7.0
 40
7.0
 40
7.0
 40
7.0
 10
103.8071003972253
 20
-142.0249226532958
 10
103.8071003972253
 20
-142.0249226532958
 10
103.8071003972253
 20
-140.9207695502733
 10
103.8071003972253
 20
-140.9207695502733
 10
103.8071003972253
 20
-140.9207695502733
 10
103.4543226195357
 20
-140.9207695502733
 10
103.4543226195357
 20
-140.9207695502733
 10
103.4543226195357
 20
-140.9207695502733
 10
103.4543226195357
 20
-140.7726304444076
 10
103.4543226195357
 20
-140.7726304444076
 10
103.8093397092907
 20
-140.757816533821
 10
103.8591213390526
 20
-140.5948635173687
 10
103.8906439627426
 20
-140.4804863472584
 10
103.8906439627426
 20
-140.4804863472584
 10
104.0467067882244
 20
-140.4804863472584
 10
104.0467067882244
 20
-140.4804863472584
 10
104.0467067882244
 20
-140.4804863472584
 10
104.0467067882244
 20
-142.0249226532958
 10
104.0467067882244
 20
-142.0249226532958
 10
104.0467067882244
 20
-142.0249226532958
 10
103.8071003972253
 20
-142.0249226532958
 10
103.8071003972253
 20
-142.0249226532958
 97
        0
 97
        0
 75
     2
 76
     1
 98
        0
  0
ENDBLK
  5
7F
330
7C
100
AcDbEntity
  8
0
100
AcDbBlockEnd
  0
BLOCK
  5
90
330
8E
100
AcDbEntity
  8
0
100
AcDbBlockBegin
  2
block 3
 70
     0
 10
0.0
 20
0.0
 30
0.0
  3
block 3
  1

  0
SPLINE
  5
92
330
8E
100
AcDbEntity
  8
_U+30EC_U+30A4_U+30E4_U+30FC 1
370
     0
100
AcDbSpline
210
0.0
220
0.0
230
1.0
 70
    11
 71
     3
 72
    26
 73
    22
 74
     0
 42
0.0000000001
 43
0.0000000001
 12
1.0
 22
0.0
 32
0.0
 13
1.0
 23
0.0
 33
0.0
 40
0.0
 40
0.0
 40
0.0
 40
0.0
 40
1.0
 40
1.0
 40
1.0
 40
2.0
 40
2.0
 40
2.0
 40
3.0
 40
3.0
 40
3.0
 40
4.0
 40
4.0
 40
4.0
 40
5.0
 40
5.0
 40
5.0
 40
6.0
 40
6.0
 40
6.0
 40
7.0
 40
7.0
 40
7.0
 40
7.0
 10
106.1351236713829
 20
-162.6433023681934
 30
0.0
 10
106.1351236713829
 20
-162.6433023681934
 30
0.0
 10
106.1351236713829
 20
-161.5391492651708
 30
0.0
 10
106.1351236713829
 20
-161.5391492651708
 30
0.0
 10
106.1351236713829
 20
-161.5391492651708
 30
0.0
 10
105.7823458936933
 20
-161.5391492651708
 30
0.0
 10
105.7823458936933
 20
-161.5391492651708
 30
0.0
 10
105.7823458936933
 20
-161.5391492651708
 30
0.0
 10
105.7823458936933
 20
-161.391010159305
 30
0.0
 10
105.7823458936933
 20
-161.391010159305
 30
0.0
 10
106.1375352382226
 20
-161.3761962487185
 30
0.0
 10
106.1874891227587
 20
-161.2132432322661
 30
0.0
 10
106.2188394916745
 20
-161.0988660621558
 30
0.0
 10
106.2188394916745
 20
-161.0988660621558
 30
0.0
 10
106.3749023171563
 20
-161.0988660621558
 30
0.0
 10
106.3749023171563
 20
-161.0988660621558
 30
0.0
 10
106.3749023171563
 20
-161.0988660621558
 30
0.0
 10
106.3749023171563
 20
-162.6433023681934
 30
0.0
 10
106.3749023171563
 20
-162.6433023681934
 30
0.0
 10
106.3749023171563
 20
-162.6433023681934
 30
0.0
 10
106.1351236713829
 20
-162.6433023681934
 30
0.0
 10
106.1351236713829
 20
-162.6433023681934
 30
0.0
  0
HATCH
  5
93
330
8E
100
AcDbEntity
  8
_U+30EC_U+30A4_U+30E4_U+30FC 1
 62
   179
420
  2234388
100
AcDbHatch
 10
0.0
 20
0.0
 30
0.0
210
0.0
220
0.0
230
1.0
  2
SOLID
 70
     1
 71
     0
 91
        1
 92
        1
 93
        1
 72
     4
 94
        3
 73
     0
 74
     1
 95
       26
 96
       22
 40
0.0
 40
0.0
 40
0.0
 40
0.0
 40
1.0
 40
1.0
 40
1.0
 40
2.0
 40
2.0
 40
2.0
 40
3.0
 40
3.0
 40
3.0
 40
4.0
 40
4.0
 40
4.0
 40
5.0
 40
5.0
 40
5.0
 40
6.0
 40
6.0
 40
6.0
 40
7.0
 40
7.0
 40
7.0
 40
7.0
 10
106.1351236713829
 20
-162.6433023681934
 10
106.1351236713829
 20
-162.6433023681934
 10
106.1351236713829
 20
-161.5391492651708
 10
106.1351236713829
 20
-161.5391492651708
 10
106.1351236713829
 20
-161.5391492651708
 10
105.7823458936933
 20
-161.5391492651708
 10
105.7823458936933
 20
-161.5391492651708
 10
105.7823458936933
 20
-161.5391492651708
 10
105.7823458936933
 20
-161.391010159305
 10
105.7823458936933
 20
-161.391010159305
 10
106.1375352382226
 20
-161.3761962487185
 10
106.1874891227587
 20
-161.2132432322661
 10
106.2188394916745
 20
-161.0988660621558
 10
106.2188394916745
 20
-161.0988660621558
 10
106.3749023171563
 20
-161.0988660621558
 10
106.3749023171563
 20
-161.0988660621558
 10
106.3749023171563
 20
-161.0988660621558
 10
106.3749023171563
 20
-162.6433023681934
 10
106.3749023171563
 20
-162.6433023681934
 10
106.3749023171563
 20
-162.6433023681934
 10
106.1351236713829
 20
-162.6433023681934
 10
106.1351236713829
 20
-162.6433023681934
 97
        0
 97
        0
 75
     2
 76
     1
 98
        0
  0
POLYLINE
  5
94
330
8E
100
AcDbEntity
  8
_U+30EC_U+30A4_U+30E4_U+30FC 1
370
     0
100
AcDb2dPolyline
 66
     1
 10
0.0
 20
0.0
 30
0.0
  0
VERTEX
  5
95
330
94
100
AcDbEntity
  8
_U+30EC_U+30A4_U+30E4_U+30FC 1
370
     0
100
AcDbVertex
100
AcDb2dVertex
 10
107.7997938098556
 20
-162.2963812528287
 30
0.0
  0
VERTEX
  5
96
330
94
100
AcDbEntity
  8
_U+30EC_U+30A4_U+30E4_U+30FC 1
370
     0
100
AcDbVertex
100
AcDb2dVertex
 10
107.7997938098556
 20
-162.6433023681934
 30
0.0
  0
VERTEX
  5
97
330
94
100
AcDbEntity
  8
_U+30EC_U+30A4_U+30E4_U+30FC 1
370
     0
100
AcDbVertex
100
AcDb2dVertex
 10
107.5672498646013
 20
-162.6433023681934
 30
0.0
  0
VERTEX
  5
98
330
94
100
AcDbEntity
  8
_U+30EC_U+30A4_U+30E4_U+30FC 1
370
     0
100
AcDbVertex
100
AcDb2dVertex
 10
107.5672498646013
 20
-162.2963812528287
 30
0.0
  0
VERTEX
  5
99
330
94
100
AcDbEntity
  8
_U+30EC_U+30A4_U+30E4_U+30FC 1
370
     0
100
AcDbVertex
100
AcDb2dVertex
 10
106.8661729333529
 20
-162.2963812528287
 30
0.0
  0
VERTEX
  5
9A
330
94
100
AcDbEntity
  8
_U+30EC_U+30A4_U+30E4_U+30FC 1
370
     0
100
AcDbVertex
100
AcDb2dVertex
 10
106.8661729333529
 20
-162.0721055367389
 30
0.0
  0
VERTEX
  5
9B
330
94
100
AcDbEntity
  8
_U+30EC_U+30A4_U+30E4_U+30FC 1
370
     0
100
AcDbVertex
100
AcDb2dVertex
 10
107.592054552095
 20
-161.0988660621558
 30
0.0
  0
VERTEX
  5
9C
330
94
100
AcDbEntity
  8
_U+30EC_U+30A4_U+30E4_U+30FC 1
370
     0
100
AcDbVertex
100
AcDb2dVertex
 10
107.7997938098556
 20
-161.0988660621558
 30
0.0
  0
VERTEX
  5
9D
330
94
100
AcDbEntity
  8
_U+30EC_U+30A4_U+30E4_U+30FC 1
370
     0
100
AcDbVertex
100
AcDb2dVertex
 10
107.7997938098556
 20
-162.0975992433298
 30
0.0
  0
VERTEX
  5
9E
330
94
100
AcDbEntity
  8
_U+30EC_U+30A4_U+30E4_U+30FC 1
370
     0
100
AcDbVertex
100
AcDb2dVertex
 10
108.0216579591057
 20
-162.0975992433298
 30
0.0
  0
VERTEX
  5
9F
330
94
100
AcDbEntity
  8
_U+30EC_U+30A4_U+30E4_U+30FC 1
370
     0
100
AcDbVertex
100
AcDb2dVertex
 10
108.0216579591057
 20
-162.2963812528287
 30
0.0
  0
VERTEX
  5
A0
330
94
100
AcDbEntity
  8
_U+30EC_U+30A4_U+30E4_U+30FC 1
370
     0
100
AcDbVertex
100
AcDb2dVertex
 10
107.7997938098556
 20
-162.2963812528287
 30
0.0
  0
SEQEND
  5
A1
330
94
100
AcDbEntity
  8
_U+30EC_U+30A4_U+30E4_U+30FC 1
370
     0
  0
POLYLINE
  5
A2
330
8E
100
AcDbEntity
  8
_U+30EC_U+30A4_U+30E4_U+30FC 1
370
     0
100
AcDb2dPolyline
 66
     1
 10
0.0
 20
0.0
 30
0.0
  0
VERTEX
  5
A3
330
A2
100
AcDbEntity
  8
_U+30EC_U+30A4_U+30E4_U+30FC 1
370
     0
100
AcDbVertex
100
AcDb2dVertex
 10
107.5672498646013
 20
-161.4416530629382
 30
0.0
  0
VERTEX
  5
A4
330
A2
100
AcDbEntity
  8
_U+30EC_U+30A4_U+30E4_U+30FC 1
370
     0
100
AcDbVertex
100
AcDb2dVertex
 10
107.0787353247928
 20
-162.0975992433298
 30
0.0
  0
VERTEX
  5
A5
330
A2
100
AcDbEntity
  8
_U+30EC_U+30A4_U+30E4_U+30FC 1
370
     0
100
AcDbVertex
100
AcDb2dVertex
 10
107.5672498646013
 20
-162.0975992433298
 30
0.0
  0
VERTEX
  5
A6
330
A2
100
AcDbEntity
  8
_U+30EC_U+30A4_U+30E4_U+30FC 1
370
     0
100
AcDbVertex
100
AcDb2dVertex
 10
107.5672498646013
 20
-161.4416530629382
 30
0.0
  0
SEQEND
  5
A7
330
A2
100
AcDbEntity
  8
_U+30EC_U+30A4_U+30E4_U+30FC 1
370
     0
  0
HATCH
  5
A8
330
8E
100
AcDbEntity
  8
_U+30EC_U+30A4_U+30E4_U+30FC 1
 62
   179
420
  2234388
100
AcDbHatch
 10
0.0
 20
0.0
 30
0.0
210
0.0
220
0.0
230
1.0
  2
SOLID
 70
     1
 71
     0
 91
        2
 92
        1
 93
       11
 72
     1
 10
107.7997938098556
 20
-162.2963812528287
 11
107.7997938098556
 21
-162.6433023681934
 72
     1
 10
107.7997938098556
 20
-162.6433023681934
 11
107.5672498646013
 21
-162.6433023681934
 72
     1
 10
107.5672498646013
 20
-162.6433023681934
 11
107.5672498646013
 21
-162.2963812528287
 72
     1
 10
107.5672498646013
 20
-162.2963812528287
 11
106.8661729333529
 21
-162.2963812528287
 72
     1
 10
106.8661729333529
 20
-162.2963812528287
 11
106.8661729333529
 21
-162.0721055367389
 72
     1
 10
106.8661729333529
 20
-162.0721055367389
 11
107.592054552095
 21
-161.0988660621558
 72
     1
 10
107.592054552095
 20
-161.0988660621558
 11
107.7997938098556
 21
-161.0988660621558
 72
     1
 10
107.7997938098556
 20
-161.0988660621558
 11
107.7997938098556
 21
-162.0975992433298
 72
     1
 10
107.7997938098556
 20
-162.0975992433298
 11
108.0216579591057
 21
-162.0975992433298
 72
     1
 10
108.0216579591057
 20
-162.0975992433298
 11
108.0216579591057
 21
-162.2963812528287
 72
     1
 10
108.0216579591057
 20
-162.2963812528287
 11
107.7997938098556
 21
-162.2963812528287
 97
        0
 92
        1
 93
        3
 72
     1
 10
107.5672498646013
 20
-161.4416530629382
 11
107.0787353247928
 21
-162.0975992433298
 72
     1
 10
107.0787353247928
 20
-162.0975992433298
 11
107.5672498646013
 21
-162.0975992433298
 72
     1
 10
107.5672498646013
 20
-162.0975992433298
 11
107.5672498646013
 21
-161.4416530629382
 97
        0
 75
     2
 76
     1
 98
        0
  0
ENDBLK
  5
91
330
8E
100
AcDbEntity
  8
0
100
AcDbBlockEnd
  0
BLOCK
  5
B9
330
B7
100
AcDbEntity
  8
0
100
AcDbBlockBegin
  2
block 4
 70
     0
 10
0.0
 20
0.0
 30
0.0
  3
block 4
  1

  0
SPLINE
  5
BB
330
B7
100
AcDbEntity
  8
_U+30EC_U+30A4_U+30E4_U+30FC 1
370
     0
100
AcDbSpline
210
0.0
220
0.0
230
1.0
 70
    11
 71
     3
 72
    32
 73
    28
 74
     0
 42
0.0000000001
 43
0.0000000001
 12
1.0
 22
0.0
 32
0.0
 13
1.0
 23
0.0
 33
0.0
 40
0.0
 40
0.0
 40
0.0
 40
0.0
 40
1.0
 40
1.0
 40
1.0
 40
2.0
 40
2.0
 40
2.0
 40
3.0
 40
3.0
 40
3.0
 40
4.0
 40
4.0
 40
4.0
 40
5.0
 40
5.0
 40
5.0
 40
6.0
 40
6.0
 40
6.0
 40
7.0
 40
7.0
 40
7.0
 40
8.0
 40
8.0
 40
8.0
 40
9.0
 40
9.0
 40
9.0
 40
9.0
 10
103.9207885482386
 20
-135.5887952677521
 30
0.0
 10
103.3690565062758
 20
-135.5887952677521
 30
0.0
 10
103.3600992580141
 20
-135.0348239137239
 30
0.0
 10
103.3600992580141
 20
-134.8208834840899
 30
0.0
 10
103.3600992580141
 20
-134.5904065961267
 30
0.0
 10
103.3804253213771
 20
-133.9430731544483
 30
0.0
 10
103.9614406749645
 20
-133.9430731544483
 30
0.0
 10
104.1469590668452
 20
-133.9430731544483
 30
0.0
 10
104.4091308332727
 20
-134.0130085927988
 30
0.0
 10
104.4497829599987
 20
-134.3451157975769
 30
0.0
 10
104.4497829599987
 20
-134.3451157975769
 30
0.0
 10
104.2215453841009
 20
-134.3451157975769
 30
0.0
 10
104.2215453841009
 20
-134.3451157975769
 30
0.0
 10
104.2101765689995
 20
-134.2879272125218
 30
0.0
 10
104.1762423784698
 20
-134.139788106656
 30
0.0
 10
103.9592013628991
 20
-134.139788106656
 30
0.0
 10
103.6472479667097
 20
-134.139788106656
 30
0.0
 10
103.6043565279184
 20
-134.4677611968518
 30
0.0
 10
103.5907484007516
 20
-134.6727443782242
 30
0.0
 10
103.6901394055011
 20
-134.594540710709
 30
0.0
 10
103.7624864106913
 20
-134.5352850683627
 30
0.0
 10
103.9569620508337
 20
-134.5352850683627
 30
0.0
 10
104.1491983789106
 20
-134.5352850683627
 30
0.0
 10
104.4725205902013
 20
-134.6434610665996
 30
0.0
 10
104.4725205902013
 20
-135.0496378243105
 30
0.0
 10
104.4725205902013
 20
-135.3689981757932
 30
0.0
 10
104.2599581987614
 20
-135.5887952677521
 30
0.0
 10
103.9207885482386
 20
-135.5887952677521
 30
0.0
  0
SPLINE
  5
BC
330
B7
100
AcDbEntity
  8
_U+30EC_U+30A4_U+30E4_U+30FC 1
370
     0
100
AcDbSpline
210
0.0
220
0.0
230
1.0
 70
    11
 71
     3
 72
    17
 73
    13
 74
     0
 42
0.0000000001
 43
0.0000000001
 12
1.0
 22
0.0
 32
0.0
 13
1.0
 23
0.0
 33
0.0
 40
0.0
 40
0.0
 40
0.0
 40
0.0
 40
1.0
 40
1.0
 40
1.0
 40
2.0
 40
2.0
 40
2.0
 40
3.0
 40
3.0
 40
3.0
 40
4.0
 40
4.0
 40
4.0
 40
4.0
 10
103.9388752995361
 20
-134.7299329632793
 30
0.0
 10
103.6584445270368
 20
-134.7299329632793
 30
0.0
 10
103.6177924003108
 20
-134.9414618260737
 30
0.0
 10
103.6177924003108
 20
-135.0579060534751
 30
0.0
 10
103.6177924003108
 20
-135.2336059232229
 30
0.0
 10
103.7195949719
 20
-135.3965589396752
 30
0.0
 10
103.9163099241077
 20
-135.3965589396752
 30
0.0
 10
104.0451564952561
 20
-135.3965589396752
 30
0.0
 10
104.2327419444279
 20
-135.3373032973289
 30
0.0
 10
104.2327419444279
 20
-135.0517048816017
 30
0.0
 10
104.2327419444279
 20
-134.8274291655119
 30
0.0
 10
104.0835693099166
 20
-134.7299329632793
 30
0.0
 10
103.9388752995361
 20
-134.7299329632793
 30
0.0
  0
HATCH
  5
BD
330
B7
100
AcDbEntity
  8
_U+30EC_U+30A4_U+30E4_U+30FC 1
 62
   179
420
  2234388
100
AcDbHatch
 10
0.0
 20
0.0
 30
0.0
210
0.0
220
0.0
230
1.0
  2
SOLID
 70
     1
 71
     0
 91
        2
 92
        1
 93
        1
 72
     4
 94
        3
 73
     0
 74
     1
 95
       32
 96
       28
 40
0.0
 40
0.0
 40
0.0
 40
0.0
 40
1.0
 40
1.0
 40
1.0
 40
2.0
 40
2.0
 40
2.0
 40
3.0
 40
3.0
 40
3.0
 40
4.0
 40
4.0
 40
4.0
 40
5.0
 40
5.0
 40
5.0
 40
6.0
 40
6.0
 40
6.0
 40
7.0
 40
7.0
 40
7.0
 40
8.0
 40
8.0
 40
8.0
 40
9.0
 40
9.0
 40
9.0
 40
9.0
 10
103.9207885482386
 20
-135.5887952677521
 10
103.3690565062758
 20
-135.5887952677521
 10
103.3600992580141
 20
-135.0348239137239
 10
103.3600992580141
 20
-134.8208834840899
 10
103.3600992580141
 20
-134.5904065961267
 10
103.3804253213771
 20
-133.9430731544483
 10
103.9614406749645
 20
-133.9430731544483
 10
104.1469590668452
 20
-133.9430731544483
 10
104.4091308332727
 20
-134.0130085927988
 10
104.4497829599987
 20
-134.3451157975769
 10
104.4497829599987
 20
-134.3451157975769
 10
104.2215453841009
 20
-134.3451157975769
 10
104.2215453841009
 20
-134.3451157975769
 10
104.2101765689995
 20
-134.2879272125218
 10
104.1762423784698
 20
-134.139788106656
 10
103.9592013628991
 20
-134.139788106656
 10
103.6472479667097
 20
-134.139788106656
 10
103.6043565279184
 20
-134.4677611968518
 10
103.5907484007516
 20
-134.6727443782242
 10
103.6901394055011
 20
-134.594540710709
 10
103.7624864106913
 20
-134.5352850683627
 10
103.9569620508337
 20
-134.5352850683627
 10
104.1491983789106
 20
-134.5352850683627
 10
104.4725205902013
 20
-134.6434610665996
 10
104.4725205902013
 20
-135.0496378243105
 10
104.4725205902013
 20
-135.3689981757932
 10
104.2599581987614
 20
-135.5887952677521
 10
103.9207885482386
 20
-135.5887952677521
 97
        0
 97
        0
 92
        1
 93
        1
 72
     4
 94
        3
 73
     0
 74
     1
 95
       17
 96
       13
 40
0.0
 40
0.0
 40
0.0
 40
0.0
 40
1.0
 40
1.0
 40
1.0
 40
2.0
 40
2.0
 40
2.0
 40
3.0
 40
3.0
 40
3.0
 40
4.0
 40
4.0
 40
4.0
 40
4.0
 10
103.9388752995361
 20
-134.7299329632793
 10
103.6584445270368
 20
-134.7299329632793
 10
103.6177924003108
 20
-134.9414618260737
 10
103.6177924003108
 20
-135.0579060534751
 10
103.6177924003108
 20
-135.2336059232229
 10
103.7195949719
 20
-135.3965589396752
 10
103.9163099241077
 20
-135.3965589396752
 10
104.0451564952561
 20
-135.3965589396752
 10
104.2327419444279
 20
-135.3373032973289
 10
104.2327419444279
 20
-135.0517048816017
 10
104.2327419444279
 20
-134.8274291655119
 10
104.0835693099166
 20
-134.7299329632793
 10
103.9388752995361
 20
-134.7299329632793
 97
        0
 97
        0
 75
     2
 76
     1
 98
        0
  0
ENDBLK
  5
BA
330
B7
100
AcDbEntity
  8
0
100
AcDbBlockEnd
  0
BLOCK
  5
CC
330
CA
100
AcDbEntity
  8
0
100
AcDbBlockBegin
  2
block 5
 70
     0
 10
0.0
 20
0.0
 30
0.0
  3
block 5
  1

  0
SPLINE
  5
CE
330
CA
100
AcDbEntity
  8
_U+30EC_U+30A4_U+30E4_U+30FC 1
370
     0
100
AcDbSpline
210
0.0
220
0.0
230
1.0
 70
    11
 71
     3
 72
    44
 73
    40
 74
     0
 42
0.0000000001
 43
0.0000000001
 12
1.0
 22
0.0
 32
0.0
 13
1.0
 23
0.0
 33
0.0
 40
0.0
 40
0.0
 40
0.0
 40
0.0
 40
1.0
 40
1.0
 40
1.0
 40
2.0
 40
2.0
 40
2.0
 40
3.0
 40
3.0
 40
3.0
 40
4.0
 40
4.0
 40
4.0
 40
5.0
 40
5.0
 40
5.0
 40
6.0
 40
6.0
 40
6.0
 40
7.0
 40
7.0
 40
7.0
 40
8.0
 40
8.0
 40
8.0
 40
9.0
 40
9.0
 40
9.0
 40
10.0
 40
10.0
 40
10.0
 40
11.0
 40
11.0
 40
11.0
 40
12.0
 40
12.0
 40
12.0
 40
13.0
 40
13.0
 40
13.0
 40
13.0
 10
94.63797876323287
 20
-149.269786204002
 30
0.0
 10
94.79679766510289
 20
-149.5026746588049
 30
0.0
 10
94.87086721803576
 20
-149.6018934087801
 30
0.0
 10
95.01452769977068
 20
-149.6542588601559
 30
0.0
 10
95.01452769977068
 20
-149.6542588601559
 30
0.0
 10
95.01452769977068
 20
-148.8220960456938
 30
0.0
 10
95.01452769977068
 20
-148.8220960456938
 30
0.0
 10
95.01452769977068
 20
-148.8220960456938
 30
0.0
 10
95.21985539069156
 20
-148.8220960456938
 30
0.0
 10
95.21985539069156
 20
-148.8220960456938
 30
0.0
 10
95.21985539069156
 20
-148.8220960456938
 30
0.0
 10
95.21985539069156
 20
-149.9209092507142
 30
0.0
 10
95.21985539069156
 20
-149.9209092507142
 30
0.0
 10
94.86225447932263
 20
-149.8871473149588
 30
0.0
 10
94.78405081180746
 20
-149.8168673670597
 30
0.0
 10
94.48570554278483
 20
-149.4055229661209
 30
0.0
 10
94.28692353328591
 20
-149.131982384592
 30
0.0
 10
94.21905515222649
 20
-149.0617024366929
 30
0.0
 10
94.08159584236502
 20
-149.0617024366929
 30
0.0
 10
93.96308455767243
 20
-149.0617024366929
 30
0.0
 10
93.83217092923293
 20
-149.138528066014
 30
0.0
 10
93.83217092923293
 20
-149.3490234001628
 30
0.0
 10
93.83217092923293
 20
-149.6270426058224
 30
0.0
 10
94.06264781719615
 20
-149.6359998540841
 30
0.0
 10
94.1790920445976
 20
-149.6404784782149
 30
0.0
 10
94.1790920445976
 20
-149.6404784782149
 30
0.0
 10
94.1790920445976
 20
-149.8802571239883
 30
0.0
 10
94.1790920445976
 20
-149.8802571239883
 30
0.0
 10
94.05196802119187
 20
-149.8712998757266
 30
0.0
 10
93.94000241792125
 20
-149.8595865510768
 30
0.0
 10
93.82149113322866
 20
-149.7741481830426
 30
0.0
 10
93.6606051740675
 20
-149.656325917447
 30
0.0
 10
93.62684323831205
 20
-149.4571993983996
 30
0.0
 10
93.62684323831205
 20
-149.3331759609306
 30
0.0
 10
93.62684323831205
 20
-149.0368977491991
 30
0.0
 10
93.81081133722438
 20
-148.8153781094975
 30
0.0
 10
94.08366289965618
 20
-148.8153781094975
 30
0.0
 10
94.31241723987677
 20
-148.8153781094975
 30
0.0
 10
94.41163598985196
 20
-148.9397460565151
 30
0.0
 10
94.63797876323287
 20
-149.269786204002
 30
0.0
  0
HATCH
  5
CF
330
CA
100
AcDbEntity
  8
_U+30EC_U+30A4_U+30E4_U+30FC 1
 62
   179
420
  2234388
100
AcDbHatch
 10
0.0
 20
0.0
 30
0.0
210
0.0
220
0.0
230
1.0
  2
SOLID
 70
     1
 71
     0
 91
        1
 92
        1
 93
        1
 72
     4
 94
        3
 73
     0
 74
     1
 95
       44
 96
       40
 40
0.0
 40
0.0
 40
0.0
 40
0.0
 40
1.0
 40
1.0
 40
1.0
 40
2.0
 40
2.0
 40
2.0
 40
3.0
 40
3.0
 40
3.0
 40
4.0
 40
4.0
 40
4.0
 40
5.0
 40
5.0
 40
5.0
 40
6.0
 40
6.0
 40
6.0
 40
7.0
 40
7.0
 40
7.0
 40
8.0
 40
8.0
 40
8.0
 40
9.0
 40
9.0
 40
9.0
 40
10.0
 40
10.0
 40
10.0
 40
11.0
 40
11.0
 40
11.0
 40
12.0
 40
12.0
 40
12.0
 40
13.0
 40
13.0
 40
13.0
 40
13.0
 10
94.63797876323287
 20
-149.269786204002
 10
94.79679766510289
 20
-149.5026746588049
 10
94.87086721803576
 20
-149.6018934087801
 10
95.01452769977068
 20
-149.6542588601559
 10
95.01452769977068
 20
-149.6542588601559
 10
95.01452769977068
 20
-148.8220960456938
 10
95.01452769977068
 20
-148.8220960456938
 10
95.01452769977068
 20
-148.8220960456938
 10
95.21985539069156
 20
-148.8220960456938
 10
95.21985539069156
 20
-148.8220960456938
 10
95.21985539069156
 20
-148.8220960456938
 10
95.21985539069156
 20
-149.9209092507142
 10
95.21985539069156
 20
-149.9209092507142
 10
94.86225447932263
 20
-149.8871473149588
 10
94.78405081180746
 20
-149.8168673670597
 10
94.48570554278483
 20
-149.4055229661209
 10
94.28692353328591
 20
-149.131982384592
 10
94.21905515222649
 20
-149.0617024366929
 10
94.08159584236502
 20
-149.0617024366929
 10
93.96308455767243
 20
-149.0617024366929
 10
93.83217092923293
 20
-149.138528066014
 10
93.83217092923293
 20
-149.3490234001628
 10
93.83217092923293
 20
-149.6270426058224
 10
94.06264781719615
 20
-149.6359998540841
 10
94.1790920445976
 20
-149.6404784782149
 10
94.1790920445976
 20
-149.6404784782149
 10
94.1790920445976
 20
-149.8802571239883
 10
94.1790920445976
 20
-149.8802571239883
 10
94.05196802119187
 20
-149.8712998757266
 10
93.94000241792125
 20
-149.8595865510768
 10
93.82149113322866
 20
-149.7741481830426
 10
93.6606051740675
 20
-149.656325917447
 10
93.62684323831205
 20
-149.4571993983996
 10
93.62684323831205
 20
-149.3331759609306
 10
93.62684323831205
 20
-149.0368977491991
 10
93.81081133722438
 20
-148.8153781094975
 10
94.08366289965618
 20
-148.8153781094975
 10
94.31241723987677
 20
-148.8153781094975
 10
94.41163598985196
 20
-148.9397460565151
 10
94.63797876323287
 20
-149.269786204002
 97
        0
 97
        0
 75
     2
 76
     1
 98
        0
  0
SPLINE
  5
D0
330
CA
100
AcDbEntity
  8
_U+30EC_U+30A4_U+30E4_U+30FC 1
370
     0
100
AcDbSpline
210
0.0
220
0.0
230
1.0
 70
    11
 71
     3
 72
    26
 73
    22
 74
     0
 42
0.0000000001
 43
0.0000000001
 12
1.0
 22
0.0
 32
0.0
 13
1.0
 23
0.0
 33
0.0
 40
0.0
 40
0.0
 40
0.0
 40
0.0
 40
1.0
 40
1.0
 40
1.0
 40
2.0
 40
2.0
 40
2.0
 40
3.0
 40
3.0
 40
3.0
 40
4.0
 40
4.0
 40
4.0
 40
5.0
 40
5.0
 40
5.0
 40
6.0
 40
6.0
 40
6.0
 40
7.0
 40
7.0
 40
7.0
 40
7.0
 10
95.21985539069156
 20
-148.163393788914
 30
0.0
 10
95.21985539069156
 20
-148.163393788914
 30
0.0
 10
94.115702287669
 20
-148.163393788914
 30
0.0
 10
94.115702287669
 20
-148.163393788914
 30
0.0
 10
94.115702287669
 20
-148.163393788914
 30
0.0
 10
94.115702287669
 20
-148.5161715666036
 30
0.0
 10
94.115702287669
 20
-148.5161715666036
 30
0.0
 10
94.115702287669
 20
-148.5161715666036
 30
0.0
 10
93.96756318180326
 20
-148.5161715666036
 30
0.0
 10
93.96756318180326
 20
-148.5161715666036
 30
0.0
 10
93.95274927121667
 20
-148.1611544768486
 30
0.0
 10
93.78979625476435
 20
-148.1113728470868
 30
0.0
 10
93.67541908465407
 20
-148.0798502233967
 30
0.0
 10
93.67541908465407
 20
-148.0798502233967
 30
0.0
 10
93.67541908465407
 20
-147.9237873979149
 30
0.0
 10
93.67541908465407
 20
-147.9237873979149
 30
0.0
 10
93.67541908465407
 20
-147.9237873979149
 30
0.0
 10
95.21985539069156
 20
-147.9237873979149
 30
0.0
 10
95.21985539069156
 20
-147.9237873979149
 30
0.0
 10
95.21985539069156
 20
-147.9237873979149
 30
0.0
 10
95.21985539069156
 20
-148.163393788914
 30
0.0
 10
95.21985539069156
 20
-148.163393788914
 30
0.0
  0
HATCH
  5
D1
330
CA
100
AcDbEntity
  8
_U+30EC_U+30A4_U+30E4_U+30FC 1
 62
   179
420
  2234388
100
AcDbHatch
 10
0.0
 20
0.0
 30
0.0
210
0.0
220
0.0
230
1.0
  2
SOLID
 70
     1
 71
     0
 91
        1
 92
        1
 93
        1
 72
     4
 94
        3
 73
     0
 74
     1
 95
       26
 96
       22
 40
0.0
 40
0.0
 40
0.0
 40
0.0
 40
1.0
 40
1.0
 40
1.0
 40
2.0
 40
2.0
 40
2.0
 40
3.0
 40
3.0
 40
3.0
 40
4.0
 40
4.0
 40
4.0
 40
5.0
 40
5.0
 40
5.0
 40
6.0
 40
6.0
 40
6.0
 40
7.0
 40
7.0
 40
7.0
 40
7.0
 10
95.21985539069156
 20
-148.163393788914
 10
95.21985539069156
 20
-148.163393788914
 10
94.115702287669
 20
-148.163393788914
 10
94.115702287669
 20
-148.163393788914
 10
94.115702287669
 20
-148.163393788914
 10
94.115702287669
 20
-148.5161715666036
 10
94.115702287669
 20
-148.5161715666036
 10
94.115702287669
 20
-148.5161715666036
 10
93.96756318180326
 20
-148.5161715666036
 10
93.96756318180326
 20
-148.5161715666036
 10
93.95274927121667
 20
-148.1611544768486
 10
93.78979625476435
 20
-148.1113728470868
 10
93.67541908465407
 20
-148.0798502233967
 10
93.67541908465407
 20
-148.0798502233967
 10
93.67541908465407
 20
-147.9237873979149
 10
93.67541908465407
 20
-147.9237873979149
 10
93.67541908465407
 20
-147.9237873979149
 10
95.21985539069156
 20
-147.9237873979149
 10
95.21985539069156
 20
-147.9237873979149
 10
95.21985539069156
 20
-147.9237873979149
 10
95.21985539069156
 20
-148.163393788914
 10
95.21985539069156
 20
-148.163393788914
 97
        0
 97
        0
 75
     2
 76
     1
 98
        0
  0
ENDBLK
  5
CD
330
CA
100
AcDbEntity
  8
0
100
AcDbBlockEnd
  0
BLOCK
  5
E5
330
E3
100
AcDbEntity
  8
0
100
AcDbBlockBegin
  2
block 6
 70
     0
 10
0.0
 20
0.0
 30
0.0
  3
block 6
  1

  0
SPLINE
  5
E7
330
E3
100
AcDbEntity
  8
_U+30EC_U+30A4_U+30E4_U+30FC 1
370
     0
100
AcDbSpline
210
0.0
220
0.0
230
1.0
 70
    11
 71
     3
 72
    26
 73
    22
 74
     0
 42
0.0000000001
 43
0.0000000001
 12
1.0
 22
0.0
 32
0.0
 13
1.0
 23
0.0
 33
0.0
 40
0.0
 40
0.0
 40
0.0
 40
0.0
 40
1.0
 40
1.0
 40
1.0
 40
2.0
 40
2.0
 40
2.0
 40
3.0
 40
3.0
 40
3.0
 40
4.0
 40
4.0
 40
4.0
 40
5.0
 40
5.0
 40
5.0
 40
6.0
 40
6.0
 40
6.0
 40
7.0
 40
7.0
 40
7.0
 40
7.0
 10
115.6325629051196
 20
-152.4206705348115
 30
0.0
 10
115.6325629051196
 20
-152.4206705348115
 30
0.0
 10
114.5284098020971
 20
-152.4206705348115
 30
0.0
 10
114.5284098020971
 20
-152.4206705348115
 30
0.0
 10
114.5284098020971
 20
-152.4206705348115
 30
0.0
 10
114.5284098020971
 20
-152.7734483125011
 30
0.0
 10
114.5284098020971
 20
-152.7734483125011
 30
0.0
 10
114.5284098020971
 20
-152.7734483125011
 30
0.0
 10
114.3802706962313
 20
-152.7734483125011
 30
0.0
 10
114.3802706962313
 20
-152.7734483125011
 30
0.0
 10
114.3654567856448
 20
-152.4186034775203
 30
0.0
 10
114.2025037691924
 20
-152.3686495929842
 30
0.0
 10
114.0881265990821
 20
-152.3369547145199
 30
0.0
 10
114.0881265990821
 20
-152.3369547145199
 30
0.0
 10
114.0881265990821
 20
-152.1808918890381
 30
0.0
 10
114.0881265990821
 20
-152.1808918890381
 30
0.0
 10
114.0881265990821
 20
-152.1808918890381
 30
0.0
 10
115.6325629051196
 20
-152.1808918890381
 30
0.0
 10
115.6325629051196
 20
-152.1808918890381
 30
0.0
 10
115.6325629051196
 20
-152.1808918890381
 30
0.0
 10
115.6325629051196
 20
-152.4206705348115
 30
0.0
 10
115.6325629051196
 20
-152.4206705348115
 30
0.0
  0
HATCH
  5
E8
330
E3
100
AcDbEntity
  8
_U+30EC_U+30A4_U+30E4_U+30FC 1
 62
   179
420
  2234388
100
AcDbHatch
 10
0.0
 20
0.0
 30
0.0
210
0.0
220
0.0
230
1.0
  2
SOLID
 70
     1
 71
     0
 91
        1
 92
        1
 93
        1
 72
     4
 94
        3
 73
     0
 74
     1
 95
       26
 96
       22
 40
0.0
 40
0.0
 40
0.0
 40
0.0
 40
1.0
 40
1.0
 40
1.0
 40
2.0
 40
2.0
 40
2.0
 40
3.0
 40
3.0
 40
3.0
 40
4.0
 40
4.0
 40
4.0
 40
5.0
 40
5.0
 40
5.0
 40
6.0
 40
6.0
 40
6.0
 40
7.0
 40
7.0
 40
7.0
 40
7.0
 10
115.6325629051196
 20
-152.4206705348115
 10
115.6325629051196
 20
-152.4206705348115
 10
114.5284098020971
 20
-152.4206705348115
 10
114.5284098020971
 20
-152.4206705348115
 10
114.5284098020971
 20
-152.4206705348115
 10
114.5284098020971
 20
-152.7734483125011
 10
114.5284098020971
 20
-152.7734483125011
 10
114.5284098020971
 20
-152.7734483125011
 10
114.3802706962313
 20
-152.7734483125011
 10
114.3802706962313
 20
-152.7734483125011
 10
114.3654567856448
 20
-152.4186034775203
 10
114.2025037691924
 20
-152.3686495929842
 10
114.0881265990821
 20
-152.3369547145199
 10
114.0881265990821
 20
-152.3369547145199
 10
114.0881265990821
 20
-152.1808918890381
 10
114.0881265990821
 20
-152.1808918890381
 10
114.0881265990821
 20
-152.1808918890381
 10
115.6325629051196
 20
-152.1808918890381
 10
115.6325629051196
 20
-152.1808918890381
 10
115.6325629051196
 20
-152.1808918890381
 10
115.6325629051196
 20
-152.4206705348115
 10
115.6325629051196
 20
-152.4206705348115
 97
        0
 97
        0
 75
     2
 76
     1
 98
        0
  0
SPLINE
  5
E9
330
E3
100
AcDbEntity
  8
_U+30EC_U+30A4_U+30E4_U+30FC 1
370
     0
100
AcDbSpline
210
0.0
220
0.0
230
1.0
 70
    11
 71
     3
 72
    62
 73
    58
 74
     0
 42
0.0000000001
 43
0.0000000001
 12
1.0
 22
0.0
 32
0.0
 13
1.0
 23
0.0
 33
0.0
 40
0.0
 40
0.0
 40
0.0
 40
0.0
 40
1.0
 40
1.0
 40
1.0
 40
2.0
 40
2.0
 40
2.0
 40
3.0
 40
3.0
 40
3.0
 40
4.0
 40
4.0
 40
4.0
 40
5.0
 40
5.0
 40
5.0
 40
6.0
 40
6.0
 40
6.0
 40
7.0
 40
7.0
 40
7.0
 40
8.0
 40
8.0
 40
8.0
 40
9.0
 40
9.0
 40
9.0
 40
10.0
 40
10.0
 40
10.0
 40
11.0
 40
11.0
 40
11.0
 40
12.0
 40
12.0
 40
12.0
 40
13.0
 40
13.0
 40
13.0
 40
14.0
 40
14.0
 40
14.0
 40
15.0
 40
15.0
 40
15.0
 40
16.0
 40
16.0
 40
16.0
 40
17.0
 40
17.0
 40
17.0
 40
18.0
 40
18.0
 40
18.0
 40
19.0
 40
19.0
 40
19.0
 40
19.0
 10
115.6832058087528
 20
-151.1198024795812
 30
0.0
 10
115.6832058087528
 20
-151.2217773059446
 30
0.0
 10
115.6621907262928
 20
-151.4546657607474
 30
0.0
 10
115.4761555700893
 20
-151.5879909560266
 30
0.0
 10
115.3638454572702
 20
-151.6668836426389
 30
0.0
 10
115.264626707295
 20
-151.6717067763182
 30
0.0
 10
115.1798773583578
 20
-151.676185400449
 30
0.0
 10
115.1798773583578
 20
-151.676185400449
 30
0.0
 10
115.1798773583578
 20
-151.4408853788065
 30
0.0
 10
115.1798773583578
 20
-151.4408853788065
 30
0.0
 10
115.2539469112907
 20
-151.4388183215153
 30
0.0
 10
115.4885579138362
 20
-151.427449506414
 30
0.0
 10
115.4885579138362
 20
-151.1246256132605
 30
0.0
 10
115.4885579138362
 20
-150.9775200360403
 30
0.0
 10
115.4189669850341
 20
-150.814567019588
 30
0.0
 10
115.1905571543621
 20
-150.814567019588
 30
0.0
 10
115.0741129269606
 20
-150.814567019588
 30
0.0
 10
115.0255370806186
 20
-150.855219146314
 30
0.0
 10
114.9938422021543
 20
-150.889325591618
 30
0.0
 10
114.9197726492215
 20
-150.9682182782302
 30
0.0
 10
114.907025795926
 20
-151.0929307347962
 30
0.0
 10
114.907025795926
 20
-151.1514973580455
 30
0.0
 10
114.907025795926
 20
-151.172167930957
 30
0.0
 10
114.9090928532172
 20
-151.2104084908432
 30
0.0
 10
114.9132269677995
 20
-151.2396918024679
 30
0.0
 10
114.9132269677995
 20
-151.2396918024679
 30
0.0
 10
114.7185790728829
 20
-151.2396918024679
 30
0.0
 10
114.7185790728829
 20
-151.2396918024679
 30
0.0
 10
114.7251247543048
 20
-151.1990396757419
 30
0.0
 10
114.727191811596
 20
-151.1539089248851
 30
0.0
 10
114.727191811596
 20
-151.1470187339146
 30
0.0
 10
114.727191811596
 20
-151.0770832955641
 30
0.0
 10
114.7058322195874
 20
-150.8645209041242
 30
0.0
 10
114.4691541597508
 20
-150.8645209041242
 30
0.0
 10
114.2913872327119
 20
-150.8645209041242
 30
0.0
 10
114.2362657049479
 20
-151.0047362903738
 30
0.0
 10
114.2362657049479
 20
-151.1222140464209
 30
0.0
 10
114.2362657049479
 20
-151.4047118762113
 30
0.0
 10
114.4691541597508
 20
-151.4140136340215
 30
0.0
 10
114.540812145844
 20
-151.4181477486038
 30
0.0
 10
114.540812145844
 20
-151.4181477486038
 30
0.0
 10
114.540812145844
 20
-151.6351887641745
 30
0.0
 10
114.540812145844
 20
-151.6351887641745
 30
0.0
 10
114.4160996892779
 20
-151.6262315159129
 30
0.0
 10
114.0395507527401
 20
-151.5969482042883
 30
0.0
 10
114.0395507527401
 20
-151.1087781740284
 30
0.0
 10
114.0395507527401
 20
-150.868999528255
 30
0.0
 10
114.1666747761458
 20
-150.6113063859583
 30
0.0
 10
114.4626084783288
 20
-150.6113063859583
 30
0.0
 10
114.6489881440808
 20
-150.6113063859583
 30
0.0
 10
114.7313259261783
 20
-150.7129367027732
 30
0.0
 10
114.7926486258157
 20
-150.8193901532674
 30
0.0
 10
114.8202093896977
 20
-150.7535888294991
 30
0.0
 10
114.900480114504
 20
-150.559285444131
 30
0.0
 10
115.1778103010667
 20
-150.559285444131
 30
0.0
 10
115.5161186777182
 20
-150.559285444131
 30
0.0
 10
115.6832058087528
 20
-150.8235242678497
 30
0.0
 10
115.6832058087528
 20
-151.1198024795812
 30
0.0
  0
HATCH
  5
EA
330
E3
100
AcDbEntity
  8
_U+30EC_U+30A4_U+30E4_U+30FC 1
 62
   179
420
  2234388
100
AcDbHatch
 10
0.0
 20
0.0
 30
0.0
210
0.0
220
0.0
230
1.0
  2
SOLID
 70
     1
 71
     0
 91
        1
 92
        1
 93
        1
 72
     4
 94
        3
 73
     0
 74
     1
 95
       62
 96
       58
 40
0.0
 40
0.0
 40
0.0
 40
0.0
 40
1.0
 40
1.0
 40
1.0
 40
2.0
 40
2.0
 40
2.0
 40
3.0
 40
3.0
 40
3.0
 40
4.0
 40
4.0
 40
4.0
 40
5.0
 40
5.0
 40
5.0
 40
6.0
 40
6.0
 40
6.0
 40
7.0
 40
7.0
 40
7.0
 40
8.0
 40
8.0
 40
8.0
 40
9.0
 40
9.0
 40
9.0
 40
10.0
 40
10.0
 40
10.0
 40
11.0
 40
11.0
 40
11.0
 40
12.0
 40
12.0
 40
12.0
 40
13.0
 40
13.0
 40
13.0
 40
14.0
 40
14.0
 40
14.0
 40
15.0
 40
15.0
 40
15.0
 40
16.0
 40
16.0
 40
16.0
 40
17.0
 40
17.0
 40
17.0
 40
18.0
 40
18.0
 40
18.0
 40
19.0
 40
19.0
 40
19.0
 40
19.0
 10
115.6832058087528
 20
-151.1198024795812
 10
115.6832058087528
 20
-151.2217773059446
 10
115.6621907262928
 20
-151.4546657607474
 10
115.4761555700893
 20
-151.5879909560266
 10
115.3638454572702
 20
-151.6668836426389
 10
115.264626707295
 20
-151.6717067763182
 10
115.1798773583578
 20
-151.676185400449
 10
115.1798773583578
 20
-151.676185400449
 10
115.1798773583578
 20
-151.4408853788065
 10
115.1798773583578
 20
-151.4408853788065
 10
115.2539469112907
 20
-151.4388183215153
 10
115.4885579138362
 20
-151.427449506414
 10
115.4885579138362
 20
-151.1246256132605
 10
115.4885579138362
 20
-150.9775200360403
 10
115.4189669850341
 20
-150.814567019588
 10
115.1905571543621
 20
-150.814567019588
 10
115.0741129269606
 20
-150.814567019588
 10
115.0255370806186
 20
-150.855219146314
 10
114.9938422021543
 20
-150.889325591618
 10
114.9197726492215
 20
-150.9682182782302
 10
114.907025795926
 20
-151.0929307347962
 10
114.907025795926
 20
-151.1514973580455
 10
114.907025795926
 20
-151.172167930957
 10
114.9090928532172
 20
-151.2104084908432
 10
114.9132269677995
 20
-151.2396918024679
 10
114.9132269677995
 20
-151.2396918024679
 10
114.7185790728829
 20
-151.2396918024679
 10
114.7185790728829
 20
-151.2396918024679
 10
114.7251247543048
 20
-151.1990396757419
 10
114.727191811596
 20
-151.1539089248851
 10
114.727191811596
 20
-151.1470187339146
 10
114.727191811596
 20
-151.0770832955641
 10
114.7058322195874
 20
-150.8645209041242
 10
114.4691541597508
 20
-150.8645209041242
 10
114.2913872327119
 20
-150.8645209041242
 10
114.2362657049479
 20
-151.0047362903738
 10
114.2362657049479
 20
-151.1222140464209
 10
114.2362657049479
 20
-151.4047118762113
 10
114.4691541597508
 20
-151.4140136340215
 10
114.540812145844
 20
-151.4181477486038
 10
114.540812145844
 20
-151.4181477486038
 10
114.540812145844
 20
-151.6351887641745
 10
114.540812145844
 20
-151.6351887641745
 10
114.4160996892779
 20
-151.6262315159129
 10
114.0395507527401
 20
-151.5969482042883
 10
114.0395507527401
 20
-151.1087781740284
 10
114.0395507527401
 20
-150.868999528255
 10
114.1666747761458
 20
-150.6113063859583
 10
114.4626084783288
 20
-150.6113063859583
 10
114.6489881440808
 20
-150.6113063859583
 10
114.7313259261783
 20
-150.7129367027732
 10
114.7926486258157
 20
-150.8193901532674
 10
114.8202093896977
 20
-150.7535888294991
 10
114.900480114504
 20
-150.559285444131
 10
115.1778103010667
 20
-150.559285444131
 10
115.5161186777182
 20
-150.559285444131
 10
115.6832058087528
 20
-150.8235242678497
 10
115.6832058087528
 20
-151.1198024795812
 97
        0
 97
        0
 75
     2
 76
     1
 98
        0
  0
ENDBLK
  5
E6
330
E3
100
AcDbEntity
  8
0
100
AcDbBlockEnd
  0
BLOCK
  5
F5
330
F3
100
AcDbEntity
  8
0
100
AcDbBlockBegin
  2
block 7
 70
     0
 10
0.0
 20
0.0
 30
0.0
  3
block 7
  1

  0
SPLINE
  5
F7
330
F3
100
AcDbEntity
  8
_U+30EC_U+30A4_U+30E4_U+30FC 1
370
     0
100
AcDbSpline
210
0.0
220
0.0
230
1.0
 70
    11
 71
     3
 72
    32
 73
    28
 74
     0
 42
0.0000000001
 43
0.0000000001
 12
1.0
 22
0.0
 32
0.0
 13
1.0
 23
0.0
 33
0.0
 40
0.0
 40
0.0
 40
0.0
 40
0.0
 40
1.0
 40
1.0
 40
1.0
 40
2.0
 40
2.0
 40
2.0
 40
3.0
 40
3.0
 40
3.0
 40
4.0
 40
4.0
 40
4.0
 40
5.0
 40
5.0
 40
5.0
 40
6.0
 40
6.0
 40
6.0
 40
7.0
 40
7.0
 40
7.0
 40
8.0
 40
8.0
 40
8.0
 40
9.0
 40
9.0
 40
9.0
 40
9.0
 10
115.6835503183013
 20
-141.3941256699466
 30
0.0
 10
115.6835503183013
 20
-141.9458577119094
 30
0.0
 10
115.1295789642732
 20
-141.954814960171
 30
0.0
 10
114.9156385346392
 20
-141.954814960171
 30
0.0
 10
114.6851616466759
 20
-141.954814960171
 30
0.0
 10
114.0378282049975
 20
-141.9344888968081
 30
0.0
 10
114.0378282049975
 20
-141.3534735432207
 30
0.0
 10
114.0378282049975
 20
-141.16795515134
 30
0.0
 10
114.1077636433481
 20
-140.9057833849124
 30
0.0
 10
114.4398708481261
 20
-140.8651312581865
 30
0.0
 10
114.4398708481261
 20
-140.8651312581865
 30
0.0
 10
114.4398708481261
 20
-141.0933688340843
 30
0.0
 10
114.4398708481261
 20
-141.0933688340843
 30
0.0
 10
114.382682263071
 20
-141.1047376491856
 30
0.0
 10
114.2345431572053
 20
-141.1386718397153
 30
0.0
 10
114.2345431572053
 20
-141.3557128552861
 30
0.0
 10
114.2345431572053
 20
-141.6676662514755
 30
0.0
 10
114.562516247401
 20
-141.7105576902668
 30
0.0
 10
114.7674994287734
 20
-141.7241658174335
 30
0.0
 10
114.6892957612582
 20
-141.6247748126841
 30
0.0
 10
114.6300401189119
 20
-141.5524278074938
 30
0.0
 10
114.6300401189119
 20
-141.3579521673515
 30
0.0
 10
114.6300401189119
 20
-141.1657158392746
 30
0.0
 10
114.7382161171488
 20
-140.8423936279839
 30
0.0
 10
115.1443928748597
 20
-140.8423936279839
 30
0.0
 10
115.4637532263424
 20
-140.8423936279839
 30
0.0
 10
115.6835503183013
 20
-141.0549560194238
 30
0.0
 10
115.6835503183013
 20
-141.3941256699466
 30
0.0
  0
SPLINE
  5
F8
330
F3
100
AcDbEntity
  8
_U+30EC_U+30A4_U+30E4_U+30FC 1
370
     0
100
AcDbSpline
210
0.0
220
0.0
230
1.0
 70
    11
 71
     3
 72
    17
 73
    13
 74
     0
 42
0.0000000001
 43
0.0000000001
 12
1.0
 22
0.0
 32
0.0
 13
1.0
 23
0.0
 33
0.0
 40
0.0
 40
0.0
 40
0.0
 40
0.0
 40
1.0
 40
1.0
 40
1.0
 40
2.0
 40
2.0
 40
2.0
 40
3.0
 40
3.0
 40
3.0
 40
4.0
 40
4.0
 40
4.0
 40
4.0
 10
114.8246880138285
 20
-141.376038918649
 30
0.0
 10
114.8246880138285
 20
-141.6564696911484
 30
0.0
 10
115.0362168766229
 20
-141.6971218178743
 30
0.0
 10
115.1526611040243
 20
-141.6971218178743
 30
0.0
 10
115.3283609737721
 20
-141.6971218178743
 30
0.0
 10
115.4913139902244
 20
-141.5953192462852
 30
0.0
 10
115.4913139902244
 20
-141.3986042940774
 30
0.0
 10
115.4913139902244
 20
-141.2697577229291
 30
0.0
 10
115.4320583478781
 20
-141.0821722737572
 30
0.0
 10
115.1464599321509
 20
-141.0821722737572
 30
0.0
 10
114.9221842160611
 20
-141.0821722737572
 30
0.0
 10
114.8246880138285
 20
-141.2313449082686
 30
0.0
 10
114.8246880138285
 20
-141.376038918649
 30
0.0
  0
HATCH
  5
F9
330
F3
100
AcDbEntity
  8
_U+30EC_U+30A4_U+30E4_U+30FC 1
 62
   179
420
  2234388
100
AcDbHatch
 10
0.0
 20
0.0
 30
0.0
210
0.0
220
0.0
230
1.0
  2
SOLID
 70
     1
 71
     0
 91
        2
 92
        1
 93
        1
 72
     4
 94
        3
 73
     0
 74
     1
 95
       32
 96
       28
 40
0.0
 40
0.0
 40
0.0
 40
0.0
 40
1.0
 40
1.0
 40
1.0
 40
2.0
 40
2.0
 40
2.0
 40
3.0
 40
3.0
 40
3.0
 40
4.0
 40
4.0
 40
4.0
 40
5.0
 40
5.0
 40
5.0
 40
6.0
 40
6.0
 40
6.0
 40
7.0
 40
7.0
 40
7.0
 40
8.0
 40
8.0
 40
8.0
 40
9.0
 40
9.0
 40
9.0
 40
9.0
 10
115.6835503183013
 20
-141.3941256699466
 10
115.6835503183013
 20
-141.9458577119094
 10
115.1295789642732
 20
-141.954814960171
 10
114.9156385346392
 20
-141.954814960171
 10
114.6851616466759
 20
-141.954814960171
 10
114.0378282049975
 20
-141.9344888968081
 10
114.0378282049975
 20
-141.3534735432207
 10
114.0378282049975
 20
-141.16795515134
 10
114.1077636433481
 20
-140.9057833849124
 10
114.4398708481261
 20
-140.8651312581865
 10
114.4398708481261
 20
-140.8651312581865
 10
114.4398708481261
 20
-141.0933688340843
 10
114.4398708481261
 20
-141.0933688340843
 10
114.382682263071
 20
-141.1047376491856
 10
114.2345431572053
 20
-141.1386718397153
 10
114.2345431572053
 20
-141.3557128552861
 10
114.2345431572053
 20
-141.6676662514755
 10
114.562516247401
 20
-141.7105576902668
 10
114.7674994287734
 20
-141.7241658174335
 10
114.6892957612582
 20
-141.6247748126841
 10
114.6300401189119
 20
-141.5524278074938
 10
114.6300401189119
 20
-141.3579521673515
 10
114.6300401189119
 20
-141.1657158392746
 10
114.7382161171488
 20
-140.8423936279839
 10
115.1443928748597
 20
-140.8423936279839
 10
115.4637532263424
 20
-140.8423936279839
 10
115.6835503183013
 20
-141.0549560194238
 10
115.6835503183013
 20
-141.3941256699466
 97
        0
 97
        0
 92
        1
 93
        1
 72
     4
 94
        3
 73
     0
 74
     1
 95
       17
 96
       13
 40
0.0
 40
0.0
 40
0.0
 40
0.0
 40
1.0
 40
1.0
 40
1.0
 40
2.0
 40
2.0
 40
2.0
 40
3.0
 40
3.0
 40
3.0
 40
4.0
 40
4.0
 40
4.0
 40
4.0
 10
114.8246880138285
 20
-141.376038918649
 10
114.8246880138285
 20
-141.6564696911484
 10
115.0362168766229
 20
-141.6971218178743
 10
115.1526611040243
 20
-141.6971218178743
 10
115.3283609737721
 20
-141.6971218178743
 10
115.4913139902244
 20
-141.5953192462852
 10
115.4913139902244
 20
-141.3986042940774
 10
115.4913139902244
 20
-141.2697577229291
 10
115.4320583478781
 20
-141.0821722737572
 10
115.1464599321509
 20
-141.0821722737572
 10
114.9221842160611
 20
-141.0821722737572
 10
114.8246880138285
 20
-141.2313449082686
 10
114.8246880138285
 20
-141.376038918649
 97
        0
 97
        0
 75
     2
 76
     1
 98
        0
  0
ENDBLK
  5
F6
330
F3
100
AcDbEntity
  8
0
100
AcDbBlockEnd
  0
ENDSEC
  0
SECTION
  2
ENTITIES
  0
SPLINE
  5
41
330
1F
100
AcDbEntity
  8
_U+30EC_U+30A4_U+30E4_U+30FC 1
370
     0
100
AcDbSpline
210
0.0
220
0.0
230
1.0
 70
    11
 71
     3
 72
    44
 73
    40
 74
     0
 42
0.0000000001
 43
0.0000000001
 12
1.0
 22
0.0
 32
0.0
 13
1.0
 23
0.0
 33
0.0
 40
0.0
 40
0.0
 40
0.0
 40
0.0
 40
1.0
 40
1.0
 40
1.0
 40
2.0
 40
2.0
 40
2.0
 40
3.0
 40
3.0
 40
3.0
 40
4.0
 40
4.0
 40
4.0
 40
5.0
 40
5.0
 40
5.0
 40
6.0
 40
6.0
 40
6.0
 40
7.0
 40
7.0
 40
7.0
 40
8.0
 40
8.0
 40
8.0
 40
9.0
 40
9.0
 40
9.0
 40
10.0
 40
10.0
 40
10.0
 40
11.0
 40
11.0
 40
11.0
 40
12.0
 40
12.0
 40
12.0
 40
13.0
 40
13.0
 40
13.0
 40
13.0
 10
100.8153525630259
 20
-139.2401604622196
 30
0.0
 10
100.8153525630259
 20
-138.6877124863513
 30
0.0
 10
100.3673232781308
 20
-138.2400384769282
 30
0.0
 10
99.81557777876382
 20
-138.2400384769282
 30
0.0
 10
99.81557777876382
 20
-138.2400384769282
 30
0.0
 10
99.81557777876382
 20
-158.2400666159169
 30
0.0
 10
99.81557777876382
 20
-158.2400666159169
 30
0.0
 10
99.81557777876382
 20
-158.7925199747469
 30
0.0
 10
100.2636070636589
 20
-159.2398387086981
 30
0.0
 10
100.8153525630259
 20
-159.2398387086981
 30
0.0
 10
100.8153525630259
 20
-159.2398387086981
 30
0.0
 10
113.8159156090921
 20
-159.2398387086981
 30
0.0
 10
113.8159156090921
 20
-159.2398387086981
 30
0.0
 10
113.8159156090921
 20
-158.798161318604
 30
0.0
 10
113.4578463800557
 20
-158.4400920895675
 30
0.0
 10
113.0158190974513
 20
-158.4400920895675
 30
0.0
 10
113.0158190974513
 20
-158.4400920895675
 30
0.0
 10
107.1614714460558
 20
-158.4400920895675
 30
0.0
 10
107.1614714460558
 20
-158.4400920895675
 30
0.0
 10
107.1614714460558
 20
-158.4400920895675
 30
0.0
 10
106.8157453481876
 20
-158.2397167234066
 30
0.0
 10
106.8157453481876
 20
-158.2397167234066
 30
0.0
 10
106.8157453481876
 20
-158.2397167234066
 30
0.0
 10
100.8157051470169
 20
-158.2397167234066
 30
0.0
 10
100.8157051470169
 20
-158.2397167234066
 30
0.0
 10
100.8157051470169
 20
-158.2397167234066
 30
0.0
 10
100.8157051470169
 20
-145.2402087378327
 30
0.0
 10
100.8157051470169
 20
-145.2402087378327
 30
0.0
 10
100.8157051470169
 20
-145.2402087378327
 30
0.0
 10
106.8157453481876
 20
-145.2402087378327
 30
0.0
 10
106.8157453481876
 20
-145.2402087378327
 30
0.0
 10
106.8157453481876
 20
-144.6874054864925
 30
0.0
 10
106.3677214462542
 20
-144.2400813695796
 30
0.0
 10
105.8156233628961
 20
-144.2400813695796
 30
0.0
 10
105.8156233628961
 20
-144.2400813695796
 30
0.0
 10
100.8157051470169
 20
-144.2400813695796
 30
0.0
 10
100.8157051470169
 20
-144.2400813695796
 30
0.0
 10
100.8157051470169
 20
-144.2400813695796
 30
0.0
 10
100.8153525630259
 20
-139.2401604622196
 30
0.0
 10
100.8153525630259
 20
-139.2401604622196
 30
0.0
  0
HATCH
  5
42
330
1F
100
AcDbEntity
  8
_U+30EC_U+30A4_U+30E4_U+30FC 1
 62
     9
420
 13224394
100
AcDbHatch
 10
0.0
 20
0.0
 30
0.0
210
0.0
220
0.0
230
1.0
  2
SOLID
 70
     1
 71
     0
 91
        1
 92
        1
 93
        1
 72
     4
 94
        3
 73
     0
 74
     1
 95
       44
 96
       40
 40
0.0
 40
0.0
 40
0.0
 40
0.0
 40
1.0
 40
1.0
 40
1.0
 40
2.0
 40
2.0
 40
2.0
 40
3.0
 40
3.0
 40
3.0
 40
4.0
 40
4.0
 40
4.0
 40
5.0
 40
5.0
 40
5.0
 40
6.0
 40
6.0
 40
6.0
 40
7.0
 40
7.0
 40
7.0
 40
8.0
 40
8.0
 40
8.0
 40
9.0
 40
9.0
 40
9.0
 40
10.0
 40
10.0
 40
10.0
 40
11.0
 40
11.0
 40
11.0
 40
12.0
 40
12.0
 40
12.0
 40
13.0
 40
13.0
 40
13.0
 40
13.0
 10
100.8153525630259
 20
-139.2401604622196
 10
100.8153525630259
 20
-138.6877124863513
 10
100.3673232781308
 20
-138.2400384769282
 10
99.81557777876382
 20
-138.2400384769282
 10
99.81557777876382
 20
-138.2400384769282
 10
99.81557777876382
 20
-158.2400666159169
 10
99.81557777876382
 20
-158.2400666159169
 10
99.81557777876382
 20
-158.7925199747469
 10
100.2636070636589
 20
-159.2398387086981
 10
100.8153525630259
 20
-159.2398387086981
 10
100.8153525630259
 20
-159.2398387086981
 10
113.8159156090921
 20
-159.2398387086981
 10
113.8159156090921
 20
-159.2398387086981
 10
113.8159156090921
 20
-158.798161318604
 10
113.4578463800557
 20
-158.4400920895675
 10
113.0158190974513
 20
-158.4400920895675
 10
113.0158190974513
 20
-158.4400920895675
 10
107.1614714460558
 20
-158.4400920895675
 10
107.1614714460558
 20
-158.4400920895675
 10
107.1614714460558
 20
-158.4400920895675
 10
106.8157453481876
 20
-158.2397167234066
 10
106.8157453481876
 20
-158.2397167234066
 10
106.8157453481876
 20
-158.2397167234066
 10
100.8157051470169
 20
-158.2397167234066
 10
100.8157051470169
 20
-158.2397167234066
 10
100.8157051470169
 20
-158.2397167234066
 10
100.8157051470169
 20
-145.2402087378327
 10
100.8157051470169
 20
-145.2402087378327
 10
100.8157051470169
 20
-145.2402087378327
 10
106.8157453481876
 20
-145.2402087378327
 10
106.8157453481876
 20
-145.2402087378327
 10
106.8157453481876
 20
-144.6874054864925
 10
106.3677214462542
 20
-144.2400813695796
 10
105.8156233628961
 20
-144.2400813695796
 10
105.8156233628961
 20
-144.2400813695796
 10
100.8157051470169
 20
-144.2400813695796
 10
100.8157051470169
 20
-144.2400813695796
 10
100.8157051470169
 20
-144.2400813695796
 10
100.8153525630259
 20
-139.2401604622196
 10
100.8153525630259
 20
-139.2401604622196
 97
        0
 97
        0
 75
     2
 76
     1
 98
        0
  0
POLYLINE
  5
43
330
1F
100
AcDbEntity
  8
_U+30EC_U+30A4_U+30E4_U+30FC 1
 62
   179
420
  2234388
370
    25
100
AcDb2dPolyline
 66
     1
 10
0.0
 20
0.0
 30
0.0
  0
VERTEX
  5
44
330
43
100
AcDbEntity
  8
_U+30EC_U+30A4_U+30E4_U+30FC 1
 62
   179
420
  2234388
370
    25
100
AcDbVertex
100
AcDb2dVertex
 10
100.815845104021
 20
-158.2395390856707
 30
0.0
  0
VERTEX
  5
45
330
43
100
AcDbEntity
  8
_U+30EC_U+30A4_U+30E4_U+30FC 1
 62
   179
420
  2234388
370
    25
100
AcDbVertex
100
AcDb2dVertex
 10
106.8158853051917
 20
-158.2395390856707
 30
0.0
  0
SEQEND
  5
46
330
43
100
AcDbEntity
  8
_U+30EC_U+30A4_U+30E4_U+30FC 1
 62
   179
420
  2234388
370
    25
  0
POLYLINE
  5
47
330
1F
100
AcDbEntity
  8
_U+30EC_U+30A4_U+30E4_U+30FC 1
 62
   179
420
  2234388
370
    25
100
AcDb2dPolyline
 66
     1
 10
0.0
 20
0.0
 30
0.0
  0
VERTEX
  5
48
330
47
100
AcDbEntity
  8
_U+30EC_U+30A4_U+30E4_U+30FC 1
 62
   179
420
  2234388
370
    25
100
AcDbVertex
100
AcDb2dVertex
 10
100.815845104021
 20
-145.239815781629
 30
0.0
  0
VERTEX
  5
49
330
47
100
AcDbEntity
  8
_U+30EC_U+30A4_U+30E4_U+30FC 1
 62
   179
420
  2234388
370
    25
100
AcDbVertex
100
AcDb2dVertex
 10
106.8158853051917
 20
-145.239815781629
 30
0.0
  0
SEQEND
  5
4A
330
47
100
AcDbEntity
  8
_U+30EC_U+30A4_U+30E4_U+30FC 1
 62
   179
420
  2234388
370
    25
  0
POLYLINE
  5
4B
330
1F
100
AcDbEntity
  8
_U+30EC_U+30A4_U+30E4_U+30FC 1
 62
   179
420
  2234388
370
    25
100
AcDb2dPolyline
 66
     1
 10
0.0
 20
0.0
 30
0.0
  0
VERTEX
  5
4C
330
4B
100
AcDbEntity
  8
_U+30EC_U+30A4_U+30E4_U+30FC 1
 62
   179
420
  2234388
370
    25
100
AcDbVertex
100
AcDb2dVertex
 10
100.815845104021
 20
-159.2399786657022
 30
0.0
  0
VERTEX
  5
4D
330
4B
100
AcDbEntity
  8
_U+30EC_U+30A4_U+30E4_U+30FC 1
 62
   179
420
  2234388
370
    25
100
AcDbVertex
100
AcDb2dVertex
 10
113.815705673586
 20
-159.2399786657022
 30
0.0
  0
SEQEND
  5
4E
330
4B
100
AcDbEntity
  8
_U+30EC_U+30A4_U+30E4_U+30FC 1
 62
   179
420
  2234388
370
    25
  0
POLYLINE
  5
4F
330
1F
100
AcDbEntity
  8
_U+30EC_U+30A4_U+30E4_U+30FC 1
 62
   179
420
  2234388
370
    25
100
AcDb2dPolyline
 66
     1
 10
0.0
 20
0.0
 30
0.0
  0
VERTEX
  5
50
330
4F
100
AcDbEntity
  8
_U+30EC_U+30A4_U+30E4_U+30FC 1
 62
   179
420
  2234388
370
    25
100
AcDbVertex
100
AcDb2dVertex
 10
99.81540283250872
 20
-138.2397208821881
 30
0.0
  0
VERTEX
  5
51
330
4F
100
AcDbEntity
  8
_U+30EC_U+30A4_U+30E4_U+30FC 1
 62
   179
420
  2234388
370
    25
100
AcDbVertex
100
AcDb2dVertex
 10
99.81540283250872
 20
-158.2393991286666
 30
0.0
  0
SEQEND
  5
52
330
4F
100
AcDbEntity
  8
_U+30EC_U+30A4_U+30E4_U+30FC 1
 62
   179
420
  2234388
370
    25
  0
POLYLINE
  5
53
330
1F
100
AcDbEntity
  8
_U+30EC_U+30A4_U+30E4_U+30FC 1
 62
   179
420
  2234388
370
    25
100
AcDb2dPolyline
 66
     1
 10
0.0
 20
0.0
 30
0.0
  0
VERTEX
  5
54
330
53
100
AcDbEntity
  8
_U+30EC_U+30A4_U+30E4_U+30FC 1
 62
   179
420
  2234388
370
    25
100
AcDbVertex
100
AcDb2dVertex
 10
100.815845104021
 20
-139.2394929749693
 30
0.0
  0
VERTEX
  5
55
330
53
100
AcDbEntity
  8
_U+30EC_U+30A4_U+30E4_U+30FC 1
 62
   179
420
  2234388
370
    25
100
AcDbVertex
100
AcDb2dVertex
 10
100.815845104021
 20
-144.2394138823294
 30
0.0
  0
SEQEND
  5
56
330
53
100
AcDbEntity
  8
_U+30EC_U+30A4_U+30E4_U+30FC 1
 62
   179
420
  2234388
370
    25
  0
POLYLINE
  5
57
330
1F
100
AcDbEntity
  8
_U+30EC_U+30A4_U+30E4_U+30FC 1
 62
   179
420
  2234388
370
    25
100
AcDb2dPolyline
 66
     1
 10
0.0
 20
0.0
 30
0.0
  0
VERTEX
  5
58
330
57
100
AcDbEntity
  8
_U+30EC_U+30A4_U+30E4_U+30FC 1
 62
   179
420
  2234388
370
    25
100
AcDbVertex
100
AcDb2dVertex
 10
100.815845104021
 20
-144.2393385208656
 30
0.0
  0
VERTEX
  5
59
330
57
100
AcDbEntity
  8
_U+30EC_U+30A4_U+30E4_U+30FC 1
 62
   179
420
  2234388
370
    25
100
AcDbVertex
100
AcDb2dVertex
 10
105.8157633199002
 20
-144.2393385208656
 30
0.0
  0
SEQEND
  5
5A
330
57
100
AcDbEntity
  8
_U+30EC_U+30A4_U+30E4_U+30FC 1
 62
   179
420
  2234388
370
    25
  0
POLYLINE
  5
5B
330
1F
100
AcDbEntity
  8
_U+30EC_U+30A4_U+30E4_U+30FC 1
 62
   179
420
  2234388
370
    25
100
AcDb2dPolyline
 66
     1
 10
0.0
 20
0.0
 30
0.0
  0
VERTEX
  5
5C
330
5B
100
AcDbEntity
  8
_U+30EC_U+30A4_U+30E4_U+30FC 1
 62
   179
420
  2234388
370
    25
100
AcDbVertex
100
AcDb2dVertex
 10
100.815845104021
 20
-145.239815781629
 30
0.0
  0
VERTEX
  5
5D
330
5B
100
AcDbEntity
  8
_U+30EC_U+30A4_U+30E4_U+30FC 1
 62
   179
420
  2234388
370
    25
100
AcDbVertex
100
AcDb2dVertex
 10
100.815845104021
 20
-158.2396790426748
 30
0.0
  0
SEQEND
  5
5E
330
5B
100
AcDbEntity
  8
_U+30EC_U+30A4_U+30E4_U+30FC 1
 62
   179
420
  2234388
370
    25
  0
POLYLINE
  5
5F
330
1F
100
AcDbEntity
  8
_U+30EC_U+30A4_U+30E4_U+30FC 1
 62
   179
420
  2234388
370
    25
100
AcDb2dPolyline
 66
     1
 10
0.0
 20
0.0
 30
0.0
  0
VERTEX
  5
60
330
5F
100
AcDbEntity
  8
_U+30EC_U+30A4_U+30E4_U+30FC 1
 62
   179
420
  2234388
370
    25
100
AcDbVertex
100
AcDb2dVertex
 10
107.1741375549258
 20
-158.4400597917973
 30
0.0
  0
VERTEX
  5
61
330
5F
100
AcDbEntity
  8
_U+30EC_U+30A4_U+30E4_U+30FC 1
 62
   179
420
  2234388
370
    25
100
AcDbVertex
100
AcDb2dVertex
 10
113.0157814167195
 20
-158.4400597917973
 30
0.0
  0
SEQEND
  5
62
330
5F
100
AcDbEntity
  8
_U+30EC_U+30A4_U+30E4_U+30FC 1
 62
   179
420
  2234388
370
    25
  0
POLYLINE
  5
63
330
1F
100
AcDbEntity
  8
_U+30EC_U+30A4_U+30E4_U+30FC 1
 62
   179
420
  2234388
370
    25
100
AcDb2dPolyline
 66
     1
 10
0.0
 20
0.0
 30
0.0
  0
VERTEX
  5
64
330
63
100
AcDbEntity
  8
_U+30EC_U+30A4_U+30E4_U+30FC 1
 62
   179
420
  2234388
370
    25
100
AcDbVertex
100
AcDb2dVertex
 10
106.8158207096513
 20
-158.2395390856707
 30
0.0
  0
VERTEX
  5
65
330
63
100
AcDbEntity
  8
_U+30EC_U+30A4_U+30E4_U+30FC 1
 62
   179
420
  2234388
370
    25
100
AcDbVertex
100
AcDb2dVertex
 10
107.1615414245578
 20
-158.4399198347932
 30
0.0
  0
SEQEND
  5
66
330
63
100
AcDbEntity
  8
_U+30EC_U+30A4_U+30E4_U+30FC 1
 62
   179
420
  2234388
370
    25
  0
SPLINE
  5
67
330
1F
100
AcDbEntity
  8
_U+30EC_U+30A4_U+30E4_U+30FC 1
 62
   179
420
  2234388
370
    25
100
AcDbSpline
210
0.0
220
0.0
230
1.0
 70
     8
 71
     3
 72
     8
 73
     4
 74
     0
 42
0.0000000001
 43
0.0000000001
 12
1.0
 22
0.0
 32
0.0
 13
1.0
 23
0.0
 33
0.0
 40
0.0
 40
0.0
 40
0.0
 40
0.0
 40
1.0
 40
1.0
 40
1.0
 40
1.0
 10
99.81540283250872
 20
-158.2395390856707
 30
0.0
 10
99.81540283250872
 20
-158.7919924445007
 30
0.0
 10
100.2634294259229
 20
-159.2400217293957
 30
0.0
 10
100.8158800932721
 20
-159.2400217293957
 30
0.0
  0
SPLINE
  5
68
330
1F
100
AcDbEntity
  8
_U+30EC_U+30A4_U+30E4_U+30FC 1
 62
   179
420
  2234388
370
     9
100
AcDbSpline
210
0.0
220
0.0
230
1.0
 70
    11
 71
     3
 72
    17
 73
    13
 74
     0
 42
0.0000000001
 43
0.0000000001
 12
1.0
 22
0.0
 32
0.0
 13
1.0
 23
0.0
 33
0.0
 40
0.0
 40
0.0
 40
0.0
 40
0.0
 40
1.0
 40
1.0
 40
1.0
 40
2.0
 40
2.0
 40
2.0
 40
3.0
 40
3.0
 40
3.0
 40
4.0
 40
4.0
 40
4.0
 40
4.0
 10
99.91562819632101
 20
-142.4740769771853
 30
0.0
 10
99.91562819632101
 20
-142.4190469597701
 30
0.0
 10
99.87082311464683
 20
-142.3742445695768
 30
0.0
 10
99.81543782176006
 20
-142.3742445695768
 30
0.0
 10
99.76040511286372
 20
-142.3742445695768
 30
0.0
 10
99.71560272267038
 20
-142.4190469597701
 30
0.0
 10
99.71560272267038
 20
-142.4740769771853
 30
0.0
 10
99.71560272267038
 20
-142.5291123775622
 30
0.0
 10
99.76040511286372
 20
-142.5739147677555
 30
0.0
 10
99.81543782176006
 20
-142.5739147677555
 30
0.0
 10
99.87082311464683
 20
-142.5739147677555
 30
0.0
 10
99.91562819632101
 20
-142.5291123775622
 30
0.0
 10
99.91562819632101
 20
-142.4740769771853
 30
0.0
  0
SPLINE
  5
69
330
1F
100
AcDbEntity
  8
_U+30EC_U+30A4_U+30E4_U+30FC 1
 62
   179
420
  2234388
370
     9
100
AcDbSpline
210
0.0
220
0.0
230
1.0
 70
    11
 71
     3
 72
    17
 73
    13
 74
     0
 42
0.0000000001
 43
0.0000000001
 12
1.0
 22
0.0
 32
0.0
 13
1.0
 23
0.0
 33
0.0
 40
0.0
 40
0.0
 40
0.0
 40
0.0
 40
1.0
 40
1.0
 40
1.0
 40
2.0
 40
2.0
 40
2.0
 40
3.0
 40
3.0
 40
3.0
 40
4.0
 40
4.0
 40
4.0
 40
4.0
 10
100.9157178838423
 20
-142.4740769771853
 30
0.0
 10
100.9157178838423
 20
-142.4190469597701
 30
0.0
 10
100.8709128021681
 20
-142.3742445695768
 30
0.0
 10
100.8158800932721
 20
-142.3742445695768
 30
0.0
 10
100.760494800385
 20
-142.3742445695768
 30
0.0
 10
100.7156924101916
 20
-142.4190469597701
 30
0.0
 10
100.7156924101916
 20
-142.4740769771853
 30
0.0
 10
100.7156924101916
 20
-142.5291123775622
 30
0.0
 10
100.760494800385
 20
-142.5739147677555
 30
0.0
 10
100.8158800932721
 20
-142.5739147677555
 30
0.0
 10
100.8709128021681
 20
-142.5739147677555
 30
0.0
 10
100.9157178838423
 20
-142.5291123775622
 30
0.0
 10
100.9157178838423
 20
-142.4740769771853
 30
0.0
  0
SPLINE
  5
6A
330
1F
100
AcDbEntity
  8
_U+30EC_U+30A4_U+30E4_U+30FC 1
 62
   179
420
  2234388
370
     9
100
AcDbSpline
210
0.0
220
0.0
230
1.0
 70
    11
 71
     3
 72
    17
 73
    13
 74
     0
 42
0.0000000001
 43
0.0000000001
 12
1.0
 22
0.0
 32
0.0
 13
1.0
 23
0.0
 33
0.0
 40
0.0
 40
0.0
 40
0.0
 40
0.0
 40
1.0
 40
1.0
 40
1.0
 40
2.0
 40
2.0
 40
2.0
 40
3.0
 40
3.0
 40
3.0
 40
4.0
 40
4.0
 40
4.0
 40
4.0
 10
113.8155657165819
 20
-163.2397399070389
 30
0.0
 10
113.8155657165819
 20
-163.1847071981429
 30
0.0
 10
113.7707579434269
 20
-163.1399048079496
 30
0.0
 10
113.7157279260117
 20
-163.1399048079496
 30
0.0
 10
113.6606925256349
 20
-163.1399048079496
 30
0.0
 10
113.6158901354415
 20
-163.1847071981429
 30
0.0
 10
113.6158901354415
 20
-163.2397399070389
 30
0.0
 10
113.6158901354415
 20
-163.2947753074158
 30
0.0
 10
113.6606925256349
 20
-163.3395776976091
 30
0.0
 10
113.7157279260117
 20
-163.3395776976091
 30
0.0
 10
113.7707579434269
 20
-163.3395776976091
 30
0.0
 10
113.8155657165819
 20
-163.2947753074158
 30
0.0
 10
113.8155657165819
 20
-163.2397399070389
 30
0.0
  0
SPLINE
  5
6B
330
1F
100
AcDbEntity
  8
_U+30EC_U+30A4_U+30E4_U+30FC 1
 62
   179
420
  2234388
370
     9
100
AcDbSpline
210
0.0
220
0.0
230
1.0
 70
    11
 71
     3
 72
    17
 73
    13
 74
     0
 42
0.0000000001
 43
0.0000000001
 12
1.0
 22
0.0
 32
0.0
 13
1.0
 23
0.0
 33
0.0
 40
0.0
 40
0.0
 40
0.0
 40
0.0
 40
1.0
 40
1.0
 40
1.0
 40
2.0
 40
2.0
 40
2.0
 40
3.0
 40
3.0
 40
3.0
 40
4.0
 40
4.0
 40
4.0
 40
4.0
 10
99.91562819632101
 20
-163.2397399070389
 30
0.0
 10
99.91562819632101
 20
-163.1847071981429
 30
0.0
 10
99.87082311464683
 20
-163.1399048079496
 30
0.0
 10
99.81543782176006
 20
-163.1399048079496
 30
0.0
 10
99.76040511286372
 20
-163.1399048079496
 30
0.0
 10
99.71560272267038
 20
-163.1847071981429
 30
0.0
 10
99.71560272267038
 20
-163.2397399070389
 30
0.0
 10
99.71560272267038
 20
-163.2947753074158
 30
0.0
 10
99.76040511286372
 20
-163.3395776976091
 30
0.0
 10
99.81543782176006
 20
-163.3395776976091
 30
0.0
 10
99.87082311464683
 20
-163.3395776976091
 30
0.0
 10
99.91562819632101
 20
-163.2947753074158
 30
0.0
 10
99.91562819632101
 20
-163.2397399070389
 30
0.0
  0
SPLINE
  5
6C
330
1F
100
AcDbEntity
  8
_U+30EC_U+30A4_U+30E4_U+30FC 1
 62
   179
420
  2234388
370
    25
100
AcDbSpline
210
0.0
220
0.0
230
1.0
 70
     8
 71
     3
 72
     8
 73
     4
 74
     0
 42
0.0000000001
 43
0.0000000001
 12
1.0
 22
0.0
 32
0.0
 13
1.0
 23
0.0
 33
0.0
 40
0.0
 40
0.0
 40
0.0
 40
0.0
 40
1.0
 40
1.0
 40
1.0
 40
1.0
 10
100.815845104021
 20
-139.2394929749693
 30
0.0
 10
100.815845104021
 20
-138.6877501670832
 30
0.0
 10
100.367815819126
 20
-138.2397208821881
 30
0.0
 10
99.81536515177685
 20
-138.2397208821881
 30
0.0
  0
SPLINE
  5
6D
330
1F
100
AcDbEntity
  8
_U+30EC_U+30A4_U+30E4_U+30FC 1
 62
   179
420
  2234388
370
    25
100
AcDbSpline
210
0.0
220
0.0
230
1.0
 70
     8
 71
     3
 72
     8
 73
     4
 74
     0
 42
0.0000000001
 43
0.0000000001
 12
1.0
 22
0.0
 32
0.0
 13
1.0
 23
0.0
 33
0.0
 40
0.0
 40
0.0
 40
0.0
 40
0.0
 40
1.0
 40
1.0
 40
1.0
 40
1.0
 10
106.8158207096513
 20
-145.239815781629
 30
0.0
 10
106.8158207096513
 20
-144.6873678057607
 30
0.0
 10
106.3677914247563
 20
-144.2393385208656
 30
0.0
 10
105.8156933413982
 20
-144.2393385208656
 30
0.0
  0
SPLINE
  5
6E
330
1F
100
AcDbEntity
  8
_U+30EC_U+30A4_U+30E4_U+30FC 1
 62
   179
420
  2234388
370
    25
100
AcDbSpline
210
0.0
220
0.0
230
1.0
 70
     8
 71
     3
 72
     8
 73
     4
 74
     0
 42
0.0000000001
 43
0.0000000001
 12
1.0
 22
0.0
 32
0.0
 13
1.0
 23
0.0
 33
0.0
 40
0.0
 40
0.0
 40
0.0
 40
0.0
 40
1.0
 40
1.0
 40
1.0
 40
1.0
 10
113.8155657165819
 20
-159.2399786657022
 30
0.0
 10
113.8155657165819
 20
-158.7983012756081
 30
0.0
 10
113.4571412120736
 20
-158.4398821540614
 30
0.0
 10
113.0154638219794
 20
-158.4398821540614
 30
0.0
  0
SPLINE
  5
6F
330
1F
100
AcDbEntity
  8
_U+30EC_U+30A4_U+30E4_U+30FC 1
 62
   179
420
  2234388
370
     9
100
AcDbSpline
210
0.0
220
0.0
230
1.0
 70
    11
 71
     3
 72
    17
 73
    13
 74
     0
 42
0.0000000001
 43
0.0000000001
 12
1.0
 22
0.0
 32
0.0
 13
1.0
 23
0.0
 33
0.0
 40
0.0
 40
0.0
 40
0.0
 40
0.0
 40
1.0
 40
1.0
 40
1.0
 40
2.0
 40
2.0
 40
2.0
 40
3.0
 40
3.0
 40
3.0
 40
4.0
 40
4.0
 40
4.0
 40
4.0
 10
95.91554936024453
 20
-138.2400707746984
 30
0.0
 10
95.91554936024453
 20
-138.1850407572832
 30
0.0
 10
95.87074427857003
 20
-138.1402383670898
 30
0.0
 10
95.81571156967401
 20
-138.1402383670898
 30
0.0
 10
95.76067886077799
 20
-138.1402383670898
 30
0.0
 10
95.71587647058465
 20
-138.1850407572832
 30
0.0
 10
95.71587647058465
 20
-138.2400707746984
 30
0.0
 10
95.71587647058465
 20
-138.2951061750752
 30
0.0
 10
95.76067886077799
 20
-138.3399085652686
 30
0.0
 10
95.81571156967401
 20
-138.3399085652686
 30
0.0
 10
95.87074427857003
 20
-138.3399085652686
 30
0.0
 10
95.91554936024453
 20
-138.2951061750752
 30
0.0
 10
95.91554936024453
 20
-138.2400707746984
 30
0.0
  0
SPLINE
  5
70
330
1F
100
AcDbEntity
  8
_U+30EC_U+30A4_U+30E4_U+30FC 1
 62
   179
420
  2234388
370
     9
100
AcDbSpline
210
0.0
220
0.0
230
1.0
 70
    11
 71
     3
 72
    17
 73
    13
 74
     0
 42
0.0000000001
 43
0.0000000001
 12
1.0
 22
0.0
 32
0.0
 13
1.0
 23
0.0
 33
0.0
 40
0.0
 40
0.0
 40
0.0
 40
0.0
 40
1.0
 40
1.0
 40
1.0
 40
2.0
 40
2.0
 40
2.0
 40
3.0
 40
3.0
 40
3.0
 40
4.0
 40
4.0
 40
4.0
 40
4.0
 10
95.91554936024453
 20
-159.2399786657022
 30
0.0
 10
95.91554936024453
 20
-159.184948648287
 30
0.0
 10
95.87074427857003
 20
-159.1401462580937
 30
0.0
 10
95.81571156967401
 20
-159.1401462580937
 30
0.0
 10
95.76067886077799
 20
-159.1401462580937
 30
0.0
 10
95.71587647058465
 20
-159.184948648287
 30
0.0
 10
95.71587647058465
 20
-159.2399786657022
 30
0.0
 10
95.71587647058465
 20
-159.295014066079
 30
0.0
 10
95.76067886077799
 20
-159.3398164562724
 30
0.0
 10
95.81571156967401
 20
-159.3398164562724
 30
0.0
 10
95.87074427857003
 20
-159.3398164562724
 30
0.0
 10
95.91554936024453
 20
-159.295014066079
 30
0.0
 10
95.91554936024453
 20
-159.2399786657022
 30
0.0
  0
SPLINE
  5
71
330
1F
100
AcDbEntity
  8
_U+30EC_U+30A4_U+30E4_U+30FC 1
 62
   179
420
  2234388
370
     9
100
AcDbSpline
210
0.0
220
0.0
230
1.0
 70
    11
 71
     3
 72
    17
 73
    13
 74
     0
 42
0.0000000001
 43
0.0000000001
 12
1.0
 22
0.0
 32
0.0
 13
1.0
 23
0.0
 33
0.0
 40
0.0
 40
0.0
 40
0.0
 40
0.0
 40
1.0
 40
1.0
 40
1.0
 40
2.0
 40
2.0
 40
2.0
 40
3.0
 40
3.0
 40
3.0
 40
4.0
 40
4.0
 40
4.0
 40
4.0
 10
116.3276970466559
 20
-158.2395390856707
 30
0.0
 10
116.3276970466559
 20
-158.1845090682555
 30
0.0
 10
116.2828892735009
 20
-158.1397066780622
 30
0.0
 10
116.2278592560857
 20
-158.1397066780622
 30
0.0
 10
116.1728238557089
 20
-158.1397066780622
 30
0.0
 10
116.1280214655155
 20
-158.1845090682555
 30
0.0
 10
116.1280214655155
 20
-158.2395390856707
 30
0.0
 10
116.1280214655155
 20
-158.2952796540297
 30
0.0
 10
116.1728238557089
 20
-158.340082044223
 30
0.0
 10
116.2278592560857
 20
-158.340082044223
 30
0.0
 10
116.2828892735009
 20
-158.340082044223
 30
0.0
 10
116.3276970466559
 20
-158.2952796540297
 30
0.0
 10
116.3276970466559
 20
-158.2395390856707
 30
0.0
  0
SPLINE
  5
72
330
1F
100
AcDbEntity
  8
_U+30EC_U+30A4_U+30E4_U+30FC 1
 62
   179
420
  2234388
370
     9
100
AcDbSpline
210
0.0
220
0.0
230
1.0
 70
    11
 71
     3
 72
    17
 73
    13
 74
     0
 42
0.0000000001
 43
0.0000000001
 12
1.0
 22
0.0
 32
0.0
 13
1.0
 23
0.0
 33
0.0
 40
0.0
 40
0.0
 40
0.0
 40
0.0
 40
1.0
 40
1.0
 40
1.0
 40
2.0
 40
2.0
 40
2.0
 40
3.0
 40
3.0
 40
3.0
 40
4.0
 40
4.0
 40
4.0
 40
4.0
 10
116.3276970466559
 20
-145.3397235507012
 30
0.0
 10
116.3276970466559
 20
-145.284693533286
 30
0.0
 10
116.2828892735009
 20
-145.2398911430927
 30
0.0
 10
116.2278592560857
 20
-145.2398911430927
 30
0.0
 10
116.1728238557089
 20
-145.2398911430927
 30
0.0
 10
116.1280214655155
 20
-145.284693533286
 30
0.0
 10
116.1280214655155
 20
-145.3397235507012
 30
0.0
 10
116.1280214655155
 20
-145.39511422655
 30
0.0
 10
116.1728238557089
 20
-145.4399166167437
 30
0.0
 10
116.2278592560857
 20
-145.4399166167437
 30
0.0
 10
116.2828892735009
 20
-145.4399166167437
 30
0.0
 10
116.3276970466559
 20
-145.39511422655
 30
0.0
 10
116.3276970466559
 20
-145.3397235507012
 30
0.0
  0
SPLINE
  5
73
330
1F
100
AcDbEntity
  8
_U+30EC_U+30A4_U+30E4_U+30FC 1
 62
   179
420
  2234388
370
     9
100
AcDbSpline
210
0.0
220
0.0
230
1.0
 70
    11
 71
     3
 72
    17
 73
    13
 74
     0
 42
0.0000000001
 43
0.0000000001
 12
1.0
 22
0.0
 32
0.0
 13
1.0
 23
0.0
 33
0.0
 40
0.0
 40
0.0
 40
0.0
 40
0.0
 40
1.0
 40
1.0
 40
1.0
 40
2.0
 40
2.0
 40
2.0
 40
3.0
 40
3.0
 40
3.0
 40
4.0
 40
4.0
 40
4.0
 40
4.0
 10
116.3276970466559
 20
-138.3396286512604
 30
0.0
 10
116.3276970466559
 20
-138.2845986338452
 30
0.0
 10
116.2828892735009
 20
-138.2397962436519
 30
0.0
 10
116.2278592560857
 20
-138.2397962436519
 30
0.0
 10
116.1728238557089
 20
-138.2397962436519
 30
0.0
 10
116.1280214655155
 20
-138.2845986338452
 30
0.0
 10
116.1280214655155
 20
-138.3396286512604
 30
0.0
 10
116.1280214655155
 20
-138.3946640516372
 30
0.0
 10
116.1728238557089
 20
-138.4394664418306
 30
0.0
 10
116.2278592560857
 20
-138.4394664418306
 30
0.0
 10
116.2828892735009
 20
-138.4394664418306
 30
0.0
 10
116.3276970466559
 20
-138.3946640516372
 30
0.0
 10
116.3276970466559
 20
-138.3396286512604
 30
0.0
  0
POLYLINE
  5
74
330
1F
100
AcDbEntity
  8
_U+30EC_U+30A4_U+30E4_U+30FC 1
 62
   179
420
  2234388
370
     9
100
AcDb2dPolyline
 66
     1
 10
0.0
 20
0.0
 30
0.0
  0
VERTEX
  5
75
330
74
100
AcDbEntity
  8
_U+30EC_U+30A4_U+30E4_U+30FC 1
 62
   179
420
  2234388
370
     9
100
AcDbVertex
100
AcDb2dVertex
 10
100.815845104021
 20
-142.4740769771853
 30
0.0
  0
VERTEX
  5
76
330
74
100
AcDbEntity
  8
_U+30EC_U+30A4_U+30E4_U+30FC 1
 62
   179
420
  2234388
370
     9
100
AcDbVertex
100
AcDb2dVertex
 10
104.5863325493336
 20
-142.4740769771853
 30
0.0
  0
SEQEND
  5
77
330
74
100
AcDbEntity
  8
_U+30EC_U+30A4_U+30E4_U+30FC 1
 62
   179
420
  2234388
370
     9
  0
POLYLINE
  5
78
330
1F
100
AcDbEntity
  8
_U+30EC_U+30A4_U+30E4_U+30FC 1
 62
   179
420
  2234388
370
     9
100
AcDb2dPolyline
 66
     1
 10
0.0
 20
0.0
 30
0.0
  0
VERTEX
  5
79
330
78
100
AcDbEntity
  8
_U+30EC_U+30A4_U+30E4_U+30FC 1
 62
   179
420
  2234388
370
     9
100
AcDbVertex
100
AcDb2dVertex
 10
98.81563073972784
 20
-142.4740769771853
 30
0.0
  0
VERTEX
  5
7A
330
78
100
AcDbEntity
  8
_U+30EC_U+30A4_U+30E4_U+30FC 1
 62
   179
420
  2234388
370
     9
100
AcDbVertex
100
AcDb2dVertex
 10
100.8158800932721
 20
-142.4740769771853
 30
0.0
  0
SEQEND
  5
7B
330
78
100
AcDbEntity
  8
_U+30EC_U+30A4_U+30E4_U+30FC 1
 62
   179
420
  2234388
370
     9
  0
INSERT
  5
7D
330
1F
100
AcDbEntity
  8
_U+30EC_U+30A4_U+30E4_U+30FC 1
100
AcDbBlockReference
  2
block 2
 10
0.0
 20
0.0
 30
0.0
  0
POLYLINE
  5
82
330
1F
100
AcDbEntity
  8
_U+30EC_U+30A4_U+30E4_U+30FC 1
 62
   179
420
  2234388
370
     9
100
AcDb2dPolyline
 66
     1
 10
0.0
 20
0.0
 30
0.0
  0
VERTEX
  5
83
330
82
100
AcDbEntity
  8
_U+30EC_U+30A4_U+30E4_U+30FC 1
 62
   179
420
  2234388
370
     9
100
AcDbVertex
100
AcDb2dVertex
 10
99.81540283250872
 20
-163.2397399070389
 30
0.0
  0
VERTEX
  5
84
330
82
100
AcDbEntity
  8
_U+30EC_U+30A4_U+30E4_U+30FC 1
 62
   179
420
  2234388
370
     9
100
AcDbVertex
100
AcDb2dVertex
 10
113.8157379713562
 20
-163.2397399070389
 30
0.0
  0
SEQEND
  5
85
330
82
100
AcDbEntity
  8
_U+30EC_U+30A4_U+30E4_U+30FC 1
 62
   179
420
  2234388
370
     9
  0
POLYLINE
  5
86
330
1F
100
AcDbEntity
  8
_U+30EC_U+30A4_U+30E4_U+30FC 1
 62
   179
420
  2234388
370
     9
100
AcDb2dPolyline
 66
     1
 10
0.0
 20
0.0
 30
0.0
  0
VERTEX
  5
87
330
86
100
AcDbEntity
  8
_U+30EC_U+30A4_U+30E4_U+30FC 1
 62
   179
420
  2234388
370
     9
100
AcDbVertex
100
AcDb2dVertex
 10
99.81540283250872
 20
-160.7799632624173
 30
0.0
  0
VERTEX
  5
88
330
86
100
AcDbEntity
  8
_U+30EC_U+30A4_U+30E4_U+30FC 1
 62
   179
420
  2234388
370
     9
100
AcDbVertex
100
AcDb2dVertex
 10
99.81540283250872
 20
-164.2403625077681
 30
0.0
  0
SEQEND
  5
89
330
86
100
AcDbEntity
  8
_U+30EC_U+30A4_U+30E4_U+30FC 1
 62
   179
420
  2234388
370
     9
  0
POLYLINE
  5
8A
330
1F
100
AcDbEntity
  8
_U+30EC_U+30A4_U+30E4_U+30FC 1
 62
   179
420
  2234388
370
     9
100
AcDb2dPolyline
 66
     1
 10
0.0
 20
0.0
 30
0.0
  0
VERTEX
  5
8B
330
8A
100
AcDbEntity
  8
_U+30EC_U+30A4_U+30E4_U+30FC 1
 62
   179
420
  2234388
370
     9
100
AcDbVertex
100
AcDb2dVertex
 10
113.7156579475097
 20
-160.7799632624173
 30
0.0
  0
VERTEX
  5
8C
330
8A
100
AcDbEntity
  8
_U+30EC_U+30A4_U+30E4_U+30FC 1
 62
   179
420
  2234388
370
     9
100
AcDbVertex
100
AcDb2dVertex
 10
113.7156579475097
 20
-164.2403625077681
 30
0.0
  0
SEQEND
  5
8D
330
8A
100
AcDbEntity
  8
_U+30EC_U+30A4_U+30E4_U+30FC 1
 62
   179
420
  2234388
370
     9
  0
INSERT
  5
8F
330
1F
100
AcDbEntity
  8
_U+30EC_U+30A4_U+30E4_U+30FC 1
100
AcDbBlockReference
  2
block 3
 10
0.0
 20
0.0
 30
0.0
  0
SPLINE
  5
A9
330
1F
100
AcDbEntity
  8
_U+30EC_U+30A4_U+30E4_U+30FC 1
 62
   179
420
  2234388
370
     9
100
AcDbSpline
210
0.0
220
0.0
230
1.0
 70
    11
 71
     3
 72
    17
 73
    13
 74
     0
 42
0.0000000001
 43
0.0000000001
 12
1.0
 22
0.0
 32
0.0
 13
1.0
 23
0.0
 33
0.0
 40
0.0
 40
0.0
 40
0.0
 40
0.0
 40
1.0
 40
1.0
 40
1.0
 40
2.0
 40
2.0
 40
2.0
 40
3.0
 40
3.0
 40
3.0
 40
4.0
 40
4.0
 40
4.0
 40
4.0
 10
107.0156308648341
 20
-136.1344122652285
 30
0.0
 10
107.0156308648341
 20
-136.0793822478134
 30
0.0
 10
106.9708230916791
 20
-136.0345798576201
 30
0.0
 10
106.9157930742639
 20
-136.0345798576201
 30
0.0
 10
106.860757673887
 20
-136.0345798576201
 30
0.0
 10
106.8159552836937
 20
-136.0793822478134
 30
0.0
 10
106.8159552836937
 20
-136.1344122652285
 30
0.0
 10
106.8159552836937
 20
-136.1894476656054
 30
0.0
 10
106.860757673887
 20
-136.2342500557988
 30
0.0
 10
106.9157930742639
 20
-136.2342500557988
 30
0.0
 10
106.9708230916791
 20
-136.2342500557988
 30
0.0
 10
107.0156308648341
 20
-136.1894476656054
 30
0.0
 10
107.0156308648341
 20
-136.1344122652285
 30
0.0
  0
SPLINE
  5
AA
330
1F
100
AcDbEntity
  8
_U+30EC_U+30A4_U+30E4_U+30FC 1
 62
   179
420
  2234388
370
     9
100
AcDbSpline
210
0.0
220
0.0
230
1.0
 70
    11
 71
     3
 72
    17
 73
    13
 74
     0
 42
0.0000000001
 43
0.0000000001
 12
1.0
 22
0.0
 32
0.0
 13
1.0
 23
0.0
 33
0.0
 40
0.0
 40
0.0
 40
0.0
 40
0.0
 40
1.0
 40
1.0
 40
1.0
 40
2.0
 40
2.0
 40
2.0
 40
3.0
 40
3.0
 40
3.0
 40
4.0
 40
4.0
 40
4.0
 40
4.0
 10
101.0156579506847
 20
-136.1344122652285
 30
0.0
 10
101.0156579506847
 20
-136.0793822478134
 30
0.0
 10
100.9708528690105
 20
-136.0345798576201
 30
0.0
 10
100.9158201601145
 20
-136.0345798576201
 30
0.0
 10
100.8607874512185
 20
-136.0345798576201
 30
0.0
 10
100.8159850610251
 20
-136.0793822478134
 30
0.0
 10
100.8159850610251
 20
-136.1344122652285
 30
0.0
 10
100.8159850610251
 20
-136.1894476656054
 30
0.0
 10
100.8607874512185
 20
-136.2342500557988
 30
0.0
 10
100.9158201601145
 20
-136.2342500557988
 30
0.0
 10
100.9708528690105
 20
-136.2342500557988
 30
0.0
 10
101.0156579506847
 20
-136.1894476656054
 30
0.0
 10
101.0156579506847
 20
-136.1344122652285
 30
0.0
  0
POLYLINE
  5
AB
330
1F
100
AcDbEntity
  8
_U+30EC_U+30A4_U+30E4_U+30FC 1
 62
   179
420
  2234388
370
     9
100
AcDb2dPolyline
 66
     1
 10
0.0
 20
0.0
 30
0.0
  0
VERTEX
  5
AC
330
AB
100
AcDbEntity
  8
_U+30EC_U+30A4_U+30E4_U+30FC 1
 62
   179
420
  2234388
370
     9
100
AcDbVertex
100
AcDb2dVertex
 10
100.9157178838423
 20
-136.1344122652285
 30
0.0
  0
VERTEX
  5
AD
330
AB
100
AcDbEntity
  8
_U+30EC_U+30A4_U+30E4_U+30FC 1
 62
   179
420
  2234388
370
     9
100
AcDbVertex
100
AcDb2dVertex
 10
106.9157607764937
 20
-136.1344122652285
 30
0.0
  0
SEQEND
  5
AE
330
AB
100
AcDbEntity
  8
_U+30EC_U+30A4_U+30E4_U+30FC 1
 62
   179
420
  2234388
370
     9
  0
POLYLINE
  5
AF
330
1F
100
AcDbEntity
  8
_U+30EC_U+30A4_U+30E4_U+30FC 1
 62
   179
420
  2234388
370
     9
100
AcDb2dPolyline
 66
     1
 10
0.0
 20
0.0
 30
0.0
  0
VERTEX
  5
B0
330
AF
100
AcDbEntity
  8
_U+30EC_U+30A4_U+30E4_U+30FC 1
 62
   179
420
  2234388
370
     9
100
AcDbVertex
100
AcDb2dVertex
 10
100.9157178838423
 20
-134.6747253081282
 30
0.0
  0
VERTEX
  5
B1
330
AF
100
AcDbEntity
  8
_U+30EC_U+30A4_U+30E4_U+30FC 1
 62
   179
420
  2234388
370
     9
100
AcDbVertex
100
AcDb2dVertex
 10
100.9157178838423
 20
-137.1350025681875
 30
0.0
  0
SEQEND
  5
B2
330
AF
100
AcDbEntity
  8
_U+30EC_U+30A4_U+30E4_U+30FC 1
 62
   179
420
  2234388
370
     9
  0
POLYLINE
  5
B3
330
1F
100
AcDbEntity
  8
_U+30EC_U+30A4_U+30E4_U+30FC 1
 62
   179
420
  2234388
370
     9
100
AcDb2dPolyline
 66
     1
 10
0.0
 20
0.0
 30
0.0
  0
VERTEX
  5
B4
330
B3
100
AcDbEntity
  8
_U+30EC_U+30A4_U+30E4_U+30FC 1
 62
   179
420
  2234388
370
     9
100
AcDbVertex
100
AcDb2dVertex
 10
106.9157607764937
 20
-134.6747253081282
 30
0.0
  0
VERTEX
  5
B5
330
B3
100
AcDbEntity
  8
_U+30EC_U+30A4_U+30E4_U+30FC 1
 62
   179
420
  2234388
370
     9
100
AcDbVertex
100
AcDb2dVertex
 10
106.9157607764937
 20
-137.1350025681875
 30
0.0
  0
SEQEND
  5
B6
330
B3
100
AcDbEntity
  8
_U+30EC_U+30A4_U+30E4_U+30FC 1
 62
   179
420
  2234388
370
     9
  0
INSERT
  5
B8
330
1F
100
AcDbEntity
  8
_U+30EC_U+30A4_U+30E4_U+30FC 1
100
AcDbBlockReference
  2
block 4
 10
0.0
 20
0.0
 30
0.0
  0
POLYLINE
  5
BE
330
1F
100
AcDbEntity
  8
_U+30EC_U+30A4_U+30E4_U+30FC 1
 62
   179
420
  2234388
370
     9
100
AcDb2dPolyline
 66
     1
 10
0.0
 20
0.0
 30
0.0
  0
VERTEX
  5
BF
330
BE
100
AcDbEntity
  8
_U+30EC_U+30A4_U+30E4_U+30FC 1
 62
   179
420
  2234388
370
     9
100
AcDbVertex
100
AcDb2dVertex
 10
95.81560929340179
 20
-159.2399786657022
 30
0.0
  0
VERTEX
  5
C0
330
BE
100
AcDbEntity
  8
_U+30EC_U+30A4_U+30E4_U+30FC 1
 62
   179
420
  2234388
370
     9
100
AcDbVertex
100
AcDb2dVertex
 10
95.81560929340179
 20
-138.2401784339323
 30
0.0
  0
SEQEND
  5
C1
330
BE
100
AcDbEntity
  8
_U+30EC_U+30A4_U+30E4_U+30FC 1
 62
   179
420
  2234388
370
     9
  0
POLYLINE
  5
C2
330
1F
100
AcDbEntity
  8
_U+30EC_U+30A4_U+30E4_U+30FC 1
 62
   179
420
  2234388
370
     9
100
AcDb2dPolyline
 66
     1
 10
0.0
 20
0.0
 30
0.0
  0
VERTEX
  5
C3
330
C2
100
AcDbEntity
  8
_U+30EC_U+30A4_U+30E4_U+30FC 1
 62
   179
420
  2234388
370
     9
100
AcDbVertex
100
AcDb2dVertex
 10
98.27542092727441
 20
-159.2399786657022
 30
0.0
  0
VERTEX
  5
C4
330
C2
100
AcDbEntity
  8
_U+30EC_U+30A4_U+30E4_U+30FC 1
 62
   179
420
  2234388
370
     9
100
AcDbVertex
100
AcDb2dVertex
 10
94.81572684990583
 20
-159.2399786657022
 30
0.0
  0
SEQEND
  5
C5
330
C2
100
AcDbEntity
  8
_U+30EC_U+30A4_U+30E4_U+30FC 1
 62
   179
420
  2234388
370
     9
  0
POLYLINE
  5
C6
330
1F
100
AcDbEntity
  8
_U+30EC_U+30A4_U+30E4_U+30FC 1
 62
   179
420
  2234388
370
     9
100
AcDb2dPolyline
 66
     1
 10
0.0
 20
0.0
 30
0.0
  0
VERTEX
  5
C7
330
C6
100
AcDbEntity
  8
_U+30EC_U+30A4_U+30E4_U+30FC 1
 62
   179
420
  2234388
370
     9
100
AcDbVertex
100
AcDb2dVertex
 10
97.27568651522508
 20
-138.2400707746984
 30
0.0
  0
VERTEX
  5
C8
330
C6
100
AcDbEntity
  8
_U+30EC_U+30A4_U+30E4_U+30FC 1
 62
   179
420
  2234388
370
     9
100
AcDbVertex
100
AcDb2dVertex
 10
94.8157645306377
 20
-138.2400707746984
 30
0.0
  0
SEQEND
  5
C9
330
C6
100
AcDbEntity
  8
_U+30EC_U+30A4_U+30E4_U+30FC 1
 62
   179
420
  2234388
370
     9
  0
INSERT
  5
CB
330
1F
100
AcDbEntity
  8
_U+30EC_U+30A4_U+30E4_U+30FC 1
100
AcDbBlockReference
  2
block 5
 10
0.0
 20
0.0
 30
0.0
  0
POLYLINE
  5
D2
330
1F
100
AcDbEntity
  8
_U+30EC_U+30A4_U+30E4_U+30FC 1
 62
   179
420
  2234388
370
     9
100
AcDb2dPolyline
 66
     1
 10
0.0
 20
0.0
 30
0.0
  0
VERTEX
  5
D3
330
D2
100
AcDbEntity
  8
_U+30EC_U+30A4_U+30E4_U+30FC 1
 62
   179
420
  2234388
370
     9
100
AcDbVertex
100
AcDb2dVertex
 10
116.2278269583155
 20
-158.2395390856707
 30
0.0
  0
VERTEX
  5
D4
330
D2
100
AcDbEntity
  8
_U+30EC_U+30A4_U+30E4_U+30FC 1
 62
   179
420
  2234388
370
     9
100
AcDbVertex
100
AcDb2dVertex
 10
116.2278269583155
 20
-145.2396812075866
 30
0.0
  0
SEQEND
  5
D5
330
D2
100
AcDbEntity
  8
_U+30EC_U+30A4_U+30E4_U+30FC 1
 62
   179
420
  2234388
370
     9
  0
POLYLINE
  5
D6
330
1F
100
AcDbEntity
  8
_U+30EC_U+30A4_U+30E4_U+30FC 1
 62
   179
420
  2234388
370
     9
100
AcDb2dPolyline
 66
     1
 10
0.0
 20
0.0
 30
0.0
  0
VERTEX
  5
D7
330
D6
100
AcDbEntity
  8
_U+30EC_U+30A4_U+30E4_U+30FC 1
 62
   179
420
  2234388
370
     9
100
AcDbVertex
100
AcDb2dVertex
 10
109.7675839043751
 20
-158.2395390856707
 30
0.0
  0
VERTEX
  5
D8
330
D6
100
AcDbEntity
  8
_U+30EC_U+30A4_U+30E4_U+30FC 1
 62
   179
420
  2234388
370
     9
100
AcDbVertex
100
AcDb2dVertex
 10
117.2274214133608
 20
-158.2395390856707
 30
0.0
  0
SEQEND
  5
D9
330
D6
100
AcDbEntity
  8
_U+30EC_U+30A4_U+30E4_U+30FC 1
 62
   179
420
  2234388
370
     9
  0
POLYLINE
  5
DA
330
1F
100
AcDbEntity
  8
_U+30EC_U+30A4_U+30E4_U+30FC 1
 62
   179
420
  2234388
370
     9
100
AcDb2dPolyline
 66
     1
 10
0.0
 20
0.0
 30
0.0
  0
VERTEX
  5
DB
330
DA
100
AcDbEntity
  8
_U+30EC_U+30A4_U+30E4_U+30FC 1
 62
   179
420
  2234388
370
     9
100
AcDbVertex
100
AcDb2dVertex
 10
109.7675839043751
 20
-145.3397235507012
 30
0.0
  0
VERTEX
  5
DC
330
DA
100
AcDbEntity
  8
_U+30EC_U+30A4_U+30E4_U+30FC 1
 62
   179
420
  2234388
370
     9
100
AcDbVertex
100
AcDb2dVertex
 10
117.2274214133608
 20
-145.3397235507012
 30
0.0
  0
SEQEND
  5
DD
330
DA
100
AcDbEntity
  8
_U+30EC_U+30A4_U+30E4_U+30FC 1
 62
   179
420
  2234388
370
     9
  0
SPLINE
  5
DE
330
1F
100
AcDbEntity
  8
_U+30EC_U+30A4_U+30E4_U+30FC 1
 62
   179
420
  2234388
370
     9
100
AcDbSpline
210
0.0
220
0.0
230
1.0
 70
    11
 71
     3
 72
    17
 73
    13
 74
     0
 42
0.0000000001
 43
0.0000000001
 12
1.0
 22
0.0
 32
0.0
 13
1.0
 23
0.0
 33
0.0
 40
0.0
 40
0.0
 40
0.0
 40
0.0
 40
1.0
 40
1.0
 40
1.0
 40
2.0
 40
2.0
 40
2.0
 40
3.0
 40
3.0
 40
3.0
 40
4.0
 40
4.0
 40
4.0
 40
4.0
 10
116.3276970466559
 20
-144.2393385208656
 30
0.0
 10
116.3276970466559
 20
-144.1843085034505
 30
0.0
 10
116.2828892735009
 20
-144.1395061132571
 30
0.0
 10
116.2278592560857
 20
-144.1395061132571
 30
0.0
 10
116.1728238557089
 20
-144.1395061132571
 30
0.0
 10
116.1280214655155
 20
-144.1843085034505
 30
0.0
 10
116.1280214655155
 20
-144.2393385208656
 30
0.0
 10
116.1280214655155
 20
-144.2947291967144
 30
0.0
 10
116.1728238557089
 20
-144.3395315869078
 30
0.0
 10
116.2278592560857
 20
-144.3395315869078
 30
0.0
 10
116.2828892735009
 20
-144.3395315869078
 30
0.0
 10
116.3276970466559
 20
-144.2947291967144
 30
0.0
 10
116.3276970466559
 20
-144.2393385208656
 30
0.0
  0
POLYLINE
  5
DF
330
1F
100
AcDbEntity
  8
_U+30EC_U+30A4_U+30E4_U+30FC 1
 62
   179
420
  2234388
370
     9
100
AcDb2dPolyline
 66
     1
 10
0.0
 20
0.0
 30
0.0
  0
VERTEX
  5
E0
330
DF
100
AcDbEntity
  8
_U+30EC_U+30A4_U+30E4_U+30FC 1
 62
   179
420
  2234388
370
     9
100
AcDbVertex
100
AcDb2dVertex
 10
109.7675839043751
 20
-144.2393385208656
 30
0.0
  0
VERTEX
  5
E1
330
DF
100
AcDbEntity
  8
_U+30EC_U+30A4_U+30E4_U+30FC 1
 62
   179
420
  2234388
370
     9
100
AcDbVertex
100
AcDb2dVertex
 10
117.2274214133608
 20
-144.2393385208656
 30
0.0
  0
SEQEND
  5
E2
330
DF
100
AcDbEntity
  8
_U+30EC_U+30A4_U+30E4_U+30FC 1
 62
   179
420
  2234388
370
     9
  0
INSERT
  5
E4
330
1F
100
AcDbEntity
  8
_U+30EC_U+30A4_U+30E4_U+30FC 1
100
AcDbBlockReference
  2
block 6
 10
0.0
 20
0.0
 30
0.0
  0
POLYLINE
  5
EB
330
1F
100
AcDbEntity
  8
_U+30EC_U+30A4_U+30E4_U+30FC 1
 62
   179
420
  2234388
370
     9
100
AcDb2dPolyline
 66
     1
 10
0.0
 20
0.0
 30
0.0
  0
VERTEX
  5
EC
330
EB
100
AcDbEntity
  8
_U+30EC_U+30A4_U+30E4_U+30FC 1
 62
   179
420
  2234388
370
     9
100
AcDbVertex
100
AcDb2dVertex
 10
116.2278269583155
 20
-145.3397235507012
 30
0.0
  0
VERTEX
  5
ED
330
EB
100
AcDbEntity
  8
_U+30EC_U+30A4_U+30E4_U+30FC 1
 62
   179
420
  2234388
370
     9
100
AcDbVertex
100
AcDb2dVertex
 10
116.2278269583155
 20
-138.3395586727583
 30
0.0
  0
SEQEND
  5
EE
330
EB
100
AcDbEntity
  8
_U+30EC_U+30A4_U+30E4_U+30FC 1
 62
   179
420
  2234388
370
     9
  0
POLYLINE
  5
EF
330
1F
100
AcDbEntity
  8
_U+30EC_U+30A4_U+30E4_U+30FC 1
 62
   179
420
  2234388
370
     9
100
AcDb2dPolyline
 66
     1
 10
0.0
 20
0.0
 30
0.0
  0
VERTEX
  5
F0
330
EF
100
AcDbEntity
  8
_U+30EC_U+30A4_U+30E4_U+30FC 1
 62
   179
420
  2234388
370
     9
100
AcDbVertex
100
AcDb2dVertex
 10
109.7675839043751
 20
-138.3396286512604
 30
0.0
  0
VERTEX
  5
F1
330
EF
100
AcDbEntity
  8
_U+30EC_U+30A4_U+30E4_U+30FC 1
 62
   179
420
  2234388
370
     9
100
AcDbVertex
100
AcDb2dVertex
 10
117.2274214133608
 20
-138.3396286512604
 30
0.0
  0
SEQEND
  5
F2
330
EF
100
AcDbEntity
  8
_U+30EC_U+30A4_U+30E4_U+30FC 1
 62
   179
420
  2234388
370
     9
  0
INSERT
  5
F4
330
1F
100
AcDbEntity
  8
_U+30EC_U+30A4_U+30E4_U+30FC 1
100
AcDbBlockReference
  2
block 7
 10
0.0
 20
0.0
 30
0.0
  0
ENDSEC
  0
SECTION
  2
OBJECTS
  0
DICTIONARY
  5
C
330
0
100
AcDbDictionary
281
     1
  3
ACAD_GROUP
350
D
  3
ACAD_LAYOUT
350
1A
  3
ACAD_MATERIAL
350
3B
  3
ACAD_MLEADERSTYLE
350
FB
  3
ACAD_MLINESTYLE
350
17
  3
ACAD_PLOTSETTINGS
350
19
  3
ACAD_PLOTSTYLENAME
350
E
  3
ACAD_TABLESTYLE
350
FA
  3
ACAD_VISUALSTYLE
350
2A
  0
SUN
  5
3F
330
29
100
AcDbSun
 90
        1
290
     0
 63
     7
421
 16777215
 40
1.0
291
     1
 91
  2455826
 92
 54000000
292
     0
 70
     2
 71
   256
280
     1
  0
DICTIONARY
  5
D
102
{ACAD_REACTORS
330
C
102
}
330
C
100
AcDbDictionary
281
     1
  0
DICTIONARY
  5
1A
102
{ACAD_REACTORS
330
C
102
}
330
C
100
AcDbDictionary
281
     1
  3
Layout1
350
1E
  3
Layout2
350
26
  3
Model
350
22
  0
DICTIONARY
  5
3B
102
{ACAD_REACTORS
330
C
102
}
330
C
100
AcDbDictionary
281
     1
  3
ByBlock
350
3D
  3
ByLayer
350
3C
  3
Global
350
3E
  0
DICTIONARY
  5
FB
102
{ACAD_REACTORS
330
C
102
}
330
C
100
AcDbDictionary
281
     1
  0
DICTIONARY
  5
17
102
{ACAD_REACTORS
330
C
102
}
330
C
100
AcDbDictionary
281
     1
  3
Standard
350
18
  0
DICTIONARY
  5
19
102
{ACAD_REACTORS
330
C
102
}
330
C
100
AcDbDictionary
281
     1
  0
ACDBDICTIONARYWDFLT
  5
E
102
{ACAD_REACTORS
330
C
102
}
330
C
100
AcDbDictionary
281
     1
  3
Normal
350
F
100
AcDbDictionaryWithDefault
340
F
  0
DICTIONARY
  5
FA
102
{ACAD_REACTORS
330
C
102
}
330
C
100
AcDbDictionary
281
     1
  0
DICTIONARY
  5
2A
102
{ACAD_REACTORS
330
C
102
}
330
C
100
AcDbDictionary
281
     1
  3
2dWireframe
350
2F
  3
3D Hidden
350
31
  3
3dWireframe
350
30
  3
Basic
350
32
  3
Brighten
350
36
  3
ColorChange
350
3A
  3
Conceptual
350
34
  3
Dim
350
35
  3
Facepattern
350
39
  3
Flat
350
2B
  3
FlatWithEdges
350
2C
  3
Gouraud
350
2D
  3
GouraudWithEdges
350
2E
  3
Linepattern
350
38
  3
Realistic
350
33
  3
Thicken
350
37
  0
LAYOUT
  5
1E
102
{ACAD_REACTORS
330
1A
102
}
330
1A
100
AcDbPlotSettings
  1

  2
none_device
  4

  6

 40
0.0
 41
0.0
 42
0.0
 43
0.0
 44
0.0
 45
0.0
 46
0.0
 47
0.0
 48
0.0
 49
0.0
140
0.0
141
0.0
142
1.0
143
1.0
 70
   688
 72
     0
 73
     0
 74
     5
  7

 75
    16
 76
     0
 77
     2
 78
   300
147
1.0
148
0.0
149
0.0
100
AcDbLayout
  1
Layout1
 70
     1
 71
     1
 10
0.0
 20
0.0
 11
12.0
 21
9.0
 12
0.0
 22
0.0
 32
0.0
 14
1.000000000000000E+20
 24
1.000000000000000E+20
 34
1.000000000000000E+20
 15
-1.000000000000000E+20
 25
-1.000000000000000E+20
 35
-1.000000000000000E+20
146
0.0
 13
0.0
 23
0.0
 33
0.0
 16
1.0
 26
0.0
 36
0.0
 17
0.0
 27
1.0
 37
0.0
 76
     0
330
1B
  0
LAYOUT
  5
26
102
{ACAD_REACTORS
330
1A
102
}
330
1A
100
AcDbPlotSettings
  1

  2
none_device
  4

  6

 40
0.0
 41
0.0
 42
0.0
 43
0.0
 44
0.0
 45
0.0
 46
0.0
 47
0.0
 48
0.0
 49
0.0
140
0.0
141
0.0
142
1.0
143
1.0
 70
   688
 72
     0
 73
     0
 74
     5
  7

 75
    16
 76
     0
 77
     2
 78
   300
147
1.0
148
0.0
149
0.0
100
AcDbLayout
  1
Layout2
 70
     1
 71
     2
 10
0.0
 20
0.0
 11
0.0
 21
0.0
 12
0.0
 22
0.0
 32
0.0
 14
0.0
 24
0.0
 34
0.0
 15
0.0
 25
0.0
 35
0.0
146
0.0
 13
0.0
 23
0.0
 33
0.0
 16
1.0
 26
0.0
 36
0.0
 17
0.0
 27
1.0
 37
0.0
 76
     0
330
23
  0
LAYOUT
  5
22
102
{ACAD_REACTORS
330
1A
102
}
330
1A
100
AcDbPlotSettings
  1

  2
none_device
  4

  6

 40
0.0
 41
0.0
 42
0.0
 43
0.0
 44
0.0
 45
0.0
 46
0.0
 47
0.0
 48
0.0
 49
0.0
140
0.0
141
0.0
142
1.0
143
1.0
 70
  1712
 72
     0
 73
     0
 74
     0
  7

 75
     0
 76
     0
 77
     2
 78
   300
147
1.0
148
0.0
149
0.0
100
AcDbLayout
  1
Model
 70
     1
 71
     0
 10
0.0
 20
0.0
 11
12.0
 21
9.0
 12
0.0
 22
0.0
 32
0.0
 14
1.000000000000000E+20
 24
1.000000000000000E+20
 34
1.000000000000000E+20
 15
-1.000000000000000E+20
 25
-1.000000000000000E+20
 35
-1.000000000000000E+20
146
0.0
 13
0.0
 23
0.0
 33
0.0
 16
1.0
 26
0.0
 36
0.0
 17
0.0
 27
1.0
 37
0.0
 76
     0
330
1F
331
29
  0
MATERIAL
  5
3D
102
{ACAD_REACTORS
330
3B
102
}
330
3B
100
AcDbMaterial
  1
ByBlock
 72
     1
 94
      127
  0
MATERIAL
  5
3C
102
{ACAD_REACTORS
330
3B
102
}
330
3B
100
AcDbMaterial
  1
ByLayer
 72
     1
 94
      127
  0
MATERIAL
  5
3E
102
{ACAD_REACTORS
330
3B
102
}
330
3B
100
AcDbMaterial
  1
Global
 72
     1
 94
      127
  0
MLINESTYLE
  5
18
102
{ACAD_REACTORS
330
17
102
}
330
17
100
AcDbMlineStyle
  2
Standard
 70
     0
  3

 62
   256
 51
90.0
 52
90.0
 71
     2
 49
0.5
 62
   256
  6
BYLAYER
 49
-0.5
 62
   256
  6
BYLAYER
  0
ACDBPLACEHOLDER
  5
F
102
{ACAD_REACTORS
330
E
102
}
330
E
  0
VISUALSTYLE
  5
2F
102
{ACAD_REACTORS
330
2A
102
}
330
2A
100
AcDbVisualStyle
  2
2dWireframe
 70
     4
177
     2
291
     0
 71
     0
176
     1
 72
     2
176
     1
 73
     0
176
     1
 90
        0
176
     1
 40
-0.6
176
     1
 41
-30.0
176
     1
 62
     5
 63
     7
421
 16777215
176
     1
 74
     1
176
     1
 91
        4
176
     1
 64
     7
176
     1
 65
   257
176
     1
 75
     1
176
     1
175
     1
176
     1
 42
1.0
176
     1
 92
        0
176
     1
 66
   257
176
     1
 43
1.0
176
     1
 76
     1
176
     1
 77
     6
176
     1
 78
     2
176
     1
 67
     7
176
     1
 79
     5
176
     1
170
     0
176
     1
171
     0
176
     1
290
     0
176
     1
 93
        1
176
     1
 44
0.0
176
     1
173
     0
176
     1
  0
VISUALSTYLE
  5
31
102
{ACAD_REACTORS
330
2A
102
}
330
2A
100
AcDbVisualStyle
  2
3D Hidden
 70
     6
177
     2
291
     0
 71
     1
176
     1
 72
     2
176
     1
 73
     2
176
     1
 90
        0
176
     1
 40
-0.6
176
     1
 41
-30.0
176
     1
 62
     5
 63
     7
421
 16777215
176
     1
 74
     2
176
     1
 91
        2
176
     1
 64
     7
176
     1
 65
   257
176
     1
 75
     2
176
     1
175
     1
176
     1
 42
40.0
176
     1
 92
        0
176
     1
 66
   257
176
     1
 43
1.0
176
     1
 76
     1
176
     1
 77
     6
176
     1
 78
     2
176
     1
 67
     7
176
     1
 79
     3
176
     1
170
     0
176
     1
171
     0
176
     1
290
     0
176
     1
 93
        1
176
     1
 44
0.0
176
     1
173
     0
176
     1
  0
VISUALSTYLE
  5
30
102
{ACAD_REACTORS
330
2A
102
}
330
2A
100
AcDbVisualStyle
  2
3dWireframe
 70
     5
177
     2
291
     0
 71
     0
176
     1
 72
     2
176
     1
 73
     0
176
     1
 90
        0
176
     1
 40
-0.6
176
     1
 41
-30.0
176
     1
 62
     5
 63
     7
421
 16777215
176
     1
 74
     1
176
     1
 91
        4
176
     1
 64
     7
176
     1
 65
   257
176
     1
 75
     1
176
     1
175
     1
176
     1
 42
1.0
176
     1
 92
        0
176
     1
 66
   257
176
     1
 43
1.0
176
     1
 76
     1
176
     1
 77
     6
176
     1
 78
     2
176
     1
 67
     7
176
     1
 79
     5
176
     1
170
     0
176
     1
171
     0
176
     1
290
     0
176
     1
 93
        1
176
     1
 44
0.0
176
     1
173
     0
176
     1
  0
VISUALSTYLE
  5
32
102
{ACAD_REACTORS
330
2A
102
}
330
2A
100
AcDbVisualStyle
  2
Basic
 70
     7
177
     2
291
     1
 71
     1
176
     1
 72
     0
176
     1
 73
     1
176
     1
 90
        0
176
     1
 40
-0.6
176
     1
 41
-30.0
176
     1
 62
     5
 63
     7
421
 16777215
176
     1
 74
     0
176
     1
 91
        4
176
     1
 64
     7
176
     1
 65
   257
176
     1
 75
     1
176
     1
175
     1
176
     1
 42
1.0
176
     1
 92
        8
176
     1
 66
     7
176
     1
 43
1.0
176
     1
 76
     1
176
     1
 77
     6
176
     1
 78
     2
176
     1
 67
     7
176
     1
 79
     5
176
     1
170
     0
176
     1
171
     0
176
     1
290
     0
176
     1
 93
        1
176
     1
 44
0.0
176
     1
173
     0
176
     1
  0
VISUALSTYLE
  5
36
102
{ACAD_REACTORS
330
2A
102
}
330
2A
100
AcDbVisualStyle
  2
Brighten
 70
    12
177
     2
291
     1
 71
     2
176
     1
 72
     2
176
     1
 73
     0
176
     1
 90
        0
176
     1
 40
-0.6
176
     1
 41
-30.0
176
     1
 62
     5
 63
     7
421
 16777215
176
     1
 74
     1
176
     1
 91
        4
176
     1
 64
     7
176
     1
 65
   257
176
     1
 75
     1
176
     1
175
     1
176
     1
 42
1.0
176
     1
 92
        8
176
     1
 66
     7
176
     1
 43
1.0
176
     1
 76
     1
176
     1
 77
     6
176
     1
 78
     2
176
     1
 67
     7
176
     1
 79
     5
176
     1
170
     0
176
     1
171
     0
176
     1
290
     0
176
     1
 93
        1
176
     1
 44
50.0
176
     1
173
     0
176
     1
  0
VISUALSTYLE
  5
3A
102
{ACAD_REACTORS
330
2A
102
}
330
2A
100
AcDbVisualStyle
  2
ColorChange
 70
    16
177
     2
291
     1
 71
     2
176
     1
 72
     2
176
     1
 73
     3
176
     1
 90
        0
176
     1
 40
-0.6
176
     1
 41
-30.0
176
     1
 62
     5
 63
     8
421
  8421504
176
     1
 74
     1
176
     1
 91
        4
176
     1
 64
     7
176
     1
 65
   257
176
     1
 75
     1
176
     1
175
     1
176
     1
 42
1.0
176
     1
 92
        8
176
     1
 66
     8
424
  8421504
176
     1
 43
1.0
176
     1
 76
     1
176
     1
 77
     6
176
     1
 78
     2
176
     1
 67
     7
176
     1
 79
     5
176
     1
170
     0
176
     1
171
     0
176
     1
290
     0
176
     1
 93
        1
176
     1
 44
0.0
176
     1
173
     0
176
     1
  0
VISUALSTYLE
  5
34
102
{ACAD_REACTORS
330
2A
102
}
330
2A
100
AcDbVisualStyle
  2
Conceptual
 70
     9
177
     2
291
     0
 71
     3
176
     1
 72
     2
176
     1
 73
     0
176
     1
 90
        0
176
     1
 40
-0.6
176
     1
 41
-30.0
176
     1
 62
     5
 63
     7
421
 16777215
176
     1
 74
     2
176
     1
 91
        2
176
     1
 64
     7
176
     1
 65
   257
176
     1
 75
     1
176
     1
175
     1
176
     1
 42
40.0
176
     1
 92
        8
176
     1
 66
     7
176
     1
 43
1.0
176
     1
 76
     1
176
     1
 77
     6
176
     1
 78
     2
176
     1
 67
     7
176
     1
 79
     3
176
     1
170
     0
176
     1
171
     0
176
     1
290
     0
176
     1
 93
        1
176
     1
 44
0.0
176
     1
173
     0
176
     1
  0
VISUALSTYLE
  5
35
102
{ACAD_REACTORS
330
2A
102
}
330
2A
100
AcDbVisualStyle
  2
Dim
 70
    11
177
     2
291
     1
 71
     2
176
     1
 72
     2
176
     1
 73
     0
176
     1
 90
        0
176
     1
 40
-0.6
176
     1
 41
-30.0
176
     1
 62
     5
 63
     7
421
 16777215
176
     1
 74
     1
176
     1
 91
        4
176
     1
 64
     7
176
     1
 65
   257
176
     1
 75
     1
176
     1
175
     1
176
     1
 42
1.0
176
     1
 92
        8
176
     1
 66
     7
176
     1
 43
1.0
176
     1
 76
     1
176
     1
 77
     6
176
     1
 78
     2
176
     1
 67
     7
176
     1
 79
     5
176
     1
170
     0
176
     1
171
     0
176
     1
290
     0
176
     1
 93
        1
176
     1
 44
-50.0
176
     1
173
     0
176
     1
  0
VISUALSTYLE
  5
39
102
{ACAD_REACTORS
330
2A
102
}
330
2A
100
AcDbVisualStyle
  2
Facepattern
 70
    15
177
     2
291
     1
 71
     2
176
     1
 72
     2
176
     1
 73
     0
176
     1
 90
        0
176
     1
 40
-0.6
176
     1
 41
-30.0
176
     1
 62
     5
 63
     7
421
 16777215
176
     1
 74
     1
176
     1
 91
        4
176
     1
 64
     7
176
     1
 65
   257
176
     1
 75
     1
176
     1
175
     1
176
     1
 42
1.0
176
     1
 92
        8
176
     1
 66
     7
176
     1
 43
1.0
176
     1
 76
     1
176
     1
 77
     6
176
     1
 78
     2
176
     1
 67
     7
176
     1
 79
     5
176
     1
170
     0
176
     1
171
     0
176
     1
290
     0
176
     1
 93
        1
176
     1
 44
0.0
176
     1
173
     0
176
     1
  0
VISUALSTYLE
  5
2B
102
{ACAD_REACTORS
330
2A
102
}
330
2A
100
AcDbVisualStyle
  2
Flat
 70
     0
177
     2
291
     1
 71
     2
176
     1
 72
     1
176
     1
 73
     1
176
     1
 90
        2
176
     1
 40
-0.6
176
     1
 41
30.0
176
     1
 62
     5
 63
     7
421
 16777215
176
     1
 74
     0
176
     1
 91
        4
176
     1
 64
     7
176
     1
 65
   257
176
     1
 75
     1
176
     1
175
     1
176
     1
 42
1.0
176
     1
 92
        8
176
     1
 66
     7
176
     1
 43
1.0
176
     1
 76
     1
176
     1
 77
     6
176
     1
 78
     2
176
     1
 67
     7
176
     1
 79
     5
176
     1
170
     0
176
     1
171
     0
176
     1
290
     0
176
     1
 93
       13
176
     1
 44
0.0
176
     1
173
     0
176
     1
  0
VISUALSTYLE
  5
2C
102
{ACAD_REACTORS
330
2A
102
}
330
2A
100
AcDbVisualStyle
  2
FlatWithEdges
 70
     1
177
     2
291
     1
 71
     2
176
     1
 72
     1
176
     1
 73
     1
176
     1
 90
        2
176
     1
 40
-0.6
176
     1
 41
30.0
176
     1
 62
     5
 63
     7
421
 16777215
176
     1
 74
     1
176
     1
 91
        4
176
     1
 64
     7
176
     1
 65
   257
176
     1
 75
     1
176
     1
175
     1
176
     1
 42
1.0
176
     1
 92
        0
176
     1
 66
   257
176
     1
 43
1.0
176
     1
 76
     1
176
     1
 77
     6
176
     1
 78
     2
176
     1
 67
     7
176
     1
 79
     5
176
     1
170
     0
176
     1
171
     0
176
     1
290
     0
176
     1
 93
       13
176
     1
 44
0.0
176
     1
173
     0
176
     1
  0
VISUALSTYLE
  5
2D
102
{ACAD_REACTORS
330
2A
102
}
330
2A
100
AcDbVisualStyle
  2
Gouraud
 70
     2
177
     2
291
     1
 71
     2
176
     1
 72
     2
176
     1
 73
     1
176
     1
 90
        2
176
     1
 40
-0.6
176
     1
 41
30.0
176
     1
 62
     5
 63
     7
421
 16777215
176
     1
 74
     0
176
     1
 91
        4
176
     1
 64
     7
176
     1
 65
   257
176
     1
 75
     1
176
     1
175
     1
176
     1
 42
1.0
176
     1
 92
        0
176
     1
 66
     7
176
     1
 43
1.0
176
     1
 76
     1
176
     1
 77
     6
176
     1
 78
     2
176
     1
 67
     7
176
     1
 79
     5
176
     1
170
     0
176
     1
171
     0
176
     1
290
     0
176
     1
 93
       13
176
     1
 44
0.0
176
     1
173
     0
176
     1
  0
VISUALSTYLE
  5
2E
102
{ACAD_REACTORS
330
2A
102
}
330
2A
100
AcDbVisualStyle
  2
GouraudWithEdges
 70
     3
177
     2
291
     1
 71
     2
176
     1
 72
     2
176
     1
 73
     1
176
     1
 90
        2
176
     1
 40
-0.6
176
     1
 41
30.0
176
     1
 62
     5
 63
     7
421
 16777215
176
     1
 74
     1
176
     1
 91
        4
176
     1
 64
     7
176
     1
 65
   257
176
     1
 75
     1
176
     1
175
     1
176
     1
 42
1.0
176
     1
 92
        0
176
     1
 66
   257
176
     1
 43
1.0
176
     1
 76
     1
176
     1
 77
     6
176
     1
 78
     2
176
     1
 67
     7
176
     1
 79
     5
176
     1
170
     0
176
     1
171
     0
176
     1
290
     0
176
     1
 93
       13
176
     1
 44
0.0
176
     1
173
     0
176
     1
  0
VISUALSTYLE
  5
38
102
{ACAD_REACTORS
330
2A
102
}
330
2A
100
AcDbVisualStyle
  2
Linepattern
 70
    14
177
     2
291
     1
 71
     2
176
     1
 72
     2
176
     1
 73
     0
176
     1
 90
        0
176
     1
 40
-0.6
176
     1
 41
-30.0
176
     1
 62
     5
 63
     7
421
 16777215
176
     1
 74
     1
176
     1
 91
        4
176
     1
 64
     7
176
     1
 65
   257
176
     1
 75
     7
176
     1
175
     7
176
     1
 42
1.0
176
     1
 92
        8
176
     1
 66
     7
176
     1
 43
1.0
176
     1
 76
     1
176
     1
 77
     6
176
     1
 78
     2
176
     1
 67
     7
176
     1
 79
     5
176
     1
170
     0
176
     1
171
     0
176
     1
290
     0
176
     1
 93
        1
176
     1
 44
0.0
176
     1
173
     0
176
     1
  0
VISUALSTYLE
  5
33
102
{ACAD_REACTORS
330
2A
102
}
330
2A
100
AcDbVisualStyle
  2
Realistic
 70
     8
177
     2
291
     0
 71
     2
176
     1
 72
     2
176
     1
 73
     0
176
     1
 90
        0
176
     1
 40
-0.6
176
     1
 41
-30.0
176
     1
 62
     5
 63
     7
421
 16777215
176
     1
 74
     1
176
     1
 91
        0
176
     1
 64
     7
176
     1
 65
   257
176
     1
 75
     1
176
     1
175
     1
176
     1
 42
1.0
176
     1
 92
        8
176
     1
 66
     8
424
  7895160
176
     1
 43
1.0
176
     1
 76
     1
176
     1
 77
     6
176
     1
 78
     2
176
     1
 67
     7
176
     1
 79
     5
176
     1
170
     0
176
     1
171
     0
176
     1
290
     0
176
     1
 93
       13
176
     1
 44
0.0
176
     1
173
     0
176
     1
  0
VISUALSTYLE
  5
37
102
{ACAD_REACTORS
330
2A
102
}
330
2A
100
AcDbVisualStyle
  2
Thicken
 70
    13
177
     2
291
     1
 71
     2
176
     1
 72
     2
176
     1
 73
     0
176
     1
 90
        0
176
     1
 40
-0.6
176
     1
 41
-30.0
176
     1
 62
     5
 63
     7
421
 16777215
176
     1
 74
     1
176
     1
 91
        4
176
     1
 64
     7
176
     1
 65
   257
176
     1
 75
     1
176
     1
175
     1
176
     1
 42
1.0
176
     1
 92
       12
176
     1
 66
     7
176
     1
 43
1.0
176
     1
 76
     1
176
     1
 77
     6
176
     1
 78
     2
176
     1
 67
     7
176
     1
 79
     5
176
     1
170
     0
176
     1
171
     0
176
     1
290
     0
176
     1
 93
        1
176
     1
 44
0.0
176
     1
173
     0
176
     1
  0
ENDSEC
  0
EOF
