  0
SECTION
  2
HEADER
  9
$ACADVER
  1
AC1024
  9
$ACADMAINTVER
 70
     6
  9
$DWGCODEPAGE
  3
UNDEFINED
  9
$INSBASE
 10
0.0
 20
0.0
 30
0.0
  9
$EXTMIN
 10
1.000000000000000E+20
 20
1.000000000000000E+20
 30
1.000000000000000E+20
  9
$EXTMAX
 10
-1.000000000000000E+20
 20
-1.000000000000000E+20
 30
-1.000000000000000E+20
  9
$LIMMIN
 10
0.0
 20
0.0
  9
$LIMMAX
 10
12.0
 20
9.0
  9
$ORTHOMODE
 70
     0
  9
$REGENMODE
 70
     1
  9
$FILLMODE
 70
     1
  9
$QTEXTMODE
 70
     0
  9
$MIRRTEXT
 70
     1
  9
$LTSCALE
 40
1.0
  9
$ATTMODE
 70
     1
  9
$TEXTSIZE
 40
0.2
  9
$TRACEWID
 40
0.05
  9
$TEXTSTYLE
  7
Standard
  9
$CLAYER
  8
0
  9
$CELTYPE
  6
ByLayer
  9
$CECOLOR
 62
   256
  9
$CELTSCALE
 40
1.0
  9
$DISPSILH
 70
     0
  9
$DIMSCALE
 40
1.0
  9
$DIMASZ
 40
0.18
  9
$DIMEXO
 40
0.0625
  9
$DIMDLI
 40
0.38
  9
$DIMRND
 40
0.0
  9
$DIMDLE
 40
0.0
  9
$DIMEXE
 40
0.18
  9
$DIMTP
 40
0.0
  9
$DIMTM
 40
0.0
  9
$DIMTXT
 40
0.18
  9
$DIMCEN
 40
0.09
  9
$DIMTSZ
 40
0.0
  9
$DIMTOL
 70
     0
  9
$DIMLIM
 70
     0
  9
$DIMTIH
 70
     1
  9
$DIMTOH
 70
     1
  9
$DIMSE1
 70
     0
  9
$DIMSE2
 70
     0
  9
$DIMTAD
 70
     0
  9
$DIMZIN
 70
     0
  9
$DIMBLK
  1

  9
$DIMASO
 70
     1
  9
$DIMSHO
 70
     1
  9
$DIMPOST
  1

  9
$DIMAPOST
  1

  9
$DIMALT
 70
     0
  9
$DIMALTD
 70
     2
  9
$DIMALTF
 40
25.4
  9
$DIMLFAC
 40
1.0
  9
$DIMTOFL
 70
     0
  9
$DIMTVP
 40
0.0
  9
$DIMTIX
 70
     0
  9
$DIMSOXD
 70
     0
  9
$DIMSAH
 70
     0
  9
$DIMBLK1
  1

  9
$DIMBLK2
  1

  9
$DIMSTYLE
  2
Standard
  9
$DIMCLRD
 70
     0
  9
$DIMCLRE
 70
     0
  9
$DIMCLRT
 70
     0
  9
$DIMTFAC
 40
1.0
  9
$DIMGAP
 40
0.09
  9
$DIMJUST
 70
     0
  9
$DIMSD1
 70
     0
  9
$DIMSD2
 70
     0
  9
$DIMTOLJ
 70
     1
  9
$DIMTZIN
 70
     0
  9
$DIMALTZ
 70
     0
  9
$DIMALTTZ
 70
     0
  9
$DIMUPT
 70
     0
  9
$DIMDEC
 70
     4
  9
$DIMTDEC
 70
     4
  9
$DIMALTU
 70
     2
  9
$DIMALTTD
 70
     2
  9
$DIMTXSTY
  7
Standard
  9
$DIMAUNIT
 70
     0
  9
$DIMADEC
 70
     0
  9
$DIMALTRND
 40
0.0
  9
$DIMAZIN
 70
     0
  9
$DIMDSEP
 70
    46
  9
$DIMATFIT
 70
     3
  9
$DIMFRAC
 70
     0
  9
$DIMLDRBLK
  1

  9
$DIMLUNIT
 70
     2
  9
$DIMLWD
 70
    -2
  9
$DIMLWE
 70
    -2
  9
$DIMTMOVE
 70
     0
  9
$DIMFXL
 40
1.0
  9
$DIMFXLON
 70
     0
  9
$DIMJOGANG
 40
0.7853981633974483
  9
$DIMTFILL
 70
     0
  9
$DIMTFILLCLR
 70
     0
  9
$DIMARCSYM
 70
     0
  9
$DIMLTYPE
  6

  9
$DIMLTEX1
  6

  9
$DIMLTEX2
  6

  9
$DIMTXTDIRECTION
 70
     0
  9
$LUNITS
 70
     2
  9
$LUPREC
 70
     4
  9
$SKETCHINC
 40
0.1
  9
$FILLETRAD
 40
0.5
  9
$AUNITS
 70
     0
  9
$AUPREC
 70
     0
  9
$MENU
  1
.
  9
$ELEVATION
 40
0.0
  9
$PELEVATION
 40
0.0
  9
$THICKNESS
 40
0.0
  9
$LIMCHECK
 70
     0
  9
$CHAMFERA
 40
0.5
  9
$CHAMFERB
 40
0.5
  9
$CHAMFERC
 40
1.0
  9
$CHAMFERD
 40
0.0
  9
$SKPOLY
 70
     0
  9
$TDCREATE
 40
2458263.57525463
  9
$TDUCREATE
 40
2458263.20025463
  9
$TDUPDATE
 40
2458263.57525463
  9
$TDUUPDATE
 40
2458263.20025463
  9
$TDINDWG
 40
0.0000000116
  9
$TDUSRTIMER
 40
0.0000000116
  9
$USRTIMER
 70
     1
  9
$ANGBASE
 50
0.0
  9
$ANGDIR
 70
     0
  9
$PDMODE
 70
     0
  9
$PDSIZE
 40
0.0
  9
$PLINEWID
 40
0.0
  9
$SPLFRAME
 70
     0
  9
$SPLINETYPE
 70
     6
  9
$SPLINESEGS
 70
     8
  9
$HANDSEED
  5
FF
  9
$SURFTAB1
 70
     6
  9
$SURFTAB2
 70
     6
  9
$SURFTYPE
 70
     6
  9
$SURFU
 70
     6
  9
$SURFV
 70
     6
  9
$UCSBASE
  2

  9
$UCSNAME
  2

  9
$UCSORG
 10
0.0
 20
0.0
 30
0.0
  9
$UCSXDIR
 10
1.0
 20
0.0
 30
0.0
  9
$UCSYDIR
 10
0.0
 20
1.0
 30
0.0
  9
$UCSORTHOREF
  2

  9
$UCSORTHOVIEW
 70
     0
  9
$UCSORGTOP
 10
0.0
 20
0.0
 30
0.0
  9
$UCSORGBOTTOM
 10
0.0
 20
0.0
 30
0.0
  9
$UCSORGLEFT
 10
0.0
 20
0.0
 30
0.0
  9
$UCSORGRIGHT
 10
0.0
 20
0.0
 30
0.0
  9
$UCSORGFRONT
 10
0.0
 20
0.0
 30
0.0
  9
$UCSORGBACK
 10
0.0
 20
0.0
 30
0.0
  9
$PUCSBASE
  2

  9
$PUCSNAME
  2

  9
$PUCSORG
 10
0.0
 20
0.0
 30
0.0
  9
$PUCSXDIR
 10
1.0
 20
0.0
 30
0.0
  9
$PUCSYDIR
 10
0.0
 20
1.0
 30
0.0
  9
$PUCSORTHOREF
  2

  9
$PUCSORTHOVIEW
 70
     0
  9
$PUCSORGTOP
 10
0.0
 20
0.0
 30
0.0
  9
$PUCSORGBOTTOM
 10
0.0
 20
0.0
 30
0.0
  9
$PUCSORGLEFT
 10
0.0
 20
0.0
 30
0.0
  9
$PUCSORGRIGHT
 10
0.0
 20
0.0
 30
0.0
  9
$PUCSORGFRONT
 10
0.0
 20
0.0
 30
0.0
  9
$PUCSORGBACK
 10
0.0
 20
0.0
 30
0.0
  9
$USERI1
 70
     0
  9
$USERI2
 70
     0
  9
$USERI3
 70
     0
  9
$USERI4
 70
     0
  9
$USERI5
 70
     0
  9
$USERR1
 40
0.0
  9
$USERR2
 40
0.0
  9
$USERR3
 40
0.0
  9
$USERR4
 40
0.0
  9
$USERR5
 40
0.0
  9
$WORLDVIEW
 70
     1
  9
$SHADEDGE
 70
     3
  9
$SHADEDIF
 70
    70
  9
$TILEMODE
 70
     1
  9
$MAXACTVP
 70
    64
  9
$PINSBASE
 10
0.0
 20
0.0
 30
0.0
  9
$PLIMCHECK
 70
     0
  9
$PEXTMIN
 10
1.000000000000000E+20
 20
1.000000000000000E+20
 30
1.000000000000000E+20
  9
$PEXTMAX
 10
-1.000000000000000E+20
 20
-1.000000000000000E+20
 30
-1.000000000000000E+20
  9
$PLIMMIN
 10
0.0
 20
0.0
  9
$PLIMMAX
 10
12.0
 20
9.0
  9
$UNITMODE
 70
     0
  9
$VISRETAIN
 70
     1
  9
$PLINEGEN
 70
     0
  9
$PSLTSCALE
 70
     1
  9
$TREEDEPTH
 70
  3020
  9
$CMLSTYLE
  2
Standard
  9
$CMLJUST
 70
     0
  9
$CMLSCALE
 40
1.0
  9
$PROXYGRAPHICS
 70
     1
  9
$MEASUREMENT
 70
     0
  9
$CELWEIGHT
370
    -1
  9
$ENDCAPS
280
     0
  9
$JOINSTYLE
280
     0
  9
$LWDISPLAY
290
     1
  9
$INSUNITS
 70
     1
  9
$HYPERLINKBASE
  1

  9
$STYLESHEET
  1

  9
$XEDIT
290
     1
  9
$CEPSNTYPE
380
     0
  9
$PSTYLEMODE
290
     1
  9
$FINGERPRINTGUID
  2
{315E3A3F-80E8-9E18-2083-74573B515C3E}
  9
$VERSIONGUID
  2
{FAEB1C32-E019-11D5-929B-00C0DF256EC4}
  9
$EXTNAMES
290
     1
  9
$PSVPSCALE
 40
0.0
  9
$OLESTARTUP
290
     0
  9
$SORTENTS
280
   127
  9
$INDEXCTL
280
     0
  9
$HIDETEXT
280
     1
  9
$XCLIPFRAME
280
     2
  9
$HALOGAP
280
     0
  9
$OBSCOLOR
 70
   257
  9
$OBSLTYPE
280
     0
  9
$INTERSECTIONDISPLAY
280
     0
  9
$INTERSECTIONCOLOR
 70
   257
  9
$DIMASSOC
280
     2
  9
$PROJECTNAME
  1

  9
$CAMERADISPLAY
290
     0
  9
$LENSLENGTH
 40
50.0
  9
$CAMERAHEIGHT
 40
0.0
  9
$STEPSPERSEC
 40
2.0
  9
$STEPSIZE
 40
6.0
  9
$3DDWFPREC
 40
2.0
  9
$PSOLWIDTH
 40
0.25
  9
$PSOLHEIGHT
 40
4.0
  9
$LOFTANG1
 40
1.570796326794897
  9
$LOFTANG2
 40
1.570796326794897
  9
$LOFTMAG1
 40
0.0
  9
$LOFTMAG2
 40
0.0
  9
$LOFTPARAM
 70
     7
  9
$LOFTNORMALS
280
     1
  9
$LATITUDE
 40
37.795
  9
$LONGITUDE
 40
-122.394
  9
$NORTHDIRECTION
 40
0.0
  9
$TIMEZONE
 70
 -8000
  9
$LIGHTGLYPHDISPLAY
280
     1
  9
$TILEMODELIGHTSYNCH
280
     1
  9
$CMATERIAL
347
3C
  9
$SOLIDHIST
280
     1
  9
$SHOWHIST
280
     1
  9
$DWFFRAME
280
     2
  9
$DGNFRAME
280
     2
  9
$REALWORLDSCALE
290
     1
  9
$INTERFERECOLOR
 62
   256
  9
$CSHADOW
280
     0
  9
$SHADOWPLANELOCATION
 40
0.0
  0
ENDSEC
  0
SECTION
  2
CLASSES
  0
CLASS
  1
ACDBDICTIONARYWDFLT
  2
AcDbDictionaryWithDefault
  3
ObjectDBX Classes
 90
        0
 91
        4
280
     0
281
     0
  0
CLASS
  1
VISUALSTYLE
  2
AcDbVisualStyle
  3
ObjectDBX Classes
 90
     4095
 91
        4
280
     0
281
     0
  0
CLASS
  1
MATERIAL
  2
AcDbMaterial
  3
ObjectDBX Classes
 90
     1153
 91
        4
280
     0
281
     0
  0
CLASS
  1
SUN
  2
AcDbSun
  3
SCENEOE
 90
     1024
 91
        4
280
     0
281
     0
  0
ENDSEC
  0
SECTION
  2
TABLES
  0
TABLE
  2
VPORT
  5
8
330
0
100
AcDbSymbolTable
 70
     1
  0
VPORT
  5
29
330
8
100
AcDbSymbolTableRecord
100
AcDbViewportTableRecord
  2
*Active
 70
     0
 10
0.0
 20
0.0
 11
1.0
 21
1.0
 12
0.0
 22
0.0
 13
0.0
 23
0.0
 14
0.5
 24
0.5
 15
0.5
 25
0.5
 16
0.0
 26
0.0
 36
1.0
 17
105.0007777515277
 27
-148.5000416295416
 37
0.0
 40
297.0000832590831
 41
0.7070757462376333
 42
50.0
 43
0.0
 44
0.0
 50
0.0
 51
0.0
 71
     0
 72
   100
 73
     1
 74
     3
 75
     0
 76
     0
 77
     0
 78
     0
281
     0
 65
     1
110
0.0
120
0.0
130
0.0
111
1.0
121
0.0
131
0.0
112
0.0
122
1.0
132
0.0
 79
     0
146
0.0
 60
     3
 61
     5
292
     1
282
     1
141
0.0
142
0.0
 63
   250
361
3F
  0
ENDTAB
  0
TABLE
  2
LTYPE
  5
5
330
0
100
AcDbSymbolTable
 70
     1
  0
LTYPE
  5
14
330
5
100
AcDbSymbolTableRecord
100
AcDbLinetypeTableRecord
  2
ByBlock
 70
     0
  3

 72
    65
 73
     0
 40
0.0
  0
LTYPE
  5
15
330
5
100
AcDbSymbolTableRecord
100
AcDbLinetypeTableRecord
  2
ByLayer
 70
     0
  3

 72
    65
 73
     0
 40
0.0
  0
LTYPE
  5
16
330
5
100
AcDbSymbolTableRecord
100
AcDbLinetypeTableRecord
  2
Continuous
 70
     0
  3
Solid line
 72
    65
 73
     0
 40
0.0
  0
ENDTAB
  0
TABLE
  2
LAYER
  5
2
330
0
100
AcDbSymbolTable
 70
     2
  0
LAYER
  5
10
330
2
100
AcDbSymbolTableRecord
100
AcDbLayerTableRecord
  2
0
 70
     0
 62
     7
  6
Continuous
370
    -3
390
F
347
3E
  0
LAYER
  5
40
330
2
100
AcDbSymbolTableRecord
100
AcDbLayerTableRecord
  2
_U+30EC_U+30A4_U+30E4_U+30FC 1
 70
     0
 62
     7
  6
Continuous
370
    -3
390
F
347
3E
  0
ENDTAB
  0
TABLE
  2
STYLE
  5
3
330
0
100
AcDbSymbolTable
 70
     1
  0
STYLE
  5
11
330
3
100
AcDbSymbolTableRecord
100
AcDbTextStyleTableRecord
  2
Standard
 70
     0
 40
0.0
 41
1.0
 50
0.0
 71
     0
 42
0.2
  3
txt
  4

  0
ENDTAB
  0
TABLE
  2
VIEW
  5
6
330
0
100
AcDbSymbolTable
 70
     0
  0
ENDTAB
  0
TABLE
  2
UCS
  5
7
330
0
100
AcDbSymbolTable
 70
     0
  0
ENDTAB
  0
TABLE
  2
APPID
  5
9
330
0
100
AcDbSymbolTable
 70
     1
  0
APPID
  5
12
330
9
100
AcDbSymbolTableRecord
100
AcDbRegAppTableRecord
  2
ACAD
 70
     0
  0
ENDTAB
  0
TABLE
  2
DIMSTYLE
  5
A
330
0
100
AcDbSymbolTable
 70
     1
100
AcDbDimStyleTable
  0
DIMSTYLE
105
27
330
A
100
AcDbSymbolTableRecord
100
AcDbDimStyleTableRecord
  2
Standard
 70
     0
178
     0
340
11
  0
ENDTAB
  0
TABLE
  2
BLOCK_RECORD
  5
1
330
0
100
AcDbSymbolTable
 70
     7
  0
BLOCK_RECORD
  5
1F
330
1
100
AcDbSymbolTableRecord
100
AcDbBlockTableRecord
  2
*Model_Space
340
22
 70
     0
280
     1
281
     0
  0
BLOCK_RECORD
  5
1B
330
1
100
AcDbSymbolTableRecord
100
AcDbBlockTableRecord
  2
*Paper_Space
340
1E
 70
     0
280
     1
281
     0
  0
BLOCK_RECORD
  5
23
330
1
100
AcDbSymbolTableRecord
100
AcDbBlockTableRecord
  2
*Paper_Space0
340
26
 70
     0
280
     1
281
     0
  0
BLOCK_RECORD
  5
7C
330
1
100
AcDbSymbolTableRecord
100
AcDbBlockTableRecord
  2
block 2
340
0
102
{BLKREFS
331
7D
102
}
 70
     0
280
     1
281
     0
  0
BLOCK_RECORD
  5
8E
330
1
100
AcDbSymbolTableRecord
100
AcDbBlockTableRecord
  2
block 3
340
0
102
{BLKREFS
331
8F
102
}
 70
     0
280
     1
281
     0
  0
BLOCK_RECORD
  5
B7
330
1
100
AcDbSymbolTableRecord
100
AcDbBlockTableRecord
  2
block 4
340
0
102
{BLKREFS
331
B8
102
}
 70
     0
280
     1
281
     0
  0
BLOCK_RECORD
  5
CA
330
1
100
AcDbSymbolTableRecord
100
AcDbBlockTableRecord
  2
block 5
340
0
102
{BLKREFS
331
CB
102
}
 70
     0
280
     1
281
     0
  0
BLOCK_RECORD
  5
E5
330
1
100
AcDbSymbolTableRecord
100
AcDbBlockTableRecord
  2
block 6
340
0
102
{BLKREFS
331
E6
102
}
 70
     0
280
     1
281
     0
  0
BLOCK_RECORD
  5
F6
330
1
100
AcDbSymbolTableRecord
100
AcDbBlockTableRecord
  2
block 7
340
0
102
{BLKREFS
331
F7
102
}
 70
     0
280
     1
281
     0
  0
ENDTAB
  0
ENDSEC
  0
SECTION
  2
BLOCKS
  0
BLOCK
  5
20
330
1F
100
AcDbEntity
  8
0
100
AcDbBlockBegin
  2
*Model_Space
 70
     0
 10
0.0
 20
0.0
 30
0.0
  3
*Model_Space
  1

  0
ENDBLK
  5
21
330
1F
100
AcDbEntity
  8
0
100
AcDbBlockEnd
  0
BLOCK
  5
1C
330
1B
100
AcDbEntity
 67
     1
  8
0
100
AcDbBlockBegin
  2
*Paper_Space
 70
     0
 10
0.0
 20
0.0
 30
0.0
  3
*Paper_Space
  1

  0
ENDBLK
  5
1D
330
1B
100
AcDbEntity
 67
     1
  8
0
100
AcDbBlockEnd
  0
BLOCK
  5
24
330
23
100
AcDbEntity
  8
0
100
AcDbBlockBegin
  2
*Paper_Space0
 70
     0
 10
0.0
 20
0.0
 30
0.0
  3
*Paper_Space0
  1

  0
ENDBLK
  5
25
330
23
100
AcDbEntity
  8
0
100
AcDbBlockEnd
  0
BLOCK
  5
7E
330
7C
100
AcDbEntity
  8
0
100
AcDbBlockBegin
  2
block 2
 70
     0
 10
0.0
 20
0.0
 30
0.0
  3
block 2
  1

  0
SPLINE
  5
80
330
7C
100
AcDbEntity
  8
_U+30EC_U+30A4_U+30E4_U+30FC 1
370
     0
100
AcDbSpline
210
0.0
220
0.0
230
1.0
 70
    11
 71
     3
 72
    26
 73
    22
 74
     0
 42
0.0000000001
 43
0.0000000001
 12
1.0
 22
0.0
 32
0.0
 13
1.0
 23
0.0
 33
0.0
 40
0.0
 40
0.0
 40
0.0
 40
0.0
 40
1.0
 40
1.0
 40
1.0
 40
2.0
 40
2.0
 40
2.0
 40
3.0
 40
3.0
 40
3.0
 40
4.0
 40
4.0
 40
4.0
 40
5.0
 40
5.0
 40
5.0
 40
6.0
 40
6.0
 40
6.0
 40
7.0
 40
7.0
 40
7.0
 40
7.0
 10
103.6687798134925
 20
-143.7019951355155
 30
0.0
 10
103.6687798134925
 20
-143.7019951355155
 30
0.0
 10
103.6687798134925
 20
-142.5978420324929
 30
0.0
 10
103.6687798134925
 20
-142.5978420324929
 30
0.0
 10
103.6687798134925
 20
-142.5978420324929
 30
0.0
 10
103.3163465453515
 20
-142.5978420324929
 30
0.0
 10
103.3163465453515
 20
-142.5978420324929
 30
0.0
 10
103.3163465453515
 20
-142.5978420324929
 30
0.0
 10
103.3163465453515
 20
-142.4497029266272
 30
0.0
 10
103.3163465453515
 20
-142.4497029266272
 30
0.0
 10
103.6711913803322
 20
-142.4348890160406
 30
0.0
 10
103.7208007553198
 20
-142.2719359995883
 30
0.0
 10
103.7524956337841
 20
-142.157558829478
 30
0.0
 10
103.7524956337841
 20
-142.157558829478
 30
0.0
 10
103.9085584592659
 20
-142.157558829478
 30
0.0
 10
103.9085584592659
 20
-142.157558829478
 30
0.0
 10
103.9085584592659
 20
-142.157558829478
 30
0.0
 10
103.9085584592659
 20
-143.7019951355155
 30
0.0
 10
103.9085584592659
 20
-143.7019951355155
 30
0.0
 10
103.9085584592659
 20
-143.7019951355155
 30
0.0
 10
103.6687798134925
 20
-143.7019951355155
 30
0.0
 10
103.6687798134925
 20
-143.7019951355155
 30
0.0
  0
HATCH
  5
81
330
7C
100
AcDbEntity
  8
_U+30EC_U+30A4_U+30E4_U+30FC 1
 62
   179
420
  2234388
100
AcDbHatch
 10
0.0
 20
0.0
 30
0.0
210
0.0
220
0.0
230
1.0
  2
SOLID
 70
     1
 71
     0
 91
        1
 92
        1
 93
        1
 72
     4
 94
        3
 73
     0
 74
     1
 95
       26
 96
       22
 40
0.0
 40
0.0
 40
0.0
 40
0.0
 40
1.0
 40
1.0
 40
1.0
 40
2.0
 40
2.0
 40
2.0
 40
3.0
 40
3.0
 40
3.0
 40
4.0
 40
4.0
 40
4.0
 40
5.0
 40
5.0
 40
5.0
 40
6.0
 40
6.0
 40
6.0
 40
7.0
 40
7.0
 40
7.0
 40
7.0
 10
103.6687798134925
 20
-143.7019951355155
 10
103.6687798134925
 20
-143.7019951355155
 10
103.6687798134925
 20
-142.5978420324929
 10
103.6687798134925
 20
-142.5978420324929
 10
103.6687798134925
 20
-142.5978420324929
 10
103.3163465453515
 20
-142.5978420324929
 10
103.3163465453515
 20
-142.5978420324929
 10
103.3163465453515
 20
-142.5978420324929
 10
103.3163465453515
 20
-142.4497029266272
 10
103.3163465453515
 20
-142.4497029266272
 10
103.6711913803322
 20
-142.4348890160406
 10
103.7208007553198
 20
-142.2719359995883
 10
103.7524956337841
 20
-142.157558829478
 10
103.7524956337841
 20
-142.157558829478
 10
103.9085584592659
 20
-142.157558829478
 10
103.9085584592659
 20
-142.157558829478
 10
103.9085584592659
 20
-142.157558829478
 10
103.9085584592659
 20
-143.7019951355155
 10
103.9085584592659
 20
-143.7019951355155
 10
103.9085584592659
 20
-143.7019951355155
 10
103.6687798134925
 20
-143.7019951355155
 10
103.6687798134925
 20
-143.7019951355155
 97
        0
 97
        0
 75
     2
 76
     1
 98
        0
  0
ENDBLK
  5
7F
330
7C
100
AcDbEntity
  8
0
100
AcDbBlockEnd
  0
BLOCK
  5
90
330
8E
100
AcDbEntity
  8
0
100
AcDbBlockBegin
  2
block 3
 70
     0
 10
0.0
 20
0.0
 30
0.0
  3
block 3
  1

  0
SPLINE
  5
92
330
8E
100
AcDbEntity
  8
_U+30EC_U+30A4_U+30E4_U+30FC 1
370
     0
100
AcDbSpline
210
0.0
220
0.0
230
1.0
 70
    11
 71
     3
 72
    26
 73
    22
 74
     0
 42
0.0000000001
 43
0.0000000001
 12
1.0
 22
0.0
 32
0.0
 13
1.0
 23
0.0
 33
0.0
 40
0.0
 40
0.0
 40
0.0
 40
0.0
 40
1.0
 40
1.0
 40
1.0
 40
2.0
 40
2.0
 40
2.0
 40
3.0
 40
3.0
 40
3.0
 40
4.0
 40
4.0
 40
4.0
 40
5.0
 40
5.0
 40
5.0
 40
6.0
 40
6.0
 40
6.0
 40
7.0
 40
7.0
 40
7.0
 40
7.0
 10
105.9966308328759
 20
-161.3196966827604
 30
0.0
 10
105.9966308328759
 20
-161.3196966827604
 30
0.0
 10
105.9966308328759
 20
-160.2155435797378
 30
0.0
 10
105.9966308328759
 20
-160.2155435797378
 30
0.0
 10
105.9966308328759
 20
-160.2155435797378
 30
0.0
 10
105.6441975647348
 20
-160.2155435797378
 30
0.0
 10
105.6441975647348
 20
-160.2155435797378
 30
0.0
 10
105.6441975647348
 20
-160.2155435797378
 30
0.0
 10
105.6441975647348
 20
-160.067404473872
 30
0.0
 10
105.6441975647348
 20
-160.067404473872
 30
0.0
 10
105.9990423997155
 20
-160.0525905632855
 30
0.0
 10
106.0486517747031
 20
-159.8896375468331
 30
0.0
 10
106.0803466531674
 20
-159.7752603767229
 30
0.0
 10
106.0803466531674
 20
-159.7752603767229
 30
0.0
 10
106.2364094786492
 20
-159.7752603767229
 30
0.0
 10
106.2364094786492
 20
-159.7752603767229
 30
0.0
 10
106.2364094786492
 20
-159.7752603767229
 30
0.0
 10
106.2364094786492
 20
-161.3196966827604
 30
0.0
 10
106.2364094786492
 20
-161.3196966827604
 30
0.0
 10
106.2364094786492
 20
-161.3196966827604
 30
0.0
 10
105.9966308328759
 20
-161.3196966827604
 30
0.0
 10
105.9966308328759
 20
-161.3196966827604
 30
0.0
  0
HATCH
  5
93
330
8E
100
AcDbEntity
  8
_U+30EC_U+30A4_U+30E4_U+30FC 1
 62
   179
420
  2234388
100
AcDbHatch
 10
0.0
 20
0.0
 30
0.0
210
0.0
220
0.0
230
1.0
  2
SOLID
 70
     1
 71
     0
 91
        1
 92
        1
 93
        1
 72
     4
 94
        3
 73
     0
 74
     1
 95
       26
 96
       22
 40
0.0
 40
0.0
 40
0.0
 40
0.0
 40
1.0
 40
1.0
 40
1.0
 40
2.0
 40
2.0
 40
2.0
 40
3.0
 40
3.0
 40
3.0
 40
4.0
 40
4.0
 40
4.0
 40
5.0
 40
5.0
 40
5.0
 40
6.0
 40
6.0
 40
6.0
 40
7.0
 40
7.0
 40
7.0
 40
7.0
 10
105.9966308328759
 20
-161.3196966827604
 10
105.9966308328759
 20
-161.3196966827604
 10
105.9966308328759
 20
-160.2155435797378
 10
105.9966308328759
 20
-160.2155435797378
 10
105.9966308328759
 20
-160.2155435797378
 10
105.6441975647348
 20
-160.2155435797378
 10
105.6441975647348
 20
-160.2155435797378
 10
105.6441975647348
 20
-160.2155435797378
 10
105.6441975647348
 20
-160.067404473872
 10
105.6441975647348
 20
-160.067404473872
 10
105.9990423997155
 20
-160.0525905632855
 10
106.0486517747031
 20
-159.8896375468331
 10
106.0803466531674
 20
-159.7752603767229
 10
106.0803466531674
 20
-159.7752603767229
 10
106.2364094786492
 20
-159.7752603767229
 10
106.2364094786492
 20
-159.7752603767229
 10
106.2364094786492
 20
-159.7752603767229
 10
106.2364094786492
 20
-161.3196966827604
 10
106.2364094786492
 20
-161.3196966827604
 10
106.2364094786492
 20
-161.3196966827604
 10
105.9966308328759
 20
-161.3196966827604
 10
105.9966308328759
 20
-161.3196966827604
 97
        0
 97
        0
 75
     2
 76
     1
 98
        0
  0
POLYLINE
  5
94
330
8E
100
AcDbEntity
  8
_U+30EC_U+30A4_U+30E4_U+30FC 1
370
     0
100
AcDb2dPolyline
 66
     1
 10
0.0
 20
0.0
 30
0.0
  0
VERTEX
  5
95
330
94
100
AcDbEntity
  8
_U+30EC_U+30A4_U+30E4_U+30FC 1
370
     0
100
AcDbVertex
100
AcDb2dVertex
 10
107.6616454808971
 20
-160.9727755673957
 30
0.0
  0
VERTEX
  5
96
330
94
100
AcDbEntity
  8
_U+30EC_U+30A4_U+30E4_U+30FC 1
370
     0
100
AcDbVertex
100
AcDb2dVertex
 10
107.6616454808971
 20
-161.3196966827604
 30
0.0
  0
VERTEX
  5
97
330
94
100
AcDbEntity
  8
_U+30EC_U+30A4_U+30E4_U+30FC 1
370
     0
100
AcDbVertex
100
AcDb2dVertex
 10
107.4287570260942
 20
-161.3196966827604
 30
0.0
  0
VERTEX
  5
98
330
94
100
AcDbEntity
  8
_U+30EC_U+30A4_U+30E4_U+30FC 1
370
     0
100
AcDbVertex
100
AcDb2dVertex
 10
107.4287570260942
 20
-160.9727755673957
 30
0.0
  0
VERTEX
  5
99
330
94
100
AcDbEntity
  8
_U+30EC_U+30A4_U+30E4_U+30FC 1
370
     0
100
AcDbVertex
100
AcDb2dVertex
 10
106.7276800948459
 20
-160.9727755673957
 30
0.0
  0
VERTEX
  5
9A
330
94
100
AcDbEntity
  8
_U+30EC_U+30A4_U+30E4_U+30FC 1
370
     0
100
AcDbVertex
100
AcDb2dVertex
 10
106.7276800948459
 20
-160.748499851306
 30
0.0
  0
VERTEX
  5
9B
330
94
100
AcDbEntity
  8
_U+30EC_U+30A4_U+30E4_U+30FC 1
370
     0
100
AcDbVertex
100
AcDb2dVertex
 10
107.453561713588
 20
-159.7752603767229
 30
0.0
  0
VERTEX
  5
9C
330
94
100
AcDbEntity
  8
_U+30EC_U+30A4_U+30E4_U+30FC 1
370
     0
100
AcDbVertex
100
AcDb2dVertex
 10
107.6616454808971
 20
-159.7752603767229
 30
0.0
  0
VERTEX
  5
9D
330
94
100
AcDbEntity
  8
_U+30EC_U+30A4_U+30E4_U+30FC 1
370
     0
100
AcDbVertex
100
AcDb2dVertex
 10
107.6616454808971
 20
-160.7739935578968
 30
0.0
  0
VERTEX
  5
9E
330
94
100
AcDbEntity
  8
_U+30EC_U+30A4_U+30E4_U+30FC 1
370
     0
100
AcDbVertex
100
AcDb2dVertex
 10
107.8831651205987
 20
-160.7739935578968
 30
0.0
  0
VERTEX
  5
9F
330
94
100
AcDbEntity
  8
_U+30EC_U+30A4_U+30E4_U+30FC 1
370
     0
100
AcDbVertex
100
AcDb2dVertex
 10
107.8831651205987
 20
-160.9727755673957
 30
0.0
  0
VERTEX
  5
A0
330
94
100
AcDbEntity
  8
_U+30EC_U+30A4_U+30E4_U+30FC 1
370
     0
100
AcDbVertex
100
AcDb2dVertex
 10
107.6616454808971
 20
-160.9727755673957
 30
0.0
  0
SEQEND
  5
A1
330
94
100
AcDbEntity
  8
_U+30EC_U+30A4_U+30E4_U+30FC 1
370
     0
  0
POLYLINE
  5
A2
330
8E
100
AcDbEntity
  8
_U+30EC_U+30A4_U+30E4_U+30FC 1
370
     0
100
AcDb2dPolyline
 66
     1
 10
0.0
 20
0.0
 30
0.0
  0
VERTEX
  5
A3
330
A2
100
AcDbEntity
  8
_U+30EC_U+30A4_U+30E4_U+30FC 1
370
     0
100
AcDbVertex
100
AcDb2dVertex
 10
107.4287570260942
 20
-160.1180473775052
 30
0.0
  0
VERTEX
  5
A4
330
A2
100
AcDbEntity
  8
_U+30EC_U+30A4_U+30E4_U+30FC 1
370
     0
100
AcDbVertex
100
AcDb2dVertex
 10
106.9402424862858
 20
-160.7739935578968
 30
0.0
  0
VERTEX
  5
A5
330
A2
100
AcDbEntity
  8
_U+30EC_U+30A4_U+30E4_U+30FC 1
370
     0
100
AcDbVertex
100
AcDb2dVertex
 10
107.4287570260942
 20
-160.7739935578968
 30
0.0
  0
VERTEX
  5
A6
330
A2
100
AcDbEntity
  8
_U+30EC_U+30A4_U+30E4_U+30FC 1
370
     0
100
AcDbVertex
100
AcDb2dVertex
 10
107.4287570260942
 20
-160.1180473775052
 30
0.0
  0
SEQEND
  5
A7
330
A2
100
AcDbEntity
  8
_U+30EC_U+30A4_U+30E4_U+30FC 1
370
     0
  0
HATCH
  5
A8
330
8E
100
AcDbEntity
  8
_U+30EC_U+30A4_U+30E4_U+30FC 1
 62
   179
420
  2234388
100
AcDbHatch
 10
0.0
 20
0.0
 30
0.0
210
0.0
220
0.0
230
1.0
  2
SOLID
 70
     1
 71
     0
 91
        2
 92
        1
 93
       11
 72
     1
 10
107.6616454808971
 20
-160.9727755673957
 11
107.6616454808971
 21
-161.3196966827604
 72
     1
 10
107.6616454808971
 20
-161.3196966827604
 11
107.4287570260942
 21
-161.3196966827604
 72
     1
 10
107.4287570260942
 20
-161.3196966827604
 11
107.4287570260942
 21
-160.9727755673957
 72
     1
 10
107.4287570260942
 20
-160.9727755673957
 11
106.7276800948459
 21
-160.9727755673957
 72
     1
 10
106.7276800948459
 20
-160.9727755673957
 11
106.7276800948459
 21
-160.748499851306
 72
     1
 10
106.7276800948459
 20
-160.748499851306
 11
107.453561713588
 21
-159.7752603767229
 72
     1
 10
107.453561713588
 20
-159.7752603767229
 11
107.6616454808971
 21
-159.7752603767229
 72
     1
 10
107.6616454808971
 20
-159.7752603767229
 11
107.6616454808971
 21
-160.7739935578968
 72
     1
 10
107.6616454808971
 20
-160.7739935578968
 11
107.8831651205987
 21
-160.7739935578968
 72
     1
 10
107.8831651205987
 20
-160.7739935578968
 11
107.8831651205987
 21
-160.9727755673957
 72
     1
 10
107.8831651205987
 20
-160.9727755673957
 11
107.6616454808971
 21
-160.9727755673957
 97
        0
 92
        1
 93
        3
 72
     1
 10
107.4287570260942
 20
-160.1180473775052
 11
106.9402424862858
 21
-160.7739935578968
 72
     1
 10
106.9402424862858
 20
-160.7739935578968
 11
107.4287570260942
 21
-160.7739935578968
 72
     1
 10
107.4287570260942
 20
-160.7739935578968
 11
107.4287570260942
 21
-160.1180473775052
 97
        0
 75
     2
 76
     1
 98
        0
  0
ENDBLK
  5
91
330
8E
100
AcDbEntity
  8
0
100
AcDbBlockEnd
  0
BLOCK
  5
B9
330
B7
100
AcDbEntity
  8
0
100
AcDbBlockBegin
  2
block 4
 70
     0
 10
0.0
 20
0.0
 30
0.0
  3
block 4
  1

  0
SPLINE
  5
BB
330
B7
100
AcDbEntity
  8
_U+30EC_U+30A4_U+30E4_U+30FC 1
370
     0
100
AcDbSpline
210
0.0
220
0.0
230
1.0
 70
    11
 71
     3
 72
    32
 73
    28
 74
     0
 42
0.0000000001
 43
0.0000000001
 12
1.0
 22
0.0
 32
0.0
 13
1.0
 23
0.0
 33
0.0
 40
0.0
 40
0.0
 40
0.0
 40
0.0
 40
1.0
 40
1.0
 40
1.0
 40
2.0
 40
2.0
 40
2.0
 40
3.0
 40
3.0
 40
3.0
 40
4.0
 40
4.0
 40
4.0
 40
5.0
 40
5.0
 40
5.0
 40
6.0
 40
6.0
 40
6.0
 40
7.0
 40
7.0
 40
7.0
 40
8.0
 40
8.0
 40
8.0
 40
9.0
 40
9.0
 40
9.0
 40
9.0
 10
103.7821234549573
 20
-137.2641452022291
 30
0.0
 10
103.2305636677687
 20
-137.2641452022291
 30
0.0
 10
103.2216064195071
 20
-136.7101738482009
 30
0.0
 10
103.2216064195071
 20
-136.4962334185669
 30
0.0
 10
103.2216064195071
 20
-136.2657565306037
 30
0.0
 10
103.2419324828701
 20
-135.6184230889253
 30
0.0
 10
103.8231200912317
 20
-135.6184230889253
 30
0.0
 10
104.0084662283382
 20
-135.6184230889253
 30
0.0
 10
104.2706379947657
 20
-135.6883585272758
 30
0.0
 10
104.3112901214916
 20
-136.0204657320539
 30
0.0
 10
104.3112901214916
 20
-136.0204657320539
 30
0.0
 10
104.0828802908196
 20
-136.0204657320539
 30
0.0
 10
104.0828802908196
 20
-136.0204657320539
 30
0.0
 10
104.0715114757182
 20
-135.9632771469988
 30
0.0
 10
104.0377495399628
 20
-135.815138041133
 30
0.0
 10
103.820708524392
 20
-135.815138041133
 30
0.0
 10
103.5085828734284
 20
-135.815138041133
 30
0.0
 10
103.4658636894113
 20
-136.1431111313288
 30
0.0
 10
103.4520833074703
 20
-136.3480943127012
 30
0.0
 10
103.551646566994
 20
-136.269890645186
 30
0.0
 10
103.6239935721843
 20
-136.2106350028397
 30
0.0
 10
103.8186414671009
 20
-136.2106350028397
 30
0.0
 10
104.0105332856293
 20
-136.2106350028397
 30
0.0
 10
104.3340277516943
 20
-136.3188110010765
 30
0.0
 10
104.3340277516943
 20
-136.7249877587875
 30
0.0
 10
104.3340277516943
 20
-137.0443481102702
 30
0.0
 10
104.1214653602544
 20
-137.2641452022291
 30
0.0
 10
103.7821234549573
 20
-137.2641452022291
 30
0.0
  0
SPLINE
  5
BC
330
B7
100
AcDbEntity
  8
_U+30EC_U+30A4_U+30E4_U+30FC 1
370
     0
100
AcDbSpline
210
0.0
220
0.0
230
1.0
 70
    11
 71
     3
 72
    17
 73
    13
 74
     0
 42
0.0000000001
 43
0.0000000001
 12
1.0
 22
0.0
 32
0.0
 13
1.0
 23
0.0
 33
0.0
 40
0.0
 40
0.0
 40
0.0
 40
0.0
 40
1.0
 40
1.0
 40
1.0
 40
2.0
 40
2.0
 40
2.0
 40
3.0
 40
3.0
 40
3.0
 40
4.0
 40
4.0
 40
4.0
 40
4.0
 10
103.8003824610291
 20
-136.4052828977563
 30
0.0
 10
103.5199516885297
 20
-136.4052828977563
 30
0.0
 10
103.4792995618038
 20
-136.6168117605507
 30
0.0
 10
103.4792995618038
 20
-136.7332559879521
 30
0.0
 10
103.4792995618038
 20
-136.9089558576999
 30
0.0
 10
103.5809298786187
 20
-137.0719088741522
 30
0.0
 10
103.7776448308264
 20
-137.0719088741522
 30
0.0
 10
103.9064914019748
 20
-137.0719088741522
 30
0.0
 10
104.0942491059209
 20
-137.0126532318059
 30
0.0
 10
104.0942491059209
 20
-136.7270548160787
 30
0.0
 10
104.0942491059209
 20
-136.5027790999889
 30
0.0
 10
103.9450764714096
 20
-136.4052828977563
 30
0.0
 10
103.8003824610291
 20
-136.4052828977563
 30
0.0
  0
HATCH
  5
BD
330
B7
100
AcDbEntity
  8
_U+30EC_U+30A4_U+30E4_U+30FC 1
 62
   179
420
  2234388
100
AcDbHatch
 10
0.0
 20
0.0
 30
0.0
210
0.0
220
0.0
230
1.0
  2
SOLID
 70
     1
 71
     0
 91
        2
 92
        1
 93
        1
 72
     4
 94
        3
 73
     0
 74
     1
 95
       32
 96
       28
 40
0.0
 40
0.0
 40
0.0
 40
0.0
 40
1.0
 40
1.0
 40
1.0
 40
2.0
 40
2.0
 40
2.0
 40
3.0
 40
3.0
 40
3.0
 40
4.0
 40
4.0
 40
4.0
 40
5.0
 40
5.0
 40
5.0
 40
6.0
 40
6.0
 40
6.0
 40
7.0
 40
7.0
 40
7.0
 40
8.0
 40
8.0
 40
8.0
 40
9.0
 40
9.0
 40
9.0
 40
9.0
 10
103.7821234549573
 20
-137.2641452022291
 10
103.2305636677687
 20
-137.2641452022291
 10
103.2216064195071
 20
-136.7101738482009
 10
103.2216064195071
 20
-136.4962334185669
 10
103.2216064195071
 20
-136.2657565306037
 10
103.2419324828701
 20
-135.6184230889253
 10
103.8231200912317
 20
-135.6184230889253
 10
104.0084662283382
 20
-135.6184230889253
 10
104.2706379947657
 20
-135.6883585272758
 10
104.3112901214916
 20
-136.0204657320539
 10
104.3112901214916
 20
-136.0204657320539
 10
104.0828802908196
 20
-136.0204657320539
 10
104.0828802908196
 20
-136.0204657320539
 10
104.0715114757182
 20
-135.9632771469988
 10
104.0377495399628
 20
-135.815138041133
 10
103.820708524392
 20
-135.815138041133
 10
103.5085828734284
 20
-135.815138041133
 10
103.4658636894113
 20
-136.1431111313288
 10
103.4520833074703
 20
-136.3480943127012
 10
103.551646566994
 20
-136.269890645186
 10
103.6239935721843
 20
-136.2106350028397
 10
103.8186414671009
 20
-136.2106350028397
 10
104.0105332856293
 20
-136.2106350028397
 10
104.3340277516943
 20
-136.3188110010765
 10
104.3340277516943
 20
-136.7249877587875
 10
104.3340277516943
 20
-137.0443481102702
 10
104.1214653602544
 20
-137.2641452022291
 10
103.7821234549573
 20
-137.2641452022291
 97
        0
 97
        0
 92
        1
 93
        1
 72
     4
 94
        3
 73
     0
 74
     1
 95
       17
 96
       13
 40
0.0
 40
0.0
 40
0.0
 40
0.0
 40
1.0
 40
1.0
 40
1.0
 40
2.0
 40
2.0
 40
2.0
 40
3.0
 40
3.0
 40
3.0
 40
4.0
 40
4.0
 40
4.0
 40
4.0
 10
103.8003824610291
 20
-136.4052828977563
 10
103.5199516885297
 20
-136.4052828977563
 10
103.4792995618038
 20
-136.6168117605507
 10
103.4792995618038
 20
-136.7332559879521
 10
103.4792995618038
 20
-136.9089558576999
 10
103.5809298786187
 20
-137.0719088741522
 10
103.7776448308264
 20
-137.0719088741522
 10
103.9064914019748
 20
-137.0719088741522
 10
104.0942491059209
 20
-137.0126532318059
 10
104.0942491059209
 20
-136.7270548160787
 10
104.0942491059209
 20
-136.5027790999889
 10
103.9450764714096
 20
-136.4052828977563
 10
103.8003824610291
 20
-136.4052828977563
 97
        0
 97
        0
 75
     2
 76
     1
 98
        0
  0
ENDBLK
  5
BA
330
B7
100
AcDbEntity
  8
0
100
AcDbBlockEnd
  0
BLOCK
  5
CC
330
CA
100
AcDbEntity
  8
0
100
AcDbBlockBegin
  2
block 5
 70
     0
 10
0.0
 20
0.0
 30
0.0
  3
block 5
  1

  0
SPLINE
  5
CE
330
CA
100
AcDbEntity
  8
_U+30EC_U+30A4_U+30E4_U+30FC 1
370
     0
100
AcDbSpline
210
0.0
220
0.0
230
1.0
 70
    11
 71
     3
 72
    26
 73
    22
 74
     0
 42
0.0000000001
 43
0.0000000001
 12
1.0
 22
0.0
 32
0.0
 13
1.0
 23
0.0
 33
0.0
 40
0.0
 40
0.0
 40
0.0
 40
0.0
 40
1.0
 40
1.0
 40
1.0
 40
2.0
 40
2.0
 40
2.0
 40
3.0
 40
3.0
 40
3.0
 40
4.0
 40
4.0
 40
4.0
 40
5.0
 40
5.0
 40
5.0
 40
6.0
 40
6.0
 40
6.0
 40
7.0
 40
7.0
 40
7.0
 40
7.0
 10
95.08136255218453
 20
-149.5970702751007
 30
0.0
 10
95.08136255218453
 20
-149.5970702751007
 30
0.0
 10
93.97720944916195
 20
-149.5970702751007
 30
0.0
 10
93.97720944916195
 20
-149.5970702751007
 30
0.0
 10
93.97720944916195
 20
-149.5970702751007
 30
0.0
 10
93.97720944916195
 20
-149.9495035432418
 30
0.0
 10
93.97720944916195
 20
-149.9495035432418
 30
0.0
 10
93.97720944916195
 20
-149.9495035432418
 30
0.0
 10
93.82907034329621
 20
-149.9495035432418
 30
0.0
 10
93.82907034329621
 20
-149.9495035432418
 30
0.0
 10
93.81425643270964
 20
-149.5946587082611
 30
0.0
 10
93.65130341625732
 20
-149.5450493332735
 30
0.0
 10
93.53692624614702
 20
-149.5133544548092
 30
0.0
 10
93.53692624614702
 20
-149.5133544548092
 30
0.0
 10
93.53692624614702
 20
-149.3572916293274
 30
0.0
 10
93.53692624614702
 20
-149.3572916293274
 30
0.0
 10
93.53692624614702
 20
-149.3572916293274
 30
0.0
 10
95.08136255218453
 20
-149.3572916293274
 30
0.0
 10
95.08136255218453
 20
-149.3572916293274
 30
0.0
 10
95.08136255218453
 20
-149.3572916293274
 30
0.0
 10
95.08136255218453
 20
-149.5970702751007
 30
0.0
 10
95.08136255218453
 20
-149.5970702751007
 30
0.0
  0
HATCH
  5
CF
330
CA
100
AcDbEntity
  8
_U+30EC_U+30A4_U+30E4_U+30FC 1
 62
   179
420
  2234388
100
AcDbHatch
 10
0.0
 20
0.0
 30
0.0
210
0.0
220
0.0
230
1.0
  2
SOLID
 70
     1
 71
     0
 91
        1
 92
        1
 93
        1
 72
     4
 94
        3
 73
     0
 74
     1
 95
       26
 96
       22
 40
0.0
 40
0.0
 40
0.0
 40
0.0
 40
1.0
 40
1.0
 40
1.0
 40
2.0
 40
2.0
 40
2.0
 40
3.0
 40
3.0
 40
3.0
 40
4.0
 40
4.0
 40
4.0
 40
5.0
 40
5.0
 40
5.0
 40
6.0
 40
6.0
 40
6.0
 40
7.0
 40
7.0
 40
7.0
 40
7.0
 10
95.08136255218453
 20
-149.5970702751007
 10
95.08136255218453
 20
-149.5970702751007
 10
93.97720944916195
 20
-149.5970702751007
 10
93.97720944916195
 20
-149.5970702751007
 10
93.97720944916195
 20
-149.5970702751007
 10
93.97720944916195
 20
-149.9495035432418
 10
93.97720944916195
 20
-149.9495035432418
 10
93.97720944916195
 20
-149.9495035432418
 10
93.82907034329621
 20
-149.9495035432418
 10
93.82907034329621
 20
-149.9495035432418
 10
93.81425643270964
 20
-149.5946587082611
 10
93.65130341625732
 20
-149.5450493332735
 10
93.53692624614702
 20
-149.5133544548092
 10
93.53692624614702
 20
-149.5133544548092
 10
93.53692624614702
 20
-149.3572916293274
 10
93.53692624614702
 20
-149.3572916293274
 10
93.53692624614702
 20
-149.3572916293274
 10
95.08136255218453
 20
-149.3572916293274
 10
95.08136255218453
 20
-149.3572916293274
 10
95.08136255218453
 20
-149.3572916293274
 10
95.08136255218453
 20
-149.5970702751007
 10
95.08136255218453
 20
-149.5970702751007
 97
        0
 97
        0
 75
     2
 76
     1
 98
        0
  0
SPLINE
  5
D0
330
CA
100
AcDbEntity
  8
_U+30EC_U+30A4_U+30E4_U+30FC 1
370
     0
100
AcDbSpline
210
0.0
220
0.0
230
1.0
 70
    11
 71
     3
 72
    29
 73
    25
 74
     0
 42
0.0000000001
 43
0.0000000001
 12
1.0
 22
0.0
 32
0.0
 13
1.0
 23
0.0
 33
0.0
 40
0.0
 40
0.0
 40
0.0
 40
0.0
 40
1.0
 40
1.0
 40
1.0
 40
2.0
 40
2.0
 40
2.0
 40
3.0
 40
3.0
 40
3.0
 40
4.0
 40
4.0
 40
4.0
 40
5.0
 40
5.0
 40
5.0
 40
6.0
 40
6.0
 40
6.0
 40
7.0
 40
7.0
 40
7.0
 40
8.0
 40
8.0
 40
8.0
 40
8.0
 10
95.13200545581769
 20
-148.2872449716087
 30
0.0
 10
95.13200545581769
 20
-148.5718098586904
 30
0.0
 10
94.99454614595624
 20
-148.8432833829281
 30
0.0
 10
94.64555797330043
 20
-148.8432833829281
 30
0.0
 10
94.38958737874636
 20
-148.8432833829281
 30
0.0
 10
94.29450274335346
 20
-148.6916991815771
 30
0.0
 10
94.23318004371602
 20
-148.5787000496609
 30
0.0
 10
94.17392440136972
 20
-148.7120252449401
 30
0.0
 10
94.05954723125943
 20
-148.7936740079405
 30
0.0
 10
93.89866127209825
 20
-148.7936740079405
 30
0.0
 10
93.62374265237531
 20
-148.7936740079405
 30
0.0
 10
93.488350399805
 20
-148.5811116165006
 30
0.0
 10
93.488350399805
 20
-148.2872449716087
 30
0.0
 10
93.488350399805
 20
-147.9840765689068
 30
0.0
 10
93.63235539108844
 20
-147.780815935277
 30
0.0
 10
93.89866127209825
 20
-147.780815935277
 30
0.0
 10
94.05954723125943
 20
-147.780815935277
 30
0.0
 10
94.17392440136972
 20
-147.8641872460201
 30
0.0
 10
94.23318004371602
 20
-147.9978569508478
 30
0.0
 10
94.2838229473492
 20
-147.9027723154549
 30
0.0
 10
94.37890758274209
 20
-147.7332736175806
 30
0.0
 10
94.64142385871813
 20
-147.7332736175806
 30
0.0
 10
95.01590573796477
 20
-147.7332736175806
 30
0.0
 10
95.13200545581769
 20
-148.0316188866032
 30
0.0
 10
95.13200545581769
 20
-148.2872449716087
 30
0.0
  0
SPLINE
  5
D1
330
CA
100
AcDbEntity
  8
_U+30EC_U+30A4_U+30E4_U+30FC 1
370
     0
100
AcDbSpline
210
0.0
220
0.0
230
1.0
 70
    11
 71
     3
 72
    17
 73
    13
 74
     0
 42
0.0000000001
 43
0.0000000001
 12
1.0
 22
0.0
 32
0.0
 13
1.0
 23
0.0
 33
0.0
 40
0.0
 40
0.0
 40
0.0
 40
0.0
 40
1.0
 40
1.0
 40
1.0
 40
2.0
 40
2.0
 40
2.0
 40
3.0
 40
3.0
 40
3.0
 40
4.0
 40
4.0
 40
4.0
 40
4.0
 10
93.68093123743047
 20
-148.2872449716087
 30
0.0
 10
93.68093123743047
 20
-148.4636338604535
 30
0.0
 10
93.77601587282336
 20
-148.5538953621671
 30
0.0
 10
93.91140812539368
 20
-148.5538953621671
 30
0.0
 10
94.03405352466858
 20
-148.5538953621671
 30
0.0
 10
94.15256480936117
 20
-148.477069732846
 30
0.0
 10
94.15256480936117
 20
-148.2872449716087
 30
0.0
 10
94.15256480936117
 20
-148.097075700823
 30
0.0
 10
94.03405352466858
 20
-148.0202500715019
 30
0.0
 10
93.91140812539368
 20
-148.0202500715019
 30
0.0
 10
93.77601587282336
 20
-148.0202500715019
 30
0.0
 10
93.68093123743047
 20
-148.1129231400551
 30
0.0
 10
93.68093123743047
 20
-148.2872449716087
 30
0.0
  0
SPLINE
  5
D2
330
CA
100
AcDbEntity
  8
_U+30EC_U+30A4_U+30E4_U+30FC 1
370
     0
100
AcDbSpline
210
0.0
220
0.0
230
1.0
 70
    11
 71
     3
 72
    17
 73
    13
 74
     0
 42
0.0000000001
 43
0.0000000001
 12
1.0
 22
0.0
 32
0.0
 13
1.0
 23
0.0
 33
0.0
 40
0.0
 40
0.0
 40
0.0
 40
0.0
 40
1.0
 40
1.0
 40
1.0
 40
2.0
 40
2.0
 40
2.0
 40
3.0
 40
3.0
 40
3.0
 40
4.0
 40
4.0
 40
4.0
 40
4.0
 10
94.34101153240434
 20
-148.2872449716087
 30
0.0
 10
94.34101153240434
 20
-148.4408962302509
 30
0.0
 10
94.42782793863263
 20
-148.6035047371547
 30
0.0
 10
94.63074406271384
 20
-148.6035047371547
 30
0.0
 10
94.83607175363474
 20
-148.6035047371547
 30
0.0
 10
94.93735756090108
 20
-148.4681124845844
 30
0.0
 10
94.93735756090108
 20
-148.2872449716087
 30
0.0
 10
94.93735756090108
 20
-148.0881184525613
 30
0.0
 10
94.81471216162619
 20
-147.9706406965143
 30
0.0
 10
94.6369452345873
 20
-147.9706406965143
 30
0.0
 10
94.4150810853372
 20
-147.9706406965143
 30
0.0
 10
94.34101153240434
 20
-148.1446180185194
 30
0.0
 10
94.34101153240434
 20
-148.2872449716087
 30
0.0
  0
HATCH
  5
D3
330
CA
100
AcDbEntity
  8
_U+30EC_U+30A4_U+30E4_U+30FC 1
 62
   179
420
  2234388
100
AcDbHatch
 10
0.0
 20
0.0
 30
0.0
210
0.0
220
0.0
230
1.0
  2
SOLID
 70
     1
 71
     0
 91
        3
 92
        1
 93
        1
 72
     4
 94
        3
 73
     0
 74
     1
 95
       29
 96
       25
 40
0.0
 40
0.0
 40
0.0
 40
0.0
 40
1.0
 40
1.0
 40
1.0
 40
2.0
 40
2.0
 40
2.0
 40
3.0
 40
3.0
 40
3.0
 40
4.0
 40
4.0
 40
4.0
 40
5.0
 40
5.0
 40
5.0
 40
6.0
 40
6.0
 40
6.0
 40
7.0
 40
7.0
 40
7.0
 40
8.0
 40
8.0
 40
8.0
 40
8.0
 10
95.13200545581769
 20
-148.2872449716087
 10
95.13200545581769
 20
-148.5718098586904
 10
94.99454614595624
 20
-148.8432833829281
 10
94.64555797330043
 20
-148.8432833829281
 10
94.38958737874636
 20
-148.8432833829281
 10
94.29450274335346
 20
-148.6916991815771
 10
94.23318004371602
 20
-148.5787000496609
 10
94.17392440136972
 20
-148.7120252449401
 10
94.05954723125943
 20
-148.7936740079405
 10
93.89866127209825
 20
-148.7936740079405
 10
93.62374265237531
 20
-148.7936740079405
 10
93.488350399805
 20
-148.5811116165006
 10
93.488350399805
 20
-148.2872449716087
 10
93.488350399805
 20
-147.9840765689068
 10
93.63235539108844
 20
-147.780815935277
 10
93.89866127209825
 20
-147.780815935277
 10
94.05954723125943
 20
-147.780815935277
 10
94.17392440136972
 20
-147.8641872460201
 10
94.23318004371602
 20
-147.9978569508478
 10
94.2838229473492
 20
-147.9027723154549
 10
94.37890758274209
 20
-147.7332736175806
 10
94.64142385871813
 20
-147.7332736175806
 10
95.01590573796477
 20
-147.7332736175806
 10
95.13200545581769
 20
-148.0316188866032
 10
95.13200545581769
 20
-148.2872449716087
 97
        0
 97
        0
 92
        1
 93
        1
 72
     4
 94
        3
 73
     0
 74
     1
 95
       17
 96
       13
 40
0.0
 40
0.0
 40
0.0
 40
0.0
 40
1.0
 40
1.0
 40
1.0
 40
2.0
 40
2.0
 40
2.0
 40
3.0
 40
3.0
 40
3.0
 40
4.0
 40
4.0
 40
4.0
 40
4.0
 10
93.68093123743047
 20
-148.2872449716087
 10
93.68093123743047
 20
-148.4636338604535
 10
93.77601587282336
 20
-148.5538953621671
 10
93.91140812539368
 20
-148.5538953621671
 10
94.03405352466858
 20
-148.5538953621671
 10
94.15256480936117
 20
-148.477069732846
 10
94.15256480936117
 20
-148.2872449716087
 10
94.15256480936117
 20
-148.097075700823
 10
94.03405352466858
 20
-148.0202500715019
 10
93.91140812539368
 20
-148.0202500715019
 10
93.77601587282336
 20
-148.0202500715019
 10
93.68093123743047
 20
-148.1129231400551
 10
93.68093123743047
 20
-148.2872449716087
 97
        0
 97
        0
 92
        1
 93
        1
 72
     4
 94
        3
 73
     0
 74
     1
 95
       17
 96
       13
 40
0.0
 40
0.0
 40
0.0
 40
0.0
 40
1.0
 40
1.0
 40
1.0
 40
2.0
 40
2.0
 40
2.0
 40
3.0
 40
3.0
 40
3.0
 40
4.0
 40
4.0
 40
4.0
 40
4.0
 10
94.34101153240434
 20
-148.2872449716087
 10
94.34101153240434
 20
-148.4408962302509
 10
94.42782793863263
 20
-148.6035047371547
 10
94.63074406271384
 20
-148.6035047371547
 10
94.83607175363474
 20
-148.6035047371547
 10
94.93735756090108
 20
-148.4681124845844
 10
94.93735756090108
 20
-148.2872449716087
 10
94.93735756090108
 20
-148.0881184525613
 10
94.81471216162619
 20
-147.9706406965143
 10
94.6369452345873
 20
-147.9706406965143
 10
94.4150810853372
 20
-147.9706406965143
 10
94.34101153240434
 20
-148.1446180185194
 10
94.34101153240434
 20
-148.2872449716087
 97
        0
 97
        0
 75
     2
 76
     1
 98
        0
  0
ENDBLK
  5
CD
330
CA
100
AcDbEntity
  8
0
100
AcDbBlockEnd
  0
BLOCK
  5
E7
330
E5
100
AcDbEntity
  8
0
100
AcDbBlockBegin
  2
block 6
 70
     0
 10
0.0
 20
0.0
 30
0.0
  3
block 6
  1

  0
SPLINE
  5
E9
330
E5
100
AcDbEntity
  8
_U+30EC_U+30A4_U+30E4_U+30FC 1
370
     0
100
AcDbSpline
210
0.0
220
0.0
230
1.0
 70
    11
 71
     3
 72
    26
 73
    22
 74
     0
 42
0.0000000001
 43
0.0000000001
 12
1.0
 22
0.0
 32
0.0
 13
1.0
 23
0.0
 33
0.0
 40
0.0
 40
0.0
 40
0.0
 40
0.0
 40
1.0
 40
1.0
 40
1.0
 40
2.0
 40
2.0
 40
2.0
 40
3.0
 40
3.0
 40
3.0
 40
4.0
 40
4.0
 40
4.0
 40
5.0
 40
5.0
 40
5.0
 40
6.0
 40
6.0
 40
6.0
 40
7.0
 40
7.0
 40
7.0
 40
7.0
 10
115.4940700666126
 20
-152.5974039332048
 30
0.0
 10
115.4940700666126
 20
-152.5974039332048
 30
0.0
 10
114.38991696359
 20
-152.5974039332048
 30
0.0
 10
114.38991696359
 20
-152.5974039332048
 30
0.0
 10
114.38991696359
 20
-152.5974039332048
 30
0.0
 10
114.38991696359
 20
-152.9498372013459
 30
0.0
 10
114.38991696359
 20
-152.9498372013459
 30
0.0
 10
114.38991696359
 20
-152.9498372013459
 30
0.0
 10
114.2417778577243
 20
-152.9498372013459
 30
0.0
 10
114.2417778577243
 20
-152.9498372013459
 30
0.0
 10
114.2269639471377
 20
-152.5949923663651
 30
0.0
 10
114.0640109306854
 20
-152.5453829913776
 30
0.0
 10
113.9496337605751
 20
-152.5136881129133
 30
0.0
 10
113.9496337605751
 20
-152.5136881129133
 30
0.0
 10
113.9496337605751
 20
-152.3576252874314
 30
0.0
 10
113.9496337605751
 20
-152.3576252874314
 30
0.0
 10
113.9496337605751
 20
-152.3576252874314
 30
0.0
 10
115.4940700666126
 20
-152.3576252874314
 30
0.0
 10
115.4940700666126
 20
-152.3576252874314
 30
0.0
 10
115.4940700666126
 20
-152.3576252874314
 30
0.0
 10
115.4940700666126
 20
-152.5974039332048
 30
0.0
 10
115.4940700666126
 20
-152.5974039332048
 30
0.0
  0
HATCH
  5
EA
330
E5
100
AcDbEntity
  8
_U+30EC_U+30A4_U+30E4_U+30FC 1
 62
   179
420
  2234388
100
AcDbHatch
 10
0.0
 20
0.0
 30
0.0
210
0.0
220
0.0
230
1.0
  2
SOLID
 70
     1
 71
     0
 91
        1
 92
        1
 93
        1
 72
     4
 94
        3
 73
     0
 74
     1
 95
       26
 96
       22
 40
0.0
 40
0.0
 40
0.0
 40
0.0
 40
1.0
 40
1.0
 40
1.0
 40
2.0
 40
2.0
 40
2.0
 40
3.0
 40
3.0
 40
3.0
 40
4.0
 40
4.0
 40
4.0
 40
5.0
 40
5.0
 40
5.0
 40
6.0
 40
6.0
 40
6.0
 40
7.0
 40
7.0
 40
7.0
 40
7.0
 10
115.4940700666126
 20
-152.5974039332048
 10
115.4940700666126
 20
-152.5974039332048
 10
114.38991696359
 20
-152.5974039332048
 10
114.38991696359
 20
-152.5974039332048
 10
114.38991696359
 20
-152.5974039332048
 10
114.38991696359
 20
-152.9498372013459
 10
114.38991696359
 20
-152.9498372013459
 10
114.38991696359
 20
-152.9498372013459
 10
114.2417778577243
 20
-152.9498372013459
 10
114.2417778577243
 20
-152.9498372013459
 10
114.2269639471377
 20
-152.5949923663651
 10
114.0640109306854
 20
-152.5453829913776
 10
113.9496337605751
 20
-152.5136881129133
 10
113.9496337605751
 20
-152.5136881129133
 10
113.9496337605751
 20
-152.3576252874314
 10
113.9496337605751
 20
-152.3576252874314
 10
113.9496337605751
 20
-152.3576252874314
 10
115.4940700666126
 20
-152.3576252874314
 10
115.4940700666126
 20
-152.3576252874314
 10
115.4940700666126
 20
-152.3576252874314
 10
115.4940700666126
 20
-152.5974039332048
 10
115.4940700666126
 20
-152.5974039332048
 97
        0
 97
        0
 75
     2
 76
     1
 98
        0
  0
SPLINE
  5
EB
330
E5
100
AcDbEntity
  8
_U+30EC_U+30A4_U+30E4_U+30FC 1
370
     0
100
AcDbSpline
210
0.0
220
0.0
230
1.0
 70
    11
 71
     3
 72
    29
 73
    25
 74
     0
 42
0.0000000001
 43
0.0000000001
 12
1.0
 22
0.0
 32
0.0
 13
1.0
 23
0.0
 33
0.0
 40
0.0
 40
0.0
 40
0.0
 40
0.0
 40
1.0
 40
1.0
 40
1.0
 40
2.0
 40
2.0
 40
2.0
 40
3.0
 40
3.0
 40
3.0
 40
4.0
 40
4.0
 40
4.0
 40
5.0
 40
5.0
 40
5.0
 40
6.0
 40
6.0
 40
6.0
 40
7.0
 40
7.0
 40
7.0
 40
8.0
 40
8.0
 40
8.0
 40
8.0
 10
115.3163031395737
 20
-150.862453846833
 30
0.0
 10
115.5257649450769
 20
-150.9778645455889
 30
0.0
 10
115.5447129702458
 20
-151.1632106826953
 30
0.0
 10
115.5447129702458
 20
-151.2875786297128
 30
0.0
 10
115.5447129702458
 20
-151.4591443848783
 30
0.0
 10
115.4982041811949
 20
-151.6107285862293
 30
0.0
 10
115.3163031395737
 20
-151.7123589030441
 30
0.0
 10
115.1216552446571
 20
-151.8232909776692
 30
0.0
 10
114.8849771848204
 20
-151.8436170410322
 30
0.0
 10
114.7220241683681
 20
-151.8436170410322
 30
0.0
 10
114.5780191770847
 20
-151.8436170410322
 30
0.0
 10
114.3261826971129
 20
-151.8253580349603
 30
0.0
 10
114.127400687614
 20
-151.7123589030441
 30
0.0
 10
113.9244845635328
 20
-151.5972927138368
 30
0.0
 10
113.9010579142331
 20
-151.4253824491228
 30
0.0
 10
113.9010579142331
 20
-151.2875786297128
 30
0.0
 10
113.9010579142331
 20
-151.11773542229
 30
0.0
 10
113.9454996459928
 20
-150.9640841636479
 30
0.0
 10
114.127400687614
 20
-150.862453846833
 30
0.0
 10
114.3199815252395
 20
-150.7560003963388
 30
0.0
 10
114.5483913559115
 20
-150.731195708845
 30
0.0
 10
114.7220241683681
 20
-150.731195708845
 30
0.0
 10
114.893245413985
 20
-150.731195708845
 30
0.0
 10
115.1237223019482
 20
-150.7539333390476
 30
0.0
 10
115.3163031395737
 20
-150.862453846833
 30
0.0
  0
SPLINE
  5
EC
330
E5
100
AcDbEntity
  8
_U+30EC_U+30A4_U+30E4_U+30FC 1
370
     0
100
AcDbSpline
210
0.0
220
0.0
230
1.0
 70
    11
 71
     3
 72
    17
 73
    13
 74
     0
 42
0.0000000001
 43
0.0000000001
 12
1.0
 22
0.0
 32
0.0
 13
1.0
 23
0.0
 33
0.0
 40
0.0
 40
0.0
 40
0.0
 40
0.0
 40
1.0
 40
1.0
 40
1.0
 40
2.0
 40
2.0
 40
2.0
 40
3.0
 40
3.0
 40
3.0
 40
4.0
 40
4.0
 40
4.0
 40
4.0
 10
114.0936387518585
 20
-151.2875786297128
 30
0.0
 10
114.0936387518585
 20
-151.5542290202712
 30
0.0
 10
114.3771701102946
 20
-151.6038383952588
 30
0.0
 10
114.7220241683681
 20
-151.6038383952588
 30
0.0
 10
115.0413845198508
 20
-151.6038383952588
 30
0.0
 10
115.3500650753292
 20
-151.5655978353725
 30
0.0
 10
115.3500650753292
 20
-151.2875786297128
 30
0.0
 10
115.3500650753292
 20
-151.0229952964457
 30
0.0
 10
115.0689452837328
 20
-150.9709743546184
 30
0.0
 10
114.7220241683681
 20
-150.9709743546184
 30
0.0
 10
114.4023193073369
 20
-150.9709743546184
 30
0.0
 10
114.0936387518585
 20
-151.0116264813443
 30
0.0
 10
114.0936387518585
 20
-151.2875786297128
 30
0.0
  0
HATCH
  5
ED
330
E5
100
AcDbEntity
  8
_U+30EC_U+30A4_U+30E4_U+30FC 1
 62
   179
420
  2234388
100
AcDbHatch
 10
0.0
 20
0.0
 30
0.0
210
0.0
220
0.0
230
1.0
  2
SOLID
 70
     1
 71
     0
 91
        2
 92
        1
 93
        1
 72
     4
 94
        3
 73
     0
 74
     1
 95
       29
 96
       25
 40
0.0
 40
0.0
 40
0.0
 40
0.0
 40
1.0
 40
1.0
 40
1.0
 40
2.0
 40
2.0
 40
2.0
 40
3.0
 40
3.0
 40
3.0
 40
4.0
 40
4.0
 40
4.0
 40
5.0
 40
5.0
 40
5.0
 40
6.0
 40
6.0
 40
6.0
 40
7.0
 40
7.0
 40
7.0
 40
8.0
 40
8.0
 40
8.0
 40
8.0
 10
115.3163031395737
 20
-150.862453846833
 10
115.5257649450769
 20
-150.9778645455889
 10
115.5447129702458
 20
-151.1632106826953
 10
115.5447129702458
 20
-151.2875786297128
 10
115.5447129702458
 20
-151.4591443848783
 10
115.4982041811949
 20
-151.6107285862293
 10
115.3163031395737
 20
-151.7123589030441
 10
115.1216552446571
 20
-151.8232909776692
 10
114.8849771848204
 20
-151.8436170410322
 10
114.7220241683681
 20
-151.8436170410322
 10
114.5780191770847
 20
-151.8436170410322
 10
114.3261826971129
 20
-151.8253580349603
 10
114.127400687614
 20
-151.7123589030441
 10
113.9244845635328
 20
-151.5972927138368
 10
113.9010579142331
 20
-151.4253824491228
 10
113.9010579142331
 20
-151.2875786297128
 10
113.9010579142331
 20
-151.11773542229
 10
113.9454996459928
 20
-150.9640841636479
 10
114.127400687614
 20
-150.862453846833
 10
114.3199815252395
 20
-150.7560003963388
 10
114.5483913559115
 20
-150.731195708845
 10
114.7220241683681
 20
-150.731195708845
 10
114.893245413985
 20
-150.731195708845
 10
115.1237223019482
 20
-150.7539333390476
 10
115.3163031395737
 20
-150.862453846833
 97
        0
 97
        0
 92
        1
 93
        1
 72
     4
 94
        3
 73
     0
 74
     1
 95
       17
 96
       13
 40
0.0
 40
0.0
 40
0.0
 40
0.0
 40
1.0
 40
1.0
 40
1.0
 40
2.0
 40
2.0
 40
2.0
 40
3.0
 40
3.0
 40
3.0
 40
4.0
 40
4.0
 40
4.0
 40
4.0
 10
114.0936387518585
 20
-151.2875786297128
 10
114.0936387518585
 20
-151.5542290202712
 10
114.3771701102946
 20
-151.6038383952588
 10
114.7220241683681
 20
-151.6038383952588
 10
115.0413845198508
 20
-151.6038383952588
 10
115.3500650753292
 20
-151.5655978353725
 10
115.3500650753292
 20
-151.2875786297128
 10
115.3500650753292
 20
-151.0229952964457
 10
115.0689452837328
 20
-150.9709743546184
 10
114.7220241683681
 20
-150.9709743546184
 10
114.4023193073369
 20
-150.9709743546184
 10
114.0936387518585
 20
-151.0116264813443
 10
114.0936387518585
 20
-151.2875786297128
 97
        0
 97
        0
 75
     2
 76
     1
 98
        0
  0
ENDBLK
  5
E8
330
E5
100
AcDbEntity
  8
0
100
AcDbBlockEnd
  0
BLOCK
  5
F8
330
F6
100
AcDbEntity
  8
0
100
AcDbBlockBegin
  2
block 7
 70
     0
 10
0.0
 20
0.0
 30
0.0
  3
block 7
  1

  0
SPLINE
  5
FA
330
F6
100
AcDbEntity
  8
_U+30EC_U+30A4_U+30E4_U+30FC 1
370
     0
100
AcDbSpline
210
0.0
220
0.0
230
1.0
 70
    11
 71
     3
 72
    32
 73
    28
 74
     0
 42
0.0000000001
 43
0.0000000001
 12
1.0
 22
0.0
 32
0.0
 13
1.0
 23
0.0
 33
0.0
 40
0.0
 40
0.0
 40
0.0
 40
0.0
 40
1.0
 40
1.0
 40
1.0
 40
2.0
 40
2.0
 40
2.0
 40
3.0
 40
3.0
 40
3.0
 40
4.0
 40
4.0
 40
4.0
 40
5.0
 40
5.0
 40
5.0
 40
6.0
 40
6.0
 40
6.0
 40
7.0
 40
7.0
 40
7.0
 40
8.0
 40
8.0
 40
8.0
 40
9.0
 40
9.0
 40
9.0
 40
9.0
 10
115.5454019893428
 20
-143.0713704069405
 30
0.0
 10
115.5454019893428
 20
-143.6232747036775
 30
0.0
 10
114.9914306353146
 20
-143.6322319519392
 30
0.0
 10
114.7774902056806
 20
-143.6322319519392
 30
0.0
 10
114.5470133177174
 20
-143.6322319519392
 30
0.0
 10
113.899679876039
 20
-143.6119058885762
 30
0.0
 10
113.899679876039
 20
-143.0307182802146
 30
0.0
 10
113.899679876039
 20
-142.8453721431081
 30
0.0
 10
113.9696153143895
 20
-142.5832003766806
 30
0.0
 10
114.3017225191676
 20
-142.5425482499546
 30
0.0
 10
114.3017225191676
 20
-142.5425482499546
 30
0.0
 10
114.3017225191676
 20
-142.7709580806267
 30
0.0
 10
114.3017225191676
 20
-142.7709580806267
 30
0.0
 10
114.2445339341125
 20
-142.7819823861795
 30
0.0
 10
114.0963948282467
 20
-142.8160888314835
 30
0.0
 10
114.0963948282467
 20
-143.0331298470542
 30
0.0
 10
114.0963948282467
 20
-143.3452554980178
 30
0.0
 10
114.4243679184425
 20
-143.387974682035
 30
0.0
 10
114.6293510998149
 20
-143.401755063976
 30
0.0
 10
114.5511474322997
 20
-143.3021918044522
 30
0.0
 10
114.4918917899534
 20
-143.229844799262
 30
0.0
 10
114.4918917899534
 20
-143.0355414138939
 30
0.0
 10
114.4918917899534
 20
-142.843305085817
 30
0.0
 10
114.6000677881903
 20
-142.519810619752
 30
0.0
 10
115.0062445459012
 20
-142.519810619752
 30
0.0
 10
115.3256048973839
 20
-142.519810619752
 30
0.0
 10
115.5454019893428
 20
-142.7323730111919
 30
0.0
 10
115.5454019893428
 20
-143.0713704069405
 30
0.0
  0
SPLINE
  5
FB
330
F6
100
AcDbEntity
  8
_U+30EC_U+30A4_U+30E4_U+30FC 1
370
     0
100
AcDbSpline
210
0.0
220
0.0
230
1.0
 70
    11
 71
     3
 72
    17
 73
    13
 74
     0
 42
0.0000000001
 43
0.0000000001
 12
1.0
 22
0.0
 32
0.0
 13
1.0
 23
0.0
 33
0.0
 40
0.0
 40
0.0
 40
0.0
 40
0.0
 40
1.0
 40
1.0
 40
1.0
 40
2.0
 40
2.0
 40
2.0
 40
3.0
 40
3.0
 40
3.0
 40
4.0
 40
4.0
 40
4.0
 40
4.0
 10
114.68653968487
 20
-143.0534559104172
 30
0.0
 10
114.68653968487
 20
-143.3338866829165
 30
0.0
 10
114.8980685476644
 20
-143.3745388096425
 30
0.0
 10
115.0145127750658
 20
-143.3745388096425
 30
0.0
 10
115.1902126448136
 20
-143.3745388096425
 30
0.0
 10
115.3531656612659
 20
-143.2729084928276
 30
0.0
 10
115.3531656612659
 20
-143.0761935406198
 30
0.0
 10
115.3531656612659
 20
-142.9473469694715
 30
0.0
 10
115.2939100189196
 20
-142.7595892655254
 30
0.0
 10
115.0083116031924
 20
-142.7595892655254
 30
0.0
 10
114.7840358871026
 20
-142.7595892655254
 30
0.0
 10
114.68653968487
 20
-142.9087619000367
 30
0.0
 10
114.68653968487
 20
-143.0534559104172
 30
0.0
  0
HATCH
  5
FC
330
F6
100
AcDbEntity
  8
_U+30EC_U+30A4_U+30E4_U+30FC 1
 62
   179
420
  2234388
100
AcDbHatch
 10
0.0
 20
0.0
 30
0.0
210
0.0
220
0.0
230
1.0
  2
SOLID
 70
     1
 71
     0
 91
        2
 92
        1
 93
        1
 72
     4
 94
        3
 73
     0
 74
     1
 95
       32
 96
       28
 40
0.0
 40
0.0
 40
0.0
 40
0.0
 40
1.0
 40
1.0
 40
1.0
 40
2.0
 40
2.0
 40
2.0
 40
3.0
 40
3.0
 40
3.0
 40
4.0
 40
4.0
 40
4.0
 40
5.0
 40
5.0
 40
5.0
 40
6.0
 40
6.0
 40
6.0
 40
7.0
 40
7.0
 40
7.0
 40
8.0
 40
8.0
 40
8.0
 40
9.0
 40
9.0
 40
9.0
 40
9.0
 10
115.5454019893428
 20
-143.0713704069405
 10
115.5454019893428
 20
-143.6232747036775
 10
114.9914306353146
 20
-143.6322319519392
 10
114.7774902056806
 20
-143.6322319519392
 10
114.5470133177174
 20
-143.6322319519392
 10
113.899679876039
 20
-143.6119058885762
 10
113.899679876039
 20
-143.0307182802146
 10
113.899679876039
 20
-142.8453721431081
 10
113.9696153143895
 20
-142.5832003766806
 10
114.3017225191676
 20
-142.5425482499546
 10
114.3017225191676
 20
-142.5425482499546
 10
114.3017225191676
 20
-142.7709580806267
 10
114.3017225191676
 20
-142.7709580806267
 10
114.2445339341125
 20
-142.7819823861795
 10
114.0963948282467
 20
-142.8160888314835
 10
114.0963948282467
 20
-143.0331298470542
 10
114.0963948282467
 20
-143.3452554980178
 10
114.4243679184425
 20
-143.387974682035
 10
114.6293510998149
 20
-143.401755063976
 10
114.5511474322997
 20
-143.3021918044522
 10
114.4918917899534
 20
-143.229844799262
 10
114.4918917899534
 20
-143.0355414138939
 10
114.4918917899534
 20
-142.843305085817
 10
114.6000677881903
 20
-142.519810619752
 10
115.0062445459012
 20
-142.519810619752
 10
115.3256048973839
 20
-142.519810619752
 10
115.5454019893428
 20
-142.7323730111919
 10
115.5454019893428
 20
-143.0713704069405
 97
        0
 97
        0
 92
        1
 93
        1
 72
     4
 94
        3
 73
     0
 74
     1
 95
       17
 96
       13
 40
0.0
 40
0.0
 40
0.0
 40
0.0
 40
1.0
 40
1.0
 40
1.0
 40
2.0
 40
2.0
 40
2.0
 40
3.0
 40
3.0
 40
3.0
 40
4.0
 40
4.0
 40
4.0
 40
4.0
 10
114.68653968487
 20
-143.0534559104172
 10
114.68653968487
 20
-143.3338866829165
 10
114.8980685476644
 20
-143.3745388096425
 10
115.0145127750658
 20
-143.3745388096425
 10
115.1902126448136
 20
-143.3745388096425
 10
115.3531656612659
 20
-143.2729084928276
 10
115.3531656612659
 20
-143.0761935406198
 10
115.3531656612659
 20
-142.9473469694715
 10
115.2939100189196
 20
-142.7595892655254
 10
115.0083116031924
 20
-142.7595892655254
 10
114.7840358871026
 20
-142.7595892655254
 10
114.68653968487
 20
-142.9087619000367
 10
114.68653968487
 20
-143.0534559104172
 97
        0
 97
        0
 75
     2
 76
     1
 98
        0
  0
ENDBLK
  5
F9
330
F6
100
AcDbEntity
  8
0
100
AcDbBlockEnd
  0
ENDSEC
  0
SECTION
  2
ENTITIES
  0
SPLINE
  5
41
330
1F
100
AcDbEntity
  8
_U+30EC_U+30A4_U+30E4_U+30FC 1
370
     0
100
AcDbSpline
210
0.0
220
0.0
230
1.0
 70
    11
 71
     3
 72
    44
 73
    40
 74
     0
 42
0.0000000001
 43
0.0000000001
 12
1.0
 22
0.0
 32
0.0
 13
1.0
 23
0.0
 33
0.0
 40
0.0
 40
0.0
 40
0.0
 40
0.0
 40
1.0
 40
1.0
 40
1.0
 40
2.0
 40
2.0
 40
2.0
 40
3.0
 40
3.0
 40
3.0
 40
4.0
 40
4.0
 40
4.0
 40
5.0
 40
5.0
 40
5.0
 40
6.0
 40
6.0
 40
6.0
 40
7.0
 40
7.0
 40
7.0
 40
8.0
 40
8.0
 40
8.0
 40
9.0
 40
9.0
 40
9.0
 40
10.0
 40
10.0
 40
10.0
 40
11.0
 40
11.0
 40
11.0
 40
12.0
 40
12.0
 40
12.0
 40
13.0
 40
13.0
 40
13.0
 40
13.0
 10
100.6776940835817
 20
-140.9172275614775
 30
0.0
 10
100.6776940835817
 20
-140.3647849685709
 30
0.0
 10
100.2296594157249
 20
-139.9171055761861
 30
0.0
 10
99.67791660783877
 20
-139.9171055761861
 30
0.0
 10
99.67791660783877
 20
-139.9171055761861
 30
0.0
 10
99.67791660783877
 20
-156.9171122688491
 30
0.0
 10
99.67791660783877
 20
-156.9171122688491
 30
0.0
 10
99.67791660783877
 20
-157.4695656276791
 30
0.0
 10
100.1259405097721
 20
-157.916889744592
 30
0.0
 10
100.6776940835817
 20
-157.916889744592
 30
0.0
 10
100.6776940835817
 20
-157.916889744592
 30
0.0
 10
113.6782463637245
 20
-157.916889744592
 30
0.0
 10
113.6782463637245
 20
-157.916889744592
 30
0.0
 10
113.6782463637245
 20
-157.4755622470081
 30
0.0
 10
113.3201717517264
 20
-157.1171431254614
 30
0.0
 10
112.878144469122
 20
-157.1171431254614
 30
0.0
 10
112.878144469122
 20
-157.1171431254614
 30
0.0
 10
107.0238075836499
 20
-157.1171431254614
 30
0.0
 10
107.0238075836499
 20
-157.1171431254614
 30
0.0
 10
107.0238075836499
 20
-157.1171431254614
 30
0.0
 10
106.6780814857817
 20
-156.9171122688491
 30
0.0
 10
106.6780814857817
 20
-156.9171122688491
 30
0.0
 10
106.6780814857817
 20
-156.9171122688491
 30
0.0
 10
100.6780385931302
 20
-156.9171122688491
 30
0.0
 10
100.6780385931302
 20
-156.9171122688491
 30
0.0
 10
100.6780385931302
 20
-156.9171122688491
 30
0.0
 10
100.6780385931302
 20
-146.9172812200524
 30
0.0
 10
100.6780385931302
 20
-146.9172812200524
 30
0.0
 10
100.6780385931302
 20
-146.9172812200524
 30
0.0
 10
106.6780814857817
 20
-146.9172812200524
 30
0.0
 10
106.6780814857817
 20
-146.9172812200524
 30
0.0
 10
106.6780814857817
 20
-146.3644725857505
 30
0.0
 10
106.2300575838483
 20
-145.9171484688379
 30
0.0
 10
105.6779595004902
 20
-145.9171484688379
 30
0.0
 10
105.6779595004902
 20
-145.9171484688379
 30
0.0
 10
100.6780385931302
 20
-145.9171484688379
 30
0.0
 10
100.6780385931302
 20
-145.9171484688379
 30
0.0
 10
100.6780385931302
 20
-145.9171484688379
 30
0.0
 10
100.6776940835817
 20
-140.9172275614775
 30
0.0
 10
100.6776940835817
 20
-140.9172275614775
 30
0.0
  0
HATCH
  5
42
330
1F
100
AcDbEntity
  8
_U+30EC_U+30A4_U+30E4_U+30FC 1
 62
    43
420
 13286281
100
AcDbHatch
 10
0.0
 20
0.0
 30
0.0
210
0.0
220
0.0
230
1.0
  2
SOLID
 70
     1
 71
     0
 91
        1
 92
        1
 93
        1
 72
     4
 94
        3
 73
     0
 74
     1
 95
       44
 96
       40
 40
0.0
 40
0.0
 40
0.0
 40
0.0
 40
1.0
 40
1.0
 40
1.0
 40
2.0
 40
2.0
 40
2.0
 40
3.0
 40
3.0
 40
3.0
 40
4.0
 40
4.0
 40
4.0
 40
5.0
 40
5.0
 40
5.0
 40
6.0
 40
6.0
 40
6.0
 40
7.0
 40
7.0
 40
7.0
 40
8.0
 40
8.0
 40
8.0
 40
9.0
 40
9.0
 40
9.0
 40
10.0
 40
10.0
 40
10.0
 40
11.0
 40
11.0
 40
11.0
 40
12.0
 40
12.0
 40
12.0
 40
13.0
 40
13.0
 40
13.0
 40
13.0
 10
100.6776940835817
 20
-140.9172275614775
 10
100.6776940835817
 20
-140.3647849685709
 10
100.2296594157249
 20
-139.9171055761861
 10
99.67791660783877
 20
-139.9171055761861
 10
99.67791660783877
 20
-139.9171055761861
 10
99.67791660783877
 20
-156.9171122688491
 10
99.67791660783877
 20
-156.9171122688491
 10
99.67791660783877
 20
-157.4695656276791
 10
100.1259405097721
 20
-157.916889744592
 10
100.6776940835817
 20
-157.916889744592
 10
100.6776940835817
 20
-157.916889744592
 10
113.6782463637245
 20
-157.916889744592
 10
113.6782463637245
 20
-157.916889744592
 10
113.6782463637245
 20
-157.4755622470081
 10
113.3201717517264
 20
-157.1171431254614
 10
112.878144469122
 20
-157.1171431254614
 10
112.878144469122
 20
-157.1171431254614
 10
107.0238075836499
 20
-157.1171431254614
 10
107.0238075836499
 20
-157.1171431254614
 10
107.0238075836499
 20
-157.1171431254614
 10
106.6780814857817
 20
-156.9171122688491
 10
106.6780814857817
 20
-156.9171122688491
 10
106.6780814857817
 20
-156.9171122688491
 10
100.6780385931302
 20
-156.9171122688491
 10
100.6780385931302
 20
-156.9171122688491
 10
100.6780385931302
 20
-156.9171122688491
 10
100.6780385931302
 20
-146.9172812200524
 10
100.6780385931302
 20
-146.9172812200524
 10
100.6780385931302
 20
-146.9172812200524
 10
106.6780814857817
 20
-146.9172812200524
 10
106.6780814857817
 20
-146.9172812200524
 10
106.6780814857817
 20
-146.3644725857505
 10
106.2300575838483
 20
-145.9171484688379
 10
105.6779595004902
 20
-145.9171484688379
 10
105.6779595004902
 20
-145.9171484688379
 10
100.6780385931302
 20
-145.9171484688379
 10
100.6780385931302
 20
-145.9171484688379
 10
100.6780385931302
 20
-145.9171484688379
 10
100.6776940835817
 20
-140.9172275614775
 10
100.6776940835817
 20
-140.9172275614775
 97
        0
 97
        0
 75
     2
 76
     1
 98
        0
  0
POLYLINE
  5
43
330
1F
100
AcDbEntity
  8
_U+30EC_U+30A4_U+30E4_U+30FC 1
 62
   179
420
  2234388
370
    25
100
AcDb2dPolyline
 66
     1
 10
0.0
 20
0.0
 30
0.0
  0
VERTEX
  5
44
330
43
100
AcDbEntity
  8
_U+30EC_U+30A4_U+30E4_U+30FC 1
 62
   179
420
  2234388
370
    25
100
AcDbVertex
100
AcDb2dVertex
 10
100.6776940835817
 20
-156.916972311845
 30
0.0
  0
VERTEX
  5
45
330
43
100
AcDbEntity
  8
_U+30EC_U+30A4_U+30E4_U+30FC 1
 62
   179
420
  2234388
370
    25
100
AcDbVertex
100
AcDb2dVertex
 10
106.6777369762331
 20
-156.916972311845
 30
0.0
  0
SEQEND
  5
46
330
43
100
AcDbEntity
  8
_U+30EC_U+30A4_U+30E4_U+30FC 1
 62
   179
420
  2234388
370
    25
  0
POLYLINE
  5
47
330
1F
100
AcDbEntity
  8
_U+30EC_U+30A4_U+30E4_U+30FC 1
 62
   179
420
  2234388
370
    25
100
AcDb2dPolyline
 66
     1
 10
0.0
 20
0.0
 30
0.0
  0
VERTEX
  5
48
330
47
100
AcDbEntity
  8
_U+30EC_U+30A4_U+30E4_U+30FC 1
 62
   179
420
  2234388
370
    25
100
AcDbVertex
100
AcDb2dVertex
 10
100.6776940835817
 20
-146.9168936468103
 30
0.0
  0
VERTEX
  5
49
330
47
100
AcDbEntity
  8
_U+30EC_U+30A4_U+30E4_U+30FC 1
 62
   179
420
  2234388
370
    25
100
AcDbVertex
100
AcDb2dVertex
 10
106.6777369762331
 20
-146.9168936468103
 30
0.0
  0
SEQEND
  5
4A
330
47
100
AcDbEntity
  8
_U+30EC_U+30A4_U+30E4_U+30FC 1
 62
   179
420
  2234388
370
    25
  0
POLYLINE
  5
4B
330
1F
100
AcDbEntity
  8
_U+30EC_U+30A4_U+30E4_U+30FC 1
 62
   179
420
  2234388
370
    25
100
AcDb2dPolyline
 66
     1
 10
0.0
 20
0.0
 30
0.0
  0
VERTEX
  5
4C
330
4B
100
AcDbEntity
  8
_U+30EC_U+30A4_U+30E4_U+30FC 1
 62
   179
420
  2234388
370
    25
100
AcDbVertex
100
AcDb2dVertex
 10
100.6776940835817
 20
-157.9170619993662
 30
0.0
  0
VERTEX
  5
4D
330
4B
100
AcDbEntity
  8
_U+30EC_U+30A4_U+30E4_U+30FC 1
 62
   179
420
  2234388
370
    25
100
AcDbVertex
100
AcDb2dVertex
 10
113.6775358127807
 20
-157.9170619993662
 30
0.0
  0
SEQEND
  5
4E
330
4B
100
AcDbEntity
  8
_U+30EC_U+30A4_U+30E4_U+30FC 1
 62
   179
420
  2234388
370
    25
  0
POLYLINE
  5
4F
330
1F
100
AcDbEntity
  8
_U+30EC_U+30A4_U+30E4_U+30FC 1
 62
   179
420
  2234388
370
    25
100
AcDb2dPolyline
 66
     1
 10
0.0
 20
0.0
 30
0.0
  0
VERTEX
  5
50
330
4F
100
AcDbEntity
  8
_U+30EC_U+30A4_U+30E4_U+30FC 1
 62
   179
420
  2234388
370
    25
100
AcDbVertex
100
AcDb2dVertex
 10
99.67725988651189
 20
-139.9171378739563
 30
0.0
  0
VERTEX
  5
51
330
4F
100
AcDbEntity
  8
_U+30EC_U+30A4_U+30E4_U+30FC 1
 62
   179
420
  2234388
370
    25
100
AcDbVertex
100
AcDb2dVertex
 10
99.67725988651189
 20
-156.9168000570707
 30
0.0
  0
SEQEND
  5
52
330
4F
100
AcDbEntity
  8
_U+30EC_U+30A4_U+30E4_U+30FC 1
 62
   179
420
  2234388
370
    25
  0
POLYLINE
  5
53
330
1F
100
AcDbEntity
  8
_U+30EC_U+30A4_U+30E4_U+30FC 1
 62
   179
420
  2234388
370
    25
100
AcDb2dPolyline
 66
     1
 10
0.0
 20
0.0
 30
0.0
  0
VERTEX
  5
54
330
53
100
AcDbEntity
  8
_U+30EC_U+30A4_U+30E4_U+30FC 1
 62
   179
420
  2234388
370
    25
100
AcDbVertex
100
AcDb2dVertex
 10
100.6776940835817
 20
-140.9169153496992
 30
0.0
  0
VERTEX
  5
55
330
53
100
AcDbEntity
  8
_U+30EC_U+30A4_U+30E4_U+30FC 1
 62
   179
420
  2234388
370
    25
100
AcDbVertex
100
AcDb2dVertex
 10
100.6776940835817
 20
-145.9168362570592
 30
0.0
  0
SEQEND
  5
56
330
53
100
AcDbEntity
  8
_U+30EC_U+30A4_U+30E4_U+30FC 1
 62
   179
420
  2234388
370
    25
  0
POLYLINE
  5
57
330
1F
100
AcDbEntity
  8
_U+30EC_U+30A4_U+30E4_U+30FC 1
 62
   179
420
  2234388
370
    25
100
AcDb2dPolyline
 66
     1
 10
0.0
 20
0.0
 30
0.0
  0
VERTEX
  5
58
330
57
100
AcDbEntity
  8
_U+30EC_U+30A4_U+30E4_U+30FC 1
 62
   179
420
  2234388
370
    25
100
AcDbVertex
100
AcDb2dVertex
 10
100.6776940835817
 20
-145.9167608955955
 30
0.0
  0
VERTEX
  5
59
330
57
100
AcDbEntity
  8
_U+30EC_U+30A4_U+30E4_U+30FC 1
 62
   179
420
  2234388
370
    25
100
AcDbVertex
100
AcDb2dVertex
 10
105.6772597154698
 20
-145.9167608955955
 30
0.0
  0
SEQEND
  5
5A
330
57
100
AcDbEntity
  8
_U+30EC_U+30A4_U+30E4_U+30FC 1
 62
   179
420
  2234388
370
    25
  0
POLYLINE
  5
5B
330
1F
100
AcDbEntity
  8
_U+30EC_U+30A4_U+30E4_U+30FC 1
 62
   179
420
  2234388
370
    25
100
AcDb2dPolyline
 66
     1
 10
0.0
 20
0.0
 30
0.0
  0
VERTEX
  5
5C
330
5B
100
AcDbEntity
  8
_U+30EC_U+30A4_U+30E4_U+30FC 1
 62
   179
420
  2234388
370
    25
100
AcDbVertex
100
AcDb2dVertex
 10
100.6776940835817
 20
-146.9168936468103
 30
0.0
  0
VERTEX
  5
5D
330
5B
100
AcDbEntity
  8
_U+30EC_U+30A4_U+30E4_U+30FC 1
 62
   179
420
  2234388
370
    25
100
AcDbVertex
100
AcDb2dVertex
 10
100.6776940835817
 20
-156.9170907370023
 30
0.0
  0
SEQEND
  5
5E
330
5B
100
AcDbEntity
  8
_U+30EC_U+30A4_U+30E4_U+30FC 1
 62
   179
420
  2234388
370
    25
  0
POLYLINE
  5
5F
330
1F
100
AcDbEntity
  8
_U+30EC_U+30A4_U+30E4_U+30FC 1
 62
   179
420
  2234388
370
    25
100
AcDb2dPolyline
 66
     1
 10
0.0
 20
0.0
 30
0.0
  0
VERTEX
  5
60
330
5F
100
AcDbEntity
  8
_U+30EC_U+30A4_U+30E4_U+30FC 1
 62
   179
420
  2234388
370
    25
100
AcDbVertex
100
AcDb2dVertex
 10
107.0359838430056
 20
-157.1171431254614
 30
0.0
  0
VERTEX
  5
61
330
5F
100
AcDbEntity
  8
_U+30EC_U+30A4_U+30E4_U+30FC 1
 62
   179
420
  2234388
370
    25
100
AcDbVertex
100
AcDb2dVertex
 10
112.8776277047993
 20
-157.1171431254614
 30
0.0
  0
SEQEND
  5
62
330
5F
100
AcDbEntity
  8
_U+30EC_U+30A4_U+30E4_U+30FC 1
 62
   179
420
  2234388
370
    25
  0
POLYLINE
  5
63
330
1F
100
AcDbEntity
  8
_U+30EC_U+30A4_U+30E4_U+30FC 1
 62
   179
420
  2234388
370
    25
100
AcDb2dPolyline
 66
     1
 10
0.0
 20
0.0
 30
0.0
  0
VERTEX
  5
64
330
63
100
AcDbEntity
  8
_U+30EC_U+30A4_U+30E4_U+30FC 1
 62
   179
420
  2234388
370
    25
100
AcDbVertex
100
AcDb2dVertex
 10
106.677704678463
 20
-156.916972311845
 30
0.0
  0
VERTEX
  5
65
330
63
100
AcDbEntity
  8
_U+30EC_U+30A4_U+30E4_U+30FC 1
 62
   179
420
  2234388
370
    25
100
AcDbVertex
100
AcDb2dVertex
 10
107.0234200104078
 20
-157.1170031684573
 30
0.0
  0
SEQEND
  5
66
330
63
100
AcDbEntity
  8
_U+30EC_U+30A4_U+30E4_U+30FC 1
 62
   179
420
  2234388
370
    25
  0
SPLINE
  5
67
330
1F
100
AcDbEntity
  8
_U+30EC_U+30A4_U+30E4_U+30FC 1
 62
   179
420
  2234388
370
    25
100
AcDbSpline
210
0.0
220
0.0
230
1.0
 70
     8
 71
     3
 72
     8
 73
     4
 74
     0
 42
0.0000000001
 43
0.0000000001
 12
1.0
 22
0.0
 32
0.0
 13
1.0
 23
0.0
 33
0.0
 40
0.0
 40
0.0
 40
0.0
 40
0.0
 40
1.0
 40
1.0
 40
1.0
 40
1.0
 10
99.67725988651189
 20
-156.916972311845
 30
0.0
 10
99.67725988651189
 20
-157.469425670675
 30
0.0
 10
100.1252837884456
 20
-157.9171050630598
 30
0.0
 10
100.6777371472752
 20
-157.9171050630598
 30
0.0
  0
SPLINE
  5
68
330
1F
100
AcDbEntity
  8
_U+30EC_U+30A4_U+30E4_U+30FC 1
 62
   179
420
  2234388
370
     9
100
AcDbSpline
210
0.0
220
0.0
230
1.0
 70
    11
 71
     3
 72
    17
 73
    13
 74
     0
 42
0.0000000001
 43
0.0000000001
 12
1.0
 22
0.0
 32
0.0
 13
1.0
 23
0.0
 33
0.0
 40
0.0
 40
0.0
 40
0.0
 40
0.0
 40
1.0
 40
1.0
 40
1.0
 40
2.0
 40
2.0
 40
2.0
 40
3.0
 40
3.0
 40
3.0
 40
4.0
 40
4.0
 40
4.0
 40
4.0
 10
99.77715688966107
 20
-144.1511063957117
 30
0.0
 10
99.77715688966107
 20
-144.0960817612579
 30
0.0
 10
99.73234911650572
 20
-144.0512739881028
 30
0.0
 10
99.67731371612885
 20
-144.0512739881028
 30
0.0
 10
99.62227831575198
 20
-144.0512739881028
 30
0.0
 10
99.57748130852035
 20
-144.0960817612579
 30
0.0
 10
99.57748130852035
 20
-144.1511063957117
 30
0.0
 10
99.57748130852035
 20
-144.2061417960886
 30
0.0
 10
99.62227831575198
 20
-144.2509495692433
 30
0.0
 10
99.67731371612885
 20
-144.2509495692433
 30
0.0
 10
99.73234911650572
 20
-144.2509495692433
 30
0.0
 10
99.77715688966107
 20
-144.2061417960886
 30
0.0
 10
99.77715688966107
 20
-144.1511063957117
 30
0.0
  0
SPLINE
  5
69
330
1F
100
AcDbEntity
  8
_U+30EC_U+30A4_U+30E4_U+30FC 1
 62
   179
420
  2234388
370
     9
100
AcDbSpline
210
0.0
220
0.0
230
1.0
 70
    11
 71
     3
 72
    17
 73
    13
 74
     0
 42
0.0000000001
 43
0.0000000001
 12
1.0
 22
0.0
 32
0.0
 13
1.0
 23
0.0
 33
0.0
 40
0.0
 40
0.0
 40
0.0
 40
0.0
 40
1.0
 40
1.0
 40
1.0
 40
2.0
 40
2.0
 40
2.0
 40
3.0
 40
3.0
 40
3.0
 40
4.0
 40
4.0
 40
4.0
 40
4.0
 10
100.7776018526539
 20
-144.1511063957117
 30
0.0
 10
100.7776018526539
 20
-144.0960817612579
 30
0.0
 10
100.7327940794989
 20
-144.0512739881028
 30
0.0
 10
100.677758679122
 20
-144.0512739881028
 30
0.0
 10
100.6220234937247
 20
-144.0512739881028
 30
0.0
 10
100.5772157205697
 20
-144.0960817612579
 30
0.0
 10
100.5772157205697
 20
-144.1511063957117
 30
0.0
 10
100.5772157205697
 20
-144.2061417960886
 30
0.0
 10
100.6220234937247
 20
-144.2509495692433
 30
0.0
 10
100.677758679122
 20
-144.2509495692433
 30
0.0
 10
100.7327940794989
 20
-144.2509495692433
 30
0.0
 10
100.7776018526539
 20
-144.2061417960886
 30
0.0
 10
100.7776018526539
 20
-144.1511063957117
 30
0.0
  0
SPLINE
  5
6A
330
1F
100
AcDbEntity
  8
_U+30EC_U+30A4_U+30E4_U+30FC 1
 62
   179
420
  2234388
370
     9
100
AcDbSpline
210
0.0
220
0.0
230
1.0
 70
    11
 71
     3
 72
    17
 73
    13
 74
     0
 42
0.0000000001
 43
0.0000000001
 12
1.0
 22
0.0
 32
0.0
 13
1.0
 23
0.0
 33
0.0
 40
0.0
 40
0.0
 40
0.0
 40
0.0
 40
1.0
 40
1.0
 40
1.0
 40
2.0
 40
2.0
 40
2.0
 40
3.0
 40
3.0
 40
3.0
 40
4.0
 40
4.0
 40
4.0
 40
4.0
 10
113.6773850898532
 20
-161.9171731332132
 30
0.0
 10
113.6773850898532
 20
-161.8621484987597
 30
0.0
 10
113.6325773166982
 20
-161.8173407256047
 30
0.0
 10
113.5775419163213
 20
-161.8173407256047
 30
0.0
 10
113.5225065159445
 20
-161.8173407256047
 30
0.0
 10
113.4776987427894
 20
-161.8621484987597
 30
0.0
 10
113.4776987427894
 20
-161.9171731332132
 30
0.0
 10
113.4776987427894
 20
-161.9722085335901
 30
0.0
 10
113.5225065159445
 20
-162.0170163067451
 30
0.0
 10
113.5775419163213
 20
-162.0170163067451
 30
0.0
 10
113.6325773166982
 20
-162.0170163067451
 30
0.0
 10
113.6773850898532
 20
-161.9722085335901
 30
0.0
 10
113.6773850898532
 20
-161.9171731332132
 30
0.0
  0
SPLINE
  5
6B
330
1F
100
AcDbEntity
  8
_U+30EC_U+30A4_U+30E4_U+30FC 1
 62
   179
420
  2234388
370
     9
100
AcDbSpline
210
0.0
220
0.0
230
1.0
 70
    11
 71
     3
 72
    17
 73
    13
 74
     0
 42
0.0000000001
 43
0.0000000001
 12
1.0
 22
0.0
 32
0.0
 13
1.0
 23
0.0
 33
0.0
 40
0.0
 40
0.0
 40
0.0
 40
0.0
 40
1.0
 40
1.0
 40
1.0
 40
2.0
 40
2.0
 40
2.0
 40
3.0
 40
3.0
 40
3.0
 40
4.0
 40
4.0
 40
4.0
 40
4.0
 10
99.77715688966107
 20
-161.9171731332132
 30
0.0
 10
99.77715688966107
 20
-161.8621484987597
 30
0.0
 10
99.73234911650572
 20
-161.8173407256047
 30
0.0
 10
99.67731371612885
 20
-161.8173407256047
 30
0.0
 10
99.62227831575198
 20
-161.8173407256047
 30
0.0
 10
99.57748130852035
 20
-161.8621484987597
 30
0.0
 10
99.57748130852035
 20
-161.9171731332132
 30
0.0
 10
99.57748130852035
 20
-161.9722085335901
 30
0.0
 10
99.62227831575198
 20
-162.0170163067451
 30
0.0
 10
99.67731371612885
 20
-162.0170163067451
 30
0.0
 10
99.73234911650572
 20
-162.0170163067451
 30
0.0
 10
99.77715688966107
 20
-161.9722085335901
 30
0.0
 10
99.77715688966107
 20
-161.9171731332132
 30
0.0
  0
SPLINE
  5
6C
330
1F
100
AcDbEntity
  8
_U+30EC_U+30A4_U+30E4_U+30FC 1
 62
   179
420
  2234388
370
    25
100
AcDbSpline
210
0.0
220
0.0
230
1.0
 70
     8
 71
     3
 72
     8
 73
     4
 74
     0
 42
0.0000000001
 43
0.0000000001
 12
1.0
 22
0.0
 32
0.0
 13
1.0
 23
0.0
 33
0.0
 40
0.0
 40
0.0
 40
0.0
 40
0.0
 40
1.0
 40
1.0
 40
1.0
 40
1.0
 10
100.6776940835817
 20
-140.9169153496992
 30
0.0
 10
100.6776940835817
 20
-140.365172541813
 30
0.0
 10
100.2296594157249
 20
-139.9171486398797
 30
0.0
 10
99.67720605689495
 20
-139.9171486398797
 30
0.0
  0
SPLINE
  5
6D
330
1F
100
AcDbEntity
  8
_U+30EC_U+30A4_U+30E4_U+30FC 1
 62
   179
420
  2234388
370
    25
100
AcDbSpline
210
0.0
220
0.0
230
1.0
 70
     8
 71
     3
 72
     8
 73
     4
 74
     0
 42
0.0000000001
 43
0.0000000001
 12
1.0
 22
0.0
 32
0.0
 13
1.0
 23
0.0
 33
0.0
 40
0.0
 40
0.0
 40
0.0
 40
0.0
 40
1.0
 40
1.0
 40
1.0
 40
1.0
 10
106.677704678463
 20
-146.9168936468103
 30
0.0
 10
106.677704678463
 20
-146.3648063293756
 30
0.0
 10
106.2296700106062
 20
-145.9167716615189
 30
0.0
 10
105.6772166517762
 20
-145.9167716615189
 30
0.0
  0
SPLINE
  5
6E
330
1F
100
AcDbEntity
  8
_U+30EC_U+30A4_U+30E4_U+30FC 1
 62
   179
420
  2234388
370
    25
100
AcDbSpline
210
0.0
220
0.0
230
1.0
 70
     8
 71
     3
 72
     8
 73
     4
 74
     0
 42
0.0000000001
 43
0.0000000001
 12
1.0
 22
0.0
 32
0.0
 13
1.0
 23
0.0
 33
0.0
 40
0.0
 40
0.0
 40
0.0
 40
0.0
 40
1.0
 40
1.0
 40
1.0
 40
1.0
 10
113.6773850898532
 20
-157.9170619993662
 30
0.0
 10
113.6773850898532
 20
-157.4753899922338
 30
0.0
 10
113.3189444364598
 20
-157.1169708706871
 30
0.0
 10
112.8772831952507
 20
-157.1169708706871
 30
0.0
  0
SPLINE
  5
6F
330
1F
100
AcDbEntity
  8
_U+30EC_U+30A4_U+30E4_U+30FC 1
 62
   179
420
  2234388
370
     9
100
AcDbSpline
210
0.0
220
0.0
230
1.0
 70
    11
 71
     3
 72
    17
 73
    13
 74
     0
 42
0.0000000001
 43
0.0000000001
 12
1.0
 22
0.0
 32
0.0
 13
1.0
 23
0.0
 33
0.0
 40
0.0
 40
0.0
 40
0.0
 40
0.0
 40
1.0
 40
1.0
 40
1.0
 40
2.0
 40
2.0
 40
2.0
 40
3.0
 40
3.0
 40
3.0
 40
4.0
 40
4.0
 40
4.0
 40
4.0
 10
95.777401031286
 20
-139.9171378739563
 30
0.0
 10
95.777401031286
 20
-139.8621132395028
 30
0.0
 10
95.73259325813066
 20
-139.8173054663478
 30
0.0
 10
95.6775578577538
 20
-139.8173054663478
 30
0.0
 10
95.62252245737693
 20
-139.8173054663478
 30
0.0
 10
95.57772545014528
 20
-139.8621132395028
 30
0.0
 10
95.57772545014528
 20
-139.9171378739563
 30
0.0
 10
95.57772545014528
 20
-139.9721732743331
 30
0.0
 10
95.62252245737693
 20
-140.0169810474882
 30
0.0
 10
95.6775578577538
 20
-140.0169810474882
 30
0.0
 10
95.73259325813066
 20
-140.0169810474882
 30
0.0
 10
95.777401031286
 20
-139.9721732743331
 30
0.0
 10
95.777401031286
 20
-139.9171378739563
 30
0.0
  0
SPLINE
  5
70
330
1F
100
AcDbEntity
  8
_U+30EC_U+30A4_U+30E4_U+30FC 1
 62
   179
420
  2234388
370
     9
100
AcDbSpline
210
0.0
220
0.0
230
1.0
 70
    11
 71
     3
 72
    17
 73
    13
 74
     0
 42
0.0000000001
 43
0.0000000001
 12
1.0
 22
0.0
 32
0.0
 13
1.0
 23
0.0
 33
0.0
 40
0.0
 40
0.0
 40
0.0
 40
0.0
 40
1.0
 40
1.0
 40
1.0
 40
2.0
 40
2.0
 40
2.0
 40
3.0
 40
3.0
 40
3.0
 40
4.0
 40
4.0
 40
4.0
 40
4.0
 10
95.777401031286
 20
-157.9170619993662
 30
0.0
 10
95.777401031286
 20
-157.8620373649128
 30
0.0
 10
95.73259325813066
 20
-157.8172295917577
 30
0.0
 10
95.6775578577538
 20
-157.8172295917577
 30
0.0
 10
95.62252245737693
 20
-157.8172295917577
 30
0.0
 10
95.57772545014528
 20
-157.8620373649128
 30
0.0
 10
95.57772545014528
 20
-157.9170619993662
 30
0.0
 10
95.57772545014528
 20
-157.972452675215
 30
0.0
 10
95.62252245737693
 20
-158.0172604483701
 30
0.0
 10
95.6775578577538
 20
-158.0172604483701
 30
0.0
 10
95.73259325813066
 20
-158.0172604483701
 30
0.0
 10
95.777401031286
 20
-157.972452675215
 30
0.0
 10
95.777401031286
 20
-157.9170619993662
 30
0.0
  0
SPLINE
  5
71
330
1F
100
AcDbEntity
  8
_U+30EC_U+30A4_U+30E4_U+30FC 1
 62
   179
420
  2234388
370
     9
100
AcDbSpline
210
0.0
220
0.0
230
1.0
 70
    11
 71
     3
 72
    17
 73
    13
 74
     0
 42
0.0000000001
 43
0.0000000001
 12
1.0
 22
0.0
 32
0.0
 13
1.0
 23
0.0
 33
0.0
 40
0.0
 40
0.0
 40
0.0
 40
0.0
 40
1.0
 40
1.0
 40
1.0
 40
2.0
 40
2.0
 40
2.0
 40
3.0
 40
3.0
 40
3.0
 40
4.0
 40
4.0
 40
4.0
 40
4.0
 10
116.189591781391
 20
-156.916972311845
 30
0.0
 10
116.189591781391
 20
-156.8619476773915
 30
0.0
 10
116.1447840082359
 20
-156.8171399042365
 30
0.0
 10
116.0897486078591
 20
-156.8171399042365
 30
0.0
 10
116.0347132074822
 20
-156.8171399042365
 30
0.0
 10
115.9899054343272
 20
-156.8619476773915
 30
0.0
 10
115.9899054343272
 20
-156.916972311845
 30
0.0
 10
115.9899054343272
 20
-156.9723629876938
 30
0.0
 10
116.0347132074822
 20
-157.0171707608488
 30
0.0
 10
116.0897486078591
 20
-157.0171707608488
 30
0.0
 10
116.1447840082359
 20
-157.0171707608488
 30
0.0
 10
116.189591781391
 20
-156.9723629876938
 30
0.0
 10
116.189591781391
 20
-156.916972311845
 30
0.0
  0
SPLINE
  5
72
330
1F
100
AcDbEntity
  8
_U+30EC_U+30A4_U+30E4_U+30FC 1
 62
   179
420
  2234388
370
     9
100
AcDbSpline
210
0.0
220
0.0
230
1.0
 70
    11
 71
     3
 72
    17
 73
    13
 74
     0
 42
0.0000000001
 43
0.0000000001
 12
1.0
 22
0.0
 32
0.0
 13
1.0
 23
0.0
 33
0.0
 40
0.0
 40
0.0
 40
0.0
 40
0.0
 40
1.0
 40
1.0
 40
1.0
 40
2.0
 40
2.0
 40
2.0
 40
3.0
 40
3.0
 40
3.0
 40
4.0
 40
4.0
 40
4.0
 40
4.0
 10
116.189591781391
 20
-147.0167906499591
 30
0.0
 10
116.189591781391
 20
-146.9617660155056
 30
0.0
 10
116.1447840082359
 20
-146.9169582423506
 30
0.0
 10
116.0897486078591
 20
-146.9169582423506
 30
0.0
 10
116.0347132074822
 20
-146.9169582423506
 30
0.0
 10
115.9899054343272
 20
-146.9617660155056
 30
0.0
 10
115.9899054343272
 20
-147.0167906499591
 30
0.0
 10
115.9899054343272
 20
-147.0725366012798
 30
0.0
 10
116.0347132074822
 20
-147.1173336085118
 30
0.0
 10
116.0897486078591
 20
-147.1173336085118
 30
0.0
 10
116.1447840082359
 20
-147.1173336085118
 30
0.0
 10
116.189591781391
 20
-147.0725366012798
 30
0.0
 10
116.189591781391
 20
-147.0167906499591
 30
0.0
  0
SPLINE
  5
73
330
1F
100
AcDbEntity
  8
_U+30EC_U+30A4_U+30E4_U+30FC 1
 62
   179
420
  2234388
370
     9
100
AcDbSpline
210
0.0
220
0.0
230
1.0
 70
    11
 71
     3
 72
    17
 73
    13
 74
     0
 42
0.0000000001
 43
0.0000000001
 12
1.0
 22
0.0
 32
0.0
 13
1.0
 23
0.0
 33
0.0
 40
0.0
 40
0.0
 40
0.0
 40
0.0
 40
1.0
 40
1.0
 40
1.0
 40
2.0
 40
2.0
 40
2.0
 40
3.0
 40
3.0
 40
3.0
 40
4.0
 40
4.0
 40
4.0
 40
4.0
 10
116.189591781391
 20
-140.0170456430285
 30
0.0
 10
116.189591781391
 20
-139.9620210085751
 30
0.0
 10
116.1447840082359
 20
-139.91721323542
 30
0.0
 10
116.0897486078591
 20
-139.91721323542
 30
0.0
 10
116.0347132074822
 20
-139.91721323542
 30
0.0
 10
115.9899054343272
 20
-139.9620210085751
 30
0.0
 10
115.9899054343272
 20
-140.0170456430285
 30
0.0
 10
115.9899054343272
 20
-140.0720810434054
 30
0.0
 10
116.0347132074822
 20
-140.1168888165604
 30
0.0
 10
116.0897486078591
 20
-140.1168888165604
 30
0.0
 10
116.1447840082359
 20
-140.1168888165604
 30
0.0
 10
116.189591781391
 20
-140.0720810434054
 30
0.0
 10
116.189591781391
 20
-140.0170456430285
 30
0.0
  0
POLYLINE
  5
74
330
1F
100
AcDbEntity
  8
_U+30EC_U+30A4_U+30E4_U+30FC 1
 62
   179
420
  2234388
370
     9
100
AcDb2dPolyline
 66
     1
 10
0.0
 20
0.0
 30
0.0
  0
VERTEX
  5
75
330
74
100
AcDbEntity
  8
_U+30EC_U+30A4_U+30E4_U+30FC 1
 62
   179
420
  2234388
370
     9
100
AcDbVertex
100
AcDb2dVertex
 10
100.6776940835817
 20
-144.1511063957117
 30
0.0
  0
VERTEX
  5
76
330
74
100
AcDbEntity
  8
_U+30EC_U+30A4_U+30E4_U+30FC 1
 62
   179
420
  2234388
370
     9
100
AcDbVertex
100
AcDb2dVertex
 10
104.4481788374134
 20
-144.1511063957117
 30
0.0
  0
SEQEND
  5
77
330
74
100
AcDbEntity
  8
_U+30EC_U+30A4_U+30E4_U+30FC 1
 62
   179
420
  2234388
370
     9
  0
POLYLINE
  5
78
330
1F
100
AcDbEntity
  8
_U+30EC_U+30A4_U+30E4_U+30FC 1
 62
   179
420
  2234388
370
     9
100
AcDb2dPolyline
 66
     1
 10
0.0
 20
0.0
 30
0.0
  0
VERTEX
  5
79
330
78
100
AcDbEntity
  8
_U+30EC_U+30A4_U+30E4_U+30FC 1
 62
   179
420
  2234388
370
     9
100
AcDbVertex
100
AcDb2dVertex
 10
98.67745011299883
 20
-144.1511063957117
 30
0.0
  0
VERTEX
  5
7A
330
78
100
AcDbEntity
  8
_U+30EC_U+30A4_U+30E4_U+30FC 1
 62
   179
420
  2234388
370
     9
100
AcDbVertex
100
AcDb2dVertex
 10
100.6776940835817
 20
-144.1511063957117
 30
0.0
  0
SEQEND
  5
7B
330
78
100
AcDbEntity
  8
_U+30EC_U+30A4_U+30E4_U+30FC 1
 62
   179
420
  2234388
370
     9
  0
INSERT
  5
7D
330
1F
100
AcDbEntity
  8
_U+30EC_U+30A4_U+30E4_U+30FC 1
100
AcDbBlockReference
  2
block 2
 10
0.0
 20
0.0
 30
0.0
  0
POLYLINE
  5
82
330
1F
100
AcDbEntity
  8
_U+30EC_U+30A4_U+30E4_U+30FC 1
 62
   179
420
  2234388
370
     9
100
AcDb2dPolyline
 66
     1
 10
0.0
 20
0.0
 30
0.0
  0
VERTEX
  5
83
330
82
100
AcDbEntity
  8
_U+30EC_U+30A4_U+30E4_U+30FC 1
 62
   179
420
  2234388
370
     9
100
AcDbVertex
100
AcDb2dVertex
 10
99.67725988651189
 20
-161.9171731332132
 30
0.0
  0
VERTEX
  5
84
330
82
100
AcDbEntity
  8
_U+30EC_U+30A4_U+30E4_U+30FC 1
 62
   179
420
  2234388
370
     9
100
AcDbVertex
100
AcDb2dVertex
 10
113.6775788764743
 20
-161.9171731332132
 30
0.0
  0
SEQEND
  5
85
330
82
100
AcDbEntity
  8
_U+30EC_U+30A4_U+30E4_U+30FC 1
 62
   179
420
  2234388
370
     9
  0
POLYLINE
  5
86
330
1F
100
AcDbEntity
  8
_U+30EC_U+30A4_U+30E4_U+30FC 1
 62
   179
420
  2234388
370
     9
100
AcDb2dPolyline
 66
     1
 10
0.0
 20
0.0
 30
0.0
  0
VERTEX
  5
87
330
86
100
AcDbEntity
  8
_U+30EC_U+30A4_U+30E4_U+30FC 1
 62
   179
420
  2234388
370
     9
100
AcDbVertex
100
AcDb2dVertex
 10
99.67725988651189
 20
-159.4570412131197
 30
0.0
  0
VERTEX
  5
88
330
86
100
AcDbEntity
  8
_U+30EC_U+30A4_U+30E4_U+30FC 1
 62
   179
420
  2234388
370
     9
100
AcDbVertex
100
AcDb2dVertex
 10
99.67725988651189
 20
-162.9174458414321
 30
0.0
  0
SEQEND
  5
89
330
86
100
AcDbEntity
  8
_U+30EC_U+30A4_U+30E4_U+30FC 1
 62
   179
420
  2234388
370
     9
  0
POLYLINE
  5
8A
330
1F
100
AcDbEntity
  8
_U+30EC_U+30A4_U+30E4_U+30FC 1
 62
   179
420
  2234388
370
     9
100
AcDb2dPolyline
 66
     1
 10
0.0
 20
0.0
 30
0.0
  0
VERTEX
  5
8B
330
8A
100
AcDbEntity
  8
_U+30EC_U+30A4_U+30E4_U+30FC 1
 62
   179
420
  2234388
370
     9
100
AcDbVertex
100
AcDb2dVertex
 10
113.5775203844746
 20
-159.4570412131197
 30
0.0
  0
VERTEX
  5
8C
330
8A
100
AcDbEntity
  8
_U+30EC_U+30A4_U+30E4_U+30FC 1
 62
   179
420
  2234388
370
     9
100
AcDbVertex
100
AcDb2dVertex
 10
113.5775203844746
 20
-162.9174458414321
 30
0.0
  0
SEQEND
  5
8D
330
8A
100
AcDbEntity
  8
_U+30EC_U+30A4_U+30E4_U+30FC 1
 62
   179
420
  2234388
370
     9
  0
INSERT
  5
8F
330
1F
100
AcDbEntity
  8
_U+30EC_U+30A4_U+30E4_U+30FC 1
100
AcDbBlockReference
  2
block 3
 10
0.0
 20
0.0
 30
0.0
  0
SPLINE
  5
A9
330
1F
100
AcDbEntity
  8
_U+30EC_U+30A4_U+30E4_U+30FC 1
 62
   179
420
  2234388
370
     9
100
AcDbSpline
210
0.0
220
0.0
230
1.0
 70
    11
 71
     3
 72
    17
 73
    13
 74
     0
 42
0.0000000001
 43
0.0000000001
 12
1.0
 22
0.0
 32
0.0
 13
1.0
 23
0.0
 33
0.0
 40
0.0
 40
0.0
 40
0.0
 40
0.0
 40
1.0
 40
1.0
 40
1.0
 40
2.0
 40
2.0
 40
2.0
 40
3.0
 40
3.0
 40
3.0
 40
4.0
 40
4.0
 40
4.0
 40
4.0
 10
106.8774879188373
 20
-137.8108172601979
 30
0.0
 10
106.8774879188373
 20
-137.7557926257444
 30
0.0
 10
106.8326801456822
 20
-137.7109848525894
 30
0.0
 10
106.7776447453054
 20
-137.7109848525894
 30
0.0
 10
106.7226093449285
 20
-137.7109848525894
 30
0.0
 10
106.6778123376969
 20
-137.7557926257444
 30
0.0
 10
106.6778123376969
 20
-137.8108172601979
 30
0.0
 10
106.6778123376969
 20
-137.8658526605748
 30
0.0
 10
106.7226093449285
 20
-137.9106604337301
 30
0.0
 10
106.7776447453054
 20
-137.9106604337301
 30
0.0
 10
106.8326801456822
 20
-137.9106604337301
 30
0.0
 10
106.8774879188373
 20
-137.8658526605748
 30
0.0
 10
106.8774879188373
 20
-137.8108172601979
 30
0.0
  0
SPLINE
  5
AA
330
1F
100
AcDbEntity
  8
_U+30EC_U+30A4_U+30E4_U+30FC 1
 62
   179
420
  2234388
370
     9
100
AcDbSpline
210
0.0
220
0.0
230
1.0
 70
    11
 71
     3
 72
    17
 73
    13
 74
     0
 42
0.0000000001
 43
0.0000000001
 12
1.0
 22
0.0
 32
0.0
 13
1.0
 23
0.0
 33
0.0
 40
0.0
 40
0.0
 40
0.0
 40
0.0
 40
1.0
 40
1.0
 40
1.0
 40
2.0
 40
2.0
 40
2.0
 40
3.0
 40
3.0
 40
3.0
 40
4.0
 40
4.0
 40
4.0
 40
4.0
 10
100.8775096217262
 20
-137.8108172601979
 30
0.0
 10
100.8775096217262
 20
-137.7557926257444
 30
0.0
 10
100.8327018485711
 20
-137.7109848525894
 30
0.0
 10
100.7776664481943
 20
-137.7109848525894
 30
0.0
 10
100.7226310478174
 20
-137.7109848525894
 30
0.0
 10
100.6778340405858
 20
-137.7557926257444
 30
0.0
 10
100.6778340405858
 20
-137.8108172601979
 30
0.0
 10
100.6778340405858
 20
-137.8658526605748
 30
0.0
 10
100.7226310478174
 20
-137.9106604337301
 30
0.0
 10
100.7776664481943
 20
-137.9106604337301
 30
0.0
 10
100.8327018485711
 20
-137.9106604337301
 30
0.0
 10
100.8775096217262
 20
-137.8658526605748
 30
0.0
 10
100.8775096217262
 20
-137.8108172601979
 30
0.0
  0
POLYLINE
  5
AB
330
1F
100
AcDbEntity
  8
_U+30EC_U+30A4_U+30E4_U+30FC 1
 62
   179
420
  2234388
370
     9
100
AcDb2dPolyline
 66
     1
 10
0.0
 20
0.0
 30
0.0
  0
VERTEX
  5
AC
330
AB
100
AcDbEntity
  8
_U+30EC_U+30A4_U+30E4_U+30FC 1
 62
   179
420
  2234388
370
     9
100
AcDbVertex
100
AcDb2dVertex
 10
100.7776018526539
 20
-137.8108172601979
 30
0.0
  0
VERTEX
  5
AD
330
AB
100
AcDbEntity
  8
_U+30EC_U+30A4_U+30E4_U+30FC 1
 62
   179
420
  2234388
370
     9
100
AcDbVertex
100
AcDb2dVertex
 10
106.7776447453054
 20
-137.8108172601979
 30
0.0
  0
SEQEND
  5
AE
330
AB
100
AcDbEntity
  8
_U+30EC_U+30A4_U+30E4_U+30FC 1
 62
   179
420
  2234388
370
     9
  0
POLYLINE
  5
AF
330
1F
100
AcDbEntity
  8
_U+30EC_U+30A4_U+30E4_U+30FC 1
 62
   179
420
  2234388
370
     9
100
AcDb2dPolyline
 66
     1
 10
0.0
 20
0.0
 30
0.0
  0
VERTEX
  5
B0
330
AF
100
AcDbEntity
  8
_U+30EC_U+30A4_U+30E4_U+30FC 1
 62
   179
420
  2234388
370
     9
100
AcDbVertex
100
AcDb2dVertex
 10
100.7776018526539
 20
-136.3507750276256
 30
0.0
  0
VERTEX
  5
B1
330
AF
100
AcDbEntity
  8
_U+30EC_U+30A4_U+30E4_U+30FC 1
 62
   179
420
  2234388
370
     9
100
AcDbVertex
100
AcDb2dVertex
 10
100.7776018526539
 20
-138.8110576706466
 30
0.0
  0
SEQEND
  5
B2
330
AF
100
AcDbEntity
  8
_U+30EC_U+30A4_U+30E4_U+30FC 1
 62
   179
420
  2234388
370
     9
  0
POLYLINE
  5
B3
330
1F
100
AcDbEntity
  8
_U+30EC_U+30A4_U+30E4_U+30FC 1
 62
   179
420
  2234388
370
     9
100
AcDb2dPolyline
 66
     1
 10
0.0
 20
0.0
 30
0.0
  0
VERTEX
  5
B4
330
B3
100
AcDbEntity
  8
_U+30EC_U+30A4_U+30E4_U+30FC 1
 62
   179
420
  2234388
370
     9
100
AcDbVertex
100
AcDb2dVertex
 10
106.7776124475352
 20
-136.3507750276256
 30
0.0
  0
VERTEX
  5
B5
330
B3
100
AcDbEntity
  8
_U+30EC_U+30A4_U+30E4_U+30FC 1
 62
   179
420
  2234388
370
     9
100
AcDbVertex
100
AcDb2dVertex
 10
106.7776124475352
 20
-138.8110576706466
 30
0.0
  0
SEQEND
  5
B6
330
B3
100
AcDbEntity
  8
_U+30EC_U+30A4_U+30E4_U+30FC 1
 62
   179
420
  2234388
370
     9
  0
INSERT
  5
B8
330
1F
100
AcDbEntity
  8
_U+30EC_U+30A4_U+30E4_U+30FC 1
100
AcDbBlockReference
  2
block 4
 10
0.0
 20
0.0
 30
0.0
  0
POLYLINE
  5
BE
330
1F
100
AcDbEntity
  8
_U+30EC_U+30A4_U+30E4_U+30FC 1
 62
   179
420
  2234388
370
     9
100
AcDb2dPolyline
 66
     1
 10
0.0
 20
0.0
 30
0.0
  0
VERTEX
  5
BF
330
BE
100
AcDbEntity
  8
_U+30EC_U+30A4_U+30E4_U+30FC 1
 62
   179
420
  2234388
370
     9
100
AcDbVertex
100
AcDb2dVertex
 10
95.67749326221376
 20
-157.9170619993662
 30
0.0
  0
VERTEX
  5
C0
330
BE
100
AcDbEntity
  8
_U+30EC_U+30A4_U+30E4_U+30FC 1
 62
   179
420
  2234388
370
     9
100
AcDbVertex
100
AcDb2dVertex
 10
95.67749326221376
 20
-139.9172885968837
 30
0.0
  0
SEQEND
  5
C1
330
BE
100
AcDbEntity
  8
_U+30EC_U+30A4_U+30E4_U+30FC 1
 62
   179
420
  2234388
370
     9
  0
POLYLINE
  5
C2
330
1F
100
AcDbEntity
  8
_U+30EC_U+30A4_U+30E4_U+30FC 1
 62
   179
420
  2234388
370
     9
100
AcDb2dPolyline
 66
     1
 10
0.0
 20
0.0
 30
0.0
  0
VERTEX
  5
C3
330
C2
100
AcDbEntity
  8
_U+30EC_U+30A4_U+30E4_U+30FC 1
 62
   179
420
  2234388
370
     9
100
AcDbVertex
100
AcDb2dVertex
 10
98.13726990683504
 20
-157.9170619993662
 30
0.0
  0
VERTEX
  5
C4
330
C2
100
AcDbEntity
  8
_U+30EC_U+30A4_U+30E4_U+30FC 1
 62
   179
420
  2234388
370
     9
100
AcDbVertex
100
AcDb2dVertex
 10
94.67757582946646
 20
-157.9170619993662
 30
0.0
  0
SEQEND
  5
C5
330
C2
100
AcDbEntity
  8
_U+30EC_U+30A4_U+30E4_U+30FC 1
 62
   179
420
  2234388
370
     9
  0
POLYLINE
  5
C6
330
1F
100
AcDbEntity
  8
_U+30EC_U+30A4_U+30E4_U+30FC 1
 62
   179
420
  2234388
370
     9
100
AcDb2dPolyline
 66
     1
 10
0.0
 20
0.0
 30
0.0
  0
VERTEX
  5
C7
330
C6
100
AcDbEntity
  8
_U+30EC_U+30A4_U+30E4_U+30FC 1
 62
   179
420
  2234388
370
     9
100
AcDbVertex
100
AcDb2dVertex
 10
97.13753549478571
 20
-139.9171378739563
 30
0.0
  0
VERTEX
  5
C8
330
C6
100
AcDbEntity
  8
_U+30EC_U+30A4_U+30E4_U+30FC 1
 62
   179
420
  2234388
370
     9
100
AcDbVertex
100
AcDb2dVertex
 10
94.67760812723664
 20
-139.9171378739563
 30
0.0
  0
SEQEND
  5
C9
330
C6
100
AcDbEntity
  8
_U+30EC_U+30A4_U+30E4_U+30FC 1
 62
   179
420
  2234388
370
     9
  0
INSERT
  5
CB
330
1F
100
AcDbEntity
  8
_U+30EC_U+30A4_U+30E4_U+30FC 1
100
AcDbBlockReference
  2
block 5
 10
0.0
 20
0.0
 30
0.0
  0
POLYLINE
  5
D4
330
1F
100
AcDbEntity
  8
_U+30EC_U+30A4_U+30E4_U+30FC 1
 62
   179
420
  2234388
370
     9
100
AcDb2dPolyline
 66
     1
 10
0.0
 20
0.0
 30
0.0
  0
VERTEX
  5
D5
330
D4
100
AcDbEntity
  8
_U+30EC_U+30A4_U+30E4_U+30FC 1
 62
   179
420
  2234388
370
     9
100
AcDbVertex
100
AcDb2dVertex
 10
116.0896840123187
 20
-156.916972311845
 30
0.0
  0
VERTEX
  5
D6
330
D4
100
AcDbEntity
  8
_U+30EC_U+30A4_U+30E4_U+30FC 1
 62
   179
420
  2234388
370
     9
100
AcDbVertex
100
AcDb2dVertex
 10
116.0896840123187
 20
-146.9167859875764
 30
0.0
  0
SEQEND
  5
D7
330
D4
100
AcDbEntity
  8
_U+30EC_U+30A4_U+30E4_U+30FC 1
 62
   179
420
  2234388
370
     9
  0
POLYLINE
  5
D8
330
1F
100
AcDbEntity
  8
_U+30EC_U+30A4_U+30E4_U+30FC 1
 62
   179
420
  2234388
370
     9
100
AcDb2dPolyline
 66
     1
 10
0.0
 20
0.0
 30
0.0
  0
VERTEX
  5
D9
330
D8
100
AcDbEntity
  8
_U+30EC_U+30A4_U+30E4_U+30FC 1
 62
   179
420
  2234388
370
     9
100
AcDbVertex
100
AcDb2dVertex
 10
109.6294301924548
 20
-156.916972311845
 30
0.0
  0
VERTEX
  5
DA
330
D8
100
AcDbEntity
  8
_U+30EC_U+30A4_U+30E4_U+30FC 1
 62
   179
420
  2234388
370
     9
100
AcDbVertex
100
AcDb2dVertex
 10
117.0892569355172
 20
-156.916972311845
 30
0.0
  0
SEQEND
  5
DB
330
D8
100
AcDbEntity
  8
_U+30EC_U+30A4_U+30E4_U+30FC 1
 62
   179
420
  2234388
370
     9
  0
POLYLINE
  5
DC
330
1F
100
AcDbEntity
  8
_U+30EC_U+30A4_U+30E4_U+30FC 1
 62
   179
420
  2234388
370
     9
100
AcDb2dPolyline
 66
     1
 10
0.0
 20
0.0
 30
0.0
  0
VERTEX
  5
DD
330
DC
100
AcDbEntity
  8
_U+30EC_U+30A4_U+30E4_U+30FC 1
 62
   179
420
  2234388
370
     9
100
AcDbVertex
100
AcDb2dVertex
 10
109.6294301924548
 20
-147.0167906499591
 30
0.0
  0
VERTEX
  5
DE
330
DC
100
AcDbEntity
  8
_U+30EC_U+30A4_U+30E4_U+30FC 1
 62
   179
420
  2234388
370
     9
100
AcDbVertex
100
AcDb2dVertex
 10
117.0892569355172
 20
-147.0167906499591
 30
0.0
  0
SEQEND
  5
DF
330
DC
100
AcDbEntity
  8
_U+30EC_U+30A4_U+30E4_U+30FC 1
 62
   179
420
  2234388
370
     9
  0
SPLINE
  5
E0
330
1F
100
AcDbEntity
  8
_U+30EC_U+30A4_U+30E4_U+30FC 1
 62
   179
420
  2234388
370
     9
100
AcDbSpline
210
0.0
220
0.0
230
1.0
 70
    11
 71
     3
 72
    17
 73
    13
 74
     0
 42
0.0000000001
 43
0.0000000001
 12
1.0
 22
0.0
 32
0.0
 13
1.0
 23
0.0
 33
0.0
 40
0.0
 40
0.0
 40
0.0
 40
0.0
 40
1.0
 40
1.0
 40
1.0
 40
2.0
 40
2.0
 40
2.0
 40
3.0
 40
3.0
 40
3.0
 40
4.0
 40
4.0
 40
4.0
 40
4.0
 10
116.189591781391
 20
-145.9164486838171
 30
0.0
 10
116.189591781391
 20
-145.861424049364
 30
0.0
 10
116.1447840082359
 20
-145.8166162762086
 30
0.0
 10
116.0897486078591
 20
-145.8166162762086
 30
0.0
 10
116.0347132074822
 20
-145.8166162762086
 30
0.0
 10
115.9899054343272
 20
-145.861424049364
 30
0.0
 10
115.9899054343272
 20
-145.9164486838171
 30
0.0
 10
115.9899054343272
 20
-145.9721946351378
 30
0.0
 10
116.0347132074822
 20
-146.0169916423694
 30
0.0
 10
116.0897486078591
 20
-146.0169916423694
 30
0.0
 10
116.1447840082359
 20
-146.0169916423694
 30
0.0
 10
116.189591781391
 20
-145.9721946351378
 30
0.0
 10
116.189591781391
 20
-145.9164486838171
 30
0.0
  0
POLYLINE
  5
E1
330
1F
100
AcDbEntity
  8
_U+30EC_U+30A4_U+30E4_U+30FC 1
 62
   179
420
  2234388
370
     9
100
AcDb2dPolyline
 66
     1
 10
0.0
 20
0.0
 30
0.0
  0
VERTEX
  5
E2
330
E1
100
AcDbEntity
  8
_U+30EC_U+30A4_U+30E4_U+30FC 1
 62
   179
420
  2234388
370
     9
100
AcDbVertex
100
AcDb2dVertex
 10
109.6294301924548
 20
-145.9164486838171
 30
0.0
  0
VERTEX
  5
E3
330
E1
100
AcDbEntity
  8
_U+30EC_U+30A4_U+30E4_U+30FC 1
 62
   179
420
  2234388
370
     9
100
AcDbVertex
100
AcDb2dVertex
 10
117.0892569355172
 20
-145.9164486838171
 30
0.0
  0
SEQEND
  5
E4
330
E1
100
AcDbEntity
  8
_U+30EC_U+30A4_U+30E4_U+30FC 1
 62
   179
420
  2234388
370
     9
  0
INSERT
  5
E6
330
1F
100
AcDbEntity
  8
_U+30EC_U+30A4_U+30E4_U+30FC 1
100
AcDbBlockReference
  2
block 6
 10
0.0
 20
0.0
 30
0.0
  0
POLYLINE
  5
EE
330
1F
100
AcDbEntity
  8
_U+30EC_U+30A4_U+30E4_U+30FC 1
 62
   179
420
  2234388
370
     9
100
AcDb2dPolyline
 66
     1
 10
0.0
 20
0.0
 30
0.0
  0
VERTEX
  5
EF
330
EE
100
AcDbEntity
  8
_U+30EC_U+30A4_U+30E4_U+30FC 1
 62
   179
420
  2234388
370
     9
100
AcDbVertex
100
AcDb2dVertex
 10
116.0896840123187
 20
-147.0167906499591
 30
0.0
  0
VERTEX
  5
F0
330
EE
100
AcDbEntity
  8
_U+30EC_U+30A4_U+30E4_U+30FC 1
 62
   179
420
  2234388
370
     9
100
AcDbVertex
100
AcDb2dVertex
 10
116.0896840123187
 20
-140.0169810474882
 30
0.0
  0
SEQEND
  5
F1
330
EE
100
AcDbEntity
  8
_U+30EC_U+30A4_U+30E4_U+30FC 1
 62
   179
420
  2234388
370
     9
  0
POLYLINE
  5
F2
330
1F
100
AcDbEntity
  8
_U+30EC_U+30A4_U+30E4_U+30FC 1
 62
   179
420
  2234388
370
     9
100
AcDb2dPolyline
 66
     1
 10
0.0
 20
0.0
 30
0.0
  0
VERTEX
  5
F3
330
F2
100
AcDbEntity
  8
_U+30EC_U+30A4_U+30E4_U+30FC 1
 62
   179
420
  2234388
370
     9
100
AcDbVertex
100
AcDb2dVertex
 10
109.6294301924548
 20
-140.0170456430285
 30
0.0
  0
VERTEX
  5
F4
330
F2
100
AcDbEntity
  8
_U+30EC_U+30A4_U+30E4_U+30FC 1
 62
   179
420
  2234388
370
     9
100
AcDbVertex
100
AcDb2dVertex
 10
117.0892569355172
 20
-140.0170456430285
 30
0.0
  0
SEQEND
  5
F5
330
F2
100
AcDbEntity
  8
_U+30EC_U+30A4_U+30E4_U+30FC 1
 62
   179
420
  2234388
370
     9
  0
INSERT
  5
F7
330
1F
100
AcDbEntity
  8
_U+30EC_U+30A4_U+30E4_U+30FC 1
100
AcDbBlockReference
  2
block 7
 10
0.0
 20
0.0
 30
0.0
  0
ENDSEC
  0
SECTION
  2
OBJECTS
  0
DICTIONARY
  5
C
330
0
100
AcDbDictionary
281
     1
  3
ACAD_GROUP
350
D
  3
ACAD_LAYOUT
350
1A
  3
ACAD_MATERIAL
350
3B
  3
ACAD_MLEADERSTYLE
350
FE
  3
ACAD_MLINESTYLE
350
17
  3
ACAD_PLOTSETTINGS
350
19
  3
ACAD_PLOTSTYLENAME
350
E
  3
ACAD_TABLESTYLE
350
FD
  3
ACAD_VISUALSTYLE
350
2A
  0
SUN
  5
3F
330
29
100
AcDbSun
 90
        1
290
     0
 63
     7
421
 16777215
 40
1.0
291
     1
 91
  2455826
 92
 54000000
292
     0
 70
     2
 71
   256
280
     1
  0
DICTIONARY
  5
D
102
{ACAD_REACTORS
330
C
102
}
330
C
100
AcDbDictionary
281
     1
  0
DICTIONARY
  5
1A
102
{ACAD_REACTORS
330
C
102
}
330
C
100
AcDbDictionary
281
     1
  3
Layout1
350
1E
  3
Layout2
350
26
  3
Model
350
22
  0
DICTIONARY
  5
3B
102
{ACAD_REACTORS
330
C
102
}
330
C
100
AcDbDictionary
281
     1
  3
ByBlock
350
3D
  3
ByLayer
350
3C
  3
Global
350
3E
  0
DICTIONARY
  5
FE
102
{ACAD_REACTORS
330
C
102
}
330
C
100
AcDbDictionary
281
     1
  0
DICTIONARY
  5
17
102
{ACAD_REACTORS
330
C
102
}
330
C
100
AcDbDictionary
281
     1
  3
Standard
350
18
  0
DICTIONARY
  5
19
102
{ACAD_REACTORS
330
C
102
}
330
C
100
AcDbDictionary
281
     1
  0
ACDBDICTIONARYWDFLT
  5
E
102
{ACAD_REACTORS
330
C
102
}
330
C
100
AcDbDictionary
281
     1
  3
Normal
350
F
100
AcDbDictionaryWithDefault
340
F
  0
DICTIONARY
  5
FD
102
{ACAD_REACTORS
330
C
102
}
330
C
100
AcDbDictionary
281
     1
  0
DICTIONARY
  5
2A
102
{ACAD_REACTORS
330
C
102
}
330
C
100
AcDbDictionary
281
     1
  3
2dWireframe
350
2F
  3
3D Hidden
350
31
  3
3dWireframe
350
30
  3
Basic
350
32
  3
Brighten
350
36
  3
ColorChange
350
3A
  3
Conceptual
350
34
  3
Dim
350
35
  3
Facepattern
350
39
  3
Flat
350
2B
  3
FlatWithEdges
350
2C
  3
Gouraud
350
2D
  3
GouraudWithEdges
350
2E
  3
Linepattern
350
38
  3
Realistic
350
33
  3
Thicken
350
37
  0
LAYOUT
  5
1E
102
{ACAD_REACTORS
330
1A
102
}
330
1A
100
AcDbPlotSettings
  1

  2
none_device
  4

  6

 40
0.0
 41
0.0
 42
0.0
 43
0.0
 44
0.0
 45
0.0
 46
0.0
 47
0.0
 48
0.0
 49
0.0
140
0.0
141
0.0
142
1.0
143
1.0
 70
   688
 72
     0
 73
     0
 74
     5
  7

 75
    16
 76
     0
 77
     2
 78
   300
147
1.0
148
0.0
149
0.0
100
AcDbLayout
  1
Layout1
 70
     1
 71
     1
 10
0.0
 20
0.0
 11
12.0
 21
9.0
 12
0.0
 22
0.0
 32
0.0
 14
1.000000000000000E+20
 24
1.000000000000000E+20
 34
1.000000000000000E+20
 15
-1.000000000000000E+20
 25
-1.000000000000000E+20
 35
-1.000000000000000E+20
146
0.0
 13
0.0
 23
0.0
 33
0.0
 16
1.0
 26
0.0
 36
0.0
 17
0.0
 27
1.0
 37
0.0
 76
     0
330
1B
  0
LAYOUT
  5
26
102
{ACAD_REACTORS
330
1A
102
}
330
1A
100
AcDbPlotSettings
  1

  2
none_device
  4

  6

 40
0.0
 41
0.0
 42
0.0
 43
0.0
 44
0.0
 45
0.0
 46
0.0
 47
0.0
 48
0.0
 49
0.0
140
0.0
141
0.0
142
1.0
143
1.0
 70
   688
 72
     0
 73
     0
 74
     5
  7

 75
    16
 76
     0
 77
     2
 78
   300
147
1.0
148
0.0
149
0.0
100
AcDbLayout
  1
Layout2
 70
     1
 71
     2
 10
0.0
 20
0.0
 11
0.0
 21
0.0
 12
0.0
 22
0.0
 32
0.0
 14
0.0
 24
0.0
 34
0.0
 15
0.0
 25
0.0
 35
0.0
146
0.0
 13
0.0
 23
0.0
 33
0.0
 16
1.0
 26
0.0
 36
0.0
 17
0.0
 27
1.0
 37
0.0
 76
     0
330
23
  0
LAYOUT
  5
22
102
{ACAD_REACTORS
330
1A
102
}
330
1A
100
AcDbPlotSettings
  1

  2
none_device
  4

  6

 40
0.0
 41
0.0
 42
0.0
 43
0.0
 44
0.0
 45
0.0
 46
0.0
 47
0.0
 48
0.0
 49
0.0
140
0.0
141
0.0
142
1.0
143
1.0
 70
  1712
 72
     0
 73
     0
 74
     0
  7

 75
     0
 76
     0
 77
     2
 78
   300
147
1.0
148
0.0
149
0.0
100
AcDbLayout
  1
Model
 70
     1
 71
     0
 10
0.0
 20
0.0
 11
12.0
 21
9.0
 12
0.0
 22
0.0
 32
0.0
 14
1.000000000000000E+20
 24
1.000000000000000E+20
 34
1.000000000000000E+20
 15
-1.000000000000000E+20
 25
-1.000000000000000E+20
 35
-1.000000000000000E+20
146
0.0
 13
0.0
 23
0.0
 33
0.0
 16
1.0
 26
0.0
 36
0.0
 17
0.0
 27
1.0
 37
0.0
 76
     0
330
1F
331
29
  0
MATERIAL
  5
3D
102
{ACAD_REACTORS
330
3B
102
}
330
3B
100
AcDbMaterial
  1
ByBlock
 72
     1
 94
      127
  0
MATERIAL
  5
3C
102
{ACAD_REACTORS
330
3B
102
}
330
3B
100
AcDbMaterial
  1
ByLayer
 72
     1
 94
      127
  0
MATERIAL
  5
3E
102
{ACAD_REACTORS
330
3B
102
}
330
3B
100
AcDbMaterial
  1
Global
 72
     1
 94
      127
  0
MLINESTYLE
  5
18
102
{ACAD_REACTORS
330
17
102
}
330
17
100
AcDbMlineStyle
  2
Standard
 70
     0
  3

 62
   256
 51
90.0
 52
90.0
 71
     2
 49
0.5
 62
   256
  6
BYLAYER
 49
-0.5
 62
   256
  6
BYLAYER
  0
ACDBPLACEHOLDER
  5
F
102
{ACAD_REACTORS
330
E
102
}
330
E
  0
VISUALSTYLE
  5
2F
102
{ACAD_REACTORS
330
2A
102
}
330
2A
100
AcDbVisualStyle
  2
2dWireframe
 70
     4
177
     2
291
     0
 71
     0
176
     1
 72
     2
176
     1
 73
     0
176
     1
 90
        0
176
     1
 40
-0.6
176
     1
 41
-30.0
176
     1
 62
     5
 63
     7
421
 16777215
176
     1
 74
     1
176
     1
 91
        4
176
     1
 64
     7
176
     1
 65
   257
176
     1
 75
     1
176
     1
175
     1
176
     1
 42
1.0
176
     1
 92
        0
176
     1
 66
   257
176
     1
 43
1.0
176
     1
 76
     1
176
     1
 77
     6
176
     1
 78
     2
176
     1
 67
     7
176
     1
 79
     5
176
     1
170
     0
176
     1
171
     0
176
     1
290
     0
176
     1
 93
        1
176
     1
 44
0.0
176
     1
173
     0
176
     1
  0
VISUALSTYLE
  5
31
102
{ACAD_REACTORS
330
2A
102
}
330
2A
100
AcDbVisualStyle
  2
3D Hidden
 70
     6
177
     2
291
     0
 71
     1
176
     1
 72
     2
176
     1
 73
     2
176
     1
 90
        0
176
     1
 40
-0.6
176
     1
 41
-30.0
176
     1
 62
     5
 63
     7
421
 16777215
176
     1
 74
     2
176
     1
 91
        2
176
     1
 64
     7
176
     1
 65
   257
176
     1
 75
     2
176
     1
175
     1
176
     1
 42
40.0
176
     1
 92
        0
176
     1
 66
   257
176
     1
 43
1.0
176
     1
 76
     1
176
     1
 77
     6
176
     1
 78
     2
176
     1
 67
     7
176
     1
 79
     3
176
     1
170
     0
176
     1
171
     0
176
     1
290
     0
176
     1
 93
        1
176
     1
 44
0.0
176
     1
173
     0
176
     1
  0
VISUALSTYLE
  5
30
102
{ACAD_REACTORS
330
2A
102
}
330
2A
100
AcDbVisualStyle
  2
3dWireframe
 70
     5
177
     2
291
     0
 71
     0
176
     1
 72
     2
176
     1
 73
     0
176
     1
 90
        0
176
     1
 40
-0.6
176
     1
 41
-30.0
176
     1
 62
     5
 63
     7
421
 16777215
176
     1
 74
     1
176
     1
 91
        4
176
     1
 64
     7
176
     1
 65
   257
176
     1
 75
     1
176
     1
175
     1
176
     1
 42
1.0
176
     1
 92
        0
176
     1
 66
   257
176
     1
 43
1.0
176
     1
 76
     1
176
     1
 77
     6
176
     1
 78
     2
176
     1
 67
     7
176
     1
 79
     5
176
     1
170
     0
176
     1
171
     0
176
     1
290
     0
176
     1
 93
        1
176
     1
 44
0.0
176
     1
173
     0
176
     1
  0
VISUALSTYLE
  5
32
102
{ACAD_REACTORS
330
2A
102
}
330
2A
100
AcDbVisualStyle
  2
Basic
 70
     7
177
     2
291
     1
 71
     1
176
     1
 72
     0
176
     1
 73
     1
176
     1
 90
        0
176
     1
 40
-0.6
176
     1
 41
-30.0
176
     1
 62
     5
 63
     7
421
 16777215
176
     1
 74
     0
176
     1
 91
        4
176
     1
 64
     7
176
     1
 65
   257
176
     1
 75
     1
176
     1
175
     1
176
     1
 42
1.0
176
     1
 92
        8
176
     1
 66
     7
176
     1
 43
1.0
176
     1
 76
     1
176
     1
 77
     6
176
     1
 78
     2
176
     1
 67
     7
176
     1
 79
     5
176
     1
170
     0
176
     1
171
     0
176
     1
290
     0
176
     1
 93
        1
176
     1
 44
0.0
176
     1
173
     0
176
     1
  0
VISUALSTYLE
  5
36
102
{ACAD_REACTORS
330
2A
102
}
330
2A
100
AcDbVisualStyle
  2
Brighten
 70
    12
177
     2
291
     1
 71
     2
176
     1
 72
     2
176
     1
 73
     0
176
     1
 90
        0
176
     1
 40
-0.6
176
     1
 41
-30.0
176
     1
 62
     5
 63
     7
421
 16777215
176
     1
 74
     1
176
     1
 91
        4
176
     1
 64
     7
176
     1
 65
   257
176
     1
 75
     1
176
     1
175
     1
176
     1
 42
1.0
176
     1
 92
        8
176
     1
 66
     7
176
     1
 43
1.0
176
     1
 76
     1
176
     1
 77
     6
176
     1
 78
     2
176
     1
 67
     7
176
     1
 79
     5
176
     1
170
     0
176
     1
171
     0
176
     1
290
     0
176
     1
 93
        1
176
     1
 44
50.0
176
     1
173
     0
176
     1
  0
VISUALSTYLE
  5
3A
102
{ACAD_REACTORS
330
2A
102
}
330
2A
100
AcDbVisualStyle
  2
ColorChange
 70
    16
177
     2
291
     1
 71
     2
176
     1
 72
     2
176
     1
 73
     3
176
     1
 90
        0
176
     1
 40
-0.6
176
     1
 41
-30.0
176
     1
 62
     5
 63
     8
421
  8421504
176
     1
 74
     1
176
     1
 91
        4
176
     1
 64
     7
176
     1
 65
   257
176
     1
 75
     1
176
     1
175
     1
176
     1
 42
1.0
176
     1
 92
        8
176
     1
 66
     8
424
  8421504
176
     1
 43
1.0
176
     1
 76
     1
176
     1
 77
     6
176
     1
 78
     2
176
     1
 67
     7
176
     1
 79
     5
176
     1
170
     0
176
     1
171
     0
176
     1
290
     0
176
     1
 93
        1
176
     1
 44
0.0
176
     1
173
     0
176
     1
  0
VISUALSTYLE
  5
34
102
{ACAD_REACTORS
330
2A
102
}
330
2A
100
AcDbVisualStyle
  2
Conceptual
 70
     9
177
     2
291
     0
 71
     3
176
     1
 72
     2
176
     1
 73
     0
176
     1
 90
        0
176
     1
 40
-0.6
176
     1
 41
-30.0
176
     1
 62
     5
 63
     7
421
 16777215
176
     1
 74
     2
176
     1
 91
        2
176
     1
 64
     7
176
     1
 65
   257
176
     1
 75
     1
176
     1
175
     1
176
     1
 42
40.0
176
     1
 92
        8
176
     1
 66
     7
176
     1
 43
1.0
176
     1
 76
     1
176
     1
 77
     6
176
     1
 78
     2
176
     1
 67
     7
176
     1
 79
     3
176
     1
170
     0
176
     1
171
     0
176
     1
290
     0
176
     1
 93
        1
176
     1
 44
0.0
176
     1
173
     0
176
     1
  0
VISUALSTYLE
  5
35
102
{ACAD_REACTORS
330
2A
102
}
330
2A
100
AcDbVisualStyle
  2
Dim
 70
    11
177
     2
291
     1
 71
     2
176
     1
 72
     2
176
     1
 73
     0
176
     1
 90
        0
176
     1
 40
-0.6
176
     1
 41
-30.0
176
     1
 62
     5
 63
     7
421
 16777215
176
     1
 74
     1
176
     1
 91
        4
176
     1
 64
     7
176
     1
 65
   257
176
     1
 75
     1
176
     1
175
     1
176
     1
 42
1.0
176
     1
 92
        8
176
     1
 66
     7
176
     1
 43
1.0
176
     1
 76
     1
176
     1
 77
     6
176
     1
 78
     2
176
     1
 67
     7
176
     1
 79
     5
176
     1
170
     0
176
     1
171
     0
176
     1
290
     0
176
     1
 93
        1
176
     1
 44
-50.0
176
     1
173
     0
176
     1
  0
VISUALSTYLE
  5
39
102
{ACAD_REACTORS
330
2A
102
}
330
2A
100
AcDbVisualStyle
  2
Facepattern
 70
    15
177
     2
291
     1
 71
     2
176
     1
 72
     2
176
     1
 73
     0
176
     1
 90
        0
176
     1
 40
-0.6
176
     1
 41
-30.0
176
     1
 62
     5
 63
     7
421
 16777215
176
     1
 74
     1
176
     1
 91
        4
176
     1
 64
     7
176
     1
 65
   257
176
     1
 75
     1
176
     1
175
     1
176
     1
 42
1.0
176
     1
 92
        8
176
     1
 66
     7
176
     1
 43
1.0
176
     1
 76
     1
176
     1
 77
     6
176
     1
 78
     2
176
     1
 67
     7
176
     1
 79
     5
176
     1
170
     0
176
     1
171
     0
176
     1
290
     0
176
     1
 93
        1
176
     1
 44
0.0
176
     1
173
     0
176
     1
  0
VISUALSTYLE
  5
2B
102
{ACAD_REACTORS
330
2A
102
}
330
2A
100
AcDbVisualStyle
  2
Flat
 70
     0
177
     2
291
     1
 71
     2
176
     1
 72
     1
176
     1
 73
     1
176
     1
 90
        2
176
     1
 40
-0.6
176
     1
 41
30.0
176
     1
 62
     5
 63
     7
421
 16777215
176
     1
 74
     0
176
     1
 91
        4
176
     1
 64
     7
176
     1
 65
   257
176
     1
 75
     1
176
     1
175
     1
176
     1
 42
1.0
176
     1
 92
        8
176
     1
 66
     7
176
     1
 43
1.0
176
     1
 76
     1
176
     1
 77
     6
176
     1
 78
     2
176
     1
 67
     7
176
     1
 79
     5
176
     1
170
     0
176
     1
171
     0
176
     1
290
     0
176
     1
 93
       13
176
     1
 44
0.0
176
     1
173
     0
176
     1
  0
VISUALSTYLE
  5
2C
102
{ACAD_REACTORS
330
2A
102
}
330
2A
100
AcDbVisualStyle
  2
FlatWithEdges
 70
     1
177
     2
291
     1
 71
     2
176
     1
 72
     1
176
     1
 73
     1
176
     1
 90
        2
176
     1
 40
-0.6
176
     1
 41
30.0
176
     1
 62
     5
 63
     7
421
 16777215
176
     1
 74
     1
176
     1
 91
        4
176
     1
 64
     7
176
     1
 65
   257
176
     1
 75
     1
176
     1
175
     1
176
     1
 42
1.0
176
     1
 92
        0
176
     1
 66
   257
176
     1
 43
1.0
176
     1
 76
     1
176
     1
 77
     6
176
     1
 78
     2
176
     1
 67
     7
176
     1
 79
     5
176
     1
170
     0
176
     1
171
     0
176
     1
290
     0
176
     1
 93
       13
176
     1
 44
0.0
176
     1
173
     0
176
     1
  0
VISUALSTYLE
  5
2D
102
{ACAD_REACTORS
330
2A
102
}
330
2A
100
AcDbVisualStyle
  2
Gouraud
 70
     2
177
     2
291
     1
 71
     2
176
     1
 72
     2
176
     1
 73
     1
176
     1
 90
        2
176
     1
 40
-0.6
176
     1
 41
30.0
176
     1
 62
     5
 63
     7
421
 16777215
176
     1
 74
     0
176
     1
 91
        4
176
     1
 64
     7
176
     1
 65
   257
176
     1
 75
     1
176
     1
175
     1
176
     1
 42
1.0
176
     1
 92
        0
176
     1
 66
     7
176
     1
 43
1.0
176
     1
 76
     1
176
     1
 77
     6
176
     1
 78
     2
176
     1
 67
     7
176
     1
 79
     5
176
     1
170
     0
176
     1
171
     0
176
     1
290
     0
176
     1
 93
       13
176
     1
 44
0.0
176
     1
173
     0
176
     1
  0
VISUALSTYLE
  5
2E
102
{ACAD_REACTORS
330
2A
102
}
330
2A
100
AcDbVisualStyle
  2
GouraudWithEdges
 70
     3
177
     2
291
     1
 71
     2
176
     1
 72
     2
176
     1
 73
     1
176
     1
 90
        2
176
     1
 40
-0.6
176
     1
 41
30.0
176
     1
 62
     5
 63
     7
421
 16777215
176
     1
 74
     1
176
     1
 91
        4
176
     1
 64
     7
176
     1
 65
   257
176
     1
 75
     1
176
     1
175
     1
176
     1
 42
1.0
176
     1
 92
        0
176
     1
 66
   257
176
     1
 43
1.0
176
     1
 76
     1
176
     1
 77
     6
176
     1
 78
     2
176
     1
 67
     7
176
     1
 79
     5
176
     1
170
     0
176
     1
171
     0
176
     1
290
     0
176
     1
 93
       13
176
     1
 44
0.0
176
     1
173
     0
176
     1
  0
VISUALSTYLE
  5
38
102
{ACAD_REACTORS
330
2A
102
}
330
2A
100
AcDbVisualStyle
  2
Linepattern
 70
    14
177
     2
291
     1
 71
     2
176
     1
 72
     2
176
     1
 73
     0
176
     1
 90
        0
176
     1
 40
-0.6
176
     1
 41
-30.0
176
     1
 62
     5
 63
     7
421
 16777215
176
     1
 74
     1
176
     1
 91
        4
176
     1
 64
     7
176
     1
 65
   257
176
     1
 75
     7
176
     1
175
     7
176
     1
 42
1.0
176
     1
 92
        8
176
     1
 66
     7
176
     1
 43
1.0
176
     1
 76
     1
176
     1
 77
     6
176
     1
 78
     2
176
     1
 67
     7
176
     1
 79
     5
176
     1
170
     0
176
     1
171
     0
176
     1
290
     0
176
     1
 93
        1
176
     1
 44
0.0
176
     1
173
     0
176
     1
  0
VISUALSTYLE
  5
33
102
{ACAD_REACTORS
330
2A
102
}
330
2A
100
AcDbVisualStyle
  2
Realistic
 70
     8
177
     2
291
     0
 71
     2
176
     1
 72
     2
176
     1
 73
     0
176
     1
 90
        0
176
     1
 40
-0.6
176
     1
 41
-30.0
176
     1
 62
     5
 63
     7
421
 16777215
176
     1
 74
     1
176
     1
 91
        0
176
     1
 64
     7
176
     1
 65
   257
176
     1
 75
     1
176
     1
175
     1
176
     1
 42
1.0
176
     1
 92
        8
176
     1
 66
     8
424
  7895160
176
     1
 43
1.0
176
     1
 76
     1
176
     1
 77
     6
176
     1
 78
     2
176
     1
 67
     7
176
     1
 79
     5
176
     1
170
     0
176
     1
171
     0
176
     1
290
     0
176
     1
 93
       13
176
     1
 44
0.0
176
     1
173
     0
176
     1
  0
VISUALSTYLE
  5
37
102
{ACAD_REACTORS
330
2A
102
}
330
2A
100
AcDbVisualStyle
  2
Thicken
 70
    13
177
     2
291
     1
 71
     2
176
     1
 72
     2
176
     1
 73
     0
176
     1
 90
        0
176
     1
 40
-0.6
176
     1
 41
-30.0
176
     1
 62
     5
 63
     7
421
 16777215
176
     1
 74
     1
176
     1
 91
        4
176
     1
 64
     7
176
     1
 65
   257
176
     1
 75
     1
176
     1
175
     1
176
     1
 42
1.0
176
     1
 92
       12
176
     1
 66
     7
176
     1
 43
1.0
176
     1
 76
     1
176
     1
 77
     6
176
     1
 78
     2
176
     1
 67
     7
176
     1
 79
     5
176
     1
170
     0
176
     1
171
     0
176
     1
290
     0
176
     1
 93
        1
176
     1
 44
0.0
176
     1
173
     0
176
     1
  0
ENDSEC
  0
EOF
