  0
SECTION
  2
HEADER
  9
$ACADVER
  1
AC1024
  9
$ACADMAINTVER
 70
     6
  9
$DWGCODEPAGE
  3
UNDEFINED
  9
$INSBASE
 10
0.0
 20
0.0
 30
0.0
  9
$EXTMIN
 10
1.000000000000000E+20
 20
1.000000000000000E+20
 30
1.000000000000000E+20
  9
$EXTMAX
 10
-1.000000000000000E+20
 20
-1.000000000000000E+20
 30
-1.000000000000000E+20
  9
$LIMMIN
 10
0.0
 20
0.0
  9
$LIMMAX
 10
12.0
 20
9.0
  9
$ORTHOMODE
 70
     0
  9
$REGENMODE
 70
     1
  9
$FILLMODE
 70
     1
  9
$QTEXTMODE
 70
     0
  9
$MIRRTEXT
 70
     1
  9
$LTSCALE
 40
1.0
  9
$ATTMODE
 70
     1
  9
$TEXTSIZE
 40
0.2
  9
$TRACEWID
 40
0.05
  9
$TEXTSTYLE
  7
Standard
  9
$CLAYER
  8
0
  9
$CELTYPE
  6
ByLayer
  9
$CECOLOR
 62
   256
  9
$CELTSCALE
 40
1.0
  9
$DISPSILH
 70
     0
  9
$DIMSCALE
 40
1.0
  9
$DIMASZ
 40
0.18
  9
$DIMEXO
 40
0.0625
  9
$DIMDLI
 40
0.38
  9
$DIMRND
 40
0.0
  9
$DIMDLE
 40
0.0
  9
$DIMEXE
 40
0.18
  9
$DIMTP
 40
0.0
  9
$DIMTM
 40
0.0
  9
$DIMTXT
 40
0.18
  9
$DIMCEN
 40
0.09
  9
$DIMTSZ
 40
0.0
  9
$DIMTOL
 70
     0
  9
$DIMLIM
 70
     0
  9
$DIMTIH
 70
     1
  9
$DIMTOH
 70
     1
  9
$DIMSE1
 70
     0
  9
$DIMSE2
 70
     0
  9
$DIMTAD
 70
     0
  9
$DIMZIN
 70
     0
  9
$DIMBLK
  1

  9
$DIMASO
 70
     1
  9
$DIMSHO
 70
     1
  9
$DIMPOST
  1

  9
$DIMAPOST
  1

  9
$DIMALT
 70
     0
  9
$DIMALTD
 70
     2
  9
$DIMALTF
 40
25.4
  9
$DIMLFAC
 40
1.0
  9
$DIMTOFL
 70
     0
  9
$DIMTVP
 40
0.0
  9
$DIMTIX
 70
     0
  9
$DIMSOXD
 70
     0
  9
$DIMSAH
 70
     0
  9
$DIMBLK1
  1

  9
$DIMBLK2
  1

  9
$DIMSTYLE
  2
Standard
  9
$DIMCLRD
 70
     0
  9
$DIMCLRE
 70
     0
  9
$DIMCLRT
 70
     0
  9
$DIMTFAC
 40
1.0
  9
$DIMGAP
 40
0.09
  9
$DIMJUST
 70
     0
  9
$DIMSD1
 70
     0
  9
$DIMSD2
 70
     0
  9
$DIMTOLJ
 70
     1
  9
$DIMTZIN
 70
     0
  9
$DIMALTZ
 70
     0
  9
$DIMALTTZ
 70
     0
  9
$DIMUPT
 70
     0
  9
$DIMDEC
 70
     4
  9
$DIMTDEC
 70
     4
  9
$DIMALTU
 70
     2
  9
$DIMALTTD
 70
     2
  9
$DIMTXSTY
  7
Standard
  9
$DIMAUNIT
 70
     0
  9
$DIMADEC
 70
     0
  9
$DIMALTRND
 40
0.0
  9
$DIMAZIN
 70
     0
  9
$DIMDSEP
 70
    46
  9
$DIMATFIT
 70
     3
  9
$DIMFRAC
 70
     0
  9
$DIMLDRBLK
  1

  9
$DIMLUNIT
 70
     2
  9
$DIMLWD
 70
    -2
  9
$DIMLWE
 70
    -2
  9
$DIMTMOVE
 70
     0
  9
$DIMFXL
 40
1.0
  9
$DIMFXLON
 70
     0
  9
$DIMJOGANG
 40
0.7853981633974483
  9
$DIMTFILL
 70
     0
  9
$DIMTFILLCLR
 70
     0
  9
$DIMARCSYM
 70
     0
  9
$DIMLTYPE
  6

  9
$DIMLTEX1
  6

  9
$DIMLTEX2
  6

  9
$DIMTXTDIRECTION
 70
     0
  9
$LUNITS
 70
     2
  9
$LUPREC
 70
     4
  9
$SKETCHINC
 40
0.1
  9
$FILLETRAD
 40
0.5
  9
$AUNITS
 70
     0
  9
$AUPREC
 70
     0
  9
$MENU
  1
.
  9
$ELEVATION
 40
0.0
  9
$PELEVATION
 40
0.0
  9
$THICKNESS
 40
0.0
  9
$LIMCHECK
 70
     0
  9
$CHAMFERA
 40
0.5
  9
$CHAMFERB
 40
0.5
  9
$CHAMFERC
 40
1.0
  9
$CHAMFERD
 40
0.0
  9
$SKPOLY
 70
     0
  9
$TDCREATE
 40
2458263.575150451
  9
$TDUCREATE
 40
2458263.200150463
  9
$TDUPDATE
 40
2458263.575150451
  9
$TDUUPDATE
 40
2458263.200150463
  9
$TDINDWG
 40
0.0000000116
  9
$TDUSRTIMER
 40
0.0000000116
  9
$USRTIMER
 70
     1
  9
$ANGBASE
 50
0.0
  9
$ANGDIR
 70
     0
  9
$PDMODE
 70
     0
  9
$PDSIZE
 40
0.0
  9
$PLINEWID
 40
0.0
  9
$SPLFRAME
 70
     0
  9
$SPLINETYPE
 70
     6
  9
$SPLINESEGS
 70
     8
  9
$HANDSEED
  5
E1
  9
$SURFTAB1
 70
     6
  9
$SURFTAB2
 70
     6
  9
$SURFTYPE
 70
     6
  9
$SURFU
 70
     6
  9
$SURFV
 70
     6
  9
$UCSBASE
  2

  9
$UCSNAME
  2

  9
$UCSORG
 10
0.0
 20
0.0
 30
0.0
  9
$UCSXDIR
 10
1.0
 20
0.0
 30
0.0
  9
$UCSYDIR
 10
0.0
 20
1.0
 30
0.0
  9
$UCSORTHOREF
  2

  9
$UCSORTHOVIEW
 70
     0
  9
$UCSORGTOP
 10
0.0
 20
0.0
 30
0.0
  9
$UCSORGBOTTOM
 10
0.0
 20
0.0
 30
0.0
  9
$UCSORGLEFT
 10
0.0
 20
0.0
 30
0.0
  9
$UCSORGRIGHT
 10
0.0
 20
0.0
 30
0.0
  9
$UCSORGFRONT
 10
0.0
 20
0.0
 30
0.0
  9
$UCSORGBACK
 10
0.0
 20
0.0
 30
0.0
  9
$PUCSBASE
  2

  9
$PUCSNAME
  2

  9
$PUCSORG
 10
0.0
 20
0.0
 30
0.0
  9
$PUCSXDIR
 10
1.0
 20
0.0
 30
0.0
  9
$PUCSYDIR
 10
0.0
 20
1.0
 30
0.0
  9
$PUCSORTHOREF
  2

  9
$PUCSORTHOVIEW
 70
     0
  9
$PUCSORGTOP
 10
0.0
 20
0.0
 30
0.0
  9
$PUCSORGBOTTOM
 10
0.0
 20
0.0
 30
0.0
  9
$PUCSORGLEFT
 10
0.0
 20
0.0
 30
0.0
  9
$PUCSORGRIGHT
 10
0.0
 20
0.0
 30
0.0
  9
$PUCSORGFRONT
 10
0.0
 20
0.0
 30
0.0
  9
$PUCSORGBACK
 10
0.0
 20
0.0
 30
0.0
  9
$USERI1
 70
     0
  9
$USERI2
 70
     0
  9
$USERI3
 70
     0
  9
$USERI4
 70
     0
  9
$USERI5
 70
     0
  9
$USERR1
 40
0.0
  9
$USERR2
 40
0.0
  9
$USERR3
 40
0.0
  9
$USERR4
 40
0.0
  9
$USERR5
 40
0.0
  9
$WORLDVIEW
 70
     1
  9
$SHADEDGE
 70
     3
  9
$SHADEDIF
 70
    70
  9
$TILEMODE
 70
     1
  9
$MAXACTVP
 70
    64
  9
$PINSBASE
 10
0.0
 20
0.0
 30
0.0
  9
$PLIMCHECK
 70
     0
  9
$PEXTMIN
 10
1.000000000000000E+20
 20
1.000000000000000E+20
 30
1.000000000000000E+20
  9
$PEXTMAX
 10
-1.000000000000000E+20
 20
-1.000000000000000E+20
 30
-1.000000000000000E+20
  9
$PLIMMIN
 10
0.0
 20
0.0
  9
$PLIMMAX
 10
12.0
 20
9.0
  9
$UNITMODE
 70
     0
  9
$VISRETAIN
 70
     1
  9
$PLINEGEN
 70
     0
  9
$PSLTSCALE
 70
     1
  9
$TREEDEPTH
 70
  3020
  9
$CMLSTYLE
  2
Standard
  9
$CMLJUST
 70
     0
  9
$CMLSCALE
 40
1.0
  9
$PROXYGRAPHICS
 70
     1
  9
$MEASUREMENT
 70
     0
  9
$CELWEIGHT
370
    -1
  9
$ENDCAPS
280
     0
  9
$JOINSTYLE
280
     0
  9
$LWDISPLAY
290
     1
  9
$INSUNITS
 70
     1
  9
$HYPERLINKBASE
  1

  9
$STYLESHEET
  1

  9
$XEDIT
290
     1
  9
$CEPSNTYPE
380
     0
  9
$PSTYLEMODE
290
     1
  9
$FINGERPRINTGUID
  2
{232062C7-B451-8176-A462-E9A5775EC8D5}
  9
$VERSIONGUID
  2
{FAEB1C32-E019-11D5-929B-00C0DF256EC4}
  9
$EXTNAMES
290
     1
  9
$PSVPSCALE
 40
0.0
  9
$OLESTARTUP
290
     0
  9
$SORTENTS
280
   127
  9
$INDEXCTL
280
     0
  9
$HIDETEXT
280
     1
  9
$XCLIPFRAME
280
     2
  9
$HALOGAP
280
     0
  9
$OBSCOLOR
 70
   257
  9
$OBSLTYPE
280
     0
  9
$INTERSECTIONDISPLAY
280
     0
  9
$INTERSECTIONCOLOR
 70
   257
  9
$DIMASSOC
280
     2
  9
$PROJECTNAME
  1

  9
$CAMERADISPLAY
290
     0
  9
$LENSLENGTH
 40
50.0
  9
$CAMERAHEIGHT
 40
0.0
  9
$STEPSPERSEC
 40
2.0
  9
$STEPSIZE
 40
6.0
  9
$3DDWFPREC
 40
2.0
  9
$PSOLWIDTH
 40
0.25
  9
$PSOLHEIGHT
 40
4.0
  9
$LOFTANG1
 40
1.570796326794897
  9
$LOFTANG2
 40
1.570796326794897
  9
$LOFTMAG1
 40
0.0
  9
$LOFTMAG2
 40
0.0
  9
$LOFTPARAM
 70
     7
  9
$LOFTNORMALS
280
     1
  9
$LATITUDE
 40
37.795
  9
$LONGITUDE
 40
-122.394
  9
$NORTHDIRECTION
 40
0.0
  9
$TIMEZONE
 70
 -8000
  9
$LIGHTGLYPHDISPLAY
280
     1
  9
$TILEMODELIGHTSYNCH
280
     1
  9
$CMATERIAL
347
3C
  9
$SOLIDHIST
280
     1
  9
$SHOWHIST
280
     1
  9
$DWFFRAME
280
     2
  9
$DGNFRAME
280
     2
  9
$REALWORLDSCALE
290
     1
  9
$INTERFERECOLOR
 62
   256
  9
$CSHADOW
280
     0
  9
$SHADOWPLANELOCATION
 40
0.0
  0
ENDSEC
  0
SECTION
  2
CLASSES
  0
CLASS
  1
ACDBDICTIONARYWDFLT
  2
AcDbDictionaryWithDefault
  3
ObjectDBX Classes
 90
        0
 91
        4
280
     0
281
     0
  0
CLASS
  1
VISUALSTYLE
  2
AcDbVisualStyle
  3
ObjectDBX Classes
 90
     4095
 91
        4
280
     0
281
     0
  0
CLASS
  1
MATERIAL
  2
AcDbMaterial
  3
ObjectDBX Classes
 90
     1153
 91
        4
280
     0
281
     0
  0
CLASS
  1
SUN
  2
AcDbSun
  3
SCENEOE
 90
     1024
 91
        4
280
     0
281
     0
  0
ENDSEC
  0
SECTION
  2
TABLES
  0
TABLE
  2
VPORT
  5
8
330
0
100
AcDbSymbolTable
 70
     1
  0
VPORT
  5
29
330
8
100
AcDbSymbolTableRecord
100
AcDbViewportTableRecord
  2
*Active
 70
     0
 10
0.0
 20
0.0
 11
1.0
 21
1.0
 12
0.0
 22
0.0
 13
0.0
 23
0.0
 14
0.5
 24
0.5
 15
0.5
 25
0.5
 16
0.0
 26
0.0
 36
1.0
 17
105.0007777515277
 27
-148.5000416295416
 37
0.0
 40
297.0000832590831
 41
0.7070757462376333
 42
50.0
 43
0.0
 44
0.0
 50
0.0
 51
0.0
 71
     0
 72
   100
 73
     1
 74
     3
 75
     0
 76
     0
 77
     0
 78
     0
281
     0
 65
     1
110
0.0
120
0.0
130
0.0
111
1.0
121
0.0
131
0.0
112
0.0
122
1.0
132
0.0
 79
     0
146
0.0
 60
     3
 61
     5
292
     1
282
     1
141
0.0
142
0.0
 63
   250
361
3F
  0
ENDTAB
  0
TABLE
  2
LTYPE
  5
5
330
0
100
AcDbSymbolTable
 70
     1
  0
LTYPE
  5
14
330
5
100
AcDbSymbolTableRecord
100
AcDbLinetypeTableRecord
  2
ByBlock
 70
     0
  3

 72
    65
 73
     0
 40
0.0
  0
LTYPE
  5
15
330
5
100
AcDbSymbolTableRecord
100
AcDbLinetypeTableRecord
  2
ByLayer
 70
     0
  3

 72
    65
 73
     0
 40
0.0
  0
LTYPE
  5
16
330
5
100
AcDbSymbolTableRecord
100
AcDbLinetypeTableRecord
  2
Continuous
 70
     0
  3
Solid line
 72
    65
 73
     0
 40
0.0
  0
ENDTAB
  0
TABLE
  2
LAYER
  5
2
330
0
100
AcDbSymbolTable
 70
     2
  0
LAYER
  5
10
330
2
100
AcDbSymbolTableRecord
100
AcDbLayerTableRecord
  2
0
 70
     0
 62
     7
  6
Continuous
370
    -3
390
F
347
3E
  0
LAYER
  5
40
330
2
100
AcDbSymbolTableRecord
100
AcDbLayerTableRecord
  2
_U+30EC_U+30A4_U+30E4_U+30FC 1
 70
     0
 62
     7
  6
Continuous
370
    -3
390
F
347
3E
  0
ENDTAB
  0
TABLE
  2
STYLE
  5
3
330
0
100
AcDbSymbolTable
 70
     1
  0
STYLE
  5
11
330
3
100
AcDbSymbolTableRecord
100
AcDbTextStyleTableRecord
  2
Standard
 70
     0
 40
0.0
 41
1.0
 50
0.0
 71
     0
 42
0.2
  3
txt
  4

  0
ENDTAB
  0
TABLE
  2
VIEW
  5
6
330
0
100
AcDbSymbolTable
 70
     0
  0
ENDTAB
  0
TABLE
  2
UCS
  5
7
330
0
100
AcDbSymbolTable
 70
     0
  0
ENDTAB
  0
TABLE
  2
APPID
  5
9
330
0
100
AcDbSymbolTable
 70
     1
  0
APPID
  5
12
330
9
100
AcDbSymbolTableRecord
100
AcDbRegAppTableRecord
  2
ACAD
 70
     0
  0
ENDTAB
  0
TABLE
  2
DIMSTYLE
  5
A
330
0
100
AcDbSymbolTable
 70
     1
100
AcDbDimStyleTable
  0
DIMSTYLE
105
27
330
A
100
AcDbSymbolTableRecord
100
AcDbDimStyleTableRecord
  2
Standard
 70
     0
178
     0
340
11
  0
ENDTAB
  0
TABLE
  2
BLOCK_RECORD
  5
1
330
0
100
AcDbSymbolTable
 70
     7
  0
BLOCK_RECORD
  5
1F
330
1
100
AcDbSymbolTableRecord
100
AcDbBlockTableRecord
  2
*Model_Space
340
22
 70
     0
280
     1
281
     0
  0
BLOCK_RECORD
  5
1B
330
1
100
AcDbSymbolTableRecord
100
AcDbBlockTableRecord
  2
*Paper_Space
340
1E
 70
     0
280
     1
281
     0
  0
BLOCK_RECORD
  5
23
330
1
100
AcDbSymbolTableRecord
100
AcDbBlockTableRecord
  2
*Paper_Space0
340
26
 70
     0
280
     1
281
     0
  0
BLOCK_RECORD
  5
4F
330
1
100
AcDbSymbolTableRecord
100
AcDbBlockTableRecord
  2
block 2
340
0
102
{BLKREFS
331
50
102
}
 70
     0
280
     1
281
     0
  0
BLOCK_RECORD
  5
78
330
1
100
AcDbSymbolTableRecord
100
AcDbBlockTableRecord
  2
block 3
340
0
102
{BLKREFS
331
79
102
}
 70
     0
280
     1
281
     0
  0
BLOCK_RECORD
  5
8D
330
1
100
AcDbSymbolTableRecord
100
AcDbBlockTableRecord
  2
block 4
340
0
102
{BLKREFS
331
8E
102
}
 70
     0
280
     1
281
     0
  0
BLOCK_RECORD
  5
B3
330
1
100
AcDbSymbolTableRecord
100
AcDbBlockTableRecord
  2
block 5
340
0
102
{BLKREFS
331
B4
102
}
 70
     0
280
     1
281
     0
  0
BLOCK_RECORD
  5
CB
330
1
100
AcDbSymbolTableRecord
100
AcDbBlockTableRecord
  2
block 6
340
0
102
{BLKREFS
331
CC
102
}
 70
     0
280
     1
281
     0
  0
BLOCK_RECORD
  5
D9
330
1
100
AcDbSymbolTableRecord
100
AcDbBlockTableRecord
  2
block 7
340
0
102
{BLKREFS
331
DA
102
}
 70
     0
280
     1
281
     0
  0
ENDTAB
  0
ENDSEC
  0
SECTION
  2
BLOCKS
  0
BLOCK
  5
20
330
1F
100
AcDbEntity
  8
0
100
AcDbBlockBegin
  2
*Model_Space
 70
     0
 10
0.0
 20
0.0
 30
0.0
  3
*Model_Space
  1

  0
ENDBLK
  5
21
330
1F
100
AcDbEntity
  8
0
100
AcDbBlockEnd
  0
BLOCK
  5
1C
330
1B
100
AcDbEntity
 67
     1
  8
0
100
AcDbBlockBegin
  2
*Paper_Space
 70
     0
 10
0.0
 20
0.0
 30
0.0
  3
*Paper_Space
  1

  0
ENDBLK
  5
1D
330
1B
100
AcDbEntity
 67
     1
  8
0
100
AcDbBlockEnd
  0
BLOCK
  5
24
330
23
100
AcDbEntity
  8
0
100
AcDbBlockBegin
  2
*Paper_Space0
 70
     0
 10
0.0
 20
0.0
 30
0.0
  3
*Paper_Space0
  1

  0
ENDBLK
  5
25
330
23
100
AcDbEntity
  8
0
100
AcDbBlockEnd
  0
BLOCK
  5
51
330
4F
100
AcDbEntity
  8
0
100
AcDbBlockBegin
  2
block 2
 70
     0
 10
0.0
 20
0.0
 30
0.0
  3
block 2
  1

  0
SPLINE
  5
53
330
4F
100
AcDbEntity
  8
_U+30EC_U+30A4_U+30E4_U+30FC 1
370
     0
100
AcDbSpline
210
0.0
220
0.0
230
1.0
 70
    11
 71
     3
 72
    26
 73
    22
 74
     0
 42
0.0000000001
 43
0.0000000001
 12
1.0
 22
0.0
 32
0.0
 13
1.0
 23
0.0
 33
0.0
 40
0.0
 40
0.0
 40
0.0
 40
0.0
 40
1.0
 40
1.0
 40
1.0
 40
2.0
 40
2.0
 40
2.0
 40
3.0
 40
3.0
 40
3.0
 40
4.0
 40
4.0
 40
4.0
 40
5.0
 40
5.0
 40
5.0
 40
6.0
 40
6.0
 40
6.0
 40
7.0
 40
7.0
 40
7.0
 40
7.0
 10
105.9690700689938
 20
-157.9862222912326
 30
0.0
 10
105.9690700689938
 20
-157.9862222912326
 30
0.0
 10
105.9690700689938
 20
-156.88206918821
 30
0.0
 10
105.9690700689938
 20
-156.88206918821
 30
0.0
 10
105.9690700689938
 20
-156.88206918821
 30
0.0
 10
105.6162922913043
 20
-156.88206918821
 30
0.0
 10
105.6162922913043
 20
-156.88206918821
 30
0.0
 10
105.6162922913043
 20
-156.88206918821
 30
0.0
 10
105.6162922913043
 20
-156.7339300823443
 30
0.0
 10
105.6162922913043
 20
-156.7339300823443
 30
0.0
 10
105.9714816358335
 20
-156.7191161717577
 30
0.0
 10
106.0214355203696
 20
-156.5561631553054
 30
0.0
 10
106.0527858892854
 20
-156.4417859851951
 30
0.0
 10
106.0527858892854
 20
-156.4417859851951
 30
0.0
 10
106.2088487147672
 20
-156.4417859851951
 30
0.0
 10
106.2088487147672
 20
-156.4417859851951
 30
0.0
 10
106.2088487147672
 20
-156.4417859851951
 30
0.0
 10
106.2088487147672
 20
-157.9862222912326
 30
0.0
 10
106.2088487147672
 20
-157.9862222912326
 30
0.0
 10
106.2088487147672
 20
-157.9862222912326
 30
0.0
 10
105.9690700689938
 20
-157.9862222912326
 30
0.0
 10
105.9690700689938
 20
-157.9862222912326
 30
0.0
  0
HATCH
  5
54
330
4F
100
AcDbEntity
  8
_U+30EC_U+30A4_U+30E4_U+30FC 1
 62
   179
420
  2234388
100
AcDbHatch
 10
0.0
 20
0.0
 30
0.0
210
0.0
220
0.0
230
1.0
  2
SOLID
 70
     1
 71
     0
 91
        1
 92
        1
 93
        1
 72
     4
 94
        3
 73
     0
 74
     1
 95
       26
 96
       22
 40
0.0
 40
0.0
 40
0.0
 40
0.0
 40
1.0
 40
1.0
 40
1.0
 40
2.0
 40
2.0
 40
2.0
 40
3.0
 40
3.0
 40
3.0
 40
4.0
 40
4.0
 40
4.0
 40
5.0
 40
5.0
 40
5.0
 40
6.0
 40
6.0
 40
6.0
 40
7.0
 40
7.0
 40
7.0
 40
7.0
 10
105.9690700689938
 20
-157.9862222912326
 10
105.9690700689938
 20
-157.9862222912326
 10
105.9690700689938
 20
-156.88206918821
 10
105.9690700689938
 20
-156.88206918821
 10
105.9690700689938
 20
-156.88206918821
 10
105.6162922913043
 20
-156.88206918821
 10
105.6162922913043
 20
-156.88206918821
 10
105.6162922913043
 20
-156.88206918821
 10
105.6162922913043
 20
-156.7339300823443
 10
105.6162922913043
 20
-156.7339300823443
 10
105.9714816358335
 20
-156.7191161717577
 10
106.0214355203696
 20
-156.5561631553054
 10
106.0527858892854
 20
-156.4417859851951
 10
106.0527858892854
 20
-156.4417859851951
 10
106.2088487147672
 20
-156.4417859851951
 10
106.2088487147672
 20
-156.4417859851951
 10
106.2088487147672
 20
-156.4417859851951
 10
106.2088487147672
 20
-157.9862222912326
 10
106.2088487147672
 20
-157.9862222912326
 10
106.2088487147672
 20
-157.9862222912326
 10
105.9690700689938
 20
-157.9862222912326
 10
105.9690700689938
 20
-157.9862222912326
 97
        0
 97
        0
 75
     2
 76
     1
 98
        0
  0
POLYLINE
  5
55
330
4F
100
AcDbEntity
  8
_U+30EC_U+30A4_U+30E4_U+30FC 1
370
     0
100
AcDb2dPolyline
 66
     1
 10
0.0
 20
0.0
 30
0.0
  0
VERTEX
  5
56
330
55
100
AcDbEntity
  8
_U+30EC_U+30A4_U+30E4_U+30FC 1
370
     0
100
AcDbVertex
100
AcDb2dVertex
 10
107.6337402074666
 20
-157.639301175868
 30
0.0
  0
VERTEX
  5
57
330
55
100
AcDbEntity
  8
_U+30EC_U+30A4_U+30E4_U+30FC 1
370
     0
100
AcDbVertex
100
AcDb2dVertex
 10
107.6337402074666
 20
-157.9862222912326
 30
0.0
  0
VERTEX
  5
58
330
55
100
AcDbEntity
  8
_U+30EC_U+30A4_U+30E4_U+30FC 1
370
     0
100
AcDbVertex
100
AcDb2dVertex
 10
107.4011962622122
 20
-157.9862222912326
 30
0.0
  0
VERTEX
  5
59
330
55
100
AcDbEntity
  8
_U+30EC_U+30A4_U+30E4_U+30FC 1
370
     0
100
AcDbVertex
100
AcDb2dVertex
 10
107.4011962622122
 20
-157.639301175868
 30
0.0
  0
VERTEX
  5
5A
330
55
100
AcDbEntity
  8
_U+30EC_U+30A4_U+30E4_U+30FC 1
370
     0
100
AcDbVertex
100
AcDb2dVertex
 10
106.7001193309639
 20
-157.639301175868
 30
0.0
  0
VERTEX
  5
5B
330
55
100
AcDbEntity
  8
_U+30EC_U+30A4_U+30E4_U+30FC 1
370
     0
100
AcDbVertex
100
AcDb2dVertex
 10
106.7001193309639
 20
-157.4150254597782
 30
0.0
  0
VERTEX
  5
5C
330
55
100
AcDbEntity
  8
_U+30EC_U+30A4_U+30E4_U+30FC 1
370
     0
100
AcDbVertex
100
AcDb2dVertex
 10
107.426000949706
 20
-156.4417859851951
 30
0.0
  0
VERTEX
  5
5D
330
55
100
AcDbEntity
  8
_U+30EC_U+30A4_U+30E4_U+30FC 1
370
     0
100
AcDbVertex
100
AcDb2dVertex
 10
107.6337402074666
 20
-156.4417859851951
 30
0.0
  0
VERTEX
  5
5E
330
55
100
AcDbEntity
  8
_U+30EC_U+30A4_U+30E4_U+30FC 1
370
     0
100
AcDbVertex
100
AcDb2dVertex
 10
107.6337402074666
 20
-157.4405191663691
 30
0.0
  0
VERTEX
  5
5F
330
55
100
AcDbEntity
  8
_U+30EC_U+30A4_U+30E4_U+30FC 1
370
     0
100
AcDbVertex
100
AcDb2dVertex
 10
107.8556043567167
 20
-157.4405191663691
 30
0.0
  0
VERTEX
  5
60
330
55
100
AcDbEntity
  8
_U+30EC_U+30A4_U+30E4_U+30FC 1
370
     0
100
AcDbVertex
100
AcDb2dVertex
 10
107.8556043567167
 20
-157.639301175868
 30
0.0
  0
VERTEX
  5
61
330
55
100
AcDbEntity
  8
_U+30EC_U+30A4_U+30E4_U+30FC 1
370
     0
100
AcDbVertex
100
AcDb2dVertex
 10
107.6337402074666
 20
-157.639301175868
 30
0.0
  0
SEQEND
  5
62
330
55
100
AcDbEntity
  8
_U+30EC_U+30A4_U+30E4_U+30FC 1
370
     0
  0
POLYLINE
  5
63
330
4F
100
AcDbEntity
  8
_U+30EC_U+30A4_U+30E4_U+30FC 1
370
     0
100
AcDb2dPolyline
 66
     1
 10
0.0
 20
0.0
 30
0.0
  0
VERTEX
  5
64
330
63
100
AcDbEntity
  8
_U+30EC_U+30A4_U+30E4_U+30FC 1
370
     0
100
AcDbVertex
100
AcDb2dVertex
 10
107.4011962622122
 20
-156.7845729859775
 30
0.0
  0
VERTEX
  5
65
330
63
100
AcDbEntity
  8
_U+30EC_U+30A4_U+30E4_U+30FC 1
370
     0
100
AcDbVertex
100
AcDb2dVertex
 10
106.9126817224038
 20
-157.4405191663691
 30
0.0
  0
VERTEX
  5
66
330
63
100
AcDbEntity
  8
_U+30EC_U+30A4_U+30E4_U+30FC 1
370
     0
100
AcDbVertex
100
AcDb2dVertex
 10
107.4011962622122
 20
-157.4405191663691
 30
0.0
  0
VERTEX
  5
67
330
63
100
AcDbEntity
  8
_U+30EC_U+30A4_U+30E4_U+30FC 1
370
     0
100
AcDbVertex
100
AcDb2dVertex
 10
107.4011962622122
 20
-156.7845729859775
 30
0.0
  0
SEQEND
  5
68
330
63
100
AcDbEntity
  8
_U+30EC_U+30A4_U+30E4_U+30FC 1
370
     0
  0
HATCH
  5
69
330
4F
100
AcDbEntity
  8
_U+30EC_U+30A4_U+30E4_U+30FC 1
 62
   179
420
  2234388
100
AcDbHatch
 10
0.0
 20
0.0
 30
0.0
210
0.0
220
0.0
230
1.0
  2
SOLID
 70
     1
 71
     0
 91
        2
 92
        1
 93
       11
 72
     1
 10
107.6337402074666
 20
-157.639301175868
 11
107.6337402074666
 21
-157.9862222912326
 72
     1
 10
107.6337402074666
 20
-157.9862222912326
 11
107.4011962622122
 21
-157.9862222912326
 72
     1
 10
107.4011962622122
 20
-157.9862222912326
 11
107.4011962622122
 21
-157.639301175868
 72
     1
 10
107.4011962622122
 20
-157.639301175868
 11
106.7001193309639
 21
-157.639301175868
 72
     1
 10
106.7001193309639
 20
-157.639301175868
 11
106.7001193309639
 21
-157.4150254597782
 72
     1
 10
106.7001193309639
 20
-157.4150254597782
 11
107.426000949706
 21
-156.4417859851951
 72
     1
 10
107.426000949706
 20
-156.4417859851951
 11
107.6337402074666
 21
-156.4417859851951
 72
     1
 10
107.6337402074666
 20
-156.4417859851951
 11
107.6337402074666
 21
-157.4405191663691
 72
     1
 10
107.6337402074666
 20
-157.4405191663691
 11
107.8556043567167
 21
-157.4405191663691
 72
     1
 10
107.8556043567167
 20
-157.4405191663691
 11
107.8556043567167
 21
-157.639301175868
 72
     1
 10
107.8556043567167
 20
-157.639301175868
 11
107.6337402074666
 21
-157.639301175868
 97
        0
 92
        1
 93
        3
 72
     1
 10
107.4011962622122
 20
-156.7845729859775
 11
106.9126817224038
 21
-157.4405191663691
 72
     1
 10
106.9126817224038
 20
-157.4405191663691
 11
107.4011962622122
 21
-157.4405191663691
 72
     1
 10
107.4011962622122
 20
-157.4405191663691
 11
107.4011962622122
 21
-156.7845729859775
 97
        0
 75
     2
 76
     1
 98
        0
  0
ENDBLK
  5
52
330
4F
100
AcDbEntity
  8
0
100
AcDbBlockEnd
  0
BLOCK
  5
7A
330
78
100
AcDbEntity
  8
0
100
AcDbBlockBegin
  2
block 3
 70
     0
 10
0.0
 20
0.0
 30
0.0
  3
block 3
  1

  0
SPLINE
  5
7C
330
78
100
AcDbEntity
  8
_U+30EC_U+30A4_U+30E4_U+30FC 1
370
     0
100
AcDbSpline
210
0.0
220
0.0
230
1.0
 70
    11
 71
     3
 72
    32
 73
    28
 74
     0
 42
0.0000000001
 43
0.0000000001
 12
1.0
 22
0.0
 32
0.0
 13
1.0
 23
0.0
 33
0.0
 40
0.0
 40
0.0
 40
0.0
 40
0.0
 40
1.0
 40
1.0
 40
1.0
 40
2.0
 40
2.0
 40
2.0
 40
3.0
 40
3.0
 40
3.0
 40
4.0
 40
4.0
 40
4.0
 40
5.0
 40
5.0
 40
5.0
 40
6.0
 40
6.0
 40
6.0
 40
7.0
 40
7.0
 40
7.0
 40
8.0
 40
8.0
 40
8.0
 40
9.0
 40
9.0
 40
9.0
 40
9.0
 10
103.7547349458495
 20
-140.4456908828573
 30
0.0
 10
103.2030029038868
 20
-140.4456908828573
 30
0.0
 10
103.1940456556251
 20
-139.8917195288292
 30
0.0
 10
103.1940456556251
 20
-139.6777790991951
 30
0.0
 10
103.1940456556251
 20
-139.4473022112319
 30
0.0
 10
103.2143717189881
 20
-138.7999687695535
 30
0.0
 10
103.7953870725755
 20
-138.7999687695535
 30
0.0
 10
103.9809054644562
 20
-138.7999687695535
 30
0.0
 10
104.2430772308837
 20
-138.8699042079041
 30
0.0
 10
104.2837293576096
 20
-139.2020114126821
 30
0.0
 10
104.2837293576096
 20
-139.2020114126821
 30
0.0
 10
104.0554917817118
 20
-139.2020114126821
 30
0.0
 10
104.0554917817118
 20
-139.2020114126821
 30
0.0
 10
104.0441229666105
 20
-139.144822827627
 30
0.0
 10
104.0101887760808
 20
-138.9966837217613
 30
0.0
 10
103.7931477605101
 20
-138.9966837217613
 30
0.0
 10
103.4811943643207
 20
-138.9966837217613
 30
0.0
 10
103.4383029255293
 20
-139.324656811957
 30
0.0
 10
103.4246947983626
 20
-139.5296399933294
 30
0.0
 10
103.524085803112
 20
-139.4514363258142
 30
0.0
 10
103.5964328083023
 20
-139.3921806834679
 30
0.0
 10
103.7909084484446
 20
-139.3921806834679
 30
0.0
 10
103.9831447765216
 20
-139.3921806834679
 30
0.0
 10
104.3064669878123
 20
-139.5003566817048
 30
0.0
 10
104.3064669878123
 20
-139.9065334394157
 30
0.0
 10
104.3064669878123
 20
-140.2258937908984
 30
0.0
 10
104.0939045963724
 20
-140.4456908828573
 30
0.0
 10
103.7547349458495
 20
-140.4456908828573
 30
0.0
  0
SPLINE
  5
7D
330
78
100
AcDbEntity
  8
_U+30EC_U+30A4_U+30E4_U+30FC 1
370
     0
100
AcDbSpline
210
0.0
220
0.0
230
1.0
 70
    11
 71
     3
 72
    17
 73
    13
 74
     0
 42
0.0000000001
 43
0.0000000001
 12
1.0
 22
0.0
 32
0.0
 13
1.0
 23
0.0
 33
0.0
 40
0.0
 40
0.0
 40
0.0
 40
0.0
 40
1.0
 40
1.0
 40
1.0
 40
2.0
 40
2.0
 40
2.0
 40
3.0
 40
3.0
 40
3.0
 40
4.0
 40
4.0
 40
4.0
 40
4.0
 10
103.7728216971471
 20
-139.5868285783845
 30
0.0
 10
103.4923909246477
 20
-139.5868285783845
 30
0.0
 10
103.4517387979218
 20
-139.7983574411789
 30
0.0
 10
103.4517387979218
 20
-139.9148016685803
 30
0.0
 10
103.4517387979218
 20
-140.0905015383281
 30
0.0
 10
103.5535413695109
 20
-140.2534545547804
 30
0.0
 10
103.7502563217187
 20
-140.2534545547804
 30
0.0
 10
103.879102892867
 20
-140.2534545547804
 30
0.0
 10
104.0666883420389
 20
-140.1941989124341
 30
0.0
 10
104.0666883420389
 20
-139.9086004967069
 30
0.0
 10
104.0666883420389
 20
-139.6843247806171
 30
0.0
 10
103.9175157075276
 20
-139.5868285783845
 30
0.0
 10
103.7728216971471
 20
-139.5868285783845
 30
0.0
  0
HATCH
  5
7E
330
78
100
AcDbEntity
  8
_U+30EC_U+30A4_U+30E4_U+30FC 1
 62
   179
420
  2234388
100
AcDbHatch
 10
0.0
 20
0.0
 30
0.0
210
0.0
220
0.0
230
1.0
  2
SOLID
 70
     1
 71
     0
 91
        2
 92
        1
 93
        1
 72
     4
 94
        3
 73
     0
 74
     1
 95
       32
 96
       28
 40
0.0
 40
0.0
 40
0.0
 40
0.0
 40
1.0
 40
1.0
 40
1.0
 40
2.0
 40
2.0
 40
2.0
 40
3.0
 40
3.0
 40
3.0
 40
4.0
 40
4.0
 40
4.0
 40
5.0
 40
5.0
 40
5.0
 40
6.0
 40
6.0
 40
6.0
 40
7.0
 40
7.0
 40
7.0
 40
8.0
 40
8.0
 40
8.0
 40
9.0
 40
9.0
 40
9.0
 40
9.0
 10
103.7547349458495
 20
-140.4456908828573
 10
103.2030029038868
 20
-140.4456908828573
 10
103.1940456556251
 20
-139.8917195288292
 10
103.1940456556251
 20
-139.6777790991951
 10
103.1940456556251
 20
-139.4473022112319
 10
103.2143717189881
 20
-138.7999687695535
 10
103.7953870725755
 20
-138.7999687695535
 10
103.9809054644562
 20
-138.7999687695535
 10
104.2430772308837
 20
-138.8699042079041
 10
104.2837293576096
 20
-139.2020114126821
 10
104.2837293576096
 20
-139.2020114126821
 10
104.0554917817118
 20
-139.2020114126821
 10
104.0554917817118
 20
-139.2020114126821
 10
104.0441229666105
 20
-139.144822827627
 10
104.0101887760808
 20
-138.9966837217613
 10
103.7931477605101
 20
-138.9966837217613
 10
103.4811943643207
 20
-138.9966837217613
 10
103.4383029255293
 20
-139.324656811957
 10
103.4246947983626
 20
-139.5296399933294
 10
103.524085803112
 20
-139.4514363258142
 10
103.5964328083023
 20
-139.3921806834679
 10
103.7909084484446
 20
-139.3921806834679
 10
103.9831447765216
 20
-139.3921806834679
 10
104.3064669878123
 20
-139.5003566817048
 10
104.3064669878123
 20
-139.9065334394157
 10
104.3064669878123
 20
-140.2258937908984
 10
104.0939045963724
 20
-140.4456908828573
 10
103.7547349458495
 20
-140.4456908828573
 97
        0
 97
        0
 92
        1
 93
        1
 72
     4
 94
        3
 73
     0
 74
     1
 95
       17
 96
       13
 40
0.0
 40
0.0
 40
0.0
 40
0.0
 40
1.0
 40
1.0
 40
1.0
 40
2.0
 40
2.0
 40
2.0
 40
3.0
 40
3.0
 40
3.0
 40
4.0
 40
4.0
 40
4.0
 40
4.0
 10
103.7728216971471
 20
-139.5868285783845
 10
103.4923909246477
 20
-139.5868285783845
 10
103.4517387979218
 20
-139.7983574411789
 10
103.4517387979218
 20
-139.9148016685803
 10
103.4517387979218
 20
-140.0905015383281
 10
103.5535413695109
 20
-140.2534545547804
 10
103.7502563217187
 20
-140.2534545547804
 10
103.879102892867
 20
-140.2534545547804
 10
104.0666883420389
 20
-140.1941989124341
 10
104.0666883420389
 20
-139.9086004967069
 10
104.0666883420389
 20
-139.6843247806171
 10
103.9175157075276
 20
-139.5868285783845
 10
103.7728216971471
 20
-139.5868285783845
 97
        0
 97
        0
 75
     2
 76
     1
 98
        0
  0
ENDBLK
  5
7B
330
78
100
AcDbEntity
  8
0
100
AcDbBlockEnd
  0
BLOCK
  5
8F
330
8D
100
AcDbEntity
  8
0
100
AcDbBlockBegin
  2
block 4
 70
     0
 10
0.0
 20
0.0
 30
0.0
  3
block 4
  1

  0
SPLINE
  5
91
330
8D
100
AcDbEntity
  8
_U+30EC_U+30A4_U+30E4_U+30FC 1
370
     0
100
AcDbSpline
210
0.0
220
0.0
230
1.0
 70
    11
 71
     3
 72
    26
 73
    22
 74
     0
 42
0.0000000001
 43
0.0000000001
 12
1.0
 22
0.0
 32
0.0
 13
1.0
 23
0.0
 33
0.0
 40
0.0
 40
0.0
 40
0.0
 40
0.0
 40
1.0
 40
1.0
 40
1.0
 40
2.0
 40
2.0
 40
2.0
 40
3.0
 40
3.0
 40
3.0
 40
4.0
 40
4.0
 40
4.0
 40
5.0
 40
5.0
 40
5.0
 40
6.0
 40
6.0
 40
6.0
 40
7.0
 40
7.0
 40
7.0
 40
7.0
 10
95.05380178830252
 20
-150.2791991811802
 30
0.0
 10
95.05380178830252
 20
-150.2791991811802
 30
0.0
 10
93.94964868527995
 20
-150.2791991811802
 30
0.0
 10
93.94964868527995
 20
-150.2791991811802
 30
0.0
 10
93.94964868527995
 20
-150.2791991811802
 30
0.0
 10
93.94964868527995
 20
-150.6319769588698
 30
0.0
 10
93.94964868527995
 20
-150.6319769588698
 30
0.0
 10
93.94964868527995
 20
-150.6319769588698
 30
0.0
 10
93.80150957941422
 20
-150.6319769588698
 30
0.0
 10
93.80150957941422
 20
-150.6319769588698
 30
0.0
 10
93.78669566882763
 20
-150.2767876143405
 30
0.0
 10
93.62374265237531
 20
-150.2268337298044
 30
0.0
 10
93.50936548226503
 20
-150.1954833608886
 30
0.0
 10
93.50936548226503
 20
-150.1954833608886
 30
0.0
 10
93.50936548226503
 20
-150.0394205354068
 30
0.0
 10
93.50936548226503
 20
-150.0394205354068
 30
0.0
 10
93.50936548226503
 20
-150.0394205354068
 30
0.0
 10
95.05380178830252
 20
-150.0394205354068
 30
0.0
 10
95.05380178830252
 20
-150.0394205354068
 30
0.0
 10
95.05380178830252
 20
-150.0394205354068
 30
0.0
 10
95.05380178830252
 20
-150.2791991811802
 30
0.0
 10
95.05380178830252
 20
-150.2791991811802
 30
0.0
  0
HATCH
  5
92
330
8D
100
AcDbEntity
  8
_U+30EC_U+30A4_U+30E4_U+30FC 1
 62
   179
420
  2234388
100
AcDbHatch
 10
0.0
 20
0.0
 30
0.0
210
0.0
220
0.0
230
1.0
  2
SOLID
 70
     1
 71
     0
 91
        1
 92
        1
 93
        1
 72
     4
 94
        3
 73
     0
 74
     1
 95
       26
 96
       22
 40
0.0
 40
0.0
 40
0.0
 40
0.0
 40
1.0
 40
1.0
 40
1.0
 40
2.0
 40
2.0
 40
2.0
 40
3.0
 40
3.0
 40
3.0
 40
4.0
 40
4.0
 40
4.0
 40
5.0
 40
5.0
 40
5.0
 40
6.0
 40
6.0
 40
6.0
 40
7.0
 40
7.0
 40
7.0
 40
7.0
 10
95.05380178830252
 20
-150.2791991811802
 10
95.05380178830252
 20
-150.2791991811802
 10
93.94964868527995
 20
-150.2791991811802
 10
93.94964868527995
 20
-150.2791991811802
 10
93.94964868527995
 20
-150.2791991811802
 10
93.94964868527995
 20
-150.6319769588698
 10
93.94964868527995
 20
-150.6319769588698
 10
93.94964868527995
 20
-150.6319769588698
 10
93.80150957941422
 20
-150.6319769588698
 10
93.80150957941422
 20
-150.6319769588698
 10
93.78669566882763
 20
-150.2767876143405
 10
93.62374265237531
 20
-150.2268337298044
 10
93.50936548226503
 20
-150.1954833608886
 10
93.50936548226503
 20
-150.1954833608886
 10
93.50936548226503
 20
-150.0394205354068
 10
93.50936548226503
 20
-150.0394205354068
 10
93.50936548226503
 20
-150.0394205354068
 10
95.05380178830252
 20
-150.0394205354068
 10
95.05380178830252
 20
-150.0394205354068
 10
95.05380178830252
 20
-150.0394205354068
 10
95.05380178830252
 20
-150.2791991811802
 10
95.05380178830252
 20
-150.2791991811802
 97
        0
 97
        0
 75
     2
 76
     1
 98
        0
  0
SPLINE
  5
93
330
8D
100
AcDbEntity
  8
_U+30EC_U+30A4_U+30E4_U+30FC 1
370
     0
100
AcDbSpline
210
0.0
220
0.0
230
1.0
 70
    11
 71
     3
 72
    26
 73
    22
 74
     0
 42
0.0000000001
 43
0.0000000001
 12
1.0
 22
0.0
 32
0.0
 13
1.0
 23
0.0
 33
0.0
 40
0.0
 40
0.0
 40
0.0
 40
0.0
 40
1.0
 40
1.0
 40
1.0
 40
2.0
 40
2.0
 40
2.0
 40
3.0
 40
3.0
 40
3.0
 40
4.0
 40
4.0
 40
4.0
 40
5.0
 40
5.0
 40
5.0
 40
6.0
 40
6.0
 40
6.0
 40
7.0
 40
7.0
 40
7.0
 40
7.0
 10
95.05380178830252
 20
-149.021050309967
 30
0.0
 10
95.05380178830252
 20
-149.021050309967
 30
0.0
 10
93.94964868527995
 20
-149.021050309967
 30
0.0
 10
93.94964868527995
 20
-149.021050309967
 30
0.0
 10
93.94964868527995
 20
-149.021050309967
 30
0.0
 10
93.94964868527995
 20
-149.3738280876566
 30
0.0
 10
93.94964868527995
 20
-149.3738280876566
 30
0.0
 10
93.94964868527995
 20
-149.3738280876566
 30
0.0
 10
93.80150957941422
 20
-149.3738280876566
 30
0.0
 10
93.80150957941422
 20
-149.3738280876566
 30
0.0
 10
93.78669566882763
 20
-149.0189832526758
 30
0.0
 10
93.62374265237531
 20
-148.9693738776882
 30
0.0
 10
93.50936548226503
 20
-148.9376789992239
 30
0.0
 10
93.50936548226503
 20
-148.9376789992239
 30
0.0
 10
93.50936548226503
 20
-148.7816161737421
 30
0.0
 10
93.50936548226503
 20
-148.7816161737421
 30
0.0
 10
93.50936548226503
 20
-148.7816161737421
 30
0.0
 10
95.05380178830252
 20
-148.7816161737421
 30
0.0
 10
95.05380178830252
 20
-148.7816161737421
 30
0.0
 10
95.05380178830252
 20
-148.7816161737421
 30
0.0
 10
95.05380178830252
 20
-149.021050309967
 30
0.0
 10
95.05380178830252
 20
-149.021050309967
 30
0.0
  0
HATCH
  5
94
330
8D
100
AcDbEntity
  8
_U+30EC_U+30A4_U+30E4_U+30FC 1
 62
   179
420
  2234388
100
AcDbHatch
 10
0.0
 20
0.0
 30
0.0
210
0.0
220
0.0
230
1.0
  2
SOLID
 70
     1
 71
     0
 91
        1
 92
        1
 93
        1
 72
     4
 94
        3
 73
     0
 74
     1
 95
       26
 96
       22
 40
0.0
 40
0.0
 40
0.0
 40
0.0
 40
1.0
 40
1.0
 40
1.0
 40
2.0
 40
2.0
 40
2.0
 40
3.0
 40
3.0
 40
3.0
 40
4.0
 40
4.0
 40
4.0
 40
5.0
 40
5.0
 40
5.0
 40
6.0
 40
6.0
 40
6.0
 40
7.0
 40
7.0
 40
7.0
 40
7.0
 10
95.05380178830252
 20
-149.021050309967
 10
95.05380178830252
 20
-149.021050309967
 10
93.94964868527995
 20
-149.021050309967
 10
93.94964868527995
 20
-149.021050309967
 10
93.94964868527995
 20
-149.021050309967
 10
93.94964868527995
 20
-149.3738280876566
 10
93.94964868527995
 20
-149.3738280876566
 10
93.94964868527995
 20
-149.3738280876566
 10
93.80150957941422
 20
-149.3738280876566
 10
93.80150957941422
 20
-149.3738280876566
 10
93.78669566882763
 20
-149.0189832526758
 10
93.62374265237531
 20
-148.9693738776882
 10
93.50936548226503
 20
-148.9376789992239
 10
93.50936548226503
 20
-148.9376789992239
 10
93.50936548226503
 20
-148.7816161737421
 10
93.50936548226503
 20
-148.7816161737421
 10
93.50936548226503
 20
-148.7816161737421
 10
95.05380178830252
 20
-148.7816161737421
 10
95.05380178830252
 20
-148.7816161737421
 10
95.05380178830252
 20
-148.7816161737421
 10
95.05380178830252
 20
-149.021050309967
 10
95.05380178830252
 20
-149.021050309967
 97
        0
 97
        0
 75
     2
 76
     1
 98
        0
  0
POLYLINE
  5
95
330
8D
100
AcDbEntity
  8
_U+30EC_U+30A4_U+30E4_U+30FC 1
370
     0
100
AcDb2dPolyline
 66
     1
 10
0.0
 20
0.0
 30
0.0
  0
VERTEX
  5
96
330
95
100
AcDbEntity
  8
_U+30EC_U+30A4_U+30E4_U+30FC 1
370
     0
100
AcDbVertex
100
AcDb2dVertex
 10
95.05380178830252
 20
-148.1816527949858
 30
0.0
  0
VERTEX
  5
97
330
95
100
AcDbEntity
  8
_U+30EC_U+30A4_U+30E4_U+30FC 1
370
     0
100
AcDbVertex
100
AcDb2dVertex
 10
94.80196530833076
 20
-148.1816527949858
 30
0.0
  0
VERTEX
  5
98
330
95
100
AcDbEntity
  8
_U+30EC_U+30A4_U+30E4_U+30FC 1
370
     0
100
AcDbVertex
100
AcDb2dVertex
 10
94.80196530833076
 20
-147.9125908375878
 30
0.0
  0
VERTEX
  5
99
330
95
100
AcDbEntity
  8
_U+30EC_U+30A4_U+30E4_U+30FC 1
370
     0
100
AcDbVertex
100
AcDb2dVertex
 10
95.05380178830252
 20
-147.9125908375878
 30
0.0
  0
VERTEX
  5
9A
330
95
100
AcDbEntity
  8
_U+30EC_U+30A4_U+30E4_U+30FC 1
370
     0
100
AcDbVertex
100
AcDb2dVertex
 10
95.05380178830252
 20
-148.1816527949858
 30
0.0
  0
SEQEND
  5
9B
330
95
100
AcDbEntity
  8
_U+30EC_U+30A4_U+30E4_U+30FC 1
370
     0
  0
HATCH
  5
9C
330
8D
100
AcDbEntity
  8
_U+30EC_U+30A4_U+30E4_U+30FC 1
 62
   179
420
  2234388
100
AcDbHatch
 10
0.0
 20
0.0
 30
0.0
210
0.0
220
0.0
230
1.0
  2
SOLID
 70
     1
 71
     0
 91
        1
 92
        1
 93
        4
 72
     1
 10
95.05380178830252
 20
-148.1816527949858
 11
94.80196530833076
 21
-148.1816527949858
 72
     1
 10
94.80196530833076
 20
-148.1816527949858
 11
94.80196530833076
 21
-147.9125908375878
 72
     1
 10
94.80196530833076
 20
-147.9125908375878
 11
95.05380178830252
 21
-147.9125908375878
 72
     1
 10
95.05380178830252
 20
-147.9125908375878
 11
95.05380178830252
 21
-148.1816527949858
 97
        0
 75
     2
 76
     1
 98
        0
  0
SPLINE
  5
9D
330
8D
100
AcDbEntity
  8
_U+30EC_U+30A4_U+30E4_U+30FC 1
370
     0
100
AcDbSpline
210
0.0
220
0.0
230
1.0
 70
    11
 71
     3
 72
    53
 73
    49
 74
     0
 42
0.0000000001
 43
0.0000000001
 12
1.0
 22
0.0
 32
0.0
 13
1.0
 23
0.0
 33
0.0
 40
0.0
 40
0.0
 40
0.0
 40
0.0
 40
1.0
 40
1.0
 40
1.0
 40
2.0
 40
2.0
 40
2.0
 40
3.0
 40
3.0
 40
3.0
 40
4.0
 40
4.0
 40
4.0
 40
5.0
 40
5.0
 40
5.0
 40
6.0
 40
6.0
 40
6.0
 40
7.0
 40
7.0
 40
7.0
 40
8.0
 40
8.0
 40
8.0
 40
9.0
 40
9.0
 40
9.0
 40
10.0
 40
10.0
 40
10.0
 40
11.0
 40
11.0
 40
11.0
 40
12.0
 40
12.0
 40
12.0
 40
13.0
 40
13.0
 40
13.0
 40
14.0
 40
14.0
 40
14.0
 40
15.0
 40
15.0
 40
15.0
 40
16.0
 40
16.0
 40
16.0
 40
16.0
 10
95.1044446919357
 20
-147.1457125825712
 30
0.0
 10
95.1044446919357
 20
-147.2294284028628
 30
0.0
 10
95.08756372405797
 20
-147.3379489106482
 30
0.0
 10
95.02417396712937
 20
-147.4464694184335
 30
0.0
 10
94.91427542114991
 20
-147.63181555554
 30
0.0
 10
94.78301728316188
 20
-147.6543809309684
 30
0.0
 10
94.67518579447356
 20
-147.6748792491056
 30
0.0
 10
94.67518579447356
 20
-147.6748792491056
 30
0.0
 10
94.67518579447356
 20
-147.4373399153976
 30
0.0
 10
94.67518579447356
 20
-147.4373399153976
 30
0.0
 10
94.87396780397249
 20
-147.3786010373741
 30
0.0
 10
94.90359562514563
 20
-147.2430365300295
 30
0.0
 10
94.90359562514563
 20
-147.1434732705058
 30
0.0
 10
94.90359562514563
 20
-146.9943006359945
 30
0.0
 10
94.80403236562191
 20
-146.8315198743164
 30
0.0
 10
94.57148842036754
 20
-146.8315198743164
 30
0.0
 10
94.31551782581349
 20
-146.8315198743164
 30
0.0
 10
94.24558238746292
 20
-147.0237562023934
 30
0.0
 10
94.24558238746292
 20
-147.1526027735417
 30
0.0
 10
94.24558238746292
 20
-147.1865369640714
 30
0.0
 10
94.24558238746292
 20
-147.3379489106482
 30
0.0
 10
94.37477346815979
 20
-147.4328612912668
 30
0.0
 10
94.37477346815979
 20
-147.4328612912668
 30
0.0
 10
94.3558254429909
 20
-147.6206189952129
 30
0.0
 10
94.3558254429909
 20
-147.6206189952129
 30
0.0
 10
94.3558254429909
 20
-147.6206189952129
 30
0.0
 10
93.50936548226503
 20
-147.4917724240645
 30
0.0
 10
93.50936548226503
 20
-147.4917724240645
 30
0.0
 10
93.50936548226503
 20
-147.4917724240645
 30
0.0
 10
93.50936548226503
 20
-146.6597818643767
 30
0.0
 10
93.50936548226503
 20
-146.6597818643767
 30
0.0
 10
93.50936548226503
 20
-146.6597818643767
 30
0.0
 10
93.70401337718164
 20
-146.6597818643767
 30
0.0
 10
93.70401337718164
 20
-146.6597818643767
 30
0.0
 10
93.70401337718164
 20
-146.6597818643767
 30
0.0
 10
93.70401337718164
 20
-147.3176228472852
 30
0.0
 10
93.70401337718164
 20
-147.3176228472852
 30
0.0
 10
93.70401337718164
 20
-147.3176228472852
 30
0.0
 10
94.12707110277032
 20
-147.38773054041
 30
0.0
 10
94.12707110277032
 20
-147.38773054041
 30
0.0
 10
94.09330916701487
 20
-147.322101471416
 30
0.0
 10
94.05300154983745
 20
-147.2339070269936
 30
0.0
 10
94.05300154983745
 20
-147.1072997679107
 30
0.0
 10
94.05300154983745
 20
-146.8359984984473
 30
0.0
 10
94.23938121558946
 20
-146.5827839802814
 30
0.0
 10
94.55254039519868
 20
-146.5827839802814
 30
0.0
 10
94.86983368939019
 20
-146.5827839802814
 30
0.0
 10
95.1044446919357
 20
-146.8223903712805
 30
0.0
 10
95.1044446919357
 20
-147.1457125825712
 30
0.0
  0
HATCH
  5
9E
330
8D
100
AcDbEntity
  8
_U+30EC_U+30A4_U+30E4_U+30FC 1
 62
   179
420
  2234388
100
AcDbHatch
 10
0.0
 20
0.0
 30
0.0
210
0.0
220
0.0
230
1.0
  2
SOLID
 70
     1
 71
     0
 91
        1
 92
        1
 93
        1
 72
     4
 94
        3
 73
     0
 74
     1
 95
       53
 96
       49
 40
0.0
 40
0.0
 40
0.0
 40
0.0
 40
1.0
 40
1.0
 40
1.0
 40
2.0
 40
2.0
 40
2.0
 40
3.0
 40
3.0
 40
3.0
 40
4.0
 40
4.0
 40
4.0
 40
5.0
 40
5.0
 40
5.0
 40
6.0
 40
6.0
 40
6.0
 40
7.0
 40
7.0
 40
7.0
 40
8.0
 40
8.0
 40
8.0
 40
9.0
 40
9.0
 40
9.0
 40
10.0
 40
10.0
 40
10.0
 40
11.0
 40
11.0
 40
11.0
 40
12.0
 40
12.0
 40
12.0
 40
13.0
 40
13.0
 40
13.0
 40
14.0
 40
14.0
 40
14.0
 40
15.0
 40
15.0
 40
15.0
 40
16.0
 40
16.0
 40
16.0
 40
16.0
 10
95.1044446919357
 20
-147.1457125825712
 10
95.1044446919357
 20
-147.2294284028628
 10
95.08756372405797
 20
-147.3379489106482
 10
95.02417396712937
 20
-147.4464694184335
 10
94.91427542114991
 20
-147.63181555554
 10
94.78301728316188
 20
-147.6543809309684
 10
94.67518579447356
 20
-147.6748792491056
 10
94.67518579447356
 20
-147.6748792491056
 10
94.67518579447356
 20
-147.4373399153976
 10
94.67518579447356
 20
-147.4373399153976
 10
94.87396780397249
 20
-147.3786010373741
 10
94.90359562514563
 20
-147.2430365300295
 10
94.90359562514563
 20
-147.1434732705058
 10
94.90359562514563
 20
-146.9943006359945
 10
94.80403236562191
 20
-146.8315198743164
 10
94.57148842036754
 20
-146.8315198743164
 10
94.31551782581349
 20
-146.8315198743164
 10
94.24558238746292
 20
-147.0237562023934
 10
94.24558238746292
 20
-147.1526027735417
 10
94.24558238746292
 20
-147.1865369640714
 10
94.24558238746292
 20
-147.3379489106482
 10
94.37477346815979
 20
-147.4328612912668
 10
94.37477346815979
 20
-147.4328612912668
 10
94.3558254429909
 20
-147.6206189952129
 10
94.3558254429909
 20
-147.6206189952129
 10
94.3558254429909
 20
-147.6206189952129
 10
93.50936548226503
 20
-147.4917724240645
 10
93.50936548226503
 20
-147.4917724240645
 10
93.50936548226503
 20
-147.4917724240645
 10
93.50936548226503
 20
-146.6597818643767
 10
93.50936548226503
 20
-146.6597818643767
 10
93.50936548226503
 20
-146.6597818643767
 10
93.70401337718164
 20
-146.6597818643767
 10
93.70401337718164
 20
-146.6597818643767
 10
93.70401337718164
 20
-146.6597818643767
 10
93.70401337718164
 20
-147.3176228472852
 10
93.70401337718164
 20
-147.3176228472852
 10
93.70401337718164
 20
-147.3176228472852
 10
94.12707110277032
 20
-147.38773054041
 10
94.12707110277032
 20
-147.38773054041
 10
94.09330916701487
 20
-147.322101471416
 10
94.05300154983745
 20
-147.2339070269936
 10
94.05300154983745
 20
-147.1072997679107
 10
94.05300154983745
 20
-146.8359984984473
 10
94.23938121558946
 20
-146.5827839802814
 10
94.55254039519868
 20
-146.5827839802814
 10
94.86983368939019
 20
-146.5827839802814
 10
95.1044446919357
 20
-146.8223903712805
 10
95.1044446919357
 20
-147.1457125825712
 97
        0
 97
        0
 75
     2
 76
     1
 98
        0
  0
ENDBLK
  5
90
330
8D
100
AcDbEntity
  8
0
100
AcDbBlockEnd
  0
BLOCK
  5
B5
330
B3
100
AcDbEntity
  8
0
100
AcDbBlockBegin
  2
block 5
 70
     0
 10
0.0
 20
0.0
 30
0.0
  3
block 5
  1

  0
SPLINE
  5
B7
330
B3
100
AcDbEntity
  8
_U+30EC_U+30A4_U+30E4_U+30FC 1
370
     0
100
AcDbSpline
210
0.0
220
0.0
230
1.0
 70
    11
 71
     3
 72
    62
 73
    58
 74
     0
 42
0.0000000001
 43
0.0000000001
 12
1.0
 22
0.0
 32
0.0
 13
1.0
 23
0.0
 33
0.0
 40
0.0
 40
0.0
 40
0.0
 40
0.0
 40
1.0
 40
1.0
 40
1.0
 40
2.0
 40
2.0
 40
2.0
 40
3.0
 40
3.0
 40
3.0
 40
4.0
 40
4.0
 40
4.0
 40
5.0
 40
5.0
 40
5.0
 40
6.0
 40
6.0
 40
6.0
 40
7.0
 40
7.0
 40
7.0
 40
8.0
 40
8.0
 40
8.0
 40
9.0
 40
9.0
 40
9.0
 40
10.0
 40
10.0
 40
10.0
 40
11.0
 40
11.0
 40
11.0
 40
12.0
 40
12.0
 40
12.0
 40
13.0
 40
13.0
 40
13.0
 40
14.0
 40
14.0
 40
14.0
 40
15.0
 40
15.0
 40
15.0
 40
16.0
 40
16.0
 40
16.0
 40
17.0
 40
17.0
 40
17.0
 40
18.0
 40
18.0
 40
18.0
 40
19.0
 40
19.0
 40
19.0
 40
19.0
 10
115.5622829572205
 20
-152.8995388072612
 30
0.0
 10
115.5622829572205
 20
-153.0008246145276
 30
0.0
 10
115.5412678747605
 20
-153.2337130693305
 30
0.0
 10
115.355232718557
 20
-153.3673827741582
 30
0.0
 10
115.2429226057379
 20
-153.4466199703189
 30
0.0
 10
115.1437038557627
 20
-153.4507540849012
 30
0.0
 10
115.0589545068255
 20
-153.4555772185805
 30
0.0
 10
115.0589545068255
 20
-153.4555772185805
 30
0.0
 10
115.0589545068255
 20
-153.220277196938
 30
0.0
 10
115.0589545068255
 20
-153.220277196938
 30
0.0
 10
115.1330240597584
 20
-153.2178656300983
 30
0.0
 10
115.3676350623039
 20
-153.2068413245455
 30
0.0
 10
115.3676350623039
 20
-152.9036729218435
 30
0.0
 10
115.3676350623039
 20
-152.7569118541719
 30
0.0
 10
115.2980441335019
 20
-152.5943033472681
 30
0.0
 10
115.0696343028298
 20
-152.5943033472681
 30
0.0
 10
114.9531900754284
 20
-152.5943033472681
 30
0.0
 10
114.9046142290863
 20
-152.634955473994
 30
0.0
 10
114.8729193506221
 20
-152.6687174097495
 30
0.0
 10
114.7988497976892
 20
-152.7479546059103
 30
0.0
 10
114.7861029443938
 20
-152.8719780433792
 30
0.0
 10
114.7861029443938
 20
-152.930889176177
 30
0.0
 10
114.7861029443938
 20
-152.95121523954
 30
0.0
 10
114.7881700016849
 20
-152.9898003089748
 30
0.0
 10
114.7923041162672
 20
-153.0190836205994
 30
0.0
 10
114.7923041162672
 20
-153.0190836205994
 30
0.0
 10
114.5976562213506
 20
-153.0190836205994
 30
0.0
 10
114.5976562213506
 20
-153.0190836205994
 30
0.0
 10
114.6042019027726
 20
-152.9784314938734
 30
0.0
 10
114.6062689600637
 20
-152.9333007430167
 30
0.0
 10
114.6062689600637
 20
-152.9264105520462
 30
0.0
 10
114.6062689600637
 20
-152.8561306041471
 30
0.0
 10
114.5849093680552
 20
-152.6439127222557
 30
0.0
 10
114.3482313082185
 20
-152.6439127222557
 30
0.0
 10
114.1704643811796
 20
-152.6439127222557
 30
0.0
 10
114.1153428534156
 20
-152.7837835989568
 30
0.0
 10
114.1153428534156
 20
-152.9016058645524
 30
0.0
 10
114.1153428534156
 20
-153.1841036943429
 30
0.0
 10
114.3482313082185
 20
-153.1930609426045
 30
0.0
 10
114.4198892943117
 20
-153.1978840762839
 30
0.0
 10
114.4198892943117
 20
-153.1978840762839
 30
0.0
 10
114.4198892943117
 20
-153.4149250918546
 30
0.0
 10
114.4198892943117
 20
-153.4149250918546
 30
0.0
 10
114.2951768377457
 20
-153.4059678435929
 30
0.0
 10
113.9186279012078
 20
-153.3763400224198
 30
0.0
 10
113.9186279012078
 20
-152.8878254826114
 30
0.0
 10
113.9186279012078
 20
-152.6483913463865
 30
0.0
 10
114.0457519246136
 20
-152.3906982040898
 30
0.0
 10
114.3416856267965
 20
-152.3906982040898
 30
0.0
 10
114.5280652925485
 20
-152.3906982040898
 30
0.0
 10
114.610403074646
 20
-152.4923285209047
 30
0.0
 10
114.6717257742835
 20
-152.5984374618504
 30
0.0
 10
114.6992865381655
 20
-152.5329806476306
 30
0.0
 10
114.7795572629718
 20
-152.3386772622626
 30
0.0
 10
115.0568874495344
 20
-152.3386772622626
 30
0.0
 10
115.3951958261859
 20
-152.3386772622626
 30
0.0
 10
115.5622829572205
 20
-152.6032605955297
 30
0.0
 10
115.5622829572205
 20
-152.8995388072612
 30
0.0
  0
HATCH
  5
B8
330
B3
100
AcDbEntity
  8
_U+30EC_U+30A4_U+30E4_U+30FC 1
 62
   179
420
  2234388
100
AcDbHatch
 10
0.0
 20
0.0
 30
0.0
210
0.0
220
0.0
230
1.0
  2
SOLID
 70
     1
 71
     0
 91
        1
 92
        1
 93
        1
 72
     4
 94
        3
 73
     0
 74
     1
 95
       62
 96
       58
 40
0.0
 40
0.0
 40
0.0
 40
0.0
 40
1.0
 40
1.0
 40
1.0
 40
2.0
 40
2.0
 40
2.0
 40
3.0
 40
3.0
 40
3.0
 40
4.0
 40
4.0
 40
4.0
 40
5.0
 40
5.0
 40
5.0
 40
6.0
 40
6.0
 40
6.0
 40
7.0
 40
7.0
 40
7.0
 40
8.0
 40
8.0
 40
8.0
 40
9.0
 40
9.0
 40
9.0
 40
10.0
 40
10.0
 40
10.0
 40
11.0
 40
11.0
 40
11.0
 40
12.0
 40
12.0
 40
12.0
 40
13.0
 40
13.0
 40
13.0
 40
14.0
 40
14.0
 40
14.0
 40
15.0
 40
15.0
 40
15.0
 40
16.0
 40
16.0
 40
16.0
 40
17.0
 40
17.0
 40
17.0
 40
18.0
 40
18.0
 40
18.0
 40
19.0
 40
19.0
 40
19.0
 40
19.0
 10
115.5622829572205
 20
-152.8995388072612
 10
115.5622829572205
 20
-153.0008246145276
 10
115.5412678747605
 20
-153.2337130693305
 10
115.355232718557
 20
-153.3673827741582
 10
115.2429226057379
 20
-153.4466199703189
 10
115.1437038557627
 20
-153.4507540849012
 10
115.0589545068255
 20
-153.4555772185805
 10
115.0589545068255
 20
-153.4555772185805
 10
115.0589545068255
 20
-153.220277196938
 10
115.0589545068255
 20
-153.220277196938
 10
115.1330240597584
 20
-153.2178656300983
 10
115.3676350623039
 20
-153.2068413245455
 10
115.3676350623039
 20
-152.9036729218435
 10
115.3676350623039
 20
-152.7569118541719
 10
115.2980441335019
 20
-152.5943033472681
 10
115.0696343028298
 20
-152.5943033472681
 10
114.9531900754284
 20
-152.5943033472681
 10
114.9046142290863
 20
-152.634955473994
 10
114.8729193506221
 20
-152.6687174097495
 10
114.7988497976892
 20
-152.7479546059103
 10
114.7861029443938
 20
-152.8719780433792
 10
114.7861029443938
 20
-152.930889176177
 10
114.7861029443938
 20
-152.95121523954
 10
114.7881700016849
 20
-152.9898003089748
 10
114.7923041162672
 20
-153.0190836205994
 10
114.7923041162672
 20
-153.0190836205994
 10
114.5976562213506
 20
-153.0190836205994
 10
114.5976562213506
 20
-153.0190836205994
 10
114.6042019027726
 20
-152.9784314938734
 10
114.6062689600637
 20
-152.9333007430167
 10
114.6062689600637
 20
-152.9264105520462
 10
114.6062689600637
 20
-152.8561306041471
 10
114.5849093680552
 20
-152.6439127222557
 10
114.3482313082185
 20
-152.6439127222557
 10
114.1704643811796
 20
-152.6439127222557
 10
114.1153428534156
 20
-152.7837835989568
 10
114.1153428534156
 20
-152.9016058645524
 10
114.1153428534156
 20
-153.1841036943429
 10
114.3482313082185
 20
-153.1930609426045
 10
114.4198892943117
 20
-153.1978840762839
 10
114.4198892943117
 20
-153.1978840762839
 10
114.4198892943117
 20
-153.4149250918546
 10
114.4198892943117
 20
-153.4149250918546
 10
114.2951768377457
 20
-153.4059678435929
 10
113.9186279012078
 20
-153.3763400224198
 10
113.9186279012078
 20
-152.8878254826114
 10
113.9186279012078
 20
-152.6483913463865
 10
114.0457519246136
 20
-152.3906982040898
 10
114.3416856267965
 20
-152.3906982040898
 10
114.5280652925485
 20
-152.3906982040898
 10
114.610403074646
 20
-152.4923285209047
 10
114.6717257742835
 20
-152.5984374618504
 10
114.6992865381655
 20
-152.5329806476306
 10
114.7795572629718
 20
-152.3386772622626
 10
115.0568874495344
 20
-152.3386772622626
 10
115.3951958261859
 20
-152.3386772622626
 10
115.5622829572205
 20
-152.6032605955297
 10
115.5622829572205
 20
-152.8995388072612
 97
        0
 97
        0
 75
     2
 76
     1
 98
        0
  0
POLYLINE
  5
B9
330
B3
100
AcDbEntity
  8
_U+30EC_U+30A4_U+30E4_U+30FC 1
370
     0
100
AcDb2dPolyline
 66
     1
 10
0.0
 20
0.0
 30
0.0
  0
VERTEX
  5
BA
330
B9
100
AcDbEntity
  8
_U+30EC_U+30A4_U+30E4_U+30FC 1
370
     0
100
AcDbVertex
100
AcDb2dVertex
 10
115.5116400535874
 20
-152.102688221523
 30
0.0
  0
VERTEX
  5
BB
330
B9
100
AcDbEntity
  8
_U+30EC_U+30A4_U+30E4_U+30FC 1
370
     0
100
AcDbVertex
100
AcDb2dVertex
 10
115.2598035736156
 20
-152.102688221523
 30
0.0
  0
VERTEX
  5
BC
330
B9
100
AcDbEntity
  8
_U+30EC_U+30A4_U+30E4_U+30FC 1
370
     0
100
AcDbVertex
100
AcDb2dVertex
 10
115.2598035736156
 20
-151.8336262641249
 30
0.0
  0
VERTEX
  5
BD
330
B9
100
AcDbEntity
  8
_U+30EC_U+30A4_U+30E4_U+30FC 1
370
     0
100
AcDbVertex
100
AcDb2dVertex
 10
115.5116400535874
 20
-151.8336262641249
 30
0.0
  0
VERTEX
  5
BE
330
B9
100
AcDbEntity
  8
_U+30EC_U+30A4_U+30E4_U+30FC 1
370
     0
100
AcDbVertex
100
AcDb2dVertex
 10
115.5116400535874
 20
-152.102688221523
 30
0.0
  0
SEQEND
  5
BF
330
B9
100
AcDbEntity
  8
_U+30EC_U+30A4_U+30E4_U+30FC 1
370
     0
  0
HATCH
  5
C0
330
B3
100
AcDbEntity
  8
_U+30EC_U+30A4_U+30E4_U+30FC 1
 62
   179
420
  2234388
100
AcDbHatch
 10
0.0
 20
0.0
 30
0.0
210
0.0
220
0.0
230
1.0
  2
SOLID
 70
     1
 71
     0
 91
        1
 92
        1
 93
        4
 72
     1
 10
115.5116400535874
 20
-152.102688221523
 11
115.2598035736156
 21
-152.102688221523
 72
     1
 10
115.2598035736156
 20
-152.102688221523
 11
115.2598035736156
 21
-151.8336262641249
 72
     1
 10
115.2598035736156
 20
-151.8336262641249
 11
115.5116400535874
 21
-151.8336262641249
 72
     1
 10
115.5116400535874
 20
-151.8336262641249
 11
115.5116400535874
 21
-152.102688221523
 97
        0
 75
     2
 76
     1
 98
        0
  0
SPLINE
  5
C1
330
B3
100
AcDbEntity
  8
_U+30EC_U+30A4_U+30E4_U+30FC 1
370
     0
100
AcDbSpline
210
0.0
220
0.0
230
1.0
 70
    11
 71
     3
 72
    53
 73
    49
 74
     0
 42
0.0000000001
 43
0.0000000001
 12
1.0
 22
0.0
 32
0.0
 13
1.0
 23
0.0
 33
0.0
 40
0.0
 40
0.0
 40
0.0
 40
0.0
 40
1.0
 40
1.0
 40
1.0
 40
2.0
 40
2.0
 40
2.0
 40
3.0
 40
3.0
 40
3.0
 40
4.0
 40
4.0
 40
4.0
 40
5.0
 40
5.0
 40
5.0
 40
6.0
 40
6.0
 40
6.0
 40
7.0
 40
7.0
 40
7.0
 40
8.0
 40
8.0
 40
8.0
 40
9.0
 40
9.0
 40
9.0
 40
10.0
 40
10.0
 40
10.0
 40
11.0
 40
11.0
 40
11.0
 40
12.0
 40
12.0
 40
12.0
 40
13.0
 40
13.0
 40
13.0
 40
14.0
 40
14.0
 40
14.0
 40
15.0
 40
15.0
 40
15.0
 40
16.0
 40
16.0
 40
16.0
 40
16.0
 10
115.5622829572205
 20
-151.0667480091083
 30
0.0
 10
115.5622829572205
 20
-151.1504638293999
 30
0.0
 10
115.5454019893428
 20
-151.2589843371853
 30
0.0
 10
115.4820122324142
 20
-151.3675048449706
 30
0.0
 10
115.3721136864348
 20
-151.5528509820771
 30
0.0
 10
115.2408555484467
 20
-151.5755886122797
 30
0.0
 10
115.1330240597584
 20
-151.5959146756427
 30
0.0
 10
115.1330240597584
 20
-151.5959146756427
 30
0.0
 10
115.1330240597584
 20
-151.358547596709
 30
0.0
 10
115.1330240597584
 20
-151.358547596709
 30
0.0
 10
115.3318060692573
 20
-151.2996364639112
 30
0.0
 10
115.3614338904305
 20
-151.1638997017924
 30
0.0
 10
115.3614338904305
 20
-151.0646809518172
 30
0.0
 10
115.3614338904305
 20
-150.9151638077573
 30
0.0
 10
115.2618706309068
 20
-150.7525553008535
 30
0.0
 10
115.0293266856524
 20
-150.7525553008535
 30
0.0
 10
114.7733560910983
 20
-150.7525553008535
 30
0.0
 10
114.7034206527478
 20
-150.9447916289305
 30
0.0
 10
114.7034206527478
 20
-151.0736382000788
 30
0.0
 10
114.7034206527478
 20
-151.1074001358343
 30
0.0
 10
114.7034206527478
 20
-151.2589843371853
 30
0.0
 10
114.8326117334446
 20
-151.3540689725781
 30
0.0
 10
114.8326117334446
 20
-151.3540689725781
 30
0.0
 10
114.8136637082758
 20
-151.5414821669758
 30
0.0
 10
114.8136637082758
 20
-151.5414821669758
 30
0.0
 10
114.8136637082758
 20
-151.5414821669758
 30
0.0
 10
113.9672037475499
 20
-151.4126355958274
 30
0.0
 10
113.9672037475499
 20
-151.4126355958274
 30
0.0
 10
113.9672037475499
 20
-151.4126355958274
 30
0.0
 10
113.9672037475499
 20
-150.5806450361396
 30
0.0
 10
113.9672037475499
 20
-150.5806450361396
 30
0.0
 10
113.9672037475499
 20
-150.5806450361396
 30
0.0
 10
114.1618516424665
 20
-150.5806450361396
 30
0.0
 10
114.1618516424665
 20
-150.5806450361396
 30
0.0
 10
114.1618516424665
 20
-150.5806450361396
 30
0.0
 10
114.1618516424665
 20
-151.2386582738223
 30
0.0
 10
114.1618516424665
 20
-151.2386582738223
 30
0.0
 10
114.1618516424665
 20
-151.2386582738223
 30
0.0
 10
114.5849093680552
 20
-151.3085937121729
 30
0.0
 10
114.5849093680552
 20
-151.3085937121729
 30
0.0
 10
114.5511474322997
 20
-151.2431368979531
 30
0.0
 10
114.5108398151223
 20
-151.1549424535307
 30
0.0
 10
114.5108398151223
 20
-151.0281629396735
 30
0.0
 10
114.5108398151223
 20
-150.7570339249844
 30
0.0
 10
114.6972194808743
 20
-150.5038194068185
 30
0.0
 10
115.0103786604835
 20
-150.5038194068185
 30
0.0
 10
115.327671954675
 20
-150.5038194068185
 30
0.0
 10
115.5622829572205
 20
-150.7435980525919
 30
0.0
 10
115.5622829572205
 20
-151.0667480091083
 30
0.0
  0
HATCH
  5
C2
330
B3
100
AcDbEntity
  8
_U+30EC_U+30A4_U+30E4_U+30FC 1
 62
   179
420
  2234388
100
AcDbHatch
 10
0.0
 20
0.0
 30
0.0
210
0.0
220
0.0
230
1.0
  2
SOLID
 70
     1
 71
     0
 91
        1
 92
        1
 93
        1
 72
     4
 94
        3
 73
     0
 74
     1
 95
       53
 96
       49
 40
0.0
 40
0.0
 40
0.0
 40
0.0
 40
1.0
 40
1.0
 40
1.0
 40
2.0
 40
2.0
 40
2.0
 40
3.0
 40
3.0
 40
3.0
 40
4.0
 40
4.0
 40
4.0
 40
5.0
 40
5.0
 40
5.0
 40
6.0
 40
6.0
 40
6.0
 40
7.0
 40
7.0
 40
7.0
 40
8.0
 40
8.0
 40
8.0
 40
9.0
 40
9.0
 40
9.0
 40
10.0
 40
10.0
 40
10.0
 40
11.0
 40
11.0
 40
11.0
 40
12.0
 40
12.0
 40
12.0
 40
13.0
 40
13.0
 40
13.0
 40
14.0
 40
14.0
 40
14.0
 40
15.0
 40
15.0
 40
15.0
 40
16.0
 40
16.0
 40
16.0
 40
16.0
 10
115.5622829572205
 20
-151.0667480091083
 10
115.5622829572205
 20
-151.1504638293999
 10
115.5454019893428
 20
-151.2589843371853
 10
115.4820122324142
 20
-151.3675048449706
 10
115.3721136864348
 20
-151.5528509820771
 10
115.2408555484467
 20
-151.5755886122797
 10
115.1330240597584
 20
-151.5959146756427
 10
115.1330240597584
 20
-151.5959146756427
 10
115.1330240597584
 20
-151.358547596709
 10
115.1330240597584
 20
-151.358547596709
 10
115.3318060692573
 20
-151.2996364639112
 10
115.3614338904305
 20
-151.1638997017924
 10
115.3614338904305
 20
-151.0646809518172
 10
115.3614338904305
 20
-150.9151638077573
 10
115.2618706309068
 20
-150.7525553008535
 10
115.0293266856524
 20
-150.7525553008535
 10
114.7733560910983
 20
-150.7525553008535
 10
114.7034206527478
 20
-150.9447916289305
 10
114.7034206527478
 20
-151.0736382000788
 10
114.7034206527478
 20
-151.1074001358343
 10
114.7034206527478
 20
-151.2589843371853
 10
114.8326117334446
 20
-151.3540689725781
 10
114.8326117334446
 20
-151.3540689725781
 10
114.8136637082758
 20
-151.5414821669758
 10
114.8136637082758
 20
-151.5414821669758
 10
114.8136637082758
 20
-151.5414821669758
 10
113.9672037475499
 20
-151.4126355958274
 10
113.9672037475499
 20
-151.4126355958274
 10
113.9672037475499
 20
-151.4126355958274
 10
113.9672037475499
 20
-150.5806450361396
 10
113.9672037475499
 20
-150.5806450361396
 10
113.9672037475499
 20
-150.5806450361396
 10
114.1618516424665
 20
-150.5806450361396
 10
114.1618516424665
 20
-150.5806450361396
 10
114.1618516424665
 20
-150.5806450361396
 10
114.1618516424665
 20
-151.2386582738223
 10
114.1618516424665
 20
-151.2386582738223
 10
114.1618516424665
 20
-151.2386582738223
 10
114.5849093680552
 20
-151.3085937121729
 10
114.5849093680552
 20
-151.3085937121729
 10
114.5511474322997
 20
-151.2431368979531
 10
114.5108398151223
 20
-151.1549424535307
 10
114.5108398151223
 20
-151.0281629396735
 10
114.5108398151223
 20
-150.7570339249844
 10
114.6972194808743
 20
-150.5038194068185
 10
115.0103786604835
 20
-150.5038194068185
 10
115.327671954675
 20
-150.5038194068185
 10
115.5622829572205
 20
-150.7435980525919
 10
115.5622829572205
 20
-151.0667480091083
 97
        0
 97
        0
 75
     2
 76
     1
 98
        0
  0
ENDBLK
  5
B6
330
B3
100
AcDbEntity
  8
0
100
AcDbBlockEnd
  0
BLOCK
  5
CD
330
CB
100
AcDbEntity
  8
0
100
AcDbBlockBegin
  2
block 6
 70
     0
 10
0.0
 20
0.0
 30
0.0
  3
block 6
  1

  0
SPLINE
  5
CF
330
CB
100
AcDbEntity
  8
_U+30EC_U+30A4_U+30E4_U+30FC 1
370
     0
100
AcDbSpline
210
0.0
220
0.0
230
1.0
 70
    11
 71
     3
 72
    32
 73
    28
 74
     0
 42
0.0000000001
 43
0.0000000001
 12
1.0
 22
0.0
 32
0.0
 13
1.0
 23
0.0
 33
0.0
 40
0.0
 40
0.0
 40
0.0
 40
0.0
 40
1.0
 40
1.0
 40
1.0
 40
2.0
 40
2.0
 40
2.0
 40
3.0
 40
3.0
 40
3.0
 40
4.0
 40
4.0
 40
4.0
 40
5.0
 40
5.0
 40
5.0
 40
6.0
 40
6.0
 40
6.0
 40
7.0
 40
7.0
 40
7.0
 40
8.0
 40
8.0
 40
8.0
 40
9.0
 40
9.0
 40
9.0
 40
9.0
 10
115.5622829572205
 20
-146.1535250828193
 30
0.0
 10
115.5622829572205
 20
-146.705257124782
 30
0.0
 10
115.0083116031924
 20
-146.7142143730437
 30
0.0
 10
114.7943711735584
 20
-146.7142143730437
 30
0.0
 10
114.5638942855951
 20
-146.7142143730437
 30
0.0
 10
113.9165608439167
 20
-146.6938883096807
 30
0.0
 10
113.9165608439167
 20
-146.1128729560933
 30
0.0
 10
113.9165608439167
 20
-145.9273545642126
 30
0.0
 10
113.9864962822673
 20
-145.6651827977851
 30
0.0
 10
114.3186034870454
 20
-145.6245306710591
 30
0.0
 10
114.3186034870454
 20
-145.6245306710591
 30
0.0
 10
114.3186034870454
 20
-145.8527682469569
 30
0.0
 10
114.3186034870454
 20
-145.8527682469569
 30
0.0
 10
114.2614149019902
 20
-145.8641370620583
 30
0.0
 10
114.1132757961245
 20
-145.898071252588
 30
0.0
 10
114.1132757961245
 20
-146.1151122681587
 30
0.0
 10
114.1132757961245
 20
-146.4270656643481
 30
0.0
 10
114.4412488863203
 20
-146.4699571031394
 30
0.0
 10
114.6462320676926
 20
-146.4835652303062
 30
0.0
 10
114.5680284001774
 20
-146.3841742255567
 30
0.0
 10
114.5087727578311
 20
-146.3118272203665
 30
0.0
 10
114.5087727578311
 20
-146.1173515802242
 30
0.0
 10
114.5087727578311
 20
-145.9251152521472
 30
0.0
 10
114.616948756068
 20
-145.6017930408565
 30
0.0
 10
115.023125513779
 20
-145.6017930408565
 30
0.0
 10
115.3424858652616
 20
-145.6017930408565
 30
0.0
 10
115.5622829572205
 20
-145.8143554322964
 30
0.0
 10
115.5622829572205
 20
-146.1535250828193
 30
0.0
  0
SPLINE
  5
D0
330
CB
100
AcDbEntity
  8
_U+30EC_U+30A4_U+30E4_U+30FC 1
370
     0
100
AcDbSpline
210
0.0
220
0.0
230
1.0
 70
    11
 71
     3
 72
    17
 73
    13
 74
     0
 42
0.0000000001
 43
0.0000000001
 12
1.0
 22
0.0
 32
0.0
 13
1.0
 23
0.0
 33
0.0
 40
0.0
 40
0.0
 40
0.0
 40
0.0
 40
1.0
 40
1.0
 40
1.0
 40
2.0
 40
2.0
 40
2.0
 40
3.0
 40
3.0
 40
3.0
 40
4.0
 40
4.0
 40
4.0
 40
4.0
 10
114.7034206527478
 20
-146.1354383315217
 30
0.0
 10
114.7034206527478
 20
-146.415869104021
 30
0.0
 10
114.9149495155421
 20
-146.456521230747
 30
0.0
 10
115.0313937429435
 20
-146.456521230747
 30
0.0
 10
115.2070936126913
 20
-146.456521230747
 30
0.0
 10
115.3700466291436
 20
-146.3547186591579
 30
0.0
 10
115.3700466291436
 20
-146.1580037069501
 30
0.0
 10
115.3700466291436
 20
-146.0291571358017
 30
0.0
 10
115.3107909867973
 20
-145.8415716866299
 30
0.0
 10
115.0251925710701
 20
-145.8415716866299
 30
0.0
 10
114.8009168549803
 20
-145.8415716866299
 30
0.0
 10
114.7034206527478
 20
-145.9907443211412
 30
0.0
 10
114.7034206527478
 20
-146.1354383315217
 30
0.0
  0
HATCH
  5
D1
330
CB
100
AcDbEntity
  8
_U+30EC_U+30A4_U+30E4_U+30FC 1
 62
   179
420
  2234388
100
AcDbHatch
 10
0.0
 20
0.0
 30
0.0
210
0.0
220
0.0
230
1.0
  2
SOLID
 70
     1
 71
     0
 91
        2
 92
        1
 93
        1
 72
     4
 94
        3
 73
     0
 74
     1
 95
       32
 96
       28
 40
0.0
 40
0.0
 40
0.0
 40
0.0
 40
1.0
 40
1.0
 40
1.0
 40
2.0
 40
2.0
 40
2.0
 40
3.0
 40
3.0
 40
3.0
 40
4.0
 40
4.0
 40
4.0
 40
5.0
 40
5.0
 40
5.0
 40
6.0
 40
6.0
 40
6.0
 40
7.0
 40
7.0
 40
7.0
 40
8.0
 40
8.0
 40
8.0
 40
9.0
 40
9.0
 40
9.0
 40
9.0
 10
115.5622829572205
 20
-146.1535250828193
 10
115.5622829572205
 20
-146.705257124782
 10
115.0083116031924
 20
-146.7142143730437
 10
114.7943711735584
 20
-146.7142143730437
 10
114.5638942855951
 20
-146.7142143730437
 10
113.9165608439167
 20
-146.6938883096807
 10
113.9165608439167
 20
-146.1128729560933
 10
113.9165608439167
 20
-145.9273545642126
 10
113.9864962822673
 20
-145.6651827977851
 10
114.3186034870454
 20
-145.6245306710591
 10
114.3186034870454
 20
-145.6245306710591
 10
114.3186034870454
 20
-145.8527682469569
 10
114.3186034870454
 20
-145.8527682469569
 10
114.2614149019902
 20
-145.8641370620583
 10
114.1132757961245
 20
-145.898071252588
 10
114.1132757961245
 20
-146.1151122681587
 10
114.1132757961245
 20
-146.4270656643481
 10
114.4412488863203
 20
-146.4699571031394
 10
114.6462320676926
 20
-146.4835652303062
 10
114.5680284001774
 20
-146.3841742255567
 10
114.5087727578311
 20
-146.3118272203665
 10
114.5087727578311
 20
-146.1173515802242
 10
114.5087727578311
 20
-145.9251152521472
 10
114.616948756068
 20
-145.6017930408565
 10
115.023125513779
 20
-145.6017930408565
 10
115.3424858652616
 20
-145.6017930408565
 10
115.5622829572205
 20
-145.8143554322964
 10
115.5622829572205
 20
-146.1535250828193
 97
        0
 97
        0
 92
        1
 93
        1
 72
     4
 94
        3
 73
     0
 74
     1
 95
       17
 96
       13
 40
0.0
 40
0.0
 40
0.0
 40
0.0
 40
1.0
 40
1.0
 40
1.0
 40
2.0
 40
2.0
 40
2.0
 40
3.0
 40
3.0
 40
3.0
 40
4.0
 40
4.0
 40
4.0
 40
4.0
 10
114.7034206527478
 20
-146.1354383315217
 10
114.7034206527478
 20
-146.415869104021
 10
114.9149495155421
 20
-146.456521230747
 10
115.0313937429435
 20
-146.456521230747
 10
115.2070936126913
 20
-146.456521230747
 10
115.3700466291436
 20
-146.3547186591579
 10
115.3700466291436
 20
-146.1580037069501
 10
115.3700466291436
 20
-146.0291571358017
 10
115.3107909867973
 20
-145.8415716866299
 10
115.0251925710701
 20
-145.8415716866299
 10
114.8009168549803
 20
-145.8415716866299
 10
114.7034206527478
 20
-145.9907443211412
 10
114.7034206527478
 20
-146.1354383315217
 97
        0
 97
        0
 75
     2
 76
     1
 98
        0
  0
ENDBLK
  5
CE
330
CB
100
AcDbEntity
  8
0
100
AcDbBlockEnd
  0
BLOCK
  5
DB
330
D9
100
AcDbEntity
  8
0
100
AcDbBlockBegin
  2
block 7
 70
     0
 10
0.0
 20
0.0
 30
0.0
  3
block 7
  1

  0
SPLINE
  5
DD
330
D9
100
AcDbEntity
  8
_U+30EC_U+30A4_U+30E4_U+30FC 1
370
     0
100
AcDbSpline
210
0.0
220
0.0
230
1.0
 70
    11
 71
     3
 72
    26
 73
    22
 74
     0
 42
0.0000000001
 43
0.0000000001
 12
1.0
 22
0.0
 32
0.0
 13
1.0
 23
0.0
 33
0.0
 40
0.0
 40
0.0
 40
0.0
 40
0.0
 40
1.0
 40
1.0
 40
1.0
 40
2.0
 40
2.0
 40
2.0
 40
3.0
 40
3.0
 40
3.0
 40
4.0
 40
4.0
 40
4.0
 40
5.0
 40
5.0
 40
5.0
 40
6.0
 40
6.0
 40
6.0
 40
7.0
 40
7.0
 40
7.0
 40
7.0
 10
102.4509385594567
 20
-145.6043768624704
 30
0.0
 10
102.4509385594567
 20
-145.6043768624704
 30
0.0
 10
102.4509385594567
 20
-144.5002237594479
 30
0.0
 10
102.4509385594567
 20
-144.5002237594479
 30
0.0
 10
102.4509385594567
 20
-144.5002237594479
 30
0.0
 10
102.1208984119698
 20
-144.5002237594479
 30
0.0
 10
102.1208984119698
 20
-144.5002237594479
 30
0.0
 10
102.1208984119698
 20
-144.5002237594479
 30
0.0
 10
102.1208984119698
 20
-144.3520846535821
 30
0.0
 10
102.1208984119698
 20
-144.3520846535821
 30
0.0
 10
102.4530056167479
 20
-144.3372707429955
 30
0.0
 10
102.4995144057987
 20
-144.1743177265432
 30
0.0
 10
102.5291422269719
 20
-144.0599405564329
 30
0.0
 10
102.5291422269719
 20
-144.0599405564329
 30
0.0
 10
102.6752142755465
 20
-144.0599405564329
 30
0.0
 10
102.6752142755465
 20
-144.0599405564329
 30
0.0
 10
102.6752142755465
 20
-144.0599405564329
 30
0.0
 10
102.6752142755465
 20
-145.6043768624704
 30
0.0
 10
102.6752142755465
 20
-145.6043768624704
 30
0.0
 10
102.6752142755465
 20
-145.6043768624704
 30
0.0
 10
102.4509385594567
 20
-145.6043768624704
 30
0.0
 10
102.4509385594567
 20
-145.6043768624704
 30
0.0
  0
HATCH
  5
DE
330
D9
100
AcDbEntity
  8
_U+30EC_U+30A4_U+30E4_U+30FC 1
 62
   179
420
  2234388
100
AcDbHatch
 10
0.0
 20
0.0
 30
0.0
210
0.0
220
0.0
230
1.0
  2
SOLID
 70
     1
 71
     0
 91
        1
 92
        1
 93
        1
 72
     4
 94
        3
 73
     0
 74
     1
 95
       26
 96
       22
 40
0.0
 40
0.0
 40
0.0
 40
0.0
 40
1.0
 40
1.0
 40
1.0
 40
2.0
 40
2.0
 40
2.0
 40
3.0
 40
3.0
 40
3.0
 40
4.0
 40
4.0
 40
4.0
 40
5.0
 40
5.0
 40
5.0
 40
6.0
 40
6.0
 40
6.0
 40
7.0
 40
7.0
 40
7.0
 40
7.0
 10
102.4509385594567
 20
-145.6043768624704
 10
102.4509385594567
 20
-145.6043768624704
 10
102.4509385594567
 20
-144.5002237594479
 10
102.4509385594567
 20
-144.5002237594479
 10
102.4509385594567
 20
-144.5002237594479
 10
102.1208984119698
 20
-144.5002237594479
 10
102.1208984119698
 20
-144.5002237594479
 10
102.1208984119698
 20
-144.5002237594479
 10
102.1208984119698
 20
-144.3520846535821
 10
102.1208984119698
 20
-144.3520846535821
 10
102.4530056167479
 20
-144.3372707429955
 10
102.4995144057987
 20
-144.1743177265432
 10
102.5291422269719
 20
-144.0599405564329
 10
102.5291422269719
 20
-144.0599405564329
 10
102.6752142755465
 20
-144.0599405564329
 10
102.6752142755465
 20
-144.0599405564329
 10
102.6752142755465
 20
-144.0599405564329
 10
102.6752142755465
 20
-145.6043768624704
 10
102.6752142755465
 20
-145.6043768624704
 10
102.6752142755465
 20
-145.6043768624704
 10
102.4509385594567
 20
-145.6043768624704
 10
102.4509385594567
 20
-145.6043768624704
 97
        0
 97
        0
 75
     2
 76
     1
 98
        0
  0
ENDBLK
  5
DC
330
D9
100
AcDbEntity
  8
0
100
AcDbBlockEnd
  0
ENDSEC
  0
SECTION
  2
ENTITIES
  0
SPLINE
  5
41
330
1F
100
AcDbEntity
  8
_U+30EC_U+30A4_U+30E4_U+30FC 1
 62
   179
420
  2234388
370
     9
100
AcDbSpline
210
0.0
220
0.0
230
1.0
 70
    11
 71
     3
 72
    17
 73
    13
 74
     0
 42
0.0000000001
 43
0.0000000001
 12
1.0
 22
0.0
 32
0.0
 13
1.0
 23
0.0
 33
0.0
 40
0.0
 40
0.0
 40
0.0
 40
0.0
 40
1.0
 40
1.0
 40
1.0
 40
2.0
 40
2.0
 40
2.0
 40
3.0
 40
3.0
 40
3.0
 40
4.0
 40
4.0
 40
4.0
 40
4.0
 10
113.6495121141929
 20
-158.5833542321369
 30
0.0
 10
113.6495121141929
 20
-158.5283295976835
 30
0.0
 10
113.6047043410378
 20
-158.4835218245284
 30
0.0
 10
113.5496743236227
 20
-158.4835218245284
 30
0.0
 10
113.4946389232458
 20
-158.4835218245284
 30
0.0
 10
113.4498365330525
 20
-158.5283295976835
 30
0.0
 10
113.4498365330525
 20
-158.5833542321369
 30
0.0
 10
113.4498365330525
 20
-158.6383896325138
 30
0.0
 10
113.4946389232458
 20
-158.6831974056688
 30
0.0
 10
113.5496743236227
 20
-158.6831974056688
 30
0.0
 10
113.6047043410378
 20
-158.6831974056688
 30
0.0
 10
113.6495121141929
 20
-158.6383896325138
 30
0.0
 10
113.6495121141929
 20
-158.5833542321369
 30
0.0
  0
SPLINE
  5
42
330
1F
100
AcDbEntity
  8
_U+30EC_U+30A4_U+30E4_U+30FC 1
 62
   179
420
  2234388
370
     9
100
AcDbSpline
210
0.0
220
0.0
230
1.0
 70
    11
 71
     3
 72
    17
 73
    13
 74
     0
 42
0.0000000001
 43
0.0000000001
 12
1.0
 22
0.0
 32
0.0
 13
1.0
 23
0.0
 33
0.0
 40
0.0
 40
0.0
 40
0.0
 40
0.0
 40
1.0
 40
1.0
 40
1.0
 40
2.0
 40
2.0
 40
2.0
 40
3.0
 40
3.0
 40
3.0
 40
4.0
 40
4.0
 40
4.0
 40
4.0
 10
99.74925699919193
 20
-158.5833542321369
 30
0.0
 10
99.74925699919193
 20
-158.5283295976835
 30
0.0
 10
99.70445191751774
 20
-158.4835218245284
 30
0.0
 10
99.64941920862172
 20
-158.4835218245284
 30
0.0
 10
99.5943864997257
 20
-158.4835218245284
 30
0.0
 10
99.54958410953236
 20
-158.5283295976835
 30
0.0
 10
99.54958410953236
 20
-158.5833542321369
 30
0.0
 10
99.54958410953236
 20
-158.6383896325138
 30
0.0
 10
99.5943864997257
 20
-158.6831974056688
 30
0.0
 10
99.64941920862172
 20
-158.6831974056688
 30
0.0
 10
99.70445191751774
 20
-158.6831974056688
 30
0.0
 10
99.74925699919193
 20
-158.6383896325138
 30
0.0
 10
99.74925699919193
 20
-158.5833542321369
 30
0.0
  0
POLYLINE
  5
43
330
1F
100
AcDbEntity
  8
_U+30EC_U+30A4_U+30E4_U+30FC 1
 62
   179
420
  2234388
370
     9
100
AcDb2dPolyline
 66
     1
 10
0.0
 20
0.0
 30
0.0
  0
VERTEX
  5
44
330
43
100
AcDbEntity
  8
_U+30EC_U+30A4_U+30E4_U+30FC 1
 62
   179
420
  2234388
370
     9
100
AcDbVertex
100
AcDb2dVertex
 10
99.64934923011968
 20
-158.5833542321369
 30
0.0
  0
VERTEX
  5
45
330
43
100
AcDbEntity
  8
_U+30EC_U+30A4_U+30E4_U+30FC 1
 62
   179
420
  2234388
370
     9
100
AcDbVertex
100
AcDb2dVertex
 10
113.6496843689671
 20
-158.5833542321369
 30
0.0
  0
SEQEND
  5
46
330
43
100
AcDbEntity
  8
_U+30EC_U+30A4_U+30E4_U+30FC 1
 62
   179
420
  2234388
370
     9
  0
POLYLINE
  5
47
330
1F
100
AcDbEntity
  8
_U+30EC_U+30A4_U+30E4_U+30FC 1
 62
   179
420
  2234388
370
     9
100
AcDb2dPolyline
 66
     1
 10
0.0
 20
0.0
 30
0.0
  0
VERTEX
  5
48
330
47
100
AcDbEntity
  8
_U+30EC_U+30A4_U+30E4_U+30FC 1
 62
   179
420
  2234388
370
     9
100
AcDbVertex
100
AcDb2dVertex
 10
99.64934923011968
 20
-156.1232223120434
 30
0.0
  0
VERTEX
  5
49
330
47
100
AcDbEntity
  8
_U+30EC_U+30A4_U+30E4_U+30FC 1
 62
   179
420
  2234388
370
     9
100
AcDbVertex
100
AcDb2dVertex
 10
99.64934923011968
 20
-159.5836269403558
 30
0.0
  0
SEQEND
  5
4A
330
47
100
AcDbEntity
  8
_U+30EC_U+30A4_U+30E4_U+30FC 1
 62
   179
420
  2234388
370
     9
  0
POLYLINE
  5
4B
330
1F
100
AcDbEntity
  8
_U+30EC_U+30A4_U+30E4_U+30FC 1
 62
   179
420
  2234388
370
     9
100
AcDb2dPolyline
 66
     1
 10
0.0
 20
0.0
 30
0.0
  0
VERTEX
  5
4C
330
4B
100
AcDbEntity
  8
_U+30EC_U+30A4_U+30E4_U+30FC 1
 62
   179
420
  2234388
370
     9
100
AcDbVertex
100
AcDb2dVertex
 10
113.5495720473505
 20
-156.1232223120434
 30
0.0
  0
VERTEX
  5
4D
330
4B
100
AcDbEntity
  8
_U+30EC_U+30A4_U+30E4_U+30FC 1
 62
   179
420
  2234388
370
     9
100
AcDbVertex
100
AcDb2dVertex
 10
113.5495720473505
 20
-159.5836269403558
 30
0.0
  0
SEQEND
  5
4E
330
4B
100
AcDbEntity
  8
_U+30EC_U+30A4_U+30E4_U+30FC 1
 62
   179
420
  2234388
370
     9
  0
INSERT
  5
50
330
1F
100
AcDbEntity
  8
_U+30EC_U+30A4_U+30E4_U+30FC 1
100
AcDbBlockReference
  2
block 2
 10
0.0
 20
0.0
 30
0.0
  0
SPLINE
  5
6A
330
1F
100
AcDbEntity
  8
_U+30EC_U+30A4_U+30E4_U+30FC 1
 62
   179
420
  2234388
370
     9
100
AcDbSpline
210
0.0
220
0.0
230
1.0
 70
    11
 71
     3
 72
    17
 73
    13
 74
     0
 42
0.0000000001
 43
0.0000000001
 12
1.0
 22
0.0
 32
0.0
 13
1.0
 23
0.0
 33
0.0
 40
0.0
 40
0.0
 40
0.0
 40
0.0
 40
1.0
 40
1.0
 40
1.0
 40
2.0
 40
2.0
 40
2.0
 40
3.0
 40
3.0
 40
3.0
 40
4.0
 40
4.0
 40
4.0
 40
4.0
 10
106.8496149431769
 20
-140.9923414089793
 30
0.0
 10
106.8496149431769
 20
-140.9373167745259
 30
0.0
 10
106.8048071700219
 20
-140.8925090013709
 30
0.0
 10
106.7497771526067
 20
-140.8925090013709
 30
0.0
 10
106.6947417522299
 20
-140.8925090013709
 30
0.0
 10
106.6499393620365
 20
-140.9373167745259
 30
0.0
 10
106.6499393620365
 20
-140.9923414089793
 30
0.0
 10
106.6499393620365
 20
-141.0473768093562
 30
0.0
 10
106.6947417522299
 20
-141.0921845825112
 30
0.0
 10
106.7497771526067
 20
-141.0921845825112
 30
0.0
 10
106.8048071700219
 20
-141.0921845825112
 30
0.0
 10
106.8496149431769
 20
-141.0473768093562
 30
0.0
 10
106.8496149431769
 20
-140.9923414089793
 30
0.0
  0
SPLINE
  5
6B
330
1F
100
AcDbEntity
  8
_U+30EC_U+30A4_U+30E4_U+30FC 1
 62
   179
420
  2234388
370
     9
100
AcDbSpline
210
0.0
220
0.0
230
1.0
 70
    11
 71
     3
 72
    17
 73
    13
 74
     0
 42
0.0000000001
 43
0.0000000001
 12
1.0
 22
0.0
 32
0.0
 13
1.0
 23
0.0
 33
0.0
 40
0.0
 40
0.0
 40
0.0
 40
0.0
 40
1.0
 40
1.0
 40
1.0
 40
2.0
 40
2.0
 40
2.0
 40
3.0
 40
3.0
 40
3.0
 40
4.0
 40
4.0
 40
4.0
 40
4.0
 10
100.8495720505255
 20
-140.9923414089793
 30
0.0
 10
100.8495720505255
 20
-140.9373167745259
 30
0.0
 10
100.8047669688513
 20
-140.8925090013709
 30
0.0
 10
100.7497342599553
 20
-140.8925090013709
 30
0.0
 10
100.6947015510592
 20
-140.8925090013709
 30
0.0
 10
100.6498991608659
 20
-140.9373167745259
 30
0.0
 10
100.6498991608659
 20
-140.9923414089793
 30
0.0
 10
100.6498991608659
 20
-141.0473768093562
 30
0.0
 10
100.6947015510592
 20
-141.0921845825112
 30
0.0
 10
100.7497342599553
 20
-141.0921845825112
 30
0.0
 10
100.8047669688513
 20
-141.0921845825112
 30
0.0
 10
100.8495720505255
 20
-141.0473768093562
 30
0.0
 10
100.8495720505255
 20
-140.9923414089793
 30
0.0
  0
POLYLINE
  5
6C
330
1F
100
AcDbEntity
  8
_U+30EC_U+30A4_U+30E4_U+30FC 1
 62
   179
420
  2234388
370
     9
100
AcDb2dPolyline
 66
     1
 10
0.0
 20
0.0
 30
0.0
  0
VERTEX
  5
6D
330
6C
100
AcDbEntity
  8
_U+30EC_U+30A4_U+30E4_U+30FC 1
 62
   179
420
  2234388
370
     9
100
AcDbVertex
100
AcDb2dVertex
 10
100.7496992707042
 20
-140.9923414089793
 30
0.0
  0
VERTEX
  5
6E
330
6C
100
AcDbEntity
  8
_U+30EC_U+30A4_U+30E4_U+30FC 1
 62
   179
420
  2234388
370
     9
100
AcDbVertex
100
AcDb2dVertex
 10
106.7497394718748
 20
-140.9923414089793
 30
0.0
  0
SEQEND
  5
6F
330
6C
100
AcDbEntity
  8
_U+30EC_U+30A4_U+30E4_U+30FC 1
 62
   179
420
  2234388
370
     9
  0
POLYLINE
  5
70
330
1F
100
AcDbEntity
  8
_U+30EC_U+30A4_U+30E4_U+30FC 1
 62
   179
420
  2234388
370
     9
100
AcDb2dPolyline
 66
     1
 10
0.0
 20
0.0
 30
0.0
  0
VERTEX
  5
71
330
70
100
AcDbEntity
  8
_U+30EC_U+30A4_U+30E4_U+30FC 1
 62
   179
420
  2234388
370
     9
100
AcDbVertex
100
AcDb2dVertex
 10
100.7496992707042
 20
-139.5323314741773
 30
0.0
  0
VERTEX
  5
72
330
70
100
AcDbEntity
  8
_U+30EC_U+30A4_U+30E4_U+30FC 1
 62
   179
420
  2234388
370
     9
100
AcDbVertex
100
AcDb2dVertex
 10
100.7496992707042
 20
-141.9926141171983
 30
0.0
  0
SEQEND
  5
73
330
70
100
AcDbEntity
  8
_U+30EC_U+30A4_U+30E4_U+30FC 1
 62
   179
420
  2234388
370
     9
  0
POLYLINE
  5
74
330
1F
100
AcDbEntity
  8
_U+30EC_U+30A4_U+30E4_U+30FC 1
 62
   179
420
  2234388
370
     9
100
AcDb2dPolyline
 66
     1
 10
0.0
 20
0.0
 30
0.0
  0
VERTEX
  5
75
330
74
100
AcDbEntity
  8
_U+30EC_U+30A4_U+30E4_U+30FC 1
 62
   179
420
  2234388
370
     9
100
AcDbVertex
100
AcDb2dVertex
 10
106.7496748763345
 20
-139.5323314741773
 30
0.0
  0
VERTEX
  5
76
330
74
100
AcDbEntity
  8
_U+30EC_U+30A4_U+30E4_U+30FC 1
 62
   179
420
  2234388
370
     9
100
AcDbVertex
100
AcDb2dVertex
 10
106.7496748763345
 20
-141.9926141171983
 30
0.0
  0
SEQEND
  5
77
330
74
100
AcDbEntity
  8
_U+30EC_U+30A4_U+30E4_U+30FC 1
 62
   179
420
  2234388
370
     9
  0
INSERT
  5
79
330
1F
100
AcDbEntity
  8
_U+30EC_U+30A4_U+30E4_U+30FC 1
100
AcDbBlockReference
  2
block 3
 10
0.0
 20
0.0
 30
0.0
  0
SPLINE
  5
7F
330
1F
100
AcDbEntity
  8
_U+30EC_U+30A4_U+30E4_U+30FC 1
 62
   179
420
  2234388
370
     9
100
AcDbSpline
210
0.0
220
0.0
230
1.0
 70
    11
 71
     3
 72
    17
 73
    13
 74
     0
 42
0.0000000001
 43
0.0000000001
 12
1.0
 22
0.0
 32
0.0
 13
1.0
 23
0.0
 33
0.0
 40
0.0
 40
0.0
 40
0.0
 40
0.0
 40
1.0
 40
1.0
 40
1.0
 40
2.0
 40
2.0
 40
2.0
 40
3.0
 40
3.0
 40
3.0
 40
4.0
 40
4.0
 40
4.0
 40
4.0
 10
95.749463460085
 20
-143.0986297249679
 30
0.0
 10
95.749463460085
 20
-143.0436050905141
 30
0.0
 10
95.70465837841081
 20
-142.998797317359
 30
0.0
 10
95.64962566951479
 20
-142.998797317359
 30
0.0
 10
95.59459296061877
 20
-142.998797317359
 30
0.0
 10
95.54979057042544
 20
-143.0436050905141
 30
0.0
 10
95.54979057042544
 20
-143.0986297249679
 30
0.0
 10
95.54979057042544
 20
-143.1536651253447
 30
0.0
 10
95.59459296061877
 20
-143.1984728984994
 30
0.0
 10
95.64962566951479
 20
-143.1984728984994
 30
0.0
 10
95.70465837841081
 20
-143.1984728984994
 30
0.0
 10
95.749463460085
 20
-143.1536651253447
 30
0.0
 10
95.749463460085
 20
-143.0986297249679
 30
0.0
  0
SPLINE
  5
80
330
1F
100
AcDbEntity
  8
_U+30EC_U+30A4_U+30E4_U+30FC 1
 62
   179
420
  2234388
370
     9
100
AcDbSpline
210
0.0
220
0.0
230
1.0
 70
    11
 71
     3
 72
    17
 73
    13
 74
     0
 42
0.0000000001
 43
0.0000000001
 12
1.0
 22
0.0
 32
0.0
 13
1.0
 23
0.0
 33
0.0
 40
0.0
 40
0.0
 40
0.0
 40
0.0
 40
1.0
 40
1.0
 40
1.0
 40
2.0
 40
2.0
 40
2.0
 40
3.0
 40
3.0
 40
3.0
 40
4.0
 40
4.0
 40
4.0
 40
4.0
 10
95.749463460085
 20
-154.5987352620502
 30
0.0
 10
95.749463460085
 20
-154.5437106275967
 30
0.0
 10
95.70465837841081
 20
-154.4989028544417
 30
0.0
 10
95.64962566951479
 20
-154.4989028544417
 30
0.0
 10
95.59459296061877
 20
-154.4989028544417
 30
0.0
 10
95.54979057042544
 20
-154.5437106275967
 30
0.0
 10
95.54979057042544
 20
-154.5987352620502
 30
0.0
 10
95.54979057042544
 20
-154.654125937899
 30
0.0
 10
95.59459296061877
 20
-154.698933711054
 30
0.0
 10
95.64962566951479
 20
-154.698933711054
 30
0.0
 10
95.70465837841081
 20
-154.698933711054
 30
0.0
 10
95.749463460085
 20
-154.654125937899
 30
0.0
 10
95.749463460085
 20
-154.5987352620502
 30
0.0
  0
POLYLINE
  5
81
330
1F
100
AcDbEntity
  8
_U+30EC_U+30A4_U+30E4_U+30FC 1
 62
   179
420
  2234388
370
     9
100
AcDb2dPolyline
 66
     1
 10
0.0
 20
0.0
 30
0.0
  0
VERTEX
  5
82
330
81
100
AcDbEntity
  8
_U+30EC_U+30A4_U+30E4_U+30FC 1
 62
   179
420
  2234388
370
     9
100
AcDbVertex
100
AcDb2dVertex
 10
95.64959068026377
 20
-154.5987352620502
 30
0.0
  0
VERTEX
  5
83
330
81
100
AcDbEntity
  8
_U+30EC_U+30A4_U+30E4_U+30FC 1
 62
   179
420
  2234388
370
     9
100
AcDbVertex
100
AcDb2dVertex
 10
95.64959068026377
 20
-143.098532831657
 30
0.0
  0
SEQEND
  5
84
330
81
100
AcDbEntity
  8
_U+30EC_U+30A4_U+30E4_U+30FC 1
 62
   179
420
  2234388
370
     9
  0
POLYLINE
  5
85
330
1F
100
AcDbEntity
  8
_U+30EC_U+30A4_U+30E4_U+30FC 1
 62
   179
420
  2234388
370
     9
100
AcDb2dPolyline
 66
     1
 10
0.0
 20
0.0
 30
0.0
  0
VERTEX
  5
86
330
85
100
AcDbEntity
  8
_U+30EC_U+30A4_U+30E4_U+30FC 1
 62
   179
420
  2234388
370
     9
100
AcDbVertex
100
AcDb2dVertex
 10
98.10937001636621
 20
-154.5987352620502
 30
0.0
  0
VERTEX
  5
87
330
85
100
AcDbEntity
  8
_U+30EC_U+30A4_U+30E4_U+30FC 1
 62
   179
420
  2234388
370
     9
100
AcDbVertex
100
AcDb2dVertex
 10
94.64967593899763
 20
-154.5987352620502
 30
0.0
  0
SEQEND
  5
88
330
85
100
AcDbEntity
  8
_U+30EC_U+30A4_U+30E4_U+30FC 1
 62
   179
420
  2234388
370
     9
  0
POLYLINE
  5
89
330
1F
100
AcDbEntity
  8
_U+30EC_U+30A4_U+30E4_U+30FC 1
 62
   179
420
  2234388
370
     9
100
AcDb2dPolyline
 66
     1
 10
0.0
 20
0.0
 30
0.0
  0
VERTEX
  5
8A
330
89
100
AcDbEntity
  8
_U+30EC_U+30A4_U+30E4_U+30FC 1
 62
   179
420
  2234388
370
     9
100
AcDbVertex
100
AcDb2dVertex
 10
97.10959792358501
 20
-143.0986297249679
 30
0.0
  0
VERTEX
  5
8B
330
89
100
AcDbEntity
  8
_U+30EC_U+30A4_U+30E4_U+30FC 1
 62
   179
420
  2234388
370
     9
100
AcDbVertex
100
AcDb2dVertex
 10
94.64967593899763
 20
-143.0986297249679
 30
0.0
  0
SEQEND
  5
8C
330
89
100
AcDbEntity
  8
_U+30EC_U+30A4_U+30E4_U+30FC 1
 62
   179
420
  2234388
370
     9
  0
INSERT
  5
8E
330
1F
100
AcDbEntity
  8
_U+30EC_U+30A4_U+30E4_U+30FC 1
100
AcDbBlockReference
  2
block 4
 10
0.0
 20
0.0
 30
0.0
  0
SPLINE
  5
9F
330
1F
100
AcDbEntity
  8
_U+30EC_U+30A4_U+30E4_U+30FC 1
 62
   179
420
  2234388
370
     9
100
AcDbSpline
210
0.0
220
0.0
230
1.0
 70
    11
 71
     3
 72
    17
 73
    13
 74
     0
 42
0.0000000001
 43
0.0000000001
 12
1.0
 22
0.0
 32
0.0
 13
1.0
 23
0.0
 33
0.0
 40
0.0
 40
0.0
 40
0.0
 40
0.0
 40
1.0
 40
1.0
 40
1.0
 40
2.0
 40
2.0
 40
2.0
 40
3.0
 40
3.0
 40
3.0
 40
4.0
 40
4.0
 40
4.0
 40
4.0
 10
116.2064458344602
 20
-153.4987378054567
 30
0.0
 10
116.2064458344602
 20
-153.4437131710032
 30
0.0
 10
116.1616380613052
 20
-153.3989053978482
 30
0.0
 10
116.10660804389
 20
-153.3989053978482
 30
0.0
 10
116.0515726435132
 20
-153.3989053978482
 30
0.0
 10
116.0067702533198
 20
-153.4437131710032
 30
0.0
 10
116.0067702533198
 20
-153.4987378054567
 30
0.0
 10
116.0067702533198
 20
-153.5544837567774
 30
0.0
 10
116.0515726435132
 20
-153.5992807640091
 30
0.0
 10
116.10660804389
 20
-153.5992807640091
 30
0.0
 10
116.1616380613052
 20
-153.5992807640091
 30
0.0
 10
116.2064458344602
 20
-153.5544837567774
 30
0.0
 10
116.2064458344602
 20
-153.4987378054567
 30
0.0
  0
SPLINE
  5
A0
330
1F
100
AcDbEntity
  8
_U+30EC_U+30A4_U+30E4_U+30FC 1
 62
   179
420
  2234388
370
     9
100
AcDbSpline
210
0.0
220
0.0
230
1.0
 70
    11
 71
     3
 72
    17
 73
    13
 74
     0
 42
0.0000000001
 43
0.0000000001
 12
1.0
 22
0.0
 32
0.0
 13
1.0
 23
0.0
 33
0.0
 40
0.0
 40
0.0
 40
0.0
 40
0.0
 40
1.0
 40
1.0
 40
1.0
 40
2.0
 40
2.0
 40
2.0
 40
3.0
 40
3.0
 40
3.0
 40
4.0
 40
4.0
 40
4.0
 40
4.0
 10
116.2064458344602
 20
-150.0987730710636
 30
0.0
 10
116.2064458344602
 20
-150.0437484366102
 30
0.0
 10
116.1616380613052
 20
-149.9989406634551
 30
0.0
 10
116.10660804389
 20
-149.9989406634551
 30
0.0
 10
116.0515726435132
 20
-149.9989406634551
 30
0.0
 10
116.0067702533198
 20
-150.0437484366102
 30
0.0
 10
116.0067702533198
 20
-150.0987730710636
 30
0.0
 10
116.0067702533198
 20
-150.1545190223843
 30
0.0
 10
116.0515726435132
 20
-150.199316029616
 30
0.0
 10
116.10660804389
 20
-150.199316029616
 30
0.0
 10
116.1616380613052
 20
-150.199316029616
 30
0.0
 10
116.2064458344602
 20
-150.1545190223843
 30
0.0
 10
116.2064458344602
 20
-150.0987730710636
 30
0.0
  0
SPLINE
  5
A1
330
1F
100
AcDbEntity
  8
_U+30EC_U+30A4_U+30E4_U+30FC 1
 62
   179
420
  2234388
370
     9
100
AcDbSpline
210
0.0
220
0.0
230
1.0
 70
    11
 71
     3
 72
    17
 73
    13
 74
     0
 42
0.0000000001
 43
0.0000000001
 12
1.0
 22
0.0
 32
0.0
 13
1.0
 23
0.0
 33
0.0
 40
0.0
 40
0.0
 40
0.0
 40
0.0
 40
1.0
 40
1.0
 40
1.0
 40
2.0
 40
2.0
 40
2.0
 40
3.0
 40
3.0
 40
3.0
 40
4.0
 40
4.0
 40
4.0
 40
4.0
 10
116.2064458344602
 20
-143.0990172982096
 30
0.0
 10
116.2064458344602
 20
-143.0439926637561
 30
0.0
 10
116.1616380613052
 20
-142.9991848906011
 30
0.0
 10
116.10660804389
 20
-142.9991848906011
 30
0.0
 10
116.0515726435132
 20
-142.9991848906011
 30
0.0
 10
116.0067702533198
 20
-143.0439926637561
 30
0.0
 10
116.0067702533198
 20
-143.0990172982096
 30
0.0
 10
116.0067702533198
 20
-143.1540526985865
 30
0.0
 10
116.0515726435132
 20
-143.1988604717415
 30
0.0
 10
116.10660804389
 20
-143.1988604717415
 30
0.0
 10
116.1616380613052
 20
-143.1988604717415
 30
0.0
 10
116.2064458344602
 20
-143.1540526985865
 30
0.0
 10
116.2064458344602
 20
-143.0990172982096
 30
0.0
  0
POLYLINE
  5
A2
330
1F
100
AcDbEntity
  8
_U+30EC_U+30A4_U+30E4_U+30FC 1
 62
   179
420
  2234388
370
     9
100
AcDb2dPolyline
 66
     1
 10
0.0
 20
0.0
 30
0.0
  0
VERTEX
  5
A3
330
A2
100
AcDbEntity
  8
_U+30EC_U+30A4_U+30E4_U+30FC 1
 62
   179
420
  2234388
370
     9
100
AcDbVertex
100
AcDb2dVertex
 10
116.106538065388
 20
-153.4987378054567
 30
0.0
  0
VERTEX
  5
A4
330
A2
100
AcDbEntity
  8
_U+30EC_U+30A4_U+30E4_U+30FC 1
 62
   179
420
  2234388
370
     9
100
AcDbVertex
100
AcDb2dVertex
 10
116.106538065388
 20
-149.9988330042212
 30
0.0
  0
SEQEND
  5
A5
330
A2
100
AcDbEntity
  8
_U+30EC_U+30A4_U+30E4_U+30FC 1
 62
   179
420
  2234388
370
     9
  0
POLYLINE
  5
A6
330
1F
100
AcDbEntity
  8
_U+30EC_U+30A4_U+30E4_U+30FC 1
 62
   179
420
  2234388
370
     9
100
AcDb2dPolyline
 66
     1
 10
0.0
 20
0.0
 30
0.0
  0
VERTEX
  5
A7
330
A6
100
AcDbEntity
  8
_U+30EC_U+30A4_U+30E4_U+30FC 1
 62
   179
420
  2234388
370
     9
100
AcDbVertex
100
AcDb2dVertex
 10
109.6462950114475
 20
-153.4987378054567
 30
0.0
  0
VERTEX
  5
A8
330
A6
100
AcDbEntity
  8
_U+30EC_U+30A4_U+30E4_U+30FC 1
 62
   179
420
  2234388
370
     9
100
AcDbVertex
100
AcDb2dVertex
 10
117.1061325204332
 20
-153.4987378054567
 30
0.0
  0
SEQEND
  5
A9
330
A6
100
AcDbEntity
  8
_U+30EC_U+30A4_U+30E4_U+30FC 1
 62
   179
420
  2234388
370
     9
  0
POLYLINE
  5
AA
330
1F
100
AcDbEntity
  8
_U+30EC_U+30A4_U+30E4_U+30FC 1
 62
   179
420
  2234388
370
     9
100
AcDb2dPolyline
 66
     1
 10
0.0
 20
0.0
 30
0.0
  0
VERTEX
  5
AB
330
AA
100
AcDbEntity
  8
_U+30EC_U+30A4_U+30E4_U+30FC 1
 62
   179
420
  2234388
370
     9
100
AcDbVertex
100
AcDb2dVertex
 10
109.6462950114475
 20
-150.0987730710636
 30
0.0
  0
VERTEX
  5
AC
330
AA
100
AcDbEntity
  8
_U+30EC_U+30A4_U+30E4_U+30FC 1
 62
   179
420
  2234388
370
     9
100
AcDbVertex
100
AcDb2dVertex
 10
117.1061325204332
 20
-150.0987730710636
 30
0.0
  0
SEQEND
  5
AD
330
AA
100
AcDbEntity
  8
_U+30EC_U+30A4_U+30E4_U+30FC 1
 62
   179
420
  2234388
370
     9
  0
SPLINE
  5
AE
330
1F
100
AcDbEntity
  8
_U+30EC_U+30A4_U+30E4_U+30FC 1
 62
   179
420
  2234388
370
     9
100
AcDbSpline
210
0.0
220
0.0
230
1.0
 70
    11
 71
     3
 72
    17
 73
    13
 74
     0
 42
0.0000000001
 43
0.0000000001
 12
1.0
 22
0.0
 32
0.0
 13
1.0
 23
0.0
 33
0.0
 40
0.0
 40
0.0
 40
0.0
 40
0.0
 40
1.0
 40
1.0
 40
1.0
 40
2.0
 40
2.0
 40
2.0
 40
3.0
 40
3.0
 40
3.0
 40
4.0
 40
4.0
 40
4.0
 40
4.0
 10
116.2064458344602
 20
-148.9983880412281
 30
0.0
 10
116.2064458344602
 20
-148.9433634067746
 30
0.0
 10
116.1616380613052
 20
-148.8985556336196
 30
0.0
 10
116.10660804389
 20
-148.8985556336196
 30
0.0
 10
116.0515726435132
 20
-148.8985556336196
 30
0.0
 10
116.0067702533198
 20
-148.9433634067746
 30
0.0
 10
116.0067702533198
 20
-148.9983880412281
 30
0.0
 10
116.0067702533198
 20
-149.0541339925488
 30
0.0
 10
116.0515726435132
 20
-149.0989309997804
 30
0.0
 10
116.10660804389
 20
-149.0989309997804
 30
0.0
 10
116.1616380613052
 20
-149.0989309997804
 30
0.0
 10
116.2064458344602
 20
-149.0541339925488
 30
0.0
 10
116.2064458344602
 20
-148.9983880412281
 30
0.0
  0
POLYLINE
  5
AF
330
1F
100
AcDbEntity
  8
_U+30EC_U+30A4_U+30E4_U+30FC 1
 62
   179
420
  2234388
370
     9
100
AcDb2dPolyline
 66
     1
 10
0.0
 20
0.0
 30
0.0
  0
VERTEX
  5
B0
330
AF
100
AcDbEntity
  8
_U+30EC_U+30A4_U+30E4_U+30FC 1
 62
   179
420
  2234388
370
     9
100
AcDbVertex
100
AcDb2dVertex
 10
109.6462950114475
 20
-148.9983880412281
 30
0.0
  0
VERTEX
  5
B1
330
AF
100
AcDbEntity
  8
_U+30EC_U+30A4_U+30E4_U+30FC 1
 62
   179
420
  2234388
370
     9
100
AcDbVertex
100
AcDb2dVertex
 10
117.1061325204332
 20
-148.9983880412281
 30
0.0
  0
SEQEND
  5
B2
330
AF
100
AcDbEntity
  8
_U+30EC_U+30A4_U+30E4_U+30FC 1
 62
   179
420
  2234388
370
     9
  0
INSERT
  5
B4
330
1F
100
AcDbEntity
  8
_U+30EC_U+30A4_U+30E4_U+30FC 1
100
AcDbBlockReference
  2
block 5
 10
0.0
 20
0.0
 30
0.0
  0
POLYLINE
  5
C3
330
1F
100
AcDbEntity
  8
_U+30EC_U+30A4_U+30E4_U+30FC 1
 62
   179
420
  2234388
370
     9
100
AcDb2dPolyline
 66
     1
 10
0.0
 20
0.0
 30
0.0
  0
VERTEX
  5
C4
330
C3
100
AcDbEntity
  8
_U+30EC_U+30A4_U+30E4_U+30FC 1
 62
   179
420
  2234388
370
     9
100
AcDbVertex
100
AcDb2dVertex
 10
116.106538065388
 20
-150.0987730710636
 30
0.0
  0
VERTEX
  5
C5
330
C3
100
AcDbEntity
  8
_U+30EC_U+30A4_U+30E4_U+30FC 1
 62
   179
420
  2234388
370
     9
100
AcDbVertex
100
AcDb2dVertex
 10
116.106538065388
 20
-143.0989634685927
 30
0.0
  0
SEQEND
  5
C6
330
C3
100
AcDbEntity
  8
_U+30EC_U+30A4_U+30E4_U+30FC 1
 62
   179
420
  2234388
370
     9
  0
POLYLINE
  5
C7
330
1F
100
AcDbEntity
  8
_U+30EC_U+30A4_U+30E4_U+30FC 1
 62
   179
420
  2234388
370
     9
100
AcDb2dPolyline
 66
     1
 10
0.0
 20
0.0
 30
0.0
  0
VERTEX
  5
C8
330
C7
100
AcDbEntity
  8
_U+30EC_U+30A4_U+30E4_U+30FC 1
 62
   179
420
  2234388
370
     9
100
AcDbVertex
100
AcDb2dVertex
 10
109.6462950114475
 20
-143.0990172982096
 30
0.0
  0
VERTEX
  5
C9
330
C7
100
AcDbEntity
  8
_U+30EC_U+30A4_U+30E4_U+30FC 1
 62
   179
420
  2234388
370
     9
100
AcDbVertex
100
AcDb2dVertex
 10
117.1061325204332
 20
-143.0990172982096
 30
0.0
  0
SEQEND
  5
CA
330
C7
100
AcDbEntity
  8
_U+30EC_U+30A4_U+30E4_U+30FC 1
 62
   179
420
  2234388
370
     9
  0
INSERT
  5
CC
330
1F
100
AcDbEntity
  8
_U+30EC_U+30A4_U+30E4_U+30FC 1
100
AcDbBlockReference
  2
block 6
 10
0.0
 20
0.0
 30
0.0
  0
SPLINE
  5
D2
330
1F
100
AcDbEntity
  8
_U+30EC_U+30A4_U+30E4_U+30FC 1
370
     0
100
AcDbSpline
210
0.0
220
0.0
230
1.0
 70
    11
 71
     3
 72
    44
 73
    40
 74
     0
 42
0.0000000001
 43
0.0000000001
 12
1.0
 22
0.0
 32
0.0
 13
1.0
 23
0.0
 33
0.0
 40
0.0
 40
0.0
 40
0.0
 40
0.0
 40
1.0
 40
1.0
 40
1.0
 40
2.0
 40
2.0
 40
2.0
 40
3.0
 40
3.0
 40
3.0
 40
4.0
 40
4.0
 40
4.0
 40
5.0
 40
5.0
 40
5.0
 40
6.0
 40
6.0
 40
6.0
 40
7.0
 40
7.0
 40
7.0
 40
8.0
 40
8.0
 40
8.0
 40
9.0
 40
9.0
 40
9.0
 40
10.0
 40
10.0
 40
10.0
 40
11.0
 40
11.0
 40
11.0
 40
12.0
 40
12.0
 40
12.0
 40
13.0
 40
13.0
 40
13.0
 40
13.0
 10
100.6460180454833
 20
-144.0987947739525
 30
0.0
 10
100.6460180454833
 20
-143.5463521810459
 30
0.0
 10
100.1979887605883
 20
-143.0986727886611
 30
0.0
 10
99.64624326122157
 20
-143.0986727886611
 30
0.0
 10
99.64624326122157
 20
-143.0986727886611
 30
0.0
 10
99.64624326122157
 20
-153.5991085092348
 30
0.0
 10
99.64624326122157
 20
-153.5991085092348
 30
0.0
 10
99.64624326122157
 20
-154.1512065925928
 30
0.0
 10
100.0942725461163
 20
-154.5988752190543
 30
0.0
 10
100.6460180454833
 20
-154.5988752190543
 30
0.0
 10
100.6460180454833
 20
-154.5988752190543
 30
0.0
 10
113.6465837830304
 20
-154.5988752190543
 30
0.0
 10
113.6465837830304
 20
-154.5988752190543
 30
0.0
 10
113.6465837830304
 20
-154.1572032119219
 30
0.0
 10
113.288514553994
 20
-153.7987733244518
 30
0.0
 10
112.8464818884279
 20
-153.7987733244518
 30
0.0
 10
112.8464818884279
 20
-153.7987733244518
 30
0.0
 10
106.9921342370324
 20
-153.7987733244518
 30
0.0
 10
106.9921342370324
 20
-153.7987733244518
 30
0.0
 10
106.9921342370324
 20
-153.7987733244518
 30
0.0
 10
106.6464135221258
 20
-153.5987532337629
 30
0.0
 10
106.6464135221258
 20
-153.5987532337629
 30
0.0
 10
106.6464135221258
 20
-153.5987532337629
 30
0.0
 10
100.6463706294744
 20
-153.5987532337629
 30
0.0
 10
100.6463706294744
 20
-153.5987532337629
 30
0.0
 10
100.6463706294744
 20
-153.5987532337629
 30
0.0
 10
100.6463706294744
 20
-150.0988484325274
 30
0.0
 10
100.6463706294744
 20
-150.0988484325274
 30
0.0
 10
100.6463706294744
 20
-150.0988484325274
 30
0.0
 10
106.6464135221258
 20
-150.0988484325274
 30
0.0
 10
106.6464135221258
 20
-150.0988484325274
 30
0.0
 10
106.6464135221258
 20
-149.5460397982255
 30
0.0
 10
106.1983842372308
 20
-149.0987156813126
 30
0.0
 10
105.6462888453536
 20
-149.0987156813126
 30
0.0
 10
105.6462888453536
 20
-149.0987156813126
 30
0.0
 10
100.6463706294744
 20
-149.0987156813126
 30
0.0
 10
100.6463706294744
 20
-149.0987156813126
 30
0.0
 10
100.6463706294744
 20
-149.0987156813126
 30
0.0
 10
100.6460180454833
 20
-144.0987947739525
 30
0.0
 10
100.6460180454833
 20
-144.0987947739525
 30
0.0
  0
HATCH
  5
D3
330
1F
100
AcDbEntity
  8
_U+30EC_U+30A4_U+30E4_U+30FC 1
 62
   179
420
  2234388
100
AcDbHatch
 10
0.0
 20
0.0
 30
0.0
210
0.0
220
0.0
230
1.0
  2
SOLID
 70
     1
 71
     0
 91
        1
 92
        1
 93
        1
 72
     4
 94
        3
 73
     0
 74
     1
 95
       44
 96
       40
 40
0.0
 40
0.0
 40
0.0
 40
0.0
 40
1.0
 40
1.0
 40
1.0
 40
2.0
 40
2.0
 40
2.0
 40
3.0
 40
3.0
 40
3.0
 40
4.0
 40
4.0
 40
4.0
 40
5.0
 40
5.0
 40
5.0
 40
6.0
 40
6.0
 40
6.0
 40
7.0
 40
7.0
 40
7.0
 40
8.0
 40
8.0
 40
8.0
 40
9.0
 40
9.0
 40
9.0
 40
10.0
 40
10.0
 40
10.0
 40
11.0
 40
11.0
 40
11.0
 40
12.0
 40
12.0
 40
12.0
 40
13.0
 40
13.0
 40
13.0
 40
13.0
 10
100.6460180454833
 20
-144.0987947739525
 10
100.6460180454833
 20
-143.5463521810459
 10
100.1979887605883
 20
-143.0986727886611
 10
99.64624326122157
 20
-143.0986727886611
 10
99.64624326122157
 20
-143.0986727886611
 10
99.64624326122157
 20
-153.5991085092348
 10
99.64624326122157
 20
-153.5991085092348
 10
99.64624326122157
 20
-154.1512065925928
 10
100.0942725461163
 20
-154.5988752190543
 10
100.6460180454833
 20
-154.5988752190543
 10
100.6460180454833
 20
-154.5988752190543
 10
113.6465837830304
 20
-154.5988752190543
 10
113.6465837830304
 20
-154.5988752190543
 10
113.6465837830304
 20
-154.1572032119219
 10
113.288514553994
 20
-153.7987733244518
 10
112.8464818884279
 20
-153.7987733244518
 10
112.8464818884279
 20
-153.7987733244518
 10
106.9921342370324
 20
-153.7987733244518
 10
106.9921342370324
 20
-153.7987733244518
 10
106.9921342370324
 20
-153.7987733244518
 10
106.6464135221258
 20
-153.5987532337629
 10
106.6464135221258
 20
-153.5987532337629
 10
106.6464135221258
 20
-153.5987532337629
 10
100.6463706294744
 20
-153.5987532337629
 10
100.6463706294744
 20
-153.5987532337629
 10
100.6463706294744
 20
-153.5987532337629
 10
100.6463706294744
 20
-150.0988484325274
 10
100.6463706294744
 20
-150.0988484325274
 10
100.6463706294744
 20
-150.0988484325274
 10
106.6464135221258
 20
-150.0988484325274
 10
106.6464135221258
 20
-150.0988484325274
 10
106.6464135221258
 20
-149.5460397982255
 10
106.1983842372308
 20
-149.0987156813126
 10
105.6462888453536
 20
-149.0987156813126
 10
105.6462888453536
 20
-149.0987156813126
 10
100.6463706294744
 20
-149.0987156813126
 10
100.6463706294744
 20
-149.0987156813126
 10
100.6463706294744
 20
-149.0987156813126
 10
100.6460180454833
 20
-144.0987947739525
 10
100.6460180454833
 20
-144.0987947739525
 97
        0
 97
        0
 75
     2
 76
     1
 98
        0
  0
SPLINE
  5
D4
330
1F
100
AcDbEntity
  8
_U+30EC_U+30A4_U+30E4_U+30FC 1
 62
   179
420
  2234388
370
    25
100
AcDbSpline
210
0.0
220
0.0
230
1.0
 70
    11
 71
     3
 72
    44
 73
    40
 74
     0
 42
0.0000000001
 43
0.0000000001
 12
1.0
 22
0.0
 32
0.0
 13
1.0
 23
0.0
 33
0.0
 40
0.0
 40
0.0
 40
0.0
 40
0.0
 40
1.0
 40
1.0
 40
1.0
 40
2.0
 40
2.0
 40
2.0
 40
3.0
 40
3.0
 40
3.0
 40
4.0
 40
4.0
 40
4.0
 40
5.0
 40
5.0
 40
5.0
 40
6.0
 40
6.0
 40
6.0
 40
7.0
 40
7.0
 40
7.0
 40
8.0
 40
8.0
 40
8.0
 40
9.0
 40
9.0
 40
9.0
 40
10.0
 40
10.0
 40
10.0
 40
11.0
 40
11.0
 40
11.0
 40
12.0
 40
12.0
 40
12.0
 40
13.0
 40
13.0
 40
13.0
 40
13.0
 10
100.6460180454833
 20
-144.0987947739525
 30
0.0
 10
100.6460180454833
 20
-143.5463521810459
 30
0.0
 10
100.1979887605883
 20
-143.0986727886611
 30
0.0
 10
99.64624326122157
 20
-143.0986727886611
 30
0.0
 10
99.64624326122157
 20
-143.0986727886611
 30
0.0
 10
99.64624326122157
 20
-153.5991085092348
 30
0.0
 10
99.64624326122157
 20
-153.5991085092348
 30
0.0
 10
99.64624326122157
 20
-154.1512065925928
 30
0.0
 10
100.0942725461163
 20
-154.5988752190543
 30
0.0
 10
100.6460180454833
 20
-154.5988752190543
 30
0.0
 10
100.6460180454833
 20
-154.5988752190543
 30
0.0
 10
113.6465837830304
 20
-154.5988752190543
 30
0.0
 10
113.6465837830304
 20
-154.5988752190543
 30
0.0
 10
113.6465837830304
 20
-154.1572032119219
 30
0.0
 10
113.288514553994
 20
-153.7987733244518
 30
0.0
 10
112.8464818884279
 20
-153.7987733244518
 30
0.0
 10
112.8464818884279
 20
-153.7987733244518
 30
0.0
 10
106.9921342370324
 20
-153.7987733244518
 30
0.0
 10
106.9921342370324
 20
-153.7987733244518
 30
0.0
 10
106.9921342370324
 20
-153.7987733244518
 30
0.0
 10
106.6464135221258
 20
-153.5987532337629
 30
0.0
 10
106.6464135221258
 20
-153.5987532337629
 30
0.0
 10
106.6464135221258
 20
-153.5987532337629
 30
0.0
 10
100.6463706294744
 20
-153.5987532337629
 30
0.0
 10
100.6463706294744
 20
-153.5987532337629
 30
0.0
 10
100.6463706294744
 20
-153.5987532337629
 30
0.0
 10
100.6463706294744
 20
-150.0988484325274
 30
0.0
 10
100.6463706294744
 20
-150.0988484325274
 30
0.0
 10
100.6463706294744
 20
-150.0988484325274
 30
0.0
 10
106.6464135221258
 20
-150.0988484325274
 30
0.0
 10
106.6464135221258
 20
-150.0988484325274
 30
0.0
 10
106.6464135221258
 20
-149.5460397982255
 30
0.0
 10
106.1983842372308
 20
-149.0987156813126
 30
0.0
 10
105.6462888453536
 20
-149.0987156813126
 30
0.0
 10
105.6462888453536
 20
-149.0987156813126
 30
0.0
 10
100.6463706294744
 20
-149.0987156813126
 30
0.0
 10
100.6463706294744
 20
-149.0987156813126
 30
0.0
 10
100.6463706294744
 20
-149.0987156813126
 30
0.0
 10
100.6460180454833
 20
-144.0987947739525
 30
0.0
 10
100.6460180454833
 20
-144.0987947739525
 30
0.0
  0
POLYLINE
  5
D5
330
1F
100
AcDbEntity
  8
_U+30EC_U+30A4_U+30E4_U+30FC 1
 62
   179
420
  2234388
370
     9
100
AcDb2dPolyline
 66
     1
 10
0.0
 20
0.0
 30
0.0
  0
VERTEX
  5
D6
330
D5
100
AcDbEntity
  8
_U+30EC_U+30A4_U+30E4_U+30FC 1
 62
   179
420
  2234388
370
     9
100
AcDbVertex
100
AcDb2dVertex
 10
98.64643887066988
 20
-146.0545970127756
 30
0.0
  0
VERTEX
  5
D7
330
D5
100
AcDbEntity
  8
_U+30EC_U+30A4_U+30E4_U+30FC 1
 62
   179
420
  2234388
370
     9
100
AcDbVertex
100
AcDb2dVertex
 10
103.2671220521251
 20
-146.0545970127756
 30
0.0
  0
SEQEND
  5
D8
330
D5
100
AcDbEntity
  8
_U+30EC_U+30A4_U+30E4_U+30FC 1
 62
   179
420
  2234388
370
     9
  0
INSERT
  5
DA
330
1F
100
AcDbEntity
  8
_U+30EC_U+30A4_U+30E4_U+30FC 1
100
AcDbBlockReference
  2
block 7
 10
0.0
 20
0.0
 30
0.0
  0
ENDSEC
  0
SECTION
  2
OBJECTS
  0
DICTIONARY
  5
C
330
0
100
AcDbDictionary
281
     1
  3
ACAD_GROUP
350
D
  3
ACAD_LAYOUT
350
1A
  3
ACAD_MATERIAL
350
3B
  3
ACAD_MLEADERSTYLE
350
E0
  3
ACAD_MLINESTYLE
350
17
  3
ACAD_PLOTSETTINGS
350
19
  3
ACAD_PLOTSTYLENAME
350
E
  3
ACAD_TABLESTYLE
350
DF
  3
ACAD_VISUALSTYLE
350
2A
  0
SUN
  5
3F
330
29
100
AcDbSun
 90
        1
290
     0
 63
     7
421
 16777215
 40
1.0
291
     1
 91
  2455826
 92
 54000000
292
     0
 70
     2
 71
   256
280
     1
  0
DICTIONARY
  5
D
102
{ACAD_REACTORS
330
C
102
}
330
C
100
AcDbDictionary
281
     1
  0
DICTIONARY
  5
1A
102
{ACAD_REACTORS
330
C
102
}
330
C
100
AcDbDictionary
281
     1
  3
Layout1
350
1E
  3
Layout2
350
26
  3
Model
350
22
  0
DICTIONARY
  5
3B
102
{ACAD_REACTORS
330
C
102
}
330
C
100
AcDbDictionary
281
     1
  3
ByBlock
350
3D
  3
ByLayer
350
3C
  3
Global
350
3E
  0
DICTIONARY
  5
E0
102
{ACAD_REACTORS
330
C
102
}
330
C
100
AcDbDictionary
281
     1
  0
DICTIONARY
  5
17
102
{ACAD_REACTORS
330
C
102
}
330
C
100
AcDbDictionary
281
     1
  3
Standard
350
18
  0
DICTIONARY
  5
19
102
{ACAD_REACTORS
330
C
102
}
330
C
100
AcDbDictionary
281
     1
  0
ACDBDICTIONARYWDFLT
  5
E
102
{ACAD_REACTORS
330
C
102
}
330
C
100
AcDbDictionary
281
     1
  3
Normal
350
F
100
AcDbDictionaryWithDefault
340
F
  0
DICTIONARY
  5
DF
102
{ACAD_REACTORS
330
C
102
}
330
C
100
AcDbDictionary
281
     1
  0
DICTIONARY
  5
2A
102
{ACAD_REACTORS
330
C
102
}
330
C
100
AcDbDictionary
281
     1
  3
2dWireframe
350
2F
  3
3D Hidden
350
31
  3
3dWireframe
350
30
  3
Basic
350
32
  3
Brighten
350
36
  3
ColorChange
350
3A
  3
Conceptual
350
34
  3
Dim
350
35
  3
Facepattern
350
39
  3
Flat
350
2B
  3
FlatWithEdges
350
2C
  3
Gouraud
350
2D
  3
GouraudWithEdges
350
2E
  3
Linepattern
350
38
  3
Realistic
350
33
  3
Thicken
350
37
  0
LAYOUT
  5
1E
102
{ACAD_REACTORS
330
1A
102
}
330
1A
100
AcDbPlotSettings
  1

  2
none_device
  4

  6

 40
0.0
 41
0.0
 42
0.0
 43
0.0
 44
0.0
 45
0.0
 46
0.0
 47
0.0
 48
0.0
 49
0.0
140
0.0
141
0.0
142
1.0
143
1.0
 70
   688
 72
     0
 73
     0
 74
     5
  7

 75
    16
 76
     0
 77
     2
 78
   300
147
1.0
148
0.0
149
0.0
100
AcDbLayout
  1
Layout1
 70
     1
 71
     1
 10
0.0
 20
0.0
 11
12.0
 21
9.0
 12
0.0
 22
0.0
 32
0.0
 14
1.000000000000000E+20
 24
1.000000000000000E+20
 34
1.000000000000000E+20
 15
-1.000000000000000E+20
 25
-1.000000000000000E+20
 35
-1.000000000000000E+20
146
0.0
 13
0.0
 23
0.0
 33
0.0
 16
1.0
 26
0.0
 36
0.0
 17
0.0
 27
1.0
 37
0.0
 76
     0
330
1B
  0
LAYOUT
  5
26
102
{ACAD_REACTORS
330
1A
102
}
330
1A
100
AcDbPlotSettings
  1

  2
none_device
  4

  6

 40
0.0
 41
0.0
 42
0.0
 43
0.0
 44
0.0
 45
0.0
 46
0.0
 47
0.0
 48
0.0
 49
0.0
140
0.0
141
0.0
142
1.0
143
1.0
 70
   688
 72
     0
 73
     0
 74
     5
  7

 75
    16
 76
     0
 77
     2
 78
   300
147
1.0
148
0.0
149
0.0
100
AcDbLayout
  1
Layout2
 70
     1
 71
     2
 10
0.0
 20
0.0
 11
0.0
 21
0.0
 12
0.0
 22
0.0
 32
0.0
 14
0.0
 24
0.0
 34
0.0
 15
0.0
 25
0.0
 35
0.0
146
0.0
 13
0.0
 23
0.0
 33
0.0
 16
1.0
 26
0.0
 36
0.0
 17
0.0
 27
1.0
 37
0.0
 76
     0
330
23
  0
LAYOUT
  5
22
102
{ACAD_REACTORS
330
1A
102
}
330
1A
100
AcDbPlotSettings
  1

  2
none_device
  4

  6

 40
0.0
 41
0.0
 42
0.0
 43
0.0
 44
0.0
 45
0.0
 46
0.0
 47
0.0
 48
0.0
 49
0.0
140
0.0
141
0.0
142
1.0
143
1.0
 70
  1712
 72
     0
 73
     0
 74
     0
  7

 75
     0
 76
     0
 77
     2
 78
   300
147
1.0
148
0.0
149
0.0
100
AcDbLayout
  1
Model
 70
     1
 71
     0
 10
0.0
 20
0.0
 11
12.0
 21
9.0
 12
0.0
 22
0.0
 32
0.0
 14
1.000000000000000E+20
 24
1.000000000000000E+20
 34
1.000000000000000E+20
 15
-1.000000000000000E+20
 25
-1.000000000000000E+20
 35
-1.000000000000000E+20
146
0.0
 13
0.0
 23
0.0
 33
0.0
 16
1.0
 26
0.0
 36
0.0
 17
0.0
 27
1.0
 37
0.0
 76
     0
330
1F
331
29
  0
MATERIAL
  5
3D
102
{ACAD_REACTORS
330
3B
102
}
330
3B
100
AcDbMaterial
  1
ByBlock
 72
     1
 94
      127
  0
MATERIAL
  5
3C
102
{ACAD_REACTORS
330
3B
102
}
330
3B
100
AcDbMaterial
  1
ByLayer
 72
     1
 94
      127
  0
MATERIAL
  5
3E
102
{ACAD_REACTORS
330
3B
102
}
330
3B
100
AcDbMaterial
  1
Global
 72
     1
 94
      127
  0
MLINESTYLE
  5
18
102
{ACAD_REACTORS
330
17
102
}
330
17
100
AcDbMlineStyle
  2
Standard
 70
     0
  3

 62
   256
 51
90.0
 52
90.0
 71
     2
 49
0.5
 62
   256
  6
BYLAYER
 49
-0.5
 62
   256
  6
BYLAYER
  0
ACDBPLACEHOLDER
  5
F
102
{ACAD_REACTORS
330
E
102
}
330
E
  0
VISUALSTYLE
  5
2F
102
{ACAD_REACTORS
330
2A
102
}
330
2A
100
AcDbVisualStyle
  2
2dWireframe
 70
     4
177
     2
291
     0
 71
     0
176
     1
 72
     2
176
     1
 73
     0
176
     1
 90
        0
176
     1
 40
-0.6
176
     1
 41
-30.0
176
     1
 62
     5
 63
     7
421
 16777215
176
     1
 74
     1
176
     1
 91
        4
176
     1
 64
     7
176
     1
 65
   257
176
     1
 75
     1
176
     1
175
     1
176
     1
 42
1.0
176
     1
 92
        0
176
     1
 66
   257
176
     1
 43
1.0
176
     1
 76
     1
176
     1
 77
     6
176
     1
 78
     2
176
     1
 67
     7
176
     1
 79
     5
176
     1
170
     0
176
     1
171
     0
176
     1
290
     0
176
     1
 93
        1
176
     1
 44
0.0
176
     1
173
     0
176
     1
  0
VISUALSTYLE
  5
31
102
{ACAD_REACTORS
330
2A
102
}
330
2A
100
AcDbVisualStyle
  2
3D Hidden
 70
     6
177
     2
291
     0
 71
     1
176
     1
 72
     2
176
     1
 73
     2
176
     1
 90
        0
176
     1
 40
-0.6
176
     1
 41
-30.0
176
     1
 62
     5
 63
     7
421
 16777215
176
     1
 74
     2
176
     1
 91
        2
176
     1
 64
     7
176
     1
 65
   257
176
     1
 75
     2
176
     1
175
     1
176
     1
 42
40.0
176
     1
 92
        0
176
     1
 66
   257
176
     1
 43
1.0
176
     1
 76
     1
176
     1
 77
     6
176
     1
 78
     2
176
     1
 67
     7
176
     1
 79
     3
176
     1
170
     0
176
     1
171
     0
176
     1
290
     0
176
     1
 93
        1
176
     1
 44
0.0
176
     1
173
     0
176
     1
  0
VISUALSTYLE
  5
30
102
{ACAD_REACTORS
330
2A
102
}
330
2A
100
AcDbVisualStyle
  2
3dWireframe
 70
     5
177
     2
291
     0
 71
     0
176
     1
 72
     2
176
     1
 73
     0
176
     1
 90
        0
176
     1
 40
-0.6
176
     1
 41
-30.0
176
     1
 62
     5
 63
     7
421
 16777215
176
     1
 74
     1
176
     1
 91
        4
176
     1
 64
     7
176
     1
 65
   257
176
     1
 75
     1
176
     1
175
     1
176
     1
 42
1.0
176
     1
 92
        0
176
     1
 66
   257
176
     1
 43
1.0
176
     1
 76
     1
176
     1
 77
     6
176
     1
 78
     2
176
     1
 67
     7
176
     1
 79
     5
176
     1
170
     0
176
     1
171
     0
176
     1
290
     0
176
     1
 93
        1
176
     1
 44
0.0
176
     1
173
     0
176
     1
  0
VISUALSTYLE
  5
32
102
{ACAD_REACTORS
330
2A
102
}
330
2A
100
AcDbVisualStyle
  2
Basic
 70
     7
177
     2
291
     1
 71
     1
176
     1
 72
     0
176
     1
 73
     1
176
     1
 90
        0
176
     1
 40
-0.6
176
     1
 41
-30.0
176
     1
 62
     5
 63
     7
421
 16777215
176
     1
 74
     0
176
     1
 91
        4
176
     1
 64
     7
176
     1
 65
   257
176
     1
 75
     1
176
     1
175
     1
176
     1
 42
1.0
176
     1
 92
        8
176
     1
 66
     7
176
     1
 43
1.0
176
     1
 76
     1
176
     1
 77
     6
176
     1
 78
     2
176
     1
 67
     7
176
     1
 79
     5
176
     1
170
     0
176
     1
171
     0
176
     1
290
     0
176
     1
 93
        1
176
     1
 44
0.0
176
     1
173
     0
176
     1
  0
VISUALSTYLE
  5
36
102
{ACAD_REACTORS
330
2A
102
}
330
2A
100
AcDbVisualStyle
  2
Brighten
 70
    12
177
     2
291
     1
 71
     2
176
     1
 72
     2
176
     1
 73
     0
176
     1
 90
        0
176
     1
 40
-0.6
176
     1
 41
-30.0
176
     1
 62
     5
 63
     7
421
 16777215
176
     1
 74
     1
176
     1
 91
        4
176
     1
 64
     7
176
     1
 65
   257
176
     1
 75
     1
176
     1
175
     1
176
     1
 42
1.0
176
     1
 92
        8
176
     1
 66
     7
176
     1
 43
1.0
176
     1
 76
     1
176
     1
 77
     6
176
     1
 78
     2
176
     1
 67
     7
176
     1
 79
     5
176
     1
170
     0
176
     1
171
     0
176
     1
290
     0
176
     1
 93
        1
176
     1
 44
50.0
176
     1
173
     0
176
     1
  0
VISUALSTYLE
  5
3A
102
{ACAD_REACTORS
330
2A
102
}
330
2A
100
AcDbVisualStyle
  2
ColorChange
 70
    16
177
     2
291
     1
 71
     2
176
     1
 72
     2
176
     1
 73
     3
176
     1
 90
        0
176
     1
 40
-0.6
176
     1
 41
-30.0
176
     1
 62
     5
 63
     8
421
  8421504
176
     1
 74
     1
176
     1
 91
        4
176
     1
 64
     7
176
     1
 65
   257
176
     1
 75
     1
176
     1
175
     1
176
     1
 42
1.0
176
     1
 92
        8
176
     1
 66
     8
424
  8421504
176
     1
 43
1.0
176
     1
 76
     1
176
     1
 77
     6
176
     1
 78
     2
176
     1
 67
     7
176
     1
 79
     5
176
     1
170
     0
176
     1
171
     0
176
     1
290
     0
176
     1
 93
        1
176
     1
 44
0.0
176
     1
173
     0
176
     1
  0
VISUALSTYLE
  5
34
102
{ACAD_REACTORS
330
2A
102
}
330
2A
100
AcDbVisualStyle
  2
Conceptual
 70
     9
177
     2
291
     0
 71
     3
176
     1
 72
     2
176
     1
 73
     0
176
     1
 90
        0
176
     1
 40
-0.6
176
     1
 41
-30.0
176
     1
 62
     5
 63
     7
421
 16777215
176
     1
 74
     2
176
     1
 91
        2
176
     1
 64
     7
176
     1
 65
   257
176
     1
 75
     1
176
     1
175
     1
176
     1
 42
40.0
176
     1
 92
        8
176
     1
 66
     7
176
     1
 43
1.0
176
     1
 76
     1
176
     1
 77
     6
176
     1
 78
     2
176
     1
 67
     7
176
     1
 79
     3
176
     1
170
     0
176
     1
171
     0
176
     1
290
     0
176
     1
 93
        1
176
     1
 44
0.0
176
     1
173
     0
176
     1
  0
VISUALSTYLE
  5
35
102
{ACAD_REACTORS
330
2A
102
}
330
2A
100
AcDbVisualStyle
  2
Dim
 70
    11
177
     2
291
     1
 71
     2
176
     1
 72
     2
176
     1
 73
     0
176
     1
 90
        0
176
     1
 40
-0.6
176
     1
 41
-30.0
176
     1
 62
     5
 63
     7
421
 16777215
176
     1
 74
     1
176
     1
 91
        4
176
     1
 64
     7
176
     1
 65
   257
176
     1
 75
     1
176
     1
175
     1
176
     1
 42
1.0
176
     1
 92
        8
176
     1
 66
     7
176
     1
 43
1.0
176
     1
 76
     1
176
     1
 77
     6
176
     1
 78
     2
176
     1
 67
     7
176
     1
 79
     5
176
     1
170
     0
176
     1
171
     0
176
     1
290
     0
176
     1
 93
        1
176
     1
 44
-50.0
176
     1
173
     0
176
     1
  0
VISUALSTYLE
  5
39
102
{ACAD_REACTORS
330
2A
102
}
330
2A
100
AcDbVisualStyle
  2
Facepattern
 70
    15
177
     2
291
     1
 71
     2
176
     1
 72
     2
176
     1
 73
     0
176
     1
 90
        0
176
     1
 40
-0.6
176
     1
 41
-30.0
176
     1
 62
     5
 63
     7
421
 16777215
176
     1
 74
     1
176
     1
 91
        4
176
     1
 64
     7
176
     1
 65
   257
176
     1
 75
     1
176
     1
175
     1
176
     1
 42
1.0
176
     1
 92
        8
176
     1
 66
     7
176
     1
 43
1.0
176
     1
 76
     1
176
     1
 77
     6
176
     1
 78
     2
176
     1
 67
     7
176
     1
 79
     5
176
     1
170
     0
176
     1
171
     0
176
     1
290
     0
176
     1
 93
        1
176
     1
 44
0.0
176
     1
173
     0
176
     1
  0
VISUALSTYLE
  5
2B
102
{ACAD_REACTORS
330
2A
102
}
330
2A
100
AcDbVisualStyle
  2
Flat
 70
     0
177
     2
291
     1
 71
     2
176
     1
 72
     1
176
     1
 73
     1
176
     1
 90
        2
176
     1
 40
-0.6
176
     1
 41
30.0
176
     1
 62
     5
 63
     7
421
 16777215
176
     1
 74
     0
176
     1
 91
        4
176
     1
 64
     7
176
     1
 65
   257
176
     1
 75
     1
176
     1
175
     1
176
     1
 42
1.0
176
     1
 92
        8
176
     1
 66
     7
176
     1
 43
1.0
176
     1
 76
     1
176
     1
 77
     6
176
     1
 78
     2
176
     1
 67
     7
176
     1
 79
     5
176
     1
170
     0
176
     1
171
     0
176
     1
290
     0
176
     1
 93
       13
176
     1
 44
0.0
176
     1
173
     0
176
     1
  0
VISUALSTYLE
  5
2C
102
{ACAD_REACTORS
330
2A
102
}
330
2A
100
AcDbVisualStyle
  2
FlatWithEdges
 70
     1
177
     2
291
     1
 71
     2
176
     1
 72
     1
176
     1
 73
     1
176
     1
 90
        2
176
     1
 40
-0.6
176
     1
 41
30.0
176
     1
 62
     5
 63
     7
421
 16777215
176
     1
 74
     1
176
     1
 91
        4
176
     1
 64
     7
176
     1
 65
   257
176
     1
 75
     1
176
     1
175
     1
176
     1
 42
1.0
176
     1
 92
        0
176
     1
 66
   257
176
     1
 43
1.0
176
     1
 76
     1
176
     1
 77
     6
176
     1
 78
     2
176
     1
 67
     7
176
     1
 79
     5
176
     1
170
     0
176
     1
171
     0
176
     1
290
     0
176
     1
 93
       13
176
     1
 44
0.0
176
     1
173
     0
176
     1
  0
VISUALSTYLE
  5
2D
102
{ACAD_REACTORS
330
2A
102
}
330
2A
100
AcDbVisualStyle
  2
Gouraud
 70
     2
177
     2
291
     1
 71
     2
176
     1
 72
     2
176
     1
 73
     1
176
     1
 90
        2
176
     1
 40
-0.6
176
     1
 41
30.0
176
     1
 62
     5
 63
     7
421
 16777215
176
     1
 74
     0
176
     1
 91
        4
176
     1
 64
     7
176
     1
 65
   257
176
     1
 75
     1
176
     1
175
     1
176
     1
 42
1.0
176
     1
 92
        0
176
     1
 66
     7
176
     1
 43
1.0
176
     1
 76
     1
176
     1
 77
     6
176
     1
 78
     2
176
     1
 67
     7
176
     1
 79
     5
176
     1
170
     0
176
     1
171
     0
176
     1
290
     0
176
     1
 93
       13
176
     1
 44
0.0
176
     1
173
     0
176
     1
  0
VISUALSTYLE
  5
2E
102
{ACAD_REACTORS
330
2A
102
}
330
2A
100
AcDbVisualStyle
  2
GouraudWithEdges
 70
     3
177
     2
291
     1
 71
     2
176
     1
 72
     2
176
     1
 73
     1
176
     1
 90
        2
176
     1
 40
-0.6
176
     1
 41
30.0
176
     1
 62
     5
 63
     7
421
 16777215
176
     1
 74
     1
176
     1
 91
        4
176
     1
 64
     7
176
     1
 65
   257
176
     1
 75
     1
176
     1
175
     1
176
     1
 42
1.0
176
     1
 92
        0
176
     1
 66
   257
176
     1
 43
1.0
176
     1
 76
     1
176
     1
 77
     6
176
     1
 78
     2
176
     1
 67
     7
176
     1
 79
     5
176
     1
170
     0
176
     1
171
     0
176
     1
290
     0
176
     1
 93
       13
176
     1
 44
0.0
176
     1
173
     0
176
     1
  0
VISUALSTYLE
  5
38
102
{ACAD_REACTORS
330
2A
102
}
330
2A
100
AcDbVisualStyle
  2
Linepattern
 70
    14
177
     2
291
     1
 71
     2
176
     1
 72
     2
176
     1
 73
     0
176
     1
 90
        0
176
     1
 40
-0.6
176
     1
 41
-30.0
176
     1
 62
     5
 63
     7
421
 16777215
176
     1
 74
     1
176
     1
 91
        4
176
     1
 64
     7
176
     1
 65
   257
176
     1
 75
     7
176
     1
175
     7
176
     1
 42
1.0
176
     1
 92
        8
176
     1
 66
     7
176
     1
 43
1.0
176
     1
 76
     1
176
     1
 77
     6
176
     1
 78
     2
176
     1
 67
     7
176
     1
 79
     5
176
     1
170
     0
176
     1
171
     0
176
     1
290
     0
176
     1
 93
        1
176
     1
 44
0.0
176
     1
173
     0
176
     1
  0
VISUALSTYLE
  5
33
102
{ACAD_REACTORS
330
2A
102
}
330
2A
100
AcDbVisualStyle
  2
Realistic
 70
     8
177
     2
291
     0
 71
     2
176
     1
 72
     2
176
     1
 73
     0
176
     1
 90
        0
176
     1
 40
-0.6
176
     1
 41
-30.0
176
     1
 62
     5
 63
     7
421
 16777215
176
     1
 74
     1
176
     1
 91
        0
176
     1
 64
     7
176
     1
 65
   257
176
     1
 75
     1
176
     1
175
     1
176
     1
 42
1.0
176
     1
 92
        8
176
     1
 66
     8
424
  7895160
176
     1
 43
1.0
176
     1
 76
     1
176
     1
 77
     6
176
     1
 78
     2
176
     1
 67
     7
176
     1
 79
     5
176
     1
170
     0
176
     1
171
     0
176
     1
290
     0
176
     1
 93
       13
176
     1
 44
0.0
176
     1
173
     0
176
     1
  0
VISUALSTYLE
  5
37
102
{ACAD_REACTORS
330
2A
102
}
330
2A
100
AcDbVisualStyle
  2
Thicken
 70
    13
177
     2
291
     1
 71
     2
176
     1
 72
     2
176
     1
 73
     0
176
     1
 90
        0
176
     1
 40
-0.6
176
     1
 41
-30.0
176
     1
 62
     5
 63
     7
421
 16777215
176
     1
 74
     1
176
     1
 91
        4
176
     1
 64
     7
176
     1
 65
   257
176
     1
 75
     1
176
     1
175
     1
176
     1
 42
1.0
176
     1
 92
       12
176
     1
 66
     7
176
     1
 43
1.0
176
     1
 76
     1
176
     1
 77
     6
176
     1
 78
     2
176
     1
 67
     7
176
     1
 79
     5
176
     1
170
     0
176
     1
171
     0
176
     1
290
     0
176
     1
 93
        1
176
     1
 44
0.0
176
     1
173
     0
176
     1
  0
ENDSEC
  0
EOF
