  0
SECTION
  2
HEADER
  9
$ACADVER
  1
AC1024
  9
$ACADMAINTVER
 70
     6
  9
$DWGCODEPAGE
  3
UNDEFINED
  9
$INSBASE
 10
0.0
 20
0.0
 30
0.0
  9
$EXTMIN
 10
1.000000000000000E+20
 20
1.000000000000000E+20
 30
1.000000000000000E+20
  9
$EXTMAX
 10
-1.000000000000000E+20
 20
-1.000000000000000E+20
 30
-1.000000000000000E+20
  9
$LIMMIN
 10
0.0
 20
0.0
  9
$LIMMAX
 10
12.0
 20
9.0
  9
$ORTHOMODE
 70
     0
  9
$REGENMODE
 70
     1
  9
$FILLMODE
 70
     1
  9
$QTEXTMODE
 70
     0
  9
$MIRRTEXT
 70
     1
  9
$LTSCALE
 40
1.0
  9
$ATTMODE
 70
     1
  9
$TEXTSIZE
 40
0.2
  9
$TRACEWID
 40
0.05
  9
$TEXTSTYLE
  7
Standard
  9
$CLAYER
  8
0
  9
$CELTYPE
  6
ByLayer
  9
$CECOLOR
 62
   256
  9
$CELTSCALE
 40
1.0
  9
$DISPSILH
 70
     0
  9
$DIMSCALE
 40
1.0
  9
$DIMASZ
 40
0.18
  9
$DIMEXO
 40
0.0625
  9
$DIMDLI
 40
0.38
  9
$DIMRND
 40
0.0
  9
$DIMDLE
 40
0.0
  9
$DIMEXE
 40
0.18
  9
$DIMTP
 40
0.0
  9
$DIMTM
 40
0.0
  9
$DIMTXT
 40
0.18
  9
$DIMCEN
 40
0.09
  9
$DIMTSZ
 40
0.0
  9
$DIMTOL
 70
     0
  9
$DIMLIM
 70
     0
  9
$DIMTIH
 70
     1
  9
$DIMTOH
 70
     1
  9
$DIMSE1
 70
     0
  9
$DIMSE2
 70
     0
  9
$DIMTAD
 70
     0
  9
$DIMZIN
 70
     0
  9
$DIMBLK
  1

  9
$DIMASO
 70
     1
  9
$DIMSHO
 70
     1
  9
$DIMPOST
  1

  9
$DIMAPOST
  1

  9
$DIMALT
 70
     0
  9
$DIMALTD
 70
     2
  9
$DIMALTF
 40
25.4
  9
$DIMLFAC
 40
1.0
  9
$DIMTOFL
 70
     0
  9
$DIMTVP
 40
0.0
  9
$DIMTIX
 70
     0
  9
$DIMSOXD
 70
     0
  9
$DIMSAH
 70
     0
  9
$DIMBLK1
  1

  9
$DIMBLK2
  1

  9
$DIMSTYLE
  2
Standard
  9
$DIMCLRD
 70
     0
  9
$DIMCLRE
 70
     0
  9
$DIMCLRT
 70
     0
  9
$DIMTFAC
 40
1.0
  9
$DIMGAP
 40
0.09
  9
$DIMJUST
 70
     0
  9
$DIMSD1
 70
     0
  9
$DIMSD2
 70
     0
  9
$DIMTOLJ
 70
     1
  9
$DIMTZIN
 70
     0
  9
$DIMALTZ
 70
     0
  9
$DIMALTTZ
 70
     0
  9
$DIMUPT
 70
     0
  9
$DIMDEC
 70
     4
  9
$DIMTDEC
 70
     4
  9
$DIMALTU
 70
     2
  9
$DIMALTTD
 70
     2
  9
$DIMTXSTY
  7
Standard
  9
$DIMAUNIT
 70
     0
  9
$DIMADEC
 70
     0
  9
$DIMALTRND
 40
0.0
  9
$DIMAZIN
 70
     0
  9
$DIMDSEP
 70
    46
  9
$DIMATFIT
 70
     3
  9
$DIMFRAC
 70
     0
  9
$DIMLDRBLK
  1

  9
$DIMLUNIT
 70
     2
  9
$DIMLWD
 70
    -2
  9
$DIMLWE
 70
    -2
  9
$DIMTMOVE
 70
     0
  9
$DIMFXL
 40
1.0
  9
$DIMFXLON
 70
     0
  9
$DIMJOGANG
 40
0.7853981633974483
  9
$DIMTFILL
 70
     0
  9
$DIMTFILLCLR
 70
     0
  9
$DIMARCSYM
 70
     0
  9
$DIMLTYPE
  6

  9
$DIMLTEX1
  6

  9
$DIMLTEX2
  6

  9
$DIMTXTDIRECTION
 70
     0
  9
$LUNITS
 70
     2
  9
$LUPREC
 70
     4
  9
$SKETCHINC
 40
0.1
  9
$FILLETRAD
 40
0.5
  9
$AUNITS
 70
     0
  9
$AUPREC
 70
     0
  9
$MENU
  1
.
  9
$ELEVATION
 40
0.0
  9
$PELEVATION
 40
0.0
  9
$THICKNESS
 40
0.0
  9
$LIMCHECK
 70
     0
  9
$CHAMFERA
 40
0.5
  9
$CHAMFERB
 40
0.5
  9
$CHAMFERC
 40
1.0
  9
$CHAMFERD
 40
0.0
  9
$SKPOLY
 70
     0
  9
$TDCREATE
 40
2457917.598923599
  9
$TDUCREATE
 40
2457917.223923611
  9
$TDUPDATE
 40
2457917.598923599
  9
$TDUUPDATE
 40
2457917.223923611
  9
$TDINDWG
 40
0.0000000116
  9
$TDUSRTIMER
 40
0.0000000116
  9
$USRTIMER
 70
     1
  9
$ANGBASE
 50
0.0
  9
$ANGDIR
 70
     0
  9
$PDMODE
 70
     0
  9
$PDSIZE
 40
0.0
  9
$PLINEWID
 40
0.0
  9
$SPLFRAME
 70
     0
  9
$SPLINETYPE
 70
     6
  9
$SPLINESEGS
 70
     8
  9
$HANDSEED
  5
B2
  9
$SURFTAB1
 70
     6
  9
$SURFTAB2
 70
     6
  9
$SURFTYPE
 70
     6
  9
$SURFU
 70
     6
  9
$SURFV
 70
     6
  9
$UCSBASE
  2

  9
$UCSNAME
  2

  9
$UCSORG
 10
0.0
 20
0.0
 30
0.0
  9
$UCSXDIR
 10
1.0
 20
0.0
 30
0.0
  9
$UCSYDIR
 10
0.0
 20
1.0
 30
0.0
  9
$UCSORTHOREF
  2

  9
$UCSORTHOVIEW
 70
     0
  9
$UCSORGTOP
 10
0.0
 20
0.0
 30
0.0
  9
$UCSORGBOTTOM
 10
0.0
 20
0.0
 30
0.0
  9
$UCSORGLEFT
 10
0.0
 20
0.0
 30
0.0
  9
$UCSORGRIGHT
 10
0.0
 20
0.0
 30
0.0
  9
$UCSORGFRONT
 10
0.0
 20
0.0
 30
0.0
  9
$UCSORGBACK
 10
0.0
 20
0.0
 30
0.0
  9
$PUCSBASE
  2

  9
$PUCSNAME
  2

  9
$PUCSORG
 10
0.0
 20
0.0
 30
0.0
  9
$PUCSXDIR
 10
1.0
 20
0.0
 30
0.0
  9
$PUCSYDIR
 10
0.0
 20
1.0
 30
0.0
  9
$PUCSORTHOREF
  2

  9
$PUCSORTHOVIEW
 70
     0
  9
$PUCSORGTOP
 10
0.0
 20
0.0
 30
0.0
  9
$PUCSORGBOTTOM
 10
0.0
 20
0.0
 30
0.0
  9
$PUCSORGLEFT
 10
0.0
 20
0.0
 30
0.0
  9
$PUCSORGRIGHT
 10
0.0
 20
0.0
 30
0.0
  9
$PUCSORGFRONT
 10
0.0
 20
0.0
 30
0.0
  9
$PUCSORGBACK
 10
0.0
 20
0.0
 30
0.0
  9
$USERI1
 70
     0
  9
$USERI2
 70
     0
  9
$USERI3
 70
     0
  9
$USERI4
 70
     0
  9
$USERI5
 70
     0
  9
$USERR1
 40
0.0
  9
$USERR2
 40
0.0
  9
$USERR3
 40
0.0
  9
$USERR4
 40
0.0
  9
$USERR5
 40
0.0
  9
$WORLDVIEW
 70
     1
  9
$SHADEDGE
 70
     3
  9
$SHADEDIF
 70
    70
  9
$TILEMODE
 70
     1
  9
$MAXACTVP
 70
    64
  9
$PINSBASE
 10
0.0
 20
0.0
 30
0.0
  9
$PLIMCHECK
 70
     0
  9
$PEXTMIN
 10
1.000000000000000E+20
 20
1.000000000000000E+20
 30
1.000000000000000E+20
  9
$PEXTMAX
 10
-1.000000000000000E+20
 20
-1.000000000000000E+20
 30
-1.000000000000000E+20
  9
$PLIMMIN
 10
0.0
 20
0.0
  9
$PLIMMAX
 10
12.0
 20
9.0
  9
$UNITMODE
 70
     0
  9
$VISRETAIN
 70
     1
  9
$PLINEGEN
 70
     0
  9
$PSLTSCALE
 70
     1
  9
$TREEDEPTH
 70
  3020
  9
$CMLSTYLE
  2
Standard
  9
$CMLJUST
 70
     0
  9
$CMLSCALE
 40
1.0
  9
$PROXYGRAPHICS
 70
     1
  9
$MEASUREMENT
 70
     0
  9
$CELWEIGHT
370
    -1
  9
$ENDCAPS
280
     0
  9
$JOINSTYLE
280
     0
  9
$LWDISPLAY
290
     1
  9
$INSUNITS
 70
     1
  9
$HYPERLINKBASE
  1

  9
$STYLESHEET
  1

  9
$XEDIT
290
     1
  9
$CEPSNTYPE
380
     0
  9
$PSTYLEMODE
290
     1
  9
$FINGERPRINTGUID
  2
{FFF877CB-6567-DE47-0393-B26832C37763}
  9
$VERSIONGUID
  2
{FAEB1C32-E019-11D5-929B-00C0DF256EC4}
  9
$EXTNAMES
290
     1
  9
$PSVPSCALE
 40
0.0
  9
$OLESTARTUP
290
     0
  9
$SORTENTS
280
   127
  9
$INDEXCTL
280
     0
  9
$HIDETEXT
280
     1
  9
$XCLIPFRAME
280
     2
  9
$HALOGAP
280
     0
  9
$OBSCOLOR
 70
   257
  9
$OBSLTYPE
280
     0
  9
$INTERSECTIONDISPLAY
280
     0
  9
$INTERSECTIONCOLOR
 70
   257
  9
$DIMASSOC
280
     2
  9
$PROJECTNAME
  1

  9
$CAMERADISPLAY
290
     0
  9
$LENSLENGTH
 40
50.0
  9
$CAMERAHEIGHT
 40
0.0
  9
$STEPSPERSEC
 40
2.0
  9
$STEPSIZE
 40
6.0
  9
$3DDWFPREC
 40
2.0
  9
$PSOLWIDTH
 40
0.25
  9
$PSOLHEIGHT
 40
4.0
  9
$LOFTANG1
 40
1.570796326794897
  9
$LOFTANG2
 40
1.570796326794897
  9
$LOFTMAG1
 40
0.0
  9
$LOFTMAG2
 40
0.0
  9
$LOFTPARAM
 70
     7
  9
$LOFTNORMALS
280
     1
  9
$LATITUDE
 40
37.795
  9
$LONGITUDE
 40
-122.394
  9
$NORTHDIRECTION
 40
0.0
  9
$TIMEZONE
 70
 -8000
  9
$LIGHTGLYPHDISPLAY
280
     1
  9
$TILEMODELIGHTSYNCH
280
     1
  9
$CMATERIAL
347
3C
  9
$SOLIDHIST
280
     1
  9
$SHOWHIST
280
     1
  9
$DWFFRAME
280
     2
  9
$DGNFRAME
280
     2
  9
$REALWORLDSCALE
290
     1
  9
$INTERFERECOLOR
 62
   256
  9
$CSHADOW
280
     0
  9
$SHADOWPLANELOCATION
 40
0.0
  0
ENDSEC
  0
SECTION
  2
CLASSES
  0
CLASS
  1
ACDBDICTIONARYWDFLT
  2
AcDbDictionaryWithDefault
  3
ObjectDBX Classes
 90
        0
 91
        4
280
     0
281
     0
  0
CLASS
  1
VISUALSTYLE
  2
AcDbVisualStyle
  3
ObjectDBX Classes
 90
     4095
 91
        4
280
     0
281
     0
  0
CLASS
  1
MATERIAL
  2
AcDbMaterial
  3
ObjectDBX Classes
 90
     1153
 91
        4
280
     0
281
     0
  0
CLASS
  1
SUN
  2
AcDbSun
  3
SCENEOE
 90
     1024
 91
        4
280
     0
281
     0
  0
ENDSEC
  0
SECTION
  2
TABLES
  0
TABLE
  2
VPORT
  5
8
330
0
100
AcDbSymbolTable
 70
     1
  0
VPORT
  5
29
330
8
100
AcDbSymbolTableRecord
100
AcDbViewportTableRecord
  2
*Active
 70
     0
 10
0.0
 20
0.0
 11
1.0
 21
1.0
 12
0.0
 22
0.0
 13
0.0
 23
0.0
 14
0.5
 24
0.5
 15
0.5
 25
0.5
 16
0.0
 26
0.0
 36
1.0
 17
91.00082462281999
 27
-128.4993055234307
 37
0.0
 40
256.9986110468615
 41
0.7081814508812795
 42
50.0
 43
0.0
 44
0.0
 50
0.0
 51
0.0
 71
     0
 72
   100
 73
     1
 74
     3
 75
     0
 76
     0
 77
     0
 78
     0
281
     0
 65
     1
110
0.0
120
0.0
130
0.0
111
1.0
121
0.0
131
0.0
112
0.0
122
1.0
132
0.0
 79
     0
146
0.0
 60
     3
 61
     5
292
     1
282
     1
141
0.0
142
0.0
 63
   250
361
3F
  0
ENDTAB
  0
TABLE
  2
LTYPE
  5
5
330
0
100
AcDbSymbolTable
 70
     1
  0
LTYPE
  5
14
330
5
100
AcDbSymbolTableRecord
100
AcDbLinetypeTableRecord
  2
ByBlock
 70
     0
  3

 72
    65
 73
     0
 40
0.0
  0
LTYPE
  5
15
330
5
100
AcDbSymbolTableRecord
100
AcDbLinetypeTableRecord
  2
ByLayer
 70
     0
  3

 72
    65
 73
     0
 40
0.0
  0
LTYPE
  5
16
330
5
100
AcDbSymbolTableRecord
100
AcDbLinetypeTableRecord
  2
Continuous
 70
     0
  3
Solid line
 72
    65
 73
     0
 40
0.0
  0
ENDTAB
  0
TABLE
  2
LAYER
  5
2
330
0
100
AcDbSymbolTable
 70
     2
  0
LAYER
  5
10
330
2
100
AcDbSymbolTableRecord
100
AcDbLayerTableRecord
  2
0
 70
     0
 62
     7
  6
Continuous
370
    -3
390
F
347
3E
  0
LAYER
  5
40
330
2
100
AcDbSymbolTableRecord
100
AcDbLayerTableRecord
  2
_U+30EC_U+30A4_U+30E4_U+30FC 1
 70
     0
 62
     7
  6
Continuous
370
    -3
390
F
347
3E
  0
ENDTAB
  0
TABLE
  2
STYLE
  5
3
330
0
100
AcDbSymbolTable
 70
     1
  0
STYLE
  5
11
330
3
100
AcDbSymbolTableRecord
100
AcDbTextStyleTableRecord
  2
Standard
 70
     0
 40
0.0
 41
1.0
 50
0.0
 71
     0
 42
0.2
  3
txt
  4

  0
ENDTAB
  0
TABLE
  2
VIEW
  5
6
330
0
100
AcDbSymbolTable
 70
     0
  0
ENDTAB
  0
TABLE
  2
UCS
  5
7
330
0
100
AcDbSymbolTable
 70
     0
  0
ENDTAB
  0
TABLE
  2
APPID
  5
9
330
0
100
AcDbSymbolTable
 70
     1
  0
APPID
  5
12
330
9
100
AcDbSymbolTableRecord
100
AcDbRegAppTableRecord
  2
ACAD
 70
     0
  0
ENDTAB
  0
TABLE
  2
DIMSTYLE
  5
A
330
0
100
AcDbSymbolTable
 70
     1
100
AcDbDimStyleTable
  0
DIMSTYLE
105
27
330
A
100
AcDbSymbolTableRecord
100
AcDbDimStyleTableRecord
  2
Standard
 70
     0
178
     0
340
11
  0
ENDTAB
  0
TABLE
  2
BLOCK_RECORD
  5
1
330
0
100
AcDbSymbolTable
 70
     4
  0
BLOCK_RECORD
  5
1F
330
1
100
AcDbSymbolTableRecord
100
AcDbBlockTableRecord
  2
*Model_Space
340
22
 70
     0
280
     1
281
     0
  0
BLOCK_RECORD
  5
1B
330
1
100
AcDbSymbolTableRecord
100
AcDbBlockTableRecord
  2
*Paper_Space
340
1E
 70
     0
280
     1
281
     0
  0
BLOCK_RECORD
  5
23
330
1
100
AcDbSymbolTableRecord
100
AcDbBlockTableRecord
  2
*Paper_Space0
340
26
 70
     0
280
     1
281
     0
  0
BLOCK_RECORD
  5
73
330
1
100
AcDbSymbolTableRecord
100
AcDbBlockTableRecord
  2
block 2
340
0
102
{BLKREFS
331
74
102
}
 70
     0
280
     1
281
     0
  0
BLOCK_RECORD
  5
8B
330
1
100
AcDbSymbolTableRecord
100
AcDbBlockTableRecord
  2
block 3
340
0
102
{BLKREFS
331
8C
102
}
 70
     0
280
     1
281
     0
  0
BLOCK_RECORD
  5
A7
330
1
100
AcDbSymbolTableRecord
100
AcDbBlockTableRecord
  2
block 4
340
0
102
{BLKREFS
331
A8
102
}
 70
     0
280
     1
281
     0
  0
ENDTAB
  0
ENDSEC
  0
SECTION
  2
BLOCKS
  0
BLOCK
  5
20
330
1F
100
AcDbEntity
  8
0
100
AcDbBlockBegin
  2
*Model_Space
 70
     0
 10
0.0
 20
0.0
 30
0.0
  3
*Model_Space
  1

  0
ENDBLK
  5
21
330
1F
100
AcDbEntity
  8
0
100
AcDbBlockEnd
  0
BLOCK
  5
1C
330
1B
100
AcDbEntity
 67
     1
  8
0
100
AcDbBlockBegin
  2
*Paper_Space
 70
     0
 10
0.0
 20
0.0
 30
0.0
  3
*Paper_Space
  1

  0
ENDBLK
  5
1D
330
1B
100
AcDbEntity
 67
     1
  8
0
100
AcDbBlockEnd
  0
BLOCK
  5
24
330
23
100
AcDbEntity
  8
0
100
AcDbBlockBegin
  2
*Paper_Space0
 70
     0
 10
0.0
 20
0.0
 30
0.0
  3
*Paper_Space0
  1

  0
ENDBLK
  5
25
330
23
100
AcDbEntity
  8
0
100
AcDbBlockEnd
  0
BLOCK
  5
75
330
73
100
AcDbEntity
  8
0
100
AcDbBlockBegin
  2
block 2
 70
     0
 10
0.0
 20
0.0
 30
0.0
  3
block 2
  1

  0
SPLINE
  5
77
330
73
100
AcDbEntity
  8
_U+30EC_U+30A4_U+30E4_U+30FC 1
370
     0
100
AcDbSpline
210
0.0
220
0.0
230
1.0
 70
    11
 71
     3
 72
    44
 73
    40
 74
     0
 42
0.0000000001
 43
0.0000000001
 12
1.0
 22
0.0
 32
0.0
 13
1.0
 23
0.0
 33
0.0
 40
0.0
 40
0.0
 40
0.0
 40
0.0
 40
1.0
 40
1.0
 40
1.0
 40
2.0
 40
2.0
 40
2.0
 40
3.0
 40
3.0
 40
3.0
 40
4.0
 40
4.0
 40
4.0
 40
5.0
 40
5.0
 40
5.0
 40
6.0
 40
6.0
 40
6.0
 40
7.0
 40
7.0
 40
7.0
 40
8.0
 40
8.0
 40
8.0
 40
9.0
 40
9.0
 40
9.0
 40
10.0
 40
10.0
 40
10.0
 40
11.0
 40
11.0
 40
11.0
 40
12.0
 40
12.0
 40
12.0
 40
13.0
 40
13.0
 40
13.0
 40
13.0
 10
105.6286946350512
 20
-130.8440375106918
 30
0.0
 10
105.7875135369212
 20
-131.0769259654947
 30
0.0
 10
105.8615830898541
 20
-131.1764892250184
 30
0.0
 10
106.005243571589
 20
-131.2285101668457
 30
0.0
 10
106.005243571589
 20
-131.2285101668457
 30
0.0
 10
106.005243571589
 20
-130.3961750976093
 30
0.0
 10
106.005243571589
 20
-130.3961750976093
 30
0.0
 10
106.005243571589
 20
-130.3961750976093
 30
0.0
 10
106.2105712625099
 20
-130.3961750976093
 30
0.0
 10
106.2105712625099
 20
-130.3961750976093
 30
0.0
 10
106.2105712625099
 20
-130.3961750976093
 30
0.0
 10
106.2105712625099
 20
-131.495160557404
 30
0.0
 10
106.2105712625099
 20
-131.495160557404
 30
0.0
 10
105.8529703511409
 20
-131.4610541121
 30
0.0
 10
105.7747666836258
 20
-131.3911186737494
 30
0.0
 10
105.4764214146031
 20
-130.9797742728106
 30
0.0
 10
105.2776394051042
 20
-130.7062336912818
 30
0.0
 10
105.2097710240448
 20
-130.6359537433827
 30
0.0
 10
105.0723117141833
 20
-130.6359537433827
 30
0.0
 10
104.9538004294907
 20
-130.6359537433827
 30
0.0
 10
104.8228868010512
 20
-130.7127793727037
 30
0.0
 10
104.8228868010512
 20
-130.9232747068525
 30
0.0
 10
104.8228868010512
 20
-131.2012939125122
 30
0.0
 10
105.0533636890144
 20
-131.2102511607738
 30
0.0
 10
105.1698079164159
 20
-131.2147297849046
 30
0.0
 10
105.1698079164159
 20
-131.2147297849046
 30
0.0
 10
105.1698079164159
 20
-131.454508430678
 30
0.0
 10
105.1698079164159
 20
-131.454508430678
 30
0.0
 10
105.0426838930102
 20
-131.4455511824164
 30
0.0
 10
104.9307182897395
 20
-131.4341823673151
 30
0.0
 10
104.812207005047
 20
-131.3480549801838
 30
0.0
 10
104.6513210458858
 20
-131.2305772241368
 30
0.0
 10
104.6175591101303
 20
-131.0317952146379
 30
0.0
 10
104.6175591101303
 20
-130.9074272676204
 30
0.0
 10
104.6175591101303
 20
-130.6111490558889
 30
0.0
 10
104.8015272090427
 20
-130.3896294161873
 30
0.0
 10
105.0743787714745
 20
-130.3896294161873
 30
0.0
 10
105.3031331116951
 20
-130.3896294161873
 30
0.0
 10
105.4023518616703
 20
-130.5139973632049
 30
0.0
 10
105.6286946350512
 20
-130.8440375106918
 30
0.0
  0
HATCH
  5
78
330
73
100
AcDbEntity
  8
_U+30EC_U+30A4_U+30E4_U+30FC 1
 62
   179
420
  2234388
100
AcDbHatch
 10
0.0
 20
0.0
 30
0.0
210
0.0
220
0.0
230
1.0
  2
SOLID
 70
     1
 71
     0
 91
        1
 92
        1
 93
        1
 72
     4
 94
        3
 73
     0
 74
     1
 95
       44
 96
       40
 40
0.0
 40
0.0
 40
0.0
 40
0.0
 40
1.0
 40
1.0
 40
1.0
 40
2.0
 40
2.0
 40
2.0
 40
3.0
 40
3.0
 40
3.0
 40
4.0
 40
4.0
 40
4.0
 40
5.0
 40
5.0
 40
5.0
 40
6.0
 40
6.0
 40
6.0
 40
7.0
 40
7.0
 40
7.0
 40
8.0
 40
8.0
 40
8.0
 40
9.0
 40
9.0
 40
9.0
 40
10.0
 40
10.0
 40
10.0
 40
11.0
 40
11.0
 40
11.0
 40
12.0
 40
12.0
 40
12.0
 40
13.0
 40
13.0
 40
13.0
 40
13.0
 10
105.6286946350512
 20
-130.8440375106918
 10
105.7875135369212
 20
-131.0769259654947
 10
105.8615830898541
 20
-131.1764892250184
 10
106.005243571589
 20
-131.2285101668457
 10
106.005243571589
 20
-131.2285101668457
 10
106.005243571589
 20
-130.3961750976093
 10
106.005243571589
 20
-130.3961750976093
 10
106.005243571589
 20
-130.3961750976093
 10
106.2105712625099
 20
-130.3961750976093
 10
106.2105712625099
 20
-130.3961750976093
 10
106.2105712625099
 20
-130.3961750976093
 10
106.2105712625099
 20
-131.495160557404
 10
106.2105712625099
 20
-131.495160557404
 10
105.8529703511409
 20
-131.4610541121
 10
105.7747666836258
 20
-131.3911186737494
 10
105.4764214146031
 20
-130.9797742728106
 10
105.2776394051042
 20
-130.7062336912818
 10
105.2097710240448
 20
-130.6359537433827
 10
105.0723117141833
 20
-130.6359537433827
 10
104.9538004294907
 20
-130.6359537433827
 10
104.8228868010512
 20
-130.7127793727037
 10
104.8228868010512
 20
-130.9232747068525
 10
104.8228868010512
 20
-131.2012939125122
 10
105.0533636890144
 20
-131.2102511607738
 10
105.1698079164159
 20
-131.2147297849046
 10
105.1698079164159
 20
-131.2147297849046
 10
105.1698079164159
 20
-131.454508430678
 10
105.1698079164159
 20
-131.454508430678
 10
105.0426838930102
 20
-131.4455511824164
 10
104.9307182897395
 20
-131.4341823673151
 10
104.812207005047
 20
-131.3480549801838
 10
104.6513210458858
 20
-131.2305772241368
 10
104.6175591101303
 20
-131.0317952146379
 10
104.6175591101303
 20
-130.9074272676204
 10
104.6175591101303
 20
-130.6111490558889
 10
104.8015272090427
 20
-130.3896294161873
 10
105.0743787714745
 20
-130.3896294161873
 10
105.3031331116951
 20
-130.3896294161873
 10
105.4023518616703
 20
-130.5139973632049
 10
105.6286946350512
 20
-130.8440375106918
 97
        0
 97
        0
 75
     2
 76
     1
 98
        0
  0
SPLINE
  5
79
330
73
100
AcDbEntity
  8
_U+30EC_U+30A4_U+30E4_U+30FC 1
370
     0
100
AcDbSpline
210
0.0
220
0.0
230
1.0
 70
    11
 71
     3
 72
    53
 73
    49
 74
     0
 42
0.0000000001
 43
0.0000000001
 12
1.0
 22
0.0
 32
0.0
 13
1.0
 23
0.0
 33
0.0
 40
0.0
 40
0.0
 40
0.0
 40
0.0
 40
1.0
 40
1.0
 40
1.0
 40
2.0
 40
2.0
 40
2.0
 40
3.0
 40
3.0
 40
3.0
 40
4.0
 40
4.0
 40
4.0
 40
5.0
 40
5.0
 40
5.0
 40
6.0
 40
6.0
 40
6.0
 40
7.0
 40
7.0
 40
7.0
 40
8.0
 40
8.0
 40
8.0
 40
9.0
 40
9.0
 40
9.0
 40
10.0
 40
10.0
 40
10.0
 40
11.0
 40
11.0
 40
11.0
 40
12.0
 40
12.0
 40
12.0
 40
13.0
 40
13.0
 40
13.0
 40
14.0
 40
14.0
 40
14.0
 40
15.0
 40
15.0
 40
15.0
 40
16.0
 40
16.0
 40
16.0
 40
16.0
 10
106.261214166143
 20
-129.7061224719137
 30
0.0
 10
106.261214166143
 20
-129.7898382922053
 30
0.0
 10
106.2443331982653
 20
-129.8980142904422
 30
0.0
 10
106.1809434413367
 20
-130.0068793077761
 30
0.0
 10
106.0710448953572
 20
-130.1922254448825
 30
0.0
 10
105.9397867573692
 20
-130.2146185655366
 30
0.0
 10
105.8319552686809
 20
-130.2349446288996
 30
0.0
 10
105.8319552686809
 20
-130.2349446288996
 30
0.0
 10
105.8319552686809
 20
-129.9975775499659
 30
0.0
 10
105.8319552686809
 20
-129.9975775499659
 30
0.0
 10
106.0307372781798
 20
-129.9390109267166
 30
0.0
 10
106.060365099353
 20
-129.8032741645978
 30
0.0
 10
106.060365099353
 20
-129.7037109050741
 30
0.0
 10
106.060365099353
 20
-129.5545382705628
 30
0.0
 10
105.9608018398292
 20
-129.3915852541105
 30
0.0
 10
105.7282578945749
 20
-129.3915852541105
 30
0.0
 10
105.4722873000208
 20
-129.3915852541105
 30
0.0
 10
105.4023518616703
 20
-129.5838215821874
 30
0.0
 10
105.4023518616703
 20
-129.7126681533357
 30
0.0
 10
105.4023518616703
 20
-129.7467745986397
 30
0.0
 10
105.4023518616703
 20
-129.8980142904422
 30
0.0
 10
105.5315429423671
 20
-129.9930989258351
 30
0.0
 10
105.5315429423671
 20
-129.9930989258351
 30
0.0
 10
105.5125949171982
 20
-130.1808566297812
 30
0.0
 10
105.5125949171982
 20
-130.1808566297812
 30
0.0
 10
105.5125949171982
 20
-130.1808566297812
 30
0.0
 10
104.6661349564724
 20
-130.0520100586328
 30
0.0
 10
104.6661349564724
 20
-130.0520100586328
 30
0.0
 10
104.6661349564724
 20
-130.0520100586328
 30
0.0
 10
104.6661349564724
 20
-129.220019498945
 30
0.0
 10
104.6661349564724
 20
-129.220019498945
 30
0.0
 10
104.6661349564724
 20
-129.220019498945
 30
0.0
 10
104.860782851389
 20
-129.220019498945
 30
0.0
 10
104.860782851389
 20
-129.220019498945
 30
0.0
 10
104.860782851389
 20
-129.220019498945
 30
0.0
 10
104.860782851389
 20
-129.8776882270792
 30
0.0
 10
104.860782851389
 20
-129.8776882270792
 30
0.0
 10
104.860782851389
 20
-129.8776882270792
 30
0.0
 10
105.2838405769777
 20
-129.9479681749783
 30
0.0
 10
105.2838405769777
 20
-129.9479681749783
 30
0.0
 10
105.2500786412222
 20
-129.8825113607585
 30
0.0
 10
105.2097710240448
 20
-129.7943169163362
 30
0.0
 10
105.2097710240448
 20
-129.667537402479
 30
0.0
 10
105.2097710240448
 20
-129.3964083877898
 30
0.0
 10
105.3961506897968
 20
-129.1431938696239
 30
0.0
 10
105.709309869406
 20
-129.1431938696239
 30
0.0
 10
106.0266031635975
 20
-129.1431938696239
 30
0.0
 10
106.261214166143
 20
-129.3826280058488
 30
0.0
 10
106.261214166143
 20
-129.7061224719137
 30
0.0
  0
HATCH
  5
7A
330
73
100
AcDbEntity
  8
_U+30EC_U+30A4_U+30E4_U+30FC 1
 62
   179
420
  2234388
100
AcDbHatch
 10
0.0
 20
0.0
 30
0.0
210
0.0
220
0.0
230
1.0
  2
SOLID
 70
     1
 71
     0
 91
        1
 92
        1
 93
        1
 72
     4
 94
        3
 73
     0
 74
     1
 95
       53
 96
       49
 40
0.0
 40
0.0
 40
0.0
 40
0.0
 40
1.0
 40
1.0
 40
1.0
 40
2.0
 40
2.0
 40
2.0
 40
3.0
 40
3.0
 40
3.0
 40
4.0
 40
4.0
 40
4.0
 40
5.0
 40
5.0
 40
5.0
 40
6.0
 40
6.0
 40
6.0
 40
7.0
 40
7.0
 40
7.0
 40
8.0
 40
8.0
 40
8.0
 40
9.0
 40
9.0
 40
9.0
 40
10.0
 40
10.0
 40
10.0
 40
11.0
 40
11.0
 40
11.0
 40
12.0
 40
12.0
 40
12.0
 40
13.0
 40
13.0
 40
13.0
 40
14.0
 40
14.0
 40
14.0
 40
15.0
 40
15.0
 40
15.0
 40
16.0
 40
16.0
 40
16.0
 40
16.0
 10
106.261214166143
 20
-129.7061224719137
 10
106.261214166143
 20
-129.7898382922053
 10
106.2443331982653
 20
-129.8980142904422
 10
106.1809434413367
 20
-130.0068793077761
 10
106.0710448953572
 20
-130.1922254448825
 10
105.9397867573692
 20
-130.2146185655366
 10
105.8319552686809
 20
-130.2349446288996
 10
105.8319552686809
 20
-130.2349446288996
 10
105.8319552686809
 20
-129.9975775499659
 10
105.8319552686809
 20
-129.9975775499659
 10
106.0307372781798
 20
-129.9390109267166
 10
106.060365099353
 20
-129.8032741645978
 10
106.060365099353
 20
-129.7037109050741
 10
106.060365099353
 20
-129.5545382705628
 10
105.9608018398292
 20
-129.3915852541105
 10
105.7282578945749
 20
-129.3915852541105
 10
105.4722873000208
 20
-129.3915852541105
 10
105.4023518616703
 20
-129.5838215821874
 10
105.4023518616703
 20
-129.7126681533357
 10
105.4023518616703
 20
-129.7467745986397
 10
105.4023518616703
 20
-129.8980142904422
 10
105.5315429423671
 20
-129.9930989258351
 10
105.5315429423671
 20
-129.9930989258351
 10
105.5125949171982
 20
-130.1808566297812
 10
105.5125949171982
 20
-130.1808566297812
 10
105.5125949171982
 20
-130.1808566297812
 10
104.6661349564724
 20
-130.0520100586328
 10
104.6661349564724
 20
-130.0520100586328
 10
104.6661349564724
 20
-130.0520100586328
 10
104.6661349564724
 20
-129.220019498945
 10
104.6661349564724
 20
-129.220019498945
 10
104.6661349564724
 20
-129.220019498945
 10
104.860782851389
 20
-129.220019498945
 10
104.860782851389
 20
-129.220019498945
 10
104.860782851389
 20
-129.220019498945
 10
104.860782851389
 20
-129.8776882270792
 10
104.860782851389
 20
-129.8776882270792
 10
104.860782851389
 20
-129.8776882270792
 10
105.2838405769777
 20
-129.9479681749783
 10
105.2838405769777
 20
-129.9479681749783
 10
105.2500786412222
 20
-129.8825113607585
 10
105.2097710240448
 20
-129.7943169163362
 10
105.2097710240448
 20
-129.667537402479
 10
105.2097710240448
 20
-129.3964083877898
 10
105.3961506897968
 20
-129.1431938696239
 10
105.709309869406
 20
-129.1431938696239
 10
106.0266031635975
 20
-129.1431938696239
 10
106.261214166143
 20
-129.3826280058488
 10
106.261214166143
 20
-129.7061224719137
 97
        0
 97
        0
 75
     2
 76
     1
 98
        0
  0
ENDBLK
  5
76
330
73
100
AcDbEntity
  8
0
100
AcDbBlockEnd
  0
BLOCK
  5
8D
330
8B
100
AcDbEntity
  8
0
100
AcDbBlockBegin
  2
block 3
 70
     0
 10
0.0
 20
0.0
 30
0.0
  3
block 3
  1

  0
SPLINE
  5
8F
330
8B
100
AcDbEntity
  8
_U+30EC_U+30A4_U+30E4_U+30FC 1
370
     0
100
AcDbSpline
210
0.0
220
0.0
230
1.0
 70
    11
 71
     3
 72
    26
 73
    22
 74
     0
 42
0.0000000001
 43
0.0000000001
 12
1.0
 22
0.0
 32
0.0
 13
1.0
 23
0.0
 33
0.0
 40
0.0
 40
0.0
 40
0.0
 40
0.0
 40
1.0
 40
1.0
 40
1.0
 40
2.0
 40
2.0
 40
2.0
 40
3.0
 40
3.0
 40
3.0
 40
4.0
 40
4.0
 40
4.0
 40
5.0
 40
5.0
 40
5.0
 40
6.0
 40
6.0
 40
6.0
 40
7.0
 40
7.0
 40
7.0
 40
7.0
 10
87.48320445946601
 20
-111.7582085224077
 30
0.0
 10
87.48320445946601
 20
-111.7582085224077
 30
0.0
 10
87.48320445946601
 20
-110.6538831646108
 30
0.0
 10
87.48320445946601
 20
-110.6538831646108
 30
0.0
 10
87.48320445946601
 20
-110.6538831646108
 30
0.0
 10
87.13077119132495
 20
-110.6538831646108
 30
0.0
 10
87.13077119132495
 20
-110.6538831646108
 30
0.0
 10
87.13077119132495
 20
-110.6538831646108
 30
0.0
 10
87.13077119132495
 20
-110.5059163135194
 30
0.0
 10
87.13077119132495
 20
-110.5059163135194
 30
0.0
 10
87.48561602630568
 20
-110.4911024029328
 30
0.0
 10
87.53522540129327
 20
-110.3281493864805
 30
0.0
 10
87.56692027975758
 20
-110.2139444711444
 30
0.0
 10
87.56692027975758
 20
-110.2139444711444
 30
0.0
 10
87.7229831052394
 20
-110.2139444711444
 30
0.0
 10
87.7229831052394
 20
-110.2139444711444
 30
0.0
 10
87.7229831052394
 20
-110.2139444711444
 30
0.0
 10
87.7229831052394
 20
-111.7582085224077
 30
0.0
 10
87.7229831052394
 20
-111.7582085224077
 30
0.0
 10
87.7229831052394
 20
-111.7582085224077
 30
0.0
 10
87.48320445946601
 20
-111.7582085224077
 30
0.0
 10
87.48320445946601
 20
-111.7582085224077
 30
0.0
  0
HATCH
  5
90
330
8B
100
AcDbEntity
  8
_U+30EC_U+30A4_U+30E4_U+30FC 1
 62
   179
420
  2234388
100
AcDbHatch
 10
0.0
 20
0.0
 30
0.0
210
0.0
220
0.0
230
1.0
  2
SOLID
 70
     1
 71
     0
 91
        1
 92
        1
 93
        1
 72
     4
 94
        3
 73
     0
 74
     1
 95
       26
 96
       22
 40
0.0
 40
0.0
 40
0.0
 40
0.0
 40
1.0
 40
1.0
 40
1.0
 40
2.0
 40
2.0
 40
2.0
 40
3.0
 40
3.0
 40
3.0
 40
4.0
 40
4.0
 40
4.0
 40
5.0
 40
5.0
 40
5.0
 40
6.0
 40
6.0
 40
6.0
 40
7.0
 40
7.0
 40
7.0
 40
7.0
 10
87.48320445946601
 20
-111.7582085224077
 10
87.48320445946601
 20
-111.7582085224077
 10
87.48320445946601
 20
-110.6538831646108
 10
87.48320445946601
 20
-110.6538831646108
 10
87.48320445946601
 20
-110.6538831646108
 10
87.13077119132495
 20
-110.6538831646108
 10
87.13077119132495
 20
-110.6538831646108
 10
87.13077119132495
 20
-110.6538831646108
 10
87.13077119132495
 20
-110.5059163135194
 10
87.13077119132495
 20
-110.5059163135194
 10
87.48561602630568
 20
-110.4911024029328
 10
87.53522540129327
 20
-110.3281493864805
 10
87.56692027975758
 20
-110.2139444711444
 10
87.56692027975758
 20
-110.2139444711444
 10
87.7229831052394
 20
-110.2139444711444
 10
87.7229831052394
 20
-110.2139444711444
 10
87.7229831052394
 20
-110.2139444711444
 10
87.7229831052394
 20
-111.7582085224077
 10
87.7229831052394
 20
-111.7582085224077
 10
87.7229831052394
 20
-111.7582085224077
 10
87.48320445946601
 20
-111.7582085224077
 10
87.48320445946601
 20
-111.7582085224077
 97
        0
 97
        0
 75
     2
 76
     1
 98
        0
  0
POLYLINE
  5
91
330
8B
100
AcDbEntity
  8
_U+30EC_U+30A4_U+30E4_U+30FC 1
370
     0
100
AcDb2dPolyline
 66
     1
 10
0.0
 20
0.0
 30
0.0
  0
VERTEX
  5
92
330
91
100
AcDbEntity
  8
_U+30EC_U+30A4_U+30E4_U+30FC 1
370
     0
100
AcDbVertex
100
AcDb2dVertex
 10
88.3227742292214
 20
-111.7582085224077
 30
0.0
  0
VERTEX
  5
93
330
91
100
AcDbEntity
  8
_U+30EC_U+30A4_U+30E4_U+30FC 1
370
     0
100
AcDbVertex
100
AcDb2dVertex
 10
88.3227742292214
 20
-111.5065442972102
 30
0.0
  0
VERTEX
  5
94
330
91
100
AcDbEntity
  8
_U+30EC_U+30A4_U+30E4_U+30FC 1
370
     0
100
AcDbVertex
100
AcDb2dVertex
 10
88.5918361866194
 20
-111.5065442972102
 30
0.0
  0
VERTEX
  5
95
330
91
100
AcDbEntity
  8
_U+30EC_U+30A4_U+30E4_U+30FC 1
370
     0
100
AcDbVertex
100
AcDb2dVertex
 10
88.5918361866194
 20
-111.7582085224077
 30
0.0
  0
VERTEX
  5
96
330
91
100
AcDbEntity
  8
_U+30EC_U+30A4_U+30E4_U+30FC 1
370
     0
100
AcDbVertex
100
AcDb2dVertex
 10
88.3227742292214
 20
-111.7582085224077
 30
0.0
  0
SEQEND
  5
97
330
91
100
AcDbEntity
  8
_U+30EC_U+30A4_U+30E4_U+30FC 1
370
     0
  0
HATCH
  5
98
330
8B
100
AcDbEntity
  8
_U+30EC_U+30A4_U+30E4_U+30FC 1
 62
   179
420
  2234388
100
AcDbHatch
 10
0.0
 20
0.0
 30
0.0
210
0.0
220
0.0
230
1.0
  2
SOLID
 70
     1
 71
     0
 91
        1
 92
        1
 93
        4
 72
     1
 10
88.3227742292214
 20
-111.7582085224077
 11
88.3227742292214
 21
-111.5065442972102
 72
     1
 10
88.3227742292214
 20
-111.5065442972102
 11
88.5918361866194
 21
-111.5065442972102
 72
     1
 10
88.5918361866194
 20
-111.5065442972102
 11
88.5918361866194
 21
-111.7582085224077
 72
     1
 10
88.5918361866194
 20
-111.7582085224077
 11
88.3227742292214
 21
-111.7582085224077
 97
        0
 75
     2
 76
     1
 98
        0
  0
SPLINE
  5
99
330
8B
100
AcDbEntity
  8
_U+30EC_U+30A4_U+30E4_U+30FC 1
370
     0
100
AcDbSpline
210
0.0
220
0.0
230
1.0
 70
    11
 71
     3
 72
    44
 73
    40
 74
     0
 42
0.0000000001
 43
0.0000000001
 12
1.0
 22
0.0
 32
0.0
 13
1.0
 23
0.0
 33
0.0
 40
0.0
 40
0.0
 40
0.0
 40
0.0
 40
1.0
 40
1.0
 40
1.0
 40
2.0
 40
2.0
 40
2.0
 40
3.0
 40
3.0
 40
3.0
 40
4.0
 40
4.0
 40
4.0
 40
5.0
 40
5.0
 40
5.0
 40
6.0
 40
6.0
 40
6.0
 40
7.0
 40
7.0
 40
7.0
 40
8.0
 40
8.0
 40
8.0
 40
9.0
 40
9.0
 40
9.0
 40
10.0
 40
10.0
 40
10.0
 40
11.0
 40
11.0
 40
11.0
 40
12.0
 40
12.0
 40
12.0
 40
13.0
 40
13.0
 40
13.0
 40
13.0
 10
89.47860376452272
 20
-111.1765041497232
 30
0.0
 10
89.24571530971983
 20
-111.335150796819
 30
0.0
 10
89.14615205019611
 20
-111.4092203497519
 30
0.0
 10
89.09413110836883
 20
-111.553053086261
 30
0.0
 10
89.09413110836883
 20
-111.553053086261
 30
0.0
 10
89.92646617760519
 20
-111.553053086261
 30
0.0
 10
89.92646617760519
 20
-111.553053086261
 30
0.0
 10
89.92646617760519
 20
-111.553053086261
 30
0.0
 10
89.92646617760519
 20
-111.7582085224077
 30
0.0
 10
89.92646617760519
 20
-111.7582085224077
 30
0.0
 10
89.92646617760519
 20
-111.7582085224077
 30
0.0
 10
88.82748071781049
 20
-111.7582085224077
 30
0.0
 10
88.82748071781049
 20
-111.7582085224077
 30
0.0
 10
88.86158716311446
 20
-111.4006076110387
 30
0.0
 10
88.93152260146503
 20
-111.3224039435236
 30
0.0
 10
89.34286700240386
 20
-111.0240586745009
 30
0.0
 10
89.61640758393271
 20
-110.825276665002
 30
0.0
 10
89.68668753183181
 20
-110.7575805387169
 30
0.0
 10
89.68668753183181
 20
-110.6201212288554
 30
0.0
 10
89.68668753183181
 20
-110.5016099441628
 30
0.0
 10
89.60986190251073
 20
-110.370524060949
 30
0.0
 10
89.39936656836197
 20
-110.370524060949
 30
0.0
 10
89.12134736270231
 20
-110.370524060949
 30
0.0
 10
89.11239011444066
 20
-110.6010009489123
 30
0.0
 10
89.10791149030983
 20
-110.7174451763137
 30
0.0
 10
89.10791149030983
 20
-110.7174451763137
 30
0.0
 10
88.86813284453645
 20
-110.7174451763137
 30
0.0
 10
88.86813284453645
 20
-110.7174451763137
 30
0.0
 10
88.8770900927981
 20
-110.5904934076822
 30
0.0
 10
88.88845890789942
 20
-110.4783555496374
 30
0.0
 10
88.97458629503066
 20
-110.3598442649448
 30
0.0
 10
89.09206405107768
 20
-110.1991305605579
 30
0.0
 10
89.2908460605766
 20
-110.1651963700282
 30
0.0
 10
89.41521400759412
 20
-110.1651963700282
 30
0.0
 10
89.7114922193256
 20
-110.1651963700282
 30
0.0
 10
89.93301185902716
 20
-110.3493367237148
 30
0.0
 10
89.93301185902716
 20
-110.6221882861465
 30
0.0
 10
89.93301185902716
 20
-110.8505981168186
 30
0.0
 10
89.80864391200964
 20
-110.9501613763423
 30
0.0
 10
89.47860376452272
 20
-111.1765041497232
 30
0.0
  0
HATCH
  5
9A
330
8B
100
AcDbEntity
  8
_U+30EC_U+30A4_U+30E4_U+30FC 1
 62
   179
420
  2234388
100
AcDbHatch
 10
0.0
 20
0.0
 30
0.0
210
0.0
220
0.0
230
1.0
  2
SOLID
 70
     1
 71
     0
 91
        1
 92
        1
 93
        1
 72
     4
 94
        3
 73
     0
 74
     1
 95
       44
 96
       40
 40
0.0
 40
0.0
 40
0.0
 40
0.0
 40
1.0
 40
1.0
 40
1.0
 40
2.0
 40
2.0
 40
2.0
 40
3.0
 40
3.0
 40
3.0
 40
4.0
 40
4.0
 40
4.0
 40
5.0
 40
5.0
 40
5.0
 40
6.0
 40
6.0
 40
6.0
 40
7.0
 40
7.0
 40
7.0
 40
8.0
 40
8.0
 40
8.0
 40
9.0
 40
9.0
 40
9.0
 40
10.0
 40
10.0
 40
10.0
 40
11.0
 40
11.0
 40
11.0
 40
12.0
 40
12.0
 40
12.0
 40
13.0
 40
13.0
 40
13.0
 40
13.0
 10
89.47860376452272
 20
-111.1765041497232
 10
89.24571530971983
 20
-111.335150796819
 10
89.14615205019611
 20
-111.4092203497519
 10
89.09413110836883
 20
-111.553053086261
 10
89.09413110836883
 20
-111.553053086261
 10
89.92646617760519
 20
-111.553053086261
 10
89.92646617760519
 20
-111.553053086261
 10
89.92646617760519
 20
-111.553053086261
 10
89.92646617760519
 20
-111.7582085224077
 10
89.92646617760519
 20
-111.7582085224077
 10
89.92646617760519
 20
-111.7582085224077
 10
88.82748071781049
 20
-111.7582085224077
 10
88.82748071781049
 20
-111.7582085224077
 10
88.86158716311446
 20
-111.4006076110387
 10
88.93152260146503
 20
-111.3224039435236
 10
89.34286700240386
 20
-111.0240586745009
 10
89.61640758393271
 20
-110.825276665002
 10
89.68668753183181
 20
-110.7575805387169
 10
89.68668753183181
 20
-110.6201212288554
 10
89.68668753183181
 20
-110.5016099441628
 10
89.60986190251073
 20
-110.370524060949
 10
89.39936656836197
 20
-110.370524060949
 10
89.12134736270231
 20
-110.370524060949
 10
89.11239011444066
 20
-110.6010009489123
 10
89.10791149030983
 20
-110.7174451763137
 10
89.10791149030983
 20
-110.7174451763137
 10
88.86813284453645
 20
-110.7174451763137
 10
88.86813284453645
 20
-110.7174451763137
 10
88.8770900927981
 20
-110.5904934076822
 10
88.88845890789942
 20
-110.4783555496374
 10
88.97458629503066
 20
-110.3598442649448
 10
89.09206405107768
 20
-110.1991305605579
 10
89.2908460605766
 20
-110.1651963700282
 10
89.41521400759412
 20
-110.1651963700282
 10
89.7114922193256
 20
-110.1651963700282
 10
89.93301185902716
 20
-110.3493367237148
 10
89.93301185902716
 20
-110.6221882861465
 10
89.93301185902716
 20
-110.8505981168186
 10
89.80864391200964
 20
-110.9501613763423
 10
89.47860376452272
 20
-111.1765041497232
 97
        0
 97
        0
 75
     2
 76
     1
 98
        0
  0
ENDBLK
  5
8E
330
8B
100
AcDbEntity
  8
0
100
AcDbBlockEnd
  0
BLOCK
  5
A9
330
A7
100
AcDbEntity
  8
0
100
AcDbBlockBegin
  2
block 4
 70
     0
 10
0.0
 20
0.0
 30
0.0
  3
block 4
  1

  0
SPLINE
  5
AB
330
A7
100
AcDbEntity
  8
_U+30EC_U+30A4_U+30E4_U+30FC 1
370
     0
100
AcDbSpline
210
0.0
220
0.0
230
1.0
 70
    11
 71
     3
 72
    62
 73
    58
 74
     0
 42
0.0000000001
 43
0.0000000001
 12
1.0
 22
0.0
 32
0.0
 13
1.0
 23
0.0
 33
0.0
 40
0.0
 40
0.0
 40
0.0
 40
0.0
 40
1.0
 40
1.0
 40
1.0
 40
2.0
 40
2.0
 40
2.0
 40
3.0
 40
3.0
 40
3.0
 40
4.0
 40
4.0
 40
4.0
 40
5.0
 40
5.0
 40
5.0
 40
6.0
 40
6.0
 40
6.0
 40
7.0
 40
7.0
 40
7.0
 40
8.0
 40
8.0
 40
8.0
 40
9.0
 40
9.0
 40
9.0
 40
10.0
 40
10.0
 40
10.0
 40
11.0
 40
11.0
 40
11.0
 40
12.0
 40
12.0
 40
12.0
 40
13.0
 40
13.0
 40
13.0
 40
14.0
 40
14.0
 40
14.0
 40
15.0
 40
15.0
 40
15.0
 40
16.0
 40
16.0
 40
16.0
 40
17.0
 40
17.0
 40
17.0
 40
18.0
 40
18.0
 40
18.0
 40
19.0
 40
19.0
 40
19.0
 40
19.0
 10
87.92348766248094
 20
-146.7142143730437
 30
0.0
 10
87.82185734566606
 20
-146.7142143730437
 30
0.0
 10
87.58896889086319
 20
-146.6931992905837
 30
0.0
 10
87.45547144080975
 20
-146.5071641343802
 30
0.0
 10
87.37640649942327
 20
-146.394854021561
 30
0.0
 10
87.37192787529244
 20
-146.2956352715858
 30
0.0
 10
87.36744925116162
 20
-146.2108859226487
 30
0.0
 10
87.36744925116162
 20
-146.2108859226487
 30
0.0
 10
87.60240476325565
 20
-146.2108859226487
 30
0.0
 10
87.60240476325565
 20
-146.2108859226487
 30
0.0
 10
87.60481633009533
 20
-146.2849554755815
 30
0.0
 10
87.6160128904224
 20
-146.519566478127
 30
0.0
 10
87.91900903835011
 20
-146.519566478127
 30
0.0
 10
88.06594236079602
 20
-146.519566478127
 30
0.0
 10
88.22872312247408
 20
-146.449975549325
 30
0.0
 10
88.22872312247408
 20
-146.221565718653
 30
0.0
 10
88.22872312247408
 20
-146.1051214912515
 30
0.0
 10
88.18807099574812
 20
-146.0565456449095
 30
0.0
 10
88.15413680521841
 20
-146.0248507664452
 30
0.0
 10
88.07507186383194
 20
-145.9507812135123
 30
0.0
 10
87.9507039168144
 20
-145.9380343602169
 30
0.0
 10
87.89179278401664
 20
-145.9380343602169
 30
0.0
 10
87.87146672065367
 20
-145.9380343602169
 30
0.0
 10
87.83305390599313
 20
-145.940101417508
 30
0.0
 10
87.8037705943685
 20
-145.9442355320903
 30
0.0
 10
87.8037705943685
 20
-145.9442355320903
 30
0.0
 10
87.8037705943685
 20
-145.7495876371737
 30
0.0
 10
87.8037705943685
 20
-145.7495876371737
 30
0.0
 10
87.84442272109446
 20
-145.7561333185957
 30
0.0
 10
87.88955347195123
 20
-145.7582003758868
 30
0.0
 10
87.89644366292173
 20
-145.7582003758868
 30
0.0
 10
87.96655135604657
 20
-145.7582003758868
 30
0.0
 10
88.17894149271221
 20
-145.7368407838783
 30
0.0
 10
88.17894149271221
 20
-145.5001627240416
 30
0.0
 10
88.17894149271221
 20
-145.3223957970027
 30
0.0
 10
88.0388983612368
 20
-145.2672742692388
 30
0.0
 10
87.92124835041552
 20
-145.2672742692388
 30
0.0
 10
87.63857826585078
 20
-145.2672742692388
 30
0.0
 10
87.62962101758913
 20
-145.5001627240416
 30
0.0
 10
87.6251423934583
 20
-145.5718207101348
 30
0.0
 10
87.6251423934583
 20
-145.5718207101348
 30
0.0
 10
87.40810137788756
 20
-145.5718207101348
 30
0.0
 10
87.40810137788756
 20
-145.5718207101348
 30
0.0
 10
87.41705862614921
 20
-145.4471082535688
 30
0.0
 10
87.4465141925481
 20
-145.070559317031
 30
0.0
 10
87.93485647758226
 20
-145.070559317031
 30
0.0
 10
88.17446286858139
 20
-145.070559317031
 30
0.0
 10
88.43215601087807
 20
-145.1976833404367
 30
0.0
 10
88.43215601087807
 20
-145.4936170426197
 30
0.0
 10
88.43215601087807
 20
-145.6799967083717
 30
0.0
 10
88.33052569406321
 20
-145.7623344904692
 30
0.0
 10
88.22424449834325
 20
-145.8236571901066
 30
0.0
 10
88.289701312563
 20
-145.8512179539886
 30
0.0
 10
88.48417695270535
 20
-145.9314886787949
 30
0.0
 10
88.48417695270535
 20
-146.2088188653575
 30
0.0
 10
88.48417695270535
 20
-146.5471272420091
 30
0.0
 10
88.21976587421243
 20
-146.7142143730437
 30
0.0
 10
87.92348766248094
 20
-146.7142143730437
 30
0.0
  0
HATCH
  5
AC
330
A7
100
AcDbEntity
  8
_U+30EC_U+30A4_U+30E4_U+30FC 1
 62
   179
420
  2234388
100
AcDbHatch
 10
0.0
 20
0.0
 30
0.0
210
0.0
220
0.0
230
1.0
  2
SOLID
 70
     1
 71
     0
 91
        1
 92
        1
 93
        1
 72
     4
 94
        3
 73
     0
 74
     1
 95
       62
 96
       58
 40
0.0
 40
0.0
 40
0.0
 40
0.0
 40
1.0
 40
1.0
 40
1.0
 40
2.0
 40
2.0
 40
2.0
 40
3.0
 40
3.0
 40
3.0
 40
4.0
 40
4.0
 40
4.0
 40
5.0
 40
5.0
 40
5.0
 40
6.0
 40
6.0
 40
6.0
 40
7.0
 40
7.0
 40
7.0
 40
8.0
 40
8.0
 40
8.0
 40
9.0
 40
9.0
 40
9.0
 40
10.0
 40
10.0
 40
10.0
 40
11.0
 40
11.0
 40
11.0
 40
12.0
 40
12.0
 40
12.0
 40
13.0
 40
13.0
 40
13.0
 40
14.0
 40
14.0
 40
14.0
 40
15.0
 40
15.0
 40
15.0
 40
16.0
 40
16.0
 40
16.0
 40
17.0
 40
17.0
 40
17.0
 40
18.0
 40
18.0
 40
18.0
 40
19.0
 40
19.0
 40
19.0
 40
19.0
 10
87.92348766248094
 20
-146.7142143730437
 10
87.82185734566606
 20
-146.7142143730437
 10
87.58896889086319
 20
-146.6931992905837
 10
87.45547144080975
 20
-146.5071641343802
 10
87.37640649942327
 20
-146.394854021561
 10
87.37192787529244
 20
-146.2956352715858
 10
87.36744925116162
 20
-146.2108859226487
 10
87.36744925116162
 20
-146.2108859226487
 10
87.60240476325565
 20
-146.2108859226487
 10
87.60240476325565
 20
-146.2108859226487
 10
87.60481633009533
 20
-146.2849554755815
 10
87.6160128904224
 20
-146.519566478127
 10
87.91900903835011
 20
-146.519566478127
 10
88.06594236079602
 20
-146.519566478127
 10
88.22872312247408
 20
-146.449975549325
 10
88.22872312247408
 20
-146.221565718653
 10
88.22872312247408
 20
-146.1051214912515
 10
88.18807099574812
 20
-146.0565456449095
 10
88.15413680521841
 20
-146.0248507664452
 10
88.07507186383194
 20
-145.9507812135123
 10
87.9507039168144
 20
-145.9380343602169
 10
87.89179278401664
 20
-145.9380343602169
 10
87.87146672065367
 20
-145.9380343602169
 10
87.83305390599313
 20
-145.940101417508
 10
87.8037705943685
 20
-145.9442355320903
 10
87.8037705943685
 20
-145.9442355320903
 10
87.8037705943685
 20
-145.7495876371737
 10
87.8037705943685
 20
-145.7495876371737
 10
87.84442272109446
 20
-145.7561333185957
 10
87.88955347195123
 20
-145.7582003758868
 10
87.89644366292173
 20
-145.7582003758868
 10
87.96655135604657
 20
-145.7582003758868
 10
88.17894149271221
 20
-145.7368407838783
 10
88.17894149271221
 20
-145.5001627240416
 10
88.17894149271221
 20
-145.3223957970027
 10
88.0388983612368
 20
-145.2672742692388
 10
87.92124835041552
 20
-145.2672742692388
 10
87.63857826585078
 20
-145.2672742692388
 10
87.62962101758913
 20
-145.5001627240416
 10
87.6251423934583
 20
-145.5718207101348
 10
87.6251423934583
 20
-145.5718207101348
 10
87.40810137788756
 20
-145.5718207101348
 10
87.40810137788756
 20
-145.5718207101348
 10
87.41705862614921
 20
-145.4471082535688
 10
87.4465141925481
 20
-145.070559317031
 10
87.93485647758226
 20
-145.070559317031
 10
88.17446286858139
 20
-145.070559317031
 10
88.43215601087807
 20
-145.1976833404367
 10
88.43215601087807
 20
-145.4936170426197
 10
88.43215601087807
 20
-145.6799967083717
 10
88.33052569406321
 20
-145.7623344904692
 10
88.22424449834325
 20
-145.8236571901066
 10
88.289701312563
 20
-145.8512179539886
 10
88.48417695270535
 20
-145.9314886787949
 10
88.48417695270535
 20
-146.2088188653575
 10
88.48417695270535
 20
-146.5471272420091
 10
88.21976587421243
 20
-146.7142143730437
 10
87.92348766248094
 20
-146.7142143730437
 97
        0
 97
        0
 75
     2
 76
     1
 98
        0
  0
SPLINE
  5
AD
330
A7
100
AcDbEntity
  8
_U+30EC_U+30A4_U+30E4_U+30FC 1
370
     0
100
AcDbSpline
210
0.0
220
0.0
230
1.0
 70
    11
 71
     3
 72
    29
 73
    25
 74
     0
 42
0.0000000001
 43
0.0000000001
 12
1.0
 22
0.0
 32
0.0
 13
1.0
 23
0.0
 33
0.0
 40
0.0
 40
0.0
 40
0.0
 40
0.0
 40
1.0
 40
1.0
 40
1.0
 40
2.0
 40
2.0
 40
2.0
 40
3.0
 40
3.0
 40
3.0
 40
4.0
 40
4.0
 40
4.0
 40
5.0
 40
5.0
 40
5.0
 40
6.0
 40
6.0
 40
6.0
 40
7.0
 40
7.0
 40
7.0
 40
8.0
 40
8.0
 40
8.0
 40
8.0
 10
89.61537405528713
 20
-146.4858045423716
 30
0.0
 10
89.49996335653127
 20
-146.6952663478748
 30
0.0
 10
89.31461721942482
 20
-146.7142143730437
 30
0.0
 10
89.1902492724073
 20
-146.7142143730437
 30
0.0
 10
89.01868351724185
 20
-146.7142143730437
 30
0.0
 10
88.86709931589087
 20
-146.6677055839928
 30
0.0
 10
88.76546899907599
 20
-146.4858045423716
 30
0.0
 10
88.65453692445095
 20
-146.291156647455
 30
0.0
 10
88.63421086108798
 20
-146.0544785876183
 30
0.0
 10
88.63421086108798
 20
-145.891525571166
 30
0.0
 10
88.63421086108798
 20
-145.7475205798826
 30
0.0
 10
88.65229761238554
 20
-145.4956840999108
 30
0.0
 10
88.76546899907599
 20
-145.2969020904119
 30
0.0
 10
88.88053518828335
 20
-145.0939859663307
 30
0.0
 10
89.0524454529973
 20
-145.070559317031
 30
0.0
 10
89.1902492724073
 20
-145.070559317031
 30
0.0
 10
89.36009247983012
 20
-145.070559317031
 30
0.0
 10
89.51374373847226
 20
-145.1150010487907
 30
0.0
 10
89.61537405528713
 20
-145.2969020904119
 30
0.0
 10
89.72182750578135
 20
-145.4894829280373
 30
0.0
 10
89.74663219327515
 20
-145.7178927587094
 30
0.0
 10
89.74663219327515
 20
-145.891525571166
 30
0.0
 10
89.74663219327515
 20
-146.0627468167829
 30
0.0
 10
89.7238945630725
 20
-146.2932237047461
 30
0.0
 10
89.61537405528713
 20
-146.4858045423716
 30
0.0
  0
SPLINE
  5
AE
330
A7
100
AcDbEntity
  8
_U+30EC_U+30A4_U+30E4_U+30FC 1
370
     0
100
AcDbSpline
210
0.0
220
0.0
230
1.0
 70
    11
 71
     3
 72
    17
 73
    13
 74
     0
 42
0.0000000001
 43
0.0000000001
 12
1.0
 22
0.0
 32
0.0
 13
1.0
 23
0.0
 33
0.0
 40
0.0
 40
0.0
 40
0.0
 40
0.0
 40
1.0
 40
1.0
 40
1.0
 40
2.0
 40
2.0
 40
2.0
 40
3.0
 40
3.0
 40
3.0
 40
4.0
 40
4.0
 40
4.0
 40
4.0
 10
89.1902492724073
 20
-145.2631401546564
 30
0.0
 10
88.92359888184896
 20
-145.2631401546564
 30
0.0
 10
88.87398950686136
 20
-145.5466715130925
 30
0.0
 10
88.87398950686136
 20
-145.891525571166
 30
0.0
 10
88.87398950686136
 20
-146.2108859226487
 30
0.0
 10
88.91223006674764
 20
-146.519566478127
 30
0.0
 10
89.1902492724073
 20
-146.519566478127
 30
0.0
 10
89.4548326056745
 20
-146.519566478127
 30
0.0
 10
89.50685354750176
 20
-146.2384466865307
 30
0.0
 10
89.50685354750176
 20
-145.891525571166
 30
0.0
 10
89.50685354750176
 20
-145.5718207101348
 30
0.0
 10
89.46620142077582
 20
-145.2631401546564
 30
0.0
 10
89.1902492724073
 20
-145.2631401546564
 30
0.0
  0
HATCH
  5
AF
330
A7
100
AcDbEntity
  8
_U+30EC_U+30A4_U+30E4_U+30FC 1
 62
   179
420
  2234388
100
AcDbHatch
 10
0.0
 20
0.0
 30
0.0
210
0.0
220
0.0
230
1.0
  2
SOLID
 70
     1
 71
     0
 91
        2
 92
        1
 93
        1
 72
     4
 94
        3
 73
     0
 74
     1
 95
       29
 96
       25
 40
0.0
 40
0.0
 40
0.0
 40
0.0
 40
1.0
 40
1.0
 40
1.0
 40
2.0
 40
2.0
 40
2.0
 40
3.0
 40
3.0
 40
3.0
 40
4.0
 40
4.0
 40
4.0
 40
5.0
 40
5.0
 40
5.0
 40
6.0
 40
6.0
 40
6.0
 40
7.0
 40
7.0
 40
7.0
 40
8.0
 40
8.0
 40
8.0
 40
8.0
 10
89.61537405528713
 20
-146.4858045423716
 10
89.49996335653127
 20
-146.6952663478748
 10
89.31461721942482
 20
-146.7142143730437
 10
89.1902492724073
 20
-146.7142143730437
 10
89.01868351724185
 20
-146.7142143730437
 10
88.86709931589087
 20
-146.6677055839928
 10
88.76546899907599
 20
-146.4858045423716
 10
88.65453692445095
 20
-146.291156647455
 10
88.63421086108798
 20
-146.0544785876183
 10
88.63421086108798
 20
-145.891525571166
 10
88.63421086108798
 20
-145.7475205798826
 10
88.65229761238554
 20
-145.4956840999108
 10
88.76546899907599
 20
-145.2969020904119
 10
88.88053518828335
 20
-145.0939859663307
 10
89.0524454529973
 20
-145.070559317031
 10
89.1902492724073
 20
-145.070559317031
 10
89.36009247983012
 20
-145.070559317031
 10
89.51374373847226
 20
-145.1150010487907
 10
89.61537405528713
 20
-145.2969020904119
 10
89.72182750578135
 20
-145.4894829280373
 10
89.74663219327515
 20
-145.7178927587094
 10
89.74663219327515
 20
-145.891525571166
 10
89.74663219327515
 20
-146.0627468167829
 10
89.7238945630725
 20
-146.2932237047461
 10
89.61537405528713
 20
-146.4858045423716
 97
        0
 97
        0
 92
        1
 93
        1
 72
     4
 94
        3
 73
     0
 74
     1
 95
       17
 96
       13
 40
0.0
 40
0.0
 40
0.0
 40
0.0
 40
1.0
 40
1.0
 40
1.0
 40
2.0
 40
2.0
 40
2.0
 40
3.0
 40
3.0
 40
3.0
 40
4.0
 40
4.0
 40
4.0
 40
4.0
 10
89.1902492724073
 20
-145.2631401546564
 10
88.92359888184896
 20
-145.2631401546564
 10
88.87398950686136
 20
-145.5466715130925
 10
88.87398950686136
 20
-145.891525571166
 10
88.87398950686136
 20
-146.2108859226487
 10
88.91223006674764
 20
-146.519566478127
 10
89.1902492724073
 20
-146.519566478127
 10
89.4548326056745
 20
-146.519566478127
 10
89.50685354750176
 20
-146.2384466865307
 10
89.50685354750176
 20
-145.891525571166
 10
89.50685354750176
 20
-145.5718207101348
 10
89.46620142077582
 20
-145.2631401546564
 10
89.1902492724073
 20
-145.2631401546564
 97
        0
 97
        0
 75
     2
 76
     1
 98
        0
  0
ENDBLK
  5
AA
330
A7
100
AcDbEntity
  8
0
100
AcDbBlockEnd
  0
ENDSEC
  0
SECTION
  2
ENTITIES
  0
POLYLINE
  5
41
330
1F
100
AcDbEntity
  8
_U+30EC_U+30A4_U+30E4_U+30FC 1
 62
   179
420
  2234388
370
    25
100
AcDb2dPolyline
 66
     1
 10
0.0
 20
0.0
 30
0.0
  0
VERTEX
  5
42
330
41
100
AcDbEntity
  8
_U+30EC_U+30A4_U+30E4_U+30FC 1
 62
   179
420
  2234388
370
    25
100
AcDbVertex
100
AcDb2dVertex
 10
73.56192775938727
 20
-142.8147102420744
 30
0.0
  0
VERTEX
  5
43
330
41
100
AcDbEntity
  8
_U+30EC_U+30A4_U+30E4_U+30FC 1
 62
   179
420
  2234388
370
    25
100
AcDbVertex
100
AcDb2dVertex
 10
87.96189108923853
 20
-142.8147102420744
 30
0.0
  0
SEQEND
  5
44
330
41
100
AcDbEntity
  8
_U+30EC_U+30A4_U+30E4_U+30FC 1
 62
   179
420
  2234388
370
    25
  0
POLYLINE
  5
45
330
1F
100
AcDbEntity
  8
_U+30EC_U+30A4_U+30E4_U+30FC 1
 62
   179
420
  2234388
370
    25
100
AcDb2dPolyline
 66
     1
 10
0.0
 20
0.0
 30
0.0
  0
VERTEX
  5
46
330
45
100
AcDbEntity
  8
_U+30EC_U+30A4_U+30E4_U+30FC 1
 62
   179
420
  2234388
370
    25
100
AcDbVertex
100
AcDb2dVertex
 10
103.5619709690251
 20
-142.8147102420744
 30
0.0
  0
VERTEX
  5
47
330
45
100
AcDbEntity
  8
_U+30EC_U+30A4_U+30E4_U+30FC 1
 62
   179
420
  2234388
370
    25
100
AcDbVertex
100
AcDb2dVertex
 10
103.5619709690251
 20
-144.0149660751076
 30
0.0
  0
SEQEND
  5
48
330
45
100
AcDbEntity
  8
_U+30EC_U+30A4_U+30E4_U+30FC 1
 62
   179
420
  2234388
370
    25
  0
POLYLINE
  5
49
330
1F
100
AcDbEntity
  8
_U+30EC_U+30A4_U+30E4_U+30FC 1
 62
   179
420
  2234388
370
    25
100
AcDb2dPolyline
 66
     1
 10
0.0
 20
0.0
 30
0.0
  0
VERTEX
  5
4A
330
49
100
AcDbEntity
  8
_U+30EC_U+30A4_U+30E4_U+30FC 1
 62
   179
420
  2234388
370
    25
100
AcDbVertex
100
AcDb2dVertex
 10
73.56192775938727
 20
-142.8147102420744
 30
0.0
  0
VERTEX
  5
4B
330
49
100
AcDbEntity
  8
_U+30EC_U+30A4_U+30E4_U+30FC 1
 62
   179
420
  2234388
370
    25
100
AcDbVertex
100
AcDb2dVertex
 10
73.56192775938727
 20
-144.0149660751076
 30
0.0
  0
SEQEND
  5
4C
330
49
100
AcDbEntity
  8
_U+30EC_U+30A4_U+30E4_U+30FC 1
 62
   179
420
  2234388
370
    25
  0
POLYLINE
  5
4D
330
1F
100
AcDbEntity
  8
_U+30EC_U+30A4_U+30E4_U+30FC 1
 62
   179
420
  2234388
370
    25
100
AcDb2dPolyline
 66
     1
 10
0.0
 20
0.0
 30
0.0
  0
VERTEX
  5
4E
330
4D
100
AcDbEntity
  8
_U+30EC_U+30A4_U+30E4_U+30FC 1
 62
   179
420
  2234388
370
    25
100
AcDbVertex
100
AcDb2dVertex
 10
87.96189108923853
 20
-117.8150424705461
 30
0.0
  0
VERTEX
  5
4F
330
4D
100
AcDbEntity
  8
_U+30EC_U+30A4_U+30E4_U+30FC 1
 62
   179
420
  2234388
370
    25
100
AcDbVertex
100
AcDb2dVertex
 10
89.16218216972767
 20
-117.8150424705461
 30
0.0
  0
SEQEND
  5
50
330
4D
100
AcDbEntity
  8
_U+30EC_U+30A4_U+30E4_U+30FC 1
 62
   179
420
  2234388
370
    25
  0
POLYLINE
  5
51
330
1F
100
AcDbEntity
  8
_U+30EC_U+30A4_U+30E4_U+30FC 1
 62
   179
420
  2234388
370
    25
100
AcDb2dPolyline
 66
     1
 10
0.0
 20
0.0
 30
0.0
  0
VERTEX
  5
52
330
51
100
AcDbEntity
  8
_U+30EC_U+30A4_U+30E4_U+30FC 1
 62
   179
420
  2234388
370
    25
100
AcDbVertex
100
AcDb2dVertex
 10
73.56192775938727
 20
-144.0149660751076
 30
0.0
  0
VERTEX
  5
53
330
51
100
AcDbEntity
  8
_U+30EC_U+30A4_U+30E4_U+30FC 1
 62
   179
420
  2234388
370
    25
100
AcDbVertex
100
AcDb2dVertex
 10
103.5619709690251
 20
-144.0149660751076
 30
0.0
  0
SEQEND
  5
54
330
51
100
AcDbEntity
  8
_U+30EC_U+30A4_U+30E4_U+30FC 1
 62
   179
420
  2234388
370
    25
  0
POLYLINE
  5
55
330
1F
100
AcDbEntity
  8
_U+30EC_U+30A4_U+30E4_U+30FC 1
 62
   179
420
  2234388
370
    25
100
AcDb2dPolyline
 66
     1
 10
0.0
 20
0.0
 30
0.0
  0
VERTEX
  5
56
330
55
100
AcDbEntity
  8
_U+30EC_U+30A4_U+30E4_U+30FC 1
 62
   179
420
  2234388
370
    25
100
AcDbVertex
100
AcDb2dVertex
 10
87.96189108923853
 20
-117.8150424705461
 30
0.0
  0
VERTEX
  5
57
330
55
100
AcDbEntity
  8
_U+30EC_U+30A4_U+30E4_U+30FC 1
 62
   179
420
  2234388
370
    25
100
AcDbVertex
100
AcDb2dVertex
 10
87.96189108923853
 20
-142.8147102420744
 30
0.0
  0
SEQEND
  5
58
330
55
100
AcDbEntity
  8
_U+30EC_U+30A4_U+30E4_U+30FC 1
 62
   179
420
  2234388
370
    25
  0
POLYLINE
  5
59
330
1F
100
AcDbEntity
  8
_U+30EC_U+30A4_U+30E4_U+30FC 1
 62
   179
420
  2234388
370
    25
100
AcDb2dPolyline
 66
     1
 10
0.0
 20
0.0
 30
0.0
  0
VERTEX
  5
5A
330
59
100
AcDbEntity
  8
_U+30EC_U+30A4_U+30E4_U+30FC 1
 62
   179
420
  2234388
370
    25
100
AcDbVertex
100
AcDb2dVertex
 10
89.16218216972767
 20
-117.8150424705461
 30
0.0
  0
VERTEX
  5
5B
330
59
100
AcDbEntity
  8
_U+30EC_U+30A4_U+30E4_U+30FC 1
 62
   179
420
  2234388
370
    25
100
AcDbVertex
100
AcDb2dVertex
 10
89.16218216972767
 20
-142.8147102420744
 30
0.0
  0
SEQEND
  5
5C
330
59
100
AcDbEntity
  8
_U+30EC_U+30A4_U+30E4_U+30FC 1
 62
   179
420
  2234388
370
    25
  0
POLYLINE
  5
5D
330
1F
100
AcDbEntity
  8
_U+30EC_U+30A4_U+30E4_U+30FC 1
 62
   179
420
  2234388
370
    25
100
AcDb2dPolyline
 66
     1
 10
0.0
 20
0.0
 30
0.0
  0
VERTEX
  5
5E
330
5D
100
AcDbEntity
  8
_U+30EC_U+30A4_U+30E4_U+30FC 1
 62
   179
420
  2234388
370
    25
100
AcDbVertex
100
AcDb2dVertex
 10
89.16218216972767
 20
-142.8147102420744
 30
0.0
  0
VERTEX
  5
5F
330
5D
100
AcDbEntity
  8
_U+30EC_U+30A4_U+30E4_U+30FC 1
 62
   179
420
  2234388
370
    25
100
AcDbVertex
100
AcDb2dVertex
 10
103.5619709690251
 20
-142.8147102420744
 30
0.0
  0
SEQEND
  5
60
330
5D
100
AcDbEntity
  8
_U+30EC_U+30A4_U+30E4_U+30FC 1
 62
   179
420
  2234388
370
    25
  0
SPLINE
  5
61
330
1F
100
AcDbEntity
  8
_U+30EC_U+30A4_U+30E4_U+30FC 1
 62
   179
420
  2234388
370
     9
100
AcDbSpline
210
0.0
220
0.0
230
1.0
 70
    11
 71
     3
 72
    17
 73
    13
 74
     0
 42
0.0000000001
 43
0.0000000001
 12
1.0
 22
0.0
 32
0.0
 13
1.0
 23
0.0
 33
0.0
 40
0.0
 40
0.0
 40
0.0
 40
0.0
 40
1.0
 40
1.0
 40
1.0
 40
2.0
 40
2.0
 40
2.0
 40
3.0
 40
3.0
 40
3.0
 40
4.0
 40
4.0
 40
4.0
 40
4.0
 10
88.06179997798448
 20
-113.8149305271018
 30
0.0
 10
88.06179997798448
 20
-113.7594738604491
 30
0.0
 10
88.01703025449848
 20
-113.7146710826824
 30
0.0
 10
87.96189108923853
 20
-113.7146710826824
 30
0.0
 10
87.90678720175546
 20
-113.7146710826824
 30
0.0
 10
87.8619844251207
 20
-113.7594738604491
 30
0.0
 10
87.8619844251207
 20
-113.8149305271018
 30
0.0
 10
87.8619844251207
 20
-113.8700696937546
 30
0.0
 10
87.90678720175546
 20
-113.9148371937435
 30
0.0
 10
87.96189108923853
 20
-113.9148371937435
 30
0.0
 10
88.01703025449848
 20
-113.9148371937435
 30
0.0
 10
88.06179997798448
 20
-113.8700696937546
 30
0.0
 10
88.06179997798448
 20
-113.8149305271018
 30
0.0
  0
SPLINE
  5
62
330
1F
100
AcDbEntity
  8
_U+30EC_U+30A4_U+30E4_U+30FC 1
 62
   179
420
  2234388
370
     9
100
AcDbSpline
210
0.0
220
0.0
230
1.0
 70
    11
 71
     3
 72
    17
 73
    13
 74
     0
 42
0.0000000001
 43
0.0000000001
 12
1.0
 22
0.0
 32
0.0
 13
1.0
 23
0.0
 33
0.0
 40
0.0
 40
0.0
 40
0.0
 40
0.0
 40
1.0
 40
1.0
 40
1.0
 40
2.0
 40
2.0
 40
2.0
 40
3.0
 40
3.0
 40
3.0
 40
4.0
 40
4.0
 40
4.0
 40
4.0
 10
89.26208883384551
 20
-113.8149305271018
 30
0.0
 10
89.26208883384551
 20
-113.7594738604491
 30
0.0
 10
89.21728605721074
 20
-113.7146710826824
 30
0.0
 10
89.16218216972767
 20
-113.7146710826824
 30
0.0
 10
89.10637497772342
 20
-113.7146710826824
 30
0.0
 10
89.0615721999567
 20
-113.7594738604491
 30
0.0
 10
89.0615721999567
 20
-113.8149305271018
 30
0.0
 10
89.0615721999567
 20
-113.8700696937546
 30
0.0
 10
89.10637497772342
 20
-113.9148371937435
 30
0.0
 10
89.16218216972767
 20
-113.9148371937435
 30
0.0
 10
89.21728605721074
 20
-113.9148371937435
 30
0.0
 10
89.26208883384551
 20
-113.8700696937546
 30
0.0
 10
89.26208883384551
 20
-113.8149305271018
 30
0.0
  0
SPLINE
  5
63
330
1F
100
AcDbEntity
  8
_U+30EC_U+30A4_U+30E4_U+30FC 1
 62
   179
420
  2234388
370
     9
100
AcDbSpline
210
0.0
220
0.0
230
1.0
 70
    11
 71
     3
 72
    17
 73
    13
 74
     0
 42
0.0000000001
 43
0.0000000001
 12
1.0
 22
0.0
 32
0.0
 13
1.0
 23
0.0
 33
0.0
 40
0.0
 40
0.0
 40
0.0
 40
0.0
 40
1.0
 40
1.0
 40
1.0
 40
2.0
 40
2.0
 40
2.0
 40
3.0
 40
3.0
 40
3.0
 40
4.0
 40
4.0
 40
4.0
 40
4.0
 10
107.6616366977673
 20
-117.8150424705461
 30
0.0
 10
107.6616366977673
 20
-117.7595505261156
 30
0.0
 10
107.6168691989094
 20
-117.7147830261268
 30
0.0
 10
107.5617300336494
 20
-117.7147830261268
 30
0.0
 10
107.5066261461664
 20
-117.7147830261268
 30
0.0
 10
107.4618233695316
 20
-117.7595505261156
 30
0.0
 10
107.4618233695316
 20
-117.8150424705461
 30
0.0
 10
107.4618233695316
 20
-117.8701463594214
 30
0.0
 10
107.5066261461664
 20
-117.9149491371878
 30
0.0
 10
107.5617300336494
 20
-117.9149491371878
 30
0.0
 10
107.6168691989094
 20
-117.9149491371878
 30
0.0
 10
107.6616366977673
 20
-117.8701463594214
 30
0.0
 10
107.6616366977673
 20
-117.8150424705461
 30
0.0
  0
SPLINE
  5
64
330
1F
100
AcDbEntity
  8
_U+30EC_U+30A4_U+30E4_U+30FC 1
 62
   179
420
  2234388
370
     9
100
AcDbSpline
210
0.0
220
0.0
230
1.0
 70
    11
 71
     3
 72
    17
 73
    13
 74
     0
 42
0.0000000001
 43
0.0000000001
 12
1.0
 22
0.0
 32
0.0
 13
1.0
 23
0.0
 33
0.0
 40
0.0
 40
0.0
 40
0.0
 40
0.0
 40
1.0
 40
1.0
 40
1.0
 40
2.0
 40
2.0
 40
2.0
 40
3.0
 40
3.0
 40
3.0
 40
4.0
 40
4.0
 40
4.0
 40
4.0
 10
107.6616366977673
 20
-142.8147102420744
 30
0.0
 10
107.6616366977673
 20
-142.7596063531988
 30
0.0
 10
107.6168691989094
 20
-142.7148035754321
 30
0.0
 10
107.5617300336494
 20
-142.7148035754321
 30
0.0
 10
107.5066261461664
 20
-142.7148035754321
 30
0.0
 10
107.4618233695316
 20
-142.7596063531988
 30
0.0
 10
107.4618233695316
 20
-142.8147102420744
 30
0.0
 10
107.4618233695316
 20
-142.8701669087271
 30
0.0
 10
107.5066261461664
 20
-142.9149696864938
 30
0.0
 10
107.5617300336494
 20
-142.9149696864938
 30
0.0
 10
107.6168691989094
 20
-142.9149696864938
 30
0.0
 10
107.6616366977673
 20
-142.8701669087271
 30
0.0
 10
107.6616366977673
 20
-142.8147102420744
 30
0.0
  0
SPLINE
  5
65
330
1F
100
AcDbEntity
  8
_U+30EC_U+30A4_U+30E4_U+30FC 1
 62
   179
420
  2234388
370
     9
100
AcDbSpline
210
0.0
220
0.0
230
1.0
 70
    11
 71
     3
 72
    17
 73
    13
 74
     0
 42
0.0000000001
 43
0.0000000001
 12
1.0
 22
0.0
 32
0.0
 13
1.0
 23
0.0
 33
0.0
 40
0.0
 40
0.0
 40
0.0
 40
0.0
 40
1.0
 40
1.0
 40
1.0
 40
2.0
 40
2.0
 40
2.0
 40
3.0
 40
3.0
 40
3.0
 40
4.0
 40
4.0
 40
4.0
 40
4.0
 10
103.661877633143
 20
-148.0147252407738
 30
0.0
 10
103.661877633143
 20
-147.9596213518989
 30
0.0
 10
103.6171101342851
 20
-147.9148185741322
 30
0.0
 10
103.5619709690251
 20
-147.9148185741322
 30
0.0
 10
103.506867081542
 20
-147.9148185741322
 30
0.0
 10
103.4620643049073
 20
-147.9596213518989
 30
0.0
 10
103.4620643049073
 20
-148.0147252407738
 30
0.0
 10
103.4620643049073
 20
-148.0702171852047
 30
0.0
 10
103.506867081542
 20
-148.1149846851932
 30
0.0
 10
103.5619709690251
 20
-148.1149846851932
 30
0.0
 10
103.6171101342851
 20
-148.1149846851932
 30
0.0
 10
103.661877633143
 20
-148.0702171852047
 30
0.0
 10
103.661877633143
 20
-148.0147252407738
 30
0.0
  0
SPLINE
  5
66
330
1F
100
AcDbEntity
  8
_U+30EC_U+30A4_U+30E4_U+30FC 1
 62
   179
420
  2234388
370
     9
100
AcDbSpline
210
0.0
220
0.0
230
1.0
 70
    11
 71
     3
 72
    17
 73
    13
 74
     0
 42
0.0000000001
 43
0.0000000001
 12
1.0
 22
0.0
 32
0.0
 13
1.0
 23
0.0
 33
0.0
 40
0.0
 40
0.0
 40
0.0
 40
0.0
 40
1.0
 40
1.0
 40
1.0
 40
2.0
 40
2.0
 40
2.0
 40
3.0
 40
3.0
 40
3.0
 40
4.0
 40
4.0
 40
4.0
 40
4.0
 10
73.66183256517454
 20
-148.0147252407738
 30
0.0
 10
73.66183256517454
 20
-147.9596213518989
 30
0.0
 10
73.61702978853977
 20
-147.9148185741322
 30
0.0
 10
73.56192775938727
 20
-147.9148185741322
 30
0.0
 10
73.50643395802797
 20
-147.9148185741322
 30
0.0
 10
73.46166645917009
 20
-147.9596213518989
 30
0.0
 10
73.46166645917009
 20
-148.0147252407738
 30
0.0
 10
73.46166645917009
 20
-148.0702171852047
 30
0.0
 10
73.50643395802797
 20
-148.1149846851932
 30
0.0
 10
73.56192775938727
 20
-148.1149846851932
 30
0.0
 10
73.61702978853977
 20
-148.1149846851932
 30
0.0
 10
73.66183256517454
 20
-148.0702171852047
 30
0.0
 10
73.66183256517454
 20
-148.0147252407738
 30
0.0
  0
POLYLINE
  5
67
330
1F
100
AcDbEntity
  8
_U+30EC_U+30A4_U+30E4_U+30FC 1
 62
   179
420
  2234388
370
     9
100
AcDb2dPolyline
 66
     1
 10
0.0
 20
0.0
 30
0.0
  0
VERTEX
  5
68
330
67
100
AcDbEntity
  8
_U+30EC_U+30A4_U+30E4_U+30FC 1
 62
   179
420
  2234388
370
     9
100
AcDbVertex
100
AcDb2dVertex
 10
107.5617300336494
 20
-117.8150424705461
 30
0.0
  0
VERTEX
  5
69
330
67
100
AcDbEntity
  8
_U+30EC_U+30A4_U+30E4_U+30FC 1
 62
   179
420
  2234388
370
     9
100
AcDbVertex
100
AcDb2dVertex
 10
107.5617300336494
 20
-142.8147102420744
 30
0.0
  0
SEQEND
  5
6A
330
67
100
AcDbEntity
  8
_U+30EC_U+30A4_U+30E4_U+30FC 1
 62
   179
420
  2234388
370
     9
  0
POLYLINE
  5
6B
330
1F
100
AcDbEntity
  8
_U+30EC_U+30A4_U+30E4_U+30FC 1
 62
   179
420
  2234388
370
     9
100
AcDb2dPolyline
 66
     1
 10
0.0
 20
0.0
 30
0.0
  0
VERTEX
  5
6C
330
6B
100
AcDbEntity
  8
_U+30EC_U+30A4_U+30E4_U+30FC 1
 62
   179
420
  2234388
370
     9
100
AcDbVertex
100
AcDb2dVertex
 10
91.70189988271186
 20
-117.8150424705461
 30
0.0
  0
VERTEX
  5
6D
330
6B
100
AcDbEntity
  8
_U+30EC_U+30A4_U+30E4_U+30FC 1
 62
   179
420
  2234388
370
     9
100
AcDbVertex
100
AcDb2dVertex
 10
108.5622077859029
 20
-117.8150424705461
 30
0.0
  0
SEQEND
  5
6E
330
6B
100
AcDbEntity
  8
_U+30EC_U+30A4_U+30E4_U+30FC 1
 62
   179
420
  2234388
370
     9
  0
POLYLINE
  5
6F
330
1F
100
AcDbEntity
  8
_U+30EC_U+30A4_U+30E4_U+30FC 1
 62
   179
420
  2234388
370
     9
100
AcDb2dPolyline
 66
     1
 10
0.0
 20
0.0
 30
0.0
  0
VERTEX
  5
70
330
6F
100
AcDbEntity
  8
_U+30EC_U+30A4_U+30E4_U+30FC 1
 62
   179
420
  2234388
370
     9
100
AcDbVertex
100
AcDb2dVertex
 10
106.1016886820093
 20
-142.8147102420744
 30
0.0
  0
VERTEX
  5
71
330
6F
100
AcDbEntity
  8
_U+30EC_U+30A4_U+30E4_U+30FC 1
 62
   179
420
  2234388
370
     9
100
AcDbVertex
100
AcDb2dVertex
 10
108.5622077859029
 20
-142.8147102420744
 30
0.0
  0
SEQEND
  5
72
330
6F
100
AcDbEntity
  8
_U+30EC_U+30A4_U+30E4_U+30FC 1
 62
   179
420
  2234388
370
     9
  0
INSERT
  5
74
330
1F
100
AcDbEntity
  8
_U+30EC_U+30A4_U+30E4_U+30FC 1
100
AcDbBlockReference
  2
block 2
 10
0.0
 20
0.0
 30
0.0
  0
POLYLINE
  5
7B
330
1F
100
AcDbEntity
  8
_U+30EC_U+30A4_U+30E4_U+30FC 1
 62
   179
420
  2234388
370
     9
100
AcDb2dPolyline
 66
     1
 10
0.0
 20
0.0
 30
0.0
  0
VERTEX
  5
7C
330
7B
100
AcDbEntity
  8
_U+30EC_U+30A4_U+30E4_U+30FC 1
 62
   179
420
  2234388
370
     9
100
AcDbVertex
100
AcDb2dVertex
 10
89.16218216972767
 20
-113.8149305271018
 30
0.0
  0
VERTEX
  5
7D
330
7B
100
AcDbEntity
  8
_U+30EC_U+30A4_U+30E4_U+30FC 1
 62
   179
420
  2234388
370
     9
100
AcDbVertex
100
AcDb2dVertex
 10
90.21945714275434
 20
-113.8149305271018
 30
0.0
  0
SEQEND
  5
7E
330
7B
100
AcDbEntity
  8
_U+30EC_U+30A4_U+30E4_U+30FC 1
 62
   179
420
  2234388
370
     9
  0
POLYLINE
  5
7F
330
1F
100
AcDbEntity
  8
_U+30EC_U+30A4_U+30E4_U+30FC 1
 62
   179
420
  2234388
370
     9
100
AcDb2dPolyline
 66
     1
 10
0.0
 20
0.0
 30
0.0
  0
VERTEX
  5
80
330
7F
100
AcDbEntity
  8
_U+30EC_U+30A4_U+30E4_U+30FC 1
 62
   179
420
  2234388
370
     9
100
AcDbVertex
100
AcDb2dVertex
 10
86.96211889252262
 20
-113.8149305271018
 30
0.0
  0
VERTEX
  5
81
330
7F
100
AcDbEntity
  8
_U+30EC_U+30A4_U+30E4_U+30FC 1
 62
   179
420
  2234388
370
     9
100
AcDbVertex
100
AcDb2dVertex
 10
89.16218216972767
 20
-113.8149305271018
 30
0.0
  0
SEQEND
  5
82
330
7F
100
AcDbEntity
  8
_U+30EC_U+30A4_U+30E4_U+30FC 1
 62
   179
420
  2234388
370
     9
  0
POLYLINE
  5
83
330
1F
100
AcDbEntity
  8
_U+30EC_U+30A4_U+30E4_U+30FC 1
 62
   179
420
  2234388
370
     9
100
AcDb2dPolyline
 66
     1
 10
0.0
 20
0.0
 30
0.0
  0
VERTEX
  5
84
330
83
100
AcDbEntity
  8
_U+30EC_U+30A4_U+30E4_U+30FC 1
 62
   179
420
  2234388
370
     9
100
AcDbVertex
100
AcDb2dVertex
 10
87.96189108923853
 20
-115.2746191378481
 30
0.0
  0
VERTEX
  5
85
330
83
100
AcDbEntity
  8
_U+30EC_U+30A4_U+30E4_U+30FC 1
 62
   179
420
  2234388
370
     9
100
AcDbVertex
100
AcDb2dVertex
 10
87.96189108923853
 20
-112.8148055273519
 30
0.0
  0
SEQEND
  5
86
330
83
100
AcDbEntity
  8
_U+30EC_U+30A4_U+30E4_U+30FC 1
 62
   179
420
  2234388
370
     9
  0
POLYLINE
  5
87
330
1F
100
AcDbEntity
  8
_U+30EC_U+30A4_U+30E4_U+30FC 1
 62
   179
420
  2234388
370
     9
100
AcDb2dPolyline
 66
     1
 10
0.0
 20
0.0
 30
0.0
  0
VERTEX
  5
88
330
87
100
AcDbEntity
  8
_U+30EC_U+30A4_U+30E4_U+30FC 1
 62
   179
420
  2234388
370
     9
100
AcDbVertex
100
AcDb2dVertex
 10
89.16218216972767
 20
-115.2746191378481
 30
0.0
  0
VERTEX
  5
89
330
87
100
AcDbEntity
  8
_U+30EC_U+30A4_U+30E4_U+30FC 1
 62
   179
420
  2234388
370
     9
100
AcDbVertex
100
AcDb2dVertex
 10
89.16218216972767
 20
-112.8148055273519
 30
0.0
  0
SEQEND
  5
8A
330
87
100
AcDbEntity
  8
_U+30EC_U+30A4_U+30E4_U+30FC 1
 62
   179
420
  2234388
370
     9
  0
INSERT
  5
8C
330
1F
100
AcDbEntity
  8
_U+30EC_U+30A4_U+30E4_U+30FC 1
100
AcDbBlockReference
  2
block 3
 10
0.0
 20
0.0
 30
0.0
  0
POLYLINE
  5
9B
330
1F
100
AcDbEntity
  8
_U+30EC_U+30A4_U+30E4_U+30FC 1
 62
   179
420
  2234388
370
     9
100
AcDb2dPolyline
 66
     1
 10
0.0
 20
0.0
 30
0.0
  0
VERTEX
  5
9C
330
9B
100
AcDbEntity
  8
_U+30EC_U+30A4_U+30E4_U+30FC 1
 62
   179
420
  2234388
370
     9
100
AcDbVertex
100
AcDb2dVertex
 10
73.56192775938727
 20
-148.0147252407738
 30
0.0
  0
VERTEX
  5
9D
330
9B
100
AcDbEntity
  8
_U+30EC_U+30A4_U+30E4_U+30FC 1
 62
   179
420
  2234388
370
     9
100
AcDbVertex
100
AcDb2dVertex
 10
103.5619709690251
 20
-148.0147252407738
 30
0.0
  0
SEQEND
  5
9E
330
9B
100
AcDbEntity
  8
_U+30EC_U+30A4_U+30E4_U+30FC 1
 62
   179
420
  2234388
370
     9
  0
POLYLINE
  5
9F
330
1F
100
AcDbEntity
  8
_U+30EC_U+30A4_U+30E4_U+30FC 1
 62
   179
420
  2234388
370
     9
100
AcDb2dPolyline
 66
     1
 10
0.0
 20
0.0
 30
0.0
  0
VERTEX
  5
A0
330
9F
100
AcDbEntity
  8
_U+30EC_U+30A4_U+30E4_U+30FC 1
 62
   179
420
  2234388
370
     9
100
AcDbVertex
100
AcDb2dVertex
 10
73.56192775938727
 20
-146.5547191300283
 30
0.0
  0
VERTEX
  5
A1
330
9F
100
AcDbEntity
  8
_U+30EC_U+30A4_U+30E4_U+30FC 1
 62
   179
420
  2234388
370
     9
100
AcDbVertex
100
AcDb2dVertex
 10
73.56192775938727
 20
-149.0148502405241
 30
0.0
  0
SEQEND
  5
A2
330
9F
100
AcDbEntity
  8
_U+30EC_U+30A4_U+30E4_U+30FC 1
 62
   179
420
  2234388
370
     9
  0
POLYLINE
  5
A3
330
1F
100
AcDbEntity
  8
_U+30EC_U+30A4_U+30E4_U+30FC 1
 62
   179
420
  2234388
370
     9
100
AcDb2dPolyline
 66
     1
 10
0.0
 20
0.0
 30
0.0
  0
VERTEX
  5
A4
330
A3
100
AcDbEntity
  8
_U+30EC_U+30A4_U+30E4_U+30FC 1
 62
   179
420
  2234388
370
     9
100
AcDbVertex
100
AcDb2dVertex
 10
103.5619709690251
 20
-146.5547191300283
 30
0.0
  0
VERTEX
  5
A5
330
A3
100
AcDbEntity
  8
_U+30EC_U+30A4_U+30E4_U+30FC 1
 62
   179
420
  2234388
370
     9
100
AcDbVertex
100
AcDb2dVertex
 10
103.5619709690251
 20
-149.0148502405241
 30
0.0
  0
SEQEND
  5
A6
330
A3
100
AcDbEntity
  8
_U+30EC_U+30A4_U+30E4_U+30FC 1
 62
   179
420
  2234388
370
     9
  0
INSERT
  5
A8
330
1F
100
AcDbEntity
  8
_U+30EC_U+30A4_U+30E4_U+30FC 1
100
AcDbBlockReference
  2
block 4
 10
0.0
 20
0.0
 30
0.0
  0
ENDSEC
  0
SECTION
  2
OBJECTS
  0
DICTIONARY
  5
C
330
0
100
AcDbDictionary
281
     1
  3
ACAD_GROUP
350
D
  3
ACAD_LAYOUT
350
1A
  3
ACAD_MATERIAL
350
3B
  3
ACAD_MLEADERSTYLE
350
B1
  3
ACAD_MLINESTYLE
350
17
  3
ACAD_PLOTSETTINGS
350
19
  3
ACAD_PLOTSTYLENAME
350
E
  3
ACAD_TABLESTYLE
350
B0
  3
ACAD_VISUALSTYLE
350
2A
  0
SUN
  5
3F
330
29
100
AcDbSun
 90
        1
290
     0
 63
     7
421
 16777215
 40
1.0
291
     1
 91
  2455826
 92
 54000000
292
     0
 70
     2
 71
   256
280
     1
  0
DICTIONARY
  5
D
102
{ACAD_REACTORS
330
C
102
}
330
C
100
AcDbDictionary
281
     1
  0
DICTIONARY
  5
1A
102
{ACAD_REACTORS
330
C
102
}
330
C
100
AcDbDictionary
281
     1
  3
Layout1
350
1E
  3
Layout2
350
26
  3
Model
350
22
  0
DICTIONARY
  5
3B
102
{ACAD_REACTORS
330
C
102
}
330
C
100
AcDbDictionary
281
     1
  3
ByBlock
350
3D
  3
ByLayer
350
3C
  3
Global
350
3E
  0
DICTIONARY
  5
B1
102
{ACAD_REACTORS
330
C
102
}
330
C
100
AcDbDictionary
281
     1
  0
DICTIONARY
  5
17
102
{ACAD_REACTORS
330
C
102
}
330
C
100
AcDbDictionary
281
     1
  3
Standard
350
18
  0
DICTIONARY
  5
19
102
{ACAD_REACTORS
330
C
102
}
330
C
100
AcDbDictionary
281
     1
  0
ACDBDICTIONARYWDFLT
  5
E
102
{ACAD_REACTORS
330
C
102
}
330
C
100
AcDbDictionary
281
     1
  3
Normal
350
F
100
AcDbDictionaryWithDefault
340
F
  0
DICTIONARY
  5
B0
102
{ACAD_REACTORS
330
C
102
}
330
C
100
AcDbDictionary
281
     1
  0
DICTIONARY
  5
2A
102
{ACAD_REACTORS
330
C
102
}
330
C
100
AcDbDictionary
281
     1
  3
2dWireframe
350
2F
  3
3D Hidden
350
31
  3
3dWireframe
350
30
  3
Basic
350
32
  3
Brighten
350
36
  3
ColorChange
350
3A
  3
Conceptual
350
34
  3
Dim
350
35
  3
Facepattern
350
39
  3
Flat
350
2B
  3
FlatWithEdges
350
2C
  3
Gouraud
350
2D
  3
GouraudWithEdges
350
2E
  3
Linepattern
350
38
  3
Realistic
350
33
  3
Thicken
350
37
  0
LAYOUT
  5
1E
102
{ACAD_REACTORS
330
1A
102
}
330
1A
100
AcDbPlotSettings
  1

  2
none_device
  4

  6

 40
0.0
 41
0.0
 42
0.0
 43
0.0
 44
0.0
 45
0.0
 46
0.0
 47
0.0
 48
0.0
 49
0.0
140
0.0
141
0.0
142
1.0
143
1.0
 70
   688
 72
     0
 73
     0
 74
     5
  7

 75
    16
 76
     0
 77
     2
 78
   300
147
1.0
148
0.0
149
0.0
100
AcDbLayout
  1
Layout1
 70
     1
 71
     1
 10
0.0
 20
0.0
 11
12.0
 21
9.0
 12
0.0
 22
0.0
 32
0.0
 14
1.000000000000000E+20
 24
1.000000000000000E+20
 34
1.000000000000000E+20
 15
-1.000000000000000E+20
 25
-1.000000000000000E+20
 35
-1.000000000000000E+20
146
0.0
 13
0.0
 23
0.0
 33
0.0
 16
1.0
 26
0.0
 36
0.0
 17
0.0
 27
1.0
 37
0.0
 76
     0
330
1B
  0
LAYOUT
  5
26
102
{ACAD_REACTORS
330
1A
102
}
330
1A
100
AcDbPlotSettings
  1

  2
none_device
  4

  6

 40
0.0
 41
0.0
 42
0.0
 43
0.0
 44
0.0
 45
0.0
 46
0.0
 47
0.0
 48
0.0
 49
0.0
140
0.0
141
0.0
142
1.0
143
1.0
 70
   688
 72
     0
 73
     0
 74
     5
  7

 75
    16
 76
     0
 77
     2
 78
   300
147
1.0
148
0.0
149
0.0
100
AcDbLayout
  1
Layout2
 70
     1
 71
     2
 10
0.0
 20
0.0
 11
0.0
 21
0.0
 12
0.0
 22
0.0
 32
0.0
 14
0.0
 24
0.0
 34
0.0
 15
0.0
 25
0.0
 35
0.0
146
0.0
 13
0.0
 23
0.0
 33
0.0
 16
1.0
 26
0.0
 36
0.0
 17
0.0
 27
1.0
 37
0.0
 76
     0
330
23
  0
LAYOUT
  5
22
102
{ACAD_REACTORS
330
1A
102
}
330
1A
100
AcDbPlotSettings
  1

  2
none_device
  4

  6

 40
0.0
 41
0.0
 42
0.0
 43
0.0
 44
0.0
 45
0.0
 46
0.0
 47
0.0
 48
0.0
 49
0.0
140
0.0
141
0.0
142
1.0
143
1.0
 70
  1712
 72
     0
 73
     0
 74
     0
  7

 75
     0
 76
     0
 77
     2
 78
   300
147
1.0
148
0.0
149
0.0
100
AcDbLayout
  1
Model
 70
     1
 71
     0
 10
0.0
 20
0.0
 11
12.0
 21
9.0
 12
0.0
 22
0.0
 32
0.0
 14
1.000000000000000E+20
 24
1.000000000000000E+20
 34
1.000000000000000E+20
 15
-1.000000000000000E+20
 25
-1.000000000000000E+20
 35
-1.000000000000000E+20
146
0.0
 13
0.0
 23
0.0
 33
0.0
 16
1.0
 26
0.0
 36
0.0
 17
0.0
 27
1.0
 37
0.0
 76
     0
330
1F
331
29
  0
MATERIAL
  5
3D
102
{ACAD_REACTORS
330
3B
102
}
330
3B
100
AcDbMaterial
  1
ByBlock
 72
     1
 94
      127
  0
MATERIAL
  5
3C
102
{ACAD_REACTORS
330
3B
102
}
330
3B
100
AcDbMaterial
  1
ByLayer
 72
     1
 94
      127
  0
MATERIAL
  5
3E
102
{ACAD_REACTORS
330
3B
102
}
330
3B
100
AcDbMaterial
  1
Global
 72
     1
 94
      127
  0
MLINESTYLE
  5
18
102
{ACAD_REACTORS
330
17
102
}
330
17
100
AcDbMlineStyle
  2
Standard
 70
     0
  3

 62
   256
 51
90.0
 52
90.0
 71
     2
 49
0.5
 62
   256
  6
BYLAYER
 49
-0.5
 62
   256
  6
BYLAYER
  0
ACDBPLACEHOLDER
  5
F
102
{ACAD_REACTORS
330
E
102
}
330
E
  0
VISUALSTYLE
  5
2F
102
{ACAD_REACTORS
330
2A
102
}
330
2A
100
AcDbVisualStyle
  2
2dWireframe
 70
     4
177
     2
291
     0
 71
     0
176
     1
 72
     2
176
     1
 73
     0
176
     1
 90
        0
176
     1
 40
-0.6
176
     1
 41
-30.0
176
     1
 62
     5
 63
     7
421
 16777215
176
     1
 74
     1
176
     1
 91
        4
176
     1
 64
     7
176
     1
 65
   257
176
     1
 75
     1
176
     1
175
     1
176
     1
 42
1.0
176
     1
 92
        0
176
     1
 66
   257
176
     1
 43
1.0
176
     1
 76
     1
176
     1
 77
     6
176
     1
 78
     2
176
     1
 67
     7
176
     1
 79
     5
176
     1
170
     0
176
     1
171
     0
176
     1
290
     0
176
     1
 93
        1
176
     1
 44
0.0
176
     1
173
     0
176
     1
  0
VISUALSTYLE
  5
31
102
{ACAD_REACTORS
330
2A
102
}
330
2A
100
AcDbVisualStyle
  2
3D Hidden
 70
     6
177
     2
291
     0
 71
     1
176
     1
 72
     2
176
     1
 73
     2
176
     1
 90
        0
176
     1
 40
-0.6
176
     1
 41
-30.0
176
     1
 62
     5
 63
     7
421
 16777215
176
     1
 74
     2
176
     1
 91
        2
176
     1
 64
     7
176
     1
 65
   257
176
     1
 75
     2
176
     1
175
     1
176
     1
 42
40.0
176
     1
 92
        0
176
     1
 66
   257
176
     1
 43
1.0
176
     1
 76
     1
176
     1
 77
     6
176
     1
 78
     2
176
     1
 67
     7
176
     1
 79
     3
176
     1
170
     0
176
     1
171
     0
176
     1
290
     0
176
     1
 93
        1
176
     1
 44
0.0
176
     1
173
     0
176
     1
  0
VISUALSTYLE
  5
30
102
{ACAD_REACTORS
330
2A
102
}
330
2A
100
AcDbVisualStyle
  2
3dWireframe
 70
     5
177
     2
291
     0
 71
     0
176
     1
 72
     2
176
     1
 73
     0
176
     1
 90
        0
176
     1
 40
-0.6
176
     1
 41
-30.0
176
     1
 62
     5
 63
     7
421
 16777215
176
     1
 74
     1
176
     1
 91
        4
176
     1
 64
     7
176
     1
 65
   257
176
     1
 75
     1
176
     1
175
     1
176
     1
 42
1.0
176
     1
 92
        0
176
     1
 66
   257
176
     1
 43
1.0
176
     1
 76
     1
176
     1
 77
     6
176
     1
 78
     2
176
     1
 67
     7
176
     1
 79
     5
176
     1
170
     0
176
     1
171
     0
176
     1
290
     0
176
     1
 93
        1
176
     1
 44
0.0
176
     1
173
     0
176
     1
  0
VISUALSTYLE
  5
32
102
{ACAD_REACTORS
330
2A
102
}
330
2A
100
AcDbVisualStyle
  2
Basic
 70
     7
177
     2
291
     1
 71
     1
176
     1
 72
     0
176
     1
 73
     1
176
     1
 90
        0
176
     1
 40
-0.6
176
     1
 41
-30.0
176
     1
 62
     5
 63
     7
421
 16777215
176
     1
 74
     0
176
     1
 91
        4
176
     1
 64
     7
176
     1
 65
   257
176
     1
 75
     1
176
     1
175
     1
176
     1
 42
1.0
176
     1
 92
        8
176
     1
 66
     7
176
     1
 43
1.0
176
     1
 76
     1
176
     1
 77
     6
176
     1
 78
     2
176
     1
 67
     7
176
     1
 79
     5
176
     1
170
     0
176
     1
171
     0
176
     1
290
     0
176
     1
 93
        1
176
     1
 44
0.0
176
     1
173
     0
176
     1
  0
VISUALSTYLE
  5
36
102
{ACAD_REACTORS
330
2A
102
}
330
2A
100
AcDbVisualStyle
  2
Brighten
 70
    12
177
     2
291
     1
 71
     2
176
     1
 72
     2
176
     1
 73
     0
176
     1
 90
        0
176
     1
 40
-0.6
176
     1
 41
-30.0
176
     1
 62
     5
 63
     7
421
 16777215
176
     1
 74
     1
176
     1
 91
        4
176
     1
 64
     7
176
     1
 65
   257
176
     1
 75
     1
176
     1
175
     1
176
     1
 42
1.0
176
     1
 92
        8
176
     1
 66
     7
176
     1
 43
1.0
176
     1
 76
     1
176
     1
 77
     6
176
     1
 78
     2
176
     1
 67
     7
176
     1
 79
     5
176
     1
170
     0
176
     1
171
     0
176
     1
290
     0
176
     1
 93
        1
176
     1
 44
50.0
176
     1
173
     0
176
     1
  0
VISUALSTYLE
  5
3A
102
{ACAD_REACTORS
330
2A
102
}
330
2A
100
AcDbVisualStyle
  2
ColorChange
 70
    16
177
     2
291
     1
 71
     2
176
     1
 72
     2
176
     1
 73
     3
176
     1
 90
        0
176
     1
 40
-0.6
176
     1
 41
-30.0
176
     1
 62
     5
 63
     8
421
  8421504
176
     1
 74
     1
176
     1
 91
        4
176
     1
 64
     7
176
     1
 65
   257
176
     1
 75
     1
176
     1
175
     1
176
     1
 42
1.0
176
     1
 92
        8
176
     1
 66
     8
424
  8421504
176
     1
 43
1.0
176
     1
 76
     1
176
     1
 77
     6
176
     1
 78
     2
176
     1
 67
     7
176
     1
 79
     5
176
     1
170
     0
176
     1
171
     0
176
     1
290
     0
176
     1
 93
        1
176
     1
 44
0.0
176
     1
173
     0
176
     1
  0
VISUALSTYLE
  5
34
102
{ACAD_REACTORS
330
2A
102
}
330
2A
100
AcDbVisualStyle
  2
Conceptual
 70
     9
177
     2
291
     0
 71
     3
176
     1
 72
     2
176
     1
 73
     0
176
     1
 90
        0
176
     1
 40
-0.6
176
     1
 41
-30.0
176
     1
 62
     5
 63
     7
421
 16777215
176
     1
 74
     2
176
     1
 91
        2
176
     1
 64
     7
176
     1
 65
   257
176
     1
 75
     1
176
     1
175
     1
176
     1
 42
40.0
176
     1
 92
        8
176
     1
 66
     7
176
     1
 43
1.0
176
     1
 76
     1
176
     1
 77
     6
176
     1
 78
     2
176
     1
 67
     7
176
     1
 79
     3
176
     1
170
     0
176
     1
171
     0
176
     1
290
     0
176
     1
 93
        1
176
     1
 44
0.0
176
     1
173
     0
176
     1
  0
VISUALSTYLE
  5
35
102
{ACAD_REACTORS
330
2A
102
}
330
2A
100
AcDbVisualStyle
  2
Dim
 70
    11
177
     2
291
     1
 71
     2
176
     1
 72
     2
176
     1
 73
     0
176
     1
 90
        0
176
     1
 40
-0.6
176
     1
 41
-30.0
176
     1
 62
     5
 63
     7
421
 16777215
176
     1
 74
     1
176
     1
 91
        4
176
     1
 64
     7
176
     1
 65
   257
176
     1
 75
     1
176
     1
175
     1
176
     1
 42
1.0
176
     1
 92
        8
176
     1
 66
     7
176
     1
 43
1.0
176
     1
 76
     1
176
     1
 77
     6
176
     1
 78
     2
176
     1
 67
     7
176
     1
 79
     5
176
     1
170
     0
176
     1
171
     0
176
     1
290
     0
176
     1
 93
        1
176
     1
 44
-50.0
176
     1
173
     0
176
     1
  0
VISUALSTYLE
  5
39
102
{ACAD_REACTORS
330
2A
102
}
330
2A
100
AcDbVisualStyle
  2
Facepattern
 70
    15
177
     2
291
     1
 71
     2
176
     1
 72
     2
176
     1
 73
     0
176
     1
 90
        0
176
     1
 40
-0.6
176
     1
 41
-30.0
176
     1
 62
     5
 63
     7
421
 16777215
176
     1
 74
     1
176
     1
 91
        4
176
     1
 64
     7
176
     1
 65
   257
176
     1
 75
     1
176
     1
175
     1
176
     1
 42
1.0
176
     1
 92
        8
176
     1
 66
     7
176
     1
 43
1.0
176
     1
 76
     1
176
     1
 77
     6
176
     1
 78
     2
176
     1
 67
     7
176
     1
 79
     5
176
     1
170
     0
176
     1
171
     0
176
     1
290
     0
176
     1
 93
        1
176
     1
 44
0.0
176
     1
173
     0
176
     1
  0
VISUALSTYLE
  5
2B
102
{ACAD_REACTORS
330
2A
102
}
330
2A
100
AcDbVisualStyle
  2
Flat
 70
     0
177
     2
291
     1
 71
     2
176
     1
 72
     1
176
     1
 73
     1
176
     1
 90
        2
176
     1
 40
-0.6
176
     1
 41
30.0
176
     1
 62
     5
 63
     7
421
 16777215
176
     1
 74
     0
176
     1
 91
        4
176
     1
 64
     7
176
     1
 65
   257
176
     1
 75
     1
176
     1
175
     1
176
     1
 42
1.0
176
     1
 92
        8
176
     1
 66
     7
176
     1
 43
1.0
176
     1
 76
     1
176
     1
 77
     6
176
     1
 78
     2
176
     1
 67
     7
176
     1
 79
     5
176
     1
170
     0
176
     1
171
     0
176
     1
290
     0
176
     1
 93
       13
176
     1
 44
0.0
176
     1
173
     0
176
     1
  0
VISUALSTYLE
  5
2C
102
{ACAD_REACTORS
330
2A
102
}
330
2A
100
AcDbVisualStyle
  2
FlatWithEdges
 70
     1
177
     2
291
     1
 71
     2
176
     1
 72
     1
176
     1
 73
     1
176
     1
 90
        2
176
     1
 40
-0.6
176
     1
 41
30.0
176
     1
 62
     5
 63
     7
421
 16777215
176
     1
 74
     1
176
     1
 91
        4
176
     1
 64
     7
176
     1
 65
   257
176
     1
 75
     1
176
     1
175
     1
176
     1
 42
1.0
176
     1
 92
        0
176
     1
 66
   257
176
     1
 43
1.0
176
     1
 76
     1
176
     1
 77
     6
176
     1
 78
     2
176
     1
 67
     7
176
     1
 79
     5
176
     1
170
     0
176
     1
171
     0
176
     1
290
     0
176
     1
 93
       13
176
     1
 44
0.0
176
     1
173
     0
176
     1
  0
VISUALSTYLE
  5
2D
102
{ACAD_REACTORS
330
2A
102
}
330
2A
100
AcDbVisualStyle
  2
Gouraud
 70
     2
177
     2
291
     1
 71
     2
176
     1
 72
     2
176
     1
 73
     1
176
     1
 90
        2
176
     1
 40
-0.6
176
     1
 41
30.0
176
     1
 62
     5
 63
     7
421
 16777215
176
     1
 74
     0
176
     1
 91
        4
176
     1
 64
     7
176
     1
 65
   257
176
     1
 75
     1
176
     1
175
     1
176
     1
 42
1.0
176
     1
 92
        0
176
     1
 66
     7
176
     1
 43
1.0
176
     1
 76
     1
176
     1
 77
     6
176
     1
 78
     2
176
     1
 67
     7
176
     1
 79
     5
176
     1
170
     0
176
     1
171
     0
176
     1
290
     0
176
     1
 93
       13
176
     1
 44
0.0
176
     1
173
     0
176
     1
  0
VISUALSTYLE
  5
2E
102
{ACAD_REACTORS
330
2A
102
}
330
2A
100
AcDbVisualStyle
  2
GouraudWithEdges
 70
     3
177
     2
291
     1
 71
     2
176
     1
 72
     2
176
     1
 73
     1
176
     1
 90
        2
176
     1
 40
-0.6
176
     1
 41
30.0
176
     1
 62
     5
 63
     7
421
 16777215
176
     1
 74
     1
176
     1
 91
        4
176
     1
 64
     7
176
     1
 65
   257
176
     1
 75
     1
176
     1
175
     1
176
     1
 42
1.0
176
     1
 92
        0
176
     1
 66
   257
176
     1
 43
1.0
176
     1
 76
     1
176
     1
 77
     6
176
     1
 78
     2
176
     1
 67
     7
176
     1
 79
     5
176
     1
170
     0
176
     1
171
     0
176
     1
290
     0
176
     1
 93
       13
176
     1
 44
0.0
176
     1
173
     0
176
     1
  0
VISUALSTYLE
  5
38
102
{ACAD_REACTORS
330
2A
102
}
330
2A
100
AcDbVisualStyle
  2
Linepattern
 70
    14
177
     2
291
     1
 71
     2
176
     1
 72
     2
176
     1
 73
     0
176
     1
 90
        0
176
     1
 40
-0.6
176
     1
 41
-30.0
176
     1
 62
     5
 63
     7
421
 16777215
176
     1
 74
     1
176
     1
 91
        4
176
     1
 64
     7
176
     1
 65
   257
176
     1
 75
     7
176
     1
175
     7
176
     1
 42
1.0
176
     1
 92
        8
176
     1
 66
     7
176
     1
 43
1.0
176
     1
 76
     1
176
     1
 77
     6
176
     1
 78
     2
176
     1
 67
     7
176
     1
 79
     5
176
     1
170
     0
176
     1
171
     0
176
     1
290
     0
176
     1
 93
        1
176
     1
 44
0.0
176
     1
173
     0
176
     1
  0
VISUALSTYLE
  5
33
102
{ACAD_REACTORS
330
2A
102
}
330
2A
100
AcDbVisualStyle
  2
Realistic
 70
     8
177
     2
291
     0
 71
     2
176
     1
 72
     2
176
     1
 73
     0
176
     1
 90
        0
176
     1
 40
-0.6
176
     1
 41
-30.0
176
     1
 62
     5
 63
     7
421
 16777215
176
     1
 74
     1
176
     1
 91
        0
176
     1
 64
     7
176
     1
 65
   257
176
     1
 75
     1
176
     1
175
     1
176
     1
 42
1.0
176
     1
 92
        8
176
     1
 66
     8
424
  7895160
176
     1
 43
1.0
176
     1
 76
     1
176
     1
 77
     6
176
     1
 78
     2
176
     1
 67
     7
176
     1
 79
     5
176
     1
170
     0
176
     1
171
     0
176
     1
290
     0
176
     1
 93
       13
176
     1
 44
0.0
176
     1
173
     0
176
     1
  0
VISUALSTYLE
  5
37
102
{ACAD_REACTORS
330
2A
102
}
330
2A
100
AcDbVisualStyle
  2
Thicken
 70
    13
177
     2
291
     1
 71
     2
176
     1
 72
     2
176
     1
 73
     0
176
     1
 90
        0
176
     1
 40
-0.6
176
     1
 41
-30.0
176
     1
 62
     5
 63
     7
421
 16777215
176
     1
 74
     1
176
     1
 91
        4
176
     1
 64
     7
176
     1
 65
   257
176
     1
 75
     1
176
     1
175
     1
176
     1
 42
1.0
176
     1
 92
       12
176
     1
 66
     7
176
     1
 43
1.0
176
     1
 76
     1
176
     1
 77
     6
176
     1
 78
     2
176
     1
 67
     7
176
     1
 79
     5
176
     1
170
     0
176
     1
171
     0
176
     1
290
     0
176
     1
 93
        1
176
     1
 44
0.0
176
     1
173
     0
176
     1
  0
ENDSEC
  0
EOF
