  0
SECTION
  2
HEADER
  9
$ACADVER
  1
AC1024
  9
$ACADMAINTVER
 70
     6
  9
$DWGCODEPAGE
  3
UNDEFINED
  9
$INSBASE
 10
0.0
 20
0.0
 30
0.0
  9
$EXTMIN
 10
1.000000000000000E+20
 20
1.000000000000000E+20
 30
1.000000000000000E+20
  9
$EXTMAX
 10
-1.000000000000000E+20
 20
-1.000000000000000E+20
 30
-1.000000000000000E+20
  9
$LIMMIN
 10
0.0
 20
0.0
  9
$LIMMAX
 10
12.0
 20
9.0
  9
$ORTHOMODE
 70
     0
  9
$REGENMODE
 70
     1
  9
$FILLMODE
 70
     1
  9
$QTEXTMODE
 70
     0
  9
$MIRRTEXT
 70
     1
  9
$LTSCALE
 40
1.0
  9
$ATTMODE
 70
     1
  9
$TEXTSIZE
 40
0.2
  9
$TRACEWID
 40
0.05
  9
$TEXTSTYLE
  7
Standard
  9
$CLAYER
  8
0
  9
$CELTYPE
  6
ByLayer
  9
$CECOLOR
 62
   256
  9
$CELTSCALE
 40
1.0
  9
$DISPSILH
 70
     0
  9
$DIMSCALE
 40
1.0
  9
$DIMASZ
 40
0.18
  9
$DIMEXO
 40
0.0625
  9
$DIMDLI
 40
0.38
  9
$DIMRND
 40
0.0
  9
$DIMDLE
 40
0.0
  9
$DIMEXE
 40
0.18
  9
$DIMTP
 40
0.0
  9
$DIMTM
 40
0.0
  9
$DIMTXT
 40
0.18
  9
$DIMCEN
 40
0.09
  9
$DIMTSZ
 40
0.0
  9
$DIMTOL
 70
     0
  9
$DIMLIM
 70
     0
  9
$DIMTIH
 70
     1
  9
$DIMTOH
 70
     1
  9
$DIMSE1
 70
     0
  9
$DIMSE2
 70
     0
  9
$DIMTAD
 70
     0
  9
$DIMZIN
 70
     0
  9
$DIMBLK
  1

  9
$DIMASO
 70
     1
  9
$DIMSHO
 70
     1
  9
$DIMPOST
  1

  9
$DIMAPOST
  1

  9
$DIMALT
 70
     0
  9
$DIMALTD
 70
     2
  9
$DIMALTF
 40
25.4
  9
$DIMLFAC
 40
1.0
  9
$DIMTOFL
 70
     0
  9
$DIMTVP
 40
0.0
  9
$DIMTIX
 70
     0
  9
$DIMSOXD
 70
     0
  9
$DIMSAH
 70
     0
  9
$DIMBLK1
  1

  9
$DIMBLK2
  1

  9
$DIMSTYLE
  2
Standard
  9
$DIMCLRD
 70
     0
  9
$DIMCLRE
 70
     0
  9
$DIMCLRT
 70
     0
  9
$DIMTFAC
 40
1.0
  9
$DIMGAP
 40
0.09
  9
$DIMJUST
 70
     0
  9
$DIMSD1
 70
     0
  9
$DIMSD2
 70
     0
  9
$DIMTOLJ
 70
     1
  9
$DIMTZIN
 70
     0
  9
$DIMALTZ
 70
     0
  9
$DIMALTTZ
 70
     0
  9
$DIMUPT
 70
     0
  9
$DIMDEC
 70
     4
  9
$DIMTDEC
 70
     4
  9
$DIMALTU
 70
     2
  9
$DIMALTTD
 70
     2
  9
$DIMTXSTY
  7
Standard
  9
$DIMAUNIT
 70
     0
  9
$DIMADEC
 70
     0
  9
$DIMALTRND
 40
0.0
  9
$DIMAZIN
 70
     0
  9
$DIMDSEP
 70
    46
  9
$DIMATFIT
 70
     3
  9
$DIMFRAC
 70
     0
  9
$DIMLDRBLK
  1

  9
$DIMLUNIT
 70
     2
  9
$DIMLWD
 70
    -2
  9
$DIMLWE
 70
    -2
  9
$DIMTMOVE
 70
     0
  9
$DIMFXL
 40
1.0
  9
$DIMFXLON
 70
     0
  9
$DIMJOGANG
 40
0.7853981633974483
  9
$DIMTFILL
 70
     0
  9
$DIMTFILLCLR
 70
     0
  9
$DIMARCSYM
 70
     0
  9
$DIMLTYPE
  6

  9
$DIMLTEX1
  6

  9
$DIMLTEX2
  6

  9
$DIMTXTDIRECTION
 70
     0
  9
$LUNITS
 70
     2
  9
$LUPREC
 70
     4
  9
$SKETCHINC
 40
0.1
  9
$FILLETRAD
 40
0.5
  9
$AUNITS
 70
     0
  9
$AUPREC
 70
     0
  9
$MENU
  1
.
  9
$ELEVATION
 40
0.0
  9
$PELEVATION
 40
0.0
  9
$THICKNESS
 40
0.0
  9
$LIMCHECK
 70
     0
  9
$CHAMFERA
 40
0.5
  9
$CHAMFERB
 40
0.5
  9
$CHAMFERC
 40
1.0
  9
$CHAMFERD
 40
0.0
  9
$SKPOLY
 70
     0
  9
$TDCREATE
 40
2457917.598599526
  9
$TDUCREATE
 40
2457917.223599537
  9
$TDUPDATE
 40
2457917.598599526
  9
$TDUUPDATE
 40
2457917.223599537
  9
$TDINDWG
 40
0.0000000116
  9
$TDUSRTIMER
 40
0.0000000116
  9
$USRTIMER
 70
     1
  9
$ANGBASE
 50
0.0
  9
$ANGDIR
 70
     0
  9
$PDMODE
 70
     0
  9
$PDSIZE
 40
0.0
  9
$PLINEWID
 40
0.0
  9
$SPLFRAME
 70
     0
  9
$SPLINETYPE
 70
     6
  9
$SPLINESEGS
 70
     8
  9
$HANDSEED
  5
105
  9
$SURFTAB1
 70
     6
  9
$SURFTAB2
 70
     6
  9
$SURFTYPE
 70
     6
  9
$SURFU
 70
     6
  9
$SURFV
 70
     6
  9
$UCSBASE
  2

  9
$UCSNAME
  2

  9
$UCSORG
 10
0.0
 20
0.0
 30
0.0
  9
$UCSXDIR
 10
1.0
 20
0.0
 30
0.0
  9
$UCSYDIR
 10
0.0
 20
1.0
 30
0.0
  9
$UCSORTHOREF
  2

  9
$UCSORTHOVIEW
 70
     0
  9
$UCSORGTOP
 10
0.0
 20
0.0
 30
0.0
  9
$UCSORGBOTTOM
 10
0.0
 20
0.0
 30
0.0
  9
$UCSORGLEFT
 10
0.0
 20
0.0
 30
0.0
  9
$UCSORGRIGHT
 10
0.0
 20
0.0
 30
0.0
  9
$UCSORGFRONT
 10
0.0
 20
0.0
 30
0.0
  9
$UCSORGBACK
 10
0.0
 20
0.0
 30
0.0
  9
$PUCSBASE
  2

  9
$PUCSNAME
  2

  9
$PUCSORG
 10
0.0
 20
0.0
 30
0.0
  9
$PUCSXDIR
 10
1.0
 20
0.0
 30
0.0
  9
$PUCSYDIR
 10
0.0
 20
1.0
 30
0.0
  9
$PUCSORTHOREF
  2

  9
$PUCSORTHOVIEW
 70
     0
  9
$PUCSORGTOP
 10
0.0
 20
0.0
 30
0.0
  9
$PUCSORGBOTTOM
 10
0.0
 20
0.0
 30
0.0
  9
$PUCSORGLEFT
 10
0.0
 20
0.0
 30
0.0
  9
$PUCSORGRIGHT
 10
0.0
 20
0.0
 30
0.0
  9
$PUCSORGFRONT
 10
0.0
 20
0.0
 30
0.0
  9
$PUCSORGBACK
 10
0.0
 20
0.0
 30
0.0
  9
$USERI1
 70
     0
  9
$USERI2
 70
     0
  9
$USERI3
 70
     0
  9
$USERI4
 70
     0
  9
$USERI5
 70
     0
  9
$USERR1
 40
0.0
  9
$USERR2
 40
0.0
  9
$USERR3
 40
0.0
  9
$USERR4
 40
0.0
  9
$USERR5
 40
0.0
  9
$WORLDVIEW
 70
     1
  9
$SHADEDGE
 70
     3
  9
$SHADEDIF
 70
    70
  9
$TILEMODE
 70
     1
  9
$MAXACTVP
 70
    64
  9
$PINSBASE
 10
0.0
 20
0.0
 30
0.0
  9
$PLIMCHECK
 70
     0
  9
$PEXTMIN
 10
1.000000000000000E+20
 20
1.000000000000000E+20
 30
1.000000000000000E+20
  9
$PEXTMAX
 10
-1.000000000000000E+20
 20
-1.000000000000000E+20
 30
-1.000000000000000E+20
  9
$PLIMMIN
 10
0.0
 20
0.0
  9
$PLIMMAX
 10
12.0
 20
9.0
  9
$UNITMODE
 70
     0
  9
$VISRETAIN
 70
     1
  9
$PLINEGEN
 70
     0
  9
$PSLTSCALE
 70
     1
  9
$TREEDEPTH
 70
  3020
  9
$CMLSTYLE
  2
Standard
  9
$CMLJUST
 70
     0
  9
$CMLSCALE
 40
1.0
  9
$PROXYGRAPHICS
 70
     1
  9
$MEASUREMENT
 70
     0
  9
$CELWEIGHT
370
    -1
  9
$ENDCAPS
280
     0
  9
$JOINSTYLE
280
     0
  9
$LWDISPLAY
290
     1
  9
$INSUNITS
 70
     1
  9
$HYPERLINKBASE
  1

  9
$STYLESHEET
  1

  9
$XEDIT
290
     1
  9
$CEPSNTYPE
380
     0
  9
$PSTYLEMODE
290
     1
  9
$FINGERPRINTGUID
  2
{AEAC6F37-34CC-BB90-63D2-54DC734A5A02}
  9
$VERSIONGUID
  2
{FAEB1C32-E019-11D5-929B-00C0DF256EC4}
  9
$EXTNAMES
290
     1
  9
$PSVPSCALE
 40
0.0
  9
$OLESTARTUP
290
     0
  9
$SORTENTS
280
   127
  9
$INDEXCTL
280
     0
  9
$HIDETEXT
280
     1
  9
$XCLIPFRAME
280
     2
  9
$HALOGAP
280
     0
  9
$OBSCOLOR
 70
   257
  9
$OBSLTYPE
280
     0
  9
$INTERSECTIONDISPLAY
280
     0
  9
$INTERSECTIONCOLOR
 70
   257
  9
$DIMASSOC
280
     2
  9
$PROJECTNAME
  1

  9
$CAMERADISPLAY
290
     0
  9
$LENSLENGTH
 40
50.0
  9
$CAMERAHEIGHT
 40
0.0
  9
$STEPSPERSEC
 40
2.0
  9
$STEPSIZE
 40
6.0
  9
$3DDWFPREC
 40
2.0
  9
$PSOLWIDTH
 40
0.25
  9
$PSOLHEIGHT
 40
4.0
  9
$LOFTANG1
 40
1.570796326794897
  9
$LOFTANG2
 40
1.570796326794897
  9
$LOFTMAG1
 40
0.0
  9
$LOFTMAG2
 40
0.0
  9
$LOFTPARAM
 70
     7
  9
$LOFTNORMALS
280
     1
  9
$LATITUDE
 40
37.795
  9
$LONGITUDE
 40
-122.394
  9
$NORTHDIRECTION
 40
0.0
  9
$TIMEZONE
 70
 -8000
  9
$LIGHTGLYPHDISPLAY
280
     1
  9
$TILEMODELIGHTSYNCH
280
     1
  9
$CMATERIAL
347
3C
  9
$SOLIDHIST
280
     1
  9
$SHOWHIST
280
     1
  9
$DWFFRAME
280
     2
  9
$DGNFRAME
280
     2
  9
$REALWORLDSCALE
290
     1
  9
$INTERFERECOLOR
 62
   256
  9
$CSHADOW
280
     0
  9
$SHADOWPLANELOCATION
 40
0.0
  0
ENDSEC
  0
SECTION
  2
CLASSES
  0
CLASS
  1
ACDBDICTIONARYWDFLT
  2
AcDbDictionaryWithDefault
  3
ObjectDBX Classes
 90
        0
 91
        4
280
     0
281
     0
  0
CLASS
  1
VISUALSTYLE
  2
AcDbVisualStyle
  3
ObjectDBX Classes
 90
     4095
 91
        4
280
     0
281
     0
  0
CLASS
  1
MATERIAL
  2
AcDbMaterial
  3
ObjectDBX Classes
 90
     1153
 91
        4
280
     0
281
     0
  0
CLASS
  1
SUN
  2
AcDbSun
  3
SCENEOE
 90
     1024
 91
        4
280
     0
281
     0
  0
ENDSEC
  0
SECTION
  2
TABLES
  0
TABLE
  2
VPORT
  5
8
330
0
100
AcDbSymbolTable
 70
     1
  0
VPORT
  5
29
330
8
100
AcDbSymbolTableRecord
100
AcDbViewportTableRecord
  2
*Active
 70
     0
 10
0.0
 20
0.0
 11
1.0
 21
1.0
 12
0.0
 22
0.0
 13
0.0
 23
0.0
 14
0.5
 24
0.5
 15
0.5
 25
0.5
 16
0.0
 26
0.0
 36
1.0
 17
63.499999984125
 27
-89.00059456108309
 37
0.0
 40
178.0011891221662
 41
0.7134783795241226
 42
50.0
 43
0.0
 44
0.0
 50
0.0
 51
0.0
 71
     0
 72
   100
 73
     1
 74
     3
 75
     0
 76
     0
 77
     0
 78
     0
281
     0
 65
     1
110
0.0
120
0.0
130
0.0
111
1.0
121
0.0
131
0.0
112
0.0
122
1.0
132
0.0
 79
     0
146
0.0
 60
     3
 61
     5
292
     1
282
     1
141
0.0
142
0.0
 63
   250
361
3F
  0
ENDTAB
  0
TABLE
  2
LTYPE
  5
5
330
0
100
AcDbSymbolTable
 70
     1
  0
LTYPE
  5
14
330
5
100
AcDbSymbolTableRecord
100
AcDbLinetypeTableRecord
  2
ByBlock
 70
     0
  3

 72
    65
 73
     0
 40
0.0
  0
LTYPE
  5
15
330
5
100
AcDbSymbolTableRecord
100
AcDbLinetypeTableRecord
  2
ByLayer
 70
     0
  3

 72
    65
 73
     0
 40
0.0
  0
LTYPE
  5
16
330
5
100
AcDbSymbolTableRecord
100
AcDbLinetypeTableRecord
  2
Continuous
 70
     0
  3
Solid line
 72
    65
 73
     0
 40
0.0
  0
ENDTAB
  0
TABLE
  2
LAYER
  5
2
330
0
100
AcDbSymbolTable
 70
     2
  0
LAYER
  5
10
330
2
100
AcDbSymbolTableRecord
100
AcDbLayerTableRecord
  2
0
 70
     0
 62
     7
  6
Continuous
370
    -3
390
F
347
3E
  0
LAYER
  5
40
330
2
100
AcDbSymbolTableRecord
100
AcDbLayerTableRecord
  2
_U+30EC_U+30A4_U+30E4_U+30FC 1
 70
     0
 62
     7
  6
Continuous
370
    -3
390
F
347
3E
  0
ENDTAB
  0
TABLE
  2
STYLE
  5
3
330
0
100
AcDbSymbolTable
 70
     1
  0
STYLE
  5
11
330
3
100
AcDbSymbolTableRecord
100
AcDbTextStyleTableRecord
  2
Standard
 70
     0
 40
0.0
 41
1.0
 50
0.0
 71
     0
 42
0.2
  3
txt
  4

  0
ENDTAB
  0
TABLE
  2
VIEW
  5
6
330
0
100
AcDbSymbolTable
 70
     0
  0
ENDTAB
  0
TABLE
  2
UCS
  5
7
330
0
100
AcDbSymbolTable
 70
     0
  0
ENDTAB
  0
TABLE
  2
APPID
  5
9
330
0
100
AcDbSymbolTable
 70
     1
  0
APPID
  5
12
330
9
100
AcDbSymbolTableRecord
100
AcDbRegAppTableRecord
  2
ACAD
 70
     0
  0
ENDTAB
  0
TABLE
  2
DIMSTYLE
  5
A
330
0
100
AcDbSymbolTable
 70
     1
100
AcDbDimStyleTable
  0
DIMSTYLE
105
27
330
A
100
AcDbSymbolTableRecord
100
AcDbDimStyleTableRecord
  2
Standard
 70
     0
178
     0
340
11
  0
ENDTAB
  0
TABLE
  2
BLOCK_RECORD
  5
1
330
0
100
AcDbSymbolTable
 70
     4
  0
BLOCK_RECORD
  5
1F
330
1
100
AcDbSymbolTableRecord
100
AcDbBlockTableRecord
  2
*Model_Space
340
22
 70
     0
280
     1
281
     0
  0
BLOCK_RECORD
  5
1B
330
1
100
AcDbSymbolTableRecord
100
AcDbBlockTableRecord
  2
*Paper_Space
340
1E
 70
     0
280
     1
281
     0
  0
BLOCK_RECORD
  5
23
330
1
100
AcDbSymbolTableRecord
100
AcDbBlockTableRecord
  2
*Paper_Space0
340
26
 70
     0
280
     1
281
     0
  0
BLOCK_RECORD
  5
8B
330
1
100
AcDbSymbolTableRecord
100
AcDbBlockTableRecord
  2
block 2
340
0
102
{BLKREFS
331
8C
102
}
 70
     0
280
     1
281
     0
  0
BLOCK_RECORD
  5
E6
330
1
100
AcDbSymbolTableRecord
100
AcDbBlockTableRecord
  2
block 3
340
0
102
{BLKREFS
331
E7
102
}
 70
     0
280
     1
281
     0
  0
BLOCK_RECORD
  5
F8
330
1
100
AcDbSymbolTableRecord
100
AcDbBlockTableRecord
  2
block 4
340
0
102
{BLKREFS
331
F9
102
}
 70
     0
280
     1
281
     0
  0
ENDTAB
  0
ENDSEC
  0
SECTION
  2
BLOCKS
  0
BLOCK
  5
20
330
1F
100
AcDbEntity
  8
0
100
AcDbBlockBegin
  2
*Model_Space
 70
     0
 10
0.0
 20
0.0
 30
0.0
  3
*Model_Space
  1

  0
ENDBLK
  5
21
330
1F
100
AcDbEntity
  8
0
100
AcDbBlockEnd
  0
BLOCK
  5
1C
330
1B
100
AcDbEntity
 67
     1
  8
0
100
AcDbBlockBegin
  2
*Paper_Space
 70
     0
 10
0.0
 20
0.0
 30
0.0
  3
*Paper_Space
  1

  0
ENDBLK
  5
1D
330
1B
100
AcDbEntity
 67
     1
  8
0
100
AcDbBlockEnd
  0
BLOCK
  5
24
330
23
100
AcDbEntity
  8
0
100
AcDbBlockBegin
  2
*Paper_Space0
 70
     0
 10
0.0
 20
0.0
 30
0.0
  3
*Paper_Space0
  1

  0
ENDBLK
  5
25
330
23
100
AcDbEntity
  8
0
100
AcDbBlockEnd
  0
BLOCK
  5
8D
330
8B
100
AcDbEntity
  8
0
100
AcDbBlockBegin
  2
block 2
 70
     0
 10
0.0
 20
0.0
 30
0.0
  3
block 2
  1

  0
SPLINE
  5
8F
330
8B
100
AcDbEntity
  8
_U+30EC_U+30A4_U+30E4_U+30FC 1
370
     0
100
AcDbSpline
210
0.0
220
0.0
230
1.0
 70
    11
 71
     3
 72
   176
 73
   172
 74
     0
 42
0.0000000001
 43
0.0000000001
 12
1.0
 22
0.0
 32
0.0
 13
1.0
 23
0.0
 33
0.0
 40
0.0
 40
0.0
 40
0.0
 40
0.0
 40
1.0
 40
1.0
 40
1.0
 40
2.0
 40
2.0
 40
2.0
 40
3.0
 40
3.0
 40
3.0
 40
4.0
 40
4.0
 40
4.0
 40
5.0
 40
5.0
 40
5.0
 40
6.0
 40
6.0
 40
6.0
 40
7.0
 40
7.0
 40
7.0
 40
8.0
 40
8.0
 40
8.0
 40
9.0
 40
9.0
 40
9.0
 40
10.0
 40
10.0
 40
10.0
 40
11.0
 40
11.0
 40
11.0
 40
12.0
 40
12.0
 40
12.0
 40
13.0
 40
13.0
 40
13.0
 40
14.0
 40
14.0
 40
14.0
 40
15.0
 40
15.0
 40
15.0
 40
16.0
 40
16.0
 40
16.0
 40
17.0
 40
17.0
 40
17.0
 40
18.0
 40
18.0
 40
18.0
 40
19.0
 40
19.0
 40
19.0
 40
20.0
 40
20.0
 40
20.0
 40
21.0
 40
21.0
 40
21.0
 40
22.0
 40
22.0
 40
22.0
 40
23.0
 40
23.0
 40
23.0
 40
24.0
 40
24.0
 40
24.0
 40
25.0
 40
25.0
 40
25.0
 40
26.0
 40
26.0
 40
26.0
 40
27.0
 40
27.0
 40
27.0
 40
28.0
 40
28.0
 40
28.0
 40
29.0
 40
29.0
 40
29.0
 40
30.0
 40
30.0
 40
30.0
 40
31.0
 40
31.0
 40
31.0
 40
32.0
 40
32.0
 40
32.0
 40
33.0
 40
33.0
 40
33.0
 40
34.0
 40
34.0
 40
34.0
 40
35.0
 40
35.0
 40
35.0
 40
36.0
 40
36.0
 40
36.0
 40
37.0
 40
37.0
 40
37.0
 40
38.0
 40
38.0
 40
38.0
 40
39.0
 40
39.0
 40
39.0
 40
40.0
 40
40.0
 40
40.0
 40
41.0
 40
41.0
 40
41.0
 40
42.0
 40
42.0
 40
42.0
 40
43.0
 40
43.0
 40
43.0
 40
44.0
 40
44.0
 40
44.0
 40
45.0
 40
45.0
 40
45.0
 40
46.0
 40
46.0
 40
46.0
 40
47.0
 40
47.0
 40
47.0
 40
48.0
 40
48.0
 40
48.0
 40
49.0
 40
49.0
 40
49.0
 40
50.0
 40
50.0
 40
50.0
 40
51.0
 40
51.0
 40
51.0
 40
52.0
 40
52.0
 40
52.0
 40
53.0
 40
53.0
 40
53.0
 40
54.0
 40
54.0
 40
54.0
 40
55.0
 40
55.0
 40
55.0
 40
56.0
 40
56.0
 40
56.0
 40
57.0
 40
57.0
 40
57.0
 40
57.0
 10
66.17718368571265
 20
-78.76246200287883
 30
0.0
 10
66.17718368571265
 20
-78.76246200287883
 30
0.0
 10
65.93292641580844
 20
-78.76246200287883
 30
0.0
 10
65.93292641580844
 20
-78.76246200287883
 30
0.0
 10
65.93292641580844
 20
-78.76246200287883
 30
0.0
 10
65.93292641580844
 20
-79.01119789691387
 30
0.0
 10
65.93292641580844
 20
-79.01119789691387
 30
0.0
 10
65.93292641580844
 20
-79.01119789691387
 30
0.0
 10
66.17718368571265
 20
-79.01119789691387
 30
0.0
 10
66.17718368571265
 20
-79.01119789691387
 30
0.0
 10
66.2261040416032
 20
-79.01119789691387
 30
0.0
 10
66.25538735322782
 20
-79.01343720897928
 30
0.0
 10
66.51204696687894
 20
-79.00654701800879
 30
0.0
 10
66.75630423678315
 20
-78.99982908181255
 30
0.0
 10
66.78317598156809
 20
-78.99293889084204
 30
0.0
 10
66.82003850326028
 20
-78.99293889084204
 30
0.0
 10
66.82003850326028
 20
-79.02704533614602
 30
0.0
 10
66.81245929319272
 20
-79.12075193334482
 30
0.0
 10
66.81245929319272
 20
-79.22117646673985
 30
0.0
 10
66.81245929319272
 20
-79.22117646673985
 30
0.0
 10
66.81245929319272
 20
-79.83285317014595
 30
0.0
 10
66.81245929319272
 20
-79.83285317014595
 30
0.0
 10
66.81245929319272
 20
-80.31447751898388
 30
0.0
 10
66.8148708600324
 20
-80.36684297035968
 30
0.0
 10
66.80763615951336
 20
-80.40336098250333
 30
0.0
 10
66.78558754840778
 20
-80.5380642159766
 30
0.0
 10
66.64640569080368
 20
-80.54254284010743
 30
0.0
 10
66.56579045644884
 20
-80.54254284010743
 30
0.0
 10
66.50963540003926
 20
-80.54254284010743
 30
0.0
 10
66.44348956672246
 20
-80.54030352804202
 30
0.0
 10
66.38492294347321
 20
-80.53582490391119
 30
0.0
 10
66.38492294347321
 20
-80.53582490391119
 30
0.0
 10
66.3018961422787
 20
-80.30069713704289
 30
0.0
 10
66.3018961422787
 20
-80.30069713704289
 30
0.0
 10
66.35322806500892
 20
-80.3098266400788
 30
0.0
 10
66.46312661098838
 20
-80.32808564615063
 30
0.0
 10
66.52169323423763
 20
-80.32808564615063
 30
0.0
 10
66.58783906755443
 20
-80.32808564615063
 30
0.0
 10
66.58783906755443
 20
-80.29621851291206
 30
0.0
 10
66.58783906755443
 20
-80.21164141874918
 30
0.0
 10
66.58783906755443
 20
-80.21164141874918
 30
0.0
 10
66.58783906755443
 20
-79.19602726969752
 30
0.0
 10
66.58783906755443
 20
-79.19602726969752
 30
0.0
 10
66.58783906755443
 20
-79.19602726969752
 30
0.0
 10
65.93292641580844
 20
-79.19602726969752
 30
0.0
 10
65.93292641580844
 20
-79.19602726969752
 30
0.0
 10
65.93292641580844
 20
-79.19602726969752
 30
0.0
 10
65.93292641580844
 20
-79.86937118228961
 30
0.0
 10
65.93292641580844
 20
-79.86937118228961
 30
0.0
 10
65.93292641580844
 20
-79.86937118228961
 30
0.0
 10
66.17477211887298
 20
-79.86937118228961
 30
0.0
 10
66.17477211887298
 20
-79.86937118228961
 30
0.0
 10
66.17477211887298
 20
-79.86937118228961
 30
0.0
 10
66.17477211887298
 20
-79.64337291845722
 30
0.0
 10
66.17477211887298
 20
-79.64337291845722
 30
0.0
 10
66.17477211887298
 20
-79.57257620623533
 30
0.0
 10
66.1723605520333
 20
-79.52468937899036
 30
0.0
 10
66.16753741835396
 20
-79.37637801835035
 30
0.0
 10
66.16753741835396
 20
-79.37637801835035
 30
0.0
 10
66.3873345103129
 20
-79.3922254575825
 30
0.0
 10
66.3873345103129
 20
-79.3922254575825
 30
0.0
 10
66.40214842089947
 20
-79.3922254575825
 30
0.0
 10
66.44590113356215
 20
-79.3968763364876
 30
0.0
 10
66.44590113356215
 20
-79.42650415766074
 30
0.0
 10
66.44590113356215
 20
-79.45165335470307
 30
0.0
 10
66.41661782193752
 20
-79.4721516728403
 30
0.0
 10
66.40455998773913
 20
-79.47904186381079
 30
0.0
 10
66.39698077767159
 20
-79.58411727611092
 30
0.0
 10
66.39698077767159
 20
-79.61374509728407
 30
0.0
 10
66.39698077767159
 20
-79.67076142756495
 30
0.0
 10
66.39698077767159
 20
-79.67076142756495
 30
0.0
 10
66.39698077767159
 20
-79.77566458509081
 30
0.0
 10
66.39698077767159
 20
-79.77566458509081
 30
0.0
 10
66.39698077767159
 20
-79.82596297917546
 30
0.0
 10
66.39939234451127
 20
-79.91949732159999
 30
0.0
 10
66.40938312141849
 20
-80.0746988732105
 30
0.0
 10
66.3239447533843
 20
-80.07245956114508
 30
0.0
 10
66.18924151991102
 20
-80.06333005810917
 30
0.0
 10
66.0524712291466
 20
-80.06333005810917
 30
0.0
 10
66.0524712291466
 20
-80.06333005810917
 30
0.0
 10
65.45853676748953
 20
-80.06333005810917
 30
0.0
 10
65.45853676748953
 20
-80.06333005810917
 30
0.0
 10
65.45853676748953
 20
-80.08606768831181
 30
0.0
 10
65.46370441071741
 20
-80.17736271867093
 30
0.0
 10
65.46370441071741
 20
-80.19562172474276
 30
0.0
 10
65.46370441071741
 20
-80.19562172474276
 30
0.0
 10
65.21910263126468
 20
-80.19562172474276
 30
0.0
 10
65.21910263126468
 20
-80.19562172474276
 30
0.0
 10
65.22909340817189
 20
-80.12947589142597
 30
0.0
 10
65.23150497501157
 20
-79.97892521872055
 30
0.0
 10
65.23150497501157
 20
-79.90812850649867
 30
0.0
 10
65.23150497501157
 20
-79.90812850649867
 30
0.0
 10
65.23150497501157
 20
-79.67765161853545
 30
0.0
 10
65.23150497501157
 20
-79.67765161853545
 30
0.0
 10
65.23150497501157
 20
-79.58635658817633
 30
0.0
 10
65.23150497501157
 20
-79.54983857603268
 30
0.0
 10
65.2263373317837
 20
-79.37172713944527
 30
0.0
 10
65.2263373317837
 20
-79.37172713944527
 30
0.0
 10
65.45853676748953
 20
-79.38550752138626
 30
0.0
 10
65.45853676748953
 20
-79.38550752138626
 30
0.0
 10
65.51985946712698
 20
-79.38998614551708
 30
0.0
 10
65.52709416764601
 20
-79.40152721539268
 30
0.0
 10
65.52709416764601
 20
-79.4197862214645
 30
0.0
 10
65.52709416764601
 20
-79.44941404263766
 30
0.0
 10
65.50022242286106
 20
-79.46078285773898
 30
0.0
 10
65.46852754439676
 20
-79.47680255174538
 30
0.0
 10
65.46370441071741
 20
-79.52934025789544
 30
0.0
 10
65.45853676748953
 20
-79.59548609121224
 30
0.0
 10
65.45853676748953
 20
-79.67300073963037
 30
0.0
 10
65.45853676748953
 20
-79.67300073963037
 30
0.0
 10
65.45853676748953
 20
-79.86937118228961
 30
0.0
 10
65.45853676748953
 20
-79.86937118228961
 30
0.0
 10
65.45853676748953
 20
-79.86937118228961
 30
0.0
 10
65.69831541326292
 20
-79.86937118228961
 30
0.0
 10
65.69831541326292
 20
-79.86937118228961
 30
0.0
 10
65.69831541326292
 20
-79.86937118228961
 30
0.0
 10
65.69831541326292
 20
-79.19602726969752
 30
0.0
 10
65.69831541326292
 20
-79.19602726969752
 30
0.0
 10
65.69831541326292
 20
-79.19602726969752
 30
0.0
 10
65.02376571725101
 20
-79.19602726969752
 30
0.0
 10
65.02376571725101
 20
-79.19602726969752
 30
0.0
 10
65.02376571725101
 20
-79.19602726969752
 30
0.0
 10
65.02376571725101
 20
-79.80546466103822
 30
0.0
 10
65.02376571725101
 20
-79.80546466103822
 30
0.0
 10
65.02376571725101
 20
-80.01303166402452
 30
0.0
 10
65.02376571725101
 20
-80.35995277938918
 30
0.0
 10
65.0334119846097
 20
-80.554083909983
 30
0.0
 10
65.0334119846097
 20
-80.554083909983
 30
0.0
 10
64.77192923727924
 20
-80.554083909983
 30
0.0
 10
64.77192923727924
 20
-80.554083909983
 30
0.0
 10
64.79397784838484
 20
-80.41025117347382
 30
0.0
 10
64.79638941522451
 20
-80.10208738231823
 30
0.0
 10
64.79638941522451
 20
-80.07934975211559
 30
0.0
 10
64.79638941522451
 20
-80.07934975211559
 30
0.0
 10
64.79638941522451
 20
-79.27371417288991
 30
0.0
 10
64.79638941522451
 20
-79.27371417288991
 30
0.0
 10
64.79638941522451
 20
-79.15261906658337
 30
0.0
 10
64.79156628154517
 20
-79.02704533614602
 30
0.0
 10
64.79156628154517
 20
-78.99293889084204
 30
0.0
 10
65.01894258357166
 20
-79.00430770594338
 30
0.0
 10
65.30729707568707
 20
-79.01119789691387
 30
0.0
 10
65.5367404350047
 20
-79.01119789691387
 30
0.0
 10
65.5367404350047
 20
-79.01119789691387
 30
0.0
 10
65.69831541326292
 20
-79.01119789691387
 30
0.0
 10
65.69831541326292
 20
-79.01119789691387
 30
0.0
 10
65.69831541326292
 20
-79.01119789691387
 30
0.0
 10
65.69831541326292
 20
-78.76246200287883
 30
0.0
 10
65.69831541326292
 20
-78.76246200287883
 30
0.0
 10
65.69831541326292
 20
-78.76246200287883
 30
0.0
 10
65.44165579961181
 20
-78.76246200287883
 30
0.0
 10
65.44165579961181
 20
-78.76246200287883
 30
0.0
 10
65.20463323022662
 20
-78.76246200287883
 30
0.0
 10
64.9259250054699
 20
-78.76246200287883
 30
0.0
 10
64.70612791351097
 20
-78.77383081798015
 30
0.0
 10
64.70612791351097
 20
-78.77383081798015
 30
0.0
 10
64.70612791351097
 20
-78.568330872285
 30
0.0
 10
64.70612791351097
 20
-78.568330872285
 30
0.0
 10
65.00412867298508
 20
-78.58882919042225
 30
0.0
 10
65.41478405482687
 20
-78.58882919042225
 30
0.0
 10
65.44165579961181
 20
-78.58882919042225
 30
0.0
 10
65.44165579961181
 20
-78.58882919042225
 30
0.0
 10
66.17718368571265
 20
-78.58882919042225
 30
0.0
 10
66.17718368571265
 20
-78.58882919042225
 30
0.0
 10
66.42144095561686
 20
-78.58882919042225
 30
0.0
 10
66.66604273506961
 20
-78.58435056629142
 30
0.0
 10
66.91030000497382
 20
-78.568330872285
 30
0.0
 10
66.91030000497382
 20
-78.568330872285
 30
0.0
 10
66.91030000497382
 20
-78.77383081798015
 30
0.0
 10
66.91030000497382
 20
-78.77383081798015
 30
0.0
 10
66.6977376135339
 20
-78.76246200287883
 30
0.0
 10
66.492409922613
 20
-78.76246200287883
 30
0.0
 10
66.17718368571265
 20
-78.76246200287883
 30
0.0
  0
HATCH
  5
90
330
8B
100
AcDbEntity
  8
_U+30EC_U+30A4_U+30E4_U+30FC 1
 62
   179
420
  2234388
100
AcDbHatch
 10
0.0
 20
0.0
 30
0.0
210
0.0
220
0.0
230
1.0
  2
SOLID
 70
     1
 71
     0
 91
        1
 92
        1
 93
        1
 72
     4
 94
        3
 73
     0
 74
     1
 95
      176
 96
      172
 40
0.0
 40
0.0
 40
0.0
 40
0.0
 40
1.0
 40
1.0
 40
1.0
 40
2.0
 40
2.0
 40
2.0
 40
3.0
 40
3.0
 40
3.0
 40
4.0
 40
4.0
 40
4.0
 40
5.0
 40
5.0
 40
5.0
 40
6.0
 40
6.0
 40
6.0
 40
7.0
 40
7.0
 40
7.0
 40
8.0
 40
8.0
 40
8.0
 40
9.0
 40
9.0
 40
9.0
 40
10.0
 40
10.0
 40
10.0
 40
11.0
 40
11.0
 40
11.0
 40
12.0
 40
12.0
 40
12.0
 40
13.0
 40
13.0
 40
13.0
 40
14.0
 40
14.0
 40
14.0
 40
15.0
 40
15.0
 40
15.0
 40
16.0
 40
16.0
 40
16.0
 40
17.0
 40
17.0
 40
17.0
 40
18.0
 40
18.0
 40
18.0
 40
19.0
 40
19.0
 40
19.0
 40
20.0
 40
20.0
 40
20.0
 40
21.0
 40
21.0
 40
21.0
 40
22.0
 40
22.0
 40
22.0
 40
23.0
 40
23.0
 40
23.0
 40
24.0
 40
24.0
 40
24.0
 40
25.0
 40
25.0
 40
25.0
 40
26.0
 40
26.0
 40
26.0
 40
27.0
 40
27.0
 40
27.0
 40
28.0
 40
28.0
 40
28.0
 40
29.0
 40
29.0
 40
29.0
 40
30.0
 40
30.0
 40
30.0
 40
31.0
 40
31.0
 40
31.0
 40
32.0
 40
32.0
 40
32.0
 40
33.0
 40
33.0
 40
33.0
 40
34.0
 40
34.0
 40
34.0
 40
35.0
 40
35.0
 40
35.0
 40
36.0
 40
36.0
 40
36.0
 40
37.0
 40
37.0
 40
37.0
 40
38.0
 40
38.0
 40
38.0
 40
39.0
 40
39.0
 40
39.0
 40
40.0
 40
40.0
 40
40.0
 40
41.0
 40
41.0
 40
41.0
 40
42.0
 40
42.0
 40
42.0
 40
43.0
 40
43.0
 40
43.0
 40
44.0
 40
44.0
 40
44.0
 40
45.0
 40
45.0
 40
45.0
 40
46.0
 40
46.0
 40
46.0
 40
47.0
 40
47.0
 40
47.0
 40
48.0
 40
48.0
 40
48.0
 40
49.0
 40
49.0
 40
49.0
 40
50.0
 40
50.0
 40
50.0
 40
51.0
 40
51.0
 40
51.0
 40
52.0
 40
52.0
 40
52.0
 40
53.0
 40
53.0
 40
53.0
 40
54.0
 40
54.0
 40
54.0
 40
55.0
 40
55.0
 40
55.0
 40
56.0
 40
56.0
 40
56.0
 40
57.0
 40
57.0
 40
57.0
 40
57.0
 10
66.17718368571265
 20
-78.76246200287883
 10
66.17718368571265
 20
-78.76246200287883
 10
65.93292641580844
 20
-78.76246200287883
 10
65.93292641580844
 20
-78.76246200287883
 10
65.93292641580844
 20
-78.76246200287883
 10
65.93292641580844
 20
-79.01119789691387
 10
65.93292641580844
 20
-79.01119789691387
 10
65.93292641580844
 20
-79.01119789691387
 10
66.17718368571265
 20
-79.01119789691387
 10
66.17718368571265
 20
-79.01119789691387
 10
66.2261040416032
 20
-79.01119789691387
 10
66.25538735322782
 20
-79.01343720897928
 10
66.51204696687894
 20
-79.00654701800879
 10
66.75630423678315
 20
-78.99982908181255
 10
66.78317598156809
 20
-78.99293889084204
 10
66.82003850326028
 20
-78.99293889084204
 10
66.82003850326028
 20
-79.02704533614602
 10
66.81245929319272
 20
-79.12075193334482
 10
66.81245929319272
 20
-79.22117646673985
 10
66.81245929319272
 20
-79.22117646673985
 10
66.81245929319272
 20
-79.83285317014595
 10
66.81245929319272
 20
-79.83285317014595
 10
66.81245929319272
 20
-80.31447751898388
 10
66.8148708600324
 20
-80.36684297035968
 10
66.80763615951336
 20
-80.40336098250333
 10
66.78558754840778
 20
-80.5380642159766
 10
66.64640569080368
 20
-80.54254284010743
 10
66.56579045644884
 20
-80.54254284010743
 10
66.50963540003926
 20
-80.54254284010743
 10
66.44348956672246
 20
-80.54030352804202
 10
66.38492294347321
 20
-80.53582490391119
 10
66.38492294347321
 20
-80.53582490391119
 10
66.3018961422787
 20
-80.30069713704289
 10
66.3018961422787
 20
-80.30069713704289
 10
66.35322806500892
 20
-80.3098266400788
 10
66.46312661098838
 20
-80.32808564615063
 10
66.52169323423763
 20
-80.32808564615063
 10
66.58783906755443
 20
-80.32808564615063
 10
66.58783906755443
 20
-80.29621851291206
 10
66.58783906755443
 20
-80.21164141874918
 10
66.58783906755443
 20
-80.21164141874918
 10
66.58783906755443
 20
-79.19602726969752
 10
66.58783906755443
 20
-79.19602726969752
 10
66.58783906755443
 20
-79.19602726969752
 10
65.93292641580844
 20
-79.19602726969752
 10
65.93292641580844
 20
-79.19602726969752
 10
65.93292641580844
 20
-79.19602726969752
 10
65.93292641580844
 20
-79.86937118228961
 10
65.93292641580844
 20
-79.86937118228961
 10
65.93292641580844
 20
-79.86937118228961
 10
66.17477211887298
 20
-79.86937118228961
 10
66.17477211887298
 20
-79.86937118228961
 10
66.17477211887298
 20
-79.86937118228961
 10
66.17477211887298
 20
-79.64337291845722
 10
66.17477211887298
 20
-79.64337291845722
 10
66.17477211887298
 20
-79.57257620623533
 10
66.1723605520333
 20
-79.52468937899036
 10
66.16753741835396
 20
-79.37637801835035
 10
66.16753741835396
 20
-79.37637801835035
 10
66.3873345103129
 20
-79.3922254575825
 10
66.3873345103129
 20
-79.3922254575825
 10
66.40214842089947
 20
-79.3922254575825
 10
66.44590113356215
 20
-79.3968763364876
 10
66.44590113356215
 20
-79.42650415766074
 10
66.44590113356215
 20
-79.45165335470307
 10
66.41661782193752
 20
-79.4721516728403
 10
66.40455998773913
 20
-79.47904186381079
 10
66.39698077767159
 20
-79.58411727611092
 10
66.39698077767159
 20
-79.61374509728407
 10
66.39698077767159
 20
-79.67076142756495
 10
66.39698077767159
 20
-79.67076142756495
 10
66.39698077767159
 20
-79.77566458509081
 10
66.39698077767159
 20
-79.77566458509081
 10
66.39698077767159
 20
-79.82596297917546
 10
66.39939234451127
 20
-79.91949732159999
 10
66.40938312141849
 20
-80.0746988732105
 10
66.3239447533843
 20
-80.07245956114508
 10
66.18924151991102
 20
-80.06333005810917
 10
66.0524712291466
 20
-80.06333005810917
 10
66.0524712291466
 20
-80.06333005810917
 10
65.45853676748953
 20
-80.06333005810917
 10
65.45853676748953
 20
-80.06333005810917
 10
65.45853676748953
 20
-80.08606768831181
 10
65.46370441071741
 20
-80.17736271867093
 10
65.46370441071741
 20
-80.19562172474276
 10
65.46370441071741
 20
-80.19562172474276
 10
65.21910263126468
 20
-80.19562172474276
 10
65.21910263126468
 20
-80.19562172474276
 10
65.22909340817189
 20
-80.12947589142597
 10
65.23150497501157
 20
-79.97892521872055
 10
65.23150497501157
 20
-79.90812850649867
 10
65.23150497501157
 20
-79.90812850649867
 10
65.23150497501157
 20
-79.67765161853545
 10
65.23150497501157
 20
-79.67765161853545
 10
65.23150497501157
 20
-79.58635658817633
 10
65.23150497501157
 20
-79.54983857603268
 10
65.2263373317837
 20
-79.37172713944527
 10
65.2263373317837
 20
-79.37172713944527
 10
65.45853676748953
 20
-79.38550752138626
 10
65.45853676748953
 20
-79.38550752138626
 10
65.51985946712698
 20
-79.38998614551708
 10
65.52709416764601
 20
-79.40152721539268
 10
65.52709416764601
 20
-79.4197862214645
 10
65.52709416764601
 20
-79.44941404263766
 10
65.50022242286106
 20
-79.46078285773898
 10
65.46852754439676
 20
-79.47680255174538
 10
65.46370441071741
 20
-79.52934025789544
 10
65.45853676748953
 20
-79.59548609121224
 10
65.45853676748953
 20
-79.67300073963037
 10
65.45853676748953
 20
-79.67300073963037
 10
65.45853676748953
 20
-79.86937118228961
 10
65.45853676748953
 20
-79.86937118228961
 10
65.45853676748953
 20
-79.86937118228961
 10
65.69831541326292
 20
-79.86937118228961
 10
65.69831541326292
 20
-79.86937118228961
 10
65.69831541326292
 20
-79.86937118228961
 10
65.69831541326292
 20
-79.19602726969752
 10
65.69831541326292
 20
-79.19602726969752
 10
65.69831541326292
 20
-79.19602726969752
 10
65.02376571725101
 20
-79.19602726969752
 10
65.02376571725101
 20
-79.19602726969752
 10
65.02376571725101
 20
-79.19602726969752
 10
65.02376571725101
 20
-79.80546466103822
 10
65.02376571725101
 20
-79.80546466103822
 10
65.02376571725101
 20
-80.01303166402452
 10
65.02376571725101
 20
-80.35995277938918
 10
65.0334119846097
 20
-80.554083909983
 10
65.0334119846097
 20
-80.554083909983
 10
64.77192923727924
 20
-80.554083909983
 10
64.77192923727924
 20
-80.554083909983
 10
64.79397784838484
 20
-80.41025117347382
 10
64.79638941522451
 20
-80.10208738231823
 10
64.79638941522451
 20
-80.07934975211559
 10
64.79638941522451
 20
-80.07934975211559
 10
64.79638941522451
 20
-79.27371417288991
 10
64.79638941522451
 20
-79.27371417288991
 10
64.79638941522451
 20
-79.15261906658337
 10
64.79156628154517
 20
-79.02704533614602
 10
64.79156628154517
 20
-78.99293889084204
 10
65.01894258357166
 20
-79.00430770594338
 10
65.30729707568707
 20
-79.01119789691387
 10
65.5367404350047
 20
-79.01119789691387
 10
65.5367404350047
 20
-79.01119789691387
 10
65.69831541326292
 20
-79.01119789691387
 10
65.69831541326292
 20
-79.01119789691387
 10
65.69831541326292
 20
-79.01119789691387
 10
65.69831541326292
 20
-78.76246200287883
 10
65.69831541326292
 20
-78.76246200287883
 10
65.69831541326292
 20
-78.76246200287883
 10
65.44165579961181
 20
-78.76246200287883
 10
65.44165579961181
 20
-78.76246200287883
 10
65.20463323022662
 20
-78.76246200287883
 10
64.9259250054699
 20
-78.76246200287883
 10
64.70612791351097
 20
-78.77383081798015
 10
64.70612791351097
 20
-78.77383081798015
 10
64.70612791351097
 20
-78.568330872285
 10
64.70612791351097
 20
-78.568330872285
 10
65.00412867298508
 20
-78.58882919042225
 10
65.41478405482687
 20
-78.58882919042225
 10
65.44165579961181
 20
-78.58882919042225
 10
65.44165579961181
 20
-78.58882919042225
 10
66.17718368571265
 20
-78.58882919042225
 10
66.17718368571265
 20
-78.58882919042225
 10
66.42144095561686
 20
-78.58882919042225
 10
66.66604273506961
 20
-78.58435056629142
 10
66.91030000497382
 20
-78.568330872285
 10
66.91030000497382
 20
-78.568330872285
 10
66.91030000497382
 20
-78.77383081798015
 10
66.91030000497382
 20
-78.77383081798015
 10
66.6977376135339
 20
-78.76246200287883
 10
66.492409922613
 20
-78.76246200287883
 10
66.17718368571265
 20
-78.76246200287883
 97
        0
 97
        0
 75
     2
 76
     1
 98
        0
  0
SPLINE
  5
91
330
8B
100
AcDbEntity
  8
_U+30EC_U+30A4_U+30E4_U+30FC 1
370
     0
100
AcDbSpline
210
0.0
220
0.0
230
1.0
 70
    11
 71
     3
 72
    89
 73
    85
 74
     0
 42
0.0000000001
 43
0.0000000001
 12
1.0
 22
0.0
 32
0.0
 13
1.0
 23
0.0
 33
0.0
 40
0.0
 40
0.0
 40
0.0
 40
0.0
 40
1.0
 40
1.0
 40
1.0
 40
2.0
 40
2.0
 40
2.0
 40
3.0
 40
3.0
 40
3.0
 40
4.0
 40
4.0
 40
4.0
 40
5.0
 40
5.0
 40
5.0
 40
6.0
 40
6.0
 40
6.0
 40
7.0
 40
7.0
 40
7.0
 40
8.0
 40
8.0
 40
8.0
 40
9.0
 40
9.0
 40
9.0
 40
10.0
 40
10.0
 40
10.0
 40
11.0
 40
11.0
 40
11.0
 40
12.0
 40
12.0
 40
12.0
 40
13.0
 40
13.0
 40
13.0
 40
14.0
 40
14.0
 40
14.0
 40
15.0
 40
15.0
 40
15.0
 40
16.0
 40
16.0
 40
16.0
 40
17.0
 40
17.0
 40
17.0
 40
18.0
 40
18.0
 40
18.0
 40
19.0
 40
19.0
 40
19.0
 40
20.0
 40
20.0
 40
20.0
 40
21.0
 40
21.0
 40
21.0
 40
22.0
 40
22.0
 40
22.0
 40
23.0
 40
23.0
 40
23.0
 40
24.0
 40
24.0
 40
24.0
 40
25.0
 40
25.0
 40
25.0
 40
26.0
 40
26.0
 40
26.0
 40
27.0
 40
27.0
 40
27.0
 40
28.0
 40
28.0
 40
28.0
 40
28.0
 10
68.56532387608785
 20
-78.74179142996734
 30
0.0
 10
68.56532387608785
 20
-78.74179142996734
 30
0.0
 10
68.38204479627255
 20
-78.74179142996734
 30
0.0
 10
68.38204479627255
 20
-78.74179142996734
 30
0.0
 10
68.35034991780824
 20
-78.8604749694342
 30
0.0
 10
68.34518227458038
 20
-78.88097328757142
 30
0.0
 10
68.27696938397243
 20
-79.04530434221785
 30
0.0
 10
68.27696938397243
 20
-79.04530434221785
 30
0.0
 10
68.55292153234095
 20
-79.04530434221785
 30
0.0
 10
68.55292153234095
 20
-79.04530434221785
 30
0.0
 10
68.61665579881806
 20
-79.04530434221785
 30
0.0
 10
68.88778481350722
 20
-79.03858640602161
 30
0.0
 10
68.94152830307712
 20
-79.03858640602161
 30
0.0
 10
69.13479815979964
 20
-79.03393552711653
 30
0.0
 10
69.20542261724727
 20
-79.02704533614602
 30
0.0
 10
69.27156845056406
 20
-79.02032739994978
 30
0.0
 10
69.26433375004503
 20
-79.11386174237431
 30
0.0
 10
69.25916610681716
 20
-79.43339434863124
 30
0.0
 10
69.25916610681716
 20
-79.54070907299678
 30
0.0
 10
69.25916610681716
 20
-79.54070907299678
 30
0.0
 10
69.25916610681716
 20
-80.01992185499502
 30
0.0
 10
69.25916610681716
 20
-80.01992185499502
 30
0.0
 10
69.25916610681716
 20
-80.04954967616817
 30
0.0
 10
69.26192218320536
 20
-80.15910371259912
 30
0.0
 10
69.26674531688471
 20
-80.243680806762
 30
0.0
 10
69.27398001740373
 20
-80.36925453719935
 30
0.0
 10
69.28362628476243
 20
-80.49930689176753
 30
0.0
 10
69.28638236115063
 20
-80.5380642159766
 30
0.0
 10
69.28638236115063
 20
-80.5380642159766
 30
0.0
 10
69.01249727007327
 20
-80.5380642159766
 30
0.0
 10
69.01249727007327
 20
-80.5380642159766
 30
0.0
 10
69.02214353743197
 20
-80.49706757970212
 30
0.0
 10
69.03213431433919
 20
-80.43074949161107
 30
0.0
 10
69.03695744801854
 20
-80.3851019764315
 30
0.0
 10
69.03695744801854
 20
-80.3851019764315
 30
0.0
 10
67.46323783035642
 20
-80.3851019764315
 30
0.0
 10
67.46323783035642
 20
-80.3851019764315
 30
0.0
 10
67.46564939719609
 20
-80.4490084976829
 30
0.0
 10
67.46564939719609
 20
-80.45589868865339
 30
0.0
 10
67.47288409771511
 20
-80.53582490391119
 30
0.0
 10
67.47288409771511
 20
-80.53582490391119
 30
0.0
 10
67.2286268278109
 20
-80.53582490391119
 30
0.0
 10
67.2286268278109
 20
-80.53582490391119
 30
0.0
 10
67.25033092936798
 20
-80.37373316133018
 30
0.0
 10
67.25308700575617
 20
-80.23902992785692
 30
0.0
 10
67.25308700575617
 20
-80.0223334218347
 30
0.0
 10
67.25308700575617
 20
-80.0223334218347
 30
0.0
 10
67.25308700575617
 20
-79.62063528825456
 30
0.0
 10
67.25308700575617
 20
-79.62063528825456
 30
0.0
 10
67.25308700575617
 20
-79.47456323967998
 30
0.0
 10
67.24309622884896
 20
-79.15261906658337
 30
0.0
 10
67.23586152832992
 20
-79.02704533614602
 30
0.0
 10
67.45083548660952
 20
-79.04082571808702
 30
0.0
 10
67.79775660197417
 20
-79.04530434221785
 30
0.0
 10
68.02272133716099
 20
-79.04530434221785
 30
0.0
 10
68.06923012621186
 20
-78.95400931185873
 30
0.0
 10
68.11815048210241
 20
-78.83084714826104
 30
0.0
 10
68.13744301681982
 20
-78.74179142996734
 30
0.0
 10
68.13744301681982
 20
-78.74179142996734
 30
0.0
 10
67.90042044743463
 20
-78.74179142996734
 30
0.0
 10
67.90042044743463
 20
-78.74179142996734
 30
0.0
 10
67.61723359854709
 20
-78.74179142996734
 30
0.0
 10
67.40432669755864
 20
-78.74179142996734
 30
0.0
 10
67.174883338241
 20
-78.77383081798015
 30
0.0
 10
67.174883338241
 20
-78.77383081798015
 30
0.0
 10
67.174883338241
 20
-78.54783255414777
 30
0.0
 10
67.174883338241
 20
-78.54783255414777
 30
0.0
 10
67.3044189284864
 20
-78.56609156021959
 30
0.0
 10
67.87354870264967
 20
-78.568330872285
 30
0.0
 10
67.92246905854022
 20
-78.568330872285
 30
0.0
 10
67.92246905854022
 20
-78.568330872285
 30
0.0
 10
68.57255857660687
 20
-78.568330872285
 30
0.0
 10
68.57255857660687
 20
-78.568330872285
 30
0.0
 10
68.63353676669578
 20
-78.568330872285
 30
0.0
 10
69.10034720494714
 20
-78.56161293608876
 30
0.0
 10
69.18371851569019
 20
-78.5592013692491
 30
0.0
 10
69.24951983945846
 20
-78.55696205718368
 30
0.0
 10
69.28121471792275
 20
-78.55231117827859
 30
0.0
 10
69.33495820749265
 20
-78.54559324208236
 30
0.0
 10
69.33495820749265
 20
-78.54559324208236
 30
0.0
 10
69.33495820749265
 20
-78.76005043603915
 30
0.0
 10
69.33495820749265
 20
-78.76005043603915
 30
0.0
 10
69.09552407126779
 20
-78.744202996807
 30
0.0
 10
68.58254935351408
 20
-78.74179142996734
 30
0.0
 10
68.56532387608785
 20
-78.74179142996734
 30
0.0
  0
POLYLINE
  5
92
330
8B
100
AcDbEntity
  8
_U+30EC_U+30A4_U+30E4_U+30FC 1
370
     0
100
AcDb2dPolyline
 66
     1
 10
0.0
 20
0.0
 30
0.0
  0
VERTEX
  5
93
330
92
100
AcDbEntity
  8
_U+30EC_U+30A4_U+30E4_U+30FC 1
370
     0
100
AcDbVertex
100
AcDb2dVertex
 10
67.78087563409645
 20
-79.22789440293609
 30
0.0
  0
VERTEX
  5
94
330
92
100
AcDbEntity
  8
_U+30EC_U+30A4_U+30E4_U+30FC 1
370
     0
100
AcDbVertex
100
AcDb2dVertex
 10
67.46323783035642
 20
-79.22789440293609
 30
0.0
  0
VERTEX
  5
95
330
92
100
AcDbEntity
  8
_U+30EC_U+30A4_U+30E4_U+30FC 1
370
     0
100
AcDbVertex
100
AcDb2dVertex
 10
67.46323783035642
 20
-80.20027260364785
 30
0.0
  0
VERTEX
  5
96
330
92
100
AcDbEntity
  8
_U+30EC_U+30A4_U+30E4_U+30FC 1
370
     0
100
AcDbVertex
100
AcDb2dVertex
 10
67.78087563409645
 20
-80.20027260364785
 30
0.0
  0
VERTEX
  5
97
330
92
100
AcDbEntity
  8
_U+30EC_U+30A4_U+30E4_U+30FC 1
370
     0
100
AcDbVertex
100
AcDb2dVertex
 10
67.78087563409645
 20
-79.22789440293609
 30
0.0
  0
SEQEND
  5
98
330
92
100
AcDbEntity
  8
_U+30EC_U+30A4_U+30E4_U+30FC 1
370
     0
  0
POLYLINE
  5
99
330
8B
100
AcDbEntity
  8
_U+30EC_U+30A4_U+30E4_U+30FC 1
370
     0
100
AcDb2dPolyline
 66
     1
 10
0.0
 20
0.0
 30
0.0
  0
VERTEX
  5
9A
330
99
100
AcDbEntity
  8
_U+30EC_U+30A4_U+30E4_U+30FC 1
370
     0
100
AcDbVertex
100
AcDb2dVertex
 10
68.5067572528386
 20
-79.22789440293609
 30
0.0
  0
VERTEX
  5
9B
330
99
100
AcDbEntity
  8
_U+30EC_U+30A4_U+30E4_U+30FC 1
370
     0
100
AcDbVertex
100
AcDb2dVertex
 10
67.98379175817766
 20
-79.22789440293609
 30
0.0
  0
VERTEX
  5
9C
330
99
100
AcDbEntity
  8
_U+30EC_U+30A4_U+30E4_U+30FC 1
370
     0
100
AcDbVertex
100
AcDb2dVertex
 10
67.98379175817766
 20
-79.43339434863124
 30
0.0
  0
VERTEX
  5
9D
330
99
100
AcDbEntity
  8
_U+30EC_U+30A4_U+30E4_U+30FC 1
370
     0
100
AcDbVertex
100
AcDb2dVertex
 10
68.5067572528386
 20
-79.43339434863124
 30
0.0
  0
VERTEX
  5
9E
330
99
100
AcDbEntity
  8
_U+30EC_U+30A4_U+30E4_U+30FC 1
370
     0
100
AcDbVertex
100
AcDb2dVertex
 10
68.5067572528386
 20
-79.22789440293609
 30
0.0
  0
SEQEND
  5
9F
330
99
100
AcDbEntity
  8
_U+30EC_U+30A4_U+30E4_U+30FC 1
370
     0
  0
POLYLINE
  5
A0
330
8B
100
AcDbEntity
  8
_U+30EC_U+30A4_U+30E4_U+30FC 1
370
     0
100
AcDb2dPolyline
 66
     1
 10
0.0
 20
0.0
 30
0.0
  0
VERTEX
  5
A1
330
A0
100
AcDbEntity
  8
_U+30EC_U+30A4_U+30E4_U+30FC 1
370
     0
100
AcDbVertex
100
AcDb2dVertex
 10
68.5067572528386
 20
-79.60685490631357
 30
0.0
  0
VERTEX
  5
A2
330
A0
100
AcDbEntity
  8
_U+30EC_U+30A4_U+30E4_U+30FC 1
370
     0
100
AcDbVertex
100
AcDb2dVertex
 10
67.98379175817766
 20
-79.60685490631357
 30
0.0
  0
VERTEX
  5
A3
330
A0
100
AcDbEntity
  8
_U+30EC_U+30A4_U+30E4_U+30FC 1
370
     0
100
AcDbVertex
100
AcDb2dVertex
 10
67.98379175817766
 20
-79.81218259723445
 30
0.0
  0
VERTEX
  5
A4
330
A0
100
AcDbEntity
  8
_U+30EC_U+30A4_U+30E4_U+30FC 1
370
     0
100
AcDbVertex
100
AcDb2dVertex
 10
68.5067572528386
 20
-79.81218259723445
 30
0.0
  0
VERTEX
  5
A5
330
A0
100
AcDbEntity
  8
_U+30EC_U+30A4_U+30E4_U+30FC 1
370
     0
100
AcDbVertex
100
AcDb2dVertex
 10
68.5067572528386
 20
-79.60685490631357
 30
0.0
  0
SEQEND
  5
A6
330
A0
100
AcDbEntity
  8
_U+30EC_U+30A4_U+30E4_U+30FC 1
370
     0
  0
POLYLINE
  5
A7
330
8B
100
AcDbEntity
  8
_U+30EC_U+30A4_U+30E4_U+30FC 1
370
     0
100
AcDb2dPolyline
 66
     1
 10
0.0
 20
0.0
 30
0.0
  0
VERTEX
  5
A8
330
A7
100
AcDbEntity
  8
_U+30EC_U+30A4_U+30E4_U+30FC 1
370
     0
100
AcDbVertex
100
AcDb2dVertex
 10
68.5067572528386
 20
-79.98581540969106
 30
0.0
  0
VERTEX
  5
A9
330
A7
100
AcDbEntity
  8
_U+30EC_U+30A4_U+30E4_U+30FC 1
370
     0
100
AcDbVertex
100
AcDb2dVertex
 10
67.98379175817766
 20
-79.98581540969106
 30
0.0
  0
VERTEX
  5
AA
330
A7
100
AcDbEntity
  8
_U+30EC_U+30A4_U+30E4_U+30FC 1
370
     0
100
AcDbVertex
100
AcDb2dVertex
 10
67.98379175817766
 20
-80.20027260364785
 30
0.0
  0
VERTEX
  5
AB
330
A7
100
AcDbEntity
  8
_U+30EC_U+30A4_U+30E4_U+30FC 1
370
     0
100
AcDbVertex
100
AcDb2dVertex
 10
68.5067572528386
 20
-80.20027260364785
 30
0.0
  0
VERTEX
  5
AC
330
A7
100
AcDbEntity
  8
_U+30EC_U+30A4_U+30E4_U+30FC 1
370
     0
100
AcDbVertex
100
AcDb2dVertex
 10
68.5067572528386
 20
-79.98581540969106
 30
0.0
  0
SEQEND
  5
AD
330
A7
100
AcDbEntity
  8
_U+30EC_U+30A4_U+30E4_U+30FC 1
370
     0
  0
POLYLINE
  5
AE
330
8B
100
AcDbEntity
  8
_U+30EC_U+30A4_U+30E4_U+30FC 1
370
     0
100
AcDb2dPolyline
 66
     1
 10
0.0
 20
0.0
 30
0.0
  0
VERTEX
  5
AF
330
AE
100
AcDbEntity
  8
_U+30EC_U+30A4_U+30E4_U+30FC 1
370
     0
100
AcDbVertex
100
AcDb2dVertex
 10
69.03936901485821
 20
-79.22789440293609
 30
0.0
  0
VERTEX
  5
B0
330
AE
100
AcDbEntity
  8
_U+30EC_U+30A4_U+30E4_U+30FC 1
370
     0
100
AcDbVertex
100
AcDb2dVertex
 10
68.72173121111818
 20
-79.22789440293609
 30
0.0
  0
VERTEX
  5
B1
330
AE
100
AcDbEntity
  8
_U+30EC_U+30A4_U+30E4_U+30FC 1
370
     0
100
AcDbVertex
100
AcDb2dVertex
 10
68.72173121111818
 20
-80.20027260364785
 30
0.0
  0
VERTEX
  5
B2
330
AE
100
AcDbEntity
  8
_U+30EC_U+30A4_U+30E4_U+30FC 1
370
     0
100
AcDbVertex
100
AcDb2dVertex
 10
69.03936901485821
 20
-80.20027260364785
 30
0.0
  0
VERTEX
  5
B3
330
AE
100
AcDbEntity
  8
_U+30EC_U+30A4_U+30E4_U+30FC 1
370
     0
100
AcDbVertex
100
AcDb2dVertex
 10
69.03936901485821
 20
-79.22789440293609
 30
0.0
  0
SEQEND
  5
B4
330
AE
100
AcDbEntity
  8
_U+30EC_U+30A4_U+30E4_U+30FC 1
370
     0
  0
HATCH
  5
B5
330
8B
100
AcDbEntity
  8
_U+30EC_U+30A4_U+30E4_U+30FC 1
 62
   179
420
  2234388
100
AcDbHatch
 10
0.0
 20
0.0
 30
0.0
210
0.0
220
0.0
230
1.0
  2
SOLID
 70
     1
 71
     0
 91
        6
 92
        1
 93
        1
 72
     4
 94
        3
 73
     0
 74
     1
 95
       89
 96
       85
 40
0.0
 40
0.0
 40
0.0
 40
0.0
 40
1.0
 40
1.0
 40
1.0
 40
2.0
 40
2.0
 40
2.0
 40
3.0
 40
3.0
 40
3.0
 40
4.0
 40
4.0
 40
4.0
 40
5.0
 40
5.0
 40
5.0
 40
6.0
 40
6.0
 40
6.0
 40
7.0
 40
7.0
 40
7.0
 40
8.0
 40
8.0
 40
8.0
 40
9.0
 40
9.0
 40
9.0
 40
10.0
 40
10.0
 40
10.0
 40
11.0
 40
11.0
 40
11.0
 40
12.0
 40
12.0
 40
12.0
 40
13.0
 40
13.0
 40
13.0
 40
14.0
 40
14.0
 40
14.0
 40
15.0
 40
15.0
 40
15.0
 40
16.0
 40
16.0
 40
16.0
 40
17.0
 40
17.0
 40
17.0
 40
18.0
 40
18.0
 40
18.0
 40
19.0
 40
19.0
 40
19.0
 40
20.0
 40
20.0
 40
20.0
 40
21.0
 40
21.0
 40
21.0
 40
22.0
 40
22.0
 40
22.0
 40
23.0
 40
23.0
 40
23.0
 40
24.0
 40
24.0
 40
24.0
 40
25.0
 40
25.0
 40
25.0
 40
26.0
 40
26.0
 40
26.0
 40
27.0
 40
27.0
 40
27.0
 40
28.0
 40
28.0
 40
28.0
 40
28.0
 10
68.56532387608785
 20
-78.74179142996734
 10
68.56532387608785
 20
-78.74179142996734
 10
68.38204479627255
 20
-78.74179142996734
 10
68.38204479627255
 20
-78.74179142996734
 10
68.35034991780824
 20
-78.8604749694342
 10
68.34518227458038
 20
-78.88097328757142
 10
68.27696938397243
 20
-79.04530434221785
 10
68.27696938397243
 20
-79.04530434221785
 10
68.55292153234095
 20
-79.04530434221785
 10
68.55292153234095
 20
-79.04530434221785
 10
68.61665579881806
 20
-79.04530434221785
 10
68.88778481350722
 20
-79.03858640602161
 10
68.94152830307712
 20
-79.03858640602161
 10
69.13479815979964
 20
-79.03393552711653
 10
69.20542261724727
 20
-79.02704533614602
 10
69.27156845056406
 20
-79.02032739994978
 10
69.26433375004503
 20
-79.11386174237431
 10
69.25916610681716
 20
-79.43339434863124
 10
69.25916610681716
 20
-79.54070907299678
 10
69.25916610681716
 20
-79.54070907299678
 10
69.25916610681716
 20
-80.01992185499502
 10
69.25916610681716
 20
-80.01992185499502
 10
69.25916610681716
 20
-80.04954967616817
 10
69.26192218320536
 20
-80.15910371259912
 10
69.26674531688471
 20
-80.243680806762
 10
69.27398001740373
 20
-80.36925453719935
 10
69.28362628476243
 20
-80.49930689176753
 10
69.28638236115063
 20
-80.5380642159766
 10
69.28638236115063
 20
-80.5380642159766
 10
69.01249727007327
 20
-80.5380642159766
 10
69.01249727007327
 20
-80.5380642159766
 10
69.02214353743197
 20
-80.49706757970212
 10
69.03213431433919
 20
-80.43074949161107
 10
69.03695744801854
 20
-80.3851019764315
 10
69.03695744801854
 20
-80.3851019764315
 10
67.46323783035642
 20
-80.3851019764315
 10
67.46323783035642
 20
-80.3851019764315
 10
67.46564939719609
 20
-80.4490084976829
 10
67.46564939719609
 20
-80.45589868865339
 10
67.47288409771511
 20
-80.53582490391119
 10
67.47288409771511
 20
-80.53582490391119
 10
67.2286268278109
 20
-80.53582490391119
 10
67.2286268278109
 20
-80.53582490391119
 10
67.25033092936798
 20
-80.37373316133018
 10
67.25308700575617
 20
-80.23902992785692
 10
67.25308700575617
 20
-80.0223334218347
 10
67.25308700575617
 20
-80.0223334218347
 10
67.25308700575617
 20
-79.62063528825456
 10
67.25308700575617
 20
-79.62063528825456
 10
67.25308700575617
 20
-79.47456323967998
 10
67.24309622884896
 20
-79.15261906658337
 10
67.23586152832992
 20
-79.02704533614602
 10
67.45083548660952
 20
-79.04082571808702
 10
67.79775660197417
 20
-79.04530434221785
 10
68.02272133716099
 20
-79.04530434221785
 10
68.06923012621186
 20
-78.95400931185873
 10
68.11815048210241
 20
-78.83084714826104
 10
68.13744301681982
 20
-78.74179142996734
 10
68.13744301681982
 20
-78.74179142996734
 10
67.90042044743463
 20
-78.74179142996734
 10
67.90042044743463
 20
-78.74179142996734
 10
67.61723359854709
 20
-78.74179142996734
 10
67.40432669755864
 20
-78.74179142996734
 10
67.174883338241
 20
-78.77383081798015
 10
67.174883338241
 20
-78.77383081798015
 10
67.174883338241
 20
-78.54783255414777
 10
67.174883338241
 20
-78.54783255414777
 10
67.3044189284864
 20
-78.56609156021959
 10
67.87354870264967
 20
-78.568330872285
 10
67.92246905854022
 20
-78.568330872285
 10
67.92246905854022
 20
-78.568330872285
 10
68.57255857660687
 20
-78.568330872285
 10
68.57255857660687
 20
-78.568330872285
 10
68.63353676669578
 20
-78.568330872285
 10
69.10034720494714
 20
-78.56161293608876
 10
69.18371851569019
 20
-78.5592013692491
 10
69.24951983945846
 20
-78.55696205718368
 10
69.28121471792275
 20
-78.55231117827859
 10
69.33495820749265
 20
-78.54559324208236
 10
69.33495820749265
 20
-78.54559324208236
 10
69.33495820749265
 20
-78.76005043603915
 10
69.33495820749265
 20
-78.76005043603915
 10
69.09552407126779
 20
-78.744202996807
 10
68.58254935351408
 20
-78.74179142996734
 10
68.56532387608785
 20
-78.74179142996734
 97
        0
 97
        0
 92
        1
 93
        4
 72
     1
 10
67.78087563409645
 20
-79.22789440293609
 11
67.46323783035642
 21
-79.22789440293609
 72
     1
 10
67.46323783035642
 20
-79.22789440293609
 11
67.46323783035642
 21
-80.20027260364785
 72
     1
 10
67.46323783035642
 20
-80.20027260364785
 11
67.78087563409645
 21
-80.20027260364785
 72
     1
 10
67.78087563409645
 20
-80.20027260364785
 11
67.78087563409645
 21
-79.22789440293609
 97
        0
 92
        1
 93
        4
 72
     1
 10
68.5067572528386
 20
-79.22789440293609
 11
67.98379175817766
 21
-79.22789440293609
 72
     1
 10
67.98379175817766
 20
-79.22789440293609
 11
67.98379175817766
 21
-79.43339434863124
 72
     1
 10
67.98379175817766
 20
-79.43339434863124
 11
68.5067572528386
 21
-79.43339434863124
 72
     1
 10
68.5067572528386
 20
-79.43339434863124
 11
68.5067572528386
 21
-79.22789440293609
 97
        0
 92
        1
 93
        4
 72
     1
 10
68.5067572528386
 20
-79.60685490631357
 11
67.98379175817766
 21
-79.60685490631357
 72
     1
 10
67.98379175817766
 20
-79.60685490631357
 11
67.98379175817766
 21
-79.81218259723445
 72
     1
 10
67.98379175817766
 20
-79.81218259723445
 11
68.5067572528386
 21
-79.81218259723445
 72
     1
 10
68.5067572528386
 20
-79.81218259723445
 11
68.5067572528386
 21
-79.60685490631357
 97
        0
 92
        1
 93
        4
 72
     1
 10
68.5067572528386
 20
-79.98581540969106
 11
67.98379175817766
 21
-79.98581540969106
 72
     1
 10
67.98379175817766
 20
-79.98581540969106
 11
67.98379175817766
 21
-80.20027260364785
 72
     1
 10
67.98379175817766
 20
-80.20027260364785
 11
68.5067572528386
 21
-80.20027260364785
 72
     1
 10
68.5067572528386
 20
-80.20027260364785
 11
68.5067572528386
 21
-79.98581540969106
 97
        0
 92
        1
 93
        4
 72
     1
 10
69.03936901485821
 20
-79.22789440293609
 11
68.72173121111818
 21
-79.22789440293609
 72
     1
 10
68.72173121111818
 20
-79.22789440293609
 11
68.72173121111818
 21
-80.20027260364785
 72
     1
 10
68.72173121111818
 20
-80.20027260364785
 11
69.03936901485821
 21
-80.20027260364785
 72
     1
 10
69.03936901485821
 20
-80.20027260364785
 11
69.03936901485821
 21
-79.22789440293609
 97
        0
 75
     2
 76
     1
 98
        0
  0
SPLINE
  5
B6
330
8B
100
AcDbEntity
  8
_U+30EC_U+30A4_U+30E4_U+30FC 1
370
     0
100
AcDbSpline
210
0.0
220
0.0
230
1.0
 70
    11
 71
     3
 72
   242
 73
   238
 74
     0
 42
0.0000000001
 43
0.0000000001
 12
1.0
 22
0.0
 32
0.0
 13
1.0
 23
0.0
 33
0.0
 40
0.0
 40
0.0
 40
0.0
 40
0.0
 40
1.0
 40
1.0
 40
1.0
 40
2.0
 40
2.0
 40
2.0
 40
3.0
 40
3.0
 40
3.0
 40
4.0
 40
4.0
 40
4.0
 40
5.0
 40
5.0
 40
5.0
 40
6.0
 40
6.0
 40
6.0
 40
7.0
 40
7.0
 40
7.0
 40
8.0
 40
8.0
 40
8.0
 40
9.0
 40
9.0
 40
9.0
 40
10.0
 40
10.0
 40
10.0
 40
11.0
 40
11.0
 40
11.0
 40
12.0
 40
12.0
 40
12.0
 40
13.0
 40
13.0
 40
13.0
 40
14.0
 40
14.0
 40
14.0
 40
15.0
 40
15.0
 40
15.0
 40
16.0
 40
16.0
 40
16.0
 40
17.0
 40
17.0
 40
17.0
 40
18.0
 40
18.0
 40
18.0
 40
19.0
 40
19.0
 40
19.0
 40
20.0
 40
20.0
 40
20.0
 40
21.0
 40
21.0
 40
21.0
 40
22.0
 40
22.0
 40
22.0
 40
23.0
 40
23.0
 40
23.0
 40
24.0
 40
24.0
 40
24.0
 40
25.0
 40
25.0
 40
25.0
 40
26.0
 40
26.0
 40
26.0
 40
27.0
 40
27.0
 40
27.0
 40
28.0
 40
28.0
 40
28.0
 40
29.0
 40
29.0
 40
29.0
 40
30.0
 40
30.0
 40
30.0
 40
31.0
 40
31.0
 40
31.0
 40
32.0
 40
32.0
 40
32.0
 40
33.0
 40
33.0
 40
33.0
 40
34.0
 40
34.0
 40
34.0
 40
35.0
 40
35.0
 40
35.0
 40
36.0
 40
36.0
 40
36.0
 40
37.0
 40
37.0
 40
37.0
 40
38.0
 40
38.0
 40
38.0
 40
39.0
 40
39.0
 40
39.0
 40
40.0
 40
40.0
 40
40.0
 40
41.0
 40
41.0
 40
41.0
 40
42.0
 40
42.0
 40
42.0
 40
43.0
 40
43.0
 40
43.0
 40
44.0
 40
44.0
 40
44.0
 40
45.0
 40
45.0
 40
45.0
 40
46.0
 40
46.0
 40
46.0
 40
47.0
 40
47.0
 40
47.0
 40
48.0
 40
48.0
 40
48.0
 40
49.0
 40
49.0
 40
49.0
 40
50.0
 40
50.0
 40
50.0
 40
51.0
 40
51.0
 40
51.0
 40
52.0
 40
52.0
 40
52.0
 40
53.0
 40
53.0
 40
53.0
 40
54.0
 40
54.0
 40
54.0
 40
55.0
 40
55.0
 40
55.0
 40
56.0
 40
56.0
 40
56.0
 40
57.0
 40
57.0
 40
57.0
 40
58.0
 40
58.0
 40
58.0
 40
59.0
 40
59.0
 40
59.0
 40
60.0
 40
60.0
 40
60.0
 40
61.0
 40
61.0
 40
61.0
 40
62.0
 40
62.0
 40
62.0
 40
63.0
 40
63.0
 40
63.0
 40
64.0
 40
64.0
 40
64.0
 40
65.0
 40
65.0
 40
65.0
 40
66.0
 40
66.0
 40
66.0
 40
67.0
 40
67.0
 40
67.0
 40
68.0
 40
68.0
 40
68.0
 40
69.0
 40
69.0
 40
69.0
 40
70.0
 40
70.0
 40
70.0
 40
71.0
 40
71.0
 40
71.0
 40
72.0
 40
72.0
 40
72.0
 40
73.0
 40
73.0
 40
73.0
 40
74.0
 40
74.0
 40
74.0
 40
75.0
 40
75.0
 40
75.0
 40
76.0
 40
76.0
 40
76.0
 40
77.0
 40
77.0
 40
77.0
 40
78.0
 40
78.0
 40
78.0
 40
79.0
 40
79.0
 40
79.0
 40
79.0
 10
71.55463322863912
 20
-79.38774683345167
 30
0.0
 10
71.55463322863912
 20
-79.38774683345167
 30
0.0
 10
71.26145560284436
 20
-79.38774683345167
 30
0.0
 10
71.26145560284436
 20
-79.38774683345167
 30
0.0
 10
71.26145560284436
 20
-79.38774683345167
 30
0.0
 10
70.94106172271613
 20
-79.38774683345167
 30
0.0
 10
70.94106172271613
 20
-79.38774683345167
 30
0.0
 10
70.94106172271613
 20
-79.38774683345167
 30
0.0
 10
71.08782279038778
 20
-79.43339434863124
 30
0.0
 10
71.08782279038778
 20
-79.43339434863124
 30
0.0
 10
71.09988062458615
 20
-79.43804522753632
 30
0.0
 10
71.11469453517272
 20
-79.44476316373256
 30
0.0
 10
71.11469453517272
 20
-79.45854354567356
 30
0.0
 10
71.11469453517272
 20
-79.4812811758762
 30
0.0
 10
71.07817652302907
 20
-79.48817136684671
 30
0.0
 10
71.0537163450838
 20
-79.4928222457518
 30
0.0
 10
71.0413140013369
 20
-79.51779918801986
 30
0.0
 10
71.00720755603292
 20
-79.58859590024174
 30
0.0
 10
70.98515894492732
 20
-79.63648272748672
 30
0.0
 10
70.98515894492732
 20
-79.63648272748672
 30
0.0
 10
71.29797361498801
 20
-79.63648272748672
 30
0.0
 10
71.29797361498801
 20
-79.63648272748672
 30
0.0
 10
71.40304902728813
 20
-79.63648272748672
 30
0.0
 10
71.63042532931462
 20
-79.6320041033559
 30
0.0
 10
71.79406736486399
 20
-79.62287460031997
 30
0.0
 10
71.79406736486399
 20
-79.62287460031997
 30
0.0
 10
71.79406736486399
 20
-79.81459416407414
 30
0.0
 10
71.79406736486399
 20
-79.81459416407414
 30
0.0
 10
71.69863821992257
 20
-79.80994328516904
 30
0.0
 10
71.67417804197729
 20
-79.80994328516904
 30
0.0
 10
71.46678329376525
 20
-79.80546466103822
 30
0.0
 10
71.42992077207307
 20
-79.97203502775005
 30
0.0
 10
71.37858884934286
 20
-80.05885143397835
 30
0.0
 10
71.32725692661263
 20
-80.13412677033105
 30
0.0
 10
71.46678329376525
 20
-80.19803329158243
 30
0.0
 10
71.5887396739431
 20
-80.27106931586974
 30
0.0
 10
71.70862899682979
 20
-80.35995277938918
 30
0.0
 10
71.70862899682979
 20
-80.35995277938918
 30
0.0
 10
71.57185870606537
 20
-80.54030352804202
 30
0.0
 10
71.57185870606537
 20
-80.54030352804202
 30
0.0
 10
71.5446424517319
 20
-80.51980520990477
 30
0.0
 10
71.53017305069385
 20
-80.51067570686887
 30
0.0
 10
71.40063746044845
 20
-80.41938067650975
 30
0.0
 10
71.34448240403889
 20
-80.378211785461
 30
0.0
 10
71.2759250038824
 20
-80.33945446125195
 30
0.0
 10
71.1832519353292
 20
-80.29156763400697
 30
0.0
 10
70.93865015587645
 20
-80.49241670079704
 30
0.0
 10
70.70162758649127
 20
-80.51756589783936
 30
0.0
 10
70.36676430532498
 20
-80.54943303107792
 30
0.0
 10
70.36676430532498
 20
-80.54943303107792
 30
0.0
 10
70.24721949198681
 20
-80.35547415525836
 30
0.0
 10
70.24721949198681
 20
-80.35547415525836
 30
0.0
 10
70.6137776516174
 20
-80.35099553112754
 30
0.0
 10
70.81669377569861
 20
-80.32343476724553
 30
0.0
 10
70.99239364544636
 20
-80.20492348255294
 30
0.0
 10
70.85562335468192
 20
-80.15014646433747
 30
0.0
 10
70.75295950922148
 20
-80.12034638839006
 30
0.0
 10
70.71161836339849
 20
-80.10673826122331
 30
0.0
 10
70.68956975229288
 20
-80.13636608239646
 30
0.0
 10
70.67234427486665
 20
-80.1568644005337
 30
0.0
 10
70.64064939640234
 20
-80.19338241267735
 30
0.0
 10
70.64064939640234
 20
-80.19338241267735
 30
0.0
 10
70.41327309437585
 20
-80.10432669438364
 30
0.0
 10
70.41327309437585
 20
-80.10432669438364
 30
0.0
 10
70.50870223931727
 20
-80.0176825429296
 30
0.0
 10
70.5793266967649
 20
-79.91501869746916
 30
0.0
 10
70.64547253008169
 20
-79.80546466103822
 30
0.0
 10
70.42567543812275
 20
-79.80994328516904
 30
0.0
 10
70.40121526017748
 20
-79.80994328516904
 30
0.0
 10
70.30578611523606
 20
-79.81459416407414
 30
0.0
 10
70.30578611523606
 20
-79.81459416407414
 30
0.0
 10
70.30578611523606
 20
-79.62287460031997
 30
0.0
 10
70.30578611523606
 20
-79.62287460031997
 30
0.0
 10
70.46701658394575
 20
-79.62959253651621
 30
0.0
 10
70.70886228701029
 20
-79.63424341542131
 30
0.0
 10
70.73849010818344
 20
-79.63424341542131
 30
0.0
 10
70.75778264290084
 20
-79.59772540327765
 30
0.0
 10
70.82151690937796
 20
-79.46767304870947
 30
0.0
 10
70.84356552048355
 20
-79.38774683345167
 30
0.0
 10
70.82151690937796
 20
-79.38774683345167
 30
0.0
 10
70.61618921845707
 20
-79.39463702442218
 30
0.0
 10
70.39122448327025
 20
-79.40824515158891
 30
0.0
 10
70.39122448327025
 20
-79.40824515158891
 30
0.0
 10
70.39122448327025
 20
-79.5520778880981
 30
0.0
 10
70.39122448327025
 20
-79.5520778880981
 30
0.0
 10
70.33506942686068
 20
-79.57946639720583
 30
0.0
 10
70.2665120267042
 20
-79.61374509728407
 30
0.0
 10
70.11286076806206
 20
-79.68436955473169
 30
0.0
 10
70.11286076806206
 20
-79.68436955473169
 30
0.0
 10
70.11286076806206
 20
-79.84198267318187
 30
0.0
 10
70.11286076806206
 20
-79.84198267318187
 30
0.0
 10
70.11286076806206
 20
-79.84198267318187
 30
0.0
 10
70.11286076806206
 20
-80.34634465222244
 30
0.0
 10
70.11286076806206
 20
-80.34634465222244
 30
0.0
 10
70.11286076806206
 20
-80.48328719776113
 30
0.0
 10
70.07117511269054
 20
-80.54719371901251
 30
0.0
 10
69.74354653204328
 20
-80.5380642159766
 30
0.0
 10
69.74354653204328
 20
-80.5380642159766
 30
0.0
 10
69.62400171870512
 20
-80.31447751898388
 30
0.0
 10
69.62400171870512
 20
-80.31447751898388
 30
0.0
 10
69.69738225254093
 20
-80.32808564615063
 30
0.0
 10
69.75353730895051
 20
-80.33273652505571
 30
0.0
 10
69.80004609800137
 20
-80.33273652505571
 30
0.0
 10
69.88789603287525
 20
-80.33273652505571
 30
0.0
 10
69.89995386707362
 20
-80.30758732801338
 30
0.0
 10
69.89995386707362
 20
-80.2367906157915
 30
0.0
 10
69.89995386707362
 20
-80.2367906157915
 30
0.0
 10
69.89995386707362
 20
-79.7734252730254
 30
0.0
 10
69.89995386707362
 20
-79.7734252730254
 30
0.0
 10
69.78764375425447
 20
-79.81683347613955
 30
0.0
 10
69.76800670998855
 20
-79.82372366711004
 30
0.0
 10
69.71426322041866
 20
-79.84422198524729
 30
0.0
 10
69.7094400867393
 20
-79.86695961544993
 30
0.0
 10
69.70461695305995
 20
-79.89899900346275
 30
0.0
 10
69.68256834195437
 20
-79.89899900346275
 30
0.0
 10
69.67292207459566
 20
-79.89899900346275
 30
0.0
 10
69.66051973084876
 20
-79.89452037933192
 30
0.0
 10
69.65328503032974
 20
-79.86937118228961
 30
0.0
 10
69.65328503032974
 20
-79.86937118228961
 30
0.0
 10
69.59230684024081
 20
-79.66163192452905
 30
0.0
 10
69.59230684024081
 20
-79.66163192452905
 30
0.0
 10
69.76077200946953
 20
-79.6113335304444
 30
0.0
 10
69.83656411014503
 20
-79.58635658817633
 30
0.0
 10
69.89995386707362
 20
-79.56344670319942
 30
0.0
 10
69.89995386707362
 20
-79.56344670319942
 30
0.0
 10
69.89995386707362
 20
-79.11834036650514
 30
0.0
 10
69.89995386707362
 20
-79.11834036650514
 30
0.0
 10
69.89995386707362
 20
-79.11834036650514
 30
0.0
 10
69.8389756769847
 20
-79.11834036650514
 30
0.0
 10
69.8389756769847
 20
-79.11834036650514
 30
0.0
 10
69.8389756769847
 20
-79.11834036650514
 30
0.0
 10
69.74871417527116
 20
-79.11834036650514
 30
0.0
 10
69.74871417527116
 20
-79.11834036650514
 30
0.0
 10
69.67051050775599
 20
-79.11834036650514
 30
0.0
 10
69.66051973084876
 20
-79.11834036650514
 30
0.0
 10
69.61917858502576
 20
-79.12523055747565
 30
0.0
 10
69.61917858502576
 20
-79.12523055747565
 30
0.0
 10
69.61917858502576
 20
-78.91525198764967
 30
0.0
 10
69.61917858502576
 20
-78.91525198764967
 30
0.0
 10
69.65087346349006
 20
-78.92214217862016
 30
0.0
 10
69.66051973084876
 20
-78.92214217862016
 30
0.0
 10
69.74113496520361
 20
-78.92214217862016
 30
0.0
 10
69.74113496520361
 20
-78.92214217862016
 30
0.0
 10
69.89513073339428
 20
-78.92214217862016
 30
0.0
 10
69.89513073339428
 20
-78.92214217862016
 30
0.0
 10
69.89513073339428
 20
-78.84686684226746
 30
0.0
 10
69.89513073339428
 20
-78.75781112397374
 30
0.0
 10
69.8927191665546
 20
-78.75316024506866
 30
0.0
 10
69.8830728991959
 20
-78.5592013692491
 30
0.0
 10
69.8830728991959
 20
-78.53870305111185
 30
0.0
 10
69.88066133235623
 20
-78.48857691180147
 30
0.0
 10
69.88066133235623
 20
-78.48857691180147
 30
0.0
 10
70.12974173593979
 20
-78.49753416006313
 30
0.0
 10
70.12974173593979
 20
-78.49753416006313
 30
0.0
 10
70.14214407968669
 20
-78.49753416006313
 30
0.0
 10
70.16660425763196
 20
-78.4999457269028
 30
0.0
 10
70.16660425763196
 20
-78.51820473297462
 30
0.0
 10
70.16660425763196
 20
-78.53870305111185
 30
0.0
 10
70.14937878020571
 20
-78.55007186621317
 30
0.0
 10
70.12009546858108
 20
-78.57057018435042
 30
0.0
 10
70.12009546858108
 20
-78.62534720256589
 30
0.0
 10
70.11286076806206
 20
-78.87201603930978
 30
0.0
 10
70.11527233490175
 20
-78.92214217862016
 30
0.0
 10
70.26410045986454
 20
-78.92214217862016
 30
0.0
 10
70.2789143704511
 20
-78.92214217862016
 30
0.0
 10
70.39122448327025
 20
-78.91301267558426
 30
0.0
 10
70.39122448327025
 20
-78.91301267558426
 30
0.0
 10
70.39122448327025
 20
-79.12299124541023
 30
0.0
 10
70.39122448327025
 20
-79.12299124541023
 30
0.0
 10
70.34747177060758
 20
-79.12075193334482
 30
0.0
 10
70.26926810309241
 20
-79.11610105443972
 30
0.0
 10
70.11286076806206
 20
-79.11834036650514
 30
0.0
 10
70.11286076806206
 20
-79.11834036650514
 30
0.0
 10
70.11286076806206
 20
-79.48352048794162
 30
0.0
 10
70.11286076806206
 20
-79.48352048794162
 30
0.0
 10
70.17625052499066
 20
-79.45854354567356
 30
0.0
 10
70.25204262566616
 20
-79.42874346972616
 30
0.0
 10
70.30819768207573
 20
-79.40376652745809
 30
0.0
 10
70.30819768207573
 20
-79.40376652745809
 30
0.0
 10
70.30819768207573
 20
-79.21204696370394
 30
0.0
 10
70.30819768207573
 20
-79.21204696370394
 30
0.0
 10
70.4401448391608
 20
-79.22565509087067
 30
0.0
 10
70.57691512992523
 20
-79.22565509087067
 30
0.0
 10
70.71161836339849
 20
-79.22565509087067
 30
0.0
 10
70.68474661861354
 20
-79.12299124541023
 30
0.0
 10
70.65270723060071
 20
-79.03393552711653
 30
0.0
 10
70.5793266967649
 20
-78.8902750453816
 30
0.0
 10
70.5283392835832
 20
-78.89251435744701
 30
0.0
 10
70.43291013864177
 20
-78.89699298157784
 30
0.0
 10
70.38881291643058
 20
-78.89923229364325
 30
0.0
 10
70.38881291643058
 20
-78.89923229364325
 30
0.0
 10
70.38881291643058
 20
-78.70527341782369
 30
0.0
 10
70.38881291643058
 20
-78.70527341782369
 30
0.0
 10
70.53316241726255
 20
-78.7144029208596
 30
0.0
 10
70.73332246495556
 20
-78.71905379976468
 30
0.0
 10
70.82875160989698
 20
-78.71905379976468
 30
0.0
 10
70.82875160989698
 20
-78.71905379976468
 30
0.0
 10
70.9241807548384
 20
-78.71905379976468
 30
0.0
 10
70.9241807548384
 20
-78.71905379976468
 30
0.0
 10
70.9241807548384
 20
-78.54335393001695
 30
0.0
 10
70.9241807548384
 20
-78.53181286014136
 30
0.0
 10
70.92176918799873
 20
-78.47255721779506
 30
0.0
 10
70.92176918799873
 20
-78.47255721779506
 30
0.0
 10
71.18084036848951
 20
-78.4999457269028
 30
0.0
 10
71.18084036848951
 20
-78.4999457269028
 30
0.0
 10
71.18566350216886
 20
-78.4999457269028
 30
0.0
 10
71.21012368011414
 20
-78.50218503896821
 30
0.0
 10
71.21012368011414
 20
-78.52044404504004
 30
0.0
 10
71.21012368011414
 20
-78.53646373904644
 30
0.0
 10
71.19772133636724
 20
-78.54559324208236
 30
0.0
 10
71.16602645790294
 20
-78.56161293608876
 30
0.0
 10
71.15879175738392
 20
-78.63223739353639
 30
0.0
 10
71.15638019054424
 20
-78.6551472785133
 30
0.0
 10
71.15638019054424
 20
-78.71905379976468
 30
0.0
 10
71.15638019054424
 20
-78.71905379976468
 30
0.0
 10
71.26627873652372
 20
-78.71905379976468
 30
0.0
 10
71.26627873652372
 20
-78.71905379976468
 30
0.0
 10
71.36136337191661
 20
-78.71905379976468
 30
0.0
 10
71.56186792915815
 20
-78.7144029208596
 30
0.0
 10
71.70621742999012
 20
-78.70527341782369
 30
0.0
 10
71.70621742999012
 20
-78.70527341782369
 30
0.0
 10
71.70621742999012
 20
-78.89923229364325
 30
0.0
 10
71.70621742999012
 20
-78.89923229364325
 30
0.0
 10
71.67176647513762
 20
-78.89699298157784
 30
0.0
 10
71.5349961843732
 20
-78.89251435744701
 30
0.0
 10
71.48848739532232
 20
-78.8902750453816
 30
0.0
 10
71.4716064274446
 20
-78.94505206359707
 30
0.0
 10
71.43233233891276
 20
-79.06597491512935
 30
0.0
 10
71.35654023823726
 20
-79.21652558783477
 30
0.0
 10
71.4054605941278
 20
-79.21652558783477
 30
0.0
 10
71.72550996470751
 20
-79.19602726969752
 30
0.0
 10
71.79647893170366
 20
-79.19378795763211
 30
0.0
 10
71.79647893170366
 20
-79.19378795763211
 30
0.0
 10
71.79647893170366
 20
-79.3922254575825
 30
0.0
 10
71.79647893170366
 20
-79.3922254575825
 30
0.0
 10
71.76237248639968
 20
-79.3922254575825
 30
0.0
 10
71.74273544213376
 20
-79.38774683345167
 30
0.0
 10
71.55463322863912
 20
-79.38774683345167
 30
0.0
  0
SPLINE
  5
B7
330
8B
100
AcDbEntity
  8
_U+30EC_U+30A4_U+30E4_U+30FC 1
370
     0
100
AcDbSpline
210
0.0
220
0.0
230
1.0
 70
    11
 71
     3
 72
    20
 73
    16
 74
     0
 42
0.0000000001
 43
0.0000000001
 12
1.0
 22
0.0
 32
0.0
 13
1.0
 23
0.0
 33
0.0
 40
0.0
 40
0.0
 40
0.0
 40
0.0
 40
1.0
 40
1.0
 40
1.0
 40
2.0
 40
2.0
 40
2.0
 40
3.0
 40
3.0
 40
3.0
 40
4.0
 40
4.0
 40
4.0
 40
5.0
 40
5.0
 40
5.0
 40
5.0
 10
70.82875160989698
 20
-78.88562416647652
 30
0.0
 10
70.82875160989698
 20
-78.88562416647652
 30
0.0
 10
70.79223359775334
 20
-78.88562416647652
 30
0.0
 10
70.79223359775334
 20
-78.88562416647652
 30
0.0
 10
70.84597708732323
 20
-78.99293889084204
 30
0.0
 10
70.88249509946688
 20
-79.07958304229608
 30
0.0
 10
70.92176918799873
 20
-79.21652558783477
 30
0.0
 10
70.92176918799873
 20
-79.21652558783477
 30
0.0
 10
71.16120332422359
 20
-79.21652558783477
 30
0.0
 10
71.16120332422359
 20
-79.21652558783477
 30
0.0
 10
71.19772133636724
 20
-79.11610105443972
 30
0.0
 10
71.2245930811522
 20
-79.0248060240806
 30
0.0
 10
71.25146482593713
 20
-78.88562416647652
 30
0.0
 10
71.25146482593713
 20
-78.88562416647652
 30
0.0
 10
70.82875160989698
 20
-78.88562416647652
 30
0.0
 10
70.82875160989698
 20
-78.88562416647652
 30
0.0
  0
SPLINE
  5
B8
330
8B
100
AcDbEntity
  8
_U+30EC_U+30A4_U+30E4_U+30FC 1
370
     0
100
AcDbSpline
210
0.0
220
0.0
230
1.0
 70
    11
 71
     3
 72
    17
 73
    13
 74
     0
 42
0.0000000001
 43
0.0000000001
 12
1.0
 22
0.0
 32
0.0
 13
1.0
 23
0.0
 33
0.0
 40
0.0
 40
0.0
 40
0.0
 40
0.0
 40
1.0
 40
1.0
 40
1.0
 40
2.0
 40
2.0
 40
2.0
 40
3.0
 40
3.0
 40
3.0
 40
4.0
 40
4.0
 40
4.0
 40
4.0
 10
70.9021321437328
 20
-79.8032253489728
 30
0.0
 10
70.88249509946688
 20
-79.83509248221137
 30
0.0
 10
70.82392847621763
 20
-79.93551701560641
 30
0.0
 10
70.81152613247073
 20
-79.95601533374364
 30
0.0
 10
71.0316677339782
 20
-80.01992185499502
 30
0.0
 10
71.05612791192347
 20
-80.02681204596553
 30
0.0
 10
71.13915471311799
 20
-80.05643986713868
 30
0.0
 10
71.20254447004659
 20
-79.96290552471415
 30
0.0
 10
71.22941621483155
 20
-79.88297930945635
 30
0.0
 10
71.24664169225778
 20
-79.8032253489728
 30
0.0
 10
71.24664169225778
 20
-79.8032253489728
 30
0.0
 10
70.9021321437328
 20
-79.8032253489728
 30
0.0
 10
70.9021321437328
 20
-79.8032253489728
 30
0.0
  0
HATCH
  5
B9
330
8B
100
AcDbEntity
  8
_U+30EC_U+30A4_U+30E4_U+30FC 1
 62
   179
420
  2234388
100
AcDbHatch
 10
0.0
 20
0.0
 30
0.0
210
0.0
220
0.0
230
1.0
  2
SOLID
 70
     1
 71
     0
 91
        3
 92
        1
 93
        1
 72
     4
 94
        3
 73
     0
 74
     1
 95
      242
 96
      238
 40
0.0
 40
0.0
 40
0.0
 40
0.0
 40
1.0
 40
1.0
 40
1.0
 40
2.0
 40
2.0
 40
2.0
 40
3.0
 40
3.0
 40
3.0
 40
4.0
 40
4.0
 40
4.0
 40
5.0
 40
5.0
 40
5.0
 40
6.0
 40
6.0
 40
6.0
 40
7.0
 40
7.0
 40
7.0
 40
8.0
 40
8.0
 40
8.0
 40
9.0
 40
9.0
 40
9.0
 40
10.0
 40
10.0
 40
10.0
 40
11.0
 40
11.0
 40
11.0
 40
12.0
 40
12.0
 40
12.0
 40
13.0
 40
13.0
 40
13.0
 40
14.0
 40
14.0
 40
14.0
 40
15.0
 40
15.0
 40
15.0
 40
16.0
 40
16.0
 40
16.0
 40
17.0
 40
17.0
 40
17.0
 40
18.0
 40
18.0
 40
18.0
 40
19.0
 40
19.0
 40
19.0
 40
20.0
 40
20.0
 40
20.0
 40
21.0
 40
21.0
 40
21.0
 40
22.0
 40
22.0
 40
22.0
 40
23.0
 40
23.0
 40
23.0
 40
24.0
 40
24.0
 40
24.0
 40
25.0
 40
25.0
 40
25.0
 40
26.0
 40
26.0
 40
26.0
 40
27.0
 40
27.0
 40
27.0
 40
28.0
 40
28.0
 40
28.0
 40
29.0
 40
29.0
 40
29.0
 40
30.0
 40
30.0
 40
30.0
 40
31.0
 40
31.0
 40
31.0
 40
32.0
 40
32.0
 40
32.0
 40
33.0
 40
33.0
 40
33.0
 40
34.0
 40
34.0
 40
34.0
 40
35.0
 40
35.0
 40
35.0
 40
36.0
 40
36.0
 40
36.0
 40
37.0
 40
37.0
 40
37.0
 40
38.0
 40
38.0
 40
38.0
 40
39.0
 40
39.0
 40
39.0
 40
40.0
 40
40.0
 40
40.0
 40
41.0
 40
41.0
 40
41.0
 40
42.0
 40
42.0
 40
42.0
 40
43.0
 40
43.0
 40
43.0
 40
44.0
 40
44.0
 40
44.0
 40
45.0
 40
45.0
 40
45.0
 40
46.0
 40
46.0
 40
46.0
 40
47.0
 40
47.0
 40
47.0
 40
48.0
 40
48.0
 40
48.0
 40
49.0
 40
49.0
 40
49.0
 40
50.0
 40
50.0
 40
50.0
 40
51.0
 40
51.0
 40
51.0
 40
52.0
 40
52.0
 40
52.0
 40
53.0
 40
53.0
 40
53.0
 40
54.0
 40
54.0
 40
54.0
 40
55.0
 40
55.0
 40
55.0
 40
56.0
 40
56.0
 40
56.0
 40
57.0
 40
57.0
 40
57.0
 40
58.0
 40
58.0
 40
58.0
 40
59.0
 40
59.0
 40
59.0
 40
60.0
 40
60.0
 40
60.0
 40
61.0
 40
61.0
 40
61.0
 40
62.0
 40
62.0
 40
62.0
 40
63.0
 40
63.0
 40
63.0
 40
64.0
 40
64.0
 40
64.0
 40
65.0
 40
65.0
 40
65.0
 40
66.0
 40
66.0
 40
66.0
 40
67.0
 40
67.0
 40
67.0
 40
68.0
 40
68.0
 40
68.0
 40
69.0
 40
69.0
 40
69.0
 40
70.0
 40
70.0
 40
70.0
 40
71.0
 40
71.0
 40
71.0
 40
72.0
 40
72.0
 40
72.0
 40
73.0
 40
73.0
 40
73.0
 40
74.0
 40
74.0
 40
74.0
 40
75.0
 40
75.0
 40
75.0
 40
76.0
 40
76.0
 40
76.0
 40
77.0
 40
77.0
 40
77.0
 40
78.0
 40
78.0
 40
78.0
 40
79.0
 40
79.0
 40
79.0
 40
79.0
 10
71.55463322863912
 20
-79.38774683345167
 10
71.55463322863912
 20
-79.38774683345167
 10
71.26145560284436
 20
-79.38774683345167
 10
71.26145560284436
 20
-79.38774683345167
 10
71.26145560284436
 20
-79.38774683345167
 10
70.94106172271613
 20
-79.38774683345167
 10
70.94106172271613
 20
-79.38774683345167
 10
70.94106172271613
 20
-79.38774683345167
 10
71.08782279038778
 20
-79.43339434863124
 10
71.08782279038778
 20
-79.43339434863124
 10
71.09988062458615
 20
-79.43804522753632
 10
71.11469453517272
 20
-79.44476316373256
 10
71.11469453517272
 20
-79.45854354567356
 10
71.11469453517272
 20
-79.4812811758762
 10
71.07817652302907
 20
-79.48817136684671
 10
71.0537163450838
 20
-79.4928222457518
 10
71.0413140013369
 20
-79.51779918801986
 10
71.00720755603292
 20
-79.58859590024174
 10
70.98515894492732
 20
-79.63648272748672
 10
70.98515894492732
 20
-79.63648272748672
 10
71.29797361498801
 20
-79.63648272748672
 10
71.29797361498801
 20
-79.63648272748672
 10
71.40304902728813
 20
-79.63648272748672
 10
71.63042532931462
 20
-79.6320041033559
 10
71.79406736486399
 20
-79.62287460031997
 10
71.79406736486399
 20
-79.62287460031997
 10
71.79406736486399
 20
-79.81459416407414
 10
71.79406736486399
 20
-79.81459416407414
 10
71.69863821992257
 20
-79.80994328516904
 10
71.67417804197729
 20
-79.80994328516904
 10
71.46678329376525
 20
-79.80546466103822
 10
71.42992077207307
 20
-79.97203502775005
 10
71.37858884934286
 20
-80.05885143397835
 10
71.32725692661263
 20
-80.13412677033105
 10
71.46678329376525
 20
-80.19803329158243
 10
71.5887396739431
 20
-80.27106931586974
 10
71.70862899682979
 20
-80.35995277938918
 10
71.70862899682979
 20
-80.35995277938918
 10
71.57185870606537
 20
-80.54030352804202
 10
71.57185870606537
 20
-80.54030352804202
 10
71.5446424517319
 20
-80.51980520990477
 10
71.53017305069385
 20
-80.51067570686887
 10
71.40063746044845
 20
-80.41938067650975
 10
71.34448240403889
 20
-80.378211785461
 10
71.2759250038824
 20
-80.33945446125195
 10
71.1832519353292
 20
-80.29156763400697
 10
70.93865015587645
 20
-80.49241670079704
 10
70.70162758649127
 20
-80.51756589783936
 10
70.36676430532498
 20
-80.54943303107792
 10
70.36676430532498
 20
-80.54943303107792
 10
70.24721949198681
 20
-80.35547415525836
 10
70.24721949198681
 20
-80.35547415525836
 10
70.6137776516174
 20
-80.35099553112754
 10
70.81669377569861
 20
-80.32343476724553
 10
70.99239364544636
 20
-80.20492348255294
 10
70.85562335468192
 20
-80.15014646433747
 10
70.75295950922148
 20
-80.12034638839006
 10
70.71161836339849
 20
-80.10673826122331
 10
70.68956975229288
 20
-80.13636608239646
 10
70.67234427486665
 20
-80.1568644005337
 10
70.64064939640234
 20
-80.19338241267735
 10
70.64064939640234
 20
-80.19338241267735
 10
70.41327309437585
 20
-80.10432669438364
 10
70.41327309437585
 20
-80.10432669438364
 10
70.50870223931727
 20
-80.0176825429296
 10
70.5793266967649
 20
-79.91501869746916
 10
70.64547253008169
 20
-79.80546466103822
 10
70.42567543812275
 20
-79.80994328516904
 10
70.40121526017748
 20
-79.80994328516904
 10
70.30578611523606
 20
-79.81459416407414
 10
70.30578611523606
 20
-79.81459416407414
 10
70.30578611523606
 20
-79.62287460031997
 10
70.30578611523606
 20
-79.62287460031997
 10
70.46701658394575
 20
-79.62959253651621
 10
70.70886228701029
 20
-79.63424341542131
 10
70.73849010818344
 20
-79.63424341542131
 10
70.75778264290084
 20
-79.59772540327765
 10
70.82151690937796
 20
-79.46767304870947
 10
70.84356552048355
 20
-79.38774683345167
 10
70.82151690937796
 20
-79.38774683345167
 10
70.61618921845707
 20
-79.39463702442218
 10
70.39122448327025
 20
-79.40824515158891
 10
70.39122448327025
 20
-79.40824515158891
 10
70.39122448327025
 20
-79.5520778880981
 10
70.39122448327025
 20
-79.5520778880981
 10
70.33506942686068
 20
-79.57946639720583
 10
70.2665120267042
 20
-79.61374509728407
 10
70.11286076806206
 20
-79.68436955473169
 10
70.11286076806206
 20
-79.68436955473169
 10
70.11286076806206
 20
-79.84198267318187
 10
70.11286076806206
 20
-79.84198267318187
 10
70.11286076806206
 20
-79.84198267318187
 10
70.11286076806206
 20
-80.34634465222244
 10
70.11286076806206
 20
-80.34634465222244
 10
70.11286076806206
 20
-80.48328719776113
 10
70.07117511269054
 20
-80.54719371901251
 10
69.74354653204328
 20
-80.5380642159766
 10
69.74354653204328
 20
-80.5380642159766
 10
69.62400171870512
 20
-80.31447751898388
 10
69.62400171870512
 20
-80.31447751898388
 10
69.69738225254093
 20
-80.32808564615063
 10
69.75353730895051
 20
-80.33273652505571
 10
69.80004609800137
 20
-80.33273652505571
 10
69.88789603287525
 20
-80.33273652505571
 10
69.89995386707362
 20
-80.30758732801338
 10
69.89995386707362
 20
-80.2367906157915
 10
69.89995386707362
 20
-80.2367906157915
 10
69.89995386707362
 20
-79.7734252730254
 10
69.89995386707362
 20
-79.7734252730254
 10
69.78764375425447
 20
-79.81683347613955
 10
69.76800670998855
 20
-79.82372366711004
 10
69.71426322041866
 20
-79.84422198524729
 10
69.7094400867393
 20
-79.86695961544993
 10
69.70461695305995
 20
-79.89899900346275
 10
69.68256834195437
 20
-79.89899900346275
 10
69.67292207459566
 20
-79.89899900346275
 10
69.66051973084876
 20
-79.89452037933192
 10
69.65328503032974
 20
-79.86937118228961
 10
69.65328503032974
 20
-79.86937118228961
 10
69.59230684024081
 20
-79.66163192452905
 10
69.59230684024081
 20
-79.66163192452905
 10
69.76077200946953
 20
-79.6113335304444
 10
69.83656411014503
 20
-79.58635658817633
 10
69.89995386707362
 20
-79.56344670319942
 10
69.89995386707362
 20
-79.56344670319942
 10
69.89995386707362
 20
-79.11834036650514
 10
69.89995386707362
 20
-79.11834036650514
 10
69.89995386707362
 20
-79.11834036650514
 10
69.8389756769847
 20
-79.11834036650514
 10
69.8389756769847
 20
-79.11834036650514
 10
69.8389756769847
 20
-79.11834036650514
 10
69.74871417527116
 20
-79.11834036650514
 10
69.74871417527116
 20
-79.11834036650514
 10
69.67051050775599
 20
-79.11834036650514
 10
69.66051973084876
 20
-79.11834036650514
 10
69.61917858502576
 20
-79.12523055747565
 10
69.61917858502576
 20
-79.12523055747565
 10
69.61917858502576
 20
-78.91525198764967
 10
69.61917858502576
 20
-78.91525198764967
 10
69.65087346349006
 20
-78.92214217862016
 10
69.66051973084876
 20
-78.92214217862016
 10
69.74113496520361
 20
-78.92214217862016
 10
69.74113496520361
 20
-78.92214217862016
 10
69.89513073339428
 20
-78.92214217862016
 10
69.89513073339428
 20
-78.92214217862016
 10
69.89513073339428
 20
-78.84686684226746
 10
69.89513073339428
 20
-78.75781112397374
 10
69.8927191665546
 20
-78.75316024506866
 10
69.8830728991959
 20
-78.5592013692491
 10
69.8830728991959
 20
-78.53870305111185
 10
69.88066133235623
 20
-78.48857691180147
 10
69.88066133235623
 20
-78.48857691180147
 10
70.12974173593979
 20
-78.49753416006313
 10
70.12974173593979
 20
-78.49753416006313
 10
70.14214407968669
 20
-78.49753416006313
 10
70.16660425763196
 20
-78.4999457269028
 10
70.16660425763196
 20
-78.51820473297462
 10
70.16660425763196
 20
-78.53870305111185
 10
70.14937878020571
 20
-78.55007186621317
 10
70.12009546858108
 20
-78.57057018435042
 10
70.12009546858108
 20
-78.62534720256589
 10
70.11286076806206
 20
-78.87201603930978
 10
70.11527233490175
 20
-78.92214217862016
 10
70.26410045986454
 20
-78.92214217862016
 10
70.2789143704511
 20
-78.92214217862016
 10
70.39122448327025
 20
-78.91301267558426
 10
70.39122448327025
 20
-78.91301267558426
 10
70.39122448327025
 20
-79.12299124541023
 10
70.39122448327025
 20
-79.12299124541023
 10
70.34747177060758
 20
-79.12075193334482
 10
70.26926810309241
 20
-79.11610105443972
 10
70.11286076806206
 20
-79.11834036650514
 10
70.11286076806206
 20
-79.11834036650514
 10
70.11286076806206
 20
-79.48352048794162
 10
70.11286076806206
 20
-79.48352048794162
 10
70.17625052499066
 20
-79.45854354567356
 10
70.25204262566616
 20
-79.42874346972616
 10
70.30819768207573
 20
-79.40376652745809
 10
70.30819768207573
 20
-79.40376652745809
 10
70.30819768207573
 20
-79.21204696370394
 10
70.30819768207573
 20
-79.21204696370394
 10
70.4401448391608
 20
-79.22565509087067
 10
70.57691512992523
 20
-79.22565509087067
 10
70.71161836339849
 20
-79.22565509087067
 10
70.68474661861354
 20
-79.12299124541023
 10
70.65270723060071
 20
-79.03393552711653
 10
70.5793266967649
 20
-78.8902750453816
 10
70.5283392835832
 20
-78.89251435744701
 10
70.43291013864177
 20
-78.89699298157784
 10
70.38881291643058
 20
-78.89923229364325
 10
70.38881291643058
 20
-78.89923229364325
 10
70.38881291643058
 20
-78.70527341782369
 10
70.38881291643058
 20
-78.70527341782369
 10
70.53316241726255
 20
-78.7144029208596
 10
70.73332246495556
 20
-78.71905379976468
 10
70.82875160989698
 20
-78.71905379976468
 10
70.82875160989698
 20
-78.71905379976468
 10
70.9241807548384
 20
-78.71905379976468
 10
70.9241807548384
 20
-78.71905379976468
 10
70.9241807548384
 20
-78.54335393001695
 10
70.9241807548384
 20
-78.53181286014136
 10
70.92176918799873
 20
-78.47255721779506
 10
70.92176918799873
 20
-78.47255721779506
 10
71.18084036848951
 20
-78.4999457269028
 10
71.18084036848951
 20
-78.4999457269028
 10
71.18566350216886
 20
-78.4999457269028
 10
71.21012368011414
 20
-78.50218503896821
 10
71.21012368011414
 20
-78.52044404504004
 10
71.21012368011414
 20
-78.53646373904644
 10
71.19772133636724
 20
-78.54559324208236
 10
71.16602645790294
 20
-78.56161293608876
 10
71.15879175738392
 20
-78.63223739353639
 10
71.15638019054424
 20
-78.6551472785133
 10
71.15638019054424
 20
-78.71905379976468
 10
71.15638019054424
 20
-78.71905379976468
 10
71.26627873652372
 20
-78.71905379976468
 10
71.26627873652372
 20
-78.71905379976468
 10
71.36136337191661
 20
-78.71905379976468
 10
71.56186792915815
 20
-78.7144029208596
 10
71.70621742999012
 20
-78.70527341782369
 10
71.70621742999012
 20
-78.70527341782369
 10
71.70621742999012
 20
-78.89923229364325
 10
71.70621742999012
 20
-78.89923229364325
 10
71.67176647513762
 20
-78.89699298157784
 10
71.5349961843732
 20
-78.89251435744701
 10
71.48848739532232
 20
-78.8902750453816
 10
71.4716064274446
 20
-78.94505206359707
 10
71.43233233891276
 20
-79.06597491512935
 10
71.35654023823726
 20
-79.21652558783477
 10
71.4054605941278
 20
-79.21652558783477
 10
71.72550996470751
 20
-79.19602726969752
 10
71.79647893170366
 20
-79.19378795763211
 10
71.79647893170366
 20
-79.19378795763211
 10
71.79647893170366
 20
-79.3922254575825
 10
71.79647893170366
 20
-79.3922254575825
 10
71.76237248639968
 20
-79.3922254575825
 10
71.74273544213376
 20
-79.38774683345167
 10
71.55463322863912
 20
-79.38774683345167
 97
        0
 97
        0
 92
        1
 93
        1
 72
     4
 94
        3
 73
     0
 74
     1
 95
       20
 96
       16
 40
0.0
 40
0.0
 40
0.0
 40
0.0
 40
1.0
 40
1.0
 40
1.0
 40
2.0
 40
2.0
 40
2.0
 40
3.0
 40
3.0
 40
3.0
 40
4.0
 40
4.0
 40
4.0
 40
5.0
 40
5.0
 40
5.0
 40
5.0
 10
70.82875160989698
 20
-78.88562416647652
 10
70.82875160989698
 20
-78.88562416647652
 10
70.79223359775334
 20
-78.88562416647652
 10
70.79223359775334
 20
-78.88562416647652
 10
70.84597708732323
 20
-78.99293889084204
 10
70.88249509946688
 20
-79.07958304229608
 10
70.92176918799873
 20
-79.21652558783477
 10
70.92176918799873
 20
-79.21652558783477
 10
71.16120332422359
 20
-79.21652558783477
 10
71.16120332422359
 20
-79.21652558783477
 10
71.19772133636724
 20
-79.11610105443972
 10
71.2245930811522
 20
-79.0248060240806
 10
71.25146482593713
 20
-78.88562416647652
 10
71.25146482593713
 20
-78.88562416647652
 10
70.82875160989698
 20
-78.88562416647652
 10
70.82875160989698
 20
-78.88562416647652
 97
        0
 97
        0
 92
        1
 93
        1
 72
     4
 94
        3
 73
     0
 74
     1
 95
       17
 96
       13
 40
0.0
 40
0.0
 40
0.0
 40
0.0
 40
1.0
 40
1.0
 40
1.0
 40
2.0
 40
2.0
 40
2.0
 40
3.0
 40
3.0
 40
3.0
 40
4.0
 40
4.0
 40
4.0
 40
4.0
 10
70.9021321437328
 20
-79.8032253489728
 10
70.88249509946688
 20
-79.83509248221137
 10
70.82392847621763
 20
-79.93551701560641
 10
70.81152613247073
 20
-79.95601533374364
 10
71.0316677339782
 20
-80.01992185499502
 10
71.05612791192347
 20
-80.02681204596553
 10
71.13915471311799
 20
-80.05643986713868
 10
71.20254447004659
 20
-79.96290552471415
 10
71.22941621483155
 20
-79.88297930945635
 10
71.24664169225778
 20
-79.8032253489728
 10
71.24664169225778
 20
-79.8032253489728
 10
70.9021321437328
 20
-79.8032253489728
 10
70.9021321437328
 20
-79.8032253489728
 97
        0
 97
        0
 75
     2
 76
     1
 98
        0
  0
SPLINE
  5
BA
330
8B
100
AcDbEntity
  8
_U+30EC_U+30A4_U+30E4_U+30FC 1
370
     0
100
AcDbSpline
210
0.0
220
0.0
230
1.0
 70
    11
 71
     3
 72
   203
 73
   199
 74
     0
 42
0.0000000001
 43
0.0000000001
 12
1.0
 22
0.0
 32
0.0
 13
1.0
 23
0.0
 33
0.0
 40
0.0
 40
0.0
 40
0.0
 40
0.0
 40
1.0
 40
1.0
 40
1.0
 40
2.0
 40
2.0
 40
2.0
 40
3.0
 40
3.0
 40
3.0
 40
4.0
 40
4.0
 40
4.0
 40
5.0
 40
5.0
 40
5.0
 40
6.0
 40
6.0
 40
6.0
 40
7.0
 40
7.0
 40
7.0
 40
8.0
 40
8.0
 40
8.0
 40
9.0
 40
9.0
 40
9.0
 40
10.0
 40
10.0
 40
10.0
 40
11.0
 40
11.0
 40
11.0
 40
12.0
 40
12.0
 40
12.0
 40
13.0
 40
13.0
 40
13.0
 40
14.0
 40
14.0
 40
14.0
 40
15.0
 40
15.0
 40
15.0
 40
16.0
 40
16.0
 40
16.0
 40
17.0
 40
17.0
 40
17.0
 40
18.0
 40
18.0
 40
18.0
 40
19.0
 40
19.0
 40
19.0
 40
20.0
 40
20.0
 40
20.0
 40
21.0
 40
21.0
 40
21.0
 40
22.0
 40
22.0
 40
22.0
 40
23.0
 40
23.0
 40
23.0
 40
24.0
 40
24.0
 40
24.0
 40
25.0
 40
25.0
 40
25.0
 40
26.0
 40
26.0
 40
26.0
 40
27.0
 40
27.0
 40
27.0
 40
28.0
 40
28.0
 40
28.0
 40
29.0
 40
29.0
 40
29.0
 40
30.0
 40
30.0
 40
30.0
 40
31.0
 40
31.0
 40
31.0
 40
32.0
 40
32.0
 40
32.0
 40
33.0
 40
33.0
 40
33.0
 40
34.0
 40
34.0
 40
34.0
 40
35.0
 40
35.0
 40
35.0
 40
36.0
 40
36.0
 40
36.0
 40
37.0
 40
37.0
 40
37.0
 40
38.0
 40
38.0
 40
38.0
 40
39.0
 40
39.0
 40
39.0
 40
40.0
 40
40.0
 40
40.0
 40
41.0
 40
41.0
 40
41.0
 40
42.0
 40
42.0
 40
42.0
 40
43.0
 40
43.0
 40
43.0
 40
44.0
 40
44.0
 40
44.0
 40
45.0
 40
45.0
 40
45.0
 40
46.0
 40
46.0
 40
46.0
 40
47.0
 40
47.0
 40
47.0
 40
48.0
 40
48.0
 40
48.0
 40
49.0
 40
49.0
 40
49.0
 40
50.0
 40
50.0
 40
50.0
 40
51.0
 40
51.0
 40
51.0
 40
52.0
 40
52.0
 40
52.0
 40
53.0
 40
53.0
 40
53.0
 40
54.0
 40
54.0
 40
54.0
 40
55.0
 40
55.0
 40
55.0
 40
56.0
 40
56.0
 40
56.0
 40
57.0
 40
57.0
 40
57.0
 40
58.0
 40
58.0
 40
58.0
 40
59.0
 40
59.0
 40
59.0
 40
60.0
 40
60.0
 40
60.0
 40
61.0
 40
61.0
 40
61.0
 40
62.0
 40
62.0
 40
62.0
 40
63.0
 40
63.0
 40
63.0
 40
64.0
 40
64.0
 40
64.0
 40
65.0
 40
65.0
 40
65.0
 40
66.0
 40
66.0
 40
66.0
 40
66.0
 10
73.50524629238758
 20
-79.46078285773898
 30
0.0
 10
73.50524629238758
 20
-79.46078285773898
 30
0.0
 10
72.85997990800028
 20
-79.46078285773898
 30
0.0
 10
72.85997990800028
 20
-79.46078285773898
 30
0.0
 10
72.84792207380191
 20
-79.50866968498394
 30
0.0
 10
72.83793129689468
 20
-79.54294838506219
 30
0.0
 10
72.82346189585664
 20
-79.58411727611092
 30
0.0
 10
72.85274520748126
 20
-79.58411727611092
 30
0.0
 10
72.86997068490751
 20
-79.58635658817633
 30
0.0
 10
72.87720538542654
 20
-79.58635658817633
 30
0.0
 10
72.87720538542654
 20
-79.58635658817633
 30
0.0
 10
73.0945909105458
 20
-79.58635658817633
 30
0.0
 10
73.0945909105458
 20
-79.58635658817633
 30
0.0
 10
73.0945909105458
 20
-79.58635658817633
 30
0.0
 10
73.52729490349319
 20
-79.58635658817633
 30
0.0
 10
73.52729490349319
 20
-79.58635658817633
 30
0.0
 10
73.58586152674242
 20
-79.58635658817633
 30
0.0
 10
73.91349010738969
 20
-79.57257620623533
 30
0.0
 10
73.95000811953334
 20
-79.57257620623533
 30
0.0
 10
73.94759655269365
 20
-79.60237628218275
 30
0.0
 10
73.94518498585398
 20
-79.62287460031997
 30
0.0
 10
73.94518498585398
 20
-79.65474173355854
 30
0.0
 10
73.94277341901432
 20
-79.68902043363677
 30
0.0
 10
73.94277341901432
 20
-79.83509248221137
 30
0.0
 10
73.94277341901432
 20
-79.86472030338452
 30
0.0
 10
73.94277341901432
 20
-79.86472030338452
 30
0.0
 10
73.94277341901432
 20
-80.12947589142597
 30
0.0
 10
73.94277341901432
 20
-80.12947589142597
 30
0.0
 10
73.94277341901432
 20
-80.17736271867093
 30
0.0
 10
73.94759655269365
 20
-80.3897528553366
 30
0.0
 10
73.952419686373
 20
-80.554083909983
 30
0.0
 10
73.952419686373
 20
-80.554083909983
 30
0.0
 10
73.69093693904254
 20
-80.554083909983
 30
0.0
 10
73.69093693904254
 20
-80.554083909983
 30
0.0
 10
73.69093693904254
 20
-80.554083909983
 30
0.0
 10
73.69334850588223
 20
-80.51756589783936
 30
0.0
 10
73.69334850588223
 20
-80.51756589783936
 30
0.0
 10
73.69334850588223
 20
-80.51756589783936
 30
0.0
 10
72.88202851910589
 20
-80.51756589783936
 30
0.0
 10
72.88202851910589
 20
-80.51756589783936
 30
0.0
 10
72.88202851910589
 20
-80.51756589783936
 30
0.0
 10
72.88444008594556
 20
-80.554083909983
 30
0.0
 10
72.88444008594556
 20
-80.554083909983
 30
0.0
 10
72.88444008594556
 20
-80.554083909983
 30
0.0
 10
72.63294811552232
 20
-80.554083909983
 30
0.0
 10
72.63294811552232
 20
-80.554083909983
 30
0.0
 10
72.63777124920168
 20
-80.49465601286245
 30
0.0
 10
72.63777124920168
 20
-80.48104788569572
 30
0.0
 10
72.6450059497207
 20
-80.35771346732378
 30
0.0
 10
72.64741751656037
 20
-80.32808564615063
 30
0.0
 10
72.64982908340005
 20
-80.18425290964144
 30
0.0
 10
72.64982908340005
 20
-80.1637545915042
 30
0.0
 10
72.64982908340005
 20
-80.1637545915042
 30
0.0
 10
72.64982908340005
 20
-79.94464651864232
 30
0.0
 10
72.64982908340005
 20
-79.94464651864232
 30
0.0
 10
72.48859861469036
 20
-80.2138807308146
 30
0.0
 10
72.2932617006767
 20
-80.35547415525836
 30
0.0
 10
72.17096081095032
 20
-80.42627086748024
 30
0.0
 10
72.17096081095032
 20
-80.42627086748024
 30
0.0
 10
71.97045625370878
 20
-80.27554794000056
 30
0.0
 10
71.97045625370878
 20
-80.27554794000056
 30
0.0
 10
72.07312009916922
 20
-80.22077092178509
 30
0.0
 10
72.23917370155827
 20
-80.12723657936056
 30
0.0
 10
72.3983371129768
 20
-79.91725800953458
 30
0.0
 10
72.50341252527693
 20
-79.78031546399589
 30
0.0
 10
72.5788601164039
 20
-79.62511391238539
 30
0.0
 10
72.61813420493574
 20
-79.46078285773898
 30
0.0
 10
72.35423989076561
 20
-79.46302216980439
 30
0.0
 10
72.14650063300505
 20
-79.46991236077488
 30
0.0
 10
72.03660208702557
 20
-79.4721516728403
 30
0.0
 10
72.03660208702557
 20
-79.4721516728403
 30
0.0
 10
72.03660208702557
 20
-79.28043210908615
 30
0.0
 10
72.03660208702557
 20
-79.28043210908615
 30
0.0
 10
72.26363387950354
 20
-79.28732230005664
 30
0.0
 10
72.5912624601508
 20
-79.29197317896173
 30
0.0
 10
72.76489527260739
 20
-79.29197317896173
 30
0.0
 10
72.76489527260739
 20
-79.29197317896173
 30
0.0
 10
73.01156410935128
 20
-79.29197317896173
 30
0.0
 10
73.01156410935128
 20
-79.29197317896173
 30
0.0
 10
73.01156410935128
 20
-79.29197317896173
 30
0.0
 10
73.01156410935128
 20
-79.17552895156028
 30
0.0
 10
73.01156410935128
 20
-79.17552895156028
 30
0.0
 10
73.01156410935128
 20
-79.17552895156028
 30
0.0
 10
72.84309894012256
 20
-79.17552895156028
 30
0.0
 10
72.84309894012256
 20
-79.17552895156028
 30
0.0
 10
72.64741751656037
 20
-79.17552895156028
 30
0.0
 10
72.4520806025467
 20
-79.1800075756911
 30
0.0
 10
72.25881074582419
 20
-79.18689776666162
 30
0.0
 10
72.25881074582419
 20
-79.18689776666162
 30
0.0
 10
72.25881074582419
 20
-79.00206839387796
 30
0.0
 10
72.25881074582419
 20
-79.00206839387796
 30
0.0
 10
72.43726669196013
 20
-79.01343720897928
 30
0.0
 10
72.65224065023972
 20
-79.01343720897928
 30
0.0
 10
72.84309894012256
 20
-79.01343720897928
 30
0.0
 10
72.84309894012256
 20
-79.01343720897928
 30
0.0
 10
73.01156410935128
 20
-79.01343720897928
 30
0.0
 10
73.01156410935128
 20
-79.01343720897928
 30
0.0
 10
73.01156410935128
 20
-79.01343720897928
 30
0.0
 10
73.01156410935128
 20
-78.88562416647652
 30
0.0
 10
73.01156410935128
 20
-78.88562416647652
 30
0.0
 10
73.01156410935128
 20
-78.88562416647652
 30
0.0
 10
72.85997990800028
 20
-78.88562416647652
 30
0.0
 10
72.85997990800028
 20
-78.88562416647652
 30
0.0
 10
72.80623641843039
 20
-78.88562416647652
 30
0.0
 10
72.57162541588488
 20
-78.89475366951243
 30
0.0
 10
72.52270505999432
 20
-78.89475366951243
 30
0.0
 10
72.28809405744882
 20
-78.89923229364325
 30
0.0
 10
72.20024412257494
 20
-78.90164386048292
 30
0.0
 10
72.10963811131288
 20
-78.90388317254833
 30
0.0
 10
72.10963811131288
 20
-78.90388317254833
 30
0.0
 10
72.10963811131288
 20
-78.70527341782369
 30
0.0
 10
72.10963811131288
 20
-78.70527341782369
 30
0.0
 10
72.24192977794647
 20
-78.7144029208596
 30
0.0
 10
72.2932617006767
 20
-78.7144029208596
 30
0.0
 10
72.73526745143424
 20
-78.7235324238955
 30
0.0
 10
72.66223142714695
 20
-78.62086857843506
 30
0.0
 10
72.63019203913412
 20
-78.59124075726191
 30
0.0
 10
72.58885089331112
 20
-78.55231117827859
 30
0.0
 10
72.58885089331112
 20
-78.55231117827859
 30
0.0
 10
72.79176701739235
 20
-78.46342771475915
 30
0.0
 10
72.79176701739235
 20
-78.46342771475915
 30
0.0
 10
72.83793129689468
 20
-78.50218503896821
 30
0.0
 10
72.88926321962491
 20
-78.54783255414777
 30
0.0
 10
72.97504609720762
 20
-78.66651609361462
 30
0.0
 10
72.97504609720762
 20
-78.66651609361462
 30
0.0
 10
72.84309894012256
 20
-78.72594399073519
 30
0.0
 10
72.84309894012256
 20
-78.72594399073519
 30
0.0
 10
72.84309894012256
 20
-78.72594399073519
 30
0.0
 10
72.85515677432093
 20
-78.72594399073519
 30
0.0
 10
72.85515677432093
 20
-78.72594399073519
 30
0.0
 10
72.85515677432093
 20
-78.72594399073519
 30
0.0
 10
73.4587375033367
 20
-78.72594399073519
 30
0.0
 10
73.4587375033367
 20
-78.72594399073519
 30
0.0
 10
73.4587375033367
 20
-78.72594399073519
 30
0.0
 10
73.34883895735724
 20
-78.67788490871595
 30
0.0
 10
73.34883895735724
 20
-78.67788490871595
 30
0.0
 10
73.38053383582154
 20
-78.63688827244148
 30
0.0
 10
73.44667966913833
 20
-78.55007186621317
 30
0.0
 10
73.46356063701606
 20
-78.47031790572964
 30
0.0
 10
73.46356063701606
 20
-78.47031790572964
 30
0.0
 10
73.71057398330846
 20
-78.53870305111185
 30
0.0
 10
73.71057398330846
 20
-78.53870305111185
 30
0.0
 10
73.72022025066717
 20
-78.54094236317727
 30
0.0
 10
73.74468042861244
 20
-78.55231117827859
 30
0.0
 10
73.74468042861244
 20
-78.5752210632555
 30
0.0
 10
73.74468042861244
 20
-78.61638995430424
 30
0.0
 10
73.66888832793695
 20
-78.61638995430424
 30
0.0
 10
73.64683971683135
 20
-78.61638995430424
 30
0.0
 10
73.63478188263298
 20
-78.63688827244148
 30
0.0
 10
73.60791013784802
 20
-78.68012422078137
 30
0.0
 10
73.57380369254405
 20
-78.7235324238955
 30
0.0
 10
74.03544648756753
 20
-78.71664223292501
 30
0.0
 10
74.06989744242003
 20
-78.7144029208596
 30
0.0
 10
74.1577473772939
 20
-78.70768498466336
 30
0.0
 10
74.1577473772939
 20
-78.70768498466336
 30
0.0
 10
74.1577473772939
 20
-78.90388317254833
 30
0.0
 10
74.1577473772939
 20
-78.90388317254833
 30
0.0
 10
74.1356987661883
 20
-78.90388317254833
 30
0.0
 10
74.10641545456367
 20
-78.90164386048292
 30
0.0
 10
73.85216740775223
 20
-78.89251435744701
 30
0.0
 10
73.793600784503
 20
-78.8902750453816
 30
0.0
 10
73.53935273769156
 20
-78.88562416647652
 30
0.0
 10
73.48802081496133
 20
-78.88562416647652
 30
0.0
 10
73.48802081496133
 20
-78.88562416647652
 30
0.0
 10
73.23894041137777
 20
-78.88562416647652
 30
0.0
 10
73.23894041137777
 20
-78.88562416647652
 30
0.0
 10
73.23894041137777
 20
-78.88562416647652
 30
0.0
 10
73.23894041137777
 20
-79.01343720897928
 30
0.0
 10
73.23894041137777
 20
-79.01343720897928
 30
0.0
 10
73.23894041137777
 20
-79.01343720897928
 30
0.0
 10
73.43944496861931
 20
-79.01343720897928
 30
0.0
 10
73.43944496861931
 20
-79.01343720897928
 30
0.0
 10
73.62754718211394
 20
-79.01343720897928
 30
0.0
 10
73.8473442740729
 20
-79.01343720897928
 30
0.0
 10
74.0282117870485
 20
-79.00206839387796
 30
0.0
 10
74.0282117870485
 20
-79.00206839387796
 30
0.0
 10
74.0282117870485
 20
-79.18689776666162
 30
0.0
 10
74.0282117870485
 20
-79.18689776666162
 30
0.0
 10
73.78636608398396
 20
-79.1777682636257
 30
0.0
 10
73.55898978195748
 20
-79.17552895156028
 30
0.0
 10
73.43944496861931
 20
-79.17552895156028
 30
0.0
 10
73.43944496861931
 20
-79.17552895156028
 30
0.0
 10
73.23894041137777
 20
-79.17552895156028
 30
0.0
 10
73.23894041137777
 20
-79.17552895156028
 30
0.0
 10
73.23894041137777
 20
-79.17552895156028
 30
0.0
 10
73.23894041137777
 20
-79.29197317896173
 30
0.0
 10
73.23894041137777
 20
-79.29197317896173
 30
0.0
 10
73.23894041137777
 20
-79.29197317896173
 30
0.0
 10
73.50524629238758
 20
-79.29197317896173
 30
0.0
 10
73.50524629238758
 20
-79.29197317896173
 30
0.0
 10
73.65924206057825
 20
-79.29197317896173
 30
0.0
 10
73.99169377490486
 20
-79.28732230005664
 30
0.0
 10
74.2335394779694
 20
-79.28043210908615
 30
0.0
 10
74.2335394779694
 20
-79.28043210908615
 30
0.0
 10
74.2335394779694
 20
-79.4721516728403
 30
0.0
 10
74.2335394779694
 20
-79.4721516728403
 30
0.0
 10
74.01098630962225
 20
-79.4652614818698
 30
0.0
 10
73.64959579321955
 20
-79.46078285773898
 30
0.0
 10
73.50524629238758
 20
-79.46078285773898
 30
0.0
  0
POLYLINE
  5
BB
330
8B
100
AcDbEntity
  8
_U+30EC_U+30A4_U+30E4_U+30FC 1
370
     0
100
AcDb2dPolyline
 66
     1
 10
0.0
 20
0.0
 30
0.0
  0
VERTEX
  5
BC
330
BB
100
AcDbEntity
  8
_U+30EC_U+30A4_U+30E4_U+30FC 1
370
     0
100
AcDbVertex
100
AcDb2dVertex
 10
73.6957600727219
 20
-79.73690726088175
 30
0.0
  0
VERTEX
  5
BD
330
BB
100
AcDbEntity
  8
_U+30EC_U+30A4_U+30E4_U+30FC 1
370
     0
100
AcDbVertex
100
AcDb2dVertex
 10
72.8796169522662
 20
-79.73690726088175
 30
0.0
  0
VERTEX
  5
BE
330
BB
100
AcDbEntity
  8
_U+30EC_U+30A4_U+30E4_U+30FC 1
370
     0
100
AcDbVertex
100
AcDb2dVertex
 10
72.8796169522662
 20
-79.8533514882832
 30
0.0
  0
VERTEX
  5
BF
330
BB
100
AcDbEntity
  8
_U+30EC_U+30A4_U+30E4_U+30FC 1
370
     0
100
AcDbVertex
100
AcDb2dVertex
 10
73.6957600727219
 20
-79.8533514882832
 30
0.0
  0
VERTEX
  5
C0
330
BB
100
AcDbEntity
  8
_U+30EC_U+30A4_U+30E4_U+30FC 1
370
     0
100
AcDbVertex
100
AcDb2dVertex
 10
73.6957600727219
 20
-79.73690726088175
 30
0.0
  0
SEQEND
  5
C1
330
BB
100
AcDbEntity
  8
_U+30EC_U+30A4_U+30E4_U+30FC 1
370
     0
  0
POLYLINE
  5
C2
330
8B
100
AcDbEntity
  8
_U+30EC_U+30A4_U+30E4_U+30FC 1
370
     0
100
AcDb2dPolyline
 66
     1
 10
0.0
 20
0.0
 30
0.0
  0
VERTEX
  5
C3
330
C2
100
AcDbEntity
  8
_U+30EC_U+30A4_U+30E4_U+30FC 1
370
     0
100
AcDbVertex
100
AcDb2dVertex
 10
73.6957600727219
 20
-79.98805472175646
 30
0.0
  0
VERTEX
  5
C4
330
C2
100
AcDbEntity
  8
_U+30EC_U+30A4_U+30E4_U+30FC 1
370
     0
100
AcDbVertex
100
AcDb2dVertex
 10
72.8796169522662
 20
-79.98805472175646
 30
0.0
  0
VERTEX
  5
C5
330
C2
100
AcDbEntity
  8
_U+30EC_U+30A4_U+30E4_U+30FC 1
370
     0
100
AcDbVertex
100
AcDb2dVertex
 10
72.8796169522662
 20
-80.11121688535414
 30
0.0
  0
VERTEX
  5
C6
330
C2
100
AcDbEntity
  8
_U+30EC_U+30A4_U+30E4_U+30FC 1
370
     0
100
AcDbVertex
100
AcDb2dVertex
 10
73.6957600727219
 20
-80.11121688535414
 30
0.0
  0
VERTEX
  5
C7
330
C2
100
AcDbEntity
  8
_U+30EC_U+30A4_U+30E4_U+30FC 1
370
     0
100
AcDbVertex
100
AcDb2dVertex
 10
73.6957600727219
 20
-79.98805472175646
 30
0.0
  0
SEQEND
  5
C8
330
C2
100
AcDbEntity
  8
_U+30EC_U+30A4_U+30E4_U+30FC 1
370
     0
  0
POLYLINE
  5
C9
330
8B
100
AcDbEntity
  8
_U+30EC_U+30A4_U+30E4_U+30FC 1
370
     0
100
AcDb2dPolyline
 66
     1
 10
0.0
 20
0.0
 30
0.0
  0
VERTEX
  5
CA
330
C9
100
AcDbEntity
  8
_U+30EC_U+30A4_U+30E4_U+30FC 1
370
     0
100
AcDbVertex
100
AcDb2dVertex
 10
73.6957600727219
 20
-80.25039874295824
 30
0.0
  0
VERTEX
  5
CB
330
C9
100
AcDbEntity
  8
_U+30EC_U+30A4_U+30E4_U+30FC 1
370
     0
100
AcDbVertex
100
AcDb2dVertex
 10
72.8796169522662
 20
-80.25039874295824
 30
0.0
  0
VERTEX
  5
CC
330
C9
100
AcDbEntity
  8
_U+30EC_U+30A4_U+30E4_U+30FC 1
370
     0
100
AcDbVertex
100
AcDb2dVertex
 10
72.8796169522662
 20
-80.37373316133018
 30
0.0
  0
VERTEX
  5
CD
330
C9
100
AcDbEntity
  8
_U+30EC_U+30A4_U+30E4_U+30FC 1
370
     0
100
AcDbVertex
100
AcDb2dVertex
 10
73.6957600727219
 20
-80.37373316133018
 30
0.0
  0
VERTEX
  5
CE
330
C9
100
AcDbEntity
  8
_U+30EC_U+30A4_U+30E4_U+30FC 1
370
     0
100
AcDbVertex
100
AcDb2dVertex
 10
73.6957600727219
 20
-80.25039874295824
 30
0.0
  0
SEQEND
  5
CF
330
C9
100
AcDbEntity
  8
_U+30EC_U+30A4_U+30E4_U+30FC 1
370
     0
  0
HATCH
  5
D0
330
8B
100
AcDbEntity
  8
_U+30EC_U+30A4_U+30E4_U+30FC 1
 62
   179
420
  2234388
100
AcDbHatch
 10
0.0
 20
0.0
 30
0.0
210
0.0
220
0.0
230
1.0
  2
SOLID
 70
     1
 71
     0
 91
        4
 92
        1
 93
        1
 72
     4
 94
        3
 73
     0
 74
     1
 95
      203
 96
      199
 40
0.0
 40
0.0
 40
0.0
 40
0.0
 40
1.0
 40
1.0
 40
1.0
 40
2.0
 40
2.0
 40
2.0
 40
3.0
 40
3.0
 40
3.0
 40
4.0
 40
4.0
 40
4.0
 40
5.0
 40
5.0
 40
5.0
 40
6.0
 40
6.0
 40
6.0
 40
7.0
 40
7.0
 40
7.0
 40
8.0
 40
8.0
 40
8.0
 40
9.0
 40
9.0
 40
9.0
 40
10.0
 40
10.0
 40
10.0
 40
11.0
 40
11.0
 40
11.0
 40
12.0
 40
12.0
 40
12.0
 40
13.0
 40
13.0
 40
13.0
 40
14.0
 40
14.0
 40
14.0
 40
15.0
 40
15.0
 40
15.0
 40
16.0
 40
16.0
 40
16.0
 40
17.0
 40
17.0
 40
17.0
 40
18.0
 40
18.0
 40
18.0
 40
19.0
 40
19.0
 40
19.0
 40
20.0
 40
20.0
 40
20.0
 40
21.0
 40
21.0
 40
21.0
 40
22.0
 40
22.0
 40
22.0
 40
23.0
 40
23.0
 40
23.0
 40
24.0
 40
24.0
 40
24.0
 40
25.0
 40
25.0
 40
25.0
 40
26.0
 40
26.0
 40
26.0
 40
27.0
 40
27.0
 40
27.0
 40
28.0
 40
28.0
 40
28.0
 40
29.0
 40
29.0
 40
29.0
 40
30.0
 40
30.0
 40
30.0
 40
31.0
 40
31.0
 40
31.0
 40
32.0
 40
32.0
 40
32.0
 40
33.0
 40
33.0
 40
33.0
 40
34.0
 40
34.0
 40
34.0
 40
35.0
 40
35.0
 40
35.0
 40
36.0
 40
36.0
 40
36.0
 40
37.0
 40
37.0
 40
37.0
 40
38.0
 40
38.0
 40
38.0
 40
39.0
 40
39.0
 40
39.0
 40
40.0
 40
40.0
 40
40.0
 40
41.0
 40
41.0
 40
41.0
 40
42.0
 40
42.0
 40
42.0
 40
43.0
 40
43.0
 40
43.0
 40
44.0
 40
44.0
 40
44.0
 40
45.0
 40
45.0
 40
45.0
 40
46.0
 40
46.0
 40
46.0
 40
47.0
 40
47.0
 40
47.0
 40
48.0
 40
48.0
 40
48.0
 40
49.0
 40
49.0
 40
49.0
 40
50.0
 40
50.0
 40
50.0
 40
51.0
 40
51.0
 40
51.0
 40
52.0
 40
52.0
 40
52.0
 40
53.0
 40
53.0
 40
53.0
 40
54.0
 40
54.0
 40
54.0
 40
55.0
 40
55.0
 40
55.0
 40
56.0
 40
56.0
 40
56.0
 40
57.0
 40
57.0
 40
57.0
 40
58.0
 40
58.0
 40
58.0
 40
59.0
 40
59.0
 40
59.0
 40
60.0
 40
60.0
 40
60.0
 40
61.0
 40
61.0
 40
61.0
 40
62.0
 40
62.0
 40
62.0
 40
63.0
 40
63.0
 40
63.0
 40
64.0
 40
64.0
 40
64.0
 40
65.0
 40
65.0
 40
65.0
 40
66.0
 40
66.0
 40
66.0
 40
66.0
 10
73.50524629238758
 20
-79.46078285773898
 10
73.50524629238758
 20
-79.46078285773898
 10
72.85997990800028
 20
-79.46078285773898
 10
72.85997990800028
 20
-79.46078285773898
 10
72.84792207380191
 20
-79.50866968498394
 10
72.83793129689468
 20
-79.54294838506219
 10
72.82346189585664
 20
-79.58411727611092
 10
72.85274520748126
 20
-79.58411727611092
 10
72.86997068490751
 20
-79.58635658817633
 10
72.87720538542654
 20
-79.58635658817633
 10
72.87720538542654
 20
-79.58635658817633
 10
73.0945909105458
 20
-79.58635658817633
 10
73.0945909105458
 20
-79.58635658817633
 10
73.0945909105458
 20
-79.58635658817633
 10
73.52729490349319
 20
-79.58635658817633
 10
73.52729490349319
 20
-79.58635658817633
 10
73.58586152674242
 20
-79.58635658817633
 10
73.91349010738969
 20
-79.57257620623533
 10
73.95000811953334
 20
-79.57257620623533
 10
73.94759655269365
 20
-79.60237628218275
 10
73.94518498585398
 20
-79.62287460031997
 10
73.94518498585398
 20
-79.65474173355854
 10
73.94277341901432
 20
-79.68902043363677
 10
73.94277341901432
 20
-79.83509248221137
 10
73.94277341901432
 20
-79.86472030338452
 10
73.94277341901432
 20
-79.86472030338452
 10
73.94277341901432
 20
-80.12947589142597
 10
73.94277341901432
 20
-80.12947589142597
 10
73.94277341901432
 20
-80.17736271867093
 10
73.94759655269365
 20
-80.3897528553366
 10
73.952419686373
 20
-80.554083909983
 10
73.952419686373
 20
-80.554083909983
 10
73.69093693904254
 20
-80.554083909983
 10
73.69093693904254
 20
-80.554083909983
 10
73.69093693904254
 20
-80.554083909983
 10
73.69334850588223
 20
-80.51756589783936
 10
73.69334850588223
 20
-80.51756589783936
 10
73.69334850588223
 20
-80.51756589783936
 10
72.88202851910589
 20
-80.51756589783936
 10
72.88202851910589
 20
-80.51756589783936
 10
72.88202851910589
 20
-80.51756589783936
 10
72.88444008594556
 20
-80.554083909983
 10
72.88444008594556
 20
-80.554083909983
 10
72.88444008594556
 20
-80.554083909983
 10
72.63294811552232
 20
-80.554083909983
 10
72.63294811552232
 20
-80.554083909983
 10
72.63777124920168
 20
-80.49465601286245
 10
72.63777124920168
 20
-80.48104788569572
 10
72.6450059497207
 20
-80.35771346732378
 10
72.64741751656037
 20
-80.32808564615063
 10
72.64982908340005
 20
-80.18425290964144
 10
72.64982908340005
 20
-80.1637545915042
 10
72.64982908340005
 20
-80.1637545915042
 10
72.64982908340005
 20
-79.94464651864232
 10
72.64982908340005
 20
-79.94464651864232
 10
72.48859861469036
 20
-80.2138807308146
 10
72.2932617006767
 20
-80.35547415525836
 10
72.17096081095032
 20
-80.42627086748024
 10
72.17096081095032
 20
-80.42627086748024
 10
71.97045625370878
 20
-80.27554794000056
 10
71.97045625370878
 20
-80.27554794000056
 10
72.07312009916922
 20
-80.22077092178509
 10
72.23917370155827
 20
-80.12723657936056
 10
72.3983371129768
 20
-79.91725800953458
 10
72.50341252527693
 20
-79.78031546399589
 10
72.5788601164039
 20
-79.62511391238539
 10
72.61813420493574
 20
-79.46078285773898
 10
72.35423989076561
 20
-79.46302216980439
 10
72.14650063300505
 20
-79.46991236077488
 10
72.03660208702557
 20
-79.4721516728403
 10
72.03660208702557
 20
-79.4721516728403
 10
72.03660208702557
 20
-79.28043210908615
 10
72.03660208702557
 20
-79.28043210908615
 10
72.26363387950354
 20
-79.28732230005664
 10
72.5912624601508
 20
-79.29197317896173
 10
72.76489527260739
 20
-79.29197317896173
 10
72.76489527260739
 20
-79.29197317896173
 10
73.01156410935128
 20
-79.29197317896173
 10
73.01156410935128
 20
-79.29197317896173
 10
73.01156410935128
 20
-79.29197317896173
 10
73.01156410935128
 20
-79.17552895156028
 10
73.01156410935128
 20
-79.17552895156028
 10
73.01156410935128
 20
-79.17552895156028
 10
72.84309894012256
 20
-79.17552895156028
 10
72.84309894012256
 20
-79.17552895156028
 10
72.64741751656037
 20
-79.17552895156028
 10
72.4520806025467
 20
-79.1800075756911
 10
72.25881074582419
 20
-79.18689776666162
 10
72.25881074582419
 20
-79.18689776666162
 10
72.25881074582419
 20
-79.00206839387796
 10
72.25881074582419
 20
-79.00206839387796
 10
72.43726669196013
 20
-79.01343720897928
 10
72.65224065023972
 20
-79.01343720897928
 10
72.84309894012256
 20
-79.01343720897928
 10
72.84309894012256
 20
-79.01343720897928
 10
73.01156410935128
 20
-79.01343720897928
 10
73.01156410935128
 20
-79.01343720897928
 10
73.01156410935128
 20
-79.01343720897928
 10
73.01156410935128
 20
-78.88562416647652
 10
73.01156410935128
 20
-78.88562416647652
 10
73.01156410935128
 20
-78.88562416647652
 10
72.85997990800028
 20
-78.88562416647652
 10
72.85997990800028
 20
-78.88562416647652
 10
72.80623641843039
 20
-78.88562416647652
 10
72.57162541588488
 20
-78.89475366951243
 10
72.52270505999432
 20
-78.89475366951243
 10
72.28809405744882
 20
-78.89923229364325
 10
72.20024412257494
 20
-78.90164386048292
 10
72.10963811131288
 20
-78.90388317254833
 10
72.10963811131288
 20
-78.90388317254833
 10
72.10963811131288
 20
-78.70527341782369
 10
72.10963811131288
 20
-78.70527341782369
 10
72.24192977794647
 20
-78.7144029208596
 10
72.2932617006767
 20
-78.7144029208596
 10
72.73526745143424
 20
-78.7235324238955
 10
72.66223142714695
 20
-78.62086857843506
 10
72.63019203913412
 20
-78.59124075726191
 10
72.58885089331112
 20
-78.55231117827859
 10
72.58885089331112
 20
-78.55231117827859
 10
72.79176701739235
 20
-78.46342771475915
 10
72.79176701739235
 20
-78.46342771475915
 10
72.83793129689468
 20
-78.50218503896821
 10
72.88926321962491
 20
-78.54783255414777
 10
72.97504609720762
 20
-78.66651609361462
 10
72.97504609720762
 20
-78.66651609361462
 10
72.84309894012256
 20
-78.72594399073519
 10
72.84309894012256
 20
-78.72594399073519
 10
72.84309894012256
 20
-78.72594399073519
 10
72.85515677432093
 20
-78.72594399073519
 10
72.85515677432093
 20
-78.72594399073519
 10
72.85515677432093
 20
-78.72594399073519
 10
73.4587375033367
 20
-78.72594399073519
 10
73.4587375033367
 20
-78.72594399073519
 10
73.4587375033367
 20
-78.72594399073519
 10
73.34883895735724
 20
-78.67788490871595
 10
73.34883895735724
 20
-78.67788490871595
 10
73.38053383582154
 20
-78.63688827244148
 10
73.44667966913833
 20
-78.55007186621317
 10
73.46356063701606
 20
-78.47031790572964
 10
73.46356063701606
 20
-78.47031790572964
 10
73.71057398330846
 20
-78.53870305111185
 10
73.71057398330846
 20
-78.53870305111185
 10
73.72022025066717
 20
-78.54094236317727
 10
73.74468042861244
 20
-78.55231117827859
 10
73.74468042861244
 20
-78.5752210632555
 10
73.74468042861244
 20
-78.61638995430424
 10
73.66888832793695
 20
-78.61638995430424
 10
73.64683971683135
 20
-78.61638995430424
 10
73.63478188263298
 20
-78.63688827244148
 10
73.60791013784802
 20
-78.68012422078137
 10
73.57380369254405
 20
-78.7235324238955
 10
74.03544648756753
 20
-78.71664223292501
 10
74.06989744242003
 20
-78.7144029208596
 10
74.1577473772939
 20
-78.70768498466336
 10
74.1577473772939
 20
-78.70768498466336
 10
74.1577473772939
 20
-78.90388317254833
 10
74.1577473772939
 20
-78.90388317254833
 10
74.1356987661883
 20
-78.90388317254833
 10
74.10641545456367
 20
-78.90164386048292
 10
73.85216740775223
 20
-78.89251435744701
 10
73.793600784503
 20
-78.8902750453816
 10
73.53935273769156
 20
-78.88562416647652
 10
73.48802081496133
 20
-78.88562416647652
 10
73.48802081496133
 20
-78.88562416647652
 10
73.23894041137777
 20
-78.88562416647652
 10
73.23894041137777
 20
-78.88562416647652
 10
73.23894041137777
 20
-78.88562416647652
 10
73.23894041137777
 20
-79.01343720897928
 10
73.23894041137777
 20
-79.01343720897928
 10
73.23894041137777
 20
-79.01343720897928
 10
73.43944496861931
 20
-79.01343720897928
 10
73.43944496861931
 20
-79.01343720897928
 10
73.62754718211394
 20
-79.01343720897928
 10
73.8473442740729
 20
-79.01343720897928
 10
74.0282117870485
 20
-79.00206839387796
 10
74.0282117870485
 20
-79.00206839387796
 10
74.0282117870485
 20
-79.18689776666162
 10
74.0282117870485
 20
-79.18689776666162
 10
73.78636608398396
 20
-79.1777682636257
 10
73.55898978195748
 20
-79.17552895156028
 10
73.43944496861931
 20
-79.17552895156028
 10
73.43944496861931
 20
-79.17552895156028
 10
73.23894041137777
 20
-79.17552895156028
 10
73.23894041137777
 20
-79.17552895156028
 10
73.23894041137777
 20
-79.17552895156028
 10
73.23894041137777
 20
-79.29197317896173
 10
73.23894041137777
 20
-79.29197317896173
 10
73.23894041137777
 20
-79.29197317896173
 10
73.50524629238758
 20
-79.29197317896173
 10
73.50524629238758
 20
-79.29197317896173
 10
73.65924206057825
 20
-79.29197317896173
 10
73.99169377490486
 20
-79.28732230005664
 10
74.2335394779694
 20
-79.28043210908615
 10
74.2335394779694
 20
-79.28043210908615
 10
74.2335394779694
 20
-79.4721516728403
 10
74.2335394779694
 20
-79.4721516728403
 10
74.01098630962225
 20
-79.4652614818698
 10
73.64959579321955
 20
-79.46078285773898
 10
73.50524629238758
 20
-79.46078285773898
 97
        0
 97
        0
 92
        1
 93
        4
 72
     1
 10
73.6957600727219
 20
-79.73690726088175
 11
72.8796169522662
 21
-79.73690726088175
 72
     1
 10
72.8796169522662
 20
-79.73690726088175
 11
72.8796169522662
 21
-79.8533514882832
 72
     1
 10
72.8796169522662
 20
-79.8533514882832
 11
73.6957600727219
 21
-79.8533514882832
 72
     1
 10
73.6957600727219
 20
-79.8533514882832
 11
73.6957600727219
 21
-79.73690726088175
 97
        0
 92
        1
 93
        4
 72
     1
 10
73.6957600727219
 20
-79.98805472175646
 11
72.8796169522662
 21
-79.98805472175646
 72
     1
 10
72.8796169522662
 20
-79.98805472175646
 11
72.8796169522662
 21
-80.11121688535414
 72
     1
 10
72.8796169522662
 20
-80.11121688535414
 11
73.6957600727219
 21
-80.11121688535414
 72
     1
 10
73.6957600727219
 20
-80.11121688535414
 11
73.6957600727219
 21
-79.98805472175646
 97
        0
 92
        1
 93
        4
 72
     1
 10
73.6957600727219
 20
-80.25039874295824
 11
72.8796169522662
 21
-80.25039874295824
 72
     1
 10
72.8796169522662
 20
-80.25039874295824
 11
72.8796169522662
 21
-80.37373316133018
 72
     1
 10
72.8796169522662
 20
-80.37373316133018
 11
73.6957600727219
 21
-80.37373316133018
 72
     1
 10
73.6957600727219
 20
-80.37373316133018
 11
73.6957600727219
 21
-80.25039874295824
 97
        0
 75
     2
 76
     1
 98
        0
  0
SPLINE
  5
D1
330
8B
100
AcDbEntity
  8
_U+30EC_U+30A4_U+30E4_U+30FC 1
370
     0
100
AcDbSpline
210
0.0
220
0.0
230
1.0
 70
    11
 71
     3
 72
    47
 73
    43
 74
     0
 42
0.0000000001
 43
0.0000000001
 12
1.0
 22
0.0
 32
0.0
 13
1.0
 23
0.0
 33
0.0
 40
0.0
 40
0.0
 40
0.0
 40
0.0
 40
1.0
 40
1.0
 40
1.0
 40
2.0
 40
2.0
 40
2.0
 40
3.0
 40
3.0
 40
3.0
 40
4.0
 40
4.0
 40
4.0
 40
5.0
 40
5.0
 40
5.0
 40
6.0
 40
6.0
 40
6.0
 40
7.0
 40
7.0
 40
7.0
 40
8.0
 40
8.0
 40
8.0
 40
9.0
 40
9.0
 40
9.0
 40
10.0
 40
10.0
 40
10.0
 40
11.0
 40
11.0
 40
11.0
 40
12.0
 40
12.0
 40
12.0
 40
13.0
 40
13.0
 40
13.0
 40
14.0
 40
14.0
 40
14.0
 40
14.0
 10
75.78589950362297
 20
-79.43563366069665
 30
0.0
 10
75.78589950362297
 20
-79.43563366069665
 30
0.0
 10
75.66876625712447
 20
-79.43563366069665
 30
0.0
 10
75.66876625712447
 20
-79.43563366069665
 30
0.0
 10
75.66876625712447
 20
-79.52934025789544
 30
0.0
 10
75.6443060791792
 20
-79.9492973975474
 30
0.0
 10
75.41692977715272
 20
-80.18666447648111
 30
0.0
 10
75.24088539785645
 20
-80.36925453719935
 30
0.0
 10
75.00145126163159
 20
-80.44452987355207
 30
0.0
 10
74.90361054985048
 20
-80.47415769472522
 30
0.0
 10
74.90361054985048
 20
-80.47415769472522
 30
0.0
 10
74.6789903242122
 20
-80.29380694607238
 30
0.0
 10
74.6789903242122
 20
-80.29380694607238
 30
0.0
 10
74.79130043703134
 20
-80.28019881890565
 30
0.0
 10
74.99421656111257
 20
-80.25504962186332
 30
0.0
 10
75.21160208623182
 20
-80.05196124300785
 30
0.0
 10
75.29704045426602
 20
-79.97427433981547
 30
0.0
 10
75.41692977715272
 20
-79.82372366711004
 30
0.0
 10
75.41692977715272
 20
-79.43563366069665
 30
0.0
 10
75.41692977715272
 20
-79.43563366069665
 30
0.0
 10
75.1506238961429
 20
-79.43563366069665
 30
0.0
 10
75.1506238961429
 20
-79.43563366069665
 30
0.0
 10
74.93564993786332
 20
-79.43563366069665
 30
0.0
 10
74.7203314700352
 20
-79.44028453960173
 30
0.0
 10
74.5053575117556
 20
-79.45630423360815
 30
0.0
 10
74.5053575117556
 20
-79.45630423360815
 30
0.0
 10
74.5053575117556
 20
-79.21893715467444
 30
0.0
 10
74.5053575117556
 20
-79.21893715467444
 30
0.0
 10
74.72274303687487
 20
-79.23478459390658
 30
0.0
 10
75.05278318436181
 20
-79.23943547281168
 30
0.0
 10
75.1506238961429
 20
-79.23943547281168
 30
0.0
 10
75.1506238961429
 20
-79.23943547281168
 30
0.0
 10
75.78589950362297
 20
-79.23943547281168
 30
0.0
 10
75.78589950362297
 20
-79.23943547281168
 30
0.0
 10
75.80794811472857
 20
-79.23943547281168
 30
0.0
 10
76.17450627435916
 20
-79.23943547281168
 30
0.0
 10
76.43840058852929
 20
-79.21893715467444
 30
0.0
 10
76.43840058852929
 20
-79.21893715467444
 30
0.0
 10
76.43840058852929
 20
-79.45630423360815
 30
0.0
 10
76.43840058852929
 20
-79.45630423360815
 30
0.0
 10
76.22101506341002
 20
-79.44028453960173
 30
0.0
 10
76.00328502874224
 20
-79.43563366069665
 30
0.0
 10
75.78589950362297
 20
-79.43563366069665
 30
0.0
  0
SPLINE
  5
D2
330
8B
100
AcDbEntity
  8
_U+30EC_U+30A4_U+30E4_U+30FC 1
370
     0
100
AcDbSpline
210
0.0
220
0.0
230
1.0
 70
    11
 71
     3
 72
    29
 73
    25
 74
     0
 42
0.0000000001
 43
0.0000000001
 12
1.0
 22
0.0
 32
0.0
 13
1.0
 23
0.0
 33
0.0
 40
0.0
 40
0.0
 40
0.0
 40
0.0
 40
1.0
 40
1.0
 40
1.0
 40
2.0
 40
2.0
 40
2.0
 40
3.0
 40
3.0
 40
3.0
 40
4.0
 40
4.0
 40
4.0
 40
5.0
 40
5.0
 40
5.0
 40
6.0
 40
6.0
 40
6.0
 40
7.0
 40
7.0
 40
7.0
 40
8.0
 40
8.0
 40
8.0
 40
8.0
 10
75.66876625712447
 20
-78.86512584833928
 30
0.0
 10
75.66876625712447
 20
-78.86512584833928
 30
0.0
 10
75.26052244212238
 20
-78.86512584833928
 30
0.0
 10
75.26052244212238
 20
-78.86512584833928
 30
0.0
 10
75.13098685187698
 20
-78.86512584833928
 30
0.0
 10
74.96975638316728
 20
-78.87201603930978
 30
0.0
 10
74.84504392660125
 20
-78.88562416647652
 30
0.0
 10
74.84504392660125
 20
-78.88562416647652
 30
0.0
 10
74.84504392660125
 20
-78.63223739353639
 30
0.0
 10
74.84504392660125
 20
-78.63223739353639
 30
0.0
 10
74.98181421736567
 20
-78.6482570875428
 30
0.0
 10
75.19437660880557
 20
-78.65290796644788
 30
0.0
 10
75.26052244212238
 20
-78.65290796644788
 30
0.0
 10
75.26052244212238
 20
-78.65290796644788
 30
0.0
 10
75.66876625712447
 20
-78.65290796644788
 30
0.0
 10
75.66876625712447
 20
-78.65290796644788
 30
0.0
 10
75.69047035868155
 20
-78.65290796644788
 30
0.0
 10
75.9254258707756
 20
-78.65290796644788
 30
0.0
 10
76.08906790632496
 20
-78.63223739353639
 30
0.0
 10
76.08906790632496
 20
-78.63223739353639
 30
0.0
 10
76.08906790632496
 20
-78.88562416647652
 30
0.0
 10
76.08906790632496
 20
-78.88562416647652
 30
0.0
 10
75.90820039334935
 20
-78.86512584833928
 30
0.0
 10
75.68805879184188
 20
-78.86512584833928
 30
0.0
 10
75.66876625712447
 20
-78.86512584833928
 30
0.0
  0
HATCH
  5
D3
330
8B
100
AcDbEntity
  8
_U+30EC_U+30A4_U+30E4_U+30FC 1
 62
   179
420
  2234388
100
AcDbHatch
 10
0.0
 20
0.0
 30
0.0
210
0.0
220
0.0
230
1.0
  2
SOLID
 70
     1
 71
     0
 91
        2
 92
        1
 93
        1
 72
     4
 94
        3
 73
     0
 74
     1
 95
       47
 96
       43
 40
0.0
 40
0.0
 40
0.0
 40
0.0
 40
1.0
 40
1.0
 40
1.0
 40
2.0
 40
2.0
 40
2.0
 40
3.0
 40
3.0
 40
3.0
 40
4.0
 40
4.0
 40
4.0
 40
5.0
 40
5.0
 40
5.0
 40
6.0
 40
6.0
 40
6.0
 40
7.0
 40
7.0
 40
7.0
 40
8.0
 40
8.0
 40
8.0
 40
9.0
 40
9.0
 40
9.0
 40
10.0
 40
10.0
 40
10.0
 40
11.0
 40
11.0
 40
11.0
 40
12.0
 40
12.0
 40
12.0
 40
13.0
 40
13.0
 40
13.0
 40
14.0
 40
14.0
 40
14.0
 40
14.0
 10
75.78589950362297
 20
-79.43563366069665
 10
75.78589950362297
 20
-79.43563366069665
 10
75.66876625712447
 20
-79.43563366069665
 10
75.66876625712447
 20
-79.43563366069665
 10
75.66876625712447
 20
-79.52934025789544
 10
75.6443060791792
 20
-79.9492973975474
 10
75.41692977715272
 20
-80.18666447648111
 10
75.24088539785645
 20
-80.36925453719935
 10
75.00145126163159
 20
-80.44452987355207
 10
74.90361054985048
 20
-80.47415769472522
 10
74.90361054985048
 20
-80.47415769472522
 10
74.6789903242122
 20
-80.29380694607238
 10
74.6789903242122
 20
-80.29380694607238
 10
74.79130043703134
 20
-80.28019881890565
 10
74.99421656111257
 20
-80.25504962186332
 10
75.21160208623182
 20
-80.05196124300785
 10
75.29704045426602
 20
-79.97427433981547
 10
75.41692977715272
 20
-79.82372366711004
 10
75.41692977715272
 20
-79.43563366069665
 10
75.41692977715272
 20
-79.43563366069665
 10
75.1506238961429
 20
-79.43563366069665
 10
75.1506238961429
 20
-79.43563366069665
 10
74.93564993786332
 20
-79.43563366069665
 10
74.7203314700352
 20
-79.44028453960173
 10
74.5053575117556
 20
-79.45630423360815
 10
74.5053575117556
 20
-79.45630423360815
 10
74.5053575117556
 20
-79.21893715467444
 10
74.5053575117556
 20
-79.21893715467444
 10
74.72274303687487
 20
-79.23478459390658
 10
75.05278318436181
 20
-79.23943547281168
 10
75.1506238961429
 20
-79.23943547281168
 10
75.1506238961429
 20
-79.23943547281168
 10
75.78589950362297
 20
-79.23943547281168
 10
75.78589950362297
 20
-79.23943547281168
 10
75.80794811472857
 20
-79.23943547281168
 10
76.17450627435916
 20
-79.23943547281168
 10
76.43840058852929
 20
-79.21893715467444
 10
76.43840058852929
 20
-79.21893715467444
 10
76.43840058852929
 20
-79.45630423360815
 10
76.43840058852929
 20
-79.45630423360815
 10
76.22101506341002
 20
-79.44028453960173
 10
76.00328502874224
 20
-79.43563366069665
 10
75.78589950362297
 20
-79.43563366069665
 97
        0
 97
        0
 92
        1
 93
        1
 72
     4
 94
        3
 73
     0
 74
     1
 95
       29
 96
       25
 40
0.0
 40
0.0
 40
0.0
 40
0.0
 40
1.0
 40
1.0
 40
1.0
 40
2.0
 40
2.0
 40
2.0
 40
3.0
 40
3.0
 40
3.0
 40
4.0
 40
4.0
 40
4.0
 40
5.0
 40
5.0
 40
5.0
 40
6.0
 40
6.0
 40
6.0
 40
7.0
 40
7.0
 40
7.0
 40
8.0
 40
8.0
 40
8.0
 40
8.0
 10
75.66876625712447
 20
-78.86512584833928
 10
75.66876625712447
 20
-78.86512584833928
 10
75.26052244212238
 20
-78.86512584833928
 10
75.26052244212238
 20
-78.86512584833928
 10
75.13098685187698
 20
-78.86512584833928
 10
74.96975638316728
 20
-78.87201603930978
 10
74.84504392660125
 20
-78.88562416647652
 10
74.84504392660125
 20
-78.88562416647652
 10
74.84504392660125
 20
-78.63223739353639
 10
74.84504392660125
 20
-78.63223739353639
 10
74.98181421736567
 20
-78.6482570875428
 10
75.19437660880557
 20
-78.65290796644788
 10
75.26052244212238
 20
-78.65290796644788
 10
75.26052244212238
 20
-78.65290796644788
 10
75.66876625712447
 20
-78.65290796644788
 10
75.66876625712447
 20
-78.65290796644788
 10
75.69047035868155
 20
-78.65290796644788
 10
75.9254258707756
 20
-78.65290796644788
 10
76.08906790632496
 20
-78.63223739353639
 10
76.08906790632496
 20
-78.63223739353639
 10
76.08906790632496
 20
-78.88562416647652
 10
76.08906790632496
 20
-78.88562416647652
 10
75.90820039334935
 20
-78.86512584833928
 10
75.68805879184188
 20
-78.86512584833928
 10
75.66876625712447
 20
-78.86512584833928
 97
        0
 97
        0
 75
     2
 76
     1
 98
        0
  0
SPLINE
  5
D4
330
8B
100
AcDbEntity
  8
_U+30EC_U+30A4_U+30E4_U+30FC 1
370
     0
100
AcDbSpline
210
0.0
220
0.0
230
1.0
 70
    11
 71
     3
 72
    29
 73
    25
 74
     0
 42
0.0000000001
 43
0.0000000001
 12
1.0
 22
0.0
 32
0.0
 13
1.0
 23
0.0
 33
0.0
 40
0.0
 40
0.0
 40
0.0
 40
0.0
 40
1.0
 40
1.0
 40
1.0
 40
2.0
 40
2.0
 40
2.0
 40
3.0
 40
3.0
 40
3.0
 40
4.0
 40
4.0
 40
4.0
 40
5.0
 40
5.0
 40
5.0
 40
6.0
 40
6.0
 40
6.0
 40
7.0
 40
7.0
 40
7.0
 40
8.0
 40
8.0
 40
8.0
 40
8.0
 10
77.9153130230559
 20
-79.6113335304444
 30
0.0
 10
77.9153130230559
 20
-79.6113335304444
 30
0.0
 10
77.35582951625132
 20
-79.6113335304444
 30
0.0
 10
77.35582951625132
 20
-79.6113335304444
 30
0.0
 10
77.32413463778703
 20
-79.6113335304444
 30
0.0
 10
76.95757647815644
 20
-79.6113335304444
 30
0.0
 10
76.7129746987037
 20
-79.63889429432639
 30
0.0
 10
76.7129746987037
 20
-79.63889429432639
 30
0.0
 10
76.7129746987037
 20
-79.38998614551708
 30
0.0
 10
76.7129746987037
 20
-79.38998614551708
 30
0.0
 10
76.896253778519
 20
-79.41513534255941
 30
0.0
 10
77.11639538002646
 20
-79.41737465462482
 30
0.0
 10
77.35582951625132
 20
-79.41737465462482
 30
0.0
 10
77.35582951625132
 20
-79.41737465462482
 30
0.0
 10
77.9153130230559
 20
-79.41737465462482
 30
0.0
 10
77.9153130230559
 20
-79.41737465462482
 30
0.0
 10
78.13063149088401
 20
-79.41737465462482
 30
0.0
 10
78.3456054491636
 20
-79.41513534255941
 30
0.0
 10
78.55816784060352
 20
-79.38998614551708
 30
0.0
 10
78.55816784060352
 20
-79.38998614551708
 30
0.0
 10
78.55816784060352
 20
-79.63889429432639
 30
0.0
 10
78.55816784060352
 20
-79.63889429432639
 30
0.0
 10
78.3456054491636
 20
-79.61374509728407
 30
0.0
 10
78.05966252388787
 20
-79.6113335304444
 30
0.0
 10
77.9153130230559
 20
-79.6113335304444
 30
0.0
  0
HATCH
  5
D5
330
8B
100
AcDbEntity
  8
_U+30EC_U+30A4_U+30E4_U+30FC 1
 62
   179
420
  2234388
100
AcDbHatch
 10
0.0
 20
0.0
 30
0.0
210
0.0
220
0.0
230
1.0
  2
SOLID
 70
     1
 71
     0
 91
        1
 92
        1
 93
        1
 72
     4
 94
        3
 73
     0
 74
     1
 95
       29
 96
       25
 40
0.0
 40
0.0
 40
0.0
 40
0.0
 40
1.0
 40
1.0
 40
1.0
 40
2.0
 40
2.0
 40
2.0
 40
3.0
 40
3.0
 40
3.0
 40
4.0
 40
4.0
 40
4.0
 40
5.0
 40
5.0
 40
5.0
 40
6.0
 40
6.0
 40
6.0
 40
7.0
 40
7.0
 40
7.0
 40
8.0
 40
8.0
 40
8.0
 40
8.0
 10
77.9153130230559
 20
-79.6113335304444
 10
77.9153130230559
 20
-79.6113335304444
 10
77.35582951625132
 20
-79.6113335304444
 10
77.35582951625132
 20
-79.6113335304444
 10
77.32413463778703
 20
-79.6113335304444
 10
76.95757647815644
 20
-79.6113335304444
 10
76.7129746987037
 20
-79.63889429432639
 10
76.7129746987037
 20
-79.63889429432639
 10
76.7129746987037
 20
-79.38998614551708
 10
76.7129746987037
 20
-79.38998614551708
 10
76.896253778519
 20
-79.41513534255941
 10
77.11639538002646
 20
-79.41737465462482
 10
77.35582951625132
 20
-79.41737465462482
 10
77.35582951625132
 20
-79.41737465462482
 10
77.9153130230559
 20
-79.41737465462482
 10
77.9153130230559
 20
-79.41737465462482
 10
78.13063149088401
 20
-79.41737465462482
 10
78.3456054491636
 20
-79.41513534255941
 10
78.55816784060352
 20
-79.38998614551708
 10
78.55816784060352
 20
-79.38998614551708
 10
78.55816784060352
 20
-79.63889429432639
 10
78.55816784060352
 20
-79.63889429432639
 10
78.3456054491636
 20
-79.61374509728407
 10
78.05966252388787
 20
-79.6113335304444
 10
77.9153130230559
 20
-79.6113335304444
 97
        0
 97
        0
 75
     2
 76
     1
 98
        0
  0
SPLINE
  5
D6
330
8B
100
AcDbEntity
  8
_U+30EC_U+30A4_U+30E4_U+30FC 1
370
     0
100
AcDbSpline
210
0.0
220
0.0
230
1.0
 70
    11
 71
     3
 72
    44
 73
    40
 74
     0
 42
0.0000000001
 43
0.0000000001
 12
1.0
 22
0.0
 32
0.0
 13
1.0
 23
0.0
 33
0.0
 40
0.0
 40
0.0
 40
0.0
 40
0.0
 40
1.0
 40
1.0
 40
1.0
 40
2.0
 40
2.0
 40
2.0
 40
3.0
 40
3.0
 40
3.0
 40
4.0
 40
4.0
 40
4.0
 40
5.0
 40
5.0
 40
5.0
 40
6.0
 40
6.0
 40
6.0
 40
7.0
 40
7.0
 40
7.0
 40
8.0
 40
8.0
 40
8.0
 40
9.0
 40
9.0
 40
9.0
 40
10.0
 40
10.0
 40
10.0
 40
11.0
 40
11.0
 40
11.0
 40
12.0
 40
12.0
 40
12.0
 40
13.0
 40
13.0
 40
13.0
 40
13.0
 10
80.46743975852898
 20
-79.13901093941664
 30
0.0
 10
80.33790416828359
 20
-79.53605819409168
 30
0.0
 10
80.27933754503434
 20
-79.7072794397086
 30
0.0
 10
80.05196124300785
 20
-79.97651365188088
 30
0.0
 10
79.83939885156794
 20
-80.22542180069017
 30
0.0
 10
79.5658582700391
 20
-80.42627086748024
 30
0.0
 10
79.24305282307118
 20
-80.52669540087527
 30
0.0
 10
79.24305282307118
 20
-80.52669540087527
 30
0.0
 10
79.02084416427257
 20
-80.33273652505571
 30
0.0
 10
79.02084416427257
 20
-80.33273652505571
 30
0.0
 10
79.76119518405277
 20
-80.1684054704093
 30
0.0
 10
80.14256725426992
 20
-79.56809758210451
 30
0.0
 10
80.21594778810574
 20
-79.09336342423708
 30
0.0
 10
80.21594778810574
 20
-79.09336342423708
 30
0.0
 10
79.33124726749358
 20
-79.09336342423708
 30
0.0
 10
79.33124726749358
 20
-79.09336342423708
 30
0.0
 10
79.22376028835379
 20
-79.09336342423708
 30
0.0
 10
79.01085338736534
 20
-79.09784204836791
 30
0.0
 10
78.82998587438973
 20
-79.11834036650514
 30
0.0
 10
78.82998587438973
 20
-79.11834036650514
 30
0.0
 10
78.82998587438973
 20
-78.88097328757142
 30
0.0
 10
78.82998587438973
 20
-78.88097328757142
 30
0.0
 10
78.9302381530105
 20
-78.90388317254833
 30
0.0
 10
79.22100421196559
 20
-78.90388317254833
 30
0.0
 10
79.33607040117293
 20
-78.90388317254833
 30
0.0
 10
79.33607040117293
 20
-78.90388317254833
 30
0.0
 10
79.83457571788858
 20
-78.90388317254833
 30
0.0
 10
79.83457571788858
 20
-78.90388317254833
 30
0.0
 10
79.88349607377913
 20
-78.90388317254833
 30
0.0
 10
80.1546250884683
 20
-78.90164386048292
 30
0.0
 10
80.19872231067949
 20
-78.89475366951243
 30
0.0
 10
80.24764266657004
 20
-78.88786347854193
 30
0.0
 10
80.25005423340971
 20
-78.88562416647652
 30
0.0
 10
80.32102320040586
 20
-78.84221596336236
 30
0.0
 10
80.32102320040586
 20
-78.84221596336236
 30
0.0
 10
80.53840872552513
 20
-79.0087863300742
 30
0.0
 10
80.53840872552513
 20
-79.0087863300742
 30
0.0
 10
80.50430228022115
 20
-79.04082571808702
 30
0.0
 10
80.4870768027949
 20
-79.07510441816525
 30
0.0
 10
80.46743975852898
 20
-79.13901093941664
 30
0.0
  0
SPLINE
  5
D7
330
8B
100
AcDbEntity
  8
_U+30EC_U+30A4_U+30E4_U+30FC 1
370
     0
100
AcDbSpline
210
0.0
220
0.0
230
1.0
 70
    11
 71
     3
 72
    17
 73
    13
 74
     0
 42
0.0000000001
 43
0.0000000001
 12
1.0
 22
0.0
 32
0.0
 13
1.0
 23
0.0
 33
0.0
 40
0.0
 40
0.0
 40
0.0
 40
0.0
 40
1.0
 40
1.0
 40
1.0
 40
2.0
 40
2.0
 40
2.0
 40
3.0
 40
3.0
 40
3.0
 40
4.0
 40
4.0
 40
4.0
 40
4.0
 10
80.70962997114204
 20
-78.92438149068558
 30
0.0
 10
80.5628689034704
 20
-78.92438149068558
 30
0.0
 10
80.44539114742338
 20
-78.81482745425463
 30
0.0
 10
80.44539114742338
 20
-78.67788490871595
 30
0.0
 10
80.44539114742338
 20
-78.54094236317727
 30
0.0
 10
80.5628689034704
 20
-78.42914901468092
 30
0.0
 10
80.70962997114204
 20
-78.42914901468092
 30
0.0
 10
80.85604652926516
 20
-78.42914901468092
 30
0.0
 10
80.97593585215185
 20
-78.54094236317727
 30
0.0
 10
80.97593585215185
 20
-78.67788490871595
 30
0.0
 10
80.97593585215185
 20
-78.81482745425463
 30
0.0
 10
80.85604652926516
 20
-78.92438149068558
 30
0.0
 10
80.70962997114204
 20
-78.92438149068558
 30
0.0
  0
SPLINE
  5
D8
330
8B
100
AcDbEntity
  8
_U+30EC_U+30A4_U+30E4_U+30FC 1
370
     0
100
AcDbSpline
210
0.0
220
0.0
230
1.0
 70
    11
 71
     3
 72
    17
 73
    13
 74
     0
 42
0.0000000001
 43
0.0000000001
 12
1.0
 22
0.0
 32
0.0
 13
1.0
 23
0.0
 33
0.0
 40
0.0
 40
0.0
 40
0.0
 40
0.0
 40
1.0
 40
1.0
 40
1.0
 40
2.0
 40
2.0
 40
2.0
 40
3.0
 40
3.0
 40
3.0
 40
4.0
 40
4.0
 40
4.0
 40
4.0
 10
80.70687389475384
 20
-78.568330872285
 30
0.0
 10
80.64348413782524
 20
-78.568330872285
 30
0.0
 10
80.59215221509503
 20
-78.61638995430424
 30
0.0
 10
80.59215221509503
 20
-78.67564559665054
 30
0.0
 10
80.59215221509503
 20
-78.73731280583651
 30
0.0
 10
80.64348413782524
 20
-78.7896782572123
 30
0.0
 10
80.71204153798172
 20
-78.7896782572123
 30
0.0
 10
80.78025442858966
 20
-78.7896782572123
 30
0.0
 10
80.82676321764053
 20
-78.73490123899684
 30
0.0
 10
80.82676321764053
 20
-78.67788490871595
 30
0.0
 10
80.82676321764053
 20
-78.61638995430424
 30
0.0
 10
80.77301972807064
 20
-78.568330872285
 30
0.0
 10
80.70687389475384
 20
-78.568330872285
 30
0.0
  0
HATCH
  5
D9
330
8B
100
AcDbEntity
  8
_U+30EC_U+30A4_U+30E4_U+30FC 1
 62
   179
420
  2234388
100
AcDbHatch
 10
0.0
 20
0.0
 30
0.0
210
0.0
220
0.0
230
1.0
  2
SOLID
 70
     1
 71
     0
 91
        3
 92
        1
 93
        1
 72
     4
 94
        3
 73
     0
 74
     1
 95
       44
 96
       40
 40
0.0
 40
0.0
 40
0.0
 40
0.0
 40
1.0
 40
1.0
 40
1.0
 40
2.0
 40
2.0
 40
2.0
 40
3.0
 40
3.0
 40
3.0
 40
4.0
 40
4.0
 40
4.0
 40
5.0
 40
5.0
 40
5.0
 40
6.0
 40
6.0
 40
6.0
 40
7.0
 40
7.0
 40
7.0
 40
8.0
 40
8.0
 40
8.0
 40
9.0
 40
9.0
 40
9.0
 40
10.0
 40
10.0
 40
10.0
 40
11.0
 40
11.0
 40
11.0
 40
12.0
 40
12.0
 40
12.0
 40
13.0
 40
13.0
 40
13.0
 40
13.0
 10
80.46743975852898
 20
-79.13901093941664
 10
80.33790416828359
 20
-79.53605819409168
 10
80.27933754503434
 20
-79.7072794397086
 10
80.05196124300785
 20
-79.97651365188088
 10
79.83939885156794
 20
-80.22542180069017
 10
79.5658582700391
 20
-80.42627086748024
 10
79.24305282307118
 20
-80.52669540087527
 10
79.24305282307118
 20
-80.52669540087527
 10
79.02084416427257
 20
-80.33273652505571
 10
79.02084416427257
 20
-80.33273652505571
 10
79.76119518405277
 20
-80.1684054704093
 10
80.14256725426992
 20
-79.56809758210451
 10
80.21594778810574
 20
-79.09336342423708
 10
80.21594778810574
 20
-79.09336342423708
 10
79.33124726749358
 20
-79.09336342423708
 10
79.33124726749358
 20
-79.09336342423708
 10
79.22376028835379
 20
-79.09336342423708
 10
79.01085338736534
 20
-79.09784204836791
 10
78.82998587438973
 20
-79.11834036650514
 10
78.82998587438973
 20
-79.11834036650514
 10
78.82998587438973
 20
-78.88097328757142
 10
78.82998587438973
 20
-78.88097328757142
 10
78.9302381530105
 20
-78.90388317254833
 10
79.22100421196559
 20
-78.90388317254833
 10
79.33607040117293
 20
-78.90388317254833
 10
79.33607040117293
 20
-78.90388317254833
 10
79.83457571788858
 20
-78.90388317254833
 10
79.83457571788858
 20
-78.90388317254833
 10
79.88349607377913
 20
-78.90388317254833
 10
80.1546250884683
 20
-78.90164386048292
 10
80.19872231067949
 20
-78.89475366951243
 10
80.24764266657004
 20
-78.88786347854193
 10
80.25005423340971
 20
-78.88562416647652
 10
80.32102320040586
 20
-78.84221596336236
 10
80.32102320040586
 20
-78.84221596336236
 10
80.53840872552513
 20
-79.0087863300742
 10
80.53840872552513
 20
-79.0087863300742
 10
80.50430228022115
 20
-79.04082571808702
 10
80.4870768027949
 20
-79.07510441816525
 10
80.46743975852898
 20
-79.13901093941664
 97
        0
 97
        0
 92
        1
 93
        1
 72
     4
 94
        3
 73
     0
 74
     1
 95
       17
 96
       13
 40
0.0
 40
0.0
 40
0.0
 40
0.0
 40
1.0
 40
1.0
 40
1.0
 40
2.0
 40
2.0
 40
2.0
 40
3.0
 40
3.0
 40
3.0
 40
4.0
 40
4.0
 40
4.0
 40
4.0
 10
80.70962997114204
 20
-78.92438149068558
 10
80.5628689034704
 20
-78.92438149068558
 10
80.44539114742338
 20
-78.81482745425463
 10
80.44539114742338
 20
-78.67788490871595
 10
80.44539114742338
 20
-78.54094236317727
 10
80.5628689034704
 20
-78.42914901468092
 10
80.70962997114204
 20
-78.42914901468092
 10
80.85604652926516
 20
-78.42914901468092
 10
80.97593585215185
 20
-78.54094236317727
 10
80.97593585215185
 20
-78.67788490871595
 10
80.97593585215185
 20
-78.81482745425463
 10
80.85604652926516
 20
-78.92438149068558
 10
80.70962997114204
 20
-78.92438149068558
 97
        0
 97
        0
 92
        1
 93
        1
 72
     4
 94
        3
 73
     0
 74
     1
 95
       17
 96
       13
 40
0.0
 40
0.0
 40
0.0
 40
0.0
 40
1.0
 40
1.0
 40
1.0
 40
2.0
 40
2.0
 40
2.0
 40
3.0
 40
3.0
 40
3.0
 40
4.0
 40
4.0
 40
4.0
 40
4.0
 10
80.70687389475384
 20
-78.568330872285
 10
80.64348413782524
 20
-78.568330872285
 10
80.59215221509503
 20
-78.61638995430424
 10
80.59215221509503
 20
-78.67564559665054
 10
80.59215221509503
 20
-78.73731280583651
 10
80.64348413782524
 20
-78.7896782572123
 10
80.71204153798172
 20
-78.7896782572123
 10
80.78025442858966
 20
-78.7896782572123
 10
80.82676321764053
 20
-78.73490123899684
 10
80.82676321764053
 20
-78.67788490871595
 10
80.82676321764053
 20
-78.61638995430424
 10
80.77301972807064
 20
-78.568330872285
 10
80.70687389475384
 20
-78.568330872285
 97
        0
 97
        0
 75
     2
 76
     1
 98
        0
  0
ENDBLK
  5
8E
330
8B
100
AcDbEntity
  8
0
100
AcDbBlockEnd
  0
BLOCK
  5
E8
330
E6
100
AcDbEntity
  8
0
100
AcDbBlockBegin
  2
block 3
 70
     0
 10
0.0
 20
0.0
 30
0.0
  3
block 3
  1

  0
SPLINE
  5
EA
330
E6
100
AcDbEntity
  8
_U+30EC_U+30A4_U+30E4_U+30FC 1
370
     0
100
AcDbSpline
210
0.0
220
0.0
230
1.0
 70
    11
 71
     3
 72
    62
 73
    58
 74
     0
 42
0.0000000001
 43
0.0000000001
 12
1.0
 22
0.0
 32
0.0
 13
1.0
 23
0.0
 33
0.0
 40
0.0
 40
0.0
 40
0.0
 40
0.0
 40
1.0
 40
1.0
 40
1.0
 40
2.0
 40
2.0
 40
2.0
 40
3.0
 40
3.0
 40
3.0
 40
4.0
 40
4.0
 40
4.0
 40
5.0
 40
5.0
 40
5.0
 40
6.0
 40
6.0
 40
6.0
 40
7.0
 40
7.0
 40
7.0
 40
8.0
 40
8.0
 40
8.0
 40
9.0
 40
9.0
 40
9.0
 40
10.0
 40
10.0
 40
10.0
 40
11.0
 40
11.0
 40
11.0
 40
12.0
 40
12.0
 40
12.0
 40
13.0
 40
13.0
 40
13.0
 40
14.0
 40
14.0
 40
14.0
 40
15.0
 40
15.0
 40
15.0
 40
16.0
 40
16.0
 40
16.0
 40
17.0
 40
17.0
 40
17.0
 40
18.0
 40
18.0
 40
18.0
 40
19.0
 40
19.0
 40
19.0
 40
19.0
 10
47.38418781367479
 20
-93.97255857025687
 30
0.0
 10
47.38418781367479
 20
-94.08211260668782
 30
0.0
 10
47.36145018347214
 20
-94.33394908665957
 30
0.0
 10
47.16060111668207
 20
-94.47829858749154
 30
0.0
 10
47.0396782651498
 20
-94.56373695552574
 30
0.0
 10
46.93219128601001
 20
-94.56856008920509
 30
0.0
 10
46.84089625565089
 20
-94.57338322288443
 30
0.0
 10
46.84089625565089
 20
-94.57338322288443
 30
0.0
 10
46.84089625565089
 20
-94.319135176073
 30
0.0
 10
46.84089625565089
 20
-94.319135176073
 30
0.0
 10
46.92082247090868
 20
-94.31706811878185
 30
0.0
 10
47.17403698907455
 20
-94.30466577503495
 30
0.0
 10
47.17403698907455
 20
-93.97738170393622
 30
0.0
 10
47.17403698907455
 20
-93.81821829251767
 30
0.0
 10
47.0989339074961
 20
-93.64251842276992
 30
0.0
 10
46.85226507075221
 20
-93.64251842276992
 30
0.0
 10
46.72686359508912
 20
-93.64251842276992
 30
0.0
 10
46.67449814371332
 20
-93.68661564498113
 30
0.0
 10
46.64004718886083
 20
-93.72313365712478
 30
0.0
 10
46.56012097360303
 20
-93.80857202515897
 30
0.0
 10
46.54668510121056
 20
-93.94293074908371
 30
0.0
 10
46.54668510121056
 20
-94.00632050601232
 30
0.0
 10
46.54668510121056
 20
-94.02836911711792
 30
0.0
 10
46.54875215850171
 20
-94.07005477248944
 30
0.0
 10
46.55323078263253
 20
-94.10209416050226
 30
0.0
 10
46.55323078263253
 20
-94.10209416050226
 30
0.0
 10
46.34342446758081
 20
-94.10209416050226
 30
0.0
 10
46.34342446758081
 20
-94.10209416050226
 30
0.0
 10
46.35031465855131
 20
-94.05799693829105
 30
0.0
 10
46.35272622539099
 20
-94.00907658240051
 30
0.0
 10
46.35272622539099
 20
-94.00149737233296
 30
0.0
 10
46.35272622539099
 20
-93.92570527165746
 30
0.0
 10
46.32964408563981
 20
-93.69626191233982
 30
0.0
 10
46.07401800063428
 20
-93.69626191233982
 30
0.0
 10
45.88247069165438
 20
-93.69626191233982
 30
0.0
 10
45.82287053975956
 20
-93.84784611369082
 30
0.0
 10
45.82287053975956
 20
-93.97462562754801
 30
0.0
 10
45.82287053975956
 20
-94.28020559708968
 30
0.0
 10
46.07401800063428
 20
-94.2901963739969
 30
0.0
 10
46.1515326490524
 20
-94.29501950767624
 30
0.0
 10
46.1515326490524
 20
-94.29501950767624
 30
0.0
 10
46.1515326490524
 20
-94.52928600067324
 30
0.0
 10
46.1515326490524
 20
-94.52928600067324
 30
0.0
 10
46.01717392512765
 20
-94.51963973331453
 30
0.0
 10
45.61065265786817
 20
-94.48794485485024
 30
0.0
 10
45.61065265786817
 20
-93.96015622650997
 30
0.0
 10
45.61065265786817
 20
-93.70108504601917
 30
0.0
 10
45.74776745818112
 20
-93.42237682126246
 30
0.0
 10
46.06712780966377
 20
-93.42237682126246
 30
0.0
 10
46.26797687645384
 20
-93.42237682126246
 30
0.0
 10
46.35720484952181
 20
-93.53227536724194
 30
0.0
 10
46.42335068283861
 20
-93.64734155644928
 30
0.0
 10
46.45297850401176
 20
-93.57637258945313
 30
0.0
 10
46.53979491024005
 20
-93.3662217648529
 30
0.0
 10
46.83882919835974
 20
-93.3662217648529
 30
0.0
 10
47.20400931979622
 20
-93.3662217648529
 30
0.0
 10
47.38418781367479
 20
-93.65216469012863
 30
0.0
 10
47.38418781367479
 20
-93.97255857025687
 30
0.0
  0
HATCH
  5
EB
330
E6
100
AcDbEntity
  8
_U+30EC_U+30A4_U+30E4_U+30FC 1
 62
   179
420
  2234388
100
AcDbHatch
 10
0.0
 20
0.0
 30
0.0
210
0.0
220
0.0
230
1.0
  2
SOLID
 70
     1
 71
     0
 91
        1
 92
        1
 93
        1
 72
     4
 94
        3
 73
     0
 74
     1
 95
       62
 96
       58
 40
0.0
 40
0.0
 40
0.0
 40
0.0
 40
1.0
 40
1.0
 40
1.0
 40
2.0
 40
2.0
 40
2.0
 40
3.0
 40
3.0
 40
3.0
 40
4.0
 40
4.0
 40
4.0
 40
5.0
 40
5.0
 40
5.0
 40
6.0
 40
6.0
 40
6.0
 40
7.0
 40
7.0
 40
7.0
 40
8.0
 40
8.0
 40
8.0
 40
9.0
 40
9.0
 40
9.0
 40
10.0
 40
10.0
 40
10.0
 40
11.0
 40
11.0
 40
11.0
 40
12.0
 40
12.0
 40
12.0
 40
13.0
 40
13.0
 40
13.0
 40
14.0
 40
14.0
 40
14.0
 40
15.0
 40
15.0
 40
15.0
 40
16.0
 40
16.0
 40
16.0
 40
17.0
 40
17.0
 40
17.0
 40
18.0
 40
18.0
 40
18.0
 40
19.0
 40
19.0
 40
19.0
 40
19.0
 10
47.38418781367479
 20
-93.97255857025687
 10
47.38418781367479
 20
-94.08211260668782
 10
47.36145018347214
 20
-94.33394908665957
 10
47.16060111668207
 20
-94.47829858749154
 10
47.0396782651498
 20
-94.56373695552574
 10
46.93219128601001
 20
-94.56856008920509
 10
46.84089625565089
 20
-94.57338322288443
 10
46.84089625565089
 20
-94.57338322288443
 10
46.84089625565089
 20
-94.319135176073
 10
46.84089625565089
 20
-94.319135176073
 10
46.92082247090868
 20
-94.31706811878185
 10
47.17403698907455
 20
-94.30466577503495
 10
47.17403698907455
 20
-93.97738170393622
 10
47.17403698907455
 20
-93.81821829251767
 10
47.0989339074961
 20
-93.64251842276992
 10
46.85226507075221
 20
-93.64251842276992
 10
46.72686359508912
 20
-93.64251842276992
 10
46.67449814371332
 20
-93.68661564498113
 10
46.64004718886083
 20
-93.72313365712478
 10
46.56012097360303
 20
-93.80857202515897
 10
46.54668510121056
 20
-93.94293074908371
 10
46.54668510121056
 20
-94.00632050601232
 10
46.54668510121056
 20
-94.02836911711792
 10
46.54875215850171
 20
-94.07005477248944
 10
46.55323078263253
 20
-94.10209416050226
 10
46.55323078263253
 20
-94.10209416050226
 10
46.34342446758081
 20
-94.10209416050226
 10
46.34342446758081
 20
-94.10209416050226
 10
46.35031465855131
 20
-94.05799693829105
 10
46.35272622539099
 20
-94.00907658240051
 10
46.35272622539099
 20
-94.00149737233296
 10
46.35272622539099
 20
-93.92570527165746
 10
46.32964408563981
 20
-93.69626191233982
 10
46.07401800063428
 20
-93.69626191233982
 10
45.88247069165438
 20
-93.69626191233982
 10
45.82287053975956
 20
-93.84784611369082
 10
45.82287053975956
 20
-93.97462562754801
 10
45.82287053975956
 20
-94.28020559708968
 10
46.07401800063428
 20
-94.2901963739969
 10
46.1515326490524
 20
-94.29501950767624
 10
46.1515326490524
 20
-94.29501950767624
 10
46.1515326490524
 20
-94.52928600067324
 10
46.1515326490524
 20
-94.52928600067324
 10
46.01717392512765
 20
-94.51963973331453
 10
45.61065265786817
 20
-94.48794485485024
 10
45.61065265786817
 20
-93.96015622650997
 10
45.61065265786817
 20
-93.70108504601917
 10
45.74776745818112
 20
-93.42237682126246
 10
46.06712780966377
 20
-93.42237682126246
 10
46.26797687645384
 20
-93.42237682126246
 10
46.35720484952181
 20
-93.53227536724194
 10
46.42335068283861
 20
-93.64734155644928
 10
46.45297850401176
 20
-93.57637258945313
 10
46.53979491024005
 20
-93.3662217648529
 10
46.83882919835974
 20
-93.3662217648529
 10
47.20400931979622
 20
-93.3662217648529
 10
47.38418781367479
 20
-93.65216469012863
 10
47.38418781367479
 20
-93.97255857025687
 97
        0
 97
        0
 75
     2
 76
     1
 98
        0
  0
ENDBLK
  5
E9
330
E6
100
AcDbEntity
  8
0
100
AcDbBlockEnd
  0
BLOCK
  5
FA
330
F8
100
AcDbEntity
  8
0
100
AcDbBlockBegin
  2
block 4
 70
     0
 10
0.0
 20
0.0
 30
0.0
  3
block 4
  1

  0
SPLINE
  5
FC
330
F8
100
AcDbEntity
  8
_U+30EC_U+30A4_U+30E4_U+30FC 1
370
     0
100
AcDbSpline
210
0.0
220
0.0
230
1.0
 70
    11
 71
     3
 72
    26
 73
    22
 74
     0
 42
0.0000000001
 43
0.0000000001
 12
1.0
 22
0.0
 32
0.0
 13
1.0
 23
0.0
 33
0.0
 40
0.0
 40
0.0
 40
0.0
 40
0.0
 40
1.0
 40
1.0
 40
1.0
 40
2.0
 40
2.0
 40
2.0
 40
3.0
 40
3.0
 40
3.0
 40
4.0
 40
4.0
 40
4.0
 40
5.0
 40
5.0
 40
5.0
 40
6.0
 40
6.0
 40
6.0
 40
7.0
 40
7.0
 40
7.0
 40
7.0
 10
54.50537243646046
 20
-98.78880205863614
 30
0.0
 10
54.50537243646046
 20
-98.78880205863614
 30
0.0
 10
54.50537243646046
 20
-97.59748803983675
 30
0.0
 10
54.50537243646046
 20
-97.59748803983675
 30
0.0
 10
54.50537243646046
 20
-97.59748803983675
 30
0.0
 10
54.12417262101757
 20
-97.59748803983675
 30
0.0
 10
54.12417262101757
 20
-97.59748803983675
 30
0.0
 10
54.12417262101757
 20
-97.59748803983675
 30
0.0
 10
54.12417262101757
 20
-97.43763560932115
 30
0.0
 10
54.12417262101757
 20
-97.43763560932115
 30
0.0
 10
54.50778400330014
 20
-97.421788170089
 30
0.0
 10
54.56152749287003
 20
-97.24608830034126
 30
0.0
 10
54.59580619294827
 20
-97.12275388196932
 30
0.0
 10
54.59580619294827
 20
-97.12275388196932
 30
0.0
 10
54.76444361695125
 20
-97.12275388196932
 30
0.0
 10
54.76444361695125
 20
-97.12275388196932
 30
0.0
 10
54.76444361695125
 20
-97.12275388196932
 30
0.0
 10
54.76444361695125
 20
-98.78880205863614
 30
0.0
 10
54.76444361695125
 20
-98.78880205863614
 30
0.0
 10
54.76444361695125
 20
-98.78880205863614
 30
0.0
 10
54.50537243646046
 20
-98.78880205863614
 30
0.0
 10
54.50537243646046
 20
-98.78880205863614
 30
0.0
  0
HATCH
  5
FD
330
F8
100
AcDbEntity
  8
_U+30EC_U+30A4_U+30E4_U+30FC 1
 62
   179
420
  2234388
100
AcDbHatch
 10
0.0
 20
0.0
 30
0.0
210
0.0
220
0.0
230
1.0
  2
SOLID
 70
     1
 71
     0
 91
        1
 92
        1
 93
        1
 72
     4
 94
        3
 73
     0
 74
     1
 95
       26
 96
       22
 40
0.0
 40
0.0
 40
0.0
 40
0.0
 40
1.0
 40
1.0
 40
1.0
 40
2.0
 40
2.0
 40
2.0
 40
3.0
 40
3.0
 40
3.0
 40
4.0
 40
4.0
 40
4.0
 40
5.0
 40
5.0
 40
5.0
 40
6.0
 40
6.0
 40
6.0
 40
7.0
 40
7.0
 40
7.0
 40
7.0
 10
54.50537243646046
 20
-98.78880205863614
 10
54.50537243646046
 20
-98.78880205863614
 10
54.50537243646046
 20
-97.59748803983675
 10
54.50537243646046
 20
-97.59748803983675
 10
54.50537243646046
 20
-97.59748803983675
 10
54.12417262101757
 20
-97.59748803983675
 10
54.12417262101757
 20
-97.59748803983675
 10
54.12417262101757
 20
-97.59748803983675
 10
54.12417262101757
 20
-97.43763560932115
 10
54.12417262101757
 20
-97.43763560932115
 10
54.50778400330014
 20
-97.421788170089
 10
54.56152749287003
 20
-97.24608830034126
 10
54.59580619294827
 20
-97.12275388196932
 10
54.59580619294827
 20
-97.12275388196932
 10
54.76444361695125
 20
-97.12275388196932
 10
54.76444361695125
 20
-97.12275388196932
 10
54.76444361695125
 20
-97.12275388196932
 10
54.76444361695125
 20
-98.78880205863614
 10
54.76444361695125
 20
-98.78880205863614
 10
54.76444361695125
 20
-98.78880205863614
 10
54.50537243646046
 20
-98.78880205863614
 10
54.50537243646046
 20
-98.78880205863614
 97
        0
 97
        0
 75
     2
 76
     1
 98
        0
  0
SPLINE
  5
FE
330
F8
100
AcDbEntity
  8
_U+30EC_U+30A4_U+30E4_U+30FC 1
370
     0
100
AcDbSpline
210
0.0
220
0.0
230
1.0
 70
    11
 71
     3
 72
    29
 73
    25
 74
     0
 42
0.0000000001
 43
0.0000000001
 12
1.0
 22
0.0
 32
0.0
 13
1.0
 23
0.0
 33
0.0
 40
0.0
 40
0.0
 40
0.0
 40
0.0
 40
1.0
 40
1.0
 40
1.0
 40
2.0
 40
2.0
 40
2.0
 40
3.0
 40
3.0
 40
3.0
 40
4.0
 40
4.0
 40
4.0
 40
5.0
 40
5.0
 40
5.0
 40
6.0
 40
6.0
 40
6.0
 40
7.0
 40
7.0
 40
7.0
 40
8.0
 40
8.0
 40
8.0
 40
8.0
 10
56.37864310656506
 20
-98.59725474965624
 30
0.0
 10
56.25410290477328
 20
-98.82290850394011
 30
0.0
 10
56.05359834753174
 20
-98.84357907685161
 30
0.0
 10
55.919239623607
 20
-98.84357907685161
 30
0.0
 10
55.73354897695203
 20
-98.84357907685161
 30
0.0
 10
55.5697346866284
 20
-98.79328068276696
 30
0.0
 10
55.45983614064893
 20
-98.59725474965624
 30
0.0
 10
55.3401190725365
 20
-98.38710392505601
 30
0.0
 10
55.3180704614309
 20
-98.13147784005047
 30
0.0
 10
55.3180704614309
 20
-97.95577797030273
 30
0.0
 10
55.3180704614309
 20
-97.80040416391796
 30
0.0
 10
55.33753525092256
 20
-97.52893063968027
 30
0.0
 10
55.45983614064893
 20
-97.31430119094921
 30
0.0
 10
55.58437634244071
 20
-97.09519311808732
 30
0.0
 10
55.77023924386994
 20
-97.07038843059352
 30
0.0
 10
55.919239623607
 20
-97.07038843059352
 30
0.0
 10
56.10251870342229
 20
-97.07038843059352
 30
0.0
 10
56.2687445605856
 20
-97.11827525783849
 30
0.0
 10
56.37864310656506
 20
-97.31430119094921
 30
0.0
 10
56.49353704099815
 20
-97.52204044870977
 30
0.0
 10
56.5204087857831
 20
-97.76870928545367
 30
0.0
 10
56.5204087857831
 20
-97.95577797030273
 30
0.0
 10
56.5204087857831
 20
-98.14043508831212
 30
0.0
 10
56.49594860783782
 20
-98.38951549189568
 30
0.0
 10
56.37864310656506
 20
-98.59725474965624
 30
0.0
  0
SPLINE
  5
FF
330
F8
100
AcDbEntity
  8
_U+30EC_U+30A4_U+30E4_U+30FC 1
370
     0
100
AcDbSpline
210
0.0
220
0.0
230
1.0
 70
    11
 71
     3
 72
    17
 73
    13
 74
     0
 42
0.0000000001
 43
0.0000000001
 12
1.0
 22
0.0
 32
0.0
 13
1.0
 23
0.0
 33
0.0
 40
0.0
 40
0.0
 40
0.0
 40
0.0
 40
1.0
 40
1.0
 40
1.0
 40
2.0
 40
2.0
 40
2.0
 40
3.0
 40
3.0
 40
3.0
 40
4.0
 40
4.0
 40
4.0
 40
4.0
 10
55.919239623607
 20
-97.27778317880556
 30
0.0
 10
55.63088513149159
 20
-97.27778317880556
 30
0.0
 10
55.57714164192169
 20
-97.58370765789574
 30
0.0
 10
55.57714164192169
 20
-97.95577797030273
 30
0.0
 10
55.57714164192169
 20
-98.30028751882772
 30
0.0
 10
55.61865504251895
 20
-98.63377276179989
 30
0.0
 10
55.919239623607
 20
-98.63377276179989
 30
0.0
 10
56.20518254888273
 20
-98.63377276179989
 30
0.0
 10
56.2613376052923
 20
-98.32991534000085
 30
0.0
 10
56.2613376052923
 20
-97.95577797030273
 30
0.0
 10
56.2613376052923
 20
-97.61126842177774
 30
0.0
 10
56.21741263785538
 20
-97.27778317880556
 30
0.0
 10
55.919239623607
 20
-97.27778317880556
 30
0.0
  0
HATCH
  5
100
330
F8
100
AcDbEntity
  8
_U+30EC_U+30A4_U+30E4_U+30FC 1
 62
   179
420
  2234388
100
AcDbHatch
 10
0.0
 20
0.0
 30
0.0
210
0.0
220
0.0
230
1.0
  2
SOLID
 70
     1
 71
     0
 91
        2
 92
        1
 93
        1
 72
     4
 94
        3
 73
     0
 74
     1
 95
       29
 96
       25
 40
0.0
 40
0.0
 40
0.0
 40
0.0
 40
1.0
 40
1.0
 40
1.0
 40
2.0
 40
2.0
 40
2.0
 40
3.0
 40
3.0
 40
3.0
 40
4.0
 40
4.0
 40
4.0
 40
5.0
 40
5.0
 40
5.0
 40
6.0
 40
6.0
 40
6.0
 40
7.0
 40
7.0
 40
7.0
 40
8.0
 40
8.0
 40
8.0
 40
8.0
 10
56.37864310656506
 20
-98.59725474965624
 10
56.25410290477328
 20
-98.82290850394011
 10
56.05359834753174
 20
-98.84357907685161
 10
55.919239623607
 20
-98.84357907685161
 10
55.73354897695203
 20
-98.84357907685161
 10
55.5697346866284
 20
-98.79328068276696
 10
55.45983614064893
 20
-98.59725474965624
 10
55.3401190725365
 20
-98.38710392505601
 10
55.3180704614309
 20
-98.13147784005047
 10
55.3180704614309
 20
-97.95577797030273
 10
55.3180704614309
 20
-97.80040416391796
 10
55.33753525092256
 20
-97.52893063968027
 10
55.45983614064893
 20
-97.31430119094921
 10
55.58437634244071
 20
-97.09519311808732
 10
55.77023924386994
 20
-97.07038843059352
 10
55.919239623607
 20
-97.07038843059352
 10
56.10251870342229
 20
-97.07038843059352
 10
56.2687445605856
 20
-97.11827525783849
 10
56.37864310656506
 20
-97.31430119094921
 10
56.49353704099815
 20
-97.52204044870977
 10
56.5204087857831
 20
-97.76870928545367
 10
56.5204087857831
 20
-97.95577797030273
 10
56.5204087857831
 20
-98.14043508831212
 10
56.49594860783782
 20
-98.38951549189568
 10
56.37864310656506
 20
-98.59725474965624
 97
        0
 97
        0
 92
        1
 93
        1
 72
     4
 94
        3
 73
     0
 74
     1
 95
       17
 96
       13
 40
0.0
 40
0.0
 40
0.0
 40
0.0
 40
1.0
 40
1.0
 40
1.0
 40
2.0
 40
2.0
 40
2.0
 40
3.0
 40
3.0
 40
3.0
 40
4.0
 40
4.0
 40
4.0
 40
4.0
 10
55.919239623607
 20
-97.27778317880556
 10
55.63088513149159
 20
-97.27778317880556
 10
55.57714164192169
 20
-97.58370765789574
 10
55.57714164192169
 20
-97.95577797030273
 10
55.57714164192169
 20
-98.30028751882772
 10
55.61865504251895
 20
-98.63377276179989
 10
55.919239623607
 20
-98.63377276179989
 10
56.20518254888273
 20
-98.63377276179989
 10
56.2613376052923
 20
-98.32991534000085
 10
56.2613376052923
 20
-97.95577797030273
 10
56.2613376052923
 20
-97.61126842177774
 10
56.21741263785538
 20
-97.27778317880556
 10
55.919239623607
 20
-97.27778317880556
 97
        0
 97
        0
 75
     2
 76
     1
 98
        0
  0
ENDBLK
  5
FB
330
F8
100
AcDbEntity
  8
0
100
AcDbBlockEnd
  0
ENDSEC
  0
SECTION
  2
ENTITIES
  0
POLYLINE
  5
41
330
1F
100
AcDbEntity
  8
_U+30EC_U+30A4_U+30E4_U+30FC 1
370
     0
100
AcDb2dPolyline
 66
     1
 10
0.0
 20
0.0
 30
0.0
  0
VERTEX
  5
42
330
41
100
AcDbEntity
  8
_U+30EC_U+30A4_U+30E4_U+30FC 1
370
     0
100
AcDbVertex
100
AcDb2dVertex
 10
64.44600724473428
 20
-84.75401442325584
 30
0.0
  0
VERTEX
  5
43
330
41
100
AcDbEntity
  8
_U+30EC_U+30A4_U+30E4_U+30FC 1
370
     0
100
AcDbVertex
100
AcDb2dVertex
 10
51.83406089982516
 20
-92.07429442142573
 30
0.0
  0
VERTEX
  5
44
330
41
100
AcDbEntity
  8
_U+30EC_U+30A4_U+30E4_U+30FC 1
370
     0
100
AcDbVertex
100
AcDb2dVertex
 10
60.477116234878
 20
-92.07429442142573
 30
0.0
  0
VERTEX
  5
45
330
41
100
AcDbEntity
  8
_U+30EC_U+30A4_U+30E4_U+30FC 1
370
     0
100
AcDbVertex
100
AcDb2dVertex
 10
72.91267369539828
 20
-84.75401442325584
 30
0.0
  0
VERTEX
  5
46
330
41
100
AcDbEntity
  8
_U+30EC_U+30A4_U+30E4_U+30FC 1
370
     0
100
AcDbVertex
100
AcDb2dVertex
 10
64.44600724473428
 20
-84.75401442325584
 30
0.0
  0
SEQEND
  5
48
330
41
100
AcDbEntity
  8
_U+30EC_U+30A4_U+30E4_U+30FC 1
370
     0
  0
HATCH
  5
47
330
1F
100
AcDbEntity
  8
_U+30EC_U+30A4_U+30E4_U+30FC 1
 62
   161
420
  9020372
100
AcDbHatch
 10
0.0
 20
0.0
 30
0.0
210
0.0
220
0.0
230
1.0
  2
SOLID
 70
     1
 71
     0
 91
        1
 92
        1
 93
        4
 72
     1
 10
64.44600724473428
 20
-84.75401442325584
 11
51.83406089982516
 21
-92.07429442142573
 72
     1
 10
51.83406089982516
 20
-92.07429442142573
 11
60.477116234878
 21
-92.07429442142573
 72
     1
 10
60.477116234878
 20
-92.07429442142573
 11
72.91267369539828
 21
-84.75401442325584
 72
     1
 10
72.91267369539828
 20
-84.75401442325584
 11
64.44600724473428
 21
-84.75401442325584
 97
        0
 75
     2
 76
     1
 98
        0
  0
POLYLINE
  5
49
330
1F
100
AcDbEntity
  8
_U+30EC_U+30A4_U+30E4_U+30FC 1
 62
   179
420
  2234388
370
    25
100
AcDb2dPolyline
 66
     1
 10
0.0
 20
0.0
 30
0.0
  0
VERTEX
  5
4A
330
49
100
AcDbEntity
  8
_U+30EC_U+30A4_U+30E4_U+30FC 1
 62
   179
420
  2234388
370
    25
100
AcDbVertex
100
AcDb2dVertex
 10
50.23999927382639
 20
-95.6392902538677
 30
0.0
  0
VERTEX
  5
4B
330
49
100
AcDbEntity
  8
_U+30EC_U+30A4_U+30E4_U+30FC 1
 62
   179
420
  2234388
370
    25
100
AcDbVertex
100
AcDb2dVertex
 10
60.24008485203629
 20
-95.6392902538677
 30
0.0
  0
SEQEND
  5
4C
330
49
100
AcDbEntity
  8
_U+30EC_U+30A4_U+30E4_U+30FC 1
 62
   179
420
  2234388
370
    25
  0
POLYLINE
  5
4D
330
1F
100
AcDbEntity
  8
_U+30EC_U+30A4_U+30E4_U+30FC 1
 62
   179
420
  2234388
370
    25
100
AcDb2dPolyline
 66
     1
 10
0.0
 20
0.0
 30
0.0
  0
VERTEX
  5
4E
330
4D
100
AcDbEntity
  8
_U+30EC_U+30A4_U+30E4_U+30FC 1
 62
   179
420
  2234388
370
    25
100
AcDbVertex
100
AcDb2dVertex
 10
50.23999927382639
 20
-92.63930331017336
 30
0.0
  0
VERTEX
  5
4F
330
4D
100
AcDbEntity
  8
_U+30EC_U+30A4_U+30E4_U+30FC 1
 62
   179
420
  2234388
370
    25
100
AcDbVertex
100
AcDb2dVertex
 10
50.23999927382639
 20
-95.6392902538677
 30
0.0
  0
SEQEND
  5
50
330
4D
100
AcDbEntity
  8
_U+30EC_U+30A4_U+30E4_U+30FC 1
 62
   179
420
  2234388
370
    25
  0
POLYLINE
  5
51
330
1F
100
AcDbEntity
  8
_U+30EC_U+30A4_U+30E4_U+30FC 1
 62
   179
420
  2234388
370
    25
100
AcDb2dPolyline
 66
     1
 10
0.0
 20
0.0
 30
0.0
  0
VERTEX
  5
52
330
51
100
AcDbEntity
  8
_U+30EC_U+30A4_U+30E4_U+30FC 1
 62
   179
420
  2234388
370
    25
100
AcDbVertex
100
AcDb2dVertex
 10
50.23999927382639
 20
-92.63930331017336
 30
0.0
  0
VERTEX
  5
53
330
51
100
AcDbEntity
  8
_U+30EC_U+30A4_U+30E4_U+30FC 1
 62
   179
420
  2234388
370
    25
100
AcDbVertex
100
AcDb2dVertex
 10
60.24008485203629
 20
-92.63930331017336
 30
0.0
  0
SEQEND
  5
54
330
51
100
AcDbEntity
  8
_U+30EC_U+30A4_U+30E4_U+30FC 1
 62
   179
420
  2234388
370
    25
  0
POLYLINE
  5
55
330
1F
100
AcDbEntity
  8
_U+30EC_U+30A4_U+30E4_U+30FC 1
 62
   179
420
  2234388
370
    25
100
AcDb2dPolyline
 66
     1
 10
0.0
 20
0.0
 30
0.0
  0
VERTEX
  5
56
330
55
100
AcDbEntity
  8
_U+30EC_U+30A4_U+30E4_U+30FC 1
 62
   179
420
  2234388
370
    25
100
AcDbVertex
100
AcDb2dVertex
 10
60.24008485203629
 20
-92.63930331017336
 30
0.0
  0
VERTEX
  5
57
330
55
100
AcDbEntity
  8
_U+30EC_U+30A4_U+30E4_U+30FC 1
 62
   179
420
  2234388
370
    25
100
AcDbVertex
100
AcDb2dVertex
 10
60.24008485203629
 20
-95.6392902538677
 30
0.0
  0
SEQEND
  5
58
330
55
100
AcDbEntity
  8
_U+30EC_U+30A4_U+30E4_U+30FC 1
 62
   179
420
  2234388
370
    25
  0
POLYLINE
  5
59
330
1F
100
AcDbEntity
  8
_U+30EC_U+30A4_U+30E4_U+30FC 1
 62
   179
420
  2234388
370
    25
100
AcDb2dPolyline
 66
     1
 10
0.0
 20
0.0
 30
0.0
  0
VERTEX
  5
5A
330
59
100
AcDbEntity
  8
_U+30EC_U+30A4_U+30E4_U+30FC 1
 62
   179
420
  2234388
370
    25
100
AcDbVertex
100
AcDb2dVertex
 10
51.24012424831108
 20
-94.6395180318958
 30
0.0
  0
VERTEX
  5
101
330
59
100
AcDbEntity
  8
0
100
AcDbVertex
100
AcDb2dVertex
 10
51.24012424831108
 20
-94.6395180318958
 30
0.0
  0
SEQEND
  5
5B
330
59
100
AcDbEntity
  8
_U+30EC_U+30A4_U+30E4_U+30FC 1
 62
   179
420
  2234388
370
    25
  0
POLYLINE
  5
5C
330
1F
100
AcDbEntity
  8
_U+30EC_U+30A4_U+30E4_U+30FC 1
 62
   179
420
  2234388
370
    25
100
AcDb2dPolyline
 66
     1
 10
0.0
 20
0.0
 30
0.0
  0
VERTEX
  5
5D
330
5C
100
AcDbEntity
  8
_U+30EC_U+30A4_U+30E4_U+30FC 1
 62
   179
420
  2234388
370
    25
100
AcDbVertex
100
AcDb2dVertex
 10
51.24012424831108
 20
-93.6390755321459
 30
0.0
  0
VERTEX
  5
102
330
5C
100
AcDbEntity
  8
0
100
AcDbVertex
100
AcDb2dVertex
 10
51.24012424831108
 20
-93.6390755321459
 30
0.0
  0
SEQEND
  5
5E
330
5C
100
AcDbEntity
  8
_U+30EC_U+30A4_U+30E4_U+30FC 1
 62
   179
420
  2234388
370
    25
  0
POLYLINE
  5
5F
330
1F
100
AcDbEntity
  8
_U+30EC_U+30A4_U+30E4_U+30FC 1
 62
   179
420
  2234388
370
    25
100
AcDb2dPolyline
 66
     1
 10
0.0
 20
0.0
 30
0.0
  0
VERTEX
  5
60
330
5F
100
AcDbEntity
  8
_U+30EC_U+30A4_U+30E4_U+30FC 1
 62
   179
420
  2234388
370
    25
100
AcDbVertex
100
AcDb2dVertex
 10
60.24008485203629
 20
-92.63930331017336
 30
0.0
  0
VERTEX
  5
61
330
5F
100
AcDbEntity
  8
_U+30EC_U+30A4_U+30E4_U+30FC 1
 62
   179
420
  2234388
370
    25
100
AcDbVertex
100
AcDb2dVertex
 10
74.23975310598611
 20
-84.55659997886089
 30
0.0
  0
SEQEND
  5
62
330
5F
100
AcDbEntity
  8
_U+30EC_U+30A4_U+30E4_U+30FC 1
 62
   179
420
  2234388
370
    25
  0
POLYLINE
  5
63
330
1F
100
AcDbEntity
  8
_U+30EC_U+30A4_U+30E4_U+30FC 1
 62
   179
420
  2234388
370
    25
100
AcDb2dPolyline
 66
     1
 10
0.0
 20
0.0
 30
0.0
  0
VERTEX
  5
64
330
63
100
AcDbEntity
  8
_U+30EC_U+30A4_U+30E4_U+30FC 1
 62
   179
420
  2234388
370
    25
100
AcDbVertex
100
AcDb2dVertex
 10
60.24008485203629
 20
-95.6392902538677
 30
0.0
  0
VERTEX
  5
65
330
63
100
AcDbEntity
  8
_U+30EC_U+30A4_U+30E4_U+30FC 1
 62
   179
420
  2234388
370
    25
100
AcDbVertex
100
AcDb2dVertex
 10
74.23975310598611
 20
-87.55658692255523
 30
0.0
  0
SEQEND
  5
66
330
63
100
AcDbEntity
  8
_U+30EC_U+30A4_U+30E4_U+30FC 1
 62
   179
420
  2234388
370
    25
  0
POLYLINE
  5
67
330
1F
100
AcDbEntity
  8
_U+30EC_U+30A4_U+30E4_U+30FC 1
 62
   179
420
  2234388
370
    25
100
AcDb2dPolyline
 66
     1
 10
0.0
 20
0.0
 30
0.0
  0
VERTEX
  5
68
330
67
100
AcDbEntity
  8
_U+30EC_U+30A4_U+30E4_U+30FC 1
 62
   179
420
  2234388
370
    25
100
AcDbVertex
100
AcDb2dVertex
 10
50.23999927382639
 20
-92.63930331017336
 30
0.0
  0
VERTEX
  5
69
330
67
100
AcDbEntity
  8
_U+30EC_U+30A4_U+30E4_U+30FC 1
 62
   179
420
  2234388
370
    25
100
AcDbVertex
100
AcDb2dVertex
 10
64.24002030554499
 20
-84.55659997886089
 30
0.0
  0
SEQEND
  5
6A
330
67
100
AcDbEntity
  8
_U+30EC_U+30A4_U+30E4_U+30FC 1
 62
   179
420
  2234388
370
    25
  0
POLYLINE
  5
6B
330
1F
100
AcDbEntity
  8
_U+30EC_U+30A4_U+30E4_U+30FC 1
 62
   179
420
  2234388
370
    25
100
AcDb2dPolyline
 66
     1
 10
0.0
 20
0.0
 30
0.0
  0
VERTEX
  5
6C
330
6B
100
AcDbEntity
  8
_U+30EC_U+30A4_U+30E4_U+30FC 1
 62
   179
420
  2234388
370
    25
100
AcDbVertex
100
AcDb2dVertex
 10
51.70589673642823
 20
-92.13976997696517
 30
0.0
  0
VERTEX
  5
6D
330
6B
100
AcDbEntity
  8
_U+30EC_U+30A4_U+30E4_U+30FC 1
 62
   179
420
  2234388
370
    25
100
AcDbVertex
100
AcDb2dVertex
 10
64.39019780171364
 20
-84.81635025657359
 30
0.0
  0
SEQEND
  5
6E
330
6B
100
AcDbEntity
  8
_U+30EC_U+30A4_U+30E4_U+30FC 1
 62
   179
420
  2234388
370
    25
  0
POLYLINE
  5
6F
330
1F
100
AcDbEntity
  8
_U+30EC_U+30A4_U+30E4_U+30FC 1
 62
   179
420
  2234388
370
    25
100
AcDb2dPolyline
 66
     1
 10
0.0
 20
0.0
 30
0.0
  0
VERTEX
  5
70
330
6F
100
AcDbEntity
  8
_U+30EC_U+30A4_U+30E4_U+30FC 1
 62
   179
420
  2234388
370
    25
100
AcDbVertex
100
AcDb2dVertex
 10
60.50604401191777
 20
-92.13976997696517
 30
0.0
  0
VERTEX
  5
71
330
6F
100
AcDbEntity
  8
_U+30EC_U+30A4_U+30E4_U+30FC 1
 62
   179
420
  2234388
370
    25
100
AcDbVertex
100
AcDb2dVertex
 10
73.1896747994425
 20
-84.81635025657359
 30
0.0
  0
SEQEND
  5
72
330
6F
100
AcDbEntity
  8
_U+30EC_U+30A4_U+30E4_U+30FC 1
 62
   179
420
  2234388
370
    25
  0
POLYLINE
  5
73
330
1F
100
AcDbEntity
  8
_U+30EC_U+30A4_U+30E4_U+30FC 1
 62
   179
420
  2234388
370
    25
100
AcDb2dPolyline
 66
     1
 10
0.0
 20
0.0
 30
0.0
  0
VERTEX
  5
74
330
73
100
AcDbEntity
  8
_U+30EC_U+30A4_U+30E4_U+30FC 1
 62
   179
420
  2234388
370
    25
100
AcDbVertex
100
AcDb2dVertex
 10
51.70589673642823
 20
-92.13976997696517
 30
0.0
  0
VERTEX
  5
75
330
73
100
AcDbEntity
  8
_U+30EC_U+30A4_U+30E4_U+30FC 1
 62
   179
420
  2234388
370
    25
100
AcDbVertex
100
AcDb2dVertex
 10
60.50604401191777
 20
-92.13976997696517
 30
0.0
  0
SEQEND
  5
76
330
73
100
AcDbEntity
  8
_U+30EC_U+30A4_U+30E4_U+30FC 1
 62
   179
420
  2234388
370
    25
  0
POLYLINE
  5
77
330
1F
100
AcDbEntity
  8
_U+30EC_U+30A4_U+30E4_U+30FC 1
 62
   179
420
  2234388
370
     9
100
AcDb2dPolyline
 66
     1
 10
0.0
 20
0.0
 30
0.0
  0
VERTEX
  5
78
330
77
100
AcDbEntity
  8
_U+30EC_U+30A4_U+30E4_U+30FC 1
 62
   179
420
  2234388
370
     9
100
AcDbVertex
100
AcDb2dVertex
 10
65.84540609792151
 20
-81.78362553510952
 30
0.0
  0
VERTEX
  5
79
330
77
100
AcDbEntity
  8
_U+30EC_U+30A4_U+30E4_U+30FC 1
 62
   179
420
  2234388
370
     9
100
AcDbVertex
100
AcDb2dVertex
 10
78.81482215593304
 20
-81.78362553510952
 30
0.0
  0
SEQEND
  5
7A
330
77
100
AcDbEntity
  8
_U+30EC_U+30A4_U+30E4_U+30FC 1
 62
   179
420
  2234388
370
     9
  0
POLYLINE
  5
7B
330
1F
100
AcDbEntity
  8
_U+30EC_U+30A4_U+30E4_U+30FC 1
 62
   179
420
  2234388
370
     9
100
AcDb2dPolyline
 66
     1
 10
0.0
 20
0.0
 30
0.0
  0
VERTEX
  5
7C
330
7B
100
AcDbEntity
  8
_U+30EC_U+30A4_U+30E4_U+30FC 1
 62
   179
420
  2234388
370
     9
100
AcDbVertex
100
AcDb2dVertex
 10
65.84540609792151
 20
-81.78362553510952
 30
0.0
  0
VERTEX
  5
7D
330
7B
100
AcDbEntity
  8
_U+30EC_U+30A4_U+30E4_U+30FC 1
 62
   179
420
  2234388
370
     9
100
AcDbVertex
100
AcDb2dVertex
 10
63.50842976865386
 20
-87.94658275579127
 30
0.0
  0
SEQEND
  5
7E
330
7B
100
AcDbEntity
  8
_U+30EC_U+30A4_U+30E4_U+30FC 1
 62
   179
420
  2234388
370
     9
  0
POLYLINE
  5
7F
330
1F
100
AcDbEntity
  8
_U+30EC_U+30A4_U+30E4_U+30FC 1
 62
   179
420
  2234388
370
     9
100
AcDb2dPolyline
 66
     1
 10
0.0
 20
0.0
 30
0.0
  0
VERTEX
  5
80
330
7F
100
AcDbEntity
  8
_U+30EC_U+30A4_U+30E4_U+30FC 1
 62
   179
420
  2234388
370
     9
100
AcDbVertex
100
AcDb2dVertex
 10
63.60904198830925
 20
-86.95164358937323
 30
0.0
  0
VERTEX
  5
81
330
7F
100
AcDbEntity
  8
_U+30EC_U+30A4_U+30E4_U+30FC 1
 62
   179
420
  2234388
370
     9
100
AcDbVertex
100
AcDb2dVertex
 10
63.50842976865386
 20
-87.94658275579127
 30
0.0
  0
SEQEND
  5
82
330
7F
100
AcDbEntity
  8
_U+30EC_U+30A4_U+30E4_U+30FC 1
 62
   179
420
  2234388
370
     9
  0
POLYLINE
  5
83
330
1F
100
AcDbEntity
  8
_U+30EC_U+30A4_U+30E4_U+30FC 1
 62
   179
420
  2234388
370
     9
100
AcDb2dPolyline
 66
     1
 10
0.0
 20
0.0
 30
0.0
  0
VERTEX
  5
84
330
83
100
AcDbEntity
  8
_U+30EC_U+30A4_U+30E4_U+30FC 1
 62
   179
420
  2234388
370
     9
100
AcDbVertex
100
AcDb2dVertex
 10
64.0932294759566
 20
-87.13526442266053
 30
0.0
  0
VERTEX
  5
85
330
83
100
AcDbEntity
  8
_U+30EC_U+30A4_U+30E4_U+30FC 1
 62
   179
420
  2234388
370
     9
100
AcDbVertex
100
AcDb2dVertex
 10
63.50842976865386
 20
-87.94658275579127
 30
0.0
  0
SEQEND
  5
86
330
83
100
AcDbEntity
  8
_U+30EC_U+30A4_U+30E4_U+30FC 1
 62
   179
420
  2234388
370
     9
  0
SPLINE
  5
87
330
1F
100
AcDbEntity
  8
_U+30EC_U+30A4_U+30E4_U+30FC 1
 62
   179
420
  2234388
370
     9
100
AcDbSpline
210
0.0
220
0.0
230
1.0
 70
    11
 71
     3
 72
    17
 73
    13
 74
     0
 42
0.0000000001
 43
0.0000000001
 12
1.0
 22
0.0
 32
0.0
 13
1.0
 23
0.0
 33
0.0
 40
0.0
 40
0.0
 40
0.0
 40
0.0
 40
1.0
 40
1.0
 40
1.0
 40
2.0
 40
2.0
 40
2.0
 40
3.0
 40
3.0
 40
3.0
 40
4.0
 40
4.0
 40
4.0
 40
4.0
 10
48.10368293943947
 20
-92.63930331017336
 30
0.0
 10
48.10368293943947
 20
-92.58419942129844
 30
0.0
 10
48.05891665465179
 20
-92.53939664353172
 30
0.0
 10
48.00377627532164
 20
-92.53939664353172
 30
0.0
 10
47.94867238783856
 20
-92.53939664353172
 30
0.0
 10
47.9038696112038
 20
-92.58419942129844
 30
0.0
 10
47.9038696112038
 20
-92.63930331017336
 30
0.0
 10
47.9038696112038
 20
-92.69444247682644
 30
0.0
 10
47.94867238783856
 20
-92.73920997681499
 30
0.0
 10
48.00377627532164
 20
-92.73920997681499
 30
0.0
 10
48.05891665465179
 20
-92.73920997681499
 30
0.0
 10
48.10368293943947
 20
-92.69444247682644
 30
0.0
 10
48.10368293943947
 20
-92.63930331017336
 30
0.0
  0
SPLINE
  5
88
330
1F
100
AcDbEntity
  8
_U+30EC_U+30A4_U+30E4_U+30FC 1
 62
   179
420
  2234388
370
     9
100
AcDbSpline
210
0.0
220
0.0
230
1.0
 70
    11
 71
     3
 72
    17
 73
    13
 74
     0
 42
0.0000000001
 43
0.0000000001
 12
1.0
 22
0.0
 32
0.0
 13
1.0
 23
0.0
 33
0.0
 40
0.0
 40
0.0
 40
0.0
 40
0.0
 40
1.0
 40
1.0
 40
1.0
 40
2.0
 40
2.0
 40
2.0
 40
3.0
 40
3.0
 40
3.0
 40
4.0
 40
4.0
 40
4.0
 40
4.0
 10
48.10368293943947
 20
-95.6392902538677
 30
0.0
 10
48.10368293943947
 20
-95.58418636499277
 30
0.0
 10
48.05891665465179
 20
-95.53938358722606
 30
0.0
 10
48.00377627532164
 20
-95.53938358722606
 30
0.0
 10
47.94867238783856
 20
-95.53938358722606
 30
0.0
 10
47.9038696112038
 20
-95.58418636499277
 30
0.0
 10
47.9038696112038
 20
-95.6392902538677
 30
0.0
 10
47.9038696112038
 20
-95.69442942052078
 30
0.0
 10
47.94867238783856
 20
-95.73919692050933
 30
0.0
 10
48.00377627532164
 20
-95.73919692050933
 30
0.0
 10
48.05891665465179
 20
-95.73919692050933
 30
0.0
 10
48.10368293943947
 20
-95.69442942052078
 30
0.0
 10
48.10368293943947
 20
-95.6392902538677
 30
0.0
  0
SPLINE
  5
89
330
1F
100
AcDbEntity
  8
_U+30EC_U+30A4_U+30E4_U+30FC 1
 62
   179
420
  2234388
370
     9
100
AcDbSpline
210
0.0
220
0.0
230
1.0
 70
    11
 71
     3
 72
    17
 73
    13
 74
     0
 42
0.0000000001
 43
0.0000000001
 12
1.0
 22
0.0
 32
0.0
 13
1.0
 23
0.0
 33
0.0
 40
0.0
 40
0.0
 40
0.0
 40
0.0
 40
1.0
 40
1.0
 40
1.0
 40
2.0
 40
2.0
 40
2.0
 40
3.0
 40
3.0
 40
3.0
 40
4.0
 40
4.0
 40
4.0
 40
4.0
 10
50.33990593794423
 20
-99.6397549750901
 30
0.0
 10
50.33990593794423
 20
-99.58394553065966
 30
0.0
 10
50.29510316130946
 20
-99.53914275289294
 30
0.0
 10
50.23999927382639
 20
-99.53914275289294
 30
0.0
 10
50.18454260857455
 20
-99.53914275289294
 30
0.0
 10
50.13973983193978
 20
-99.58394553065966
 30
0.0
 10
50.13973983193978
 20
-99.6397549750901
 30
0.0
 10
50.13973983193978
 20
-99.69485886396502
 30
0.0
 10
50.18454260857455
 20
-99.73966164173174
 30
0.0
 10
50.23999927382639
 20
-99.73966164173174
 30
0.0
 10
50.29510316130946
 20
-99.73966164173174
 30
0.0
 10
50.33990593794423
 20
-99.69485886396502
 30
0.0
 10
50.33990593794423
 20
-99.6397549750901
 30
0.0
  0
SPLINE
  5
8A
330
1F
100
AcDbEntity
  8
_U+30EC_U+30A4_U+30E4_U+30FC 1
 62
   179
420
  2234388
370
     9
100
AcDbSpline
210
0.0
220
0.0
230
1.0
 70
    11
 71
     3
 72
    17
 73
    13
 74
     0
 42
0.0000000001
 43
0.0000000001
 12
1.0
 22
0.0
 32
0.0
 13
1.0
 23
0.0
 33
0.0
 40
0.0
 40
0.0
 40
0.0
 40
0.0
 40
1.0
 40
1.0
 40
1.0
 40
2.0
 40
2.0
 40
2.0
 40
3.0
 40
3.0
 40
3.0
 40
4.0
 40
4.0
 40
4.0
 40
4.0
 10
60.33999151615412
 20
-99.6397549750901
 30
0.0
 10
60.33999151615412
 20
-99.58394553065966
 30
0.0
 10
60.29518873951936
 20
-99.53914275289294
 30
0.0
 10
60.24008485203629
 20
-99.53914275289294
 30
0.0
 10
60.18494720717601
 20
-99.53914275289294
 30
0.0
 10
60.14017818791845
 20
-99.58394553065966
 30
0.0
 10
60.14017818791845
 20
-99.6397549750901
 30
0.0
 10
60.14017818791845
 20
-99.69485886396502
 30
0.0
 10
60.18494720717601
 20
-99.73966164173174
 30
0.0
 10
60.24008485203629
 20
-99.73966164173174
 30
0.0
 10
60.29518873951936
 20
-99.73966164173174
 30
0.0
 10
60.33999151615412
 20
-99.69485886396502
 30
0.0
 10
60.33999151615412
 20
-99.6397549750901
 30
0.0
  0
INSERT
  5
8C
330
1F
100
AcDbEntity
  8
_U+30EC_U+30A4_U+30E4_U+30FC 1
100
AcDbBlockReference
  2
block 2
 10
0.0
 20
0.0
 30
0.0
  0
POLYLINE
  5
DA
330
1F
100
AcDbEntity
  8
_U+30EC_U+30A4_U+30E4_U+30FC 1
 62
   179
420
  2234388
370
     9
100
AcDb2dPolyline
 66
     1
 10
0.0
 20
0.0
 30
0.0
  0
VERTEX
  5
DB
330
DA
100
AcDbEntity
  8
_U+30EC_U+30A4_U+30E4_U+30FC 1
 62
   179
420
  2234388
370
     9
100
AcDbVertex
100
AcDb2dVertex
 10
48.00377627532164
 20
-95.6392902538677
 30
0.0
  0
VERTEX
  5
DC
330
DA
100
AcDbEntity
  8
_U+30EC_U+30A4_U+30E4_U+30FC 1
 62
   179
420
  2234388
370
     9
100
AcDbVertex
100
AcDb2dVertex
 10
48.00377627532164
 20
-92.63930331017336
 30
0.0
  0
SEQEND
  5
DD
330
DA
100
AcDbEntity
  8
_U+30EC_U+30A4_U+30E4_U+30FC 1
 62
   179
420
  2234388
370
     9
  0
POLYLINE
  5
DE
330
1F
100
AcDbEntity
  8
_U+30EC_U+30A4_U+30E4_U+30FC 1
 62
   179
420
  2234388
370
     9
100
AcDb2dPolyline
 66
     1
 10
0.0
 20
0.0
 30
0.0
  0
VERTEX
  5
DF
330
DE
100
AcDbEntity
  8
_U+30EC_U+30A4_U+30E4_U+30FC 1
 62
   179
420
  2234388
370
     9
100
AcDbVertex
100
AcDb2dVertex
 10
49.46381762696177
 20
-95.6392902538677
 30
0.0
  0
VERTEX
  5
E0
330
DE
100
AcDbEntity
  8
_U+30EC_U+30A4_U+30E4_U+30FC 1
 62
   179
420
  2234388
370
     9
100
AcDbVertex
100
AcDb2dVertex
 10
47.00400407860573
 20
-95.6392902538677
 30
0.0
  0
SEQEND
  5
E1
330
DE
100
AcDbEntity
  8
_U+30EC_U+30A4_U+30E4_U+30FC 1
 62
   179
420
  2234388
370
     9
  0
POLYLINE
  5
E2
330
1F
100
AcDbEntity
  8
_U+30EC_U+30A4_U+30E4_U+30FC 1
 62
   179
420
  2234388
370
     9
100
AcDb2dPolyline
 66
     1
 10
0.0
 20
0.0
 30
0.0
  0
VERTEX
  5
E3
330
E2
100
AcDbEntity
  8
_U+30EC_U+30A4_U+30E4_U+30FC 1
 62
   179
420
  2234388
370
     9
100
AcDbVertex
100
AcDb2dVertex
 10
49.46381762696177
 20
-92.63930331017336
 30
0.0
  0
VERTEX
  5
E4
330
E2
100
AcDbEntity
  8
_U+30EC_U+30A4_U+30E4_U+30FC 1
 62
   179
420
  2234388
370
     9
100
AcDbVertex
100
AcDb2dVertex
 10
47.00400407860573
 20
-92.63930331017336
 30
0.0
  0
SEQEND
  5
E5
330
E2
100
AcDbEntity
  8
_U+30EC_U+30A4_U+30E4_U+30FC 1
 62
   179
420
  2234388
370
     9
  0
INSERT
  5
E7
330
1F
100
AcDbEntity
  8
_U+30EC_U+30A4_U+30E4_U+30FC 1
100
AcDbBlockReference
  2
block 3
 10
0.0
 20
0.0
 30
0.0
  0
POLYLINE
  5
EC
330
1F
100
AcDbEntity
  8
_U+30EC_U+30A4_U+30E4_U+30FC 1
 62
   179
420
  2234388
370
     9
100
AcDb2dPolyline
 66
     1
 10
0.0
 20
0.0
 30
0.0
  0
VERTEX
  5
ED
330
EC
100
AcDbEntity
  8
_U+30EC_U+30A4_U+30E4_U+30FC 1
 62
   179
420
  2234388
370
     9
100
AcDbVertex
100
AcDb2dVertex
 10
50.23999927382639
 20
-99.6397549750901
 30
0.0
  0
VERTEX
  5
EE
330
EC
100
AcDbEntity
  8
_U+30EC_U+30A4_U+30E4_U+30FC 1
 62
   179
420
  2234388
370
     9
100
AcDbVertex
100
AcDb2dVertex
 10
60.24008485203629
 20
-99.6397549750901
 30
0.0
  0
SEQEND
  5
EF
330
EC
100
AcDbEntity
  8
_U+30EC_U+30A4_U+30E4_U+30FC 1
 62
   179
420
  2234388
370
     9
  0
POLYLINE
  5
F0
330
1F
100
AcDbEntity
  8
_U+30EC_U+30A4_U+30E4_U+30FC 1
 62
   179
420
  2234388
370
     9
100
AcDb2dPolyline
 66
     1
 10
0.0
 20
0.0
 30
0.0
  0
VERTEX
  5
F1
330
F0
100
AcDbEntity
  8
_U+30EC_U+30A4_U+30E4_U+30FC 1
 62
   179
420
  2234388
370
     9
100
AcDbVertex
100
AcDb2dVertex
 10
50.23999927382639
 20
-98.1797135865664
 30
0.0
  0
VERTEX
  5
F2
330
F0
100
AcDbEntity
  8
_U+30EC_U+30A4_U+30E4_U+30FC 1
 62
   179
420
  2234388
370
     9
100
AcDbVertex
100
AcDb2dVertex
 10
50.23999927382639
 20
-100.6394919192845
 30
0.0
  0
SEQEND
  5
F3
330
F0
100
AcDbEntity
  8
_U+30EC_U+30A4_U+30E4_U+30FC 1
 62
   179
420
  2234388
370
     9
  0
POLYLINE
  5
F4
330
1F
100
AcDbEntity
  8
_U+30EC_U+30A4_U+30E4_U+30FC 1
 62
   179
420
  2234388
370
     9
100
AcDb2dPolyline
 66
     1
 10
0.0
 20
0.0
 30
0.0
  0
VERTEX
  5
F5
330
F4
100
AcDbEntity
  8
_U+30EC_U+30A4_U+30E4_U+30FC 1
 62
   179
420
  2234388
370
     9
100
AcDbVertex
100
AcDb2dVertex
 10
60.24008485203629
 20
-98.1797135865664
 30
0.0
  0
VERTEX
  5
F6
330
F4
100
AcDbEntity
  8
_U+30EC_U+30A4_U+30E4_U+30FC 1
 62
   179
420
  2234388
370
     9
100
AcDbVertex
100
AcDb2dVertex
 10
60.24008485203629
 20
-100.6394919192845
 30
0.0
  0
SEQEND
  5
F7
330
F4
100
AcDbEntity
  8
_U+30EC_U+30A4_U+30E4_U+30FC 1
 62
   179
420
  2234388
370
     9
  0
INSERT
  5
F9
330
1F
100
AcDbEntity
  8
_U+30EC_U+30A4_U+30E4_U+30FC 1
100
AcDbBlockReference
  2
block 4
 10
0.0
 20
0.0
 30
0.0
  0
ENDSEC
  0
SECTION
  2
OBJECTS
  0
DICTIONARY
  5
C
330
0
100
AcDbDictionary
281
     1
  3
ACAD_GROUP
350
D
  3
ACAD_LAYOUT
350
1A
  3
ACAD_MATERIAL
350
3B
  3
ACAD_MLEADERSTYLE
350
104
  3
ACAD_MLINESTYLE
350
17
  3
ACAD_PLOTSETTINGS
350
19
  3
ACAD_PLOTSTYLENAME
350
E
  3
ACAD_TABLESTYLE
350
103
  3
ACAD_VISUALSTYLE
350
2A
  0
SUN
  5
3F
330
29
100
AcDbSun
 90
        1
290
     0
 63
     7
421
 16777215
 40
1.0
291
     1
 91
  2455826
 92
 54000000
292
     0
 70
     2
 71
   256
280
     1
  0
DICTIONARY
  5
D
102
{ACAD_REACTORS
330
C
102
}
330
C
100
AcDbDictionary
281
     1
  0
DICTIONARY
  5
1A
102
{ACAD_REACTORS
330
C
102
}
330
C
100
AcDbDictionary
281
     1
  3
Layout1
350
1E
  3
Layout2
350
26
  3
Model
350
22
  0
DICTIONARY
  5
3B
102
{ACAD_REACTORS
330
C
102
}
330
C
100
AcDbDictionary
281
     1
  3
ByBlock
350
3D
  3
ByLayer
350
3C
  3
Global
350
3E
  0
DICTIONARY
  5
104
102
{ACAD_REACTORS
330
C
102
}
330
C
100
AcDbDictionary
281
     1
  0
DICTIONARY
  5
17
102
{ACAD_REACTORS
330
C
102
}
330
C
100
AcDbDictionary
281
     1
  3
Standard
350
18
  0
DICTIONARY
  5
19
102
{ACAD_REACTORS
330
C
102
}
330
C
100
AcDbDictionary
281
     1
  0
ACDBDICTIONARYWDFLT
  5
E
102
{ACAD_REACTORS
330
C
102
}
330
C
100
AcDbDictionary
281
     1
  3
Normal
350
F
100
AcDbDictionaryWithDefault
340
F
  0
DICTIONARY
  5
103
102
{ACAD_REACTORS
330
C
102
}
330
C
100
AcDbDictionary
281
     1
  0
DICTIONARY
  5
2A
102
{ACAD_REACTORS
330
C
102
}
330
C
100
AcDbDictionary
281
     1
  3
2dWireframe
350
2F
  3
3D Hidden
350
31
  3
3dWireframe
350
30
  3
Basic
350
32
  3
Brighten
350
36
  3
ColorChange
350
3A
  3
Conceptual
350
34
  3
Dim
350
35
  3
Facepattern
350
39
  3
Flat
350
2B
  3
FlatWithEdges
350
2C
  3
Gouraud
350
2D
  3
GouraudWithEdges
350
2E
  3
Linepattern
350
38
  3
Realistic
350
33
  3
Thicken
350
37
  0
LAYOUT
  5
1E
102
{ACAD_REACTORS
330
1A
102
}
330
1A
100
AcDbPlotSettings
  1

  2
none_device
  4

  6

 40
0.0
 41
0.0
 42
0.0
 43
0.0
 44
0.0
 45
0.0
 46
0.0
 47
0.0
 48
0.0
 49
0.0
140
0.0
141
0.0
142
1.0
143
1.0
 70
   688
 72
     0
 73
     0
 74
     5
  7

 75
    16
 76
     0
 77
     2
 78
   300
147
1.0
148
0.0
149
0.0
100
AcDbLayout
  1
Layout1
 70
     1
 71
     1
 10
0.0
 20
0.0
 11
12.0
 21
9.0
 12
0.0
 22
0.0
 32
0.0
 14
1.000000000000000E+20
 24
1.000000000000000E+20
 34
1.000000000000000E+20
 15
-1.000000000000000E+20
 25
-1.000000000000000E+20
 35
-1.000000000000000E+20
146
0.0
 13
0.0
 23
0.0
 33
0.0
 16
1.0
 26
0.0
 36
0.0
 17
0.0
 27
1.0
 37
0.0
 76
     0
330
1B
  0
LAYOUT
  5
26
102
{ACAD_REACTORS
330
1A
102
}
330
1A
100
AcDbPlotSettings
  1

  2
none_device
  4

  6

 40
0.0
 41
0.0
 42
0.0
 43
0.0
 44
0.0
 45
0.0
 46
0.0
 47
0.0
 48
0.0
 49
0.0
140
0.0
141
0.0
142
1.0
143
1.0
 70
   688
 72
     0
 73
     0
 74
     5
  7

 75
    16
 76
     0
 77
     2
 78
   300
147
1.0
148
0.0
149
0.0
100
AcDbLayout
  1
Layout2
 70
     1
 71
     2
 10
0.0
 20
0.0
 11
0.0
 21
0.0
 12
0.0
 22
0.0
 32
0.0
 14
0.0
 24
0.0
 34
0.0
 15
0.0
 25
0.0
 35
0.0
146
0.0
 13
0.0
 23
0.0
 33
0.0
 16
1.0
 26
0.0
 36
0.0
 17
0.0
 27
1.0
 37
0.0
 76
     0
330
23
  0
LAYOUT
  5
22
102
{ACAD_REACTORS
330
1A
102
}
330
1A
100
AcDbPlotSettings
  1

  2
none_device
  4

  6

 40
0.0
 41
0.0
 42
0.0
 43
0.0
 44
0.0
 45
0.0
 46
0.0
 47
0.0
 48
0.0
 49
0.0
140
0.0
141
0.0
142
1.0
143
1.0
 70
  1712
 72
     0
 73
     0
 74
     0
  7

 75
     0
 76
     0
 77
     2
 78
   300
147
1.0
148
0.0
149
0.0
100
AcDbLayout
  1
Model
 70
     1
 71
     0
 10
0.0
 20
0.0
 11
12.0
 21
9.0
 12
0.0
 22
0.0
 32
0.0
 14
1.000000000000000E+20
 24
1.000000000000000E+20
 34
1.000000000000000E+20
 15
-1.000000000000000E+20
 25
-1.000000000000000E+20
 35
-1.000000000000000E+20
146
0.0
 13
0.0
 23
0.0
 33
0.0
 16
1.0
 26
0.0
 36
0.0
 17
0.0
 27
1.0
 37
0.0
 76
     0
330
1F
331
29
  0
MATERIAL
  5
3D
102
{ACAD_REACTORS
330
3B
102
}
330
3B
100
AcDbMaterial
  1
ByBlock
 72
     1
 94
      127
  0
MATERIAL
  5
3C
102
{ACAD_REACTORS
330
3B
102
}
330
3B
100
AcDbMaterial
  1
ByLayer
 72
     1
 94
      127
  0
MATERIAL
  5
3E
102
{ACAD_REACTORS
330
3B
102
}
330
3B
100
AcDbMaterial
  1
Global
 72
     1
 94
      127
  0
MLINESTYLE
  5
18
102
{ACAD_REACTORS
330
17
102
}
330
17
100
AcDbMlineStyle
  2
Standard
 70
     0
  3

 62
   256
 51
90.0
 52
90.0
 71
     2
 49
0.5
 62
   256
  6
BYLAYER
 49
-0.5
 62
   256
  6
BYLAYER
  0
ACDBPLACEHOLDER
  5
F
102
{ACAD_REACTORS
330
E
102
}
330
E
  0
VISUALSTYLE
  5
2F
102
{ACAD_REACTORS
330
2A
102
}
330
2A
100
AcDbVisualStyle
  2
2dWireframe
 70
     4
177
     2
291
     0
 71
     0
176
     1
 72
     2
176
     1
 73
     0
176
     1
 90
        0
176
     1
 40
-0.6
176
     1
 41
-30.0
176
     1
 62
     5
 63
     7
421
 16777215
176
     1
 74
     1
176
     1
 91
        4
176
     1
 64
     7
176
     1
 65
   257
176
     1
 75
     1
176
     1
175
     1
176
     1
 42
1.0
176
     1
 92
        0
176
     1
 66
   257
176
     1
 43
1.0
176
     1
 76
     1
176
     1
 77
     6
176
     1
 78
     2
176
     1
 67
     7
176
     1
 79
     5
176
     1
170
     0
176
     1
171
     0
176
     1
290
     0
176
     1
 93
        1
176
     1
 44
0.0
176
     1
173
     0
176
     1
  0
VISUALSTYLE
  5
31
102
{ACAD_REACTORS
330
2A
102
}
330
2A
100
AcDbVisualStyle
  2
3D Hidden
 70
     6
177
     2
291
     0
 71
     1
176
     1
 72
     2
176
     1
 73
     2
176
     1
 90
        0
176
     1
 40
-0.6
176
     1
 41
-30.0
176
     1
 62
     5
 63
     7
421
 16777215
176
     1
 74
     2
176
     1
 91
        2
176
     1
 64
     7
176
     1
 65
   257
176
     1
 75
     2
176
     1
175
     1
176
     1
 42
40.0
176
     1
 92
        0
176
     1
 66
   257
176
     1
 43
1.0
176
     1
 76
     1
176
     1
 77
     6
176
     1
 78
     2
176
     1
 67
     7
176
     1
 79
     3
176
     1
170
     0
176
     1
171
     0
176
     1
290
     0
176
     1
 93
        1
176
     1
 44
0.0
176
     1
173
     0
176
     1
  0
VISUALSTYLE
  5
30
102
{ACAD_REACTORS
330
2A
102
}
330
2A
100
AcDbVisualStyle
  2
3dWireframe
 70
     5
177
     2
291
     0
 71
     0
176
     1
 72
     2
176
     1
 73
     0
176
     1
 90
        0
176
     1
 40
-0.6
176
     1
 41
-30.0
176
     1
 62
     5
 63
     7
421
 16777215
176
     1
 74
     1
176
     1
 91
        4
176
     1
 64
     7
176
     1
 65
   257
176
     1
 75
     1
176
     1
175
     1
176
     1
 42
1.0
176
     1
 92
        0
176
     1
 66
   257
176
     1
 43
1.0
176
     1
 76
     1
176
     1
 77
     6
176
     1
 78
     2
176
     1
 67
     7
176
     1
 79
     5
176
     1
170
     0
176
     1
171
     0
176
     1
290
     0
176
     1
 93
        1
176
     1
 44
0.0
176
     1
173
     0
176
     1
  0
VISUALSTYLE
  5
32
102
{ACAD_REACTORS
330
2A
102
}
330
2A
100
AcDbVisualStyle
  2
Basic
 70
     7
177
     2
291
     1
 71
     1
176
     1
 72
     0
176
     1
 73
     1
176
     1
 90
        0
176
     1
 40
-0.6
176
     1
 41
-30.0
176
     1
 62
     5
 63
     7
421
 16777215
176
     1
 74
     0
176
     1
 91
        4
176
     1
 64
     7
176
     1
 65
   257
176
     1
 75
     1
176
     1
175
     1
176
     1
 42
1.0
176
     1
 92
        8
176
     1
 66
     7
176
     1
 43
1.0
176
     1
 76
     1
176
     1
 77
     6
176
     1
 78
     2
176
     1
 67
     7
176
     1
 79
     5
176
     1
170
     0
176
     1
171
     0
176
     1
290
     0
176
     1
 93
        1
176
     1
 44
0.0
176
     1
173
     0
176
     1
  0
VISUALSTYLE
  5
36
102
{ACAD_REACTORS
330
2A
102
}
330
2A
100
AcDbVisualStyle
  2
Brighten
 70
    12
177
     2
291
     1
 71
     2
176
     1
 72
     2
176
     1
 73
     0
176
     1
 90
        0
176
     1
 40
-0.6
176
     1
 41
-30.0
176
     1
 62
     5
 63
     7
421
 16777215
176
     1
 74
     1
176
     1
 91
        4
176
     1
 64
     7
176
     1
 65
   257
176
     1
 75
     1
176
     1
175
     1
176
     1
 42
1.0
176
     1
 92
        8
176
     1
 66
     7
176
     1
 43
1.0
176
     1
 76
     1
176
     1
 77
     6
176
     1
 78
     2
176
     1
 67
     7
176
     1
 79
     5
176
     1
170
     0
176
     1
171
     0
176
     1
290
     0
176
     1
 93
        1
176
     1
 44
50.0
176
     1
173
     0
176
     1
  0
VISUALSTYLE
  5
3A
102
{ACAD_REACTORS
330
2A
102
}
330
2A
100
AcDbVisualStyle
  2
ColorChange
 70
    16
177
     2
291
     1
 71
     2
176
     1
 72
     2
176
     1
 73
     3
176
     1
 90
        0
176
     1
 40
-0.6
176
     1
 41
-30.0
176
     1
 62
     5
 63
     8
421
  8421504
176
     1
 74
     1
176
     1
 91
        4
176
     1
 64
     7
176
     1
 65
   257
176
     1
 75
     1
176
     1
175
     1
176
     1
 42
1.0
176
     1
 92
        8
176
     1
 66
     8
424
  8421504
176
     1
 43
1.0
176
     1
 76
     1
176
     1
 77
     6
176
     1
 78
     2
176
     1
 67
     7
176
     1
 79
     5
176
     1
170
     0
176
     1
171
     0
176
     1
290
     0
176
     1
 93
        1
176
     1
 44
0.0
176
     1
173
     0
176
     1
  0
VISUALSTYLE
  5
34
102
{ACAD_REACTORS
330
2A
102
}
330
2A
100
AcDbVisualStyle
  2
Conceptual
 70
     9
177
     2
291
     0
 71
     3
176
     1
 72
     2
176
     1
 73
     0
176
     1
 90
        0
176
     1
 40
-0.6
176
     1
 41
-30.0
176
     1
 62
     5
 63
     7
421
 16777215
176
     1
 74
     2
176
     1
 91
        2
176
     1
 64
     7
176
     1
 65
   257
176
     1
 75
     1
176
     1
175
     1
176
     1
 42
40.0
176
     1
 92
        8
176
     1
 66
     7
176
     1
 43
1.0
176
     1
 76
     1
176
     1
 77
     6
176
     1
 78
     2
176
     1
 67
     7
176
     1
 79
     3
176
     1
170
     0
176
     1
171
     0
176
     1
290
     0
176
     1
 93
        1
176
     1
 44
0.0
176
     1
173
     0
176
     1
  0
VISUALSTYLE
  5
35
102
{ACAD_REACTORS
330
2A
102
}
330
2A
100
AcDbVisualStyle
  2
Dim
 70
    11
177
     2
291
     1
 71
     2
176
     1
 72
     2
176
     1
 73
     0
176
     1
 90
        0
176
     1
 40
-0.6
176
     1
 41
-30.0
176
     1
 62
     5
 63
     7
421
 16777215
176
     1
 74
     1
176
     1
 91
        4
176
     1
 64
     7
176
     1
 65
   257
176
     1
 75
     1
176
     1
175
     1
176
     1
 42
1.0
176
     1
 92
        8
176
     1
 66
     7
176
     1
 43
1.0
176
     1
 76
     1
176
     1
 77
     6
176
     1
 78
     2
176
     1
 67
     7
176
     1
 79
     5
176
     1
170
     0
176
     1
171
     0
176
     1
290
     0
176
     1
 93
        1
176
     1
 44
-50.0
176
     1
173
     0
176
     1
  0
VISUALSTYLE
  5
39
102
{ACAD_REACTORS
330
2A
102
}
330
2A
100
AcDbVisualStyle
  2
Facepattern
 70
    15
177
     2
291
     1
 71
     2
176
     1
 72
     2
176
     1
 73
     0
176
     1
 90
        0
176
     1
 40
-0.6
176
     1
 41
-30.0
176
     1
 62
     5
 63
     7
421
 16777215
176
     1
 74
     1
176
     1
 91
        4
176
     1
 64
     7
176
     1
 65
   257
176
     1
 75
     1
176
     1
175
     1
176
     1
 42
1.0
176
     1
 92
        8
176
     1
 66
     7
176
     1
 43
1.0
176
     1
 76
     1
176
     1
 77
     6
176
     1
 78
     2
176
     1
 67
     7
176
     1
 79
     5
176
     1
170
     0
176
     1
171
     0
176
     1
290
     0
176
     1
 93
        1
176
     1
 44
0.0
176
     1
173
     0
176
     1
  0
VISUALSTYLE
  5
2B
102
{ACAD_REACTORS
330
2A
102
}
330
2A
100
AcDbVisualStyle
  2
Flat
 70
     0
177
     2
291
     1
 71
     2
176
     1
 72
     1
176
     1
 73
     1
176
     1
 90
        2
176
     1
 40
-0.6
176
     1
 41
30.0
176
     1
 62
     5
 63
     7
421
 16777215
176
     1
 74
     0
176
     1
 91
        4
176
     1
 64
     7
176
     1
 65
   257
176
     1
 75
     1
176
     1
175
     1
176
     1
 42
1.0
176
     1
 92
        8
176
     1
 66
     7
176
     1
 43
1.0
176
     1
 76
     1
176
     1
 77
     6
176
     1
 78
     2
176
     1
 67
     7
176
     1
 79
     5
176
     1
170
     0
176
     1
171
     0
176
     1
290
     0
176
     1
 93
       13
176
     1
 44
0.0
176
     1
173
     0
176
     1
  0
VISUALSTYLE
  5
2C
102
{ACAD_REACTORS
330
2A
102
}
330
2A
100
AcDbVisualStyle
  2
FlatWithEdges
 70
     1
177
     2
291
     1
 71
     2
176
     1
 72
     1
176
     1
 73
     1
176
     1
 90
        2
176
     1
 40
-0.6
176
     1
 41
30.0
176
     1
 62
     5
 63
     7
421
 16777215
176
     1
 74
     1
176
     1
 91
        4
176
     1
 64
     7
176
     1
 65
   257
176
     1
 75
     1
176
     1
175
     1
176
     1
 42
1.0
176
     1
 92
        0
176
     1
 66
   257
176
     1
 43
1.0
176
     1
 76
     1
176
     1
 77
     6
176
     1
 78
     2
176
     1
 67
     7
176
     1
 79
     5
176
     1
170
     0
176
     1
171
     0
176
     1
290
     0
176
     1
 93
       13
176
     1
 44
0.0
176
     1
173
     0
176
     1
  0
VISUALSTYLE
  5
2D
102
{ACAD_REACTORS
330
2A
102
}
330
2A
100
AcDbVisualStyle
  2
Gouraud
 70
     2
177
     2
291
     1
 71
     2
176
     1
 72
     2
176
     1
 73
     1
176
     1
 90
        2
176
     1
 40
-0.6
176
     1
 41
30.0
176
     1
 62
     5
 63
     7
421
 16777215
176
     1
 74
     0
176
     1
 91
        4
176
     1
 64
     7
176
     1
 65
   257
176
     1
 75
     1
176
     1
175
     1
176
     1
 42
1.0
176
     1
 92
        0
176
     1
 66
     7
176
     1
 43
1.0
176
     1
 76
     1
176
     1
 77
     6
176
     1
 78
     2
176
     1
 67
     7
176
     1
 79
     5
176
     1
170
     0
176
     1
171
     0
176
     1
290
     0
176
     1
 93
       13
176
     1
 44
0.0
176
     1
173
     0
176
     1
  0
VISUALSTYLE
  5
2E
102
{ACAD_REACTORS
330
2A
102
}
330
2A
100
AcDbVisualStyle
  2
GouraudWithEdges
 70
     3
177
     2
291
     1
 71
     2
176
     1
 72
     2
176
     1
 73
     1
176
     1
 90
        2
176
     1
 40
-0.6
176
     1
 41
30.0
176
     1
 62
     5
 63
     7
421
 16777215
176
     1
 74
     1
176
     1
 91
        4
176
     1
 64
     7
176
     1
 65
   257
176
     1
 75
     1
176
     1
175
     1
176
     1
 42
1.0
176
     1
 92
        0
176
     1
 66
   257
176
     1
 43
1.0
176
     1
 76
     1
176
     1
 77
     6
176
     1
 78
     2
176
     1
 67
     7
176
     1
 79
     5
176
     1
170
     0
176
     1
171
     0
176
     1
290
     0
176
     1
 93
       13
176
     1
 44
0.0
176
     1
173
     0
176
     1
  0
VISUALSTYLE
  5
38
102
{ACAD_REACTORS
330
2A
102
}
330
2A
100
AcDbVisualStyle
  2
Linepattern
 70
    14
177
     2
291
     1
 71
     2
176
     1
 72
     2
176
     1
 73
     0
176
     1
 90
        0
176
     1
 40
-0.6
176
     1
 41
-30.0
176
     1
 62
     5
 63
     7
421
 16777215
176
     1
 74
     1
176
     1
 91
        4
176
     1
 64
     7
176
     1
 65
   257
176
     1
 75
     7
176
     1
175
     7
176
     1
 42
1.0
176
     1
 92
        8
176
     1
 66
     7
176
     1
 43
1.0
176
     1
 76
     1
176
     1
 77
     6
176
     1
 78
     2
176
     1
 67
     7
176
     1
 79
     5
176
     1
170
     0
176
     1
171
     0
176
     1
290
     0
176
     1
 93
        1
176
     1
 44
0.0
176
     1
173
     0
176
     1
  0
VISUALSTYLE
  5
33
102
{ACAD_REACTORS
330
2A
102
}
330
2A
100
AcDbVisualStyle
  2
Realistic
 70
     8
177
     2
291
     0
 71
     2
176
     1
 72
     2
176
     1
 73
     0
176
     1
 90
        0
176
     1
 40
-0.6
176
     1
 41
-30.0
176
     1
 62
     5
 63
     7
421
 16777215
176
     1
 74
     1
176
     1
 91
        0
176
     1
 64
     7
176
     1
 65
   257
176
     1
 75
     1
176
     1
175
     1
176
     1
 42
1.0
176
     1
 92
        8
176
     1
 66
     8
424
  7895160
176
     1
 43
1.0
176
     1
 76
     1
176
     1
 77
     6
176
     1
 78
     2
176
     1
 67
     7
176
     1
 79
     5
176
     1
170
     0
176
     1
171
     0
176
     1
290
     0
176
     1
 93
       13
176
     1
 44
0.0
176
     1
173
     0
176
     1
  0
VISUALSTYLE
  5
37
102
{ACAD_REACTORS
330
2A
102
}
330
2A
100
AcDbVisualStyle
  2
Thicken
 70
    13
177
     2
291
     1
 71
     2
176
     1
 72
     2
176
     1
 73
     0
176
     1
 90
        0
176
     1
 40
-0.6
176
     1
 41
-30.0
176
     1
 62
     5
 63
     7
421
 16777215
176
     1
 74
     1
176
     1
 91
        4
176
     1
 64
     7
176
     1
 65
   257
176
     1
 75
     1
176
     1
175
     1
176
     1
 42
1.0
176
     1
 92
       12
176
     1
 66
     7
176
     1
 43
1.0
176
     1
 76
     1
176
     1
 77
     6
176
     1
 78
     2
176
     1
 67
     7
176
     1
 79
     5
176
     1
170
     0
176
     1
171
     0
176
     1
290
     0
176
     1
 93
        1
176
     1
 44
0.0
176
     1
173
     0
176
     1
  0
ENDSEC
  0
EOF
