  0
SECTION
  2
HEADER
  9
$ACADVER
  1
AC1024
  9
$ACADMAINTVER
 70
     6
  9
$DWGCODEPAGE
  3
UNDEFINED
  9
$INSBASE
 10
0.0
 20
0.0
 30
0.0
  9
$EXTMIN
 10
1.000000000000000E+20
 20
1.000000000000000E+20
 30
1.000000000000000E+20
  9
$EXTMAX
 10
-1.000000000000000E+20
 20
-1.000000000000000E+20
 30
-1.000000000000000E+20
  9
$LIMMIN
 10
0.0
 20
0.0
  9
$LIMMAX
 10
12.0
 20
9.0
  9
$ORTHOMODE
 70
     0
  9
$REGENMODE
 70
     1
  9
$FILLMODE
 70
     1
  9
$QTEXTMODE
 70
     0
  9
$MIRRTEXT
 70
     1
  9
$LTSCALE
 40
1.0
  9
$ATTMODE
 70
     1
  9
$TEXTSIZE
 40
0.2
  9
$TRACEWID
 40
0.05
  9
$TEXTSTYLE
  7
Standard
  9
$CLAYER
  8
0
  9
$CELTYPE
  6
ByLayer
  9
$CECOLOR
 62
   256
  9
$CELTSCALE
 40
1.0
  9
$DISPSILH
 70
     0
  9
$DIMSCALE
 40
1.0
  9
$DIMASZ
 40
0.18
  9
$DIMEXO
 40
0.0625
  9
$DIMDLI
 40
0.38
  9
$DIMRND
 40
0.0
  9
$DIMDLE
 40
0.0
  9
$DIMEXE
 40
0.18
  9
$DIMTP
 40
0.0
  9
$DIMTM
 40
0.0
  9
$DIMTXT
 40
0.18
  9
$DIMCEN
 40
0.09
  9
$DIMTSZ
 40
0.0
  9
$DIMTOL
 70
     0
  9
$DIMLIM
 70
     0
  9
$DIMTIH
 70
     1
  9
$DIMTOH
 70
     1
  9
$DIMSE1
 70
     0
  9
$DIMSE2
 70
     0
  9
$DIMTAD
 70
     0
  9
$DIMZIN
 70
     0
  9
$DIMBLK
  1

  9
$DIMASO
 70
     1
  9
$DIMSHO
 70
     1
  9
$DIMPOST
  1

  9
$DIMAPOST
  1

  9
$DIMALT
 70
     0
  9
$DIMALTD
 70
     2
  9
$DIMALTF
 40
25.4
  9
$DIMLFAC
 40
1.0
  9
$DIMTOFL
 70
     0
  9
$DIMTVP
 40
0.0
  9
$DIMTIX
 70
     0
  9
$DIMSOXD
 70
     0
  9
$DIMSAH
 70
     0
  9
$DIMBLK1
  1

  9
$DIMBLK2
  1

  9
$DIMSTYLE
  2
Standard
  9
$DIMCLRD
 70
     0
  9
$DIMCLRE
 70
     0
  9
$DIMCLRT
 70
     0
  9
$DIMTFAC
 40
1.0
  9
$DIMGAP
 40
0.09
  9
$DIMJUST
 70
     0
  9
$DIMSD1
 70
     0
  9
$DIMSD2
 70
     0
  9
$DIMTOLJ
 70
     1
  9
$DIMTZIN
 70
     0
  9
$DIMALTZ
 70
     0
  9
$DIMALTTZ
 70
     0
  9
$DIMUPT
 70
     0
  9
$DIMDEC
 70
     4
  9
$DIMTDEC
 70
     4
  9
$DIMALTU
 70
     2
  9
$DIMALTTD
 70
     2
  9
$DIMTXSTY
  7
Standard
  9
$DIMAUNIT
 70
     0
  9
$DIMADEC
 70
     0
  9
$DIMALTRND
 40
0.0
  9
$DIMAZIN
 70
     0
  9
$DIMDSEP
 70
    46
  9
$DIMATFIT
 70
     3
  9
$DIMFRAC
 70
     0
  9
$DIMLDRBLK
  1

  9
$DIMLUNIT
 70
     2
  9
$DIMLWD
 70
    -2
  9
$DIMLWE
 70
    -2
  9
$DIMTMOVE
 70
     0
  9
$DIMFXL
 40
1.0
  9
$DIMFXLON
 70
     0
  9
$DIMJOGANG
 40
0.7853981633974483
  9
$DIMTFILL
 70
     0
  9
$DIMTFILLCLR
 70
     0
  9
$DIMARCSYM
 70
     0
  9
$DIMLTYPE
  6

  9
$DIMLTEX1
  6

  9
$DIMLTEX2
  6

  9
$DIMTXTDIRECTION
 70
     0
  9
$LUNITS
 70
     2
  9
$LUPREC
 70
     4
  9
$SKETCHINC
 40
0.1
  9
$FILLETRAD
 40
0.5
  9
$AUNITS
 70
     0
  9
$AUPREC
 70
     0
  9
$MENU
  1
.
  9
$ELEVATION
 40
0.0
  9
$PELEVATION
 40
0.0
  9
$THICKNESS
 40
0.0
  9
$LIMCHECK
 70
     0
  9
$CHAMFERA
 40
0.5
  9
$CHAMFERB
 40
0.5
  9
$CHAMFERC
 40
1.0
  9
$CHAMFERD
 40
0.0
  9
$SKPOLY
 70
     0
  9
$TDCREATE
 40
2457917.598576377
  9
$TDUCREATE
 40
2457917.223576389
  9
$TDUPDATE
 40
2457917.598576377
  9
$TDUUPDATE
 40
2457917.223576389
  9
$TDINDWG
 40
0.0000000116
  9
$TDUSRTIMER
 40
0.0000000116
  9
$USRTIMER
 70
     1
  9
$ANGBASE
 50
0.0
  9
$ANGDIR
 70
     0
  9
$PDMODE
 70
     0
  9
$PDSIZE
 40
0.0
  9
$PLINEWID
 40
0.0
  9
$SPLFRAME
 70
     0
  9
$SPLINETYPE
 70
     6
  9
$SPLINESEGS
 70
     8
  9
$HANDSEED
  5
1AF
  9
$SURFTAB1
 70
     6
  9
$SURFTAB2
 70
     6
  9
$SURFTYPE
 70
     6
  9
$SURFU
 70
     6
  9
$SURFV
 70
     6
  9
$UCSBASE
  2

  9
$UCSNAME
  2

  9
$UCSORG
 10
0.0
 20
0.0
 30
0.0
  9
$UCSXDIR
 10
1.0
 20
0.0
 30
0.0
  9
$UCSYDIR
 10
0.0
 20
1.0
 30
0.0
  9
$UCSORTHOREF
  2

  9
$UCSORTHOVIEW
 70
     0
  9
$UCSORGTOP
 10
0.0
 20
0.0
 30
0.0
  9
$UCSORGBOTTOM
 10
0.0
 20
0.0
 30
0.0
  9
$UCSORGLEFT
 10
0.0
 20
0.0
 30
0.0
  9
$UCSORGRIGHT
 10
0.0
 20
0.0
 30
0.0
  9
$UCSORGFRONT
 10
0.0
 20
0.0
 30
0.0
  9
$UCSORGBACK
 10
0.0
 20
0.0
 30
0.0
  9
$PUCSBASE
  2

  9
$PUCSNAME
  2

  9
$PUCSORG
 10
0.0
 20
0.0
 30
0.0
  9
$PUCSXDIR
 10
1.0
 20
0.0
 30
0.0
  9
$PUCSYDIR
 10
0.0
 20
1.0
 30
0.0
  9
$PUCSORTHOREF
  2

  9
$PUCSORTHOVIEW
 70
     0
  9
$PUCSORGTOP
 10
0.0
 20
0.0
 30
0.0
  9
$PUCSORGBOTTOM
 10
0.0
 20
0.0
 30
0.0
  9
$PUCSORGLEFT
 10
0.0
 20
0.0
 30
0.0
  9
$PUCSORGRIGHT
 10
0.0
 20
0.0
 30
0.0
  9
$PUCSORGFRONT
 10
0.0
 20
0.0
 30
0.0
  9
$PUCSORGBACK
 10
0.0
 20
0.0
 30
0.0
  9
$USERI1
 70
     0
  9
$USERI2
 70
     0
  9
$USERI3
 70
     0
  9
$USERI4
 70
     0
  9
$USERI5
 70
     0
  9
$USERR1
 40
0.0
  9
$USERR2
 40
0.0
  9
$USERR3
 40
0.0
  9
$USERR4
 40
0.0
  9
$USERR5
 40
0.0
  9
$WORLDVIEW
 70
     1
  9
$SHADEDGE
 70
     3
  9
$SHADEDIF
 70
    70
  9
$TILEMODE
 70
     1
  9
$MAXACTVP
 70
    64
  9
$PINSBASE
 10
0.0
 20
0.0
 30
0.0
  9
$PLIMCHECK
 70
     0
  9
$PEXTMIN
 10
1.000000000000000E+20
 20
1.000000000000000E+20
 30
1.000000000000000E+20
  9
$PEXTMAX
 10
-1.000000000000000E+20
 20
-1.000000000000000E+20
 30
-1.000000000000000E+20
  9
$PLIMMIN
 10
0.0
 20
0.0
  9
$PLIMMAX
 10
12.0
 20
9.0
  9
$UNITMODE
 70
     0
  9
$VISRETAIN
 70
     1
  9
$PLINEGEN
 70
     0
  9
$PSLTSCALE
 70
     1
  9
$TREEDEPTH
 70
  3020
  9
$CMLSTYLE
  2
Standard
  9
$CMLJUST
 70
     0
  9
$CMLSCALE
 40
1.0
  9
$PROXYGRAPHICS
 70
     1
  9
$MEASUREMENT
 70
     0
  9
$CELWEIGHT
370
    -1
  9
$ENDCAPS
280
     0
  9
$JOINSTYLE
280
     0
  9
$LWDISPLAY
290
     1
  9
$INSUNITS
 70
     1
  9
$HYPERLINKBASE
  1

  9
$STYLESHEET
  1

  9
$XEDIT
290
     1
  9
$CEPSNTYPE
380
     0
  9
$PSTYLEMODE
290
     1
  9
$FINGERPRINTGUID
  2
{9D93EF38-CED0-4C81-4281-DA9BFEFDC43A}
  9
$VERSIONGUID
  2
{FAEB1C32-E019-11D5-929B-00C0DF256EC4}
  9
$EXTNAMES
290
     1
  9
$PSVPSCALE
 40
0.0
  9
$OLESTARTUP
290
     0
  9
$SORTENTS
280
   127
  9
$INDEXCTL
280
     0
  9
$HIDETEXT
280
     1
  9
$XCLIPFRAME
280
     2
  9
$HALOGAP
280
     0
  9
$OBSCOLOR
 70
   257
  9
$OBSLTYPE
280
     0
  9
$INTERSECTIONDISPLAY
280
     0
  9
$INTERSECTIONCOLOR
 70
   257
  9
$DIMASSOC
280
     2
  9
$PROJECTNAME
  1

  9
$CAMERADISPLAY
290
     0
  9
$LENSLENGTH
 40
50.0
  9
$CAMERAHEIGHT
 40
0.0
  9
$STEPSPERSEC
 40
2.0
  9
$STEPSIZE
 40
6.0
  9
$3DDWFPREC
 40
2.0
  9
$PSOLWIDTH
 40
0.25
  9
$PSOLHEIGHT
 40
4.0
  9
$LOFTANG1
 40
1.570796326794897
  9
$LOFTANG2
 40
1.570796326794897
  9
$LOFTMAG1
 40
0.0
  9
$LOFTMAG2
 40
0.0
  9
$LOFTPARAM
 70
     7
  9
$LOFTNORMALS
280
     1
  9
$LATITUDE
 40
37.795
  9
$LONGITUDE
 40
-122.394
  9
$NORTHDIRECTION
 40
0.0
  9
$TIMEZONE
 70
 -8000
  9
$LIGHTGLYPHDISPLAY
280
     1
  9
$TILEMODELIGHTSYNCH
280
     1
  9
$CMATERIAL
347
3C
  9
$SOLIDHIST
280
     1
  9
$SHOWHIST
280
     1
  9
$DWFFRAME
280
     2
  9
$DGNFRAME
280
     2
  9
$REALWORLDSCALE
290
     1
  9
$INTERFERECOLOR
 62
   256
  9
$CSHADOW
280
     0
  9
$SHADOWPLANELOCATION
 40
0.0
  0
ENDSEC
  0
SECTION
  2
CLASSES
  0
CLASS
  1
ACDBDICTIONARYWDFLT
  2
AcDbDictionaryWithDefault
  3
ObjectDBX Classes
 90
        0
 91
        4
280
     0
281
     0
  0
CLASS
  1
VISUALSTYLE
  2
AcDbVisualStyle
  3
ObjectDBX Classes
 90
     4095
 91
        4
280
     0
281
     0
  0
CLASS
  1
MATERIAL
  2
AcDbMaterial
  3
ObjectDBX Classes
 90
     1153
 91
        4
280
     0
281
     0
  0
CLASS
  1
SUN
  2
AcDbSun
  3
SCENEOE
 90
     1024
 91
        4
280
     0
281
     0
  0
ENDSEC
  0
SECTION
  2
TABLES
  0
TABLE
  2
VPORT
  5
8
330
0
100
AcDbSymbolTable
 70
     1
  0
VPORT
  5
29
330
8
100
AcDbSymbolTableRecord
100
AcDbViewportTableRecord
  2
*Active
 70
     0
 10
0.0
 20
0.0
 11
1.0
 21
1.0
 12
0.0
 22
0.0
 13
0.0
 23
0.0
 14
0.5
 24
0.5
 15
0.5
 25
0.5
 16
0.0
 26
0.0
 36
1.0
 17
63.499999984125
 27
-89.00059456108309
 37
0.0
 40
178.0011891221662
 41
0.7134783795241226
 42
50.0
 43
0.0
 44
0.0
 50
0.0
 51
0.0
 71
     0
 72
   100
 73
     1
 74
     3
 75
     0
 76
     0
 77
     0
 78
     0
281
     0
 65
     1
110
0.0
120
0.0
130
0.0
111
1.0
121
0.0
131
0.0
112
0.0
122
1.0
132
0.0
 79
     0
146
0.0
 60
     3
 61
     5
292
     1
282
     1
141
0.0
142
0.0
 63
   250
361
3F
  0
ENDTAB
  0
TABLE
  2
LTYPE
  5
5
330
0
100
AcDbSymbolTable
 70
     3
  0
LTYPE
  5
14
330
5
100
AcDbSymbolTableRecord
100
AcDbLinetypeTableRecord
  2
ByBlock
 70
     0
  3

 72
    65
 73
     0
 40
0.0
  0
LTYPE
  5
15
330
5
100
AcDbSymbolTableRecord
100
AcDbLinetypeTableRecord
  2
ByLayer
 70
     0
  3

 72
    65
 73
     0
 40
0.0
  0
LTYPE
  5
16
330
5
100
AcDbSymbolTableRecord
100
AcDbLinetypeTableRecord
  2
Continuous
 70
     0
  3
Solid line
 72
    65
 73
     0
 40
0.0
  0
LTYPE
  5
135
330
5
100
AcDbSymbolTableRecord
100
AcDbLinetypeTableRecord
  2
AI-Linetype-1
 70
     0
  3
Adobe Illustrator Linetype No. 1
 72
    65
 73
     4
 40
2.849998472084047
 49
0.3500000012370477
 74
     0
 49
-0.7499984646617606
 74
     0
 49
1.000001541523478
 74
     0
 49
-0.7499984646617606
 74
     0
  0
LTYPE
  5
13B
330
5
100
AcDbSymbolTableRecord
100
AcDbLinetypeTableRecord
  2
AI-Linetype-2
 70
     0
  3
Adobe Illustrator Linetype No. 2
 72
    65
 73
     4
 40
2.849998472084047
 49
0.3500000012370477
 74
     0
 49
-0.7499984646617606
 74
     0
 49
1.000001541523478
 74
     0
 49
-0.7499984646617606
 74
     0
  0
ENDTAB
  0
TABLE
  2
LAYER
  5
2
330
0
100
AcDbSymbolTable
 70
     2
  0
LAYER
  5
10
330
2
100
AcDbSymbolTableRecord
100
AcDbLayerTableRecord
  2
0
 70
     0
 62
     7
  6
Continuous
370
    -3
390
F
347
3E
  0
LAYER
  5
40
330
2
100
AcDbSymbolTableRecord
100
AcDbLayerTableRecord
  2
_U+30EC_U+30A4_U+30E4_U+30FC 1
 70
     0
 62
     7
  6
Continuous
370
    -3
390
F
347
3E
  0
ENDTAB
  0
TABLE
  2
STYLE
  5
3
330
0
100
AcDbSymbolTable
 70
     1
  0
STYLE
  5
11
330
3
100
AcDbSymbolTableRecord
100
AcDbTextStyleTableRecord
  2
Standard
 70
     0
 40
0.0
 41
1.0
 50
0.0
 71
     0
 42
0.2
  3
txt
  4

  0
ENDTAB
  0
TABLE
  2
VIEW
  5
6
330
0
100
AcDbSymbolTable
 70
     0
  0
ENDTAB
  0
TABLE
  2
UCS
  5
7
330
0
100
AcDbSymbolTable
 70
     0
  0
ENDTAB
  0
TABLE
  2
APPID
  5
9
330
0
100
AcDbSymbolTable
 70
     1
  0
APPID
  5
12
330
9
100
AcDbSymbolTableRecord
100
AcDbRegAppTableRecord
  2
ACAD
 70
     0
  0
ENDTAB
  0
TABLE
  2
DIMSTYLE
  5
A
330
0
100
AcDbSymbolTable
 70
     1
100
AcDbDimStyleTable
  0
DIMSTYLE
105
27
330
A
100
AcDbSymbolTableRecord
100
AcDbDimStyleTableRecord
  2
Standard
 70
     0
178
     0
340
11
  0
ENDTAB
  0
TABLE
  2
BLOCK_RECORD
  5
1
330
0
100
AcDbSymbolTable
 70
     9
  0
BLOCK_RECORD
  5
1F
330
1
100
AcDbSymbolTableRecord
100
AcDbBlockTableRecord
  2
*Model_Space
340
22
 70
     0
280
     1
281
     0
  0
BLOCK_RECORD
  5
1B
330
1
100
AcDbSymbolTableRecord
100
AcDbBlockTableRecord
  2
*Paper_Space
340
1E
 70
     0
280
     1
281
     0
  0
BLOCK_RECORD
  5
23
330
1
100
AcDbSymbolTableRecord
100
AcDbBlockTableRecord
  2
*Paper_Space0
340
26
 70
     0
280
     1
281
     0
  0
BLOCK_RECORD
  5
41
330
1
100
AcDbSymbolTableRecord
100
AcDbBlockTableRecord
  2
block 2
340
0
102
{BLKREFS
331
42
102
}
 70
     0
280
     1
281
     0
  0
BLOCK_RECORD
  5
BE
330
1
100
AcDbSymbolTableRecord
100
AcDbBlockTableRecord
  2
block 3
340
0
102
{BLKREFS
331
BF
102
}
 70
     0
280
     1
281
     0
  0
BLOCK_RECORD
  5
D6
330
1
100
AcDbSymbolTableRecord
100
AcDbBlockTableRecord
  2
block 4
340
0
102
{BLKREFS
331
D7
102
}
 70
     0
280
     1
281
     0
  0
BLOCK_RECORD
  5
E7
330
1
100
AcDbSymbolTableRecord
100
AcDbBlockTableRecord
  2
block 5
340
0
102
{BLKREFS
331
E8
102
}
 70
     0
280
     1
281
     0
  0
BLOCK_RECORD
  5
F0
330
1
100
AcDbSymbolTableRecord
100
AcDbBlockTableRecord
  2
block 6
340
0
102
{BLKREFS
331
F1
102
}
 70
     0
280
     1
281
     0
  0
BLOCK_RECORD
  5
FA
330
1
100
AcDbSymbolTableRecord
100
AcDbBlockTableRecord
  2
block 7
340
0
102
{BLKREFS
331
FB
102
}
 70
     0
280
     1
281
     0
  0
BLOCK_RECORD
  5
13D
330
1
100
AcDbSymbolTableRecord
100
AcDbBlockTableRecord
  2
block 8
340
0
102
{BLKREFS
331
13E
102
}
 70
     0
280
     1
281
     0
  0
BLOCK_RECORD
  5
188
330
1
100
AcDbSymbolTableRecord
100
AcDbBlockTableRecord
  2
block 9
340
0
102
{BLKREFS
331
189
102
}
 70
     0
280
     1
281
     0
  0
ENDTAB
  0
ENDSEC
  0
SECTION
  2
BLOCKS
  0
BLOCK
  5
20
330
1F
100
AcDbEntity
  8
0
100
AcDbBlockBegin
  2
*Model_Space
 70
     0
 10
0.0
 20
0.0
 30
0.0
  3
*Model_Space
  1

  0
ENDBLK
  5
21
330
1F
100
AcDbEntity
  8
0
100
AcDbBlockEnd
  0
BLOCK
  5
1C
330
1B
100
AcDbEntity
 67
     1
  8
0
100
AcDbBlockBegin
  2
*Paper_Space
 70
     0
 10
0.0
 20
0.0
 30
0.0
  3
*Paper_Space
  1

  0
ENDBLK
  5
1D
330
1B
100
AcDbEntity
 67
     1
  8
0
100
AcDbBlockEnd
  0
BLOCK
  5
24
330
23
100
AcDbEntity
  8
0
100
AcDbBlockBegin
  2
*Paper_Space0
 70
     0
 10
0.0
 20
0.0
 30
0.0
  3
*Paper_Space0
  1

  0
ENDBLK
  5
25
330
23
100
AcDbEntity
  8
0
100
AcDbBlockEnd
  0
BLOCK
  5
43
330
41
100
AcDbEntity
  8
0
100
AcDbBlockBegin
  2
block 2
 70
     0
 10
0.0
 20
0.0
 30
0.0
  3
block 2
  1

  0
POLYLINE
  5
45
330
41
100
AcDbEntity
  8
_U+30EC_U+30A4_U+30E4_U+30FC 1
370
     0
100
AcDb2dPolyline
 66
     1
 10
0.0
 20
0.0
 30
0.0
  0
VERTEX
  5
46
330
45
100
AcDbEntity
  8
_U+30EC_U+30A4_U+30E4_U+30FC 1
370
     0
100
AcDbVertex
100
AcDb2dVertex
 10
66.36804197559549
 20
-106.7304361712341
 30
0.0
  0
VERTEX
  5
47
330
45
100
AcDbEntity
  8
_U+30EC_U+30A4_U+30E4_U+30FC 1
370
     0
100
AcDbVertex
100
AcDb2dVertex
 10
66.36804197559549
 20
-108.2576469998453
 30
0.0
  0
VERTEX
  5
48
330
45
100
AcDbEntity
  8
_U+30EC_U+30A4_U+30E4_U+30FC 1
370
     0
100
AcDbVertex
100
AcDb2dVertex
 10
66.23609481851042
 20
-108.2576469998453
 30
0.0
  0
VERTEX
  5
49
330
45
100
AcDbEntity
  8
_U+30EC_U+30A4_U+30E4_U+30FC 1
370
     0
100
AcDbVertex
100
AcDb2dVertex
 10
66.23609481851042
 20
-106.8448133413444
 30
0.0
  0
VERTEX
  5
4A
330
45
100
AcDbEntity
  8
_U+30EC_U+30A4_U+30E4_U+30FC 1
370
     0
100
AcDbVertex
100
AcDb2dVertex
 10
65.95325247917141
 20
-106.8448133413444
 30
0.0
  0
VERTEX
  5
4B
330
45
100
AcDbEntity
  8
_U+30EC_U+30A4_U+30E4_U+30FC 1
370
     0
100
AcDbVertex
100
AcDb2dVertex
 10
65.95325247917141
 20
-106.7304361712341
 30
0.0
  0
VERTEX
  5
4C
330
45
100
AcDbEntity
  8
_U+30EC_U+30A4_U+30E4_U+30FC 1
370
     0
100
AcDbVertex
100
AcDb2dVertex
 10
66.36804197559549
 20
-106.7304361712341
 30
0.0
  0
SEQEND
  5
4D
330
45
100
AcDbEntity
  8
_U+30EC_U+30A4_U+30E4_U+30FC 1
370
     0
  0
HATCH
  5
4E
330
41
100
AcDbEntity
  8
_U+30EC_U+30A4_U+30E4_U+30FC 1
 62
   179
420
  2234388
100
AcDbHatch
 10
0.0
 20
0.0
 30
0.0
210
0.0
220
0.0
230
1.0
  2
SOLID
 70
     1
 71
     0
 91
        1
 92
        1
 93
        6
 72
     1
 10
66.36804197559549
 20
-106.7304361712341
 11
66.36804197559549
 21
-108.2576469998453
 72
     1
 10
66.36804197559549
 20
-108.2576469998453
 11
66.23609481851042
 21
-108.2576469998453
 72
     1
 10
66.23609481851042
 20
-108.2576469998453
 11
66.23609481851042
 21
-106.8448133413444
 72
     1
 10
66.23609481851042
 20
-106.8448133413444
 11
65.95325247917141
 21
-106.8448133413444
 72
     1
 10
65.95325247917141
 20
-106.8448133413444
 11
65.95325247917141
 21
-106.7304361712341
 72
     1
 10
65.95325247917141
 20
-106.7304361712341
 11
66.36804197559549
 21
-106.7304361712341
 97
        0
 75
     2
 76
     1
 98
        0
  0
POLYLINE
  5
4F
330
41
100
AcDbEntity
  8
_U+30EC_U+30A4_U+30E4_U+30FC 1
370
     0
100
AcDb2dPolyline
 66
     1
 10
0.0
 20
0.0
 30
0.0
  0
VERTEX
  5
50
330
4F
100
AcDbEntity
  8
_U+30EC_U+30A4_U+30E4_U+30FC 1
370
     0
100
AcDbVertex
100
AcDb2dVertex
 10
67.912478281633
 20
-106.7304361712341
 30
0.0
  0
VERTEX
  5
51
330
4F
100
AcDbEntity
  8
_U+30EC_U+30A4_U+30E4_U+30FC 1
370
     0
100
AcDbVertex
100
AcDb2dVertex
 10
67.133542192418
 20
-108.2576469998453
 30
0.0
  0
VERTEX
  5
52
330
4F
100
AcDbEntity
  8
_U+30EC_U+30A4_U+30E4_U+30FC 1
370
     0
100
AcDbVertex
100
AcDb2dVertex
 10
67.02123207959886
 20
-108.2576469998453
 30
0.0
  0
VERTEX
  5
53
330
4F
100
AcDbEntity
  8
_U+30EC_U+30A4_U+30E4_U+30FC 1
370
     0
100
AcDbVertex
100
AcDb2dVertex
 10
67.80016816881385
 20
-106.7304361712341
 30
0.0
  0
VERTEX
  5
54
330
4F
100
AcDbEntity
  8
_U+30EC_U+30A4_U+30E4_U+30FC 1
370
     0
100
AcDbVertex
100
AcDb2dVertex
 10
67.912478281633
 20
-106.7304361712341
 30
0.0
  0
SEQEND
  5
55
330
4F
100
AcDbEntity
  8
_U+30EC_U+30A4_U+30E4_U+30FC 1
370
     0
  0
HATCH
  5
56
330
41
100
AcDbEntity
  8
_U+30EC_U+30A4_U+30E4_U+30FC 1
 62
   179
420
  2234388
100
AcDbHatch
 10
0.0
 20
0.0
 30
0.0
210
0.0
220
0.0
230
1.0
  2
SOLID
 70
     1
 71
     0
 91
        1
 92
        1
 93
        4
 72
     1
 10
67.912478281633
 20
-106.7304361712341
 11
67.133542192418
 21
-108.2576469998453
 72
     1
 10
67.133542192418
 20
-108.2576469998453
 11
67.02123207959886
 21
-108.2576469998453
 72
     1
 10
67.02123207959886
 20
-108.2576469998453
 11
67.80016816881385
 21
-106.7304361712341
 72
     1
 10
67.80016816881385
 20
-106.7304361712341
 11
67.912478281633
 21
-106.7304361712341
 97
        0
 75
     2
 76
     1
 98
        0
  0
POLYLINE
  5
57
330
41
100
AcDbEntity
  8
_U+30EC_U+30A4_U+30E4_U+30FC 1
370
     0
100
AcDb2dPolyline
 66
     1
 10
0.0
 20
0.0
 30
0.0
  0
VERTEX
  5
58
330
57
100
AcDbEntity
  8
_U+30EC_U+30A4_U+30E4_U+30FC 1
370
     0
100
AcDbVertex
100
AcDb2dVertex
 10
69.07657604609892
 20
-106.7304361712341
 30
0.0
  0
VERTEX
  5
59
330
57
100
AcDbEntity
  8
_U+30EC_U+30A4_U+30E4_U+30FC 1
370
     0
100
AcDbVertex
100
AcDb2dVertex
 10
69.07657604609892
 20
-107.7615532499693
 30
0.0
  0
VERTEX
  5
5A
330
57
100
AcDbEntity
  8
_U+30EC_U+30A4_U+30E4_U+30FC 1
370
     0
100
AcDbVertex
100
AcDb2dVertex
 10
69.34977211807923
 20
-107.7615532499693
 30
0.0
  0
VERTEX
  5
5B
330
57
100
AcDbEntity
  8
_U+30EC_U+30A4_U+30E4_U+30FC 1
370
     0
100
AcDbVertex
100
AcDb2dVertex
 10
69.34977211807923
 20
-107.8759304200796
 30
0.0
  0
VERTEX
  5
5C
330
57
100
AcDbEntity
  8
_U+30EC_U+30A4_U+30E4_U+30FC 1
370
     0
100
AcDbVertex
100
AcDb2dVertex
 10
69.07657604609892
 20
-107.8759304200796
 30
0.0
  0
VERTEX
  5
5D
330
57
100
AcDbEntity
  8
_U+30EC_U+30A4_U+30E4_U+30FC 1
370
     0
100
AcDbVertex
100
AcDb2dVertex
 10
69.07657604609892
 20
-108.2576469998453
 30
0.0
  0
VERTEX
  5
5E
330
57
100
AcDbEntity
  8
_U+30EC_U+30A4_U+30E4_U+30FC 1
370
     0
100
AcDbVertex
100
AcDb2dVertex
 10
68.94841849404762
 20
-108.2576469998453
 30
0.0
  0
VERTEX
  5
5F
330
57
100
AcDbEntity
  8
_U+30EC_U+30A4_U+30E4_U+30FC 1
370
     0
100
AcDbVertex
100
AcDb2dVertex
 10
68.94841849404762
 20
-107.8759304200796
 30
0.0
  0
VERTEX
  5
60
330
57
100
AcDbEntity
  8
_U+30EC_U+30A4_U+30E4_U+30FC 1
370
     0
100
AcDbVertex
100
AcDb2dVertex
 10
68.02409937535509
 20
-107.8759304200796
 30
0.0
  0
VERTEX
  5
61
330
57
100
AcDbEntity
  8
_U+30EC_U+30A4_U+30E4_U+30FC 1
370
     0
100
AcDbVertex
100
AcDb2dVertex
 10
68.02409937535509
 20
-107.722623670986
 30
0.0
  0
VERTEX
  5
62
330
57
100
AcDbEntity
  8
_U+30EC_U+30A4_U+30E4_U+30FC 1
370
     0
100
AcDbVertex
100
AcDb2dVertex
 10
68.89433049492919
 20
-106.7304361712341
 30
0.0
  0
VERTEX
  5
63
330
57
100
AcDbEntity
  8
_U+30EC_U+30A4_U+30E4_U+30FC 1
370
     0
100
AcDbVertex
100
AcDb2dVertex
 10
69.07657604609892
 20
-106.7304361712341
 30
0.0
  0
SEQEND
  5
64
330
57
100
AcDbEntity
  8
_U+30EC_U+30A4_U+30E4_U+30FC 1
370
     0
  0
POLYLINE
  5
65
330
41
100
AcDbEntity
  8
_U+30EC_U+30A4_U+30E4_U+30FC 1
370
     0
100
AcDb2dPolyline
 66
     1
 10
0.0
 20
0.0
 30
0.0
  0
VERTEX
  5
66
330
65
100
AcDbEntity
  8
_U+30EC_U+30A4_U+30E4_U+30FC 1
370
     0
100
AcDbVertex
100
AcDb2dVertex
 10
68.94841849404762
 20
-106.8430907936017
 30
0.0
  0
VERTEX
  5
67
330
65
100
AcDbEntity
  8
_U+30EC_U+30A4_U+30E4_U+30FC 1
370
     0
100
AcDbVertex
100
AcDb2dVertex
 10
68.14226615049915
 20
-107.7615532499693
 30
0.0
  0
VERTEX
  5
68
330
65
100
AcDbEntity
  8
_U+30EC_U+30A4_U+30E4_U+30FC 1
370
     0
100
AcDbVertex
100
AcDb2dVertex
 10
68.94841849404762
 20
-107.7615532499693
 30
0.0
  0
VERTEX
  5
69
330
65
100
AcDbEntity
  8
_U+30EC_U+30A4_U+30E4_U+30FC 1
370
     0
100
AcDbVertex
100
AcDb2dVertex
 10
68.94841849404762
 20
-106.8430907936017
 30
0.0
  0
SEQEND
  5
6A
330
65
100
AcDbEntity
  8
_U+30EC_U+30A4_U+30E4_U+30FC 1
370
     0
  0
HATCH
  5
6B
330
41
100
AcDbEntity
  8
_U+30EC_U+30A4_U+30E4_U+30FC 1
 62
   179
420
  2234388
100
AcDbHatch
 10
0.0
 20
0.0
 30
0.0
210
0.0
220
0.0
230
1.0
  2
SOLID
 70
     1
 71
     0
 91
        2
 92
        1
 93
       11
 72
     1
 10
69.07657604609892
 20
-106.7304361712341
 11
69.07657604609892
 21
-107.7615532499693
 72
     1
 10
69.07657604609892
 20
-107.7615532499693
 11
69.34977211807923
 21
-107.7615532499693
 72
     1
 10
69.34977211807923
 20
-107.7615532499693
 11
69.34977211807923
 21
-107.8759304200796
 72
     1
 10
69.34977211807923
 20
-107.8759304200796
 11
69.07657604609892
 21
-107.8759304200796
 72
     1
 10
69.07657604609892
 20
-107.8759304200796
 11
69.07657604609892
 21
-108.2576469998453
 72
     1
 10
69.07657604609892
 20
-108.2576469998453
 11
68.94841849404762
 21
-108.2576469998453
 72
     1
 10
68.94841849404762
 20
-108.2576469998453
 11
68.94841849404762
 21
-107.8759304200796
 72
     1
 10
68.94841849404762
 20
-107.8759304200796
 11
68.02409937535509
 21
-107.8759304200796
 72
     1
 10
68.02409937535509
 20
-107.8759304200796
 11
68.02409937535509
 21
-107.722623670986
 72
     1
 10
68.02409937535509
 20
-107.722623670986
 11
68.89433049492919
 21
-106.7304361712341
 72
     1
 10
68.89433049492919
 20
-106.7304361712341
 11
69.07657604609892
 21
-106.7304361712341
 97
        0
 92
        1
 93
        3
 72
     1
 10
68.94841849404762
 20
-106.8430907936017
 11
68.14226615049915
 21
-107.7615532499693
 72
     1
 10
68.14226615049915
 20
-107.7615532499693
 11
68.94841849404762
 21
-107.7615532499693
 72
     1
 10
68.94841849404762
 20
-107.7615532499693
 11
68.94841849404762
 21
-106.8430907936017
 97
        0
 75
     2
 76
     1
 98
        0
  0
SPLINE
  5
6C
330
41
100
AcDbEntity
  8
_U+30EC_U+30A4_U+30E4_U+30FC 1
370
     0
100
AcDbSpline
210
0.0
220
0.0
230
1.0
 70
    11
 71
     3
 72
    41
 73
    37
 74
     0
 42
0.0000000001
 43
0.0000000001
 12
1.0
 22
0.0
 32
0.0
 13
1.0
 23
0.0
 33
0.0
 40
0.0
 40
0.0
 40
0.0
 40
0.0
 40
1.0
 40
1.0
 40
1.0
 40
2.0
 40
2.0
 40
2.0
 40
3.0
 40
3.0
 40
3.0
 40
4.0
 40
4.0
 40
4.0
 40
5.0
 40
5.0
 40
5.0
 40
6.0
 40
6.0
 40
6.0
 40
7.0
 40
7.0
 40
7.0
 40
8.0
 40
8.0
 40
8.0
 40
9.0
 40
9.0
 40
9.0
 40
10.0
 40
10.0
 40
10.0
 40
11.0
 40
11.0
 40
11.0
 40
12.0
 40
12.0
 40
12.0
 40
12.0
 10
71.19220918359083
 20
-108.2655707194614
 30
0.0
 10
71.19220918359083
 20
-108.3603108453058
 30
0.0
 10
71.13812118447241
 20
-108.4088866916478
 30
0.0
 10
71.04303654907952
 20
-108.4088866916478
 30
0.0
 10
71.04303654907952
 20
-108.4088866916478
 30
0.0
 10
70.74262422276574
 20
-108.4088866916478
 30
0.0
 10
70.74262422276574
 20
-108.4088866916478
 30
0.0
 10
70.74262422276574
 20
-108.4088866916478
 30
0.0
 10
70.72126463075719
 20
-108.3062228461873
 30
0.0
 10
70.72126463075719
 20
-108.3062228461873
 30
0.0
 10
70.72126463075719
 20
-108.3062228461873
 30
0.0
 10
71.02925616713853
 20
-108.3100124512211
 30
0.0
 10
71.02925616713853
 20
-108.3100124512211
 30
0.0
 10
71.07610946573791
 20
-108.3100124512211
 30
0.0
 10
71.08368867580548
 20
-108.2982991265713
 30
0.0
 10
71.08368867580548
 20
-108.2538573948115
 30
0.0
 10
71.08368867580548
 20
-108.2538573948115
 30
0.0
 10
71.08368867580548
 20
-107.612380615458
 30
0.0
 10
71.08368867580548
 20
-107.612380615458
 30
0.0
 10
71.08368867580548
 20
-107.612380615458
 30
0.0
 10
69.69221460931306
 20
-107.612380615458
 30
0.0
 10
69.69221460931306
 20
-107.612380615458
 30
0.0
 10
69.69221460931306
 20
-107.612380615458
 30
0.0
 10
69.69221460931306
 20
-108.4088866916478
 30
0.0
 10
69.69221460931306
 20
-108.4088866916478
 30
0.0
 10
69.69221460931306
 20
-108.4088866916478
 30
0.0
 10
69.5836941015277
 20
-108.4088866916478
 30
0.0
 10
69.5836941015277
 20
-108.4088866916478
 30
0.0
 10
69.5836941015277
 20
-108.4088866916478
 30
0.0
 10
69.5836941015277
 20
-106.7190673561327
 30
0.0
 10
69.5836941015277
 20
-106.7190673561327
 30
0.0
 10
69.5836941015277
 20
-106.7190673561327
 30
0.0
 10
71.19220918359083
 20
-106.7190673561327
 30
0.0
 10
71.19220918359083
 20
-106.7190673561327
 30
0.0
 10
71.19220918359083
 20
-106.7190673561327
 30
0.0
 10
71.19220918359083
 20
-108.2655707194614
 30
0.0
 10
71.19220918359083
 20
-108.2655707194614
 30
0.0
  0
POLYLINE
  5
6D
330
41
100
AcDbEntity
  8
_U+30EC_U+30A4_U+30E4_U+30FC 1
370
     0
100
AcDb2dPolyline
 66
     1
 10
0.0
 20
0.0
 30
0.0
  0
VERTEX
  5
6E
330
6D
100
AcDbEntity
  8
_U+30EC_U+30A4_U+30E4_U+30FC 1
370
     0
100
AcDbVertex
100
AcDb2dVertex
 10
69.69221460931306
 20
-106.8179415965594
 30
0.0
  0
VERTEX
  5
6F
330
6D
100
AcDbEntity
  8
_U+30EC_U+30A4_U+30E4_U+30FC 1
370
     0
100
AcDbVertex
100
AcDb2dVertex
 10
69.69221460931306
 20
-107.5135063750314
 30
0.0
  0
VERTEX
  5
70
330
6D
100
AcDbEntity
  8
_U+30EC_U+30A4_U+30E4_U+30FC 1
370
     0
100
AcDbVertex
100
AcDb2dVertex
 10
70.33954805099151
 20
-107.5135063750314
 30
0.0
  0
VERTEX
  5
71
330
6D
100
AcDbEntity
  8
_U+30EC_U+30A4_U+30E4_U+30FC 1
370
     0
100
AcDbVertex
100
AcDb2dVertex
 10
70.33954805099151
 20
-106.8179415965594
 30
0.0
  0
VERTEX
  5
72
330
6D
100
AcDbEntity
  8
_U+30EC_U+30A4_U+30E4_U+30FC 1
370
     0
100
AcDbVertex
100
AcDb2dVertex
 10
69.69221460931306
 20
-106.8179415965594
 30
0.0
  0
SEQEND
  5
73
330
6D
100
AcDbEntity
  8
_U+30EC_U+30A4_U+30E4_U+30FC 1
370
     0
  0
POLYLINE
  5
74
330
41
100
AcDbEntity
  8
_U+30EC_U+30A4_U+30E4_U+30FC 1
370
     0
100
AcDb2dPolyline
 66
     1
 10
0.0
 20
0.0
 30
0.0
  0
VERTEX
  5
75
330
74
100
AcDbEntity
  8
_U+30EC_U+30A4_U+30E4_U+30FC 1
370
     0
100
AcDbVertex
100
AcDb2dVertex
 10
70.44600150148572
 20
-106.8179415965594
 30
0.0
  0
VERTEX
  5
76
330
74
100
AcDbEntity
  8
_U+30EC_U+30A4_U+30E4_U+30FC 1
370
     0
100
AcDbVertex
100
AcDb2dVertex
 10
70.44600150148572
 20
-107.5135063750314
 30
0.0
  0
VERTEX
  5
77
330
74
100
AcDbEntity
  8
_U+30EC_U+30A4_U+30E4_U+30FC 1
370
     0
100
AcDbVertex
100
AcDb2dVertex
 10
71.08368867580548
 20
-107.5135063750314
 30
0.0
  0
VERTEX
  5
78
330
74
100
AcDbEntity
  8
_U+30EC_U+30A4_U+30E4_U+30FC 1
370
     0
100
AcDbVertex
100
AcDb2dVertex
 10
71.08368867580548
 20
-106.8179415965594
 30
0.0
  0
VERTEX
  5
79
330
74
100
AcDbEntity
  8
_U+30EC_U+30A4_U+30E4_U+30FC 1
370
     0
100
AcDbVertex
100
AcDb2dVertex
 10
70.44600150148572
 20
-106.8179415965594
 30
0.0
  0
SEQEND
  5
7A
330
74
100
AcDbEntity
  8
_U+30EC_U+30A4_U+30E4_U+30FC 1
370
     0
  0
HATCH
  5
7B
330
41
100
AcDbEntity
  8
_U+30EC_U+30A4_U+30E4_U+30FC 1
 62
   179
420
  2234388
100
AcDbHatch
 10
0.0
 20
0.0
 30
0.0
210
0.0
220
0.0
230
1.0
  2
SOLID
 70
     1
 71
     0
 91
        3
 92
        1
 93
        1
 72
     4
 94
        3
 73
     0
 74
     1
 95
       41
 96
       37
 40
0.0
 40
0.0
 40
0.0
 40
0.0
 40
1.0
 40
1.0
 40
1.0
 40
2.0
 40
2.0
 40
2.0
 40
3.0
 40
3.0
 40
3.0
 40
4.0
 40
4.0
 40
4.0
 40
5.0
 40
5.0
 40
5.0
 40
6.0
 40
6.0
 40
6.0
 40
7.0
 40
7.0
 40
7.0
 40
8.0
 40
8.0
 40
8.0
 40
9.0
 40
9.0
 40
9.0
 40
10.0
 40
10.0
 40
10.0
 40
11.0
 40
11.0
 40
11.0
 40
12.0
 40
12.0
 40
12.0
 40
12.0
 10
71.19220918359083
 20
-108.2655707194614
 10
71.19220918359083
 20
-108.3603108453058
 10
71.13812118447241
 20
-108.4088866916478
 10
71.04303654907952
 20
-108.4088866916478
 10
71.04303654907952
 20
-108.4088866916478
 10
70.74262422276574
 20
-108.4088866916478
 10
70.74262422276574
 20
-108.4088866916478
 10
70.74262422276574
 20
-108.4088866916478
 10
70.72126463075719
 20
-108.3062228461873
 10
70.72126463075719
 20
-108.3062228461873
 10
70.72126463075719
 20
-108.3062228461873
 10
71.02925616713853
 20
-108.3100124512211
 10
71.02925616713853
 20
-108.3100124512211
 10
71.07610946573791
 20
-108.3100124512211
 10
71.08368867580548
 20
-108.2982991265713
 10
71.08368867580548
 20
-108.2538573948115
 10
71.08368867580548
 20
-108.2538573948115
 10
71.08368867580548
 20
-107.612380615458
 10
71.08368867580548
 20
-107.612380615458
 10
71.08368867580548
 20
-107.612380615458
 10
69.69221460931306
 20
-107.612380615458
 10
69.69221460931306
 20
-107.612380615458
 10
69.69221460931306
 20
-107.612380615458
 10
69.69221460931306
 20
-108.4088866916478
 10
69.69221460931306
 20
-108.4088866916478
 10
69.69221460931306
 20
-108.4088866916478
 10
69.5836941015277
 20
-108.4088866916478
 10
69.5836941015277
 20
-108.4088866916478
 10
69.5836941015277
 20
-108.4088866916478
 10
69.5836941015277
 20
-106.7190673561327
 10
69.5836941015277
 20
-106.7190673561327
 10
69.5836941015277
 20
-106.7190673561327
 10
71.19220918359083
 20
-106.7190673561327
 10
71.19220918359083
 20
-106.7190673561327
 10
71.19220918359083
 20
-106.7190673561327
 10
71.19220918359083
 20
-108.2655707194614
 10
71.19220918359083
 20
-108.2655707194614
 97
        0
 97
        0
 92
        1
 93
        4
 72
     1
 10
69.69221460931306
 20
-106.8179415965594
 11
69.69221460931306
 21
-107.5135063750314
 72
     1
 10
69.69221460931306
 20
-107.5135063750314
 11
70.33954805099151
 21
-107.5135063750314
 72
     1
 10
70.33954805099151
 20
-107.5135063750314
 11
70.33954805099151
 21
-106.8179415965594
 72
     1
 10
70.33954805099151
 20
-106.8179415965594
 11
69.69221460931306
 21
-106.8179415965594
 97
        0
 92
        1
 93
        4
 72
     1
 10
70.44600150148572
 20
-106.8179415965594
 11
70.44600150148572
 21
-107.5135063750314
 72
     1
 10
70.44600150148572
 20
-107.5135063750314
 11
71.08368867580548
 21
-107.5135063750314
 72
     1
 10
71.08368867580548
 20
-107.5135063750314
 11
71.08368867580548
 21
-106.8179415965594
 72
     1
 10
71.08368867580548
 20
-106.8179415965594
 11
70.44600150148572
 21
-106.8179415965594
 97
        0
 75
     2
 76
     1
 98
        0
  0
SPLINE
  5
7C
330
41
100
AcDbEntity
  8
_U+30EC_U+30A4_U+30E4_U+30FC 1
370
     0
100
AcDbSpline
210
0.0
220
0.0
230
1.0
 70
    11
 71
     3
 72
    56
 73
    52
 74
     0
 42
0.0000000001
 43
0.0000000001
 12
1.0
 22
0.0
 32
0.0
 13
1.0
 23
0.0
 33
0.0
 40
0.0
 40
0.0
 40
0.0
 40
0.0
 40
1.0
 40
1.0
 40
1.0
 40
2.0
 40
2.0
 40
2.0
 40
3.0
 40
3.0
 40
3.0
 40
4.0
 40
4.0
 40
4.0
 40
5.0
 40
5.0
 40
5.0
 40
6.0
 40
6.0
 40
6.0
 40
7.0
 40
7.0
 40
7.0
 40
8.0
 40
8.0
 40
8.0
 40
9.0
 40
9.0
 40
9.0
 40
10.0
 40
10.0
 40
10.0
 40
11.0
 40
11.0
 40
11.0
 40
12.0
 40
12.0
 40
12.0
 40
13.0
 40
13.0
 40
13.0
 40
14.0
 40
14.0
 40
14.0
 40
15.0
 40
15.0
 40
15.0
 40
16.0
 40
16.0
 40
16.0
 40
17.0
 40
17.0
 40
17.0
 40
17.0
 10
73.89075247718704
 20
-107.6861056588424
 30
0.0
 10
73.70471732098355
 20
-107.722623670986
 30
0.0
 10
73.58655054583947
 20
-107.7556965876444
 30
0.0
 10
73.58655054583947
 20
-108.0929714356504
 30
0.0
 10
73.58655054583947
 20
-108.0929714356504
 30
0.0
 10
73.58655054583947
 20
-108.143269829735
 30
0.0
 10
73.58655054583947
 20
-108.143269829735
 30
0.0
 10
73.58655054583947
 20
-108.143269829735
 30
0.0
 10
74.62696938238493
 20
-108.143269829735
 30
0.0
 10
74.62696938238493
 20
-108.143269829735
 30
0.0
 10
74.62696938238493
 20
-108.143269829735
 30
0.0
 10
74.62696938238493
 20
-108.2576469998453
 30
0.0
 10
74.62696938238493
 20
-108.2576469998453
 30
0.0
 10
74.62696938238493
 20
-108.2576469998453
 30
0.0
 10
73.4546033887544
 20
-108.2576469998453
 30
0.0
 10
73.4546033887544
 20
-108.2576469998453
 30
0.0
 10
73.4546033887544
 20
-108.2576469998453
 30
0.0
 10
73.4546033887544
 20
-108.2149278158282
 30
0.0
 10
73.4546033887544
 20
-108.2149278158282
 30
0.0
 10
73.4546033887544
 20
-108.0288926596247
 30
0.0
 10
73.46046005107934
 20
-107.9437988011391
 30
0.0
 10
73.48939885315544
 20
-107.8428575034212
 30
0.0
 10
73.54762096685616
 20
-107.6337402074666
 30
0.0
 10
73.73572318035079
 20
-107.5968776857744
 30
0.0
 10
73.8597466178198
 20
-107.5717284887321
 30
0.0
 10
73.8597466178198
 20
-107.5717284887321
 30
0.0
 10
74.16567109690997
 20
-107.5117838272887
 30
0.0
 10
74.16567109690997
 20
-107.5117838272887
 30
0.0
 10
74.32276745103736
 20
-107.4807779679215
 30
0.0
 10
74.49536673484839
 20
-107.439781331647
 30
0.0
 10
74.49536673484839
 20
-107.1741644697342
 30
0.0
 10
74.49536673484839
 20
-106.8933891876864
 30
0.0
 10
74.33069117065344
 20
-106.8296549212093
 30
0.0
 10
74.0805772384243
 20
-106.8296549212093
 30
0.0
 10
73.7164306456334
 20
-106.8296549212093
 30
0.0
 10
73.6116997428818
 20
-106.9536783586782
 30
0.0
 10
73.6116997428818
 20
-107.2227403160763
 30
0.0
 10
73.6116997428818
 20
-107.2227403160763
 30
0.0
 10
73.47975258579673
 20
-107.2227403160763
 30
0.0
 10
73.47975258579673
 20
-107.2227403160763
 30
0.0
 10
73.48560924812166
 20
-106.8003716095846
 30
0.0
 10
73.74157984267572
 20
-106.715277751099
 30
0.0
 10
74.04957137905706
 20
-106.715277751099
 30
0.0
 10
74.23181693022677
 20
-106.715277751099
 30
0.0
 10
74.62696938238493
 20
-106.715277751099
 30
0.0
 10
74.62696938238493
 20
-107.1665852596667
 30
0.0
 10
74.62696938238493
 20
-107.4146321346047
 30
0.0
 10
74.5301621992494
 20
-107.5579481067911
 30
0.0
 10
74.20253361860215
 20
-107.6240939401079
 30
0.0
 10
74.20253361860215
 20
-107.6240939401079
 30
0.0
 10
73.89075247718704
 20
-107.6861056588424
 30
0.0
 10
73.89075247718704
 20
-107.6861056588424
 30
0.0
  0
HATCH
  5
7D
330
41
100
AcDbEntity
  8
_U+30EC_U+30A4_U+30E4_U+30FC 1
 62
   179
420
  2234388
100
AcDbHatch
 10
0.0
 20
0.0
 30
0.0
210
0.0
220
0.0
230
1.0
  2
SOLID
 70
     1
 71
     0
 91
        1
 92
        1
 93
        1
 72
     4
 94
        3
 73
     0
 74
     1
 95
       56
 96
       52
 40
0.0
 40
0.0
 40
0.0
 40
0.0
 40
1.0
 40
1.0
 40
1.0
 40
2.0
 40
2.0
 40
2.0
 40
3.0
 40
3.0
 40
3.0
 40
4.0
 40
4.0
 40
4.0
 40
5.0
 40
5.0
 40
5.0
 40
6.0
 40
6.0
 40
6.0
 40
7.0
 40
7.0
 40
7.0
 40
8.0
 40
8.0
 40
8.0
 40
9.0
 40
9.0
 40
9.0
 40
10.0
 40
10.0
 40
10.0
 40
11.0
 40
11.0
 40
11.0
 40
12.0
 40
12.0
 40
12.0
 40
13.0
 40
13.0
 40
13.0
 40
14.0
 40
14.0
 40
14.0
 40
15.0
 40
15.0
 40
15.0
 40
16.0
 40
16.0
 40
16.0
 40
17.0
 40
17.0
 40
17.0
 40
17.0
 10
73.89075247718704
 20
-107.6861056588424
 10
73.70471732098355
 20
-107.722623670986
 10
73.58655054583947
 20
-107.7556965876444
 10
73.58655054583947
 20
-108.0929714356504
 10
73.58655054583947
 20
-108.0929714356504
 10
73.58655054583947
 20
-108.143269829735
 10
73.58655054583947
 20
-108.143269829735
 10
73.58655054583947
 20
-108.143269829735
 10
74.62696938238493
 20
-108.143269829735
 10
74.62696938238493
 20
-108.143269829735
 10
74.62696938238493
 20
-108.143269829735
 10
74.62696938238493
 20
-108.2576469998453
 10
74.62696938238493
 20
-108.2576469998453
 10
74.62696938238493
 20
-108.2576469998453
 10
73.4546033887544
 20
-108.2576469998453
 10
73.4546033887544
 20
-108.2576469998453
 10
73.4546033887544
 20
-108.2576469998453
 10
73.4546033887544
 20
-108.2149278158282
 10
73.4546033887544
 20
-108.2149278158282
 10
73.4546033887544
 20
-108.0288926596247
 10
73.46046005107934
 20
-107.9437988011391
 10
73.48939885315544
 20
-107.8428575034212
 10
73.54762096685616
 20
-107.6337402074666
 10
73.73572318035079
 20
-107.5968776857744
 10
73.8597466178198
 20
-107.5717284887321
 10
73.8597466178198
 20
-107.5717284887321
 10
74.16567109690997
 20
-107.5117838272887
 10
74.16567109690997
 20
-107.5117838272887
 10
74.32276745103736
 20
-107.4807779679215
 10
74.49536673484839
 20
-107.439781331647
 10
74.49536673484839
 20
-107.1741644697342
 10
74.49536673484839
 20
-106.8933891876864
 10
74.33069117065344
 20
-106.8296549212093
 10
74.0805772384243
 20
-106.8296549212093
 10
73.7164306456334
 20
-106.8296549212093
 10
73.6116997428818
 20
-106.9536783586782
 10
73.6116997428818
 20
-107.2227403160763
 10
73.6116997428818
 20
-107.2227403160763
 10
73.47975258579673
 20
-107.2227403160763
 10
73.47975258579673
 20
-107.2227403160763
 10
73.48560924812166
 20
-106.8003716095846
 10
73.74157984267572
 20
-106.715277751099
 10
74.04957137905706
 20
-106.715277751099
 10
74.23181693022677
 20
-106.715277751099
 10
74.62696938238493
 20
-106.715277751099
 10
74.62696938238493
 20
-107.1665852596667
 10
74.62696938238493
 20
-107.4146321346047
 10
74.5301621992494
 20
-107.5579481067911
 10
74.20253361860215
 20
-107.6240939401079
 10
74.20253361860215
 20
-107.6240939401079
 10
73.89075247718704
 20
-107.6861056588424
 10
73.89075247718704
 20
-107.6861056588424
 97
        0
 97
        0
 75
     2
 76
     1
 98
        0
  0
SPLINE
  5
7E
330
41
100
AcDbEntity
  8
_U+30EC_U+30A4_U+30E4_U+30FC 1
370
     0
100
AcDbSpline
210
0.0
220
0.0
230
1.0
 70
    11
 71
     3
 72
    17
 73
    13
 74
     0
 42
0.0000000001
 43
0.0000000001
 12
1.0
 22
0.0
 32
0.0
 13
1.0
 23
0.0
 33
0.0
 40
0.0
 40
0.0
 40
0.0
 40
0.0
 40
1.0
 40
1.0
 40
1.0
 40
2.0
 40
2.0
 40
2.0
 40
3.0
 40
3.0
 40
3.0
 40
4.0
 40
4.0
 40
4.0
 40
4.0
 10
76.12110729433778
 20
-107.4942138403139
 30
0.0
 10
76.12110729433778
 20
-108.1973578288534
 30
0.0
 10
75.88098413901587
 20
-108.2731499295289
 30
0.0
 10
75.5147704889338
 20
-108.2731499295289
 30
0.0
 10
75.15234644388553
 20
-108.2731499295289
 30
0.0
 10
74.90602211669017
 20
-108.2035590007269
 30
0.0
 10
74.90602211669017
 20
-107.4942138403139
 30
0.0
 10
74.90602211669017
 20
-106.7869357371922
 30
0.0
 10
75.15027938659438
 20
-106.715277751099
 30
0.0
 10
75.5147704889338
 20
-106.715277751099
 30
0.0
 10
75.87099336210865
 20
-106.715277751099
 30
0.0
 10
76.12110729433778
 20
-106.7790120175761
 30
0.0
 10
76.12110729433778
 20
-107.4942138403139
 30
0.0
  0
SPLINE
  5
7F
330
41
100
AcDbEntity
  8
_U+30EC_U+30A4_U+30E4_U+30FC 1
370
     0
100
AcDbSpline
210
0.0
220
0.0
230
1.0
 70
    11
 71
     3
 72
    17
 73
    13
 74
     0
 42
0.0000000001
 43
0.0000000001
 12
1.0
 22
0.0
 32
0.0
 13
1.0
 23
0.0
 33
0.0
 40
0.0
 40
0.0
 40
0.0
 40
0.0
 40
1.0
 40
1.0
 40
1.0
 40
2.0
 40
2.0
 40
2.0
 40
3.0
 40
3.0
 40
3.0
 40
4.0
 40
4.0
 40
4.0
 40
4.0
 10
75.03590221648409
 20
-107.4921467830228
 30
0.0
 10
75.03590221648409
 20
-108.094693983393
 30
0.0
 10
75.19299857061148
 20
-108.1587727594186
 30
0.0
 10
75.51649303667644
 20
-108.1587727594186
 30
0.0
 10
75.84205456003255
 20
-108.1587727594186
 30
0.0
 10
75.99122719454387
 20
-108.0754014486756
 30
0.0
 10
75.99122719454387
 20
-107.4980034453477
 30
0.0
 10
75.99122719454387
 20
-106.8816758630365
 30
0.0
 10
75.820694968024
 20
-106.8296549212093
 30
0.0
 10
75.51270343164266
 20
-106.8296549212093
 30
0.0
 10
75.17749564092786
 20
-106.8296549212093
 30
0.0
 10
75.03590221648409
 20
-106.9164713274375
 30
0.0
 10
75.03590221648409
 20
-107.4921467830228
 30
0.0
  0
HATCH
  5
80
330
41
100
AcDbEntity
  8
_U+30EC_U+30A4_U+30E4_U+30FC 1
 62
   179
420
  2234388
100
AcDbHatch
 10
0.0
 20
0.0
 30
0.0
210
0.0
220
0.0
230
1.0
  2
SOLID
 70
     1
 71
     0
 91
        2
 92
        1
 93
        1
 72
     4
 94
        3
 73
     0
 74
     1
 95
       17
 96
       13
 40
0.0
 40
0.0
 40
0.0
 40
0.0
 40
1.0
 40
1.0
 40
1.0
 40
2.0
 40
2.0
 40
2.0
 40
3.0
 40
3.0
 40
3.0
 40
4.0
 40
4.0
 40
4.0
 40
4.0
 10
76.12110729433778
 20
-107.4942138403139
 10
76.12110729433778
 20
-108.1973578288534
 10
75.88098413901587
 20
-108.2731499295289
 10
75.5147704889338
 20
-108.2731499295289
 10
75.15234644388553
 20
-108.2731499295289
 10
74.90602211669017
 20
-108.2035590007269
 10
74.90602211669017
 20
-107.4942138403139
 10
74.90602211669017
 20
-106.7869357371922
 10
75.15027938659438
 20
-106.715277751099
 10
75.5147704889338
 20
-106.715277751099
 10
75.87099336210865
 20
-106.715277751099
 10
76.12110729433778
 20
-106.7790120175761
 10
76.12110729433778
 20
-107.4942138403139
 97
        0
 97
        0
 92
        1
 93
        1
 72
     4
 94
        3
 73
     0
 74
     1
 95
       17
 96
       13
 40
0.0
 40
0.0
 40
0.0
 40
0.0
 40
1.0
 40
1.0
 40
1.0
 40
2.0
 40
2.0
 40
2.0
 40
3.0
 40
3.0
 40
3.0
 40
4.0
 40
4.0
 40
4.0
 40
4.0
 10
75.03590221648409
 20
-107.4921467830228
 10
75.03590221648409
 20
-108.094693983393
 10
75.19299857061148
 20
-108.1587727594186
 10
75.51649303667644
 20
-108.1587727594186
 10
75.84205456003255
 20
-108.1587727594186
 10
75.99122719454387
 20
-108.0754014486756
 10
75.99122719454387
 20
-107.4980034453477
 10
75.99122719454387
 20
-106.8816758630365
 10
75.820694968024
 20
-106.8296549212093
 10
75.51270343164266
 20
-106.8296549212093
 10
75.17749564092786
 20
-106.8296549212093
 10
75.03590221648409
 20
-106.9164713274375
 10
75.03590221648409
 20
-107.4921467830228
 97
        0
 97
        0
 75
     2
 76
     1
 98
        0
  0
SPLINE
  5
81
330
41
100
AcDbEntity
  8
_U+30EC_U+30A4_U+30E4_U+30FC 1
370
     0
100
AcDbSpline
210
0.0
220
0.0
230
1.0
 70
    11
 71
     3
 72
    62
 73
    58
 74
     0
 42
0.0000000001
 43
0.0000000001
 12
1.0
 22
0.0
 32
0.0
 13
1.0
 23
0.0
 33
0.0
 40
0.0
 40
0.0
 40
0.0
 40
0.0
 40
1.0
 40
1.0
 40
1.0
 40
2.0
 40
2.0
 40
2.0
 40
3.0
 40
3.0
 40
3.0
 40
4.0
 40
4.0
 40
4.0
 40
5.0
 40
5.0
 40
5.0
 40
6.0
 40
6.0
 40
6.0
 40
7.0
 40
7.0
 40
7.0
 40
8.0
 40
8.0
 40
8.0
 40
9.0
 40
9.0
 40
9.0
 40
10.0
 40
10.0
 40
10.0
 40
11.0
 40
11.0
 40
11.0
 40
12.0
 40
12.0
 40
12.0
 40
13.0
 40
13.0
 40
13.0
 40
14.0
 40
14.0
 40
14.0
 40
15.0
 40
15.0
 40
15.0
 40
16.0
 40
16.0
 40
16.0
 40
17.0
 40
17.0
 40
17.0
 40
18.0
 40
18.0
 40
18.0
 40
19.0
 40
19.0
 40
19.0
 40
19.0
 10
76.5238389565635
 20
-107.116286865582
 30
0.0
 10
76.5238389565635
 20
-107.116286865582
 30
0.0
 10
76.52969561888841
 20
-107.2440999080848
 30
0.0
 10
76.52969561888841
 20
-107.2440999080848
 30
0.0
 10
76.56828068832321
 20
-107.2017252336162
 30
0.0
 10
76.66129826642495
 20
-107.1007839358984
 30
0.0
 10
76.85525714224453
 20
-107.1007839358984
 30
0.0
 10
77.08986814479003
 20
-107.1007839358984
 30
0.0
 10
77.15739201630093
 20
-107.2168836537513
 30
0.0
 10
77.1983886525754
 20
-107.2847520348108
 30
0.0
 10
77.25247665169383
 20
-107.2034477813589
 30
0.0
 10
77.32999130011196
 20
-107.1007839358984
 30
0.0
 10
77.54703231568269
 20
-107.1007839358984
 30
0.0
 10
77.92495929041459
 20
-107.1007839358984
 30
0.0
 10
77.92495929041459
 20
-107.3719129505876
 30
0.0
 10
77.92495929041459
 20
-107.4707871910143
 30
0.0
 10
77.92495929041459
 20
-107.4707871910143
 30
0.0
 10
77.92495929041459
 20
-108.2576469998453
 30
0.0
 10
77.92495929041459
 20
-108.2576469998453
 30
0.0
 10
77.92495929041459
 20
-108.2576469998453
 30
0.0
 10
77.8009358529456
 20
-108.2576469998453
 30
0.0
 10
77.8009358529456
 20
-108.2576469998453
 30
0.0
 10
77.8009358529456
 20
-108.2576469998453
 30
0.0
 10
77.8009358529456
 20
-107.488357177989
 30
0.0
 10
77.8009358529456
 20
-107.488357177989
 30
0.0
 10
77.8009358529456
 20
-107.3856933325286
 30
0.0
 10
77.8009358529456
 20
-107.2130940487176
 30
0.0
 10
77.53945310561514
 20
-107.2130940487176
 30
0.0
 10
77.22939451194266
 20
-107.2130940487176
 30
0.0
 10
77.22939451194266
 20
-107.4263454592545
 30
0.0
 10
77.22939451194266
 20
-107.5097167699976
 30
0.0
 10
77.22939451194266
 20
-107.5097167699976
 30
0.0
 10
77.22939451194266
 20
-108.2576469998453
 30
0.0
 10
77.22939451194266
 20
-108.2576469998453
 30
0.0
 10
77.22939451194266
 20
-108.2576469998453
 30
0.0
 10
77.10709362221628
 20
-108.2576469998453
 30
0.0
 10
77.10709362221628
 20
-108.2576469998453
 30
0.0
 10
77.10709362221628
 20
-108.2576469998453
 30
0.0
 10
77.10709362221628
 20
-107.5135063750314
 30
0.0
 10
77.10709362221628
 20
-107.5135063750314
 30
0.0
 10
77.10709362221628
 20
-107.3894829375624
 30
0.0
 10
77.10709362221628
 20
-107.2130940487176
 30
0.0
 10
76.84561087488582
 20
-107.2130940487176
 30
0.0
 10
76.6964382403745
 20
-107.2130940487176
 30
0.0
 10
76.52969561888841
 20
-107.267182047836
 30
0.0
 10
76.52969561888841
 20
-107.4862901206979
 30
0.0
 10
76.52969561888841
 20
-107.4862901206979
 30
0.0
 10
76.52969561888841
 20
-108.2576469998453
 30
0.0
 10
76.52969561888841
 20
-108.2576469998453
 30
0.0
 10
76.52969561888841
 20
-108.2576469998453
 30
0.0
 10
76.40773923871056
 20
-108.2576469998453
 30
0.0
 10
76.40773923871056
 20
-108.2576469998453
 30
0.0
 10
76.40773923871056
 20
-108.2576469998453
 30
0.0
 10
76.40773923871056
 20
-107.116286865582
 30
0.0
 10
76.40773923871056
 20
-107.116286865582
 30
0.0
 10
76.40773923871056
 20
-107.116286865582
 30
0.0
 10
76.5238389565635
 20
-107.116286865582
 30
0.0
 10
76.5238389565635
 20
-107.116286865582
 30
0.0
  0
HATCH
  5
82
330
41
100
AcDbEntity
  8
_U+30EC_U+30A4_U+30E4_U+30FC 1
 62
   179
420
  2234388
100
AcDbHatch
 10
0.0
 20
0.0
 30
0.0
210
0.0
220
0.0
230
1.0
  2
SOLID
 70
     1
 71
     0
 91
        1
 92
        1
 93
        1
 72
     4
 94
        3
 73
     0
 74
     1
 95
       62
 96
       58
 40
0.0
 40
0.0
 40
0.0
 40
0.0
 40
1.0
 40
1.0
 40
1.0
 40
2.0
 40
2.0
 40
2.0
 40
3.0
 40
3.0
 40
3.0
 40
4.0
 40
4.0
 40
4.0
 40
5.0
 40
5.0
 40
5.0
 40
6.0
 40
6.0
 40
6.0
 40
7.0
 40
7.0
 40
7.0
 40
8.0
 40
8.0
 40
8.0
 40
9.0
 40
9.0
 40
9.0
 40
10.0
 40
10.0
 40
10.0
 40
11.0
 40
11.0
 40
11.0
 40
12.0
 40
12.0
 40
12.0
 40
13.0
 40
13.0
 40
13.0
 40
14.0
 40
14.0
 40
14.0
 40
15.0
 40
15.0
 40
15.0
 40
16.0
 40
16.0
 40
16.0
 40
17.0
 40
17.0
 40
17.0
 40
18.0
 40
18.0
 40
18.0
 40
19.0
 40
19.0
 40
19.0
 40
19.0
 10
76.5238389565635
 20
-107.116286865582
 10
76.5238389565635
 20
-107.116286865582
 10
76.52969561888841
 20
-107.2440999080848
 10
76.52969561888841
 20
-107.2440999080848
 10
76.56828068832321
 20
-107.2017252336162
 10
76.66129826642495
 20
-107.1007839358984
 10
76.85525714224453
 20
-107.1007839358984
 10
77.08986814479003
 20
-107.1007839358984
 10
77.15739201630093
 20
-107.2168836537513
 10
77.1983886525754
 20
-107.2847520348108
 10
77.25247665169383
 20
-107.2034477813589
 10
77.32999130011196
 20
-107.1007839358984
 10
77.54703231568269
 20
-107.1007839358984
 10
77.92495929041459
 20
-107.1007839358984
 10
77.92495929041459
 20
-107.3719129505876
 10
77.92495929041459
 20
-107.4707871910143
 10
77.92495929041459
 20
-107.4707871910143
 10
77.92495929041459
 20
-108.2576469998453
 10
77.92495929041459
 20
-108.2576469998453
 10
77.92495929041459
 20
-108.2576469998453
 10
77.8009358529456
 20
-108.2576469998453
 10
77.8009358529456
 20
-108.2576469998453
 10
77.8009358529456
 20
-108.2576469998453
 10
77.8009358529456
 20
-107.488357177989
 10
77.8009358529456
 20
-107.488357177989
 10
77.8009358529456
 20
-107.3856933325286
 10
77.8009358529456
 20
-107.2130940487176
 10
77.53945310561514
 20
-107.2130940487176
 10
77.22939451194266
 20
-107.2130940487176
 10
77.22939451194266
 20
-107.4263454592545
 10
77.22939451194266
 20
-107.5097167699976
 10
77.22939451194266
 20
-107.5097167699976
 10
77.22939451194266
 20
-108.2576469998453
 10
77.22939451194266
 20
-108.2576469998453
 10
77.22939451194266
 20
-108.2576469998453
 10
77.10709362221628
 20
-108.2576469998453
 10
77.10709362221628
 20
-108.2576469998453
 10
77.10709362221628
 20
-108.2576469998453
 10
77.10709362221628
 20
-107.5135063750314
 10
77.10709362221628
 20
-107.5135063750314
 10
77.10709362221628
 20
-107.3894829375624
 10
77.10709362221628
 20
-107.2130940487176
 10
76.84561087488582
 20
-107.2130940487176
 10
76.6964382403745
 20
-107.2130940487176
 10
76.52969561888841
 20
-107.267182047836
 10
76.52969561888841
 20
-107.4862901206979
 10
76.52969561888841
 20
-107.4862901206979
 10
76.52969561888841
 20
-108.2576469998453
 10
76.52969561888841
 20
-108.2576469998453
 10
76.52969561888841
 20
-108.2576469998453
 10
76.40773923871056
 20
-108.2576469998453
 10
76.40773923871056
 20
-108.2576469998453
 10
76.40773923871056
 20
-108.2576469998453
 10
76.40773923871056
 20
-107.116286865582
 10
76.40773923871056
 20
-107.116286865582
 10
76.40773923871056
 20
-107.116286865582
 10
76.5238389565635
 20
-107.116286865582
 10
76.5238389565635
 20
-107.116286865582
 97
        0
 97
        0
 75
     2
 76
     1
 98
        0
  0
SPLINE
  5
83
330
41
100
AcDbEntity
  8
_U+30EC_U+30A4_U+30E4_U+30FC 1
370
     0
100
AcDbSpline
210
0.0
220
0.0
230
1.0
 70
    11
 71
     3
 72
    62
 73
    58
 74
     0
 42
0.0000000001
 43
0.0000000001
 12
1.0
 22
0.0
 32
0.0
 13
1.0
 23
0.0
 33
0.0
 40
0.0
 40
0.0
 40
0.0
 40
0.0
 40
1.0
 40
1.0
 40
1.0
 40
2.0
 40
2.0
 40
2.0
 40
3.0
 40
3.0
 40
3.0
 40
4.0
 40
4.0
 40
4.0
 40
5.0
 40
5.0
 40
5.0
 40
6.0
 40
6.0
 40
6.0
 40
7.0
 40
7.0
 40
7.0
 40
8.0
 40
8.0
 40
8.0
 40
9.0
 40
9.0
 40
9.0
 40
10.0
 40
10.0
 40
10.0
 40
11.0
 40
11.0
 40
11.0
 40
12.0
 40
12.0
 40
12.0
 40
13.0
 40
13.0
 40
13.0
 40
14.0
 40
14.0
 40
14.0
 40
15.0
 40
15.0
 40
15.0
 40
16.0
 40
16.0
 40
16.0
 40
17.0
 40
17.0
 40
17.0
 40
18.0
 40
18.0
 40
18.0
 40
19.0
 40
19.0
 40
19.0
 40
19.0
 10
78.35559622607083
 20
-107.116286865582
 30
0.0
 10
78.35559622607083
 20
-107.116286865582
 30
0.0
 10
78.36145288839575
 20
-107.2440999080848
 30
0.0
 10
78.36145288839575
 20
-107.2440999080848
 30
0.0
 10
78.40038246737907
 20
-107.2017252336162
 30
0.0
 10
78.49340004548083
 20
-107.1007839358984
 30
0.0
 10
78.68701441175186
 20
-107.1007839358984
 30
0.0
 10
78.92162541429738
 20
-107.1007839358984
 30
0.0
 10
78.9894937953568
 20
-107.2168836537513
 30
0.0
 10
79.03014592208274
 20
-107.2847520348108
 30
0.0
 10
79.08423392120116
 20
-107.2034477813589
 30
0.0
 10
79.16174856961929
 20
-107.1007839358984
 30
0.0
 10
79.37878958519003
 20
-107.1007839358984
 30
0.0
 10
79.75671655992194
 20
-107.1007839358984
 30
0.0
 10
79.75671655992194
 20
-107.3719129505876
 30
0.0
 10
79.75671655992194
 20
-107.4707871910143
 30
0.0
 10
79.75671655992194
 20
-107.4707871910143
 30
0.0
 10
79.75671655992194
 20
-108.2576469998453
 30
0.0
 10
79.75671655992194
 20
-108.2576469998453
 30
0.0
 10
79.75671655992194
 20
-108.2576469998453
 30
0.0
 10
79.63269312245293
 20
-108.2576469998453
 30
0.0
 10
79.63269312245293
 20
-108.2576469998453
 30
0.0
 10
79.63269312245293
 20
-108.2576469998453
 30
0.0
 10
79.63269312245293
 20
-107.488357177989
 30
0.0
 10
79.63269312245293
 20
-107.488357177989
 30
0.0
 10
79.63269312245293
 20
-107.3856933325286
 30
0.0
 10
79.63269312245293
 20
-107.2130940487176
 30
0.0
 10
79.37121037512247
 20
-107.2130940487176
 30
0.0
 10
79.06115178145
 20
-107.2130940487176
 30
0.0
 10
79.06115178145
 20
-107.4263454592545
 30
0.0
 10
79.06115178145
 20
-107.5097167699976
 30
0.0
 10
79.06115178145
 20
-107.5097167699976
 30
0.0
 10
79.06115178145
 20
-108.2576469998453
 30
0.0
 10
79.06115178145
 20
-108.2576469998453
 30
0.0
 10
79.06115178145
 20
-108.2576469998453
 30
0.0
 10
78.93885089172362
 20
-108.2576469998453
 30
0.0
 10
78.93885089172362
 20
-108.2576469998453
 30
0.0
 10
78.93885089172362
 20
-108.2576469998453
 30
0.0
 10
78.93885089172362
 20
-107.5135063750314
 30
0.0
 10
78.93885089172362
 20
-107.5135063750314
 30
0.0
 10
78.93885089172362
 20
-107.3894829375624
 30
0.0
 10
78.93885089172362
 20
-107.2130940487176
 30
0.0
 10
78.67736814439316
 20
-107.2130940487176
 30
0.0
 10
78.52819550988184
 20
-107.2130940487176
 30
0.0
 10
78.36145288839575
 20
-107.267182047836
 30
0.0
 10
78.36145288839575
 20
-107.4862901206979
 30
0.0
 10
78.36145288839575
 20
-107.4862901206979
 30
0.0
 10
78.36145288839575
 20
-108.2576469998453
 30
0.0
 10
78.36145288839575
 20
-108.2576469998453
 30
0.0
 10
78.36145288839575
 20
-108.2576469998453
 30
0.0
 10
78.23949650821791
 20
-108.2576469998453
 30
0.0
 10
78.23949650821791
 20
-108.2576469998453
 30
0.0
 10
78.23949650821791
 20
-108.2576469998453
 30
0.0
 10
78.23949650821791
 20
-107.116286865582
 30
0.0
 10
78.23949650821791
 20
-107.116286865582
 30
0.0
 10
78.23949650821791
 20
-107.116286865582
 30
0.0
 10
78.35559622607083
 20
-107.116286865582
 30
0.0
 10
78.35559622607083
 20
-107.116286865582
 30
0.0
  0
HATCH
  5
84
330
41
100
AcDbEntity
  8
_U+30EC_U+30A4_U+30E4_U+30FC 1
 62
   179
420
  2234388
100
AcDbHatch
 10
0.0
 20
0.0
 30
0.0
210
0.0
220
0.0
230
1.0
  2
SOLID
 70
     1
 71
     0
 91
        1
 92
        1
 93
        1
 72
     4
 94
        3
 73
     0
 74
     1
 95
       62
 96
       58
 40
0.0
 40
0.0
 40
0.0
 40
0.0
 40
1.0
 40
1.0
 40
1.0
 40
2.0
 40
2.0
 40
2.0
 40
3.0
 40
3.0
 40
3.0
 40
4.0
 40
4.0
 40
4.0
 40
5.0
 40
5.0
 40
5.0
 40
6.0
 40
6.0
 40
6.0
 40
7.0
 40
7.0
 40
7.0
 40
8.0
 40
8.0
 40
8.0
 40
9.0
 40
9.0
 40
9.0
 40
10.0
 40
10.0
 40
10.0
 40
11.0
 40
11.0
 40
11.0
 40
12.0
 40
12.0
 40
12.0
 40
13.0
 40
13.0
 40
13.0
 40
14.0
 40
14.0
 40
14.0
 40
15.0
 40
15.0
 40
15.0
 40
16.0
 40
16.0
 40
16.0
 40
17.0
 40
17.0
 40
17.0
 40
18.0
 40
18.0
 40
18.0
 40
19.0
 40
19.0
 40
19.0
 40
19.0
 10
78.35559622607083
 20
-107.116286865582
 10
78.35559622607083
 20
-107.116286865582
 10
78.36145288839575
 20
-107.2440999080848
 10
78.36145288839575
 20
-107.2440999080848
 10
78.40038246737907
 20
-107.2017252336162
 10
78.49340004548083
 20
-107.1007839358984
 10
78.68701441175186
 20
-107.1007839358984
 10
78.92162541429738
 20
-107.1007839358984
 10
78.9894937953568
 20
-107.2168836537513
 10
79.03014592208274
 20
-107.2847520348108
 10
79.08423392120116
 20
-107.2034477813589
 10
79.16174856961929
 20
-107.1007839358984
 10
79.37878958519003
 20
-107.1007839358984
 10
79.75671655992194
 20
-107.1007839358984
 10
79.75671655992194
 20
-107.3719129505876
 10
79.75671655992194
 20
-107.4707871910143
 10
79.75671655992194
 20
-107.4707871910143
 10
79.75671655992194
 20
-108.2576469998453
 10
79.75671655992194
 20
-108.2576469998453
 10
79.75671655992194
 20
-108.2576469998453
 10
79.63269312245293
 20
-108.2576469998453
 10
79.63269312245293
 20
-108.2576469998453
 10
79.63269312245293
 20
-108.2576469998453
 10
79.63269312245293
 20
-107.488357177989
 10
79.63269312245293
 20
-107.488357177989
 10
79.63269312245293
 20
-107.3856933325286
 10
79.63269312245293
 20
-107.2130940487176
 10
79.37121037512247
 20
-107.2130940487176
 10
79.06115178145
 20
-107.2130940487176
 10
79.06115178145
 20
-107.4263454592545
 10
79.06115178145
 20
-107.5097167699976
 10
79.06115178145
 20
-107.5097167699976
 10
79.06115178145
 20
-108.2576469998453
 10
79.06115178145
 20
-108.2576469998453
 10
79.06115178145
 20
-108.2576469998453
 10
78.93885089172362
 20
-108.2576469998453
 10
78.93885089172362
 20
-108.2576469998453
 10
78.93885089172362
 20
-108.2576469998453
 10
78.93885089172362
 20
-107.5135063750314
 10
78.93885089172362
 20
-107.5135063750314
 10
78.93885089172362
 20
-107.3894829375624
 10
78.93885089172362
 20
-107.2130940487176
 10
78.67736814439316
 20
-107.2130940487176
 10
78.52819550988184
 20
-107.2130940487176
 10
78.36145288839575
 20
-107.267182047836
 10
78.36145288839575
 20
-107.4862901206979
 10
78.36145288839575
 20
-107.4862901206979
 10
78.36145288839575
 20
-108.2576469998453
 10
78.36145288839575
 20
-108.2576469998453
 10
78.36145288839575
 20
-108.2576469998453
 10
78.23949650821791
 20
-108.2576469998453
 10
78.23949650821791
 20
-108.2576469998453
 10
78.23949650821791
 20
-108.2576469998453
 10
78.23949650821791
 20
-107.116286865582
 10
78.23949650821791
 20
-107.116286865582
 10
78.23949650821791
 20
-107.116286865582
 10
78.35559622607083
 20
-107.116286865582
 10
78.35559622607083
 20
-107.116286865582
 97
        0
 97
        0
 75
     2
 76
     1
 98
        0
  0
SPLINE
  5
85
330
41
100
AcDbEntity
  8
_U+30EC_U+30A4_U+30E4_U+30FC 1
370
     0
100
AcDbSpline
210
0.0
220
0.0
230
1.0
 70
    11
 71
     3
 72
    29
 73
    25
 74
     0
 42
0.0000000001
 43
0.0000000001
 12
1.0
 22
0.0
 32
0.0
 13
1.0
 23
0.0
 33
0.0
 40
0.0
 40
0.0
 40
0.0
 40
0.0
 40
1.0
 40
1.0
 40
1.0
 40
2.0
 40
2.0
 40
2.0
 40
3.0
 40
3.0
 40
3.0
 40
4.0
 40
4.0
 40
4.0
 40
5.0
 40
5.0
 40
5.0
 40
6.0
 40
6.0
 40
6.0
 40
7.0
 40
7.0
 40
7.0
 40
8.0
 40
8.0
 40
8.0
 40
8.0
 10
80.35168455022458
 20
-108.4126762966816
 30
0.0
 10
80.35168455022458
 20
-108.4126762966816
 30
0.0
 10
80.24695364747299
 20
-108.4126762966816
 30
0.0
 10
80.24695364747299
 20
-108.4126762966816
 30
0.0
 10
80.24695364747299
 20
-108.4126762966816
 30
0.0
 10
80.24695364747299
 20
-107.3023220217855
 30
0.0
 10
80.24695364747299
 20
-107.3023220217855
 30
0.0
 10
80.19493270564571
 20
-107.3815592179463
 30
0.0
 10
80.1270643245863
 20
-107.4787109106303
 30
0.0
 10
80.0457600711344
 20
-107.5600151640822
 30
0.0
 10
80.0457600711344
 20
-107.5600151640822
 30
0.0
 10
79.97203502775005
 20
-107.4632079809467
 30
0.0
 10
79.97203502775005
 20
-107.4632079809467
 30
0.0
 10
80.1560031266624
 20
-107.280962429777
 30
0.0
 10
80.33824867783211
 20
-106.9805501034632
 30
0.0
 10
80.44676918561748
 20
-106.6298393830648
 30
0.0
 10
80.44676918561748
 20
-106.6298393830648
 30
0.0
 10
80.5532226361117
 20
-106.6570556373982
 30
0.0
 10
80.5532226361117
 20
-106.6570556373982
 30
0.0
 10
80.51636011441953
 20
-106.7731553552512
 30
0.0
 10
80.46020505800995
 20
-106.9281846520874
 30
0.0
 10
80.35168455022458
 20
-107.1259331329407
 30
0.0
 10
80.35168455022458
 20
-107.1259331329407
 30
0.0
 10
80.35168455022458
 20
-108.4126762966816
 30
0.0
 10
80.35168455022458
 20
-108.4126762966816
 30
0.0
  0
POLYLINE
  5
86
330
41
100
AcDbEntity
  8
_U+30EC_U+30A4_U+30E4_U+30FC 1
370
     0
100
AcDb2dPolyline
 66
     1
 10
0.0
 20
0.0
 30
0.0
  0
VERTEX
  5
87
330
86
100
AcDbEntity
  8
_U+30EC_U+30A4_U+30E4_U+30FC 1
370
     0
100
AcDbVertex
100
AcDb2dVertex
 10
81.1695502184229
 20
-106.6298393830648
 30
0.0
  0
VERTEX
  5
88
330
86
100
AcDbEntity
  8
_U+30EC_U+30A4_U+30E4_U+30FC 1
370
     0
100
AcDbVertex
100
AcDb2dVertex
 10
81.1695502184229
 20
-106.9571234541635
 30
0.0
  0
VERTEX
  5
89
330
86
100
AcDbEntity
  8
_U+30EC_U+30A4_U+30E4_U+30FC 1
370
     0
100
AcDbVertex
100
AcDb2dVertex
 10
81.70629609502483
 20
-106.9571234541635
 30
0.0
  0
VERTEX
  5
8A
330
86
100
AcDbEntity
  8
_U+30EC_U+30A4_U+30E4_U+30FC 1
370
     0
100
AcDbVertex
100
AcDb2dVertex
 10
81.70629609502483
 20
-108.01132267265
 30
0.0
  0
VERTEX
  5
8B
330
86
100
AcDbEntity
  8
_U+30EC_U+30A4_U+30E4_U+30FC 1
370
     0
100
AcDbVertex
100
AcDb2dVertex
 10
81.60156519227323
 20
-108.01132267265
 30
0.0
  0
VERTEX
  5
8C
330
86
100
AcDbEntity
  8
_U+30EC_U+30A4_U+30E4_U+30FC 1
370
     0
100
AcDbVertex
100
AcDb2dVertex
 10
81.60156519227323
 20
-107.9069362794469
 30
0.0
  0
VERTEX
  5
8D
330
86
100
AcDbEntity
  8
_U+30EC_U+30A4_U+30E4_U+30FC 1
370
     0
100
AcDbVertex
100
AcDb2dVertex
 10
81.1695502184229
 20
-107.9069362794469
 30
0.0
  0
VERTEX
  5
8E
330
86
100
AcDbEntity
  8
_U+30EC_U+30A4_U+30E4_U+30FC 1
370
     0
100
AcDbVertex
100
AcDb2dVertex
 10
81.1695502184229
 20
-108.4126762966816
 30
0.0
  0
VERTEX
  5
8F
330
86
100
AcDbEntity
  8
_U+30EC_U+30A4_U+30E4_U+30FC 1
370
     0
100
AcDbVertex
100
AcDb2dVertex
 10
81.0648193156713
 20
-108.4126762966816
 30
0.0
  0
VERTEX
  5
90
330
86
100
AcDbEntity
  8
_U+30EC_U+30A4_U+30E4_U+30FC 1
370
     0
100
AcDbVertex
100
AcDb2dVertex
 10
81.0648193156713
 20
-107.9069362794469
 30
0.0
  0
VERTEX
  5
91
330
86
100
AcDbEntity
  8
_U+30EC_U+30A4_U+30E4_U+30FC 1
370
     0
100
AcDbVertex
100
AcDb2dVertex
 10
80.65002981924722
 20
-107.9069362794469
 30
0.0
  0
VERTEX
  5
92
330
86
100
AcDbEntity
  8
_U+30EC_U+30A4_U+30E4_U+30FC 1
370
     0
100
AcDbVertex
100
AcDb2dVertex
 10
80.65002981924722
 20
-108.01132267265
 30
0.0
  0
VERTEX
  5
93
330
86
100
AcDbEntity
  8
_U+30EC_U+30A4_U+30E4_U+30FC 1
370
     0
100
AcDbVertex
100
AcDb2dVertex
 10
80.54736597378677
 20
-108.01132267265
 30
0.0
  0
VERTEX
  5
94
330
86
100
AcDbEntity
  8
_U+30EC_U+30A4_U+30E4_U+30FC 1
370
     0
100
AcDbVertex
100
AcDb2dVertex
 10
80.54736597378677
 20
-106.9571234541635
 30
0.0
  0
VERTEX
  5
95
330
86
100
AcDbEntity
  8
_U+30EC_U+30A4_U+30E4_U+30FC 1
370
     0
100
AcDbVertex
100
AcDb2dVertex
 10
81.0648193156713
 20
-106.9571234541635
 30
0.0
  0
VERTEX
  5
96
330
86
100
AcDbEntity
  8
_U+30EC_U+30A4_U+30E4_U+30FC 1
370
     0
100
AcDbVertex
100
AcDb2dVertex
 10
81.0648193156713
 20
-106.6298393830648
 30
0.0
  0
VERTEX
  5
97
330
86
100
AcDbEntity
  8
_U+30EC_U+30A4_U+30E4_U+30FC 1
370
     0
100
AcDbVertex
100
AcDb2dVertex
 10
81.1695502184229
 20
-106.6298393830648
 30
0.0
  0
SEQEND
  5
98
330
86
100
AcDbEntity
  8
_U+30EC_U+30A4_U+30E4_U+30FC 1
370
     0
  0
POLYLINE
  5
99
330
41
100
AcDbEntity
  8
_U+30EC_U+30A4_U+30E4_U+30FC 1
370
     0
100
AcDb2dPolyline
 66
     1
 10
0.0
 20
0.0
 30
0.0
  0
VERTEX
  5
9A
330
99
100
AcDbEntity
  8
_U+30EC_U+30A4_U+30E4_U+30FC 1
370
     0
100
AcDbVertex
100
AcDb2dVertex
 10
81.0648193156713
 20
-107.0522080895564
 30
0.0
  0
VERTEX
  5
9B
330
99
100
AcDbEntity
  8
_U+30EC_U+30A4_U+30E4_U+30FC 1
370
     0
100
AcDbVertex
100
AcDb2dVertex
 10
80.65002981924722
 20
-107.0522080895564
 30
0.0
  0
VERTEX
  5
9C
330
99
100
AcDbEntity
  8
_U+30EC_U+30A4_U+30E4_U+30FC 1
370
     0
100
AcDbVertex
100
AcDb2dVertex
 10
80.65002981924722
 20
-107.3856933325286
 30
0.0
  0
VERTEX
  5
9D
330
99
100
AcDbEntity
  8
_U+30EC_U+30A4_U+30E4_U+30FC 1
370
     0
100
AcDbVertex
100
AcDb2dVertex
 10
81.0648193156713
 20
-107.3856933325286
 30
0.0
  0
VERTEX
  5
9E
330
99
100
AcDbEntity
  8
_U+30EC_U+30A4_U+30E4_U+30FC 1
370
     0
100
AcDbVertex
100
AcDb2dVertex
 10
81.0648193156713
 20
-107.0522080895564
 30
0.0
  0
SEQEND
  5
9F
330
99
100
AcDbEntity
  8
_U+30EC_U+30A4_U+30E4_U+30FC 1
370
     0
  0
POLYLINE
  5
A0
330
41
100
AcDbEntity
  8
_U+30EC_U+30A4_U+30E4_U+30FC 1
370
     0
100
AcDb2dPolyline
 66
     1
 10
0.0
 20
0.0
 30
0.0
  0
VERTEX
  5
A1
330
A0
100
AcDbEntity
  8
_U+30EC_U+30A4_U+30E4_U+30FC 1
370
     0
100
AcDbVertex
100
AcDb2dVertex
 10
81.0648193156713
 20
-107.474576796048
 30
0.0
  0
VERTEX
  5
A2
330
A0
100
AcDbEntity
  8
_U+30EC_U+30A4_U+30E4_U+30FC 1
370
     0
100
AcDbVertex
100
AcDb2dVertex
 10
80.65002981924722
 20
-107.474576796048
 30
0.0
  0
VERTEX
  5
A3
330
A0
100
AcDbEntity
  8
_U+30EC_U+30A4_U+30E4_U+30FC 1
370
     0
100
AcDbVertex
100
AcDb2dVertex
 10
80.65002981924722
 20
-107.8139187013451
 30
0.0
  0
VERTEX
  5
A4
330
A0
100
AcDbEntity
  8
_U+30EC_U+30A4_U+30E4_U+30FC 1
370
     0
100
AcDbVertex
100
AcDb2dVertex
 10
81.0648193156713
 20
-107.8139187013451
 30
0.0
  0
VERTEX
  5
A5
330
A0
100
AcDbEntity
  8
_U+30EC_U+30A4_U+30E4_U+30FC 1
370
     0
100
AcDbVertex
100
AcDb2dVertex
 10
81.0648193156713
 20
-107.474576796048
 30
0.0
  0
SEQEND
  5
A6
330
A0
100
AcDbEntity
  8
_U+30EC_U+30A4_U+30E4_U+30FC 1
370
     0
  0
POLYLINE
  5
A7
330
41
100
AcDbEntity
  8
_U+30EC_U+30A4_U+30E4_U+30FC 1
370
     0
100
AcDb2dPolyline
 66
     1
 10
0.0
 20
0.0
 30
0.0
  0
VERTEX
  5
A8
330
A7
100
AcDbEntity
  8
_U+30EC_U+30A4_U+30E4_U+30FC 1
370
     0
100
AcDbVertex
100
AcDb2dVertex
 10
81.60156519227323
 20
-107.0522080895564
 30
0.0
  0
VERTEX
  5
A9
330
A7
100
AcDbEntity
  8
_U+30EC_U+30A4_U+30E4_U+30FC 1
370
     0
100
AcDbVertex
100
AcDb2dVertex
 10
81.1695502184229
 20
-107.0522080895564
 30
0.0
  0
VERTEX
  5
AA
330
A7
100
AcDbEntity
  8
_U+30EC_U+30A4_U+30E4_U+30FC 1
370
     0
100
AcDbVertex
100
AcDb2dVertex
 10
81.1695502184229
 20
-107.3856933325286
 30
0.0
  0
VERTEX
  5
AB
330
A7
100
AcDbEntity
  8
_U+30EC_U+30A4_U+30E4_U+30FC 1
370
     0
100
AcDbVertex
100
AcDb2dVertex
 10
81.60156519227323
 20
-107.3856933325286
 30
0.0
  0
VERTEX
  5
AC
330
A7
100
AcDbEntity
  8
_U+30EC_U+30A4_U+30E4_U+30FC 1
370
     0
100
AcDbVertex
100
AcDb2dVertex
 10
81.60156519227323
 20
-107.0522080895564
 30
0.0
  0
SEQEND
  5
AD
330
A7
100
AcDbEntity
  8
_U+30EC_U+30A4_U+30E4_U+30FC 1
370
     0
  0
POLYLINE
  5
AE
330
41
100
AcDbEntity
  8
_U+30EC_U+30A4_U+30E4_U+30FC 1
370
     0
100
AcDb2dPolyline
 66
     1
 10
0.0
 20
0.0
 30
0.0
  0
VERTEX
  5
AF
330
AE
100
AcDbEntity
  8
_U+30EC_U+30A4_U+30E4_U+30FC 1
370
     0
100
AcDbVertex
100
AcDb2dVertex
 10
81.60156519227323
 20
-107.474576796048
 30
0.0
  0
VERTEX
  5
B0
330
AE
100
AcDbEntity
  8
_U+30EC_U+30A4_U+30E4_U+30FC 1
370
     0
100
AcDbVertex
100
AcDb2dVertex
 10
81.1695502184229
 20
-107.474576796048
 30
0.0
  0
VERTEX
  5
B1
330
AE
100
AcDbEntity
  8
_U+30EC_U+30A4_U+30E4_U+30FC 1
370
     0
100
AcDbVertex
100
AcDb2dVertex
 10
81.1695502184229
 20
-107.8139187013451
 30
0.0
  0
VERTEX
  5
B2
330
AE
100
AcDbEntity
  8
_U+30EC_U+30A4_U+30E4_U+30FC 1
370
     0
100
AcDbVertex
100
AcDb2dVertex
 10
81.60156519227323
 20
-107.8139187013451
 30
0.0
  0
VERTEX
  5
B3
330
AE
100
AcDbEntity
  8
_U+30EC_U+30A4_U+30E4_U+30FC 1
370
     0
100
AcDbVertex
100
AcDb2dVertex
 10
81.60156519227323
 20
-107.474576796048
 30
0.0
  0
SEQEND
  5
B4
330
AE
100
AcDbEntity
  8
_U+30EC_U+30A4_U+30E4_U+30FC 1
370
     0
  0
HATCH
  5
B5
330
41
100
AcDbEntity
  8
_U+30EC_U+30A4_U+30E4_U+30FC 1
 62
   179
420
  2234388
100
AcDbHatch
 10
0.0
 20
0.0
 30
0.0
210
0.0
220
0.0
230
1.0
  2
SOLID
 70
     1
 71
     0
 91
        6
 92
        1
 93
        1
 72
     4
 94
        3
 73
     0
 74
     1
 95
       29
 96
       25
 40
0.0
 40
0.0
 40
0.0
 40
0.0
 40
1.0
 40
1.0
 40
1.0
 40
2.0
 40
2.0
 40
2.0
 40
3.0
 40
3.0
 40
3.0
 40
4.0
 40
4.0
 40
4.0
 40
5.0
 40
5.0
 40
5.0
 40
6.0
 40
6.0
 40
6.0
 40
7.0
 40
7.0
 40
7.0
 40
8.0
 40
8.0
 40
8.0
 40
8.0
 10
80.35168455022458
 20
-108.4126762966816
 10
80.35168455022458
 20
-108.4126762966816
 10
80.24695364747299
 20
-108.4126762966816
 10
80.24695364747299
 20
-108.4126762966816
 10
80.24695364747299
 20
-108.4126762966816
 10
80.24695364747299
 20
-107.3023220217855
 10
80.24695364747299
 20
-107.3023220217855
 10
80.19493270564571
 20
-107.3815592179463
 10
80.1270643245863
 20
-107.4787109106303
 10
80.0457600711344
 20
-107.5600151640822
 10
80.0457600711344
 20
-107.5600151640822
 10
79.97203502775005
 20
-107.4632079809467
 10
79.97203502775005
 20
-107.4632079809467
 10
80.1560031266624
 20
-107.280962429777
 10
80.33824867783211
 20
-106.9805501034632
 10
80.44676918561748
 20
-106.6298393830648
 10
80.44676918561748
 20
-106.6298393830648
 10
80.5532226361117
 20
-106.6570556373982
 10
80.5532226361117
 20
-106.6570556373982
 10
80.51636011441953
 20
-106.7731553552512
 10
80.46020505800995
 20
-106.9281846520874
 10
80.35168455022458
 20
-107.1259331329407
 10
80.35168455022458
 20
-107.1259331329407
 10
80.35168455022458
 20
-108.4126762966816
 10
80.35168455022458
 20
-108.4126762966816
 97
        0
 97
        0
 92
        1
 93
       16
 72
     1
 10
81.1695502184229
 20
-106.6298393830648
 11
81.1695502184229
 21
-106.9571234541635
 72
     1
 10
81.1695502184229
 20
-106.9571234541635
 11
81.70629609502483
 21
-106.9571234541635
 72
     1
 10
81.70629609502483
 20
-106.9571234541635
 11
81.70629609502483
 21
-108.01132267265
 72
     1
 10
81.70629609502483
 20
-108.01132267265
 11
81.60156519227323
 21
-108.01132267265
 72
     1
 10
81.60156519227323
 20
-108.01132267265
 11
81.60156519227323
 21
-107.9069362794469
 72
     1
 10
81.60156519227323
 20
-107.9069362794469
 11
81.1695502184229
 21
-107.9069362794469
 72
     1
 10
81.1695502184229
 20
-107.9069362794469
 11
81.1695502184229
 21
-108.4126762966816
 72
     1
 10
81.1695502184229
 20
-108.4126762966816
 11
81.0648193156713
 21
-108.4126762966816
 72
     1
 10
81.0648193156713
 20
-108.4126762966816
 11
81.0648193156713
 21
-107.9069362794469
 72
     1
 10
81.0648193156713
 20
-107.9069362794469
 11
80.65002981924722
 21
-107.9069362794469
 72
     1
 10
80.65002981924722
 20
-107.9069362794469
 11
80.65002981924722
 21
-108.01132267265
 72
     1
 10
80.65002981924722
 20
-108.01132267265
 11
80.54736597378677
 21
-108.01132267265
 72
     1
 10
80.54736597378677
 20
-108.01132267265
 11
80.54736597378677
 21
-106.9571234541635
 72
     1
 10
80.54736597378677
 20
-106.9571234541635
 11
81.0648193156713
 21
-106.9571234541635
 72
     1
 10
81.0648193156713
 20
-106.9571234541635
 11
81.0648193156713
 21
-106.6298393830648
 72
     1
 10
81.0648193156713
 20
-106.6298393830648
 11
81.1695502184229
 21
-106.6298393830648
 97
        0
 92
        1
 93
        4
 72
     1
 10
81.0648193156713
 20
-107.0522080895564
 11
80.65002981924722
 21
-107.0522080895564
 72
     1
 10
80.65002981924722
 20
-107.0522080895564
 11
80.65002981924722
 21
-107.3856933325286
 72
     1
 10
80.65002981924722
 20
-107.3856933325286
 11
81.0648193156713
 21
-107.3856933325286
 72
     1
 10
81.0648193156713
 20
-107.3856933325286
 11
81.0648193156713
 21
-107.0522080895564
 97
        0
 92
        1
 93
        4
 72
     1
 10
81.0648193156713
 20
-107.474576796048
 11
80.65002981924722
 21
-107.474576796048
 72
     1
 10
80.65002981924722
 20
-107.474576796048
 11
80.65002981924722
 21
-107.8139187013451
 72
     1
 10
80.65002981924722
 20
-107.8139187013451
 11
81.0648193156713
 21
-107.8139187013451
 72
     1
 10
81.0648193156713
 20
-107.8139187013451
 11
81.0648193156713
 21
-107.474576796048
 97
        0
 92
        1
 93
        4
 72
     1
 10
81.60156519227323
 20
-107.0522080895564
 11
81.1695502184229
 21
-107.0522080895564
 72
     1
 10
81.1695502184229
 20
-107.0522080895564
 11
81.1695502184229
 21
-107.3856933325286
 72
     1
 10
81.1695502184229
 20
-107.3856933325286
 11
81.60156519227323
 21
-107.3856933325286
 72
     1
 10
81.60156519227323
 20
-107.3856933325286
 11
81.60156519227323
 21
-107.0522080895564
 97
        0
 92
        1
 93
        4
 72
     1
 10
81.60156519227323
 20
-107.474576796048
 11
81.1695502184229
 21
-107.474576796048
 72
     1
 10
81.1695502184229
 20
-107.474576796048
 11
81.1695502184229
 21
-107.8139187013451
 72
     1
 10
81.1695502184229
 20
-107.8139187013451
 11
81.60156519227323
 21
-107.8139187013451
 72
     1
 10
81.60156519227323
 20
-107.8139187013451
 11
81.60156519227323
 21
-107.474576796048
 97
        0
 75
     2
 76
     1
 98
        0
  0
SPLINE
  5
B6
330
41
100
AcDbEntity
  8
_U+30EC_U+30A4_U+30E4_U+30FC 1
370
     0
100
AcDbSpline
210
0.0
220
0.0
230
1.0
 70
    11
 71
     3
 72
    23
 73
    19
 74
     0
 42
0.0000000001
 43
0.0000000001
 12
1.0
 22
0.0
 32
0.0
 13
1.0
 23
0.0
 33
0.0
 40
0.0
 40
0.0
 40
0.0
 40
0.0
 40
1.0
 40
1.0
 40
1.0
 40
2.0
 40
2.0
 40
2.0
 40
3.0
 40
3.0
 40
3.0
 40
4.0
 40
4.0
 40
4.0
 40
5.0
 40
5.0
 40
5.0
 40
6.0
 40
6.0
 40
6.0
 40
6.0
 10
82.19894474941555
 20
-106.7170002988416
 30
0.0
 10
82.17379555237322
 20
-106.8430907936017
 30
0.0
 10
82.11385089092987
 20
-107.1493597822404
 30
0.0
 10
82.11385089092987
 20
-107.6048014053905
 30
0.0
 10
82.11385089092987
 20
-107.8893662924721
 30
0.0
 10
82.13314342564728
 20
-108.1219102377265
 30
0.0
 10
82.18378632928045
 20
-108.3138020562549
 30
0.0
 10
82.18378632928045
 20
-108.3138020562549
 30
0.0
 10
82.06148543955408
 20
-108.3234483236136
 30
0.0
 10
82.06148543955408
 20
-108.3234483236136
 30
0.0
 10
82.0439154525793
 20
-108.2090711535033
 30
0.0
 10
82.00533038314451
 20
-107.9534450684978
 30
0.0
 10
82.00533038314451
 20
-107.6182372777829
 30
0.0
 10
82.00533038314451
 20
-107.2733832197094
 30
0.0
 10
82.04598250987046
 20
-106.963324626037
 30
0.0
 10
82.08491208885377
 20
-106.7111436365167
 30
0.0
 10
82.08491208885377
 20
-106.7111436365167
 30
0.0
 10
82.19894474941555
 20
-106.7170002988416
 30
0.0
 10
82.19894474941555
 20
-106.7170002988416
 30
0.0
  0
SPLINE
  5
B7
330
41
100
AcDbEntity
  8
_U+30EC_U+30A4_U+30E4_U+30FC 1
370
     0
100
AcDbSpline
210
0.0
220
0.0
230
1.0
 70
    11
 71
     3
 72
    62
 73
    58
 74
     0
 42
0.0000000001
 43
0.0000000001
 12
1.0
 22
0.0
 32
0.0
 13
1.0
 23
0.0
 33
0.0
 40
0.0
 40
0.0
 40
0.0
 40
0.0
 40
1.0
 40
1.0
 40
1.0
 40
2.0
 40
2.0
 40
2.0
 40
3.0
 40
3.0
 40
3.0
 40
4.0
 40
4.0
 40
4.0
 40
5.0
 40
5.0
 40
5.0
 40
6.0
 40
6.0
 40
6.0
 40
7.0
 40
7.0
 40
7.0
 40
8.0
 40
8.0
 40
8.0
 40
9.0
 40
9.0
 40
9.0
 40
10.0
 40
10.0
 40
10.0
 40
11.0
 40
11.0
 40
11.0
 40
12.0
 40
12.0
 40
12.0
 40
13.0
 40
13.0
 40
13.0
 40
14.0
 40
14.0
 40
14.0
 40
15.0
 40
15.0
 40
15.0
 40
16.0
 40
16.0
 40
16.0
 40
17.0
 40
17.0
 40
17.0
 40
18.0
 40
18.0
 40
18.0
 40
19.0
 40
19.0
 40
19.0
 40
19.0
 10
83.07296547402343
 20
-107.0618543569151
 30
0.0
 10
83.07296547402343
 20
-107.0618543569151
 30
0.0
 10
83.06917586898966
 20
-106.7073540314829
 30
0.0
 10
83.06917586898966
 20
-106.7073540314829
 30
0.0
 10
83.06917586898966
 20
-106.7073540314829
 30
0.0
 10
83.17769637677502
 20
-106.7073540314829
 30
0.0
 10
83.17769637677502
 20
-106.7073540314829
 30
0.0
 10
83.17769637677502
 20
-106.7073540314829
 30
0.0
 10
83.1814859818088
 20
-107.0618543569151
 30
0.0
 10
83.1814859818088
 20
-107.0618543569151
 30
0.0
 10
83.1814859818088
 20
-107.0618543569151
 30
0.0
 10
83.57698294351547
 20
-107.0618543569151
 30
0.0
 10
83.57698294351547
 20
-107.0618543569151
 30
0.0
 10
83.57698294351547
 20
-107.0618543569151
 30
0.0
 10
83.57698294351547
 20
-107.1686523169578
 30
0.0
 10
83.57698294351547
 20
-107.1686523169578
 30
0.0
 10
83.57698294351547
 20
-107.1686523169578
 30
0.0
 10
83.1856200963911
 20
-107.1686523169578
 30
0.0
 10
83.1856200963911
 20
-107.1686523169578
 30
0.0
 10
83.1856200963911
 20
-107.1686523169578
 30
0.0
 10
83.18940970142488
 20
-107.7384711102182
 30
0.0
 10
83.18940970142488
 20
-107.7384711102182
 30
0.0
 10
83.34443899826111
 20
-107.8177083063789
 30
0.0
 10
83.47431909805503
 20
-107.9048692221557
 30
0.0
 10
83.6021321405578
 20
-108.0443955893084
 30
0.0
 10
83.6021321405578
 20
-108.0443955893084
 30
0.0
 10
83.52255043484853
 20
-108.1529160970937
 30
0.0
 10
83.52255043484853
 20
-108.1529160970937
 30
0.0
 10
83.42195364667924
 20
-108.025103054591
 30
0.0
 10
83.33100312586865
 20
-107.9437988011391
 30
0.0
 10
83.18940970142488
 20
-107.8545708280711
 30
0.0
 10
83.18940970142488
 20
-107.8545708280711
 30
0.0
 10
83.18940970142488
 20
-107.9572346735315
 30
0.0
 10
83.18940970142488
 20
-107.9572346735315
 30
0.0
 10
83.18940970142488
 20
-108.218717420862
 30
0.0
 10
83.02094453219615
 20
-108.3213812663224
 30
0.0
 10
82.81148272669297
 20
-108.3213812663224
 30
0.0
 10
82.54586586478021
 20
-108.3213812663224
 30
0.0
 10
82.41047361220988
 20
-108.1684190267773
 30
0.0
 10
82.41047361220988
 20
-107.9961642525149
 30
0.0
 10
82.41047361220988
 20
-107.790836561594
 30
0.0
 10
82.59650876841337
 20
-107.6568223472177
 30
0.0
 10
82.8366319237353
 20
-107.6568223472177
 30
0.0
 10
82.95307615113674
 20
-107.6568223472177
 30
0.0
 10
83.03610295233126
 20
-107.6819715442601
 30
0.0
 10
83.0808891936395
 20
-107.6957519262011
 30
0.0
 10
83.0808891936395
 20
-107.6957519262011
 30
0.0
 10
83.07709958860573
 20
-107.1686523169578
 30
0.0
 10
83.07709958860573
 20
-107.1686523169578
 30
0.0
 10
83.07709958860573
 20
-107.1686523169578
 30
0.0
 10
82.43562280925221
 20
-107.1686523169578
 30
0.0
 10
82.43562280925221
 20
-107.1686523169578
 30
0.0
 10
82.43562280925221
 20
-107.1686523169578
 30
0.0
 10
82.43562280925221
 20
-107.0618543569151
 30
0.0
 10
82.43562280925221
 20
-107.0618543569151
 30
0.0
 10
82.43562280925221
 20
-107.0618543569151
 30
0.0
 10
83.07296547402343
 20
-107.0618543569151
 30
0.0
 10
83.07296547402343
 20
-107.0618543569151
 30
0.0
  0
SPLINE
  5
B8
330
41
100
AcDbEntity
  8
_U+30EC_U+30A4_U+30E4_U+30FC 1
370
     0
100
AcDbSpline
210
0.0
220
0.0
230
1.0
 70
    11
 71
     3
 72
    20
 73
    16
 74
     0
 42
0.0000000001
 43
0.0000000001
 12
1.0
 22
0.0
 32
0.0
 13
1.0
 23
0.0
 33
0.0
 40
0.0
 40
0.0
 40
0.0
 40
0.0
 40
1.0
 40
1.0
 40
1.0
 40
2.0
 40
2.0
 40
2.0
 40
3.0
 40
3.0
 40
3.0
 40
4.0
 40
4.0
 40
4.0
 40
5.0
 40
5.0
 40
5.0
 40
5.0
 10
83.0808891936395
 20
-107.8022053766953
 30
0.0
 10
83.00130748793023
 20
-107.7732665746192
 30
0.0
 10
82.91621362944456
 20
-107.7536295303533
 30
0.0
 10
82.83077526141037
 20
-107.7536295303533
 30
0.0
 10
82.66816675450657
 20
-107.7536295303533
 30
0.0
 10
82.5169270627041
 20
-107.8332112360625
 30
0.0
 10
82.5169270627041
 20
-107.9940971952237
 30
0.0
 10
82.5169270627041
 20
-108.0795355632579
 30
0.0
 10
82.56722545678875
 20
-108.218717420862
 30
0.0
 10
82.80390351662541
 20
-108.218717420862
 30
0.0
 10
83.0808891936395
 20
-108.218717420862
 30
0.0
 10
83.0808891936395
 20
-108.0288926596247
 30
0.0
 10
83.0808891936395
 20
-107.9513780112066
 30
0.0
 10
83.0808891936395
 20
-107.9513780112066
 30
0.0
 10
83.0808891936395
 20
-107.8022053766953
 30
0.0
 10
83.0808891936395
 20
-107.8022053766953
 30
0.0
  0
SPLINE
  5
B9
330
41
100
AcDbEntity
  8
_U+30EC_U+30A4_U+30E4_U+30FC 1
370
     0
100
AcDbSpline
210
0.0
220
0.0
230
1.0
 70
    11
 71
     3
 72
    17
 73
    13
 74
     0
 42
0.0000000001
 43
0.0000000001
 12
1.0
 22
0.0
 32
0.0
 13
1.0
 23
0.0
 33
0.0
 40
0.0
 40
0.0
 40
0.0
 40
0.0
 40
1.0
 40
1.0
 40
1.0
 40
2.0
 40
2.0
 40
2.0
 40
3.0
 40
3.0
 40
3.0
 40
4.0
 40
4.0
 40
4.0
 40
4.0
 10
83.40266111196183
 20
-106.9688367788134
 30
0.0
 10
83.34064939322734
 20
-106.8082953292007
 30
0.0
 10
83.29414060417646
 20
-106.7287136234914
 30
0.0
 10
83.26485729255184
 20
-106.6801377771494
 30
0.0
 10
83.26485729255184
 20
-106.6801377771494
 30
0.0
 10
83.35201820832867
 20
-106.6356960453897
 30
0.0
 10
83.35201820832867
 20
-106.6356960453897
 30
0.0
 10
83.38302406769591
 20
-106.6842718917317
 30
0.0
 10
83.44503578643041
 20
-106.7790120175761
 30
0.0
 10
83.49740123780622
 20
-106.9206054420198
 30
0.0
 10
83.49740123780622
 20
-106.9206054420198
 30
0.0
 10
83.40266111196183
 20
-106.9688367788134
 30
0.0
 10
83.40266111196183
 20
-106.9688367788134
 30
0.0
  0
SPLINE
  5
BA
330
41
100
AcDbEntity
  8
_U+30EC_U+30A4_U+30E4_U+30FC 1
370
     0
100
AcDbSpline
210
0.0
220
0.0
230
1.0
 70
    11
 71
     3
 72
    17
 73
    13
 74
     0
 42
0.0000000001
 43
0.0000000001
 12
1.0
 22
0.0
 32
0.0
 13
1.0
 23
0.0
 33
0.0
 40
0.0
 40
0.0
 40
0.0
 40
0.0
 40
1.0
 40
1.0
 40
1.0
 40
2.0
 40
2.0
 40
2.0
 40
3.0
 40
3.0
 40
3.0
 40
4.0
 40
4.0
 40
4.0
 40
4.0
 10
83.62521428030898
 20
-106.8992458500113
 30
0.0
 10
83.54804414143938
 20
-106.7111436365167
 30
0.0
 10
83.51497122478098
 20
-106.6646348474658
 30
0.0
 10
83.48775497044751
 20
-106.6239827207398
 30
0.0
 10
83.48775497044751
 20
-106.6239827207398
 30
0.0
 10
83.57905000080663
 20
-106.5754068743978
 30
0.0
 10
83.57905000080663
 20
-106.5754068743978
 30
0.0
 10
83.6310709426339
 20
-106.6587781851409
 30
0.0
 10
83.67585718394216
 20
-106.7421494958839
 30
0.0
 10
83.71444225337694
 20
-106.8430907936017
 30
0.0
 10
83.71444225337694
 20
-106.8430907936017
 30
0.0
 10
83.62521428030898
 20
-106.8992458500113
 30
0.0
 10
83.62521428030898
 20
-106.8992458500113
 30
0.0
  0
HATCH
  5
BB
330
41
100
AcDbEntity
  8
_U+30EC_U+30A4_U+30E4_U+30FC 1
 62
   179
420
  2234388
100
AcDbHatch
 10
0.0
 20
0.0
 30
0.0
210
0.0
220
0.0
230
1.0
  2
SOLID
 70
     1
 71
     0
 91
        5
 92
        1
 93
        1
 72
     4
 94
        3
 73
     0
 74
     1
 95
       23
 96
       19
 40
0.0
 40
0.0
 40
0.0
 40
0.0
 40
1.0
 40
1.0
 40
1.0
 40
2.0
 40
2.0
 40
2.0
 40
3.0
 40
3.0
 40
3.0
 40
4.0
 40
4.0
 40
4.0
 40
5.0
 40
5.0
 40
5.0
 40
6.0
 40
6.0
 40
6.0
 40
6.0
 10
82.19894474941555
 20
-106.7170002988416
 10
82.17379555237322
 20
-106.8430907936017
 10
82.11385089092987
 20
-107.1493597822404
 10
82.11385089092987
 20
-107.6048014053905
 10
82.11385089092987
 20
-107.8893662924721
 10
82.13314342564728
 20
-108.1219102377265
 10
82.18378632928045
 20
-108.3138020562549
 10
82.18378632928045
 20
-108.3138020562549
 10
82.06148543955408
 20
-108.3234483236136
 10
82.06148543955408
 20
-108.3234483236136
 10
82.0439154525793
 20
-108.2090711535033
 10
82.00533038314451
 20
-107.9534450684978
 10
82.00533038314451
 20
-107.6182372777829
 10
82.00533038314451
 20
-107.2733832197094
 10
82.04598250987046
 20
-106.963324626037
 10
82.08491208885377
 20
-106.7111436365167
 10
82.08491208885377
 20
-106.7111436365167
 10
82.19894474941555
 20
-106.7170002988416
 10
82.19894474941555
 20
-106.7170002988416
 97
        0
 97
        0
 92
        1
 93
        1
 72
     4
 94
        3
 73
     0
 74
     1
 95
       62
 96
       58
 40
0.0
 40
0.0
 40
0.0
 40
0.0
 40
1.0
 40
1.0
 40
1.0
 40
2.0
 40
2.0
 40
2.0
 40
3.0
 40
3.0
 40
3.0
 40
4.0
 40
4.0
 40
4.0
 40
5.0
 40
5.0
 40
5.0
 40
6.0
 40
6.0
 40
6.0
 40
7.0
 40
7.0
 40
7.0
 40
8.0
 40
8.0
 40
8.0
 40
9.0
 40
9.0
 40
9.0
 40
10.0
 40
10.0
 40
10.0
 40
11.0
 40
11.0
 40
11.0
 40
12.0
 40
12.0
 40
12.0
 40
13.0
 40
13.0
 40
13.0
 40
14.0
 40
14.0
 40
14.0
 40
15.0
 40
15.0
 40
15.0
 40
16.0
 40
16.0
 40
16.0
 40
17.0
 40
17.0
 40
17.0
 40
18.0
 40
18.0
 40
18.0
 40
19.0
 40
19.0
 40
19.0
 40
19.0
 10
83.07296547402343
 20
-107.0618543569151
 10
83.07296547402343
 20
-107.0618543569151
 10
83.06917586898966
 20
-106.7073540314829
 10
83.06917586898966
 20
-106.7073540314829
 10
83.06917586898966
 20
-106.7073540314829
 10
83.17769637677502
 20
-106.7073540314829
 10
83.17769637677502
 20
-106.7073540314829
 10
83.17769637677502
 20
-106.7073540314829
 10
83.1814859818088
 20
-107.0618543569151
 10
83.1814859818088
 20
-107.0618543569151
 10
83.1814859818088
 20
-107.0618543569151
 10
83.57698294351547
 20
-107.0618543569151
 10
83.57698294351547
 20
-107.0618543569151
 10
83.57698294351547
 20
-107.0618543569151
 10
83.57698294351547
 20
-107.1686523169578
 10
83.57698294351547
 20
-107.1686523169578
 10
83.57698294351547
 20
-107.1686523169578
 10
83.1856200963911
 20
-107.1686523169578
 10
83.1856200963911
 20
-107.1686523169578
 10
83.1856200963911
 20
-107.1686523169578
 10
83.18940970142488
 20
-107.7384711102182
 10
83.18940970142488
 20
-107.7384711102182
 10
83.34443899826111
 20
-107.8177083063789
 10
83.47431909805503
 20
-107.9048692221557
 10
83.6021321405578
 20
-108.0443955893084
 10
83.6021321405578
 20
-108.0443955893084
 10
83.52255043484853
 20
-108.1529160970937
 10
83.52255043484853
 20
-108.1529160970937
 10
83.42195364667924
 20
-108.025103054591
 10
83.33100312586865
 20
-107.9437988011391
 10
83.18940970142488
 20
-107.8545708280711
 10
83.18940970142488
 20
-107.8545708280711
 10
83.18940970142488
 20
-107.9572346735315
 10
83.18940970142488
 20
-107.9572346735315
 10
83.18940970142488
 20
-108.218717420862
 10
83.02094453219615
 20
-108.3213812663224
 10
82.81148272669297
 20
-108.3213812663224
 10
82.54586586478021
 20
-108.3213812663224
 10
82.41047361220988
 20
-108.1684190267773
 10
82.41047361220988
 20
-107.9961642525149
 10
82.41047361220988
 20
-107.790836561594
 10
82.59650876841337
 20
-107.6568223472177
 10
82.8366319237353
 20
-107.6568223472177
 10
82.95307615113674
 20
-107.6568223472177
 10
83.03610295233126
 20
-107.6819715442601
 10
83.0808891936395
 20
-107.6957519262011
 10
83.0808891936395
 20
-107.6957519262011
 10
83.07709958860573
 20
-107.1686523169578
 10
83.07709958860573
 20
-107.1686523169578
 10
83.07709958860573
 20
-107.1686523169578
 10
82.43562280925221
 20
-107.1686523169578
 10
82.43562280925221
 20
-107.1686523169578
 10
82.43562280925221
 20
-107.1686523169578
 10
82.43562280925221
 20
-107.0618543569151
 10
82.43562280925221
 20
-107.0618543569151
 10
82.43562280925221
 20
-107.0618543569151
 10
83.07296547402343
 20
-107.0618543569151
 10
83.07296547402343
 20
-107.0618543569151
 97
        0
 97
        0
 92
        1
 93
        1
 72
     4
 94
        3
 73
     0
 74
     1
 95
       20
 96
       16
 40
0.0
 40
0.0
 40
0.0
 40
0.0
 40
1.0
 40
1.0
 40
1.0
 40
2.0
 40
2.0
 40
2.0
 40
3.0
 40
3.0
 40
3.0
 40
4.0
 40
4.0
 40
4.0
 40
5.0
 40
5.0
 40
5.0
 40
5.0
 10
83.0808891936395
 20
-107.8022053766953
 10
83.00130748793023
 20
-107.7732665746192
 10
82.91621362944456
 20
-107.7536295303533
 10
82.83077526141037
 20
-107.7536295303533
 10
82.66816675450657
 20
-107.7536295303533
 10
82.5169270627041
 20
-107.8332112360625
 10
82.5169270627041
 20
-107.9940971952237
 10
82.5169270627041
 20
-108.0795355632579
 10
82.56722545678875
 20
-108.218717420862
 10
82.80390351662541
 20
-108.218717420862
 10
83.0808891936395
 20
-108.218717420862
 10
83.0808891936395
 20
-108.0288926596247
 10
83.0808891936395
 20
-107.9513780112066
 10
83.0808891936395
 20
-107.9513780112066
 10
83.0808891936395
 20
-107.8022053766953
 10
83.0808891936395
 20
-107.8022053766953
 97
        0
 97
        0
 92
        1
 93
        1
 72
     4
 94
        3
 73
     0
 74
     1
 95
       17
 96
       13
 40
0.0
 40
0.0
 40
0.0
 40
0.0
 40
1.0
 40
1.0
 40
1.0
 40
2.0
 40
2.0
 40
2.0
 40
3.0
 40
3.0
 40
3.0
 40
4.0
 40
4.0
 40
4.0
 40
4.0
 10
83.40266111196183
 20
-106.9688367788134
 10
83.34064939322734
 20
-106.8082953292007
 10
83.29414060417646
 20
-106.7287136234914
 10
83.26485729255184
 20
-106.6801377771494
 10
83.26485729255184
 20
-106.6801377771494
 10
83.35201820832867
 20
-106.6356960453897
 10
83.35201820832867
 20
-106.6356960453897
 10
83.38302406769591
 20
-106.6842718917317
 10
83.44503578643041
 20
-106.7790120175761
 10
83.49740123780622
 20
-106.9206054420198
 10
83.49740123780622
 20
-106.9206054420198
 10
83.40266111196183
 20
-106.9688367788134
 10
83.40266111196183
 20
-106.9688367788134
 97
        0
 97
        0
 92
        1
 93
        1
 72
     4
 94
        3
 73
     0
 74
     1
 95
       17
 96
       13
 40
0.0
 40
0.0
 40
0.0
 40
0.0
 40
1.0
 40
1.0
 40
1.0
 40
2.0
 40
2.0
 40
2.0
 40
3.0
 40
3.0
 40
3.0
 40
4.0
 40
4.0
 40
4.0
 40
4.0
 10
83.62521428030898
 20
-106.8992458500113
 10
83.54804414143938
 20
-106.7111436365167
 10
83.51497122478098
 20
-106.6646348474658
 10
83.48775497044751
 20
-106.6239827207398
 10
83.48775497044751
 20
-106.6239827207398
 10
83.57905000080663
 20
-106.5754068743978
 10
83.57905000080663
 20
-106.5754068743978
 10
83.6310709426339
 20
-106.6587781851409
 10
83.67585718394216
 20
-106.7421494958839
 10
83.71444225337694
 20
-106.8430907936017
 10
83.71444225337694
 20
-106.8430907936017
 10
83.62521428030898
 20
-106.8992458500113
 10
83.62521428030898
 20
-106.8992458500113
 97
        0
 97
        0
 75
     2
 76
     1
 98
        0
  0
SPLINE
  5
BC
330
41
100
AcDbEntity
  8
_U+30EC_U+30A4_U+30E4_U+30FC 1
370
     0
100
AcDbSpline
210
0.0
220
0.0
230
1.0
 70
    11
 71
     3
 72
    32
 73
    28
 74
     0
 42
0.0000000001
 43
0.0000000001
 12
1.0
 22
0.0
 32
0.0
 13
1.0
 23
0.0
 33
0.0
 40
0.0
 40
0.0
 40
0.0
 40
0.0
 40
1.0
 40
1.0
 40
1.0
 40
2.0
 40
2.0
 40
2.0
 40
3.0
 40
3.0
 40
3.0
 40
4.0
 40
4.0
 40
4.0
 40
5.0
 40
5.0
 40
5.0
 40
6.0
 40
6.0
 40
6.0
 40
7.0
 40
7.0
 40
7.0
 40
8.0
 40
8.0
 40
8.0
 40
9.0
 40
9.0
 40
9.0
 40
9.0
 10
84.06377493558128
 20
-106.6918511017993
 30
0.0
 10
84.06170787829014
 20
-106.8410237363106
 30
0.0
 10
84.04034828628158
 20
-107.5076497127064
 30
0.0
 10
84.04034828628158
 20
-107.6433864748253
 30
0.0
 10
84.04034828628158
 20
-107.9458658584302
 30
0.0
 10
84.0558512159652
 20
-108.2266411404781
 30
0.0
 10
84.47443031742306
 20
-108.2266411404781
 30
0.0
 10
84.88543020881337
 20
-108.2266411404781
 30
0.0
 10
84.99980737892366
 20
-108.0016764052912
 30
0.0
 10
85.04045950564961
 20
-107.9224392091305
 30
0.0
 10
85.09661456205919
 20
-107.811851644054
 30
0.0
 10
85.12934296916906
 20
-107.6296060928843
 30
0.0
 10
85.14484589885268
 20
-107.5407226293648
 30
0.0
 10
85.14484589885268
 20
-107.5407226293648
 30
0.0
 10
85.25543346392921
 20
-107.5675943741498
 30
0.0
 10
85.25543346392921
 20
-107.5675943741498
 30
0.0
 10
85.20892467487833
 20
-107.846647108455
 30
0.0
 10
85.12762042142643
 20
-108.3372287055546
 30
0.0
 10
84.49200030439783
 20
-108.3372287055546
 30
0.0
 10
83.97075735747954
 20
-108.3372287055546
 30
0.0
 10
83.91253524377882
 20
-108.0423285320172
 30
0.0
 10
83.91253524377882
 20
-107.6220268828167
 30
0.0
 10
83.91253524377882
 20
-107.474576796048
 30
0.0
 10
83.92597111617128
 20
-106.8234537493358
 30
0.0
 10
83.92803817346244
 20
-106.6918511017993
 30
0.0
 10
83.92803817346244
 20
-106.6918511017993
 30
0.0
 10
84.06377493558128
 20
-106.6918511017993
 30
0.0
 10
84.06377493558128
 20
-106.6918511017993
 30
0.0
  0
HATCH
  5
BD
330
41
100
AcDbEntity
  8
_U+30EC_U+30A4_U+30E4_U+30FC 1
 62
   179
420
  2234388
100
AcDbHatch
 10
0.0
 20
0.0
 30
0.0
210
0.0
220
0.0
230
1.0
  2
SOLID
 70
     1
 71
     0
 91
        1
 92
        1
 93
        1
 72
     4
 94
        3
 73
     0
 74
     1
 95
       32
 96
       28
 40
0.0
 40
0.0
 40
0.0
 40
0.0
 40
1.0
 40
1.0
 40
1.0
 40
2.0
 40
2.0
 40
2.0
 40
3.0
 40
3.0
 40
3.0
 40
4.0
 40
4.0
 40
4.0
 40
5.0
 40
5.0
 40
5.0
 40
6.0
 40
6.0
 40
6.0
 40
7.0
 40
7.0
 40
7.0
 40
8.0
 40
8.0
 40
8.0
 40
9.0
 40
9.0
 40
9.0
 40
9.0
 10
84.06377493558128
 20
-106.6918511017993
 10
84.06170787829014
 20
-106.8410237363106
 10
84.04034828628158
 20
-107.5076497127064
 10
84.04034828628158
 20
-107.6433864748253
 10
84.04034828628158
 20
-107.9458658584302
 10
84.0558512159652
 20
-108.2266411404781
 10
84.47443031742306
 20
-108.2266411404781
 10
84.88543020881337
 20
-108.2266411404781
 10
84.99980737892366
 20
-108.0016764052912
 10
85.04045950564961
 20
-107.9224392091305
 10
85.09661456205919
 20
-107.811851644054
 10
85.12934296916906
 20
-107.6296060928843
 10
85.14484589885268
 20
-107.5407226293648
 10
85.14484589885268
 20
-107.5407226293648
 10
85.25543346392921
 20
-107.5675943741498
 10
85.25543346392921
 20
-107.5675943741498
 10
85.20892467487833
 20
-107.846647108455
 10
85.12762042142643
 20
-108.3372287055546
 10
84.49200030439783
 20
-108.3372287055546
 10
83.97075735747954
 20
-108.3372287055546
 10
83.91253524377882
 20
-108.0423285320172
 10
83.91253524377882
 20
-107.6220268828167
 10
83.91253524377882
 20
-107.474576796048
 10
83.92597111617128
 20
-106.8234537493358
 10
83.92803817346244
 20
-106.6918511017993
 10
83.92803817346244
 20
-106.6918511017993
 10
84.06377493558128
 20
-106.6918511017993
 10
84.06377493558128
 20
-106.6918511017993
 97
        0
 97
        0
 75
     2
 76
     1
 98
        0
  0
ENDBLK
  5
44
330
41
100
AcDbEntity
  8
0
100
AcDbBlockEnd
  0
BLOCK
  5
C0
330
BE
100
AcDbEntity
  8
0
100
AcDbBlockBegin
  2
block 3
 70
     0
 10
0.0
 20
0.0
 30
0.0
  3
block 3
  1

  0
POLYLINE
  5
C2
330
BE
100
AcDbEntity
  8
_U+30EC_U+30A4_U+30E4_U+30FC 1
 62
   179
420
  2234388
370
     9
100
AcDb2dPolyline
 66
     1
 10
0.0
 20
0.0
 30
0.0
  0
VERTEX
  5
C3
330
C2
100
AcDbEntity
  8
_U+30EC_U+30A4_U+30E4_U+30FC 1
 62
   179
420
  2234388
370
     9
100
AcDbVertex
100
AcDb2dVertex
 10
47.08997602085685
 20
-86.5521580339174
 30
0.0
  0
VERTEX
  5
C4
330
C2
100
AcDbEntity
  8
_U+30EC_U+30A4_U+30E4_U+30FC 1
 62
   179
420
  2234388
370
     9
100
AcDbVertex
100
AcDb2dVertex
 10
38.46484179645791
 20
-79.16209859132053
 30
0.0
  0
SEQEND
  5
C5
330
C2
100
AcDbEntity
  8
_U+30EC_U+30A4_U+30E4_U+30FC 1
 62
   179
420
  2234388
370
     9
  0
POLYLINE
  5
C6
330
BE
100
AcDbEntity
  8
_U+30EC_U+30A4_U+30E4_U+30FC 1
 62
   179
420
  2234388
370
     9
100
AcDb2dPolyline
 66
     1
 10
0.0
 20
0.0
 30
0.0
  0
VERTEX
  5
C7
330
C6
100
AcDbEntity
  8
_U+30EC_U+30A4_U+30E4_U+30FC 1
 62
   179
420
  2234388
370
     9
100
AcDbVertex
100
AcDb2dVertex
 10
37.02600238872132
 20
-69.8961785936371
 30
0.0
  0
VERTEX
  5
C8
330
C6
100
AcDbEntity
  8
_U+30EC_U+30A4_U+30E4_U+30FC 1
 62
   179
420
  2234388
370
     9
100
AcDbVertex
100
AcDb2dVertex
 10
40.65315757396266
 20
-73.38155248165455
 30
0.0
  0
SEQEND
  5
C9
330
C6
100
AcDbEntity
  8
_U+30EC_U+30A4_U+30E4_U+30FC 1
 62
   179
420
  2234388
370
     9
  0
POLYLINE
  5
CA
330
BE
100
AcDbEntity
  8
_U+30EC_U+30A4_U+30E4_U+30FC 1
 62
   179
420
  2234388
370
     9
100
AcDb2dPolyline
 66
     1
 10
0.0
 20
0.0
 30
0.0
  0
VERTEX
  5
CB
330
CA
100
AcDbEntity
  8
_U+30EC_U+30A4_U+30E4_U+30FC 1
 62
   179
420
  2234388
370
     9
100
AcDbVertex
100
AcDb2dVertex
 10
38.25881957949175
 20
-70.98552109336461
 30
0.0
  0
VERTEX
  5
CC
330
CA
100
AcDbEntity
  8
_U+30EC_U+30A4_U+30E4_U+30FC 1
 62
   179
420
  2234388
370
     9
100
AcDbVertex
100
AcDb2dVertex
 10
51.21719369334053
 20
-70.84010609340105
 30
0.0
  0
SEQEND
  5
CD
330
CA
100
AcDbEntity
  8
_U+30EC_U+30A4_U+30E4_U+30FC 1
 62
   179
420
  2234388
370
     9
  0
POLYLINE
  5
CE
330
BE
100
AcDbEntity
  8
_U+30EC_U+30A4_U+30E4_U+30FC 1
 62
   179
420
  2234388
370
     9
100
AcDb2dPolyline
 66
     1
 10
0.0
 20
0.0
 30
0.0
  0
VERTEX
  5
CF
330
CE
100
AcDbEntity
  8
_U+30EC_U+30A4_U+30E4_U+30FC 1
 62
   179
420
  2234388
370
     9
100
AcDbVertex
100
AcDb2dVertex
 10
55.65619635786992
 20
-70.84010609340105
 30
0.0
  0
VERTEX
  5
D0
330
CE
100
AcDbEntity
  8
_U+30EC_U+30A4_U+30E4_U+30FC 1
 62
   179
420
  2234388
370
     9
100
AcDbVertex
100
AcDb2dVertex
 10
64.5035452988219
 20
-70.84010609340105
 30
0.0
  0
SEQEND
  5
D1
330
CE
100
AcDbEntity
  8
_U+30EC_U+30A4_U+30E4_U+30FC 1
 62
   179
420
  2234388
370
     9
  0
POLYLINE
  5
D2
330
BE
100
AcDbEntity
  8
_U+30EC_U+30A4_U+30E4_U+30FC 1
 62
   179
420
  2234388
370
     9
100
AcDb2dPolyline
 66
     1
 10
0.0
 20
0.0
 30
0.0
  0
VERTEX
  5
D3
330
D2
100
AcDbEntity
  8
_U+30EC_U+30A4_U+30E4_U+30FC 1
 62
   179
420
  2234388
370
     9
100
AcDbVertex
100
AcDb2dVertex
 10
63.26882310810007
 20
-69.67844414924721
 30
0.0
  0
VERTEX
  5
D4
330
D2
100
AcDbEntity
  8
_U+30EC_U+30A4_U+30E4_U+30FC 1
 62
   179
420
  2234388
370
     9
100
AcDbVertex
100
AcDb2dVertex
 10
66.68187746547025
 20
-73.16385331504249
 30
0.0
  0
SEQEND
  5
D5
330
D2
100
AcDbEntity
  8
_U+30EC_U+30A4_U+30E4_U+30FC 1
 62
   179
420
  2234388
370
     9
  0
INSERT
  5
D7
330
BE
100
AcDbEntity
  8
_U+30EC_U+30A4_U+30E4_U+30FC 1
100
AcDbBlockReference
  2
block 4
 10
0.0
 20
0.0
 30
0.0
  0
POLYLINE
  5
DF
330
BE
100
AcDbEntity
  8
_U+30EC_U+30A4_U+30E4_U+30FC 1
 62
   179
420
  2234388
370
     9
100
AcDb2dPolyline
 66
     1
 10
0.0
 20
0.0
 30
0.0
  0
VERTEX
  5
E0
330
DF
100
AcDbEntity
  8
_U+30EC_U+30A4_U+30E4_U+30FC 1
 62
   179
420
  2234388
370
     9
100
AcDbVertex
100
AcDb2dVertex
 10
44.8334330228705
 20
-86.84499886717757
 30
0.0
  0
VERTEX
  5
E1
330
DF
100
AcDbEntity
  8
_U+30EC_U+30A4_U+30E4_U+30FC 1
 62
   179
420
  2234388
370
     9
100
AcDbVertex
100
AcDb2dVertex
 10
49.63071678937048
 20
-85.96407747850905
 30
0.0
  0
SEQEND
  5
E2
330
DF
100
AcDbEntity
  8
_U+30EC_U+30A4_U+30E4_U+30FC 1
 62
   179
420
  2234388
370
     9
  0
POLYLINE
  5
E3
330
BE
100
AcDbEntity
  8
_U+30EC_U+30A4_U+30E4_U+30FC 1
 62
   179
420
  2234388
370
     9
100
AcDb2dPolyline
 66
     1
 10
0.0
 20
0.0
 30
0.0
  0
VERTEX
  5
E4
330
E3
100
AcDbEntity
  8
_U+30EC_U+30A4_U+30E4_U+30FC 1
 62
   179
420
  2234388
370
     9
100
AcDbVertex
100
AcDb2dVertex
 10
36.14007157798996
 20
-79.65542303564166
 30
0.0
  0
VERTEX
  5
E5
330
E3
100
AcDbEntity
  8
_U+30EC_U+30A4_U+30E4_U+30FC 1
 62
   179
420
  2234388
370
     9
100
AcDbVertex
100
AcDb2dVertex
 10
40.93841367779628
 20
-78.77453692475066
 30
0.0
  0
SEQEND
  5
E6
330
E3
100
AcDbEntity
  8
_U+30EC_U+30A4_U+30E4_U+30FC 1
 62
   179
420
  2234388
370
     9
  0
INSERT
  5
E8
330
BE
100
AcDbEntity
  8
_U+30EC_U+30A4_U+30E4_U+30FC 1
100
AcDbBlockReference
  2
block 5
 10
0.0
 20
0.0
 30
0.0
  0
INSERT
  5
F1
330
BE
100
AcDbEntity
  8
_U+30EC_U+30A4_U+30E4_U+30FC 1
100
AcDbBlockReference
  2
block 6
 10
0.0
 20
0.0
 30
0.0
  0
POLYLINE
  5
F6
330
BE
100
AcDbEntity
  8
_U+30EC_U+30A4_U+30E4_U+30FC 1
 62
   179
420
  2234388
370
     9
100
AcDb2dPolyline
 66
     1
 10
0.0
 20
0.0
 30
0.0
  0
VERTEX
  5
F7
330
F6
100
AcDbEntity
  8
_U+30EC_U+30A4_U+30E4_U+30FC 1
 62
   179
420
  2234388
370
     9
100
AcDbVertex
100
AcDb2dVertex
 10
65.55362360536552
 20
-92.33820747691556
 30
0.0
  0
VERTEX
  5
F8
330
F6
100
AcDbEntity
  8
_U+30EC_U+30A4_U+30E4_U+30FC 1
 62
   179
420
  2234388
370
     9
100
AcDbVertex
100
AcDb2dVertex
 10
71.71897955918529
 20
-87.71283220029395
 30
0.0
  0
SEQEND
  5
F9
330
F6
100
AcDbEntity
  8
_U+30EC_U+30A4_U+30E4_U+30FC 1
 62
   179
420
  2234388
370
     9
  0
INSERT
  5
FB
330
BE
100
AcDbEntity
  8
_U+30EC_U+30A4_U+30E4_U+30FC 1
100
AcDbBlockReference
  2
block 7
 10
0.0
 20
0.0
 30
0.0
  0
POLYLINE
  5
101
330
BE
100
AcDbEntity
  8
_U+30EC_U+30A4_U+30E4_U+30FC 1
 62
   179
420
  2234388
370
     9
100
AcDb2dPolyline
 66
     1
 10
0.0
 20
0.0
 30
0.0
  0
VERTEX
  5
102
330
101
100
AcDbEntity
  8
_U+30EC_U+30A4_U+30E4_U+30FC 1
 62
   179
420
  2234388
370
     9
100
AcDbVertex
100
AcDb2dVertex
 10
50.45618149053335
 20
-81.97673609061692
 30
0.0
  0
VERTEX
  5
103
330
101
100
AcDbEntity
  8
_U+30EC_U+30A4_U+30E4_U+30FC 1
 62
   179
420
  2234388
370
     9
100
AcDbVertex
100
AcDb2dVertex
 10
41.80039087802763
 20
-74.55531470358355
 30
0.0
  0
SEQEND
  5
104
330
101
100
AcDbEntity
  8
_U+30EC_U+30A4_U+30E4_U+30FC 1
 62
   179
420
  2234388
370
     9
  0
POLYLINE
  5
105
330
BE
100
AcDbEntity
  8
_U+30EC_U+30A4_U+30E4_U+30FC 1
 62
   179
420
  2234388
370
     9
100
AcDb2dPolyline
 66
     1
 10
0.0
 20
0.0
 30
0.0
  0
VERTEX
  5
106
330
105
100
AcDbEntity
  8
_U+30EC_U+30A4_U+30E4_U+30FC 1
 62
   179
420
  2234388
370
     9
100
AcDbVertex
100
AcDb2dVertex
 10
68.88261102043596
 20
-81.97673609061692
 30
0.0
  0
VERTEX
  5
107
330
105
100
AcDbEntity
  8
_U+30EC_U+30A4_U+30E4_U+30FC 1
 62
   179
420
  2234388
370
     9
100
AcDbVertex
100
AcDb2dVertex
 10
50.45618149053335
 20
-81.97673609061692
 30
0.0
  0
SEQEND
  5
108
330
105
100
AcDbEntity
  8
_U+30EC_U+30A4_U+30E4_U+30FC 1
 62
   179
420
  2234388
370
     9
  0
POLYLINE
  5
109
330
BE
100
AcDbEntity
  8
_U+30EC_U+30A4_U+30E4_U+30FC 1
 62
   179
420
  2234388
370
     9
100
AcDb2dPolyline
 66
     1
 10
0.0
 20
0.0
 30
0.0
  0
VERTEX
  5
10A
330
109
100
AcDbEntity
  8
_U+30EC_U+30A4_U+30E4_U+30FC 1
 62
   179
420
  2234388
370
     9
100
AcDbVertex
100
AcDb2dVertex
 10
50.45618149053335
 20
-85.68160831191308
 30
0.0
  0
VERTEX
  5
10B
330
109
100
AcDbEntity
  8
_U+30EC_U+30A4_U+30E4_U+30FC 1
 62
   179
420
  2234388
370
     9
100
AcDbVertex
100
AcDb2dVertex
 10
68.88261102043596
 20
-85.68160831191308
 30
0.0
  0
SEQEND
  5
10C
330
109
100
AcDbEntity
  8
_U+30EC_U+30A4_U+30E4_U+30FC 1
 62
   179
420
  2234388
370
     9
  0
POLYLINE
  5
10D
330
BE
100
AcDbEntity
  8
_U+30EC_U+30A4_U+30E4_U+30FC 1
 62
   179
420
  2234388
370
     9
100
AcDb2dPolyline
 66
     1
 10
0.0
 20
0.0
 30
0.0
  0
VERTEX
  5
10E
330
10D
100
AcDbEntity
  8
_U+30EC_U+30A4_U+30E4_U+30FC 1
 62
   179
420
  2234388
370
     9
100
AcDbVertex
100
AcDb2dVertex
 10
50.45618149053335
 20
-81.97673609061692
 30
0.0
  0
VERTEX
  5
10F
330
10D
100
AcDbEntity
  8
_U+30EC_U+30A4_U+30E4_U+30FC 1
 62
   179
420
  2234388
370
     9
100
AcDbVertex
100
AcDb2dVertex
 10
50.46718815691921
 20
-85.62371747859423
 30
0.0
  0
VERTEX
  5
110
330
10D
100
AcDbEntity
  8
_U+30EC_U+30A4_U+30E4_U+30FC 1
 62
   179
420
  2234388
370
     9
100
AcDbVertex
100
AcDb2dVertex
 10
41.84240671028905
 20
-78.23468109155249
 30
0.0
  0
VERTEX
  5
111
330
10D
100
AcDbEntity
  8
_U+30EC_U+30A4_U+30E4_U+30FC 1
 62
   179
420
  2234388
370
     9
100
AcDbVertex
100
AcDb2dVertex
 10
41.81072726665281
 20
-74.54533109247464
 30
0.0
  0
VERTEX
  5
112
330
10D
100
AcDbEntity
  8
_U+30EC_U+30A4_U+30E4_U+30FC 1
 62
   179
420
  2234388
370
     9
100
AcDbVertex
100
AcDb2dVertex
 10
66.41076942784183
 20
-74.54533109247464
 30
0.0
  0
SEQEND
  5
113
330
10D
100
AcDbEntity
  8
_U+30EC_U+30A4_U+30E4_U+30FC 1
 62
   179
420
  2234388
370
     9
  0
POLYLINE
  5
114
330
BE
100
AcDbEntity
  8
_U+30EC_U+30A4_U+30E4_U+30FC 1
 62
   179
420
  2234388
370
     9
100
AcDb2dPolyline
 66
     1
 10
0.0
 20
0.0
 30
0.0
  0
VERTEX
  5
115
330
114
100
AcDbEntity
  8
_U+30EC_U+30A4_U+30E4_U+30FC 1
 62
   179
420
  2234388
370
     9
100
AcDbVertex
100
AcDb2dVertex
 10
41.81072726665281
 20
-74.54533109247464
 30
0.0
  0
VERTEX
  5
116
330
114
100
AcDbEntity
  8
_U+30EC_U+30A4_U+30E4_U+30FC 1
 62
   179
420
  2234388
370
     9
100
AcDbVertex
100
AcDb2dVertex
 10
66.41076942784183
 20
-74.54533109247464
 30
0.0
  0
SEQEND
  5
117
330
114
100
AcDbEntity
  8
_U+30EC_U+30A4_U+30E4_U+30FC 1
 62
   179
420
  2234388
370
     9
  0
POLYLINE
  5
118
330
BE
100
AcDbEntity
  8
_U+30EC_U+30A4_U+30E4_U+30FC 1
 62
   179
420
  2234388
370
     9
100
AcDb2dPolyline
 66
     1
 10
0.0
 20
0.0
 30
0.0
  0
VERTEX
  5
119
330
118
100
AcDbEntity
  8
_U+30EC_U+30A4_U+30E4_U+30FC 1
 62
   179
420
  2234388
370
     9
100
AcDbVertex
100
AcDb2dVertex
 10
50.46718815691921
 20
-85.62371747859423
 30
0.0
  0
VERTEX
  5
11A
330
118
100
AcDbEntity
  8
_U+30EC_U+30A4_U+30E4_U+30FC 1
 62
   179
420
  2234388
370
     9
100
AcDbVertex
100
AcDb2dVertex
 10
41.84240671028905
 20
-78.23468109155249
 30
0.0
  0
SEQEND
  5
11B
330
118
100
AcDbEntity
  8
_U+30EC_U+30A4_U+30E4_U+30FC 1
 62
   179
420
  2234388
370
     9
  0
POLYLINE
  5
11C
330
BE
100
AcDbEntity
  8
_U+30EC_U+30A4_U+30E4_U+30FC 1
 62
   179
420
  2234388
370
     9
100
AcDb2dPolyline
 66
     1
 10
0.0
 20
0.0
 30
0.0
  0
VERTEX
  5
11D
330
11C
100
AcDbEntity
  8
_U+30EC_U+30A4_U+30E4_U+30FC 1
 62
   179
420
  2234388
370
     9
100
AcDbVertex
100
AcDb2dVertex
 10
82.16656373708965
 20
-100.0324671972141
 30
0.0
  0
VERTEX
  5
11E
330
11C
100
AcDbEntity
  8
_U+30EC_U+30A4_U+30E4_U+30FC 1
 62
   179
420
  2234388
370
     9
100
AcDbVertex
100
AcDb2dVertex
 10
82.16656373708965
 20
-103.6687946963048
 30
0.0
  0
VERTEX
  5
11F
330
11C
100
AcDbEntity
  8
_U+30EC_U+30A4_U+30E4_U+30FC 1
 62
   179
420
  2234388
370
     9
100
AcDbVertex
100
AcDb2dVertex
 10
68.12572631752349
 20
-103.6687946963048
 30
0.0
  0
VERTEX
  5
120
330
11C
100
AcDbEntity
  8
_U+30EC_U+30A4_U+30E4_U+30FC 1
 62
   179
420
  2234388
370
     9
100
AcDbVertex
100
AcDb2dVertex
 10
68.11951742879299
 20
-100.0324671972141
 30
0.0
  0
VERTEX
  5
121
330
11C
100
AcDbEntity
  8
_U+30EC_U+30A4_U+30E4_U+30FC 1
 62
   179
420
  2234388
370
     9
100
AcDbVertex
100
AcDb2dVertex
 10
82.16656373708965
 20
-100.0324671972141
 30
0.0
  0
SEQEND
  5
122
330
11C
100
AcDbEntity
  8
_U+30EC_U+30A4_U+30E4_U+30FC 1
 62
   179
420
  2234388
370
     9
  0
POLYLINE
  5
123
330
BE
100
AcDbEntity
  8
_U+30EC_U+30A4_U+30E4_U+30FC 1
 62
   179
420
  2234388
370
     9
100
AcDb2dPolyline
 66
     1
 10
0.0
 20
0.0
 30
0.0
  0
VERTEX
  5
124
330
123
100
AcDbEntity
  8
_U+30EC_U+30A4_U+30E4_U+30FC 1
 62
   179
420
  2234388
370
     9
100
AcDbVertex
100
AcDb2dVertex
 10
68.12572631752349
 20
-100.0479894194324
 30
0.0
  0
VERTEX
  5
125
330
123
100
AcDbEntity
  8
_U+30EC_U+30A4_U+30E4_U+30FC 1
 62
   179
420
  2234388
370
     9
100
AcDbVertex
100
AcDb2dVertex
 10
73.02983119240935
 20
-91.59405803265673
 30
0.0
  0
SEQEND
  5
126
330
123
100
AcDbEntity
  8
_U+30EC_U+30A4_U+30E4_U+30FC 1
 62
   179
420
  2234388
370
     9
  0
POLYLINE
  5
127
330
BE
100
AcDbEntity
  8
_U+30EC_U+30A4_U+30E4_U+30FC 1
 62
   179
420
  2234388
370
     9
100
AcDb2dPolyline
 66
     1
 10
0.0
 20
0.0
 30
0.0
  0
VERTEX
  5
128
330
127
100
AcDbEntity
  8
_U+30EC_U+30A4_U+30E4_U+30FC 1
 62
   179
420
  2234388
370
     9
100
AcDbVertex
100
AcDb2dVertex
 10
82.16656373708965
 20
-100.0324671972141
 30
0.0
  0
VERTEX
  5
129
330
127
100
AcDbEntity
  8
_U+30EC_U+30A4_U+30E4_U+30FC 1
 62
   179
420
  2234388
370
     9
100
AcDbVertex
100
AcDb2dVertex
 10
85.25714393602016
 20
-89.84671442198288
 30
0.0
  0
SEQEND
  5
12A
330
127
100
AcDbEntity
  8
_U+30EC_U+30A4_U+30E4_U+30FC 1
 62
   179
420
  2234388
370
     9
  0
SPLINE
  5
12B
330
BE
100
AcDbEntity
  8
_U+30EC_U+30A4_U+30E4_U+30FC 1
 62
   179
420
  2234388
370
     9
100
AcDbSpline
210
0.0
220
0.0
230
1.0
 70
     8
 71
     3
 72
     8
 73
     4
 74
     0
 42
0.0000000001
 43
0.0000000001
 12
1.0
 22
0.0
 32
0.0
 13
1.0
 23
0.0
 33
0.0
 40
0.0
 40
0.0
 40
0.0
 40
0.0
 40
1.0
 40
1.0
 40
1.0
 40
1.0
 10
68.88261102043596
 20
-81.97673609061692
 30
0.0
 10
70.20725626441923
 20
-81.98569664617041
 30
0.0
 10
75.16748808231762
 20
-84.1058205345292
 30
0.0
 10
73.04602369199624
 20
-91.54481025489176
 30
0.0
  0
SPLINE
  5
12C
330
BE
100
AcDbEntity
  8
_U+30EC_U+30A4_U+30E4_U+30FC 1
 62
   179
420
  2234388
370
     9
100
AcDbSpline
210
0.0
220
0.0
230
1.0
 70
     8
 71
     3
 72
     8
 73
     4
 74
     0
 42
0.0000000001
 43
0.0000000001
 12
1.0
 22
0.0
 32
0.0
 13
1.0
 23
0.0
 33
0.0
 40
0.0
 40
0.0
 40
0.0
 40
0.0
 40
1.0
 40
1.0
 40
1.0
 40
1.0
 10
68.89192435353169
 20
-85.68605331191198
 30
0.0
 10
68.89192435353169
 20
-85.68605331191198
 30
0.0
 10
73.44356895963179
 20
-85.65747831191908
 30
0.0
 10
73.27063729737698
 20
-90.57223719957923
 30
0.0
  0
SPLINE
  5
12D
330
BE
100
AcDbEntity
  8
_U+30EC_U+30A4_U+30E4_U+30FC 1
 62
   179
420
  2234388
370
     9
100
AcDbSpline
210
0.0
220
0.0
230
1.0
 70
     8
 71
     3
 72
     8
 73
     4
 74
     0
 42
0.0000000001
 43
0.0000000001
 12
1.0
 22
0.0
 32
0.0
 13
1.0
 23
0.0
 33
0.0
 40
0.0
 40
0.0
 40
0.0
 40
0.0
 40
1.0
 40
1.0
 40
1.0
 40
1.0
 10
85.2705847690106
 20
-89.883932477529
 30
0.0
 10
84.7269542273242
 20
-75.38628275893124
 30
0.0
 10
66.43073497187743
 20
-74.5522102591397
 30
0.0
 10
66.43073497187743
 20
-74.5522102591397
 30
0.0
  0
SPLINE
  5
12E
330
BE
100
AcDbEntity
  8
_U+30EC_U+30A4_U+30E4_U+30FC 1
 62
   179
420
  2234388
370
     9
100
AcDbSpline
210
0.0
220
0.0
230
1.0
 70
     8
 71
     3
 72
     8
 73
     4
 74
     0
 42
0.0000000001
 43
0.0000000001
 12
1.0
 22
0.0
 32
0.0
 13
1.0
 23
0.0
 33
0.0
 40
0.0
 40
0.0
 40
0.0
 40
0.0
 40
1.0
 40
1.0
 40
1.0
 40
1.0
 10
80.93667460180008
 20
-75.40487414781556
 30
0.0
 10
75.37763779917847
 20
-71.83987831537327
 30
0.0
 10
68.87470879841534
 20
-71.86467859314496
 30
0.0
 10
68.87470879841534
 20
-71.86467859314496
 30
0.0
  0
SPLINE
  5
12F
330
BE
100
AcDbEntity
  8
_U+30EC_U+30A4_U+30E4_U+30FC 1
 62
   179
420
  2234388
370
     9
100
AcDbSpline
210
0.0
220
0.0
230
1.0
 70
     8
 71
     3
 72
     8
 73
     4
 74
     0
 42
0.0000000001
 43
0.0000000001
 12
1.0
 22
0.0
 32
0.0
 13
1.0
 23
0.0
 33
0.0
 40
0.0
 40
0.0
 40
0.0
 40
0.0
 40
1.0
 40
1.0
 40
1.0
 40
1.0
 10
88.68466218191021
 20
-89.7636705331149
 30
0.0
 10
88.48657746474156
 20
-85.09522108983722
 30
0.0
 10
87.05447611238861
 20
-81.64392553514453
 30
0.0
 10
85.04251394149583
 20
-79.09351859133788
 30
0.0
  0
SPLINE
  5
130
330
BE
100
AcDbEntity
  8
_U+30EC_U+30A4_U+30E4_U+30FC 1
 62
   179
420
  2234388
370
     9
100
AcDbSpline
210
0.0
220
0.0
230
1.0
 70
     8
 71
     3
 72
    11
 73
     7
 74
     0
 42
0.0000000001
 43
0.0000000001
 12
1.0
 22
0.0
 32
0.0
 13
1.0
 23
0.0
 33
0.0
 40
0.0
 40
0.0
 40
0.0
 40
0.0
 40
1.0
 40
1.0
 40
1.0
 40
2.0
 40
2.0
 40
2.0
 40
2.0
 10
85.28162671317332
 20
-89.70062914424163
 30
0.0
 10
85.28162671317332
 20
-89.70062914424163
 30
0.0
 10
85.3787817106947
 20
-91.63815525486793
 30
0.0
 10
85.12591060603486
 20
-92.73853969903763
 30
0.0
 10
84.62771784096705
 20
-94.89549358738728
 30
0.0
 10
84.58915923083964
 20
-94.8686119207275
 30
0.0
 10
82.16896262591735
 20
-103.6542955296422
 30
0.0
  0
POLYLINE
  5
131
330
BE
100
AcDbEntity
  8
_U+30EC_U+30A4_U+30E4_U+30FC 1
  6
AI-Linetype-1
 62
   179
420
  2234388
370
     9
100
AcDb2dPolyline
 66
     1
 10
0.0
 20
0.0
 30
0.0
  0
VERTEX
  5
132
330
131
100
AcDbEntity
  8
_U+30EC_U+30A4_U+30E4_U+30FC 1
  6
AI-Linetype-1
 62
   179
420
  2234388
370
     9
100
AcDbVertex
100
AcDb2dVertex
 10
64.10529447564879
 20
-91.99678914366746
 30
0.0
  0
VERTEX
  5
133
330
131
100
AcDbEntity
  8
_U+30EC_U+30A4_U+30E4_U+30FC 1
  6
AI-Linetype-1
 62
   179
420
  2234388
370
     9
100
AcDbVertex
100
AcDb2dVertex
 10
64.10529447564879
 20
-89.94870247751292
 30
0.0
  0
VERTEX
  5
134
330
131
100
AcDbEntity
  8
_U+30EC_U+30A4_U+30E4_U+30FC 1
  6
AI-Linetype-1
 62
   179
420
  2234388
370
     9
100
AcDbVertex
100
AcDb2dVertex
 10
90.75310407358431
 20
-89.94870247751292
 30
0.0
  0
SEQEND
  5
136
330
131
100
AcDbEntity
  8
_U+30EC_U+30A4_U+30E4_U+30FC 1
  6
AI-Linetype-1
 62
   179
420
  2234388
370
     9
  0
POLYLINE
  5
137
330
BE
100
AcDbEntity
  8
_U+30EC_U+30A4_U+30E4_U+30FC 1
  6
AI-Linetype-2
 62
   179
420
  2234388
370
     9
100
AcDb2dPolyline
 66
     1
 10
0.0
 20
0.0
 30
0.0
  0
VERTEX
  5
138
330
137
100
AcDbEntity
  8
_U+30EC_U+30A4_U+30E4_U+30FC 1
  6
AI-Linetype-2
 62
   179
420
  2234388
370
     9
100
AcDbVertex
100
AcDb2dVertex
 10
64.91767112159
 20
-89.98246331083776
 30
0.0
  0
VERTEX
  5
139
330
137
100
AcDbEntity
  8
_U+30EC_U+30A4_U+30E4_U+30FC 1
  6
AI-Linetype-2
 62
   179
420
  2234388
370
     9
100
AcDbVertex
100
AcDb2dVertex
 10
64.15905780761051
 20
-89.7936566442182
 30
0.0
  0
VERTEX
  5
13A
330
137
100
AcDbEntity
  8
_U+30EC_U+30A4_U+30E4_U+30FC 1
  6
AI-Linetype-2
 62
   179
420
  2234388
370
     9
100
AcDbVertex
100
AcDb2dVertex
 10
69.4066271181783
 20
-69.0686677605107
 30
0.0
  0
SEQEND
  5
13C
330
137
100
AcDbEntity
  8
_U+30EC_U+30A4_U+30E4_U+30FC 1
  6
AI-Linetype-2
 62
   179
420
  2234388
370
     9
  0
INSERT
  5
13E
330
BE
100
AcDbEntity
  8
_U+30EC_U+30A4_U+30E4_U+30FC 1
100
AcDbBlockReference
  2
block 8
 10
0.0
 20
0.0
 30
0.0
  0
POLYLINE
  5
170
330
BE
100
AcDbEntity
  8
_U+30EC_U+30A4_U+30E4_U+30FC 1
 62
   179
420
  2234388
370
     9
100
AcDb2dPolyline
 66
     1
 10
0.0
 20
0.0
 30
0.0
  0
VERTEX
  5
171
330
170
100
AcDbEntity
  8
_U+30EC_U+30A4_U+30E4_U+30FC 1
 62
   179
420
  2234388
370
     9
100
AcDbVertex
100
AcDb2dVertex
 10
40.6986306283581
 20
-74.60286914801604
 30
0.0
  0
VERTEX
  5
172
330
170
100
AcDbEntity
  8
_U+30EC_U+30A4_U+30E4_U+30FC 1
 62
   179
420
  2234388
370
     9
100
AcDbVertex
100
AcDb2dVertex
 10
37.08456349833841
 20
-74.60286914801604
 30
0.0
  0
SEQEND
  5
173
330
170
100
AcDbEntity
  8
_U+30EC_U+30A4_U+30E4_U+30FC 1
 62
   179
420
  2234388
370
     9
  0
POLYLINE
  5
174
330
BE
100
AcDbEntity
  8
_U+30EC_U+30A4_U+30E4_U+30FC 1
 62
   179
420
  2234388
370
     9
100
AcDb2dPolyline
 66
     1
 10
0.0
 20
0.0
 30
0.0
  0
VERTEX
  5
175
330
174
100
AcDbEntity
  8
_U+30EC_U+30A4_U+30E4_U+30FC 1
 62
   179
420
  2234388
370
     9
100
AcDbVertex
100
AcDb2dVertex
 10
40.6986306283581
 20
-78.13615025824373
 30
0.0
  0
VERTEX
  5
176
330
174
100
AcDbEntity
  8
_U+30EC_U+30A4_U+30E4_U+30FC 1
 62
   179
420
  2234388
370
     9
100
AcDbVertex
100
AcDb2dVertex
 10
37.08456349833841
 20
-78.13615025824373
 30
0.0
  0
SEQEND
  5
177
330
174
100
AcDbEntity
  8
_U+30EC_U+30A4_U+30E4_U+30FC 1
 62
   179
420
  2234388
370
     9
  0
POLYLINE
  5
178
330
BE
100
AcDbEntity
  8
_U+30EC_U+30A4_U+30E4_U+30FC 1
 62
   179
420
  2234388
370
     9
100
AcDb2dPolyline
 66
     1
 10
0.0
 20
0.0
 30
0.0
  0
VERTEX
  5
179
330
178
100
AcDbEntity
  8
_U+30EC_U+30A4_U+30E4_U+30FC 1
 62
   179
420
  2234388
370
     9
100
AcDbVertex
100
AcDb2dVertex
 10
38.87480484155444
 20
-74.60286914801604
 30
0.0
  0
VERTEX
  5
17A
330
178
100
AcDbEntity
  8
_U+30EC_U+30A4_U+30E4_U+30FC 1
 62
   179
420
  2234388
370
     9
100
AcDbVertex
100
AcDb2dVertex
 10
38.87480484155444
 20
-78.07928248048033
 30
0.0
  0
SEQEND
  5
17B
330
178
100
AcDbEntity
  8
_U+30EC_U+30A4_U+30E4_U+30FC 1
 62
   179
420
  2234388
370
     9
  0
POLYLINE
  5
17C
330
BE
100
AcDbEntity
  8
_U+30EC_U+30A4_U+30E4_U+30FC 1
 62
   179
420
  2234388
370
     9
100
AcDb2dPolyline
 66
     1
 10
0.0
 20
0.0
 30
0.0
  0
VERTEX
  5
17D
330
17C
100
AcDbEntity
  8
_U+30EC_U+30A4_U+30E4_U+30FC 1
 62
   179
420
  2234388
370
     9
100
AcDbVertex
100
AcDb2dVertex
 10
62.38275276218196
 20
-100.0324671972141
 30
0.0
  0
VERTEX
  5
17E
330
17C
100
AcDbEntity
  8
_U+30EC_U+30A4_U+30E4_U+30FC 1
 62
   179
420
  2234388
370
     9
100
AcDbVertex
100
AcDb2dVertex
 10
67.25482383974206
 20
-100.0324671972141
 30
0.0
  0
SEQEND
  5
17F
330
17C
100
AcDbEntity
  8
_U+30EC_U+30A4_U+30E4_U+30FC 1
 62
   179
420
  2234388
370
     9
  0
POLYLINE
  5
180
330
BE
100
AcDbEntity
  8
_U+30EC_U+30A4_U+30E4_U+30FC 1
 62
   179
420
  2234388
370
     9
100
AcDb2dPolyline
 66
     1
 10
0.0
 20
0.0
 30
0.0
  0
VERTEX
  5
181
330
180
100
AcDbEntity
  8
_U+30EC_U+30A4_U+30E4_U+30FC 1
 62
   179
420
  2234388
370
     9
100
AcDbVertex
100
AcDb2dVertex
 10
67.90248854544097
 20
-93.08098108784085
 30
0.0
  0
VERTEX
  5
182
330
180
100
AcDbEntity
  8
_U+30EC_U+30A4_U+30E4_U+30FC 1
 62
   179
420
  2234388
370
     9
100
AcDbVertex
100
AcDb2dVertex
 10
69.79796349708337
 20
-89.95074858862317
 30
0.0
  0
SEQEND
  5
183
330
180
100
AcDbEntity
  8
_U+30EC_U+30A4_U+30E4_U+30FC 1
 62
   179
420
  2234388
370
     9
  0
POLYLINE
  5
184
330
BE
100
AcDbEntity
  8
_U+30EC_U+30A4_U+30E4_U+30FC 1
 62
   179
420
  2234388
370
     9
100
AcDb2dPolyline
 66
     1
 10
0.0
 20
0.0
 30
0.0
  0
VERTEX
  5
185
330
184
100
AcDbEntity
  8
_U+30EC_U+30A4_U+30E4_U+30FC 1
 62
   179
420
  2234388
370
     9
100
AcDbVertex
100
AcDb2dVertex
 10
63.69018087512811
 20
-100.0324671972141
 30
0.0
  0
VERTEX
  5
186
330
184
100
AcDbEntity
  8
_U+30EC_U+30A4_U+30E4_U+30FC 1
 62
   179
420
  2234388
370
     9
100
AcDbVertex
100
AcDb2dVertex
 10
65.82783776503639
 20
-96.53432275364442
 30
0.0
  0
SEQEND
  5
187
330
184
100
AcDbEntity
  8
_U+30EC_U+30A4_U+30E4_U+30FC 1
 62
   179
420
  2234388
370
     9
  0
INSERT
  5
189
330
BE
100
AcDbEntity
  8
_U+30EC_U+30A4_U+30E4_U+30FC 1
100
AcDbBlockReference
  2
block 9
 10
0.0
 20
0.0
 30
0.0
  0
ENDBLK
  5
C1
330
BE
100
AcDbEntity
  8
0
100
AcDbBlockEnd
  0
BLOCK
  5
D8
330
D6
100
AcDbEntity
  8
0
100
AcDbBlockBegin
  2
block 4
 70
     0
 10
0.0
 20
0.0
 30
0.0
  3
block 4
  1

  0
SPLINE
  5
DA
330
D6
100
AcDbEntity
  8
_U+30EC_U+30A4_U+30E4_U+30FC 1
370
     0
100
AcDbSpline
210
0.0
220
0.0
230
1.0
 70
    11
 71
     3
 72
    44
 73
    40
 74
     0
 42
0.0000000001
 43
0.0000000001
 12
1.0
 22
0.0
 32
0.0
 13
1.0
 23
0.0
 33
0.0
 40
0.0
 40
0.0
 40
0.0
 40
0.0
 40
1.0
 40
1.0
 40
1.0
 40
2.0
 40
2.0
 40
2.0
 40
3.0
 40
3.0
 40
3.0
 40
4.0
 40
4.0
 40
4.0
 40
5.0
 40
5.0
 40
5.0
 40
6.0
 40
6.0
 40
6.0
 40
7.0
 40
7.0
 40
7.0
 40
8.0
 40
8.0
 40
8.0
 40
9.0
 40
9.0
 40
9.0
 40
10.0
 40
10.0
 40
10.0
 40
11.0
 40
11.0
 40
11.0
 40
12.0
 40
12.0
 40
12.0
 40
13.0
 40
13.0
 40
13.0
 40
13.0
 10
53.07531330053326
 20
-71.0371798867546
 30
0.0
 10
52.85741101109121
 20
-71.19582653385035
 30
0.0
 10
52.76422117821519
 20
-71.26989608678322
 30
0.0
 10
52.71564533187318
 20
-71.4137288232924
 30
0.0
 10
52.71564533187318
 20
-71.4137288232924
 30
0.0
 10
53.49406465676537
 20
-71.4137288232924
 30
0.0
 10
53.49406465676537
 20
-71.4137288232924
 30
0.0
 10
53.49406465676537
 20
-71.4137288232924
 30
0.0
 10
53.49406465676537
 20
-71.61888425943903
 30
0.0
 10
53.49406465676537
 20
-71.61888425943903
 30
0.0
 10
53.49406465676537
 20
-71.61888425943903
 30
0.0
 10
52.46604816396682
 20
-71.61888425943903
 30
0.0
 10
52.46604816396682
 20
-71.61888425943903
 30
0.0
 10
52.49774304243113
 20
-71.2612833480701
 30
0.0
 10
52.56319985665087
 20
-71.18307968055493
 30
0.0
 10
52.9483615319018
 20
-70.88473441153229
 30
0.0
 10
53.20433212645587
 20
-70.68595240203338
 30
0.0
 10
53.26978894067561
 20
-70.61825627574822
 30
0.0
 10
53.26978894067561
 20
-70.48079696588675
 30
0.0
 10
53.26978894067561
 20
-70.36228568119415
 30
0.0
 10
53.19795869980815
 20
-70.23102754320614
 30
0.0
 10
53.00124374760038
 20
-70.23102754320614
 30
0.0
 10
52.74096678368976
 20
-70.23102754320614
 30
0.0
 10
52.7325262997509
 20
-70.46167668594362
 30
0.0
 10
52.72821993039434
 20
-70.57812091334506
 30
0.0
 10
52.72821993039434
 20
-70.57812091334506
 30
0.0
 10
52.50411646907884
 20
-70.57812091334506
 30
0.0
 10
52.50411646907884
 20
-70.57812091334506
 30
0.0
 10
52.51255695301769
 20
-70.4511691447136
 30
0.0
 10
52.52306449424771
 20
-70.33903128666871
 30
0.0
 10
52.60350747382829
 20
-70.22052000197613
 30
0.0
 10
52.71340601980776
 20
-70.05980629758922
 30
0.0
 10
52.89961343078551
 20
-70.02587210705951
 30
0.0
 10
53.01605765818696
 20
-70.02587210705951
 30
0.0
 10
53.29321558997531
 20
-70.02587210705951
 30
0.0
 10
53.50043808341309
 20
-70.21001246074611
 30
0.0
 10
53.50043808341309
 20
-70.4828640231779
 30
0.0
 10
53.50043808341309
 20
-70.71127385384996
 30
0.0
 10
53.38416611078591
 20
-70.81083711337368
 30
0.0
 10
53.07531330053326
 20
-71.0371798867546
 30
0.0
  0
HATCH
  5
DB
330
D6
100
AcDbEntity
  8
_U+30EC_U+30A4_U+30E4_U+30FC 1
 62
   179
420
  2234388
100
AcDbHatch
 10
0.0
 20
0.0
 30
0.0
210
0.0
220
0.0
230
1.0
  2
SOLID
 70
     1
 71
     0
 91
        1
 92
        1
 93
        1
 72
     4
 94
        3
 73
     0
 74
     1
 95
       44
 96
       40
 40
0.0
 40
0.0
 40
0.0
 40
0.0
 40
1.0
 40
1.0
 40
1.0
 40
2.0
 40
2.0
 40
2.0
 40
3.0
 40
3.0
 40
3.0
 40
4.0
 40
4.0
 40
4.0
 40
5.0
 40
5.0
 40
5.0
 40
6.0
 40
6.0
 40
6.0
 40
7.0
 40
7.0
 40
7.0
 40
8.0
 40
8.0
 40
8.0
 40
9.0
 40
9.0
 40
9.0
 40
10.0
 40
10.0
 40
10.0
 40
11.0
 40
11.0
 40
11.0
 40
12.0
 40
12.0
 40
12.0
 40
13.0
 40
13.0
 40
13.0
 40
13.0
 10
53.07531330053326
 20
-71.0371798867546
 10
52.85741101109121
 20
-71.19582653385035
 10
52.76422117821519
 20
-71.26989608678322
 10
52.71564533187318
 20
-71.4137288232924
 10
52.71564533187318
 20
-71.4137288232924
 10
53.49406465676537
 20
-71.4137288232924
 10
53.49406465676537
 20
-71.4137288232924
 10
53.49406465676537
 20
-71.4137288232924
 10
53.49406465676537
 20
-71.61888425943903
 10
53.49406465676537
 20
-71.61888425943903
 10
53.49406465676537
 20
-71.61888425943903
 10
52.46604816396682
 20
-71.61888425943903
 10
52.46604816396682
 20
-71.61888425943903
 10
52.49774304243113
 20
-71.2612833480701
 10
52.56319985665087
 20
-71.18307968055493
 10
52.9483615319018
 20
-70.88473441153229
 10
53.20433212645587
 20
-70.68595240203338
 10
53.26978894067561
 20
-70.61825627574822
 10
53.26978894067561
 20
-70.48079696588675
 10
53.26978894067561
 20
-70.36228568119415
 10
53.19795869980815
 20
-70.23102754320614
 10
53.00124374760038
 20
-70.23102754320614
 10
52.74096678368976
 20
-70.23102754320614
 10
52.7325262997509
 20
-70.46167668594362
 10
52.72821993039434
 20
-70.57812091334506
 10
52.72821993039434
 20
-70.57812091334506
 10
52.50411646907884
 20
-70.57812091334506
 10
52.50411646907884
 20
-70.57812091334506
 10
52.51255695301769
 20
-70.4511691447136
 10
52.52306449424771
 20
-70.33903128666871
 10
52.60350747382829
 20
-70.22052000197613
 10
52.71340601980776
 20
-70.05980629758922
 10
52.89961343078551
 20
-70.02587210705951
 10
53.01605765818696
 20
-70.02587210705951
 10
53.29321558997531
 20
-70.02587210705951
 10
53.50043808341309
 20
-70.21001246074611
 10
53.50043808341309
 20
-70.4828640231779
 10
53.50043808341309
 20
-70.71127385384996
 10
53.38416611078591
 20
-70.81083711337368
 10
53.07531330053326
 20
-71.0371798867546
 97
        0
 97
        0
 75
     2
 76
     1
 98
        0
  0
SPLINE
  5
DC
330
D6
100
AcDbEntity
  8
_U+30EC_U+30A4_U+30E4_U+30FC 1
370
     0
100
AcDbSpline
210
0.0
220
0.0
230
1.0
 70
    11
 71
     3
 72
    29
 73
    25
 74
     0
 42
0.0000000001
 43
0.0000000001
 12
1.0
 22
0.0
 32
0.0
 13
1.0
 23
0.0
 33
0.0
 40
0.0
 40
0.0
 40
0.0
 40
0.0
 40
1.0
 40
1.0
 40
1.0
 40
2.0
 40
2.0
 40
2.0
 40
3.0
 40
3.0
 40
3.0
 40
4.0
 40
4.0
 40
4.0
 40
5.0
 40
5.0
 40
5.0
 40
6.0
 40
6.0
 40
6.0
 40
7.0
 40
7.0
 40
7.0
 40
8.0
 40
8.0
 40
8.0
 40
8.0
 10
54.55670435919069
 20
-71.44111733240014
 30
0.0
 10
54.44887287050237
 20
-71.65057913790334
 30
0.0
 10
54.27541231282004
 20
-71.66969941784647
 30
0.0
 10
54.15896808541859
 20
-71.66969941784647
 30
0.0
 10
53.99825438103169
 20
-71.66969941784647
 30
0.0
 10
53.85648870181366
 20
-71.6231906287956
 30
0.0
 10
53.7612318116465
 20
-71.44111733240014
 30
0.0
 10
53.65770669231474
 20
-71.24664169225778
 30
0.0
 10
53.63858641237161
 20
-71.00961912287259
 30
0.0
 10
53.63858641237161
 20
-70.84666610642029
 30
0.0
 10
53.63858641237161
 20
-70.7028333699111
 30
0.0
 10
53.65546738024933
 20
-70.4511691447136
 30
0.0
 10
53.7612318116465
 20
-70.25221488044042
 30
0.0
 10
53.86923555510909
 20
-70.04912650158495
 30
0.0
 10
54.02994925949599
 20
-70.02587210705951
 30
0.0
 10
54.15896808541859
 20
-70.02587210705951
 30
0.0
 10
54.31761473251435
 20
-70.02587210705951
 30
0.0
 10
54.46144746902353
 20
-70.07031383881923
 30
0.0
 10
54.55670435919069
 20
-70.25221488044042
 30
0.0
 10
54.65609536394015
 20
-70.44479571806589
 30
0.0
 10
54.67934975846558
 20
-70.67320554873795
 30
0.0
 10
54.67934975846558
 20
-70.84666610642029
 30
0.0
 10
54.67934975846558
 20
-71.01805960681146
 30
0.0
 10
54.65833467600556
 20
-71.24870874954894
 30
0.0
 10
54.55670435919069
 20
-71.44111733240014
 30
0.0
  0
SPLINE
  5
DD
330
D6
100
AcDbEntity
  8
_U+30EC_U+30A4_U+30E4_U+30FC 1
370
     0
100
AcDbSpline
210
0.0
220
0.0
230
1.0
 70
    11
 71
     3
 72
    17
 73
    13
 74
     0
 42
0.0000000001
 43
0.0000000001
 12
1.0
 22
0.0
 32
0.0
 13
1.0
 23
0.0
 33
0.0
 40
0.0
 40
0.0
 40
0.0
 40
0.0
 40
1.0
 40
1.0
 40
1.0
 40
2.0
 40
2.0
 40
2.0
 40
3.0
 40
3.0
 40
3.0
 40
4.0
 40
4.0
 40
4.0
 40
4.0
 10
54.15896808541859
 20
-70.21845294468497
 30
0.0
 10
53.90937091751224
 20
-70.21845294468497
 30
0.0
 10
53.86286212846137
 20
-70.50181204834678
 30
0.0
 10
53.86286212846137
 20
-70.84666610642029
 30
0.0
 10
53.86286212846137
 20
-71.1661987126772
 30
0.0
 10
53.89886337628223
 20
-71.47505152292985
 30
0.0
 10
54.15896808541859
 20
-71.47505152292985
 30
0.0
 10
54.40649819603379
 20
-71.47505152292985
 30
0.0
 10
54.45524629715008
 20
-71.19358722178494
 30
0.0
 10
54.45524629715008
 20
-70.84666610642029
 30
0.0
 10
54.45524629715008
 20
-70.52730575493761
 30
0.0
 10
54.41700573726381
 20
-70.21845294468497
 30
0.0
 10
54.15896808541859
 20
-70.21845294468497
 30
0.0
  0
HATCH
  5
DE
330
D6
100
AcDbEntity
  8
_U+30EC_U+30A4_U+30E4_U+30FC 1
 62
   179
420
  2234388
100
AcDbHatch
 10
0.0
 20
0.0
 30
0.0
210
0.0
220
0.0
230
1.0
  2
SOLID
 70
     1
 71
     0
 91
        2
 92
        1
 93
        1
 72
     4
 94
        3
 73
     0
 74
     1
 95
       29
 96
       25
 40
0.0
 40
0.0
 40
0.0
 40
0.0
 40
1.0
 40
1.0
 40
1.0
 40
2.0
 40
2.0
 40
2.0
 40
3.0
 40
3.0
 40
3.0
 40
4.0
 40
4.0
 40
4.0
 40
5.0
 40
5.0
 40
5.0
 40
6.0
 40
6.0
 40
6.0
 40
7.0
 40
7.0
 40
7.0
 40
8.0
 40
8.0
 40
8.0
 40
8.0
 10
54.55670435919069
 20
-71.44111733240014
 10
54.44887287050237
 20
-71.65057913790334
 10
54.27541231282004
 20
-71.66969941784647
 10
54.15896808541859
 20
-71.66969941784647
 10
53.99825438103169
 20
-71.66969941784647
 10
53.85648870181366
 20
-71.6231906287956
 10
53.7612318116465
 20
-71.44111733240014
 10
53.65770669231474
 20
-71.24664169225778
 10
53.63858641237161
 20
-71.00961912287259
 10
53.63858641237161
 20
-70.84666610642029
 10
53.63858641237161
 20
-70.7028333699111
 10
53.65546738024933
 20
-70.4511691447136
 10
53.7612318116465
 20
-70.25221488044042
 10
53.86923555510909
 20
-70.04912650158495
 10
54.02994925949599
 20
-70.02587210705951
 10
54.15896808541859
 20
-70.02587210705951
 10
54.31761473251435
 20
-70.02587210705951
 10
54.46144746902353
 20
-70.07031383881923
 10
54.55670435919069
 20
-70.25221488044042
 10
54.65609536394015
 20
-70.44479571806589
 10
54.67934975846558
 20
-70.67320554873795
 10
54.67934975846558
 20
-70.84666610642029
 10
54.67934975846558
 20
-71.01805960681146
 10
54.65833467600556
 20
-71.24870874954894
 10
54.55670435919069
 20
-71.44111733240014
 97
        0
 97
        0
 92
        1
 93
        1
 72
     4
 94
        3
 73
     0
 74
     1
 95
       17
 96
       13
 40
0.0
 40
0.0
 40
0.0
 40
0.0
 40
1.0
 40
1.0
 40
1.0
 40
2.0
 40
2.0
 40
2.0
 40
3.0
 40
3.0
 40
3.0
 40
4.0
 40
4.0
 40
4.0
 40
4.0
 10
54.15896808541859
 20
-70.21845294468497
 10
53.90937091751224
 20
-70.21845294468497
 10
53.86286212846137
 20
-70.50181204834678
 10
53.86286212846137
 20
-70.84666610642029
 10
53.86286212846137
 20
-71.1661987126772
 10
53.89886337628223
 20
-71.47505152292985
 10
54.15896808541859
 20
-71.47505152292985
 10
54.40649819603379
 20
-71.47505152292985
 10
54.45524629715008
 20
-71.19358722178494
 10
54.45524629715008
 20
-70.84666610642029
 10
54.45524629715008
 20
-70.52730575493761
 10
54.41700573726381
 20
-70.21845294468497
 10
54.15896808541859
 20
-70.21845294468497
 97
        0
 97
        0
 75
     2
 76
     1
 98
        0
  0
ENDBLK
  5
D9
330
D6
100
AcDbEntity
  8
0
100
AcDbBlockEnd
  0
BLOCK
  5
E9
330
E7
100
AcDbEntity
  8
0
100
AcDbBlockBegin
  2
block 5
 70
     0
 10
0.0
 20
0.0
 30
0.0
  3
block 5
  1

  0
SPLINE
  5
EB
330
E7
100
AcDbEntity
  8
_U+30EC_U+30A4_U+30E4_U+30FC 1
370
     0
100
AcDbSpline
210
0.0
220
0.0
230
1.0
 70
    11
 71
     3
 72
    26
 73
    22
 74
     0
 42
0.0000000001
 43
0.0000000001
 12
1.0
 22
0.0
 32
0.0
 13
1.0
 23
0.0
 33
0.0
 40
0.0
 40
0.0
 40
0.0
 40
0.0
 40
1.0
 40
1.0
 40
1.0
 40
2.0
 40
2.0
 40
2.0
 40
3.0
 40
3.0
 40
3.0
 40
4.0
 40
4.0
 40
4.0
 40
5.0
 40
5.0
 40
5.0
 40
6.0
 40
6.0
 40
6.0
 40
7.0
 40
7.0
 40
7.0
 40
7.0
 10
39.47907171322051
 20
-84.44463024147565
 30
0.0
 10
39.47907171322051
 20
-84.44463024147565
 30
0.0
 10
39.47907171322051
 20
-83.34030488367881
 30
0.0
 10
39.47907171322051
 20
-83.34030488367881
 30
0.0
 10
39.47907171322051
 20
-83.34030488367881
 30
0.0
 10
39.14903156573358
 20
-83.34030488367881
 30
0.0
 10
39.14903156573358
 20
-83.34030488367881
 30
0.0
 10
39.14903156573358
 20
-83.34030488367881
 30
0.0
 10
39.14903156573358
 20
-83.19216577781307
 30
0.0
 10
39.14903156573358
 20
-83.19216577781307
 30
0.0
 10
39.48113877051166
 20
-83.17752412200076
 30
0.0
 10
39.52764755956253
 20
-83.01457110554844
 30
0.0
 10
39.55727538073568
 20
-82.90036619021241
 30
0.0
 10
39.55727538073568
 20
-82.90036619021241
 30
0.0
 10
39.70334742931028
 20
-82.90036619021241
 30
0.0
 10
39.70334742931028
 20
-82.90036619021241
 30
0.0
 10
39.70334742931028
 20
-82.90036619021241
 30
0.0
 10
39.70334742931028
 20
-84.44463024147565
 30
0.0
 10
39.70334742931028
 20
-84.44463024147565
 30
0.0
 10
39.70334742931028
 20
-84.44463024147565
 30
0.0
 10
39.47907171322051
 20
-84.44463024147565
 30
0.0
 10
39.47907171322051
 20
-84.44463024147565
 30
0.0
  0
HATCH
  5
EC
330
E7
100
AcDbEntity
  8
_U+30EC_U+30A4_U+30E4_U+30FC 1
 62
   179
420
  2234388
100
AcDbHatch
 10
0.0
 20
0.0
 30
0.0
210
0.0
220
0.0
230
1.0
  2
SOLID
 70
     1
 71
     0
 91
        1
 92
        1
 93
        1
 72
     4
 94
        3
 73
     0
 74
     1
 95
       26
 96
       22
 40
0.0
 40
0.0
 40
0.0
 40
0.0
 40
1.0
 40
1.0
 40
1.0
 40
2.0
 40
2.0
 40
2.0
 40
3.0
 40
3.0
 40
3.0
 40
4.0
 40
4.0
 40
4.0
 40
5.0
 40
5.0
 40
5.0
 40
6.0
 40
6.0
 40
6.0
 40
7.0
 40
7.0
 40
7.0
 40
7.0
 10
39.47907171322051
 20
-84.44463024147565
 10
39.47907171322051
 20
-84.44463024147565
 10
39.47907171322051
 20
-83.34030488367881
 10
39.47907171322051
 20
-83.34030488367881
 10
39.47907171322051
 20
-83.34030488367881
 10
39.14903156573358
 20
-83.34030488367881
 10
39.14903156573358
 20
-83.34030488367881
 10
39.14903156573358
 20
-83.34030488367881
 10
39.14903156573358
 20
-83.19216577781307
 10
39.14903156573358
 20
-83.19216577781307
 10
39.48113877051166
 20
-83.17752412200076
 10
39.52764755956253
 20
-83.01457110554844
 10
39.55727538073568
 20
-82.90036619021241
 10
39.55727538073568
 20
-82.90036619021241
 10
39.70334742931028
 20
-82.90036619021241
 10
39.70334742931028
 20
-82.90036619021241
 10
39.70334742931028
 20
-82.90036619021241
 10
39.70334742931028
 20
-84.44463024147565
 10
39.70334742931028
 20
-84.44463024147565
 10
39.70334742931028
 20
-84.44463024147565
 10
39.47907171322051
 20
-84.44463024147565
 10
39.47907171322051
 20
-84.44463024147565
 97
        0
 97
        0
 75
     2
 76
     1
 98
        0
  0
SPLINE
  5
ED
330
E7
100
AcDbEntity
  8
_U+30EC_U+30A4_U+30E4_U+30FC 1
370
     0
100
AcDbSpline
210
0.0
220
0.0
230
1.0
 70
    11
 71
     3
 72
    29
 73
    25
 74
     0
 42
0.0000000001
 43
0.0000000001
 12
1.0
 22
0.0
 32
0.0
 13
1.0
 23
0.0
 33
0.0
 40
0.0
 40
0.0
 40
0.0
 40
0.0
 40
1.0
 40
1.0
 40
1.0
 40
2.0
 40
2.0
 40
2.0
 40
3.0
 40
3.0
 40
3.0
 40
4.0
 40
4.0
 40
4.0
 40
5.0
 40
5.0
 40
5.0
 40
6.0
 40
6.0
 40
6.0
 40
7.0
 40
7.0
 40
7.0
 40
8.0
 40
8.0
 40
8.0
 40
8.0
 10
41.10222845109598
 20
-84.26686331443676
 30
0.0
 10
40.99439696240766
 20
-84.47632511993994
 30
0.0
 10
40.82093640472532
 20
-84.49544539988308
 30
0.0
 10
40.70449217732388
 20
-84.49544539988308
 30
0.0
 10
40.54377847293697
 20
-84.49544539988308
 30
0.0
 10
40.40201279371895
 20
-84.44893661083222
 30
0.0
 10
40.30675590355178
 20
-84.26686331443676
 30
0.0
 10
40.20323078422003
 20
-84.0723876742944
 30
0.0
 10
40.18411050427689
 20
-83.83536510490922
 30
0.0
 10
40.18411050427689
 20
-83.6724120884569
 30
0.0
 10
40.18411050427689
 20
-83.52857935194773
 30
0.0
 10
40.20099147215461
 20
-83.27691512675023
 30
0.0
 10
40.30675590355178
 20
-83.07796086247704
 30
0.0
 10
40.41475964701436
 20
-82.87487248362156
 30
0.0
 10
40.57547335140127
 20
-82.85161808909612
 30
0.0
 10
40.70449217732388
 20
-82.85161808909612
 30
0.0
 10
40.86313882441964
 20
-82.85161808909612
 30
0.0
 10
41.00697156092881
 20
-82.89605982085585
 30
0.0
 10
41.10222845109598
 20
-83.07796086247704
 30
0.0
 10
41.20161945584543
 20
-83.27054170010251
 30
0.0
 10
41.22487385037087
 20
-83.49895153077458
 30
0.0
 10
41.22487385037087
 20
-83.6724120884569
 30
0.0
 10
41.22487385037087
 20
-83.84380558884808
 30
0.0
 10
41.20385876791084
 20
-84.07445473158556
 30
0.0
 10
41.10222845109598
 20
-84.26686331443676
 30
0.0
  0
SPLINE
  5
EE
330
E7
100
AcDbEntity
  8
_U+30EC_U+30A4_U+30E4_U+30FC 1
370
     0
100
AcDbSpline
210
0.0
220
0.0
230
1.0
 70
    11
 71
     3
 72
    17
 73
    13
 74
     0
 42
0.0000000001
 43
0.0000000001
 12
1.0
 22
0.0
 32
0.0
 13
1.0
 23
0.0
 33
0.0
 40
0.0
 40
0.0
 40
0.0
 40
0.0
 40
1.0
 40
1.0
 40
1.0
 40
2.0
 40
2.0
 40
2.0
 40
3.0
 40
3.0
 40
3.0
 40
4.0
 40
4.0
 40
4.0
 40
4.0
 10
40.70449217732388
 20
-83.04419892672159
 30
0.0
 10
40.45489500941753
 20
-83.04419892672159
 30
0.0
 10
40.40838622036666
 20
-83.32755803038339
 30
0.0
 10
40.40838622036666
 20
-83.6724120884569
 30
0.0
 10
40.40838622036666
 20
-83.99194469471382
 30
0.0
 10
40.44438746818751
 20
-84.30079750496647
 30
0.0
 10
40.70449217732388
 20
-84.30079750496647
 30
0.0
 10
40.95202228793908
 20
-84.30079750496647
 30
0.0
 10
41.00077038905536
 20
-84.01933320382156
 30
0.0
 10
41.00077038905536
 20
-83.6724120884569
 30
0.0
 10
41.00077038905536
 20
-83.35305173697424
 30
0.0
 10
40.96252982916909
 20
-83.04419892672159
 30
0.0
 10
40.70449217732388
 20
-83.04419892672159
 30
0.0
  0
HATCH
  5
EF
330
E7
100
AcDbEntity
  8
_U+30EC_U+30A4_U+30E4_U+30FC 1
 62
   179
420
  2234388
100
AcDbHatch
 10
0.0
 20
0.0
 30
0.0
210
0.0
220
0.0
230
1.0
  2
SOLID
 70
     1
 71
     0
 91
        2
 92
        1
 93
        1
 72
     4
 94
        3
 73
     0
 74
     1
 95
       29
 96
       25
 40
0.0
 40
0.0
 40
0.0
 40
0.0
 40
1.0
 40
1.0
 40
1.0
 40
2.0
 40
2.0
 40
2.0
 40
3.0
 40
3.0
 40
3.0
 40
4.0
 40
4.0
 40
4.0
 40
5.0
 40
5.0
 40
5.0
 40
6.0
 40
6.0
 40
6.0
 40
7.0
 40
7.0
 40
7.0
 40
8.0
 40
8.0
 40
8.0
 40
8.0
 10
41.10222845109598
 20
-84.26686331443676
 10
40.99439696240766
 20
-84.47632511993994
 10
40.82093640472532
 20
-84.49544539988308
 10
40.70449217732388
 20
-84.49544539988308
 10
40.54377847293697
 20
-84.49544539988308
 10
40.40201279371895
 20
-84.44893661083222
 10
40.30675590355178
 20
-84.26686331443676
 10
40.20323078422003
 20
-84.0723876742944
 10
40.18411050427689
 20
-83.83536510490922
 10
40.18411050427689
 20
-83.6724120884569
 10
40.18411050427689
 20
-83.52857935194773
 10
40.20099147215461
 20
-83.27691512675023
 10
40.30675590355178
 20
-83.07796086247704
 10
40.41475964701436
 20
-82.87487248362156
 10
40.57547335140127
 20
-82.85161808909612
 10
40.70449217732388
 20
-82.85161808909612
 10
40.86313882441964
 20
-82.85161808909612
 10
41.00697156092881
 20
-82.89605982085585
 10
41.10222845109598
 20
-83.07796086247704
 10
41.20161945584543
 20
-83.27054170010251
 10
41.22487385037087
 20
-83.49895153077458
 10
41.22487385037087
 20
-83.6724120884569
 10
41.22487385037087
 20
-83.84380558884808
 10
41.20385876791084
 20
-84.07445473158556
 10
41.10222845109598
 20
-84.26686331443676
 97
        0
 97
        0
 92
        1
 93
        1
 72
     4
 94
        3
 73
     0
 74
     1
 95
       17
 96
       13
 40
0.0
 40
0.0
 40
0.0
 40
0.0
 40
1.0
 40
1.0
 40
1.0
 40
2.0
 40
2.0
 40
2.0
 40
3.0
 40
3.0
 40
3.0
 40
4.0
 40
4.0
 40
4.0
 40
4.0
 10
40.70449217732388
 20
-83.04419892672159
 10
40.45489500941753
 20
-83.04419892672159
 10
40.40838622036666
 20
-83.32755803038339
 10
40.40838622036666
 20
-83.6724120884569
 10
40.40838622036666
 20
-83.99194469471382
 10
40.44438746818751
 20
-84.30079750496647
 10
40.70449217732388
 20
-84.30079750496647
 10
40.95202228793908
 20
-84.30079750496647
 10
41.00077038905536
 20
-84.01933320382156
 10
41.00077038905536
 20
-83.6724120884569
 10
41.00077038905536
 20
-83.35305173697424
 10
40.96252982916909
 20
-83.04419892672159
 10
40.70449217732388
 20
-83.04419892672159
 97
        0
 97
        0
 75
     2
 76
     1
 98
        0
  0
ENDBLK
  5
EA
330
E7
100
AcDbEntity
  8
0
100
AcDbBlockEnd
  0
BLOCK
  5
F2
330
F0
100
AcDbEntity
  8
0
100
AcDbBlockBegin
  2
block 6
 70
     0
 10
0.0
 20
0.0
 30
0.0
  3
block 6
  1

  0
SPLINE
  5
F4
330
F0
100
AcDbEntity
  8
_U+30EC_U+30A4_U+30E4_U+30FC 1
370
     0
100
AcDbSpline
210
0.0
220
0.0
230
1.0
 70
    11
 71
     3
 72
    62
 73
    58
 74
     0
 42
0.0000000001
 43
0.0000000001
 12
1.0
 22
0.0
 32
0.0
 13
1.0
 23
0.0
 33
0.0
 40
0.0
 40
0.0
 40
0.0
 40
0.0
 40
1.0
 40
1.0
 40
1.0
 40
2.0
 40
2.0
 40
2.0
 40
3.0
 40
3.0
 40
3.0
 40
4.0
 40
4.0
 40
4.0
 40
5.0
 40
5.0
 40
5.0
 40
6.0
 40
6.0
 40
6.0
 40
7.0
 40
7.0
 40
7.0
 40
8.0
 40
8.0
 40
8.0
 40
9.0
 40
9.0
 40
9.0
 40
10.0
 40
10.0
 40
10.0
 40
11.0
 40
11.0
 40
11.0
 40
12.0
 40
12.0
 40
12.0
 40
13.0
 40
13.0
 40
13.0
 40
14.0
 40
14.0
 40
14.0
 40
15.0
 40
15.0
 40
15.0
 40
16.0
 40
16.0
 40
16.0
 40
17.0
 40
17.0
 40
17.0
 40
18.0
 40
18.0
 40
18.0
 40
19.0
 40
19.0
 40
19.0
 40
19.0
 10
38.56491562620947
 20
-76.43219941665585
 30
0.0
 10
38.56491562620947
 20
-76.527456306823
 30
0.0
 10
38.54372828897518
 20
-76.74535859626505
 30
0.0
 10
38.35752087799743
 20
-76.8700710528311
 30
0.0
 10
38.24538301995255
 20
-76.94414060576396
 30
0.0
 10
38.14599201520308
 20
-76.94844697512053
 30
0.0
 10
38.0614149210402
 20
-76.95258108970283
 30
0.0
 10
38.0614149210402
 20
-76.95258108970283
 30
0.0
 10
38.0614149210402
 20
-76.73261174296962
 30
0.0
 10
38.0614149210402
 20
-76.73261174296962
 30
0.0
 10
38.13548447397307
 20
-76.73054468567848
 30
0.0
 10
38.37026773129285
 20
-76.7198648896742
 30
0.0
 10
38.37026773129285
 20
-76.43633353123815
 30
0.0
 10
38.37026773129285
 20
-76.29887422137668
 30
0.0
 10
38.30050454771654
 20
-76.14660100092863
 30
0.0
 10
38.07192246227022
 20
-76.14660100092863
 30
0.0
 10
37.95565048964303
 20
-76.14660100092863
 30
0.0
 10
37.90690238852675
 20
-76.18466930604065
 30
0.0
 10
37.87520751006245
 20
-76.21636418450494
 30
0.0
 10
37.80113795712958
 20
-76.29043373743781
 30
0.0
 10
37.78856335860841
 20
-76.40687796483925
 30
0.0
 10
37.78856335860841
 20
-76.46182723782898
 30
0.0
 10
37.78856335860841
 20
-76.48077526299787
 30
0.0
 10
37.79063041589956
 20
-76.51677651081873
 30
0.0
 10
37.79476453048186
 20
-76.54433727470072
 30
0.0
 10
37.79476453048186
 20
-76.54433727470072
 30
0.0
 10
37.60011663556525
 20
-76.54433727470072
 30
0.0
 10
37.60011663556525
 20
-76.54433727470072
 30
0.0
 10
37.60649006221296
 20
-76.50626896958872
 30
0.0
 10
37.60872937427838
 20
-76.46389429512014
 30
0.0
 10
37.60872937427838
 20
-76.45752086847243
 30
0.0
 10
37.60872937427838
 20
-76.39206405425269
 30
0.0
 10
37.58754203704409
 20
-76.1931097899795
 30
0.0
 10
37.3505194676589
 20
-76.1931097899795
 30
0.0
 10
37.17292479539427
 20
-76.1931097899795
 30
0.0
 10
37.11780326763027
 20
-76.32436792796753
 30
0.0
 10
37.11780326763027
 20
-76.43426647394699
 30
0.0
 10
37.11780326763027
 20
-76.69867755243992
 30
0.0
 10
37.3505194676589
 20
-76.70711803637877
 30
0.0
 10
37.42252196330062
 20
-76.71142440573534
 30
0.0
 10
37.42252196330062
 20
-76.71142440573534
 30
0.0
 10
37.42252196330062
 20
-76.91451278459083
 30
0.0
 10
37.42252196330062
 20
-76.91451278459083
 30
0.0
 10
37.29763725196032
 20
-76.90607230065196
 30
0.0
 10
36.92108831542251
 20
-76.87851153676996
 30
0.0
 10
36.92108831542251
 20
-76.42169187542584
 30
0.0
 10
36.92108831542251
 20
-76.19741615933607
 30
0.0
 10
37.04804008405397
 20
-75.95625947536858
 30
0.0
 10
37.34414604101119
 20
-75.95625947536858
 30
0.0
 10
37.53035345198894
 20
-75.95625947536858
 30
0.0
 10
37.61286348886068
 20
-76.05134411076148
 30
0.0
 10
37.67418618849812
 20
-76.1509073702852
 30
0.0
 10
37.70174695238012
 20
-76.08941241587348
 30
0.0
 10
37.7821899319607
 20
-75.9075113742523
 30
0.0
 10
38.05934786374905
 20
-75.9075113742523
 30
0.0
 10
38.39782849517485
 20
-75.9075113742523
 30
0.0
 10
38.56491562620947
 20
-76.1550414848675
 30
0.0
 10
38.56491562620947
 20
-76.43219941665585
 30
0.0
  0
HATCH
  5
F5
330
F0
100
AcDbEntity
  8
_U+30EC_U+30A4_U+30E4_U+30FC 1
 62
   179
420
  2234388
100
AcDbHatch
 10
0.0
 20
0.0
 30
0.0
210
0.0
220
0.0
230
1.0
  2
SOLID
 70
     1
 71
     0
 91
        1
 92
        1
 93
        1
 72
     4
 94
        3
 73
     0
 74
     1
 95
       62
 96
       58
 40
0.0
 40
0.0
 40
0.0
 40
0.0
 40
1.0
 40
1.0
 40
1.0
 40
2.0
 40
2.0
 40
2.0
 40
3.0
 40
3.0
 40
3.0
 40
4.0
 40
4.0
 40
4.0
 40
5.0
 40
5.0
 40
5.0
 40
6.0
 40
6.0
 40
6.0
 40
7.0
 40
7.0
 40
7.0
 40
8.0
 40
8.0
 40
8.0
 40
9.0
 40
9.0
 40
9.0
 40
10.0
 40
10.0
 40
10.0
 40
11.0
 40
11.0
 40
11.0
 40
12.0
 40
12.0
 40
12.0
 40
13.0
 40
13.0
 40
13.0
 40
14.0
 40
14.0
 40
14.0
 40
15.0
 40
15.0
 40
15.0
 40
16.0
 40
16.0
 40
16.0
 40
17.0
 40
17.0
 40
17.0
 40
18.0
 40
18.0
 40
18.0
 40
19.0
 40
19.0
 40
19.0
 40
19.0
 10
38.56491562620947
 20
-76.43219941665585
 10
38.56491562620947
 20
-76.527456306823
 10
38.54372828897518
 20
-76.74535859626505
 10
38.35752087799743
 20
-76.8700710528311
 10
38.24538301995255
 20
-76.94414060576396
 10
38.14599201520308
 20
-76.94844697512053
 10
38.0614149210402
 20
-76.95258108970283
 10
38.0614149210402
 20
-76.95258108970283
 10
38.0614149210402
 20
-76.73261174296962
 10
38.0614149210402
 20
-76.73261174296962
 10
38.13548447397307
 20
-76.73054468567848
 10
38.37026773129285
 20
-76.7198648896742
 10
38.37026773129285
 20
-76.43633353123815
 10
38.37026773129285
 20
-76.29887422137668
 10
38.30050454771654
 20
-76.14660100092863
 10
38.07192246227022
 20
-76.14660100092863
 10
37.95565048964303
 20
-76.14660100092863
 10
37.90690238852675
 20
-76.18466930604065
 10
37.87520751006245
 20
-76.21636418450494
 10
37.80113795712958
 20
-76.29043373743781
 10
37.78856335860841
 20
-76.40687796483925
 10
37.78856335860841
 20
-76.46182723782898
 10
37.78856335860841
 20
-76.48077526299787
 10
37.79063041589956
 20
-76.51677651081873
 10
37.79476453048186
 20
-76.54433727470072
 10
37.79476453048186
 20
-76.54433727470072
 10
37.60011663556525
 20
-76.54433727470072
 10
37.60011663556525
 20
-76.54433727470072
 10
37.60649006221296
 20
-76.50626896958872
 10
37.60872937427838
 20
-76.46389429512014
 10
37.60872937427838
 20
-76.45752086847243
 10
37.60872937427838
 20
-76.39206405425269
 10
37.58754203704409
 20
-76.1931097899795
 10
37.3505194676589
 20
-76.1931097899795
 10
37.17292479539427
 20
-76.1931097899795
 10
37.11780326763027
 20
-76.32436792796753
 10
37.11780326763027
 20
-76.43426647394699
 10
37.11780326763027
 20
-76.69867755243992
 10
37.3505194676589
 20
-76.70711803637877
 10
37.42252196330062
 20
-76.71142440573534
 10
37.42252196330062
 20
-76.71142440573534
 10
37.42252196330062
 20
-76.91451278459083
 10
37.42252196330062
 20
-76.91451278459083
 10
37.29763725196032
 20
-76.90607230065196
 10
36.92108831542251
 20
-76.87851153676996
 10
36.92108831542251
 20
-76.42169187542584
 10
36.92108831542251
 20
-76.19741615933607
 10
37.04804008405397
 20
-75.95625947536858
 10
37.34414604101119
 20
-75.95625947536858
 10
37.53035345198894
 20
-75.95625947536858
 10
37.61286348886068
 20
-76.05134411076148
 10
37.67418618849812
 20
-76.1509073702852
 10
37.70174695238012
 20
-76.08941241587348
 10
37.7821899319607
 20
-75.9075113742523
 10
38.05934786374905
 20
-75.9075113742523
 10
38.39782849517485
 20
-75.9075113742523
 10
38.56491562620947
 20
-76.1550414848675
 10
38.56491562620947
 20
-76.43219941665585
 97
        0
 97
        0
 75
     2
 76
     1
 98
        0
  0
ENDBLK
  5
F3
330
F0
100
AcDbEntity
  8
0
100
AcDbBlockEnd
  0
BLOCK
  5
FC
330
FA
100
AcDbEntity
  8
0
100
AcDbBlockBegin
  2
block 7
 70
     0
 10
0.0
 20
0.0
 30
0.0
  3
block 7
  1

  0
SPLINE
  5
FE
330
FA
100
AcDbEntity
  8
_U+30EC_U+30A4_U+30E4_U+30FC 1
370
     0
100
AcDbSpline
210
0.0
220
0.0
230
1.0
 70
    11
 71
     3
 72
    44
 73
    40
 74
     0
 42
0.0000000001
 43
0.0000000001
 12
1.0
 22
0.0
 32
0.0
 13
1.0
 23
0.0
 33
0.0
 40
0.0
 40
0.0
 40
0.0
 40
0.0
 40
1.0
 40
1.0
 40
1.0
 40
2.0
 40
2.0
 40
2.0
 40
3.0
 40
3.0
 40
3.0
 40
4.0
 40
4.0
 40
4.0
 40
5.0
 40
5.0
 40
5.0
 40
6.0
 40
6.0
 40
6.0
 40
7.0
 40
7.0
 40
7.0
 40
8.0
 40
8.0
 40
8.0
 40
9.0
 40
9.0
 40
9.0
 40
10.0
 40
10.0
 40
10.0
 40
11.0
 40
11.0
 40
11.0
 40
12.0
 40
12.0
 40
12.0
 40
13.0
 40
13.0
 40
13.0
 40
13.0
 10
64.79328882928779
 20
-94.23059622210208
 30
0.0
 10
64.7698621799881
 20
-94.18615449034236
 30
0.0
 10
64.74884709752807
 20
-94.13344452941803
 30
0.0
 10
64.74678004023691
 20
-93.9026231319063
 30
0.0
 10
64.74264592565461
 20
-93.65939939064765
 30
0.0
 10
64.68339028330833
 20
-93.58946395229708
 30
0.0
 10
64.50562335626942
 20
-93.58946395229708
 30
0.0
 10
64.50562335626942
 20
-93.58946395229708
 30
0.0
 10
64.09737954126733
 20
-93.58946395229708
 30
0.0
 10
64.09737954126733
 20
-93.58946395229708
 30
0.0
 10
64.09737954126733
 20
-93.58946395229708
 30
0.0
 10
64.09737954126733
 20
-94.23059622210208
 30
0.0
 10
64.09737954126733
 20
-94.23059622210208
 30
0.0
 10
64.09737954126733
 20
-94.23059622210208
 30
0.0
 10
63.86242402917328
 20
-94.23059622210208
 30
0.0
 10
63.86242402917328
 20
-94.23059622210208
 30
0.0
 10
63.86242402917328
 20
-94.23059622210208
 30
0.0
 10
63.86242402917328
 20
-92.68615991606458
 30
0.0
 10
63.86242402917328
 20
-92.68615991606458
 30
0.0
 10
63.86242402917328
 20
-92.68615991606458
 30
0.0
 10
64.53731823473373
 20
-92.68615991606458
 30
0.0
 10
64.53731823473373
 20
-92.68615991606458
 30
0.0
 10
64.84393173292096
 20
-92.68615991606458
 30
0.0
 10
65.01101886395558
 20
-92.85772567123001
 30
0.0
 10
65.01101886395558
 20
-93.11369626578409
 30
0.0
 10
65.01101886395558
 20
-93.16433916941725
 30
0.0
 10
65.00275063479098
 20
-93.24702146106326
 30
0.0
 10
64.95830890303125
 20
-93.32729218586957
 30
0.0
 10
64.89905326068497
 20
-93.43098955997559
 30
0.0
 10
64.83359644646521
 20
-93.44993758514447
 30
0.0
 10
64.77227374682776
 20
-93.4668185530222
 30
0.0
 10
64.90973305668923
 20
-93.50919322749075
 30
0.0
 10
64.97725692820013
 20
-93.55776907383279
 30
0.0
 10
64.98173555233096
 20
-93.87299531073315
 30
0.0
 10
64.98586966691326
 20
-94.14377981587378
 30
0.0
 10
65.02169865995985
 20
-94.17547469433808
 30
0.0
 10
65.08956704101928
 20
-94.23059622210208
 30
0.0
 10
65.08956704101928
 20
-94.23059622210208
 30
0.0
 10
64.79328882928779
 20
-94.23059622210208
 30
0.0
 10
64.79328882928779
 20
-94.23059622210208
 30
0.0
  0
SPLINE
  5
FF
330
FA
100
AcDbEntity
  8
_U+30EC_U+30A4_U+30E4_U+30FC 1
370
     0
100
AcDbSpline
210
0.0
220
0.0
230
1.0
 70
    11
 71
     3
 72
    20
 73
    16
 74
     0
 42
0.0000000001
 43
0.0000000001
 12
1.0
 22
0.0
 32
0.0
 13
1.0
 23
0.0
 33
0.0
 40
0.0
 40
0.0
 40
0.0
 40
0.0
 40
1.0
 40
1.0
 40
1.0
 40
2.0
 40
2.0
 40
2.0
 40
3.0
 40
3.0
 40
3.0
 40
4.0
 40
4.0
 40
4.0
 40
5.0
 40
5.0
 40
5.0
 40
5.0
 10
64.54145234931603
 20
-92.89768877885892
 30
0.0
 10
64.54145234931603
 20
-92.89768877885892
 30
0.0
 10
64.09737954126733
 20
-92.89768877885892
 30
0.0
 10
64.09737954126733
 20
-92.89768877885892
 30
0.0
 10
64.09737954126733
 20
-92.89768877885892
 30
0.0
 10
64.09737954126733
 20
-93.37793508950274
 30
0.0
 10
64.09737954126733
 20
-93.37793508950274
 30
0.0
 10
64.09737954126733
 20
-93.37793508950274
 30
0.0
 10
64.53938529202487
 20
-93.37793508950274
 30
0.0
 10
64.53938529202487
 20
-93.37793508950274
 30
0.0
 10
64.6389485515486
 20
-93.37793508950274
 30
0.0
 10
64.77434080411892
 20
-93.30179847927872
 30
0.0
 10
64.77434080411892
 20
-93.13057723366181
 30
0.0
 10
64.77434080411892
 20
-93.05237356614663
 30
0.0
 10
64.74023435881494
 20
-92.89768877885892
 30
0.0
 10
64.54145234931603
 20
-92.89768877885892
 30
0.0
  0
HATCH
  5
100
330
FA
100
AcDbEntity
  8
_U+30EC_U+30A4_U+30E4_U+30FC 1
 62
   179
420
  2234388
100
AcDbHatch
 10
0.0
 20
0.0
 30
0.0
210
0.0
220
0.0
230
1.0
  2
SOLID
 70
     1
 71
     0
 91
        2
 92
        1
 93
        1
 72
     4
 94
        3
 73
     0
 74
     1
 95
       44
 96
       40
 40
0.0
 40
0.0
 40
0.0
 40
0.0
 40
1.0
 40
1.0
 40
1.0
 40
2.0
 40
2.0
 40
2.0
 40
3.0
 40
3.0
 40
3.0
 40
4.0
 40
4.0
 40
4.0
 40
5.0
 40
5.0
 40
5.0
 40
6.0
 40
6.0
 40
6.0
 40
7.0
 40
7.0
 40
7.0
 40
8.0
 40
8.0
 40
8.0
 40
9.0
 40
9.0
 40
9.0
 40
10.0
 40
10.0
 40
10.0
 40
11.0
 40
11.0
 40
11.0
 40
12.0
 40
12.0
 40
12.0
 40
13.0
 40
13.0
 40
13.0
 40
13.0
 10
64.79328882928779
 20
-94.23059622210208
 10
64.7698621799881
 20
-94.18615449034236
 10
64.74884709752807
 20
-94.13344452941803
 10
64.74678004023691
 20
-93.9026231319063
 10
64.74264592565461
 20
-93.65939939064765
 10
64.68339028330833
 20
-93.58946395229708
 10
64.50562335626942
 20
-93.58946395229708
 10
64.50562335626942
 20
-93.58946395229708
 10
64.09737954126733
 20
-93.58946395229708
 10
64.09737954126733
 20
-93.58946395229708
 10
64.09737954126733
 20
-93.58946395229708
 10
64.09737954126733
 20
-94.23059622210208
 10
64.09737954126733
 20
-94.23059622210208
 10
64.09737954126733
 20
-94.23059622210208
 10
63.86242402917328
 20
-94.23059622210208
 10
63.86242402917328
 20
-94.23059622210208
 10
63.86242402917328
 20
-94.23059622210208
 10
63.86242402917328
 20
-92.68615991606458
 10
63.86242402917328
 20
-92.68615991606458
 10
63.86242402917328
 20
-92.68615991606458
 10
64.53731823473373
 20
-92.68615991606458
 10
64.53731823473373
 20
-92.68615991606458
 10
64.84393173292096
 20
-92.68615991606458
 10
65.01101886395558
 20
-92.85772567123001
 10
65.01101886395558
 20
-93.11369626578409
 10
65.01101886395558
 20
-93.16433916941725
 10
65.00275063479098
 20
-93.24702146106326
 10
64.95830890303125
 20
-93.32729218586957
 10
64.89905326068497
 20
-93.43098955997559
 10
64.83359644646521
 20
-93.44993758514447
 10
64.77227374682776
 20
-93.4668185530222
 10
64.90973305668923
 20
-93.50919322749075
 10
64.97725692820013
 20
-93.55776907383279
 10
64.98173555233096
 20
-93.87299531073315
 10
64.98586966691326
 20
-94.14377981587378
 10
65.02169865995985
 20
-94.17547469433808
 10
65.08956704101928
 20
-94.23059622210208
 10
65.08956704101928
 20
-94.23059622210208
 10
64.79328882928779
 20
-94.23059622210208
 10
64.79328882928779
 20
-94.23059622210208
 97
        0
 97
        0
 92
        1
 93
        1
 72
     4
 94
        3
 73
     0
 74
     1
 95
       20
 96
       16
 40
0.0
 40
0.0
 40
0.0
 40
0.0
 40
1.0
 40
1.0
 40
1.0
 40
2.0
 40
2.0
 40
2.0
 40
3.0
 40
3.0
 40
3.0
 40
4.0
 40
4.0
 40
4.0
 40
5.0
 40
5.0
 40
5.0
 40
5.0
 10
64.54145234931603
 20
-92.89768877885892
 10
64.54145234931603
 20
-92.89768877885892
 10
64.09737954126733
 20
-92.89768877885892
 10
64.09737954126733
 20
-92.89768877885892
 10
64.09737954126733
 20
-92.89768877885892
 10
64.09737954126733
 20
-93.37793508950274
 10
64.09737954126733
 20
-93.37793508950274
 10
64.09737954126733
 20
-93.37793508950274
 10
64.53938529202487
 20
-93.37793508950274
 10
64.53938529202487
 20
-93.37793508950274
 10
64.6389485515486
 20
-93.37793508950274
 10
64.77434080411892
 20
-93.30179847927872
 10
64.77434080411892
 20
-93.13057723366181
 10
64.77434080411892
 20
-93.05237356614663
 10
64.74023435881494
 20
-92.89768877885892
 10
64.54145234931603
 20
-92.89768877885892
 97
        0
 97
        0
 75
     2
 76
     1
 98
        0
  0
ENDBLK
  5
FD
330
FA
100
AcDbEntity
  8
0
100
AcDbBlockEnd
  0
BLOCK
  5
13F
330
13D
100
AcDbEntity
  8
0
100
AcDbBlockBegin
  2
block 8
 70
     0
 10
0.0
 20
0.0
 30
0.0
  3
block 8
  1

  0
SPLINE
  5
141
330
13D
100
AcDbEntity
  8
_U+30EC_U+30A4_U+30E4_U+30FC 1
370
     0
100
AcDbSpline
210
0.0
220
0.0
230
1.0
 70
    11
 71
     3
 72
    26
 73
    22
 74
     0
 42
0.0000000001
 43
0.0000000001
 12
1.0
 22
0.0
 32
0.0
 13
1.0
 23
0.0
 33
0.0
 40
0.0
 40
0.0
 40
0.0
 40
0.0
 40
1.0
 40
1.0
 40
1.0
 40
2.0
 40
2.0
 40
2.0
 40
3.0
 40
3.0
 40
3.0
 40
4.0
 40
4.0
 40
4.0
 40
5.0
 40
5.0
 40
5.0
 40
6.0
 40
6.0
 40
6.0
 40
7.0
 40
7.0
 40
7.0
 40
7.0
 10
81.05620657695817
 20
-78.04450410375277
 30
0.0
 10
81.05620657695817
 20
-78.04450410375277
 30
0.0
 10
81.05620657695817
 20
-76.94017874595593
 30
0.0
 10
81.05620657695817
 20
-76.94017874595593
 30
0.0
 10
81.05620657695817
 20
-76.94017874595593
 30
0.0
 10
80.72616642947123
 20
-76.94017874595593
 30
0.0
 10
80.72616642947123
 20
-76.94017874595593
 30
0.0
 10
80.72616642947123
 20
-76.94017874595593
 30
0.0
 10
80.72616642947123
 20
-76.79221189486445
 30
0.0
 10
80.72616642947123
 20
-76.79221189486445
 30
0.0
 10
81.05827363424932
 20
-76.77739798427788
 30
0.0
 10
81.1047824233002
 20
-76.61444496782556
 30
0.0
 10
81.13441024447334
 20
-76.50024005248953
 30
0.0
 10
81.13441024447334
 20
-76.50024005248953
 30
0.0
 10
81.28048229304794
 20
-76.50024005248953
 30
0.0
 10
81.28048229304794
 20
-76.50024005248953
 30
0.0
 10
81.28048229304794
 20
-76.50024005248953
 30
0.0
 10
81.28048229304794
 20
-78.04450410375277
 30
0.0
 10
81.28048229304794
 20
-78.04450410375277
 30
0.0
 10
81.28048229304794
 20
-78.04450410375277
 30
0.0
 10
81.05620657695817
 20
-78.04450410375277
 30
0.0
 10
81.05620657695817
 20
-78.04450410375277
 30
0.0
  0
HATCH
  5
142
330
13D
100
AcDbEntity
  8
_U+30EC_U+30A4_U+30E4_U+30FC 1
 62
   179
420
  2234388
100
AcDbHatch
 10
0.0
 20
0.0
 30
0.0
210
0.0
220
0.0
230
1.0
  2
SOLID
 70
     1
 71
     0
 91
        1
 92
        1
 93
        1
 72
     4
 94
        3
 73
     0
 74
     1
 95
       26
 96
       22
 40
0.0
 40
0.0
 40
0.0
 40
0.0
 40
1.0
 40
1.0
 40
1.0
 40
2.0
 40
2.0
 40
2.0
 40
3.0
 40
3.0
 40
3.0
 40
4.0
 40
4.0
 40
4.0
 40
5.0
 40
5.0
 40
5.0
 40
6.0
 40
6.0
 40
6.0
 40
7.0
 40
7.0
 40
7.0
 40
7.0
 10
81.05620657695817
 20
-78.04450410375277
 10
81.05620657695817
 20
-78.04450410375277
 10
81.05620657695817
 20
-76.94017874595593
 10
81.05620657695817
 20
-76.94017874595593
 10
81.05620657695817
 20
-76.94017874595593
 10
80.72616642947123
 20
-76.94017874595593
 10
80.72616642947123
 20
-76.94017874595593
 10
80.72616642947123
 20
-76.94017874595593
 10
80.72616642947123
 20
-76.79221189486445
 10
80.72616642947123
 20
-76.79221189486445
 10
81.05827363424932
 20
-76.77739798427788
 10
81.1047824233002
 20
-76.61444496782556
 10
81.13441024447334
 20
-76.50024005248953
 10
81.13441024447334
 20
-76.50024005248953
 10
81.28048229304794
 20
-76.50024005248953
 10
81.28048229304794
 20
-76.50024005248953
 10
81.28048229304794
 20
-76.50024005248953
 10
81.28048229304794
 20
-78.04450410375277
 10
81.28048229304794
 20
-78.04450410375277
 10
81.28048229304794
 20
-78.04450410375277
 10
81.05620657695817
 20
-78.04450410375277
 10
81.05620657695817
 20
-78.04450410375277
 97
        0
 97
        0
 75
     2
 76
     1
 98
        0
  0
POLYLINE
  5
143
330
13D
100
AcDbEntity
  8
_U+30EC_U+30A4_U+30E4_U+30FC 1
370
     0
100
AcDb2dPolyline
 66
     1
 10
0.0
 20
0.0
 30
0.0
  0
VERTEX
  5
144
330
143
100
AcDbEntity
  8
_U+30EC_U+30A4_U+30E4_U+30FC 1
370
     0
100
AcDbVertex
100
AcDb2dVertex
 10
81.90094398994144
 20
-78.04450410375277
 30
0.0
  0
VERTEX
  5
145
330
143
100
AcDbEntity
  8
_U+30EC_U+30A4_U+30E4_U+30FC 1
370
     0
100
AcDbVertex
100
AcDb2dVertex
 10
81.73799097348912
 20
-78.04450410375277
 30
0.0
  0
VERTEX
  5
146
330
143
100
AcDbEntity
  8
_U+30EC_U+30A4_U+30E4_U+30FC 1
370
     0
100
AcDbVertex
100
AcDb2dVertex
 10
82.5417317501979
 20
-76.50024005248953
 30
0.0
  0
VERTEX
  5
147
330
143
100
AcDbEntity
  8
_U+30EC_U+30A4_U+30E4_U+30FC 1
370
     0
100
AcDbVertex
100
AcDb2dVertex
 10
82.7070963334899
 20
-76.50024005248953
 30
0.0
  0
VERTEX
  5
148
330
143
100
AcDbEntity
  8
_U+30EC_U+30A4_U+30E4_U+30FC 1
370
     0
100
AcDbVertex
100
AcDb2dVertex
 10
81.90094398994144
 20
-78.04450410375277
 30
0.0
  0
SEQEND
  5
149
330
143
100
AcDbEntity
  8
_U+30EC_U+30A4_U+30E4_U+30FC 1
370
     0
  0
HATCH
  5
14A
330
13D
100
AcDbEntity
  8
_U+30EC_U+30A4_U+30E4_U+30FC 1
 62
   179
420
  2234388
100
AcDbHatch
 10
0.0
 20
0.0
 30
0.0
210
0.0
220
0.0
230
1.0
  2
SOLID
 70
     1
 71
     0
 91
        1
 92
        1
 93
        4
 72
     1
 10
81.90094398994144
 20
-78.04450410375277
 11
81.73799097348912
 21
-78.04450410375277
 72
     1
 10
81.73799097348912
 20
-78.04450410375277
 11
82.5417317501979
 21
-76.50024005248953
 72
     1
 10
82.5417317501979
 20
-76.50024005248953
 11
82.7070963334899
 21
-76.50024005248953
 72
     1
 10
82.7070963334899
 20
-76.50024005248953
 11
81.90094398994144
 21
-78.04450410375277
 97
        0
 75
     2
 76
     1
 98
        0
  0
POLYLINE
  5
14B
330
13D
100
AcDbEntity
  8
_U+30EC_U+30A4_U+30E4_U+30FC 1
370
     0
100
AcDb2dPolyline
 66
     1
 10
0.0
 20
0.0
 30
0.0
  0
VERTEX
  5
14C
330
14B
100
AcDbEntity
  8
_U+30EC_U+30A4_U+30E4_U+30FC 1
370
     0
100
AcDbVertex
100
AcDb2dVertex
 10
83.67206757890838
 20
-77.6975829883881
 30
0.0
  0
VERTEX
  5
14D
330
14B
100
AcDbEntity
  8
_U+30EC_U+30A4_U+30E4_U+30FC 1
370
     0
100
AcDbVertex
100
AcDb2dVertex
 10
83.67206757890838
 20
-78.04450410375277
 30
0.0
  0
VERTEX
  5
14E
330
14B
100
AcDbEntity
  8
_U+30EC_U+30A4_U+30E4_U+30FC 1
370
     0
100
AcDbVertex
100
AcDb2dVertex
 10
83.45399303469206
 20
-78.04450410375277
 30
0.0
  0
VERTEX
  5
14F
330
14B
100
AcDbEntity
  8
_U+30EC_U+30A4_U+30E4_U+30FC 1
370
     0
100
AcDbVertex
100
AcDb2dVertex
 10
83.45399303469206
 20
-77.6975829883881
 30
0.0
  0
VERTEX
  5
150
330
14B
100
AcDbEntity
  8
_U+30EC_U+30A4_U+30E4_U+30FC 1
370
     0
100
AcDbVertex
100
AcDb2dVertex
 10
82.79839136384902
 20
-77.6975829883881
 30
0.0
  0
VERTEX
  5
151
330
14B
100
AcDbEntity
  8
_U+30EC_U+30A4_U+30E4_U+30FC 1
370
     0
100
AcDbVertex
100
AcDb2dVertex
 10
82.79839136384902
 20
-77.47330727229834
 30
0.0
  0
VERTEX
  5
152
330
14B
100
AcDbEntity
  8
_U+30EC_U+30A4_U+30E4_U+30FC 1
370
     0
100
AcDbVertex
100
AcDb2dVertex
 10
83.47741968399176
 20
-76.50024005248953
 30
0.0
  0
VERTEX
  5
153
330
14B
100
AcDbEntity
  8
_U+30EC_U+30A4_U+30E4_U+30FC 1
370
     0
100
AcDbVertex
100
AcDb2dVertex
 10
83.67206757890838
 20
-76.50024005248953
 30
0.0
  0
VERTEX
  5
154
330
14B
100
AcDbEntity
  8
_U+30EC_U+30A4_U+30E4_U+30FC 1
370
     0
100
AcDbVertex
100
AcDb2dVertex
 10
83.67206757890838
 20
-77.49862872411492
 30
0.0
  0
VERTEX
  5
155
330
14B
100
AcDbEntity
  8
_U+30EC_U+30A4_U+30E4_U+30FC 1
370
     0
100
AcDbVertex
100
AcDb2dVertex
 10
83.87946232712042
 20
-77.49862872411492
 30
0.0
  0
VERTEX
  5
156
330
14B
100
AcDbEntity
  8
_U+30EC_U+30A4_U+30E4_U+30FC 1
370
     0
100
AcDbVertex
100
AcDb2dVertex
 10
83.87946232712042
 20
-77.6975829883881
 30
0.0
  0
VERTEX
  5
157
330
14B
100
AcDbEntity
  8
_U+30EC_U+30A4_U+30E4_U+30FC 1
370
     0
100
AcDbVertex
100
AcDb2dVertex
 10
83.67206757890838
 20
-77.6975829883881
 30
0.0
  0
SEQEND
  5
158
330
14B
100
AcDbEntity
  8
_U+30EC_U+30A4_U+30E4_U+30FC 1
370
     0
  0
POLYLINE
  5
159
330
13D
100
AcDbEntity
  8
_U+30EC_U+30A4_U+30E4_U+30FC 1
370
     0
100
AcDb2dPolyline
 66
     1
 10
0.0
 20
0.0
 30
0.0
  0
VERTEX
  5
15A
330
159
100
AcDbEntity
  8
_U+30EC_U+30A4_U+30E4_U+30FC 1
370
     0
100
AcDbVertex
100
AcDb2dVertex
 10
83.45399303469206
 20
-76.84285479849763
 30
0.0
  0
VERTEX
  5
15B
330
159
100
AcDbEntity
  8
_U+30EC_U+30A4_U+30E4_U+30FC 1
370
     0
100
AcDbVertex
100
AcDb2dVertex
 10
82.99717337334793
 20
-77.49862872411492
 30
0.0
  0
VERTEX
  5
15C
330
159
100
AcDbEntity
  8
_U+30EC_U+30A4_U+30E4_U+30FC 1
370
     0
100
AcDbVertex
100
AcDb2dVertex
 10
83.45399303469206
 20
-77.49862872411492
 30
0.0
  0
VERTEX
  5
15D
330
159
100
AcDbEntity
  8
_U+30EC_U+30A4_U+30E4_U+30FC 1
370
     0
100
AcDbVertex
100
AcDb2dVertex
 10
83.45399303469206
 20
-76.84285479849763
 30
0.0
  0
SEQEND
  5
15E
330
159
100
AcDbEntity
  8
_U+30EC_U+30A4_U+30E4_U+30FC 1
370
     0
  0
HATCH
  5
15F
330
13D
100
AcDbEntity
  8
_U+30EC_U+30A4_U+30E4_U+30FC 1
 62
   179
420
  2234388
100
AcDbHatch
 10
0.0
 20
0.0
 30
0.0
210
0.0
220
0.0
230
1.0
  2
SOLID
 70
     1
 71
     0
 91
        2
 92
        1
 93
       11
 72
     1
 10
83.67206757890838
 20
-77.6975829883881
 11
83.67206757890838
 21
-78.04450410375277
 72
     1
 10
83.67206757890838
 20
-78.04450410375277
 11
83.45399303469206
 21
-78.04450410375277
 72
     1
 10
83.45399303469206
 20
-78.04450410375277
 11
83.45399303469206
 21
-77.6975829883881
 72
     1
 10
83.45399303469206
 20
-77.6975829883881
 11
82.79839136384902
 21
-77.6975829883881
 72
     1
 10
82.79839136384902
 20
-77.6975829883881
 11
82.79839136384902
 21
-77.47330727229834
 72
     1
 10
82.79839136384902
 20
-77.47330727229834
 11
83.47741968399176
 21
-76.50024005248953
 72
     1
 10
83.47741968399176
 20
-76.50024005248953
 11
83.67206757890838
 21
-76.50024005248953
 72
     1
 10
83.67206757890838
 20
-76.50024005248953
 11
83.67206757890838
 21
-77.49862872411492
 72
     1
 10
83.67206757890838
 20
-77.49862872411492
 11
83.87946232712042
 21
-77.49862872411492
 72
     1
 10
83.87946232712042
 20
-77.49862872411492
 11
83.87946232712042
 21
-77.6975829883881
 72
     1
 10
83.87946232712042
 20
-77.6975829883881
 11
83.67206757890838
 21
-77.6975829883881
 97
        0
 92
        1
 93
        3
 72
     1
 10
83.45399303469206
 20
-76.84285479849763
 11
82.99717337334793
 21
-77.49862872411492
 72
     1
 10
82.99717337334793
 20
-77.49862872411492
 11
83.45399303469206
 21
-77.49862872411492
 72
     1
 10
83.45399303469206
 20
-77.49862872411492
 11
83.45399303469206
 21
-76.84285479849763
 97
        0
 75
     2
 76
     1
 98
        0
  0
SPLINE
  5
160
330
13D
100
AcDbEntity
  8
_U+30EC_U+30A4_U+30E4_U+30FC 1
370
     0
100
AcDbSpline
210
0.0
220
0.0
230
1.0
 70
    11
 71
     3
 72
    62
 73
    58
 74
     0
 42
0.0000000001
 43
0.0000000001
 12
1.0
 22
0.0
 32
0.0
 13
1.0
 23
0.0
 33
0.0
 40
0.0
 40
0.0
 40
0.0
 40
0.0
 40
1.0
 40
1.0
 40
1.0
 40
2.0
 40
2.0
 40
2.0
 40
3.0
 40
3.0
 40
3.0
 40
4.0
 40
4.0
 40
4.0
 40
5.0
 40
5.0
 40
5.0
 40
6.0
 40
6.0
 40
6.0
 40
7.0
 40
7.0
 40
7.0
 40
8.0
 40
8.0
 40
8.0
 40
9.0
 40
9.0
 40
9.0
 40
10.0
 40
10.0
 40
10.0
 40
11.0
 40
11.0
 40
11.0
 40
12.0
 40
12.0
 40
12.0
 40
13.0
 40
13.0
 40
13.0
 40
14.0
 40
14.0
 40
14.0
 40
15.0
 40
15.0
 40
15.0
 40
16.0
 40
16.0
 40
16.0
 40
17.0
 40
17.0
 40
17.0
 40
18.0
 40
18.0
 40
18.0
 40
19.0
 40
19.0
 40
19.0
 40
19.0
 10
85.82008461396165
 20
-76.83028019997646
 30
0.0
 10
85.82008461396165
 20
-76.83028019997646
 30
0.0
 10
85.82008461396165
 20
-77.88155108730045
 30
0.0
 10
85.82008461396165
 20
-77.88155108730045
 30
0.0
 10
85.82008461396165
 20
-78.04881047310933
 30
0.0
 10
85.82008461396165
 20
-78.06775849827821
 30
0.0
 10
85.80492619382655
 20
-78.09738631945135
 30
0.0
 10
85.77564288220192
 20
-78.15664196179765
 30
0.0
 10
85.72258841172908
 20
-78.19901663626622
 30
0.0
 10
85.390481206951
 20
-78.19677732420081
 30
0.0
 10
85.390481206951
 20
-78.19677732420081
 30
0.0
 10
85.31227753943583
 20
-77.96406112417218
 30
0.0
 10
85.31227753943583
 20
-77.96406112417218
 30
0.0
 10
85.41804197083299
 20
-77.98524846140647
 30
0.0
 10
85.45421547342812
 20
-77.99162188805418
 30
0.0
 10
85.50692543435244
 20
-77.99162188805418
 30
0.0
 10
85.57892792999417
 20
-77.99162188805418
 30
0.0
 10
85.59994301245419
 20
-77.96836749352875
 30
0.0
 10
85.59994301245419
 20
-77.89223088330472
 30
0.0
 10
85.59994301245419
 20
-77.89223088330472
 30
0.0
 10
85.59994301245419
 20
-77.32310110914145
 30
0.0
 10
85.59994301245419
 20
-77.32310110914145
 30
0.0
 10
85.59994301245419
 20
-77.32310110914145
 30
0.0
 10
84.36005314731277
 20
-77.32310110914145
 30
0.0
 10
84.36005314731277
 20
-77.32310110914145
 30
0.0
 10
84.36005314731277
 20
-77.32310110914145
 30
0.0
 10
84.36005314731277
 20
-77.44161239383405
 30
0.0
 10
84.36005314731277
 20
-77.44161239383405
 30
0.0
 10
84.36005314731277
 20
-77.69327661903155
 30
0.0
 10
84.3645317714436
 20
-77.94511309900331
 30
0.0
 10
84.38761391119476
 20
-78.19677732420081
 30
0.0
 10
84.38761391119476
 20
-78.19677732420081
 30
0.0
 10
84.1275092020584
 20
-78.19677732420081
 30
0.0
 10
84.1275092020584
 20
-78.19677732420081
 30
0.0
 10
84.13405488348037
 20
-78.12270777126794
 30
0.0
 10
84.14025605535383
 20
-78.03813067710506
 30
0.0
 10
84.14439016993613
 20
-77.8899915712393
 30
0.0
 10
84.1509358513581
 20
-77.56425779310894
 30
0.0
 10
84.15300290864926
 20
-77.52825654528807
 30
0.0
 10
84.15300290864926
 20
-77.4500528777729
 30
0.0
 10
84.15300290864926
 20
-77.4500528777729
 30
0.0
 10
84.15300290864926
 20
-76.9169243514305
 30
0.0
 10
84.15300290864926
 20
-76.9169243514305
 30
0.0
 10
84.15300290864926
 20
-76.73071694045274
 30
0.0
 10
84.14852428451843
 20
-76.54468178424925
 30
0.0
 10
84.13612194077153
 20
-76.36054143056265
 30
0.0
 10
84.28219398934613
 20
-76.3689819145015
 30
0.0
 10
84.40277233132987
 20
-76.37535534114922
 30
0.0
 10
84.70318465764365
 20
-76.37535534114922
 30
0.0
 10
84.70318465764365
 20
-76.37535534114922
 30
0.0
 10
85.21064722262095
 20
-76.37535534114922
 30
0.0
 10
85.21064722262095
 20
-76.37535534114922
 30
0.0
 10
85.35224064706472
 20
-76.37535534114922
 30
0.0
 10
85.61682398033192
 20
-76.3648477999192
 30
0.0
 10
85.82835284312625
 20
-76.35640731598035
 30
0.0
 10
85.82008461396165
 20
-76.50437416707183
 30
0.0
 10
85.82008461396165
 20
-76.67146129810645
 30
0.0
 10
85.82008461396165
 20
-76.83028019997646
 30
0.0
  0
POLYLINE
  5
161
330
13D
100
AcDbEntity
  8
_U+30EC_U+30A4_U+30E4_U+30FC 1
370
     0
100
AcDb2dPolyline
 66
     1
 10
0.0
 20
0.0
 30
0.0
  0
VERTEX
  5
162
330
161
100
AcDbEntity
  8
_U+30EC_U+30A4_U+30E4_U+30FC 1
370
     0
100
AcDbVertex
100
AcDb2dVertex
 10
84.88301864197369
 20
-76.55518932547926
 30
0.0
  0
VERTEX
  5
163
330
161
100
AcDbEntity
  8
_U+30EC_U+30A4_U+30E4_U+30FC 1
370
     0
100
AcDbVertex
100
AcDb2dVertex
 10
84.36005314731277
 20
-76.55518932547926
 30
0.0
  0
VERTEX
  5
164
330
161
100
AcDbEntity
  8
_U+30EC_U+30A4_U+30E4_U+30FC 1
370
     0
100
AcDbVertex
100
AcDb2dVertex
 10
84.36005314731277
 20
-77.1368936981637
 30
0.0
  0
VERTEX
  5
165
330
161
100
AcDbEntity
  8
_U+30EC_U+30A4_U+30E4_U+30FC 1
370
     0
100
AcDbVertex
100
AcDb2dVertex
 10
84.88301864197369
 20
-77.1368936981637
 30
0.0
  0
VERTEX
  5
166
330
161
100
AcDbEntity
  8
_U+30EC_U+30A4_U+30E4_U+30FC 1
370
     0
100
AcDbVertex
100
AcDb2dVertex
 10
84.88301864197369
 20
-76.55518932547926
 30
0.0
  0
SEQEND
  5
167
330
161
100
AcDbEntity
  8
_U+30EC_U+30A4_U+30E4_U+30FC 1
370
     0
  0
POLYLINE
  5
168
330
13D
100
AcDbEntity
  8
_U+30EC_U+30A4_U+30E4_U+30FC 1
370
     0
100
AcDb2dPolyline
 66
     1
 10
0.0
 20
0.0
 30
0.0
  0
VERTEX
  5
169
330
168
100
AcDbEntity
  8
_U+30EC_U+30A4_U+30E4_U+30FC 1
370
     0
100
AcDbVertex
100
AcDb2dVertex
 10
85.59994301245419
 20
-76.55518932547926
 30
0.0
  0
VERTEX
  5
16A
330
168
100
AcDbEntity
  8
_U+30EC_U+30A4_U+30E4_U+30FC 1
370
     0
100
AcDbVertex
100
AcDb2dVertex
 10
85.08386770876376
 20
-76.55518932547926
 30
0.0
  0
VERTEX
  5
16B
330
168
100
AcDbEntity
  8
_U+30EC_U+30A4_U+30E4_U+30FC 1
370
     0
100
AcDbVertex
100
AcDb2dVertex
 10
85.08386770876376
 20
-77.1368936981637
 30
0.0
  0
VERTEX
  5
16C
330
168
100
AcDbEntity
  8
_U+30EC_U+30A4_U+30E4_U+30FC 1
370
     0
100
AcDbVertex
100
AcDb2dVertex
 10
85.59994301245419
 20
-77.1368936981637
 30
0.0
  0
VERTEX
  5
16D
330
168
100
AcDbEntity
  8
_U+30EC_U+30A4_U+30E4_U+30FC 1
370
     0
100
AcDbVertex
100
AcDb2dVertex
 10
85.59994301245419
 20
-76.55518932547926
 30
0.0
  0
SEQEND
  5
16E
330
168
100
AcDbEntity
  8
_U+30EC_U+30A4_U+30E4_U+30FC 1
370
     0
  0
HATCH
  5
16F
330
13D
100
AcDbEntity
  8
_U+30EC_U+30A4_U+30E4_U+30FC 1
 62
   179
420
  2234388
100
AcDbHatch
 10
0.0
 20
0.0
 30
0.0
210
0.0
220
0.0
230
1.0
  2
SOLID
 70
     1
 71
     0
 91
        3
 92
        1
 93
        1
 72
     4
 94
        3
 73
     0
 74
     1
 95
       62
 96
       58
 40
0.0
 40
0.0
 40
0.0
 40
0.0
 40
1.0
 40
1.0
 40
1.0
 40
2.0
 40
2.0
 40
2.0
 40
3.0
 40
3.0
 40
3.0
 40
4.0
 40
4.0
 40
4.0
 40
5.0
 40
5.0
 40
5.0
 40
6.0
 40
6.0
 40
6.0
 40
7.0
 40
7.0
 40
7.0
 40
8.0
 40
8.0
 40
8.0
 40
9.0
 40
9.0
 40
9.0
 40
10.0
 40
10.0
 40
10.0
 40
11.0
 40
11.0
 40
11.0
 40
12.0
 40
12.0
 40
12.0
 40
13.0
 40
13.0
 40
13.0
 40
14.0
 40
14.0
 40
14.0
 40
15.0
 40
15.0
 40
15.0
 40
16.0
 40
16.0
 40
16.0
 40
17.0
 40
17.0
 40
17.0
 40
18.0
 40
18.0
 40
18.0
 40
19.0
 40
19.0
 40
19.0
 40
19.0
 10
85.82008461396165
 20
-76.83028019997646
 10
85.82008461396165
 20
-76.83028019997646
 10
85.82008461396165
 20
-77.88155108730045
 10
85.82008461396165
 20
-77.88155108730045
 10
85.82008461396165
 20
-78.04881047310933
 10
85.82008461396165
 20
-78.06775849827821
 10
85.80492619382655
 20
-78.09738631945135
 10
85.77564288220192
 20
-78.15664196179765
 10
85.72258841172908
 20
-78.19901663626622
 10
85.390481206951
 20
-78.19677732420081
 10
85.390481206951
 20
-78.19677732420081
 10
85.31227753943583
 20
-77.96406112417218
 10
85.31227753943583
 20
-77.96406112417218
 10
85.41804197083299
 20
-77.98524846140647
 10
85.45421547342812
 20
-77.99162188805418
 10
85.50692543435244
 20
-77.99162188805418
 10
85.57892792999417
 20
-77.99162188805418
 10
85.59994301245419
 20
-77.96836749352875
 10
85.59994301245419
 20
-77.89223088330472
 10
85.59994301245419
 20
-77.89223088330472
 10
85.59994301245419
 20
-77.32310110914145
 10
85.59994301245419
 20
-77.32310110914145
 10
85.59994301245419
 20
-77.32310110914145
 10
84.36005314731277
 20
-77.32310110914145
 10
84.36005314731277
 20
-77.32310110914145
 10
84.36005314731277
 20
-77.32310110914145
 10
84.36005314731277
 20
-77.44161239383405
 10
84.36005314731277
 20
-77.44161239383405
 10
84.36005314731277
 20
-77.69327661903155
 10
84.3645317714436
 20
-77.94511309900331
 10
84.38761391119476
 20
-78.19677732420081
 10
84.38761391119476
 20
-78.19677732420081
 10
84.1275092020584
 20
-78.19677732420081
 10
84.1275092020584
 20
-78.19677732420081
 10
84.13405488348037
 20
-78.12270777126794
 10
84.14025605535383
 20
-78.03813067710506
 10
84.14439016993613
 20
-77.8899915712393
 10
84.1509358513581
 20
-77.56425779310894
 10
84.15300290864926
 20
-77.52825654528807
 10
84.15300290864926
 20
-77.4500528777729
 10
84.15300290864926
 20
-77.4500528777729
 10
84.15300290864926
 20
-76.9169243514305
 10
84.15300290864926
 20
-76.9169243514305
 10
84.15300290864926
 20
-76.73071694045274
 10
84.14852428451843
 20
-76.54468178424925
 10
84.13612194077153
 20
-76.36054143056265
 10
84.28219398934613
 20
-76.3689819145015
 10
84.40277233132987
 20
-76.37535534114922
 10
84.70318465764365
 20
-76.37535534114922
 10
84.70318465764365
 20
-76.37535534114922
 10
85.21064722262095
 20
-76.37535534114922
 10
85.21064722262095
 20
-76.37535534114922
 10
85.35224064706472
 20
-76.37535534114922
 10
85.61682398033192
 20
-76.3648477999192
 10
85.82835284312625
 20
-76.35640731598035
 10
85.82008461396165
 20
-76.50437416707183
 10
85.82008461396165
 20
-76.67146129810645
 10
85.82008461396165
 20
-76.83028019997646
 97
        0
 97
        0
 92
        1
 93
        4
 72
     1
 10
84.88301864197369
 20
-76.55518932547926
 11
84.36005314731277
 21
-76.55518932547926
 72
     1
 10
84.36005314731277
 20
-76.55518932547926
 11
84.36005314731277
 21
-77.1368936981637
 72
     1
 10
84.36005314731277
 20
-77.1368936981637
 11
84.88301864197369
 21
-77.1368936981637
 72
     1
 10
84.88301864197369
 20
-77.1368936981637
 11
84.88301864197369
 21
-76.55518932547926
 97
        0
 92
        1
 93
        4
 72
     1
 10
85.59994301245419
 20
-76.55518932547926
 11
85.08386770876376
 21
-76.55518932547926
 72
     1
 10
85.08386770876376
 20
-76.55518932547926
 11
85.08386770876376
 21
-77.1368936981637
 72
     1
 10
85.08386770876376
 20
-77.1368936981637
 11
85.59994301245419
 21
-77.1368936981637
 72
     1
 10
85.59994301245419
 20
-77.1368936981637
 11
85.59994301245419
 21
-76.55518932547926
 97
        0
 75
     2
 76
     1
 98
        0
  0
ENDBLK
  5
140
330
13D
100
AcDbEntity
  8
0
100
AcDbBlockEnd
  0
BLOCK
  5
18A
330
188
100
AcDbEntity
  8
0
100
AcDbBlockBegin
  2
block 9
 70
     0
 10
0.0
 20
0.0
 30
0.0
  3
block 9
  1

  0
SPLINE
  5
18C
330
188
100
AcDbEntity
  8
_U+30EC_U+30A4_U+30E4_U+30FC 1
370
     0
100
AcDbSpline
210
0.0
220
0.0
230
1.0
 70
    11
 71
     3
 72
    44
 73
    40
 74
     0
 42
0.0000000001
 43
0.0000000001
 12
1.0
 22
0.0
 32
0.0
 13
1.0
 23
0.0
 33
0.0
 40
0.0
 40
0.0
 40
0.0
 40
0.0
 40
1.0
 40
1.0
 40
1.0
 40
2.0
 40
2.0
 40
2.0
 40
3.0
 40
3.0
 40
3.0
 40
4.0
 40
4.0
 40
4.0
 40
5.0
 40
5.0
 40
5.0
 40
6.0
 40
6.0
 40
6.0
 40
7.0
 40
7.0
 40
7.0
 40
8.0
 40
8.0
 40
8.0
 40
9.0
 40
9.0
 40
9.0
 40
10.0
 40
10.0
 40
10.0
 40
11.0
 40
11.0
 40
11.0
 40
12.0
 40
12.0
 40
12.0
 40
13.0
 40
13.0
 40
13.0
 40
13.0
 10
66.9816134815185
 20
-95.46152883898185
 30
0.0
 10
67.02881128966641
 20
-95.72714570089461
 30
0.0
 10
67.05464950580578
 20
-95.84324541874753
 30
0.0
 10
67.16213648494558
 20
-95.94969886924174
 30
0.0
 10
67.16213648494558
 20
-95.94969886924174
 30
0.0
 10
67.50354544753384
 20
-95.24999997618751
 30
0.0
 10
67.50354544753384
 20
-95.24999997618751
 30
0.0
 10
67.50354544753384
 20
-95.24999997618751
 30
0.0
 10
67.68820256554324
 20
-95.34026147790105
 30
0.0
 10
67.68820256554324
 20
-95.34026147790105
 30
0.0
 10
67.68820256554324
 20
-95.34026147790105
 30
0.0
 10
67.23758407607255
 20
-96.26423608704506
 30
0.0
 10
67.23758407607255
 20
-96.26423608704506
 30
0.0
 10
66.92993704923974
 20
-96.07888994993861
 30
0.0
 10
66.88859590341674
 20
-95.98587237183688
 30
0.0
 10
66.78937715344155
 20
-95.50907115667829
 30
0.0
 10
66.7225423010277
 20
-95.19177786248679
 30
0.0
 10
66.69050291301488
 20
-95.10289439896734
 30
0.0
 10
66.5668239850944
 20
-95.04294973752398
 30
0.0
 10
66.46037053460019
 20
-94.99092879569672
 30
0.0
 10
66.31085339054034
 20
-94.99816349621574
 30
0.0
 10
66.2247260034091
 20
-95.17489689460906
 30
0.0
 10
66.11069334284733
 20
-95.40881887805752
 30
0.0
 10
66.31429848602559
 20
-95.51733938584289
 30
0.0
 10
66.41730684103456
 20
-95.57246091360689
 30
0.0
 10
66.41730684103456
 20
-95.57246091360689
 30
0.0
 10
66.31877711015642
 20
-95.773998999494
 30
0.0
 10
66.31877711015642
 20
-95.773998999494
 30
0.0
 10
66.2081895450799
 20
-95.71060924256541
 30
0.0
 10
66.11207138104143
 20
-95.65204261931616
 30
0.0
 10
66.04110241404528
 20
-95.52767467229864
 30
0.0
 10
65.94463974045829
 20
-95.35817597442436
 30
0.0
 10
65.99597166318851
 20
-95.17627493280315
 30
0.0
 10
66.04695907637021
 20
-95.07154403005157
 30
0.0
 10
66.16857094699952
 20
-94.822463626468
 30
0.0
 10
66.4245415415536
 20
-94.71669919507083
 30
0.0
 10
66.66983234010338
 20
-94.83658851795752
 30
0.0
 10
66.87516003102427
 20
-94.9368407965783
 30
0.0
 10
66.91340059091054
 20
-95.0846353928955
 30
0.0
 10
66.9816134815185
 20
-95.46152883898185
 30
0.0
  0
HATCH
  5
18D
330
188
100
AcDbEntity
  8
_U+30EC_U+30A4_U+30E4_U+30FC 1
 62
   179
420
  2234388
100
AcDbHatch
 10
0.0
 20
0.0
 30
0.0
210
0.0
220
0.0
230
1.0
  2
SOLID
 70
     1
 71
     0
 91
        1
 92
        1
 93
        1
 72
     4
 94
        3
 73
     0
 74
     1
 95
       44
 96
       40
 40
0.0
 40
0.0
 40
0.0
 40
0.0
 40
1.0
 40
1.0
 40
1.0
 40
2.0
 40
2.0
 40
2.0
 40
3.0
 40
3.0
 40
3.0
 40
4.0
 40
4.0
 40
4.0
 40
5.0
 40
5.0
 40
5.0
 40
6.0
 40
6.0
 40
6.0
 40
7.0
 40
7.0
 40
7.0
 40
8.0
 40
8.0
 40
8.0
 40
9.0
 40
9.0
 40
9.0
 40
10.0
 40
10.0
 40
10.0
 40
11.0
 40
11.0
 40
11.0
 40
12.0
 40
12.0
 40
12.0
 40
13.0
 40
13.0
 40
13.0
 40
13.0
 10
66.9816134815185
 20
-95.46152883898185
 10
67.02881128966641
 20
-95.72714570089461
 10
67.05464950580578
 20
-95.84324541874753
 10
67.16213648494558
 20
-95.94969886924174
 10
67.16213648494558
 20
-95.94969886924174
 10
67.50354544753384
 20
-95.24999997618751
 10
67.50354544753384
 20
-95.24999997618751
 10
67.50354544753384
 20
-95.24999997618751
 10
67.68820256554324
 20
-95.34026147790105
 10
67.68820256554324
 20
-95.34026147790105
 10
67.68820256554324
 20
-95.34026147790105
 10
67.23758407607255
 20
-96.26423608704506
 10
67.23758407607255
 20
-96.26423608704506
 10
66.92993704923974
 20
-96.07888994993861
 10
66.88859590341674
 20
-95.98587237183688
 10
66.78937715344155
 20
-95.50907115667829
 10
66.7225423010277
 20
-95.19177786248679
 10
66.69050291301488
 20
-95.10289439896734
 10
66.5668239850944
 20
-95.04294973752398
 10
66.46037053460019
 20
-94.99092879569672
 10
66.31085339054034
 20
-94.99816349621574
 10
66.2247260034091
 20
-95.17489689460906
 10
66.11069334284733
 20
-95.40881887805752
 10
66.31429848602559
 20
-95.51733938584289
 10
66.41730684103456
 20
-95.57246091360689
 10
66.41730684103456
 20
-95.57246091360689
 10
66.31877711015642
 20
-95.773998999494
 10
66.31877711015642
 20
-95.773998999494
 10
66.2081895450799
 20
-95.71060924256541
 10
66.11207138104143
 20
-95.65204261931616
 10
66.04110241404528
 20
-95.52767467229864
 10
65.94463974045829
 20
-95.35817597442436
 10
65.99597166318851
 20
-95.17627493280315
 10
66.04695907637021
 20
-95.07154403005157
 10
66.16857094699952
 20
-94.822463626468
 10
66.4245415415536
 20
-94.71669919507083
 10
66.66983234010338
 20
-94.83658851795752
 10
66.87516003102427
 20
-94.9368407965783
 10
66.91340059091054
 20
-95.0846353928955
 10
66.9816134815185
 20
-95.46152883898185
 97
        0
 97
        0
 75
     2
 76
     1
 98
        0
  0
SPLINE
  5
18E
330
188
100
AcDbEntity
  8
_U+30EC_U+30A4_U+30E4_U+30FC 1
370
     0
100
AcDbSpline
210
0.0
220
0.0
230
1.0
 70
    11
 71
     3
 72
    29
 73
    25
 74
     0
 42
0.0000000001
 43
0.0000000001
 12
1.0
 22
0.0
 32
0.0
 13
1.0
 23
0.0
 33
0.0
 40
0.0
 40
0.0
 40
0.0
 40
0.0
 40
1.0
 40
1.0
 40
1.0
 40
2.0
 40
2.0
 40
2.0
 40
3.0
 40
3.0
 40
3.0
 40
4.0
 40
4.0
 40
4.0
 40
5.0
 40
5.0
 40
5.0
 40
6.0
 40
6.0
 40
6.0
 40
7.0
 40
7.0
 40
7.0
 40
8.0
 40
8.0
 40
8.0
 40
8.0
 10
67.99412704463342
 20
-94.30742185142314
 30
0.0
 10
68.13503144998013
 20
-94.49621308401484
 30
0.0
 10
68.07612031718236
 20
-94.66019962911274
 30
0.0
 10
68.02513290400067
 20
-94.76493053186432
 30
0.0
 10
67.95450844655305
 20
-94.9092800326963
 30
0.0
 10
67.85081107244702
 20
-95.01642250228757
 30
0.0
 10
67.64548338152613
 20
-95.02227916461248
 30
0.0
 10
67.42499727047014
 20
-95.02985837468005
 30
0.0
 10
67.20416664986563
 20
-94.94338647800026
 30
0.0
 10
67.0577500917425
 20
-94.87172849190708
 30
0.0
 10
66.92821450149711
 20
-94.80902775407553
 30
0.0
 10
66.70945093818375
 20
-94.6832817688639
 30
0.0
 10
66.57681476200163
 20
-94.50103621769419
 30
0.0
 10
66.44176701897985
 20
-94.3150010614907
 30
0.0
 10
66.49137639396744
 20
-94.16031627420298
 30
0.0
 10
66.54787595992553
 20
-94.04421655635007
 30
0.0
 10
66.61746688872758
 20
-93.90158960326072
 30
0.0
 10
66.72047524373654
 20
-93.79169105728124
 30
0.0
 10
66.92545842510891
 20
-93.78583439495632
 30
0.0
 10
67.14215493113113
 20
-93.78101126127697
 30
0.0
 10
67.35781790850777
 20
-93.86024845743772
 30
0.0
 10
67.5138807339896
 20
-93.93638506766175
 30
0.0
 10
67.66753199263174
 20
-94.0114881492402
 30
0.0
 10
67.8656249830336
 20
-94.13172198167541
 30
0.0
 10
67.99412704463342
 20
-94.30742185142314
 30
0.0
  0
SPLINE
  5
18F
330
188
100
AcDbEntity
  8
_U+30EC_U+30A4_U+30E4_U+30FC 1
370
     0
100
AcDbSpline
210
0.0
220
0.0
230
1.0
 70
    11
 71
     3
 72
    17
 73
    13
 74
     0
 42
0.0000000001
 43
0.0000000001
 12
1.0
 22
0.0
 32
0.0
 13
1.0
 23
0.0
 33
0.0
 40
0.0
 40
0.0
 40
0.0
 40
0.0
 40
1.0
 40
1.0
 40
1.0
 40
2.0
 40
2.0
 40
2.0
 40
3.0
 40
3.0
 40
3.0
 40
4.0
 40
4.0
 40
4.0
 40
4.0
 10
66.72081975328507
 20
-94.12862139573868
 30
0.0
 10
66.61161022640266
 20
-94.35289711182844
 30
0.0
 10
66.84587671939964
 20
-94.51929522376601
 30
0.0
 10
67.15593531307213
 20
-94.67019040601996
 30
0.0
 10
67.44291176699345
 20
-94.81040579226962
 30
0.0
 10
67.7360893927882
 20
-94.91306963773008
 30
0.0
 10
67.85012205334998
 20
-94.67949216383013
 30
0.0
 10
67.95864256113535
 20
-94.45693899548299
 30
0.0
 10
67.72747665407508
 20
-94.2901963739969
 30
0.0
 10
67.41569551265997
 20
-94.13792315354885
 30
0.0
 10
67.12837454919013
 20
-93.99805227684772
 30
0.0
 10
66.8341633947498
 20
-93.89676646958137
 30
0.0
 10
66.72081975328507
 20
-94.12862139573868
 30
0.0
  0
HATCH
  5
190
330
188
100
AcDbEntity
  8
_U+30EC_U+30A4_U+30E4_U+30FC 1
 62
   179
420
  2234388
100
AcDbHatch
 10
0.0
 20
0.0
 30
0.0
210
0.0
220
0.0
230
1.0
  2
SOLID
 70
     1
 71
     0
 91
        2
 92
        1
 93
        1
 72
     4
 94
        3
 73
     0
 74
     1
 95
       29
 96
       25
 40
0.0
 40
0.0
 40
0.0
 40
0.0
 40
1.0
 40
1.0
 40
1.0
 40
2.0
 40
2.0
 40
2.0
 40
3.0
 40
3.0
 40
3.0
 40
4.0
 40
4.0
 40
4.0
 40
5.0
 40
5.0
 40
5.0
 40
6.0
 40
6.0
 40
6.0
 40
7.0
 40
7.0
 40
7.0
 40
8.0
 40
8.0
 40
8.0
 40
8.0
 10
67.99412704463342
 20
-94.30742185142314
 10
68.13503144998013
 20
-94.49621308401484
 10
68.07612031718236
 20
-94.66019962911274
 10
68.02513290400067
 20
-94.76493053186432
 10
67.95450844655305
 20
-94.9092800326963
 10
67.85081107244702
 20
-95.01642250228757
 10
67.64548338152613
 20
-95.02227916461248
 10
67.42499727047014
 20
-95.02985837468005
 10
67.20416664986563
 20
-94.94338647800026
 10
67.0577500917425
 20
-94.87172849190708
 10
66.92821450149711
 20
-94.80902775407553
 10
66.70945093818375
 20
-94.6832817688639
 10
66.57681476200163
 20
-94.50103621769419
 10
66.44176701897985
 20
-94.3150010614907
 10
66.49137639396744
 20
-94.16031627420298
 10
66.54787595992553
 20
-94.04421655635007
 10
66.61746688872758
 20
-93.90158960326072
 10
66.72047524373654
 20
-93.79169105728124
 10
66.92545842510891
 20
-93.78583439495632
 10
67.14215493113113
 20
-93.78101126127697
 10
67.35781790850777
 20
-93.86024845743772
 10
67.5138807339896
 20
-93.93638506766175
 10
67.66753199263174
 20
-94.0114881492402
 10
67.8656249830336
 20
-94.13172198167541
 10
67.99412704463342
 20
-94.30742185142314
 97
        0
 97
        0
 92
        1
 93
        1
 72
     4
 94
        3
 73
     0
 74
     1
 95
       17
 96
       13
 40
0.0
 40
0.0
 40
0.0
 40
0.0
 40
1.0
 40
1.0
 40
1.0
 40
2.0
 40
2.0
 40
2.0
 40
3.0
 40
3.0
 40
3.0
 40
4.0
 40
4.0
 40
4.0
 40
4.0
 10
66.72081975328507
 20
-94.12862139573868
 10
66.61161022640266
 20
-94.35289711182844
 10
66.84587671939964
 20
-94.51929522376601
 10
67.15593531307213
 20
-94.67019040601996
 10
67.44291176699345
 20
-94.81040579226962
 10
67.7360893927882
 20
-94.91306963773008
 10
67.85012205334998
 20
-94.67949216383013
 10
67.95864256113535
 20
-94.45693899548299
 10
67.72747665407508
 20
-94.2901963739969
 10
67.41569551265997
 20
-94.13792315354885
 10
67.12837454919013
 20
-93.99805227684772
 10
66.8341633947498
 20
-93.89676646958137
 10
66.72081975328507
 20
-94.12862139573868
 97
        0
 97
        0
 75
     2
 76
     1
 98
        0
  0
ENDBLK
  5
18B
330
188
100
AcDbEntity
  8
0
100
AcDbBlockEnd
  0
ENDSEC
  0
SECTION
  2
ENTITIES
  0
INSERT
  5
42
330
1F
100
AcDbEntity
  8
_U+30EC_U+30A4_U+30E4_U+30FC 1
100
AcDbBlockReference
  2
block 2
 10
0.0
 20
0.0
 30
0.0
  0
INSERT
  5
BF
330
1F
100
AcDbEntity
  8
_U+30EC_U+30A4_U+30E4_U+30FC 1
100
AcDbBlockReference
  2
block 3
 10
0.0
 20
0.0
 30
0.0
  0
POLYLINE
  5
191
330
1F
100
AcDbEntity
  8
_U+30EC_U+30A4_U+30E4_U+30FC 1
 62
   179
420
  2234388
370
     9
100
AcDb2dPolyline
 66
     1
 10
0.0
 20
0.0
 30
0.0
  0
VERTEX
  5
192
330
191
100
AcDbEntity
  8
_U+30EC_U+30A4_U+30E4_U+30FC 1
 62
   179
420
  2234388
370
     9
100
AcDbVertex
100
AcDb2dVertex
 10
72.15441315918756
 20
-87.4406641448065
 30
0.0
  0
VERTEX
  5
193
330
191
100
AcDbEntity
  8
_U+30EC_U+30A4_U+30E4_U+30FC 1
 62
   179
420
  2234388
370
     9
100
AcDbVertex
100
AcDb2dVertex
 10
71.49295484272943
 20
-87.3965669225953
 30
0.0
  0
VERTEX
  5
194
330
191
100
AcDbEntity
  8
_U+30EC_U+30A4_U+30E4_U+30FC 1
 62
   179
420
  2234388
370
     9
100
AcDbVertex
100
AcDb2dVertex
 10
71.8016353904099
 20
-87.66115025586248
 30
0.0
  0
VERTEX
  5
195
330
191
100
AcDbEntity
  8
_U+30EC_U+30A4_U+30E4_U+30FC 1
 62
   179
420
  2234388
370
     9
100
AcDbVertex
100
AcDb2dVertex
 10
71.8457326115071
 20
-88.23441414460807
 30
0.0
  0
VERTEX
  5
196
330
191
100
AcDbEntity
  8
_U+30EC_U+30A4_U+30E4_U+30FC 1
 62
   179
420
  2234388
370
     9
100
AcDbVertex
100
AcDb2dVertex
 10
72.15441315918756
 20
-87.4406641448065
 30
0.0
  0
SEQEND
  5
198
330
191
100
AcDbEntity
  8
_U+30EC_U+30A4_U+30E4_U+30FC 1
 62
   179
420
  2234388
370
     9
  0
HATCH
  5
197
330
1F
100
AcDbEntity
  8
_U+30EC_U+30A4_U+30E4_U+30FC 1
 62
   179
420
  2234388
100
AcDbHatch
 10
0.0
 20
0.0
 30
0.0
210
0.0
220
0.0
230
1.0
  2
SOLID
 70
     1
 71
     0
 91
        1
 92
        1
 93
        4
 72
     1
 10
72.15441315918756
 20
-87.4406641448065
 11
71.49295484272943
 21
-87.3965669225953
 72
     1
 10
71.49295484272943
 20
-87.3965669225953
 11
71.8016353904099
 21
-87.66115025586248
 72
     1
 10
71.8016353904099
 20
-87.66115025586248
 11
71.8457326115071
 21
-88.23441414460807
 72
     1
 10
71.8457326115071
 20
-88.23441414460807
 11
72.15441315918756
 21
-87.4406641448065
 97
        0
 75
     2
 76
     1
 98
        0
  0
SPLINE
  5
199
330
1F
100
AcDbEntity
  8
_U+30EC_U+30A4_U+30E4_U+30FC 1
370
     0
100
AcDbSpline
210
0.0
220
0.0
230
1.0
 70
    11
 71
     3
 72
    17
 73
    13
 74
     0
 42
0.0000000001
 43
0.0000000001
 12
1.0
 22
0.0
 32
0.0
 13
1.0
 23
0.0
 33
0.0
 40
0.0
 40
0.0
 40
0.0
 40
0.0
 40
1.0
 40
1.0
 40
1.0
 40
2.0
 40
2.0
 40
2.0
 40
3.0
 40
3.0
 40
3.0
 40
4.0
 40
4.0
 40
4.0
 40
4.0
 10
38.46448901868913
 20
-71.04337664890593
 30
0.0
 10
38.46448901868913
 20
-71.17499803776185
 30
0.0
 10
38.35837346584081
 20
-71.28107831551303
 30
0.0
 10
38.22678735808674
 20
-71.28107831551303
 30
0.0
 10
38.09484847256389
 20
-71.28107831551303
 30
0.0
 10
37.98802736417802
 20
-71.17499803776185
 30
0.0
 10
37.98802736417802
 20
-71.04337664890593
 30
0.0
 10
37.98802736417802
 20
-70.91179053782754
 30
0.0
 10
38.09484847256389
 20
-70.80496942674333
 30
0.0
 10
38.22678735808674
 20
-70.80496942674333
 30
0.0
 10
38.35837346584081
 20
-70.80496942674333
 30
0.0
 10
38.46448901868913
 20
-70.91179053782754
 30
0.0
 10
38.46448901868913
 20
-71.04337664890593
 30
0.0
  0
HATCH
  5
19A
330
1F
100
AcDbEntity
  8
_U+30EC_U+30A4_U+30E4_U+30FC 1
 62
   179
420
  2234388
100
AcDbHatch
 10
0.0
 20
0.0
 30
0.0
210
0.0
220
0.0
230
1.0
  2
SOLID
 70
     1
 71
     0
 91
        1
 92
        1
 93
        1
 72
     4
 94
        3
 73
     0
 74
     1
 95
       17
 96
       13
 40
0.0
 40
0.0
 40
0.0
 40
0.0
 40
1.0
 40
1.0
 40
1.0
 40
2.0
 40
2.0
 40
2.0
 40
3.0
 40
3.0
 40
3.0
 40
4.0
 40
4.0
 40
4.0
 40
4.0
 10
38.46448901868913
 20
-71.04337664890593
 10
38.46448901868913
 20
-71.17499803776185
 10
38.35837346584081
 20
-71.28107831551303
 10
38.22678735808674
 20
-71.28107831551303
 10
38.09484847256389
 20
-71.28107831551303
 10
37.98802736417802
 20
-71.17499803776185
 10
37.98802736417802
 20
-71.04337664890593
 10
37.98802736417802
 20
-70.91179053782754
 10
38.09484847256389
 20
-70.80496942674333
 10
38.22678735808674
 20
-70.80496942674333
 10
38.35837346584081
 20
-70.80496942674333
 10
38.46448901868913
 20
-70.91179053782754
 10
38.46448901868913
 20
-71.04337664890593
 97
        0
 97
        0
 75
     2
 76
     1
 98
        0
  0
SPLINE
  5
19B
330
1F
100
AcDbEntity
  8
_U+30EC_U+30A4_U+30E4_U+30FC 1
370
     0
100
AcDbSpline
210
0.0
220
0.0
230
1.0
 70
    11
 71
     3
 72
    17
 73
    13
 74
     0
 42
0.0000000001
 43
0.0000000001
 12
1.0
 22
0.0
 32
0.0
 13
1.0
 23
0.0
 33
0.0
 40
0.0
 40
0.0
 40
0.0
 40
0.0
 40
1.0
 40
1.0
 40
1.0
 40
2.0
 40
2.0
 40
2.0
 40
3.0
 40
3.0
 40
3.0
 40
4.0
 40
4.0
 40
4.0
 40
4.0
 10
39.11285927992561
 20
-74.60286914801604
 30
0.0
 10
39.11285927992561
 20
-74.73445525909412
 30
0.0
 10
39.00674372707729
 20
-74.84057081462313
 30
0.0
 10
38.87515761932321
 20
-74.84057081462313
 30
0.0
 10
38.74353623379226
 20
-74.84057081462313
 30
0.0
 10
38.63675040318326
 20
-74.73445525909412
 30
0.0
 10
38.63675040318326
 20
-74.60286914801604
 30
0.0
 10
38.63675040318326
 20
-74.47124775915981
 30
0.0
 10
38.74353623379226
 20
-74.36446192585343
 30
0.0
 10
38.87515761932321
 20
-74.36446192585343
 30
0.0
 10
39.00674372707729
 20
-74.36446192585343
 30
0.0
 10
39.11285927992561
 20
-74.47124775915981
 30
0.0
 10
39.11285927992561
 20
-74.60286914801604
 30
0.0
  0
HATCH
  5
19C
330
1F
100
AcDbEntity
  8
_U+30EC_U+30A4_U+30E4_U+30FC 1
 62
   179
420
  2234388
100
AcDbHatch
 10
0.0
 20
0.0
 30
0.0
210
0.0
220
0.0
230
1.0
  2
SOLID
 70
     1
 71
     0
 91
        1
 92
        1
 93
        1
 72
     4
 94
        3
 73
     0
 74
     1
 95
       17
 96
       13
 40
0.0
 40
0.0
 40
0.0
 40
0.0
 40
1.0
 40
1.0
 40
1.0
 40
2.0
 40
2.0
 40
2.0
 40
3.0
 40
3.0
 40
3.0
 40
4.0
 40
4.0
 40
4.0
 40
4.0
 10
39.11285927992561
 20
-74.60286914801604
 10
39.11285927992561
 20
-74.73445525909412
 10
39.00674372707729
 20
-74.84057081462313
 10
38.87515761932321
 20
-74.84057081462313
 10
38.74353623379226
 20
-74.84057081462313
 10
38.63675040318326
 20
-74.73445525909412
 10
38.63675040318326
 20
-74.60286914801604
 10
38.63675040318326
 20
-74.47124775915981
 10
38.74353623379226
 20
-74.36446192585343
 10
38.87515761932321
 20
-74.36446192585343
 10
39.00674372707729
 20
-74.36446192585343
 10
39.11285927992561
 20
-74.47124775915981
 10
39.11285927992561
 20
-74.60286914801604
 97
        0
 97
        0
 75
     2
 76
     1
 98
        0
  0
SPLINE
  5
19D
330
1F
100
AcDbEntity
  8
_U+30EC_U+30A4_U+30E4_U+30FC 1
370
     0
100
AcDbSpline
210
0.0
220
0.0
230
1.0
 70
    11
 71
     3
 72
    17
 73
    13
 74
     0
 42
0.0000000001
 43
0.0000000001
 12
1.0
 22
0.0
 32
0.0
 13
1.0
 23
0.0
 33
0.0
 40
0.0
 40
0.0
 40
0.0
 40
0.0
 40
1.0
 40
1.0
 40
1.0
 40
2.0
 40
2.0
 40
2.0
 40
3.0
 40
3.0
 40
3.0
 40
4.0
 40
4.0
 40
4.0
 40
4.0
 10
39.11148344662737
 20
-78.10168386936337
 30
0.0
 10
39.11148344662737
 20
-78.2333052582196
 30
0.0
 10
39.00536789377905
 20
-78.33973831374854
 30
0.0
 10
38.87378178602498
 20
-78.33973831374854
 30
0.0
 10
38.74216040049404
 20
-78.33973831374854
 30
0.0
 10
38.63537456988503
 20
-78.2333052582196
 30
0.0
 10
38.63537456988503
 20
-78.10168386936337
 30
0.0
 10
38.63537456988503
 20
-77.97045053606307
 30
0.0
 10
38.74216040049404
 20
-77.86362942497853
 30
0.0
 10
38.87378178602498
 20
-77.86362942497853
 30
0.0
 10
39.00536789377905
 20
-77.86362942497853
 30
0.0
 10
39.11148344662737
 20
-77.97045053606307
 30
0.0
 10
39.11148344662737
 20
-78.10168386936337
 30
0.0
  0
HATCH
  5
19E
330
1F
100
AcDbEntity
  8
_U+30EC_U+30A4_U+30E4_U+30FC 1
 62
   179
420
  2234388
100
AcDbHatch
 10
0.0
 20
0.0
 30
0.0
210
0.0
220
0.0
230
1.0
  2
SOLID
 70
     1
 71
     0
 91
        1
 92
        1
 93
        1
 72
     4
 94
        3
 73
     0
 74
     1
 95
       17
 96
       13
 40
0.0
 40
0.0
 40
0.0
 40
0.0
 40
1.0
 40
1.0
 40
1.0
 40
2.0
 40
2.0
 40
2.0
 40
3.0
 40
3.0
 40
3.0
 40
4.0
 40
4.0
 40
4.0
 40
4.0
 10
39.11148344662737
 20
-78.10168386936337
 10
39.11148344662737
 20
-78.2333052582196
 10
39.00536789377905
 20
-78.33973831374854
 10
38.87378178602498
 20
-78.33973831374854
 10
38.74216040049404
 20
-78.33973831374854
 10
38.63537456988503
 20
-78.2333052582196
 10
38.63537456988503
 20
-78.10168386936337
 10
38.63537456988503
 20
-77.97045053606307
 10
38.74216040049404
 20
-77.86362942497853
 10
38.87378178602498
 20
-77.86362942497853
 10
39.00536789377905
 20
-77.86362942497853
 10
39.11148344662737
 20
-77.97045053606307
 10
39.11148344662737
 20
-78.10168386936337
 97
        0
 97
        0
 75
     2
 76
     1
 98
        0
  0
SPLINE
  5
19F
330
1F
100
AcDbEntity
  8
_U+30EC_U+30A4_U+30E4_U+30FC 1
370
     0
100
AcDbSpline
210
0.0
220
0.0
230
1.0
 70
    11
 71
     3
 72
    17
 73
    13
 74
     0
 42
0.0000000001
 43
0.0000000001
 12
1.0
 22
0.0
 32
0.0
 13
1.0
 23
0.0
 33
0.0
 40
0.0
 40
0.0
 40
0.0
 40
0.0
 40
1.0
 40
1.0
 40
1.0
 40
2.0
 40
2.0
 40
2.0
 40
3.0
 40
3.0
 40
3.0
 40
4.0
 40
4.0
 40
4.0
 40
4.0
 10
38.76971234423557
 20
-79.22616303574893
 30
0.0
 10
38.76971234423557
 20
-79.35778442460516
 30
0.0
 10
38.66363206916412
 20
-79.4642174801341
 30
0.0
 10
38.53201068363317
 20
-79.4642174801341
 30
0.0
 10
38.40042457587911
 20
-79.4642174801341
 30
0.0
 10
38.29360346749323
 20
-79.35778442460516
 30
0.0
 10
38.29360346749323
 20
-79.22616303574893
 30
0.0
 10
38.29360346749323
 20
-79.09492970244861
 30
0.0
 10
38.40042457587911
 20
-78.98810859136407
 30
0.0
 10
38.53201068363317
 20
-78.98810859136407
 30
0.0
 10
38.66363206916412
 20
-78.98810859136407
 30
0.0
 10
38.76971234423557
 20
-79.09492970244861
 30
0.0
 10
38.76971234423557
 20
-79.22616303574893
 30
0.0
  0
HATCH
  5
1A0
330
1F
100
AcDbEntity
  8
_U+30EC_U+30A4_U+30E4_U+30FC 1
 62
   179
420
  2234388
100
AcDbHatch
 10
0.0
 20
0.0
 30
0.0
210
0.0
220
0.0
230
1.0
  2
SOLID
 70
     1
 71
     0
 91
        1
 92
        1
 93
        1
 72
     4
 94
        3
 73
     0
 74
     1
 95
       17
 96
       13
 40
0.0
 40
0.0
 40
0.0
 40
0.0
 40
1.0
 40
1.0
 40
1.0
 40
2.0
 40
2.0
 40
2.0
 40
3.0
 40
3.0
 40
3.0
 40
4.0
 40
4.0
 40
4.0
 40
4.0
 10
38.76971234423557
 20
-79.22616303574893
 10
38.76971234423557
 20
-79.35778442460516
 10
38.66363206916412
 20
-79.4642174801341
 10
38.53201068363317
 20
-79.4642174801341
 10
38.40042457587911
 20
-79.4642174801341
 10
38.29360346749323
 20
-79.35778442460516
 10
38.29360346749323
 20
-79.22616303574893
 10
38.29360346749323
 20
-79.09492970244861
 10
38.40042457587911
 20
-78.98810859136407
 10
38.53201068363317
 20
-78.98810859136407
 10
38.66363206916412
 20
-78.98810859136407
 10
38.76971234423557
 20
-79.09492970244861
 10
38.76971234423557
 20
-79.22616303574893
 97
        0
 97
        0
 75
     2
 76
     1
 98
        0
  0
SPLINE
  5
1A1
330
1F
100
AcDbEntity
  8
_U+30EC_U+30A4_U+30E4_U+30FC 1
370
     0
100
AcDbSpline
210
0.0
220
0.0
230
1.0
 70
    11
 71
     3
 72
    17
 73
    13
 74
     0
 42
0.0000000001
 43
0.0000000001
 12
1.0
 22
0.0
 32
0.0
 13
1.0
 23
0.0
 33
0.0
 40
0.0
 40
0.0
 40
0.0
 40
0.0
 40
1.0
 40
1.0
 40
1.0
 40
2.0
 40
2.0
 40
2.0
 40
3.0
 40
3.0
 40
3.0
 40
4.0
 40
4.0
 40
4.0
 40
4.0
 10
47.20297074019633
 20
-86.45810747838537
 30
0.0
 10
47.20297074019633
 20
-86.58972886724162
 30
0.0
 10
47.09685518734801
 20
-86.69616192277056
 30
0.0
 10
46.96526907959394
 20
-86.69616192277056
 30
0.0
 10
46.833647694063
 20
-86.69616192277056
 30
0.0
 10
46.726861863454
 20
-86.58972886724162
 30
0.0
 10
46.726861863454
 20
-86.45810747838537
 30
0.0
 10
46.726861863454
 20
-86.32687414508507
 30
0.0
 10
46.833647694063
 20
-86.22005303400053
 30
0.0
 10
46.96526907959394
 20
-86.22005303400053
 30
0.0
 10
47.09685518734801
 20
-86.22005303400053
 30
0.0
 10
47.20297074019633
 20
-86.32687414508507
 30
0.0
 10
47.20297074019633
 20
-86.45810747838537
 30
0.0
  0
HATCH
  5
1A2
330
1F
100
AcDbEntity
  8
_U+30EC_U+30A4_U+30E4_U+30FC 1
 62
   179
420
  2234388
100
AcDbHatch
 10
0.0
 20
0.0
 30
0.0
210
0.0
220
0.0
230
1.0
  2
SOLID
 70
     1
 71
     0
 91
        1
 92
        1
 93
        1
 72
     4
 94
        3
 73
     0
 74
     1
 95
       17
 96
       13
 40
0.0
 40
0.0
 40
0.0
 40
0.0
 40
1.0
 40
1.0
 40
1.0
 40
2.0
 40
2.0
 40
2.0
 40
3.0
 40
3.0
 40
3.0
 40
4.0
 40
4.0
 40
4.0
 40
4.0
 10
47.20297074019633
 20
-86.45810747838537
 10
47.20297074019633
 20
-86.58972886724162
 10
47.09685518734801
 20
-86.69616192277056
 10
46.96526907959394
 20
-86.69616192277056
 10
46.833647694063
 20
-86.69616192277056
 10
46.726861863454
 20
-86.58972886724162
 10
46.726861863454
 20
-86.45810747838537
 10
46.726861863454
 20
-86.32687414508507
 10
46.833647694063
 20
-86.22005303400053
 10
46.96526907959394
 20
-86.22005303400053
 10
47.09685518734801
 20
-86.22005303400053
 10
47.20297074019633
 20
-86.32687414508507
 10
47.20297074019633
 20
-86.45810747838537
 97
        0
 97
        0
 75
     2
 76
     1
 98
        0
  0
SPLINE
  5
1A3
330
1F
100
AcDbEntity
  8
_U+30EC_U+30A4_U+30E4_U+30FC 1
370
     0
100
AcDbSpline
210
0.0
220
0.0
230
1.0
 70
    11
 71
     3
 72
    17
 73
    13
 74
     0
 42
0.0000000001
 43
0.0000000001
 12
1.0
 22
0.0
 32
0.0
 13
1.0
 23
0.0
 33
0.0
 40
0.0
 40
0.0
 40
0.0
 40
0.0
 40
1.0
 40
1.0
 40
1.0
 40
2.0
 40
2.0
 40
2.0
 40
3.0
 40
3.0
 40
3.0
 40
4.0
 40
4.0
 40
4.0
 40
4.0
 10
70.03570043546264
 20
-89.95074858862317
 30
0.0
 10
70.03570043546264
 20
-90.0823699774794
 30
0.0
 10
69.92958488261432
 20
-90.18880303300834
 30
0.0
 10
69.79796349708337
 20
-90.18880303300834
 30
0.0
 10
69.66637738932931
 20
-90.18880303300834
 30
0.0
 10
69.55959155872031
 20
-90.0823699774794
 30
0.0
 10
69.55959155872031
 20
-89.95074858862317
 30
0.0
 10
69.55959155872031
 20
-89.81947997754534
 30
0.0
 10
69.66637738932931
 20
-89.71269414423864
 30
0.0
 10
69.79796349708337
 20
-89.71269414423864
 30
0.0
 10
69.92958488261432
 20
-89.71269414423864
 30
0.0
 10
70.03570043546264
 20
-89.81947997754534
 30
0.0
 10
70.03570043546264
 20
-89.95074858862317
 30
0.0
  0
HATCH
  5
1A4
330
1F
100
AcDbEntity
  8
_U+30EC_U+30A4_U+30E4_U+30FC 1
 62
   179
420
  2234388
100
AcDbHatch
 10
0.0
 20
0.0
 30
0.0
210
0.0
220
0.0
230
1.0
  2
SOLID
 70
     1
 71
     0
 91
        1
 92
        1
 93
        1
 72
     4
 94
        3
 73
     0
 74
     1
 95
       17
 96
       13
 40
0.0
 40
0.0
 40
0.0
 40
0.0
 40
1.0
 40
1.0
 40
1.0
 40
2.0
 40
2.0
 40
2.0
 40
3.0
 40
3.0
 40
3.0
 40
4.0
 40
4.0
 40
4.0
 40
4.0
 10
70.03570043546264
 20
-89.95074858862317
 10
70.03570043546264
 20
-90.0823699774794
 10
69.92958488261432
 20
-90.18880303300834
 10
69.79796349708337
 20
-90.18880303300834
 10
69.66637738932931
 20
-90.18880303300834
 10
69.55959155872031
 20
-90.0823699774794
 10
69.55959155872031
 20
-89.95074858862317
 10
69.55959155872031
 20
-89.81947997754534
 10
69.66637738932931
 20
-89.71269414423864
 10
69.79796349708337
 20
-89.71269414423864
 10
69.92958488261432
 20
-89.71269414423864
 10
70.03570043546264
 20
-89.81947997754534
 10
70.03570043546264
 20
-89.95074858862317
 97
        0
 97
        0
 75
     2
 76
     1
 98
        0
  0
SPLINE
  5
1A5
330
1F
100
AcDbEntity
  8
_U+30EC_U+30A4_U+30E4_U+30FC 1
370
     0
100
AcDbSpline
210
0.0
220
0.0
230
1.0
 70
    11
 71
     3
 72
    17
 73
    13
 74
     0
 42
0.0000000001
 43
0.0000000001
 12
1.0
 22
0.0
 32
0.0
 13
1.0
 23
0.0
 33
0.0
 40
0.0
 40
0.0
 40
0.0
 40
0.0
 40
1.0
 40
1.0
 40
1.0
 40
2.0
 40
2.0
 40
2.0
 40
3.0
 40
3.0
 40
3.0
 40
4.0
 40
4.0
 40
4.0
 40
4.0
 10
63.92788253573051
 20
-100.0324671972141
 30
0.0
 10
63.92788253573051
 20
-100.1640885860703
 30
0.0
 10
63.82176698288219
 20
-100.2705216415992
 30
0.0
 10
63.69018087512811
 20
-100.2705216415992
 30
0.0
 10
63.55856109522153
 20
-100.2705216415992
 30
0.0
 10
63.45177365898817
 20
-100.1640885860703
 30
0.0
 10
63.45177365898817
 20
-100.0324671972141
 30
0.0
 10
63.45177365898817
 20
-99.90123386391376
 30
0.0
 10
63.55856109522153
 20
-99.7944127528289
 30
0.0
 10
63.69018087512811
 20
-99.7944127528289
 30
0.0
 10
63.82176698288219
 20
-99.7944127528289
 30
0.0
 10
63.92788253573051
 20
-99.90123386391376
 30
0.0
 10
63.92788253573051
 20
-100.0324671972141
 30
0.0
  0
HATCH
  5
1A6
330
1F
100
AcDbEntity
  8
_U+30EC_U+30A4_U+30E4_U+30FC 1
 62
   179
420
  2234388
100
AcDbHatch
 10
0.0
 20
0.0
 30
0.0
210
0.0
220
0.0
230
1.0
  2
SOLID
 70
     1
 71
     0
 91
        1
 92
        1
 93
        1
 72
     4
 94
        3
 73
     0
 74
     1
 95
       17
 96
       13
 40
0.0
 40
0.0
 40
0.0
 40
0.0
 40
1.0
 40
1.0
 40
1.0
 40
2.0
 40
2.0
 40
2.0
 40
3.0
 40
3.0
 40
3.0
 40
4.0
 40
4.0
 40
4.0
 40
4.0
 10
63.92788253573051
 20
-100.0324671972141
 10
63.92788253573051
 20
-100.1640885860703
 10
63.82176698288219
 20
-100.2705216415992
 10
63.69018087512811
 20
-100.2705216415992
 10
63.55856109522153
 20
-100.2705216415992
 10
63.45177365898817
 20
-100.1640885860703
 10
63.45177365898817
 20
-100.0324671972141
 10
63.45177365898817
 20
-99.90123386391376
 10
63.55856109522153
 20
-99.7944127528289
 10
63.69018087512811
 20
-99.7944127528289
 10
63.82176698288219
 20
-99.7944127528289
 10
63.92788253573051
 20
-99.90123386391376
 10
63.92788253573051
 20
-100.0324671972141
 97
        0
 97
        0
 75
     2
 76
     1
 98
        0
  0
SPLINE
  5
1A7
330
1F
100
AcDbEntity
  8
_U+30EC_U+30A4_U+30E4_U+30FC 1
370
     0
100
AcDbSpline
210
0.0
220
0.0
230
1.0
 70
    11
 71
     3
 72
    17
 73
    13
 74
     0
 42
0.0000000001
 43
0.0000000001
 12
1.0
 22
0.0
 32
0.0
 13
1.0
 23
0.0
 33
0.0
 40
0.0
 40
0.0
 40
0.0
 40
0.0
 40
1.0
 40
1.0
 40
1.0
 40
2.0
 40
2.0
 40
2.0
 40
3.0
 40
3.0
 40
3.0
 40
4.0
 40
4.0
 40
4.0
 40
4.0
 10
64.69062498382735
 20
-70.88007581561327
 30
0.0
 10
64.69062498382735
 20
-71.01169720446919
 30
0.0
 10
64.58450779675638
 20
-71.1178127599982
 30
0.0
 10
64.45292168900231
 20
-71.1178127599982
 30
0.0
 10
64.32130030347136
 20
-71.1178127599982
 30
0.0
 10
64.21451447286236
 20
-71.01169720446919
 30
0.0
 10
64.21451447286236
 20
-70.88007581561327
 30
0.0
 10
64.21451447286236
 20
-70.7484897045352
 30
0.0
 10
64.32130030347136
 20
-70.64166859345066
 30
0.0
 10
64.45292168900231
 20
-70.64166859345066
 30
0.0
 10
64.58450779675638
 20
-70.64166859345066
 30
0.0
 10
64.69062498382735
 20
-70.7484897045352
 30
0.0
 10
64.69062498382735
 20
-70.88007581561327
 30
0.0
  0
HATCH
  5
1A8
330
1F
100
AcDbEntity
  8
_U+30EC_U+30A4_U+30E4_U+30FC 1
 62
   179
420
  2234388
100
AcDbHatch
 10
0.0
 20
0.0
 30
0.0
210
0.0
220
0.0
230
1.0
  2
SOLID
 70
     1
 71
     0
 91
        1
 92
        1
 93
        1
 72
     4
 94
        3
 73
     0
 74
     1
 95
       17
 96
       13
 40
0.0
 40
0.0
 40
0.0
 40
0.0
 40
1.0
 40
1.0
 40
1.0
 40
2.0
 40
2.0
 40
2.0
 40
3.0
 40
3.0
 40
3.0
 40
4.0
 40
4.0
 40
4.0
 40
4.0
 10
64.69062498382735
 20
-70.88007581561327
 10
64.69062498382735
 20
-71.01169720446919
 10
64.58450779675638
 20
-71.1178127599982
 10
64.45292168900231
 20
-71.1178127599982
 10
64.32130030347136
 20
-71.1178127599982
 10
64.21451447286236
 20
-71.01169720446919
 10
64.21451447286236
 20
-70.88007581561327
 10
64.21451447286236
 20
-70.7484897045352
 10
64.32130030347136
 20
-70.64166859345066
 10
64.45292168900231
 20
-70.64166859345066
 10
64.58450779675638
 20
-70.64166859345066
 10
64.69062498382735
 20
-70.7484897045352
 10
64.69062498382735
 20
-70.88007581561327
 97
        0
 97
        0
 75
     2
 76
     1
 98
        0
  0
SPLINE
  5
1A9
330
1F
100
AcDbEntity
  8
_U+30EC_U+30A4_U+30E4_U+30FC 1
370
     0
100
AcDbSpline
210
0.0
220
0.0
230
1.0
 70
    11
 71
     3
 72
    17
 73
    13
 74
     0
 42
0.0000000001
 43
0.0000000001
 12
1.0
 22
0.0
 32
0.0
 13
1.0
 23
0.0
 33
0.0
 40
0.0
 40
0.0
 40
0.0
 40
0.0
 40
1.0
 40
1.0
 40
1.0
 40
2.0
 40
2.0
 40
2.0
 40
3.0
 40
3.0
 40
3.0
 40
4.0
 40
4.0
 40
4.0
 40
4.0
 10
68.9401490745236
 20
-71.9239452597967
 30
0.0
 10
68.9401490745236
 20
-72.05556664865293
 30
0.0
 10
68.83403352167528
 20
-72.16199970418187
 30
0.0
 10
68.7024474139212
 20
-72.16199970418187
 30
0.0
 10
68.570827760635
 20
-72.16199970418187
 30
0.0
 10
68.46404019778126
 20
-72.05556664865293
 30
0.0
 10
68.46404019778126
 20
-71.9239452597967
 30
0.0
 10
68.46404019778126
 20
-71.79267664871854
 30
0.0
 10
68.570827760635
 20
-71.68589081541184
 30
0.0
 10
68.7024474139212
 20
-71.68589081541184
 30
0.0
 10
68.83403352167528
 20
-71.68589081541184
 30
0.0
 10
68.9401490745236
 20
-71.79267664871854
 30
0.0
 10
68.9401490745236
 20
-71.9239452597967
 30
0.0
  0
HATCH
  5
1AA
330
1F
100
AcDbEntity
  8
_U+30EC_U+30A4_U+30E4_U+30FC 1
 62
   179
420
  2234388
100
AcDbHatch
 10
0.0
 20
0.0
 30
0.0
210
0.0
220
0.0
230
1.0
  2
SOLID
 70
     1
 71
     0
 91
        1
 92
        1
 93
        1
 72
     4
 94
        3
 73
     0
 74
     1
 95
       17
 96
       13
 40
0.0
 40
0.0
 40
0.0
 40
0.0
 40
1.0
 40
1.0
 40
1.0
 40
2.0
 40
2.0
 40
2.0
 40
3.0
 40
3.0
 40
3.0
 40
4.0
 40
4.0
 40
4.0
 40
4.0
 10
68.9401490745236
 20
-71.9239452597967
 10
68.9401490745236
 20
-72.05556664865293
 10
68.83403352167528
 20
-72.16199970418187
 10
68.7024474139212
 20
-72.16199970418187
 10
68.570827760635
 20
-72.16199970418187
 10
68.46404019778126
 20
-72.05556664865293
 10
68.46404019778126
 20
-71.9239452597967
 10
68.46404019778126
 20
-71.79267664871854
 10
68.570827760635
 20
-71.68589081541184
 10
68.7024474139212
 20
-71.68589081541184
 10
68.83403352167528
 20
-71.68589081541184
 10
68.9401490745236
 20
-71.79267664871854
 10
68.9401490745236
 20
-71.9239452597967
 97
        0
 97
        0
 75
     2
 76
     1
 98
        0
  0
SPLINE
  5
1AB
330
1F
100
AcDbEntity
  8
_U+30EC_U+30A4_U+30E4_U+30FC 1
370
     0
100
AcDbSpline
210
0.0
220
0.0
230
1.0
 70
    11
 71
     3
 72
    17
 73
    13
 74
     0
 42
0.0000000001
 43
0.0000000001
 12
1.0
 22
0.0
 32
0.0
 13
1.0
 23
0.0
 33
0.0
 40
0.0
 40
0.0
 40
0.0
 40
0.0
 40
1.0
 40
1.0
 40
1.0
 40
2.0
 40
2.0
 40
2.0
 40
3.0
 40
3.0
 40
3.0
 40
4.0
 40
4.0
 40
4.0
 40
4.0
 10
88.91103967613485
 20
-89.92492525529667
 30
0.0
 10
88.91103967613485
 20
-90.05651136637475
 30
0.0
 10
88.80492412328653
 20
-90.1629796996812
 30
0.0
 10
88.67330273775558
 20
-90.1629796996812
 30
0.0
 10
88.5417166300015
 20
-90.1629796996812
 30
0.0
 10
88.43489552161563
 20
-90.05651136637475
 30
0.0
 10
88.43489552161563
 20
-89.92492525529667
 30
0.0
 10
88.43489552161563
 20
-89.7936566442182
 30
0.0
 10
88.5417166300015
 20
-89.6868708109115
 30
0.0
 10
88.67330273775558
 20
-89.6868708109115
 30
0.0
 10
88.80492412328653
 20
-89.6868708109115
 30
0.0
 10
88.91103967613485
 20
-89.7936566442182
 30
0.0
 10
88.91103967613485
 20
-89.92492525529667
 30
0.0
  0
HATCH
  5
1AC
330
1F
100
AcDbEntity
  8
_U+30EC_U+30A4_U+30E4_U+30FC 1
 62
   179
420
  2234388
100
AcDbHatch
 10
0.0
 20
0.0
 30
0.0
210
0.0
220
0.0
230
1.0
  2
SOLID
 70
     1
 71
     0
 91
        1
 92
        1
 93
        1
 72
     4
 94
        3
 73
     0
 74
     1
 95
       17
 96
       13
 40
0.0
 40
0.0
 40
0.0
 40
0.0
 40
1.0
 40
1.0
 40
1.0
 40
2.0
 40
2.0
 40
2.0
 40
3.0
 40
3.0
 40
3.0
 40
4.0
 40
4.0
 40
4.0
 40
4.0
 10
88.91103967613485
 20
-89.92492525529667
 10
88.91103967613485
 20
-90.05651136637475
 10
88.80492412328653
 20
-90.1629796996812
 10
88.67330273775558
 20
-90.1629796996812
 10
88.5417166300015
 20
-90.1629796996812
 10
88.43489552161563
 20
-90.05651136637475
 10
88.43489552161563
 20
-89.92492525529667
 10
88.43489552161563
 20
-89.7936566442182
 10
88.5417166300015
 20
-89.6868708109115
 10
88.67330273775558
 20
-89.6868708109115
 10
88.80492412328653
 20
-89.6868708109115
 10
88.91103967613485
 20
-89.7936566442182
 10
88.91103967613485
 20
-89.92492525529667
 97
        0
 97
        0
 75
     2
 76
     1
 98
        0
  0
ENDSEC
  0
SECTION
  2
OBJECTS
  0
DICTIONARY
  5
C
330
0
100
AcDbDictionary
281
     1
  3
ACAD_GROUP
350
D
  3
ACAD_LAYOUT
350
1A
  3
ACAD_MATERIAL
350
3B
  3
ACAD_MLEADERSTYLE
350
1AE
  3
ACAD_MLINESTYLE
350
17
  3
ACAD_PLOTSETTINGS
350
19
  3
ACAD_PLOTSTYLENAME
350
E
  3
ACAD_TABLESTYLE
350
1AD
  3
ACAD_VISUALSTYLE
350
2A
  0
SUN
  5
3F
330
29
100
AcDbSun
 90
        1
290
     0
 63
     7
421
 16777215
 40
1.0
291
     1
 91
  2455826
 92
 54000000
292
     0
 70
     2
 71
   256
280
     1
  0
DICTIONARY
  5
D
102
{ACAD_REACTORS
330
C
102
}
330
C
100
AcDbDictionary
281
     1
  0
DICTIONARY
  5
1A
102
{ACAD_REACTORS
330
C
102
}
330
C
100
AcDbDictionary
281
     1
  3
Layout1
350
1E
  3
Layout2
350
26
  3
Model
350
22
  0
DICTIONARY
  5
3B
102
{ACAD_REACTORS
330
C
102
}
330
C
100
AcDbDictionary
281
     1
  3
ByBlock
350
3D
  3
ByLayer
350
3C
  3
Global
350
3E
  0
DICTIONARY
  5
1AE
102
{ACAD_REACTORS
330
C
102
}
330
C
100
AcDbDictionary
281
     1
  0
DICTIONARY
  5
17
102
{ACAD_REACTORS
330
C
102
}
330
C
100
AcDbDictionary
281
     1
  3
Standard
350
18
  0
DICTIONARY
  5
19
102
{ACAD_REACTORS
330
C
102
}
330
C
100
AcDbDictionary
281
     1
  0
ACDBDICTIONARYWDFLT
  5
E
102
{ACAD_REACTORS
330
C
102
}
330
C
100
AcDbDictionary
281
     1
  3
Normal
350
F
100
AcDbDictionaryWithDefault
340
F
  0
DICTIONARY
  5
1AD
102
{ACAD_REACTORS
330
C
102
}
330
C
100
AcDbDictionary
281
     1
  0
DICTIONARY
  5
2A
102
{ACAD_REACTORS
330
C
102
}
330
C
100
AcDbDictionary
281
     1
  3
2dWireframe
350
2F
  3
3D Hidden
350
31
  3
3dWireframe
350
30
  3
Basic
350
32
  3
Brighten
350
36
  3
ColorChange
350
3A
  3
Conceptual
350
34
  3
Dim
350
35
  3
Facepattern
350
39
  3
Flat
350
2B
  3
FlatWithEdges
350
2C
  3
Gouraud
350
2D
  3
GouraudWithEdges
350
2E
  3
Linepattern
350
38
  3
Realistic
350
33
  3
Thicken
350
37
  0
LAYOUT
  5
1E
102
{ACAD_REACTORS
330
1A
102
}
330
1A
100
AcDbPlotSettings
  1

  2
none_device
  4

  6

 40
0.0
 41
0.0
 42
0.0
 43
0.0
 44
0.0
 45
0.0
 46
0.0
 47
0.0
 48
0.0
 49
0.0
140
0.0
141
0.0
142
1.0
143
1.0
 70
   688
 72
     0
 73
     0
 74
     5
  7

 75
    16
 76
     0
 77
     2
 78
   300
147
1.0
148
0.0
149
0.0
100
AcDbLayout
  1
Layout1
 70
     1
 71
     1
 10
0.0
 20
0.0
 11
12.0
 21
9.0
 12
0.0
 22
0.0
 32
0.0
 14
1.000000000000000E+20
 24
1.000000000000000E+20
 34
1.000000000000000E+20
 15
-1.000000000000000E+20
 25
-1.000000000000000E+20
 35
-1.000000000000000E+20
146
0.0
 13
0.0
 23
0.0
 33
0.0
 16
1.0
 26
0.0
 36
0.0
 17
0.0
 27
1.0
 37
0.0
 76
     0
330
1B
  0
LAYOUT
  5
26
102
{ACAD_REACTORS
330
1A
102
}
330
1A
100
AcDbPlotSettings
  1

  2
none_device
  4

  6

 40
0.0
 41
0.0
 42
0.0
 43
0.0
 44
0.0
 45
0.0
 46
0.0
 47
0.0
 48
0.0
 49
0.0
140
0.0
141
0.0
142
1.0
143
1.0
 70
   688
 72
     0
 73
     0
 74
     5
  7

 75
    16
 76
     0
 77
     2
 78
   300
147
1.0
148
0.0
149
0.0
100
AcDbLayout
  1
Layout2
 70
     1
 71
     2
 10
0.0
 20
0.0
 11
0.0
 21
0.0
 12
0.0
 22
0.0
 32
0.0
 14
0.0
 24
0.0
 34
0.0
 15
0.0
 25
0.0
 35
0.0
146
0.0
 13
0.0
 23
0.0
 33
0.0
 16
1.0
 26
0.0
 36
0.0
 17
0.0
 27
1.0
 37
0.0
 76
     0
330
23
  0
LAYOUT
  5
22
102
{ACAD_REACTORS
330
1A
102
}
330
1A
100
AcDbPlotSettings
  1

  2
none_device
  4

  6

 40
0.0
 41
0.0
 42
0.0
 43
0.0
 44
0.0
 45
0.0
 46
0.0
 47
0.0
 48
0.0
 49
0.0
140
0.0
141
0.0
142
1.0
143
1.0
 70
  1712
 72
     0
 73
     0
 74
     0
  7

 75
     0
 76
     0
 77
     2
 78
   300
147
1.0
148
0.0
149
0.0
100
AcDbLayout
  1
Model
 70
     1
 71
     0
 10
0.0
 20
0.0
 11
12.0
 21
9.0
 12
0.0
 22
0.0
 32
0.0
 14
1.000000000000000E+20
 24
1.000000000000000E+20
 34
1.000000000000000E+20
 15
-1.000000000000000E+20
 25
-1.000000000000000E+20
 35
-1.000000000000000E+20
146
0.0
 13
0.0
 23
0.0
 33
0.0
 16
1.0
 26
0.0
 36
0.0
 17
0.0
 27
1.0
 37
0.0
 76
     0
330
1F
331
29
  0
MATERIAL
  5
3D
102
{ACAD_REACTORS
330
3B
102
}
330
3B
100
AcDbMaterial
  1
ByBlock
 72
     1
 94
      127
  0
MATERIAL
  5
3C
102
{ACAD_REACTORS
330
3B
102
}
330
3B
100
AcDbMaterial
  1
ByLayer
 72
     1
 94
      127
  0
MATERIAL
  5
3E
102
{ACAD_REACTORS
330
3B
102
}
330
3B
100
AcDbMaterial
  1
Global
 72
     1
 94
      127
  0
MLINESTYLE
  5
18
102
{ACAD_REACTORS
330
17
102
}
330
17
100
AcDbMlineStyle
  2
Standard
 70
     0
  3

 62
   256
 51
90.0
 52
90.0
 71
     2
 49
0.5
 62
   256
  6
BYLAYER
 49
-0.5
 62
   256
  6
BYLAYER
  0
ACDBPLACEHOLDER
  5
F
102
{ACAD_REACTORS
330
E
102
}
330
E
  0
VISUALSTYLE
  5
2F
102
{ACAD_REACTORS
330
2A
102
}
330
2A
100
AcDbVisualStyle
  2
2dWireframe
 70
     4
177
     2
291
     0
 71
     0
176
     1
 72
     2
176
     1
 73
     0
176
     1
 90
        0
176
     1
 40
-0.6
176
     1
 41
-30.0
176
     1
 62
     5
 63
     7
421
 16777215
176
     1
 74
     1
176
     1
 91
        4
176
     1
 64
     7
176
     1
 65
   257
176
     1
 75
     1
176
     1
175
     1
176
     1
 42
1.0
176
     1
 92
        0
176
     1
 66
   257
176
     1
 43
1.0
176
     1
 76
     1
176
     1
 77
     6
176
     1
 78
     2
176
     1
 67
     7
176
     1
 79
     5
176
     1
170
     0
176
     1
171
     0
176
     1
290
     0
176
     1
 93
        1
176
     1
 44
0.0
176
     1
173
     0
176
     1
  0
VISUALSTYLE
  5
31
102
{ACAD_REACTORS
330
2A
102
}
330
2A
100
AcDbVisualStyle
  2
3D Hidden
 70
     6
177
     2
291
     0
 71
     1
176
     1
 72
     2
176
     1
 73
     2
176
     1
 90
        0
176
     1
 40
-0.6
176
     1
 41
-30.0
176
     1
 62
     5
 63
     7
421
 16777215
176
     1
 74
     2
176
     1
 91
        2
176
     1
 64
     7
176
     1
 65
   257
176
     1
 75
     2
176
     1
175
     1
176
     1
 42
40.0
176
     1
 92
        0
176
     1
 66
   257
176
     1
 43
1.0
176
     1
 76
     1
176
     1
 77
     6
176
     1
 78
     2
176
     1
 67
     7
176
     1
 79
     3
176
     1
170
     0
176
     1
171
     0
176
     1
290
     0
176
     1
 93
        1
176
     1
 44
0.0
176
     1
173
     0
176
     1
  0
VISUALSTYLE
  5
30
102
{ACAD_REACTORS
330
2A
102
}
330
2A
100
AcDbVisualStyle
  2
3dWireframe
 70
     5
177
     2
291
     0
 71
     0
176
     1
 72
     2
176
     1
 73
     0
176
     1
 90
        0
176
     1
 40
-0.6
176
     1
 41
-30.0
176
     1
 62
     5
 63
     7
421
 16777215
176
     1
 74
     1
176
     1
 91
        4
176
     1
 64
     7
176
     1
 65
   257
176
     1
 75
     1
176
     1
175
     1
176
     1
 42
1.0
176
     1
 92
        0
176
     1
 66
   257
176
     1
 43
1.0
176
     1
 76
     1
176
     1
 77
     6
176
     1
 78
     2
176
     1
 67
     7
176
     1
 79
     5
176
     1
170
     0
176
     1
171
     0
176
     1
290
     0
176
     1
 93
        1
176
     1
 44
0.0
176
     1
173
     0
176
     1
  0
VISUALSTYLE
  5
32
102
{ACAD_REACTORS
330
2A
102
}
330
2A
100
AcDbVisualStyle
  2
Basic
 70
     7
177
     2
291
     1
 71
     1
176
     1
 72
     0
176
     1
 73
     1
176
     1
 90
        0
176
     1
 40
-0.6
176
     1
 41
-30.0
176
     1
 62
     5
 63
     7
421
 16777215
176
     1
 74
     0
176
     1
 91
        4
176
     1
 64
     7
176
     1
 65
   257
176
     1
 75
     1
176
     1
175
     1
176
     1
 42
1.0
176
     1
 92
        8
176
     1
 66
     7
176
     1
 43
1.0
176
     1
 76
     1
176
     1
 77
     6
176
     1
 78
     2
176
     1
 67
     7
176
     1
 79
     5
176
     1
170
     0
176
     1
171
     0
176
     1
290
     0
176
     1
 93
        1
176
     1
 44
0.0
176
     1
173
     0
176
     1
  0
VISUALSTYLE
  5
36
102
{ACAD_REACTORS
330
2A
102
}
330
2A
100
AcDbVisualStyle
  2
Brighten
 70
    12
177
     2
291
     1
 71
     2
176
     1
 72
     2
176
     1
 73
     0
176
     1
 90
        0
176
     1
 40
-0.6
176
     1
 41
-30.0
176
     1
 62
     5
 63
     7
421
 16777215
176
     1
 74
     1
176
     1
 91
        4
176
     1
 64
     7
176
     1
 65
   257
176
     1
 75
     1
176
     1
175
     1
176
     1
 42
1.0
176
     1
 92
        8
176
     1
 66
     7
176
     1
 43
1.0
176
     1
 76
     1
176
     1
 77
     6
176
     1
 78
     2
176
     1
 67
     7
176
     1
 79
     5
176
     1
170
     0
176
     1
171
     0
176
     1
290
     0
176
     1
 93
        1
176
     1
 44
50.0
176
     1
173
     0
176
     1
  0
VISUALSTYLE
  5
3A
102
{ACAD_REACTORS
330
2A
102
}
330
2A
100
AcDbVisualStyle
  2
ColorChange
 70
    16
177
     2
291
     1
 71
     2
176
     1
 72
     2
176
     1
 73
     3
176
     1
 90
        0
176
     1
 40
-0.6
176
     1
 41
-30.0
176
     1
 62
     5
 63
     8
421
  8421504
176
     1
 74
     1
176
     1
 91
        4
176
     1
 64
     7
176
     1
 65
   257
176
     1
 75
     1
176
     1
175
     1
176
     1
 42
1.0
176
     1
 92
        8
176
     1
 66
     8
424
  8421504
176
     1
 43
1.0
176
     1
 76
     1
176
     1
 77
     6
176
     1
 78
     2
176
     1
 67
     7
176
     1
 79
     5
176
     1
170
     0
176
     1
171
     0
176
     1
290
     0
176
     1
 93
        1
176
     1
 44
0.0
176
     1
173
     0
176
     1
  0
VISUALSTYLE
  5
34
102
{ACAD_REACTORS
330
2A
102
}
330
2A
100
AcDbVisualStyle
  2
Conceptual
 70
     9
177
     2
291
     0
 71
     3
176
     1
 72
     2
176
     1
 73
     0
176
     1
 90
        0
176
     1
 40
-0.6
176
     1
 41
-30.0
176
     1
 62
     5
 63
     7
421
 16777215
176
     1
 74
     2
176
     1
 91
        2
176
     1
 64
     7
176
     1
 65
   257
176
     1
 75
     1
176
     1
175
     1
176
     1
 42
40.0
176
     1
 92
        8
176
     1
 66
     7
176
     1
 43
1.0
176
     1
 76
     1
176
     1
 77
     6
176
     1
 78
     2
176
     1
 67
     7
176
     1
 79
     3
176
     1
170
     0
176
     1
171
     0
176
     1
290
     0
176
     1
 93
        1
176
     1
 44
0.0
176
     1
173
     0
176
     1
  0
VISUALSTYLE
  5
35
102
{ACAD_REACTORS
330
2A
102
}
330
2A
100
AcDbVisualStyle
  2
Dim
 70
    11
177
     2
291
     1
 71
     2
176
     1
 72
     2
176
     1
 73
     0
176
     1
 90
        0
176
     1
 40
-0.6
176
     1
 41
-30.0
176
     1
 62
     5
 63
     7
421
 16777215
176
     1
 74
     1
176
     1
 91
        4
176
     1
 64
     7
176
     1
 65
   257
176
     1
 75
     1
176
     1
175
     1
176
     1
 42
1.0
176
     1
 92
        8
176
     1
 66
     7
176
     1
 43
1.0
176
     1
 76
     1
176
     1
 77
     6
176
     1
 78
     2
176
     1
 67
     7
176
     1
 79
     5
176
     1
170
     0
176
     1
171
     0
176
     1
290
     0
176
     1
 93
        1
176
     1
 44
-50.0
176
     1
173
     0
176
     1
  0
VISUALSTYLE
  5
39
102
{ACAD_REACTORS
330
2A
102
}
330
2A
100
AcDbVisualStyle
  2
Facepattern
 70
    15
177
     2
291
     1
 71
     2
176
     1
 72
     2
176
     1
 73
     0
176
     1
 90
        0
176
     1
 40
-0.6
176
     1
 41
-30.0
176
     1
 62
     5
 63
     7
421
 16777215
176
     1
 74
     1
176
     1
 91
        4
176
     1
 64
     7
176
     1
 65
   257
176
     1
 75
     1
176
     1
175
     1
176
     1
 42
1.0
176
     1
 92
        8
176
     1
 66
     7
176
     1
 43
1.0
176
     1
 76
     1
176
     1
 77
     6
176
     1
 78
     2
176
     1
 67
     7
176
     1
 79
     5
176
     1
170
     0
176
     1
171
     0
176
     1
290
     0
176
     1
 93
        1
176
     1
 44
0.0
176
     1
173
     0
176
     1
  0
VISUALSTYLE
  5
2B
102
{ACAD_REACTORS
330
2A
102
}
330
2A
100
AcDbVisualStyle
  2
Flat
 70
     0
177
     2
291
     1
 71
     2
176
     1
 72
     1
176
     1
 73
     1
176
     1
 90
        2
176
     1
 40
-0.6
176
     1
 41
30.0
176
     1
 62
     5
 63
     7
421
 16777215
176
     1
 74
     0
176
     1
 91
        4
176
     1
 64
     7
176
     1
 65
   257
176
     1
 75
     1
176
     1
175
     1
176
     1
 42
1.0
176
     1
 92
        8
176
     1
 66
     7
176
     1
 43
1.0
176
     1
 76
     1
176
     1
 77
     6
176
     1
 78
     2
176
     1
 67
     7
176
     1
 79
     5
176
     1
170
     0
176
     1
171
     0
176
     1
290
     0
176
     1
 93
       13
176
     1
 44
0.0
176
     1
173
     0
176
     1
  0
VISUALSTYLE
  5
2C
102
{ACAD_REACTORS
330
2A
102
}
330
2A
100
AcDbVisualStyle
  2
FlatWithEdges
 70
     1
177
     2
291
     1
 71
     2
176
     1
 72
     1
176
     1
 73
     1
176
     1
 90
        2
176
     1
 40
-0.6
176
     1
 41
30.0
176
     1
 62
     5
 63
     7
421
 16777215
176
     1
 74
     1
176
     1
 91
        4
176
     1
 64
     7
176
     1
 65
   257
176
     1
 75
     1
176
     1
175
     1
176
     1
 42
1.0
176
     1
 92
        0
176
     1
 66
   257
176
     1
 43
1.0
176
     1
 76
     1
176
     1
 77
     6
176
     1
 78
     2
176
     1
 67
     7
176
     1
 79
     5
176
     1
170
     0
176
     1
171
     0
176
     1
290
     0
176
     1
 93
       13
176
     1
 44
0.0
176
     1
173
     0
176
     1
  0
VISUALSTYLE
  5
2D
102
{ACAD_REACTORS
330
2A
102
}
330
2A
100
AcDbVisualStyle
  2
Gouraud
 70
     2
177
     2
291
     1
 71
     2
176
     1
 72
     2
176
     1
 73
     1
176
     1
 90
        2
176
     1
 40
-0.6
176
     1
 41
30.0
176
     1
 62
     5
 63
     7
421
 16777215
176
     1
 74
     0
176
     1
 91
        4
176
     1
 64
     7
176
     1
 65
   257
176
     1
 75
     1
176
     1
175
     1
176
     1
 42
1.0
176
     1
 92
        0
176
     1
 66
     7
176
     1
 43
1.0
176
     1
 76
     1
176
     1
 77
     6
176
     1
 78
     2
176
     1
 67
     7
176
     1
 79
     5
176
     1
170
     0
176
     1
171
     0
176
     1
290
     0
176
     1
 93
       13
176
     1
 44
0.0
176
     1
173
     0
176
     1
  0
VISUALSTYLE
  5
2E
102
{ACAD_REACTORS
330
2A
102
}
330
2A
100
AcDbVisualStyle
  2
GouraudWithEdges
 70
     3
177
     2
291
     1
 71
     2
176
     1
 72
     2
176
     1
 73
     1
176
     1
 90
        2
176
     1
 40
-0.6
176
     1
 41
30.0
176
     1
 62
     5
 63
     7
421
 16777215
176
     1
 74
     1
176
     1
 91
        4
176
     1
 64
     7
176
     1
 65
   257
176
     1
 75
     1
176
     1
175
     1
176
     1
 42
1.0
176
     1
 92
        0
176
     1
 66
   257
176
     1
 43
1.0
176
     1
 76
     1
176
     1
 77
     6
176
     1
 78
     2
176
     1
 67
     7
176
     1
 79
     5
176
     1
170
     0
176
     1
171
     0
176
     1
290
     0
176
     1
 93
       13
176
     1
 44
0.0
176
     1
173
     0
176
     1
  0
VISUALSTYLE
  5
38
102
{ACAD_REACTORS
330
2A
102
}
330
2A
100
AcDbVisualStyle
  2
Linepattern
 70
    14
177
     2
291
     1
 71
     2
176
     1
 72
     2
176
     1
 73
     0
176
     1
 90
        0
176
     1
 40
-0.6
176
     1
 41
-30.0
176
     1
 62
     5
 63
     7
421
 16777215
176
     1
 74
     1
176
     1
 91
        4
176
     1
 64
     7
176
     1
 65
   257
176
     1
 75
     7
176
     1
175
     7
176
     1
 42
1.0
176
     1
 92
        8
176
     1
 66
     7
176
     1
 43
1.0
176
     1
 76
     1
176
     1
 77
     6
176
     1
 78
     2
176
     1
 67
     7
176
     1
 79
     5
176
     1
170
     0
176
     1
171
     0
176
     1
290
     0
176
     1
 93
        1
176
     1
 44
0.0
176
     1
173
     0
176
     1
  0
VISUALSTYLE
  5
33
102
{ACAD_REACTORS
330
2A
102
}
330
2A
100
AcDbVisualStyle
  2
Realistic
 70
     8
177
     2
291
     0
 71
     2
176
     1
 72
     2
176
     1
 73
     0
176
     1
 90
        0
176
     1
 40
-0.6
176
     1
 41
-30.0
176
     1
 62
     5
 63
     7
421
 16777215
176
     1
 74
     1
176
     1
 91
        0
176
     1
 64
     7
176
     1
 65
   257
176
     1
 75
     1
176
     1
175
     1
176
     1
 42
1.0
176
     1
 92
        8
176
     1
 66
     8
424
  7895160
176
     1
 43
1.0
176
     1
 76
     1
176
     1
 77
     6
176
     1
 78
     2
176
     1
 67
     7
176
     1
 79
     5
176
     1
170
     0
176
     1
171
     0
176
     1
290
     0
176
     1
 93
       13
176
     1
 44
0.0
176
     1
173
     0
176
     1
  0
VISUALSTYLE
  5
37
102
{ACAD_REACTORS
330
2A
102
}
330
2A
100
AcDbVisualStyle
  2
Thicken
 70
    13
177
     2
291
     1
 71
     2
176
     1
 72
     2
176
     1
 73
     0
176
     1
 90
        0
176
     1
 40
-0.6
176
     1
 41
-30.0
176
     1
 62
     5
 63
     7
421
 16777215
176
     1
 74
     1
176
     1
 91
        4
176
     1
 64
     7
176
     1
 65
   257
176
     1
 75
     1
176
     1
175
     1
176
     1
 42
1.0
176
     1
 92
       12
176
     1
 66
     7
176
     1
 43
1.0
176
     1
 76
     1
176
     1
 77
     6
176
     1
 78
     2
176
     1
 67
     7
176
     1
 79
     5
176
     1
170
     0
176
     1
171
     0
176
     1
290
     0
176
     1
 93
        1
176
     1
 44
0.0
176
     1
173
     0
176
     1
  0
ENDSEC
  0
EOF
