  0
SECTION
  2
HEADER
  9
$ACADVER
  1
AC1024
  9
$ACADMAINTVER
 70
     6
  9
$DWGCODEPAGE
  3
UNDEFINED
  9
$INSBASE
 10
0.0
 20
0.0
 30
0.0
  9
$EXTMIN
 10
1.000000000000000E+20
 20
1.000000000000000E+20
 30
1.000000000000000E+20
  9
$EXTMAX
 10
-1.000000000000000E+20
 20
-1.000000000000000E+20
 30
-1.000000000000000E+20
  9
$LIMMIN
 10
0.0
 20
0.0
  9
$LIMMAX
 10
12.0
 20
9.0
  9
$ORTHOMODE
 70
     0
  9
$REGENMODE
 70
     1
  9
$FILLMODE
 70
     1
  9
$QTEXTMODE
 70
     0
  9
$MIRRTEXT
 70
     1
  9
$LTSCALE
 40
1.0
  9
$ATTMODE
 70
     1
  9
$TEXTSIZE
 40
0.2
  9
$TRACEWID
 40
0.05
  9
$TEXTSTYLE
  7
Standard
  9
$CLAYER
  8
0
  9
$CELTYPE
  6
ByLayer
  9
$CECOLOR
 62
   256
  9
$CELTSCALE
 40
1.0
  9
$DISPSILH
 70
     0
  9
$DIMSCALE
 40
1.0
  9
$DIMASZ
 40
0.18
  9
$DIMEXO
 40
0.0625
  9
$DIMDLI
 40
0.38
  9
$DIMRND
 40
0.0
  9
$DIMDLE
 40
0.0
  9
$DIMEXE
 40
0.18
  9
$DIMTP
 40
0.0
  9
$DIMTM
 40
0.0
  9
$DIMTXT
 40
0.18
  9
$DIMCEN
 40
0.09
  9
$DIMTSZ
 40
0.0
  9
$DIMTOL
 70
     0
  9
$DIMLIM
 70
     0
  9
$DIMTIH
 70
     1
  9
$DIMTOH
 70
     1
  9
$DIMSE1
 70
     0
  9
$DIMSE2
 70
     0
  9
$DIMTAD
 70
     0
  9
$DIMZIN
 70
     0
  9
$DIMBLK
  1

  9
$DIMASO
 70
     1
  9
$DIMSHO
 70
     1
  9
$DIMPOST
  1

  9
$DIMAPOST
  1

  9
$DIMALT
 70
     0
  9
$DIMALTD
 70
     2
  9
$DIMALTF
 40
25.4
  9
$DIMLFAC
 40
1.0
  9
$DIMTOFL
 70
     0
  9
$DIMTVP
 40
0.0
  9
$DIMTIX
 70
     0
  9
$DIMSOXD
 70
     0
  9
$DIMSAH
 70
     0
  9
$DIMBLK1
  1

  9
$DIMBLK2
  1

  9
$DIMSTYLE
  2
Standard
  9
$DIMCLRD
 70
     0
  9
$DIMCLRE
 70
     0
  9
$DIMCLRT
 70
     0
  9
$DIMTFAC
 40
1.0
  9
$DIMGAP
 40
0.09
  9
$DIMJUST
 70
     0
  9
$DIMSD1
 70
     0
  9
$DIMSD2
 70
     0
  9
$DIMTOLJ
 70
     1
  9
$DIMTZIN
 70
     0
  9
$DIMALTZ
 70
     0
  9
$DIMALTTZ
 70
     0
  9
$DIMUPT
 70
     0
  9
$DIMDEC
 70
     4
  9
$DIMTDEC
 70
     4
  9
$DIMALTU
 70
     2
  9
$DIMALTTD
 70
     2
  9
$DIMTXSTY
  7
Standard
  9
$DIMAUNIT
 70
     0
  9
$DIMADEC
 70
     0
  9
$DIMALTRND
 40
0.0
  9
$DIMAZIN
 70
     0
  9
$DIMDSEP
 70
    46
  9
$DIMATFIT
 70
     3
  9
$DIMFRAC
 70
     0
  9
$DIMLDRBLK
  1

  9
$DIMLUNIT
 70
     2
  9
$DIMLWD
 70
    -2
  9
$DIMLWE
 70
    -2
  9
$DIMTMOVE
 70
     0
  9
$DIMFXL
 40
1.0
  9
$DIMFXLON
 70
     0
  9
$DIMJOGANG
 40
0.7853981633974483
  9
$DIMTFILL
 70
     0
  9
$DIMTFILLCLR
 70
     0
  9
$DIMARCSYM
 70
     0
  9
$DIMLTYPE
  6

  9
$DIMLTEX1
  6

  9
$DIMLTEX2
  6

  9
$DIMTXTDIRECTION
 70
     0
  9
$LUNITS
 70
     2
  9
$LUPREC
 70
     4
  9
$SKETCHINC
 40
0.1
  9
$FILLETRAD
 40
0.5
  9
$AUNITS
 70
     0
  9
$AUPREC
 70
     0
  9
$MENU
  1
.
  9
$ELEVATION
 40
0.0
  9
$PELEVATION
 40
0.0
  9
$THICKNESS
 40
0.0
  9
$LIMCHECK
 70
     0
  9
$CHAMFERA
 40
0.5
  9
$CHAMFERB
 40
0.5
  9
$CHAMFERC
 40
1.0
  9
$CHAMFERD
 40
0.0
  9
$SKPOLY
 70
     0
  9
$TDCREATE
 40
2457917.598541667
  9
$TDUCREATE
 40
2457917.223541667
  9
$TDUPDATE
 40
2457917.598541667
  9
$TDUUPDATE
 40
2457917.223541667
  9
$TDINDWG
 40
0.0000000116
  9
$TDUSRTIMER
 40
0.0000000116
  9
$USRTIMER
 70
     1
  9
$ANGBASE
 50
0.0
  9
$ANGDIR
 70
     0
  9
$PDMODE
 70
     0
  9
$PDSIZE
 40
0.0
  9
$PLINEWID
 40
0.0
  9
$SPLFRAME
 70
     0
  9
$SPLINETYPE
 70
     6
  9
$SPLINESEGS
 70
     8
  9
$HANDSEED
  5
CB
  9
$SURFTAB1
 70
     6
  9
$SURFTAB2
 70
     6
  9
$SURFTYPE
 70
     6
  9
$SURFU
 70
     6
  9
$SURFV
 70
     6
  9
$UCSBASE
  2

  9
$UCSNAME
  2

  9
$UCSORG
 10
0.0
 20
0.0
 30
0.0
  9
$UCSXDIR
 10
1.0
 20
0.0
 30
0.0
  9
$UCSYDIR
 10
0.0
 20
1.0
 30
0.0
  9
$UCSORTHOREF
  2

  9
$UCSORTHOVIEW
 70
     0
  9
$UCSORGTOP
 10
0.0
 20
0.0
 30
0.0
  9
$UCSORGBOTTOM
 10
0.0
 20
0.0
 30
0.0
  9
$UCSORGLEFT
 10
0.0
 20
0.0
 30
0.0
  9
$UCSORGRIGHT
 10
0.0
 20
0.0
 30
0.0
  9
$UCSORGFRONT
 10
0.0
 20
0.0
 30
0.0
  9
$UCSORGBACK
 10
0.0
 20
0.0
 30
0.0
  9
$PUCSBASE
  2

  9
$PUCSNAME
  2

  9
$PUCSORG
 10
0.0
 20
0.0
 30
0.0
  9
$PUCSXDIR
 10
1.0
 20
0.0
 30
0.0
  9
$PUCSYDIR
 10
0.0
 20
1.0
 30
0.0
  9
$PUCSORTHOREF
  2

  9
$PUCSORTHOVIEW
 70
     0
  9
$PUCSORGTOP
 10
0.0
 20
0.0
 30
0.0
  9
$PUCSORGBOTTOM
 10
0.0
 20
0.0
 30
0.0
  9
$PUCSORGLEFT
 10
0.0
 20
0.0
 30
0.0
  9
$PUCSORGRIGHT
 10
0.0
 20
0.0
 30
0.0
  9
$PUCSORGFRONT
 10
0.0
 20
0.0
 30
0.0
  9
$PUCSORGBACK
 10
0.0
 20
0.0
 30
0.0
  9
$USERI1
 70
     0
  9
$USERI2
 70
     0
  9
$USERI3
 70
     0
  9
$USERI4
 70
     0
  9
$USERI5
 70
     0
  9
$USERR1
 40
0.0
  9
$USERR2
 40
0.0
  9
$USERR3
 40
0.0
  9
$USERR4
 40
0.0
  9
$USERR5
 40
0.0
  9
$WORLDVIEW
 70
     1
  9
$SHADEDGE
 70
     3
  9
$SHADEDIF
 70
    70
  9
$TILEMODE
 70
     1
  9
$MAXACTVP
 70
    64
  9
$PINSBASE
 10
0.0
 20
0.0
 30
0.0
  9
$PLIMCHECK
 70
     0
  9
$PEXTMIN
 10
1.000000000000000E+20
 20
1.000000000000000E+20
 30
1.000000000000000E+20
  9
$PEXTMAX
 10
-1.000000000000000E+20
 20
-1.000000000000000E+20
 30
-1.000000000000000E+20
  9
$PLIMMIN
 10
0.0
 20
0.0
  9
$PLIMMAX
 10
12.0
 20
9.0
  9
$UNITMODE
 70
     0
  9
$VISRETAIN
 70
     1
  9
$PLINEGEN
 70
     0
  9
$PSLTSCALE
 70
     1
  9
$TREEDEPTH
 70
  3020
  9
$CMLSTYLE
  2
Standard
  9
$CMLJUST
 70
     0
  9
$CMLSCALE
 40
1.0
  9
$PROXYGRAPHICS
 70
     1
  9
$MEASUREMENT
 70
     0
  9
$CELWEIGHT
370
    -1
  9
$ENDCAPS
280
     0
  9
$JOINSTYLE
280
     0
  9
$LWDISPLAY
290
     1
  9
$INSUNITS
 70
     1
  9
$HYPERLINKBASE
  1

  9
$STYLESHEET
  1

  9
$XEDIT
290
     1
  9
$CEPSNTYPE
380
     0
  9
$PSTYLEMODE
290
     1
  9
$FINGERPRINTGUID
  2
{90543750-3831-4AD9-06B4-23FE3D998B01}
  9
$VERSIONGUID
  2
{FAEB1C32-E019-11D5-929B-00C0DF256EC4}
  9
$EXTNAMES
290
     1
  9
$PSVPSCALE
 40
0.0
  9
$OLESTARTUP
290
     0
  9
$SORTENTS
280
   127
  9
$INDEXCTL
280
     0
  9
$HIDETEXT
280
     1
  9
$XCLIPFRAME
280
     2
  9
$HALOGAP
280
     0
  9
$OBSCOLOR
 70
   257
  9
$OBSLTYPE
280
     0
  9
$INTERSECTIONDISPLAY
280
     0
  9
$INTERSECTIONCOLOR
 70
   257
  9
$DIMASSOC
280
     2
  9
$PROJECTNAME
  1

  9
$CAMERADISPLAY
290
     0
  9
$LENSLENGTH
 40
50.0
  9
$CAMERAHEIGHT
 40
0.0
  9
$STEPSPERSEC
 40
2.0
  9
$STEPSIZE
 40
6.0
  9
$3DDWFPREC
 40
2.0
  9
$PSOLWIDTH
 40
0.25
  9
$PSOLHEIGHT
 40
4.0
  9
$LOFTANG1
 40
1.570796326794897
  9
$LOFTANG2
 40
1.570796326794897
  9
$LOFTMAG1
 40
0.0
  9
$LOFTMAG2
 40
0.0
  9
$LOFTPARAM
 70
     7
  9
$LOFTNORMALS
280
     1
  9
$LATITUDE
 40
37.795
  9
$LONGITUDE
 40
-122.394
  9
$NORTHDIRECTION
 40
0.0
  9
$TIMEZONE
 70
 -8000
  9
$LIGHTGLYPHDISPLAY
280
     1
  9
$TILEMODELIGHTSYNCH
280
     1
  9
$CMATERIAL
347
3C
  9
$SOLIDHIST
280
     1
  9
$SHOWHIST
280
     1
  9
$DWFFRAME
280
     2
  9
$DGNFRAME
280
     2
  9
$REALWORLDSCALE
290
     1
  9
$INTERFERECOLOR
 62
   256
  9
$CSHADOW
280
     0
  9
$SHADOWPLANELOCATION
 40
0.0
  0
ENDSEC
  0
SECTION
  2
CLASSES
  0
CLASS
  1
ACDBDICTIONARYWDFLT
  2
AcDbDictionaryWithDefault
  3
ObjectDBX Classes
 90
        0
 91
        4
280
     0
281
     0
  0
CLASS
  1
VISUALSTYLE
  2
AcDbVisualStyle
  3
ObjectDBX Classes
 90
     4095
 91
        4
280
     0
281
     0
  0
CLASS
  1
MATERIAL
  2
AcDbMaterial
  3
ObjectDBX Classes
 90
     1153
 91
        4
280
     0
281
     0
  0
CLASS
  1
SUN
  2
AcDbSun
  3
SCENEOE
 90
     1024
 91
        4
280
     0
281
     0
  0
ENDSEC
  0
SECTION
  2
TABLES
  0
TABLE
  2
VPORT
  5
8
330
0
100
AcDbSymbolTable
 70
     1
  0
VPORT
  5
29
330
8
100
AcDbSymbolTableRecord
100
AcDbViewportTableRecord
  2
*Active
 70
     0
 10
0.0
 20
0.0
 11
1.0
 21
1.0
 12
0.0
 22
0.0
 13
0.0
 23
0.0
 14
0.5
 24
0.5
 15
0.5
 25
0.5
 16
0.0
 26
0.0
 36
1.0
 17
63.499999984125
 27
-89.00059456108309
 37
0.0
 40
178.0011891221662
 41
0.7134783795241226
 42
50.0
 43
0.0
 44
0.0
 50
0.0
 51
0.0
 71
     0
 72
   100
 73
     1
 74
     3
 75
     0
 76
     0
 77
     0
 78
     0
281
     0
 65
     1
110
0.0
120
0.0
130
0.0
111
1.0
121
0.0
131
0.0
112
0.0
122
1.0
132
0.0
 79
     0
146
0.0
 60
     3
 61
     5
292
     1
282
     1
141
0.0
142
0.0
 63
   250
361
3F
  0
ENDTAB
  0
TABLE
  2
LTYPE
  5
5
330
0
100
AcDbSymbolTable
 70
     2
  0
LTYPE
  5
14
330
5
100
AcDbSymbolTableRecord
100
AcDbLinetypeTableRecord
  2
ByBlock
 70
     0
  3

 72
    65
 73
     0
 40
0.0
  0
LTYPE
  5
15
330
5
100
AcDbSymbolTableRecord
100
AcDbLinetypeTableRecord
  2
ByLayer
 70
     0
  3

 72
    65
 73
     0
 40
0.0
  0
LTYPE
  5
16
330
5
100
AcDbSymbolTableRecord
100
AcDbLinetypeTableRecord
  2
Continuous
 70
     0
  3
Solid line
 72
    65
 73
     0
 40
0.0
  0
LTYPE
  5
80
330
5
100
AcDbSymbolTableRecord
100
AcDbLinetypeTableRecord
  2
AI-Linetype-1
 70
     0
  3
Adobe Illustrator Linetype No. 1
 72
    65
 73
     2
 40
1.411111110758333
 49
0.7055555553791667
 74
     0
 49
-0.7055555553791667
 74
     0
  0
ENDTAB
  0
TABLE
  2
LAYER
  5
2
330
0
100
AcDbSymbolTable
 70
     2
  0
LAYER
  5
10
330
2
100
AcDbSymbolTableRecord
100
AcDbLayerTableRecord
  2
0
 70
     0
 62
     7
  6
Continuous
370
    -3
390
F
347
3E
  0
LAYER
  5
40
330
2
100
AcDbSymbolTableRecord
100
AcDbLayerTableRecord
  2
_U+30EC_U+30A4_U+30E4_U+30FC 1
 70
     0
 62
     7
  6
Continuous
370
    -3
390
F
347
3E
  0
ENDTAB
  0
TABLE
  2
STYLE
  5
3
330
0
100
AcDbSymbolTable
 70
     1
  0
STYLE
  5
11
330
3
100
AcDbSymbolTableRecord
100
AcDbTextStyleTableRecord
  2
Standard
 70
     0
 40
0.0
 41
1.0
 50
0.0
 71
     0
 42
0.2
  3
txt
  4

  0
ENDTAB
  0
TABLE
  2
VIEW
  5
6
330
0
100
AcDbSymbolTable
 70
     0
  0
ENDTAB
  0
TABLE
  2
UCS
  5
7
330
0
100
AcDbSymbolTable
 70
     0
  0
ENDTAB
  0
TABLE
  2
APPID
  5
9
330
0
100
AcDbSymbolTable
 70
     1
  0
APPID
  5
12
330
9
100
AcDbSymbolTableRecord
100
AcDbRegAppTableRecord
  2
ACAD
 70
     0
  0
ENDTAB
  0
TABLE
  2
DIMSTYLE
  5
A
330
0
100
AcDbSymbolTable
 70
     1
100
AcDbDimStyleTable
  0
DIMSTYLE
105
27
330
A
100
AcDbSymbolTableRecord
100
AcDbDimStyleTableRecord
  2
Standard
 70
     0
178
     0
340
11
  0
ENDTAB
  0
TABLE
  2
BLOCK_RECORD
  5
1
330
0
100
AcDbSymbolTable
 70
     6
  0
BLOCK_RECORD
  5
1F
330
1
100
AcDbSymbolTableRecord
100
AcDbBlockTableRecord
  2
*Model_Space
340
22
 70
     0
280
     1
281
     0
  0
BLOCK_RECORD
  5
1B
330
1
100
AcDbSymbolTableRecord
100
AcDbBlockTableRecord
  2
*Paper_Space
340
1E
 70
     0
280
     1
281
     0
  0
BLOCK_RECORD
  5
23
330
1
100
AcDbSymbolTableRecord
100
AcDbBlockTableRecord
  2
*Paper_Space0
340
26
 70
     0
280
     1
281
     0
  0
BLOCK_RECORD
  5
4C
330
1
100
AcDbSymbolTableRecord
100
AcDbBlockTableRecord
  2
block 2
340
0
102
{BLKREFS
331
4D
102
}
 70
     0
280
     1
281
     0
  0
BLOCK_RECORD
  5
5C
330
1
100
AcDbSymbolTableRecord
100
AcDbBlockTableRecord
  2
block 3
340
0
102
{BLKREFS
331
5D
102
}
 70
     0
280
     1
281
     0
  0
BLOCK_RECORD
  5
62
330
1
100
AcDbSymbolTableRecord
100
AcDbBlockTableRecord
  2
block 4
340
0
102
{BLKREFS
331
63
102
}
 70
     0
280
     1
281
     0
  0
BLOCK_RECORD
  5
72
330
1
100
AcDbSymbolTableRecord
100
AcDbBlockTableRecord
  2
block 5
340
0
102
{BLKREFS
331
73
102
}
 70
     0
280
     1
281
     0
  0
BLOCK_RECORD
  5
8B
330
1
100
AcDbSymbolTableRecord
100
AcDbBlockTableRecord
  2
block 6
340
0
102
{BLKREFS
331
8C
102
}
 70
     0
280
     1
281
     0
  0
ENDTAB
  0
ENDSEC
  0
SECTION
  2
BLOCKS
  0
BLOCK
  5
20
330
1F
100
AcDbEntity
  8
0
100
AcDbBlockBegin
  2
*Model_Space
 70
     0
 10
0.0
 20
0.0
 30
0.0
  3
*Model_Space
  1

  0
ENDBLK
  5
21
330
1F
100
AcDbEntity
  8
0
100
AcDbBlockEnd
  0
BLOCK
  5
1C
330
1B
100
AcDbEntity
 67
     1
  8
0
100
AcDbBlockBegin
  2
*Paper_Space
 70
     0
 10
0.0
 20
0.0
 30
0.0
  3
*Paper_Space
  1

  0
ENDBLK
  5
1D
330
1B
100
AcDbEntity
 67
     1
  8
0
100
AcDbBlockEnd
  0
BLOCK
  5
24
330
23
100
AcDbEntity
  8
0
100
AcDbBlockBegin
  2
*Paper_Space0
 70
     0
 10
0.0
 20
0.0
 30
0.0
  3
*Paper_Space0
  1

  0
ENDBLK
  5
25
330
23
100
AcDbEntity
  8
0
100
AcDbBlockEnd
  0
BLOCK
  5
4E
330
4C
100
AcDbEntity
  8
0
100
AcDbBlockBegin
  2
block 2
 70
     0
 10
0.0
 20
0.0
 30
0.0
  3
block 2
  1

  0
POLYLINE
  5
50
330
4C
100
AcDbEntity
  8
_U+30EC_U+30A4_U+30E4_U+30FC 1
 62
     7
420
 16777215
370
     9
100
AcDb2dPolyline
 66
     1
 10
0.0
 20
0.0
 30
0.0
  0
VERTEX
  5
51
330
50
100
AcDbEntity
  8
_U+30EC_U+30A4_U+30E4_U+30FC 1
 62
     7
420
 16777215
370
     9
100
AcDbVertex
100
AcDb2dVertex
 10
64.82637223503035
 20
-88.28316803348487
 30
0.0
  0
VERTEX
  5
52
330
50
100
AcDbEntity
  8
_U+30EC_U+30A4_U+30E4_U+30FC 1
 62
     7
420
 16777215
370
     9
100
AcDbVertex
100
AcDb2dVertex
 10
64.82637223503035
 20
-91.2833313660681
 30
0.0
  0
SEQEND
  5
53
330
50
100
AcDbEntity
  8
_U+30EC_U+30A4_U+30E4_U+30FC 1
 62
     7
420
 16777215
370
     9
  0
POLYLINE
  5
54
330
4C
100
AcDbEntity
  8
_U+30EC_U+30A4_U+30E4_U+30FC 1
 62
     7
420
 16777215
370
     9
100
AcDb2dPolyline
 66
     1
 10
0.0
 20
0.0
 30
0.0
  0
VERTEX
  5
55
330
54
100
AcDbEntity
  8
_U+30EC_U+30A4_U+30E4_U+30FC 1
 62
     7
420
 16777215
370
     9
100
AcDbVertex
100
AcDb2dVertex
 10
63.36633088339022
 20
-88.28316803348487
 30
0.0
  0
VERTEX
  5
56
330
54
100
AcDbEntity
  8
_U+30EC_U+30A4_U+30E4_U+30FC 1
 62
     7
420
 16777215
370
     9
100
AcDbVertex
100
AcDb2dVertex
 10
65.82614443174626
 20
-88.28316803348487
 30
0.0
  0
SEQEND
  5
57
330
54
100
AcDbEntity
  8
_U+30EC_U+30A4_U+30E4_U+30FC 1
 62
     7
420
 16777215
370
     9
  0
POLYLINE
  5
58
330
4C
100
AcDbEntity
  8
_U+30EC_U+30A4_U+30E4_U+30FC 1
 62
     7
420
 16777215
370
     9
100
AcDb2dPolyline
 66
     1
 10
0.0
 20
0.0
 30
0.0
  0
VERTEX
  5
59
330
58
100
AcDbEntity
  8
_U+30EC_U+30A4_U+30E4_U+30FC 1
 62
     7
420
 16777215
370
     9
100
AcDbVertex
100
AcDb2dVertex
 10
63.36633088339022
 20
-91.2833313660681
 30
0.0
  0
VERTEX
  5
5A
330
58
100
AcDbEntity
  8
_U+30EC_U+30A4_U+30E4_U+30FC 1
 62
     7
420
 16777215
370
     9
100
AcDbVertex
100
AcDb2dVertex
 10
65.82614443174626
 20
-91.2833313660681
 30
0.0
  0
SEQEND
  5
5B
330
58
100
AcDbEntity
  8
_U+30EC_U+30A4_U+30E4_U+30FC 1
 62
     7
420
 16777215
370
     9
  0
INSERT
  5
5D
330
4C
100
AcDbEntity
  8
_U+30EC_U+30A4_U+30E4_U+30FC 1
100
AcDbBlockReference
  2
block 3
 10
0.0
 20
0.0
 30
0.0
  0
ENDBLK
  5
4F
330
4C
100
AcDbEntity
  8
0
100
AcDbBlockEnd
  0
BLOCK
  5
5E
330
5C
100
AcDbEntity
  8
0
100
AcDbBlockBegin
  2
block 3
 70
     0
 10
0.0
 20
0.0
 30
0.0
  3
block 3
  1

  0
SPLINE
  5
60
330
5C
100
AcDbEntity
  8
_U+30EC_U+30A4_U+30E4_U+30FC 1
370
     0
100
AcDbSpline
210
0.0
220
0.0
230
1.0
 70
    11
 71
     3
 72
    62
 73
    58
 74
     0
 42
0.0000000001
 43
0.0000000001
 12
1.0
 22
0.0
 32
0.0
 13
1.0
 23
0.0
 33
0.0
 40
0.0
 40
0.0
 40
0.0
 40
0.0
 40
1.0
 40
1.0
 40
1.0
 40
2.0
 40
2.0
 40
2.0
 40
3.0
 40
3.0
 40
3.0
 40
4.0
 40
4.0
 40
4.0
 40
5.0
 40
5.0
 40
5.0
 40
6.0
 40
6.0
 40
6.0
 40
7.0
 40
7.0
 40
7.0
 40
8.0
 40
8.0
 40
8.0
 40
9.0
 40
9.0
 40
9.0
 40
10.0
 40
10.0
 40
10.0
 40
11.0
 40
11.0
 40
11.0
 40
12.0
 40
12.0
 40
12.0
 40
13.0
 40
13.0
 40
13.0
 40
14.0
 40
14.0
 40
14.0
 40
15.0
 40
15.0
 40
15.0
 40
16.0
 40
16.0
 40
16.0
 40
17.0
 40
17.0
 40
17.0
 40
18.0
 40
18.0
 40
18.0
 40
19.0
 40
19.0
 40
19.0
 40
19.0
 10
63.52446016207028
 20
-89.79193519890619
 30
0.0
 10
63.52446016207028
 20
-89.88736434384761
 30
0.0
 10
63.50344507961025
 20
-90.1050943785154
 30
0.0
 10
63.31740992340676
 20
-90.23015134462996
 30
0.0
 10
63.20509981058762
 20
-90.30422089756284
 30
0.0
 10
63.10588106061242
 20
-90.30835501214514
 30
0.0
 10
63.02113171167527
 20
-90.31248912672744
 30
0.0
 10
63.02113171167527
 20
-90.31248912672744
 30
0.0
 10
63.02113171167527
 20
-90.09234752521998
 30
0.0
 10
63.02113171167527
 20
-90.09234752521998
 30
0.0
 10
63.09520126460815
 20
-90.09028046792882
 30
0.0
 10
63.32981226715366
 20
-90.07994518147308
 30
0.0
 10
63.32981226715366
 20
-89.79641382303701
 30
0.0
 10
63.32981226715366
 20
-89.65895451317554
 30
0.0
 10
63.26022133835161
 20
-89.50633678317898
 30
0.0
 10
63.03181150767955
 20
-89.50633678317898
 30
0.0
 10
62.9153672802781
 20
-89.50633678317898
 30
0.0
 10
62.86679143393609
 20
-89.54457734306524
 30
0.0
 10
62.83509655547179
 20
-89.57627222152955
 30
0.0
 10
62.76102700253891
 20
-89.65034177446242
 30
0.0
 10
62.74828014924349
 20
-89.76678600186386
 30
0.0
 10
62.74828014924349
 20
-89.82156302007934
 30
0.0
 10
62.74828014924349
 20
-89.84085555479673
 30
0.0
 10
62.75034720653464
 20
-89.87668454784334
 30
0.0
 10
62.75448132111694
 20
-89.90424531172533
 30
0.0
 10
62.75448132111694
 20
-89.90424531172533
 30
0.0
 10
62.55983342620032
 20
-89.90424531172533
 30
0.0
 10
62.55983342620032
 20
-89.90424531172533
 30
0.0
 10
62.5663791076223
 20
-89.86600475183906
 30
0.0
 10
62.56844616491345
 20
-89.82397458691901
 30
0.0
 10
62.56844616491345
 20
-89.81742890549704
 30
0.0
 10
62.56844616491345
 20
-89.7519720912773
 30
0.0
 10
62.5470865729049
 20
-89.55319008177837
 30
0.0
 10
62.31040851306823
 20
-89.55319008177837
 30
0.0
 10
62.13264158602934
 20
-89.55319008177837
 30
0.0
 10
62.07752005826534
 20
-89.68410371021787
 30
0.0
 10
62.07752005826534
 20
-89.79434676574586
 30
0.0
 10
62.07752005826534
 20
-90.05858558946453
 30
0.0
 10
62.31040851306823
 20
-90.06719832817765
 30
0.0
 10
62.38206649916143
 20
-90.07133244275995
 30
0.0
 10
62.38206649916143
 20
-90.07133244275995
 30
0.0
 10
62.38206649916143
 20
-90.27459307638969
 30
0.0
 10
62.38206649916143
 20
-90.27459307638969
 30
0.0
 10
62.25735404259539
 20
-90.26598033767657
 30
0.0
 10
61.88080510605758
 20
-90.23841957379456
 30
0.0
 10
61.88080510605758
 20
-89.78159991245043
 30
0.0
 10
61.88080510605758
 20
-89.55732419636067
 30
0.0
 10
62.0079291294633
 20
-89.31616751239318
 30
0.0
 10
62.30386283164626
 20
-89.31616751239318
 30
0.0
 10
62.49024249739828
 20
-89.31616751239318
 30
0.0
 10
62.57258027949575
 20
-89.41125214778609
 30
0.0
 10
62.6339029791332
 20
-89.5108154073098
 30
0.0
 10
62.66146374301519
 20
-89.44949270767235
 30
0.0
 10
62.74173446782152
 20
-89.26759166605116
 30
0.0
 10
63.01906465438412
 20
-89.26759166605116
 30
0.0
 10
63.35737303103566
 20
-89.26759166605116
 30
0.0
 10
63.52446016207028
 20
-89.5149495218921
 30
0.0
 10
63.52446016207028
 20
-89.79193519890619
 30
0.0
  0
HATCH
  5
61
330
5C
100
AcDbEntity
  8
_U+30EC_U+30A4_U+30E4_U+30FC 1
 62
     7
420
 16777215
100
AcDbHatch
 10
0.0
 20
0.0
 30
0.0
210
0.0
220
0.0
230
1.0
  2
SOLID
 70
     1
 71
     0
 91
        1
 92
        1
 93
        1
 72
     4
 94
        3
 73
     0
 74
     1
 95
       62
 96
       58
 40
0.0
 40
0.0
 40
0.0
 40
0.0
 40
1.0
 40
1.0
 40
1.0
 40
2.0
 40
2.0
 40
2.0
 40
3.0
 40
3.0
 40
3.0
 40
4.0
 40
4.0
 40
4.0
 40
5.0
 40
5.0
 40
5.0
 40
6.0
 40
6.0
 40
6.0
 40
7.0
 40
7.0
 40
7.0
 40
8.0
 40
8.0
 40
8.0
 40
9.0
 40
9.0
 40
9.0
 40
10.0
 40
10.0
 40
10.0
 40
11.0
 40
11.0
 40
11.0
 40
12.0
 40
12.0
 40
12.0
 40
13.0
 40
13.0
 40
13.0
 40
14.0
 40
14.0
 40
14.0
 40
15.0
 40
15.0
 40
15.0
 40
16.0
 40
16.0
 40
16.0
 40
17.0
 40
17.0
 40
17.0
 40
18.0
 40
18.0
 40
18.0
 40
19.0
 40
19.0
 40
19.0
 40
19.0
 10
63.52446016207028
 20
-89.79193519890619
 10
63.52446016207028
 20
-89.88736434384761
 10
63.50344507961025
 20
-90.1050943785154
 10
63.31740992340676
 20
-90.23015134462996
 10
63.20509981058762
 20
-90.30422089756284
 10
63.10588106061242
 20
-90.30835501214514
 10
63.02113171167527
 20
-90.31248912672744
 10
63.02113171167527
 20
-90.31248912672744
 10
63.02113171167527
 20
-90.09234752521998
 10
63.02113171167527
 20
-90.09234752521998
 10
63.09520126460815
 20
-90.09028046792882
 10
63.32981226715366
 20
-90.07994518147308
 10
63.32981226715366
 20
-89.79641382303701
 10
63.32981226715366
 20
-89.65895451317554
 10
63.26022133835161
 20
-89.50633678317898
 10
63.03181150767955
 20
-89.50633678317898
 10
62.9153672802781
 20
-89.50633678317898
 10
62.86679143393609
 20
-89.54457734306524
 10
62.83509655547179
 20
-89.57627222152955
 10
62.76102700253891
 20
-89.65034177446242
 10
62.74828014924349
 20
-89.76678600186386
 10
62.74828014924349
 20
-89.82156302007934
 10
62.74828014924349
 20
-89.84085555479673
 10
62.75034720653464
 20
-89.87668454784334
 10
62.75448132111694
 20
-89.90424531172533
 10
62.75448132111694
 20
-89.90424531172533
 10
62.55983342620032
 20
-89.90424531172533
 10
62.55983342620032
 20
-89.90424531172533
 10
62.5663791076223
 20
-89.86600475183906
 10
62.56844616491345
 20
-89.82397458691901
 10
62.56844616491345
 20
-89.81742890549704
 10
62.56844616491345
 20
-89.7519720912773
 10
62.5470865729049
 20
-89.55319008177837
 10
62.31040851306823
 20
-89.55319008177837
 10
62.13264158602934
 20
-89.55319008177837
 10
62.07752005826534
 20
-89.68410371021787
 10
62.07752005826534
 20
-89.79434676574586
 10
62.07752005826534
 20
-90.05858558946453
 10
62.31040851306823
 20
-90.06719832817765
 10
62.38206649916143
 20
-90.07133244275995
 10
62.38206649916143
 20
-90.07133244275995
 10
62.38206649916143
 20
-90.27459307638969
 10
62.38206649916143
 20
-90.27459307638969
 10
62.25735404259539
 20
-90.26598033767657
 10
61.88080510605758
 20
-90.23841957379456
 10
61.88080510605758
 20
-89.78159991245043
 10
61.88080510605758
 20
-89.55732419636067
 10
62.0079291294633
 20
-89.31616751239318
 10
62.30386283164626
 20
-89.31616751239318
 10
62.49024249739828
 20
-89.31616751239318
 10
62.57258027949575
 20
-89.41125214778609
 10
62.6339029791332
 20
-89.5108154073098
 10
62.66146374301519
 20
-89.44949270767235
 10
62.74173446782152
 20
-89.26759166605116
 10
63.01906465438412
 20
-89.26759166605116
 10
63.35737303103566
 20
-89.26759166605116
 10
63.52446016207028
 20
-89.5149495218921
 10
63.52446016207028
 20
-89.79193519890619
 97
        0
 97
        0
 75
     2
 76
     1
 98
        0
  0
ENDBLK
  5
5F
330
5C
100
AcDbEntity
  8
0
100
AcDbBlockEnd
  0
BLOCK
  5
64
330
62
100
AcDbEntity
  8
0
100
AcDbBlockBegin
  2
block 4
 70
     0
 10
0.0
 20
0.0
 30
0.0
  3
block 4
  1

  0
POLYLINE
  5
66
330
62
100
AcDbEntity
  8
_U+30EC_U+30A4_U+30E4_U+30FC 1
 62
     7
420
 16777215
370
     9
100
AcDb2dPolyline
 66
     1
 10
0.0
 20
0.0
 30
0.0
  0
VERTEX
  5
67
330
66
100
AcDbEntity
  8
_U+30EC_U+30A4_U+30E4_U+30FC 1
 62
     7
420
 16777215
370
     9
100
AcDbVertex
100
AcDb2dVertex
 10
50.82617481442736
 20
-84.283408867818
 30
0.0
  0
VERTEX
  5
68
330
66
100
AcDbEntity
  8
_U+30EC_U+30A4_U+30E4_U+30FC 1
 62
     7
420
 16777215
370
     9
100
AcDbVertex
100
AcDb2dVertex
 10
60.82590761486848
 20
-84.283408867818
 30
0.0
  0
SEQEND
  5
69
330
66
100
AcDbEntity
  8
_U+30EC_U+30A4_U+30E4_U+30FC 1
 62
     7
420
 16777215
370
     9
  0
POLYLINE
  5
6A
330
62
100
AcDbEntity
  8
_U+30EC_U+30A4_U+30E4_U+30FC 1
 62
     7
420
 16777215
370
     9
100
AcDb2dPolyline
 66
     1
 10
0.0
 20
0.0
 30
0.0
  0
VERTEX
  5
6B
330
6A
100
AcDbEntity
  8
_U+30EC_U+30A4_U+30E4_U+30FC 1
 62
     7
420
 16777215
370
     9
100
AcDbVertex
100
AcDb2dVertex
 10
50.82617481442736
 20
-85.74341497856418
 30
0.0
  0
VERTEX
  5
6C
330
6A
100
AcDbEntity
  8
_U+30EC_U+30A4_U+30E4_U+30FC 1
 62
     7
420
 16777215
370
     9
100
AcDbVertex
100
AcDb2dVertex
 10
50.82617481442736
 20
-83.28363664584577
 30
0.0
  0
SEQEND
  5
6D
330
6A
100
AcDbEntity
  8
_U+30EC_U+30A4_U+30E4_U+30FC 1
 62
     7
420
 16777215
370
     9
  0
POLYLINE
  5
6E
330
62
100
AcDbEntity
  8
_U+30EC_U+30A4_U+30E4_U+30FC 1
 62
     7
420
 16777215
370
     9
100
AcDb2dPolyline
 66
     1
 10
0.0
 20
0.0
 30
0.0
  0
VERTEX
  5
6F
330
6E
100
AcDbEntity
  8
_U+30EC_U+30A4_U+30E4_U+30FC 1
 62
     7
420
 16777215
370
     9
100
AcDbVertex
100
AcDb2dVertex
 10
60.82590761486848
 20
-85.74341497856418
 30
0.0
  0
VERTEX
  5
70
330
6E
100
AcDbEntity
  8
_U+30EC_U+30A4_U+30E4_U+30FC 1
 62
     7
420
 16777215
370
     9
100
AcDbVertex
100
AcDb2dVertex
 10
60.82590761486848
 20
-83.28363664584577
 30
0.0
  0
SEQEND
  5
71
330
6E
100
AcDbEntity
  8
_U+30EC_U+30A4_U+30E4_U+30FC 1
 62
     7
420
 16777215
370
     9
  0
INSERT
  5
73
330
62
100
AcDbEntity
  8
_U+30EC_U+30A4_U+30E4_U+30FC 1
100
AcDbBlockReference
  2
block 5
 10
0.0
 20
0.0
 30
0.0
  0
ENDBLK
  5
65
330
62
100
AcDbEntity
  8
0
100
AcDbBlockEnd
  0
BLOCK
  5
74
330
72
100
AcDbEntity
  8
0
100
AcDbBlockBegin
  2
block 5
 70
     0
 10
0.0
 20
0.0
 30
0.0
  3
block 5
  1

  0
SPLINE
  5
76
330
72
100
AcDbEntity
  8
_U+30EC_U+30A4_U+30E4_U+30FC 1
370
     0
100
AcDbSpline
210
0.0
220
0.0
230
1.0
 70
    11
 71
     3
 72
    26
 73
    22
 74
     0
 42
0.0000000001
 43
0.0000000001
 12
1.0
 22
0.0
 32
0.0
 13
1.0
 23
0.0
 33
0.0
 40
0.0
 40
0.0
 40
0.0
 40
0.0
 40
1.0
 40
1.0
 40
1.0
 40
2.0
 40
2.0
 40
2.0
 40
3.0
 40
3.0
 40
3.0
 40
4.0
 40
4.0
 40
4.0
 40
5.0
 40
5.0
 40
5.0
 40
6.0
 40
6.0
 40
6.0
 40
7.0
 40
7.0
 40
7.0
 40
7.0
 10
55.18819036163698
 20
-82.93171655912819
 30
0.0
 10
55.18819036163698
 20
-82.93171655912819
 30
0.0
 10
55.18819036163698
 20
-81.82739120133135
 30
0.0
 10
55.18819036163698
 20
-81.82739120133135
 30
0.0
 10
55.18819036163698
 20
-81.82739120133135
 30
0.0
 10
54.85815021415005
 20
-81.82739120133135
 30
0.0
 10
54.85815021415005
 20
-81.82739120133135
 30
0.0
 10
54.85815021415005
 20
-81.82739120133135
 30
0.0
 10
54.85815021415005
 20
-81.67942435023987
 30
0.0
 10
54.85815021415005
 20
-81.67942435023987
 30
0.0
 10
55.19025741892813
 20
-81.6646104396533
 30
0.0
 10
55.236766207979
 20
-81.50165742320098
 30
0.0
 10
55.26639402915215
 20
-81.38745250786495
 30
0.0
 10
55.26639402915215
 20
-81.38745250786495
 30
0.0
 10
55.41246607772675
 20
-81.38745250786495
 30
0.0
 10
55.41246607772675
 20
-81.38745250786495
 30
0.0
 10
55.41246607772675
 20
-81.38745250786495
 30
0.0
 10
55.41246607772675
 20
-82.93171655912819
 30
0.0
 10
55.41246607772675
 20
-82.93171655912819
 30
0.0
 10
55.41246607772675
 20
-82.93171655912819
 30
0.0
 10
55.18819036163698
 20
-82.93171655912819
 30
0.0
 10
55.18819036163698
 20
-82.93171655912819
 30
0.0
  0
HATCH
  5
77
330
72
100
AcDbEntity
  8
_U+30EC_U+30A4_U+30E4_U+30FC 1
 62
     7
420
 16777215
100
AcDbHatch
 10
0.0
 20
0.0
 30
0.0
210
0.0
220
0.0
230
1.0
  2
SOLID
 70
     1
 71
     0
 91
        1
 92
        1
 93
        1
 72
     4
 94
        3
 73
     0
 74
     1
 95
       26
 96
       22
 40
0.0
 40
0.0
 40
0.0
 40
0.0
 40
1.0
 40
1.0
 40
1.0
 40
2.0
 40
2.0
 40
2.0
 40
3.0
 40
3.0
 40
3.0
 40
4.0
 40
4.0
 40
4.0
 40
5.0
 40
5.0
 40
5.0
 40
6.0
 40
6.0
 40
6.0
 40
7.0
 40
7.0
 40
7.0
 40
7.0
 10
55.18819036163698
 20
-82.93171655912819
 10
55.18819036163698
 20
-82.93171655912819
 10
55.18819036163698
 20
-81.82739120133135
 10
55.18819036163698
 20
-81.82739120133135
 10
55.18819036163698
 20
-81.82739120133135
 10
54.85815021415005
 20
-81.82739120133135
 10
54.85815021415005
 20
-81.82739120133135
 10
54.85815021415005
 20
-81.82739120133135
 10
54.85815021415005
 20
-81.67942435023987
 10
54.85815021415005
 20
-81.67942435023987
 10
55.19025741892813
 20
-81.6646104396533
 10
55.236766207979
 20
-81.50165742320098
 10
55.26639402915215
 20
-81.38745250786495
 10
55.26639402915215
 20
-81.38745250786495
 10
55.41246607772675
 20
-81.38745250786495
 10
55.41246607772675
 20
-81.38745250786495
 10
55.41246607772675
 20
-81.38745250786495
 10
55.41246607772675
 20
-82.93171655912819
 10
55.41246607772675
 20
-82.93171655912819
 10
55.41246607772675
 20
-82.93171655912819
 10
55.18819036163698
 20
-82.93171655912819
 10
55.18819036163698
 20
-82.93171655912819
 97
        0
 97
        0
 75
     2
 76
     1
 98
        0
  0
SPLINE
  5
78
330
72
100
AcDbEntity
  8
_U+30EC_U+30A4_U+30E4_U+30FC 1
370
     0
100
AcDbSpline
210
0.0
220
0.0
230
1.0
 70
    11
 71
     3
 72
    29
 73
    25
 74
     0
 42
0.0000000001
 43
0.0000000001
 12
1.0
 22
0.0
 32
0.0
 13
1.0
 23
0.0
 33
0.0
 40
0.0
 40
0.0
 40
0.0
 40
0.0
 40
1.0
 40
1.0
 40
1.0
 40
2.0
 40
2.0
 40
2.0
 40
3.0
 40
3.0
 40
3.0
 40
4.0
 40
4.0
 40
4.0
 40
5.0
 40
5.0
 40
5.0
 40
6.0
 40
6.0
 40
6.0
 40
7.0
 40
7.0
 40
7.0
 40
8.0
 40
8.0
 40
8.0
 40
8.0
 10
56.81151935428671
 20
-82.75394963208929
 30
0.0
 10
56.70334335604986
 20
-82.96341143759248
 30
0.0
 10
56.53005505314179
 20
-82.98253171753562
 30
0.0
 10
56.41361082574035
 20
-82.98253171753562
 30
0.0
 10
56.25272486657919
 20
-82.98253171753562
 30
0.0
 10
56.11113144213542
 20
-82.93602292848475
 30
0.0
 10
56.01604680674252
 20
-82.75394963208929
 30
0.0
 10
55.9123494326365
 20
-82.55930173717267
 30
0.0
 10
55.8930568979191
 20
-82.32245142256176
 30
0.0
 10
55.8930568979191
 20
-82.15949840610944
 30
0.0
 10
55.8930568979191
 20
-82.01566566960025
 30
0.0
 10
55.91028237534535
 20
-81.76400144440275
 30
0.0
 10
56.01604680674252
 20
-81.56504718012958
 30
0.0
 10
56.12387829543084
 20
-81.3619588012741
 30
0.0
 10
56.28476425459201
 20
-81.33870440674866
 30
0.0
 10
56.41361082574035
 20
-81.33870440674866
 30
0.0
 10
56.57242972761037
 20
-81.33870440674866
 30
0.0
 10
56.71609020934529
 20
-81.38314613850838
 30
0.0
 10
56.81151935428671
 20
-81.56504718012958
 30
0.0
 10
56.9107381042619
 20
-81.75762801775504
 30
0.0
 10
56.9341647535616
 20
-81.9860378484271
 30
0.0
 10
56.9341647535616
 20
-82.15949840610944
 30
0.0
 10
56.9341647535616
 20
-82.33089190650061
 30
0.0
 10
56.91280516155305
 20
-82.56154104923809
 30
0.0
 10
56.81151935428671
 20
-82.75394963208929
 30
0.0
  0
SPLINE
  5
79
330
72
100
AcDbEntity
  8
_U+30EC_U+30A4_U+30E4_U+30FC 1
370
     0
100
AcDbSpline
210
0.0
220
0.0
230
1.0
 70
    11
 71
     3
 72
    17
 73
    13
 74
     0
 42
0.0000000001
 43
0.0000000001
 12
1.0
 22
0.0
 32
0.0
 13
1.0
 23
0.0
 33
0.0
 40
0.0
 40
0.0
 40
0.0
 40
0.0
 40
1.0
 40
1.0
 40
1.0
 40
2.0
 40
2.0
 40
2.0
 40
3.0
 40
3.0
 40
3.0
 40
4.0
 40
4.0
 40
4.0
 40
4.0
 10
56.41361082574035
 20
-81.53128524437413
 30
0.0
 10
56.16384140305973
 20
-81.53128524437413
 30
0.0
 10
56.11733261400887
 20
-81.81481660281018
 30
0.0
 10
56.11733261400887
 20
-82.15949840610944
 30
0.0
 10
56.11733261400887
 20
-82.47903101236636
 30
0.0
 10
56.15350611660399
 20
-82.78788382261901
 30
0.0
 10
56.41361082574035
 20
-82.78788382261901
 30
0.0
 10
56.66131319112981
 20
-82.78788382261901
 30
0.0
 10
56.70988903747184
 20
-82.50641952147409
 30
0.0
 10
56.70988903747184
 20
-82.15949840610944
 30
0.0
 10
56.70988903747184
 20
-81.84013805462678
 30
0.0
 10
56.67164847758556
 20
-81.53128524437413
 30
0.0
 10
56.41361082574035
 20
-81.53128524437413
 30
0.0
  0
HATCH
  5
7A
330
72
100
AcDbEntity
  8
_U+30EC_U+30A4_U+30E4_U+30FC 1
 62
     7
420
 16777215
100
AcDbHatch
 10
0.0
 20
0.0
 30
0.0
210
0.0
220
0.0
230
1.0
  2
SOLID
 70
     1
 71
     0
 91
        2
 92
        1
 93
        1
 72
     4
 94
        3
 73
     0
 74
     1
 95
       29
 96
       25
 40
0.0
 40
0.0
 40
0.0
 40
0.0
 40
1.0
 40
1.0
 40
1.0
 40
2.0
 40
2.0
 40
2.0
 40
3.0
 40
3.0
 40
3.0
 40
4.0
 40
4.0
 40
4.0
 40
5.0
 40
5.0
 40
5.0
 40
6.0
 40
6.0
 40
6.0
 40
7.0
 40
7.0
 40
7.0
 40
8.0
 40
8.0
 40
8.0
 40
8.0
 10
56.81151935428671
 20
-82.75394963208929
 10
56.70334335604986
 20
-82.96341143759248
 10
56.53005505314179
 20
-82.98253171753562
 10
56.41361082574035
 20
-82.98253171753562
 10
56.25272486657919
 20
-82.98253171753562
 10
56.11113144213542
 20
-82.93602292848475
 10
56.01604680674252
 20
-82.75394963208929
 10
55.9123494326365
 20
-82.55930173717267
 10
55.8930568979191
 20
-82.32245142256176
 10
55.8930568979191
 20
-82.15949840610944
 10
55.8930568979191
 20
-82.01566566960025
 10
55.91028237534535
 20
-81.76400144440275
 10
56.01604680674252
 20
-81.56504718012958
 10
56.12387829543084
 20
-81.3619588012741
 10
56.28476425459201
 20
-81.33870440674866
 10
56.41361082574035
 20
-81.33870440674866
 10
56.57242972761037
 20
-81.33870440674866
 10
56.71609020934529
 20
-81.38314613850838
 10
56.81151935428671
 20
-81.56504718012958
 10
56.9107381042619
 20
-81.75762801775504
 10
56.9341647535616
 20
-81.9860378484271
 10
56.9341647535616
 20
-82.15949840610944
 10
56.9341647535616
 20
-82.33089190650061
 10
56.91280516155305
 20
-82.56154104923809
 10
56.81151935428671
 20
-82.75394963208929
 97
        0
 97
        0
 92
        1
 93
        1
 72
     4
 94
        3
 73
     0
 74
     1
 95
       17
 96
       13
 40
0.0
 40
0.0
 40
0.0
 40
0.0
 40
1.0
 40
1.0
 40
1.0
 40
2.0
 40
2.0
 40
2.0
 40
3.0
 40
3.0
 40
3.0
 40
4.0
 40
4.0
 40
4.0
 40
4.0
 10
56.41361082574035
 20
-81.53128524437413
 10
56.16384140305973
 20
-81.53128524437413
 10
56.11733261400887
 20
-81.81481660281018
 10
56.11733261400887
 20
-82.15949840610944
 10
56.11733261400887
 20
-82.47903101236636
 10
56.15350611660399
 20
-82.78788382261901
 10
56.41361082574035
 20
-82.78788382261901
 10
56.66131319112981
 20
-82.78788382261901
 10
56.70988903747184
 20
-82.50641952147409
 10
56.70988903747184
 20
-82.15949840610944
 10
56.70988903747184
 20
-81.84013805462678
 10
56.67164847758556
 20
-81.53128524437413
 10
56.41361082574035
 20
-81.53128524437413
 97
        0
 97
        0
 75
     2
 76
     1
 98
        0
  0
ENDBLK
  5
75
330
72
100
AcDbEntity
  8
0
100
AcDbBlockEnd
  0
BLOCK
  5
8D
330
8B
100
AcDbEntity
  8
0
100
AcDbBlockBegin
  2
block 6
 70
     0
 10
0.0
 20
0.0
 30
0.0
  3
block 6
  1

  0
SPLINE
  5
8F
330
8B
100
AcDbEntity
  8
_U+30EC_U+30A4_U+30E4_U+30FC 1
370
     0
100
AcDbSpline
210
0.0
220
0.0
230
1.0
 70
    11
 71
     3
 72
    17
 73
    13
 74
     0
 42
0.0000000001
 43
0.0000000001
 12
1.0
 22
0.0
 32
0.0
 13
1.0
 23
0.0
 33
0.0
 40
0.0
 40
0.0
 40
0.0
 40
0.0
 40
1.0
 40
1.0
 40
1.0
 40
2.0
 40
2.0
 40
2.0
 40
3.0
 40
3.0
 40
3.0
 40
4.0
 40
4.0
 40
4.0
 40
4.0
 10
59.90900470507484
 20
-96.85541447231392
 30
0.0
 10
59.80324027367767
 20
-96.74965004091676
 30
0.0
 10
59.72262503932282
 20
-96.71140948103049
 30
0.0
 10
59.62960746122107
 20
-96.6797146025662
 30
0.0
 10
59.62960746122107
 20
-96.6797146025662
 30
0.0
 10
59.73985051674907
 20
-96.51469452882272
 30
0.0
 10
59.73985051674907
 20
-96.51469452882272
 30
0.0
 10
59.83700220943312
 20
-96.55706920329129
 30
0.0
 10
59.95758055141686
 20
-96.63527287080646
 30
0.0
 10
60.0106350218897
 20
-96.69039439857046
 30
0.0
 10
60.0106350218897
 20
-96.69039439857046
 30
0.0
 10
59.90900470507484
 20
-96.85541447231392
 30
0.0
 10
59.90900470507484
 20
-96.85541447231392
 30
0.0
  0
SPLINE
  5
90
330
8B
100
AcDbEntity
  8
_U+30EC_U+30A4_U+30E4_U+30FC 1
370
     0
100
AcDbSpline
210
0.0
220
0.0
230
1.0
 70
    11
 71
     3
 72
   182
 73
   178
 74
     0
 42
0.0000000001
 43
0.0000000001
 12
1.0
 22
0.0
 32
0.0
 13
1.0
 23
0.0
 33
0.0
 40
0.0
 40
0.0
 40
0.0
 40
0.0
 40
1.0
 40
1.0
 40
1.0
 40
2.0
 40
2.0
 40
2.0
 40
3.0
 40
3.0
 40
3.0
 40
4.0
 40
4.0
 40
4.0
 40
5.0
 40
5.0
 40
5.0
 40
6.0
 40
6.0
 40
6.0
 40
7.0
 40
7.0
 40
7.0
 40
8.0
 40
8.0
 40
8.0
 40
9.0
 40
9.0
 40
9.0
 40
10.0
 40
10.0
 40
10.0
 40
11.0
 40
11.0
 40
11.0
 40
12.0
 40
12.0
 40
12.0
 40
13.0
 40
13.0
 40
13.0
 40
14.0
 40
14.0
 40
14.0
 40
15.0
 40
15.0
 40
15.0
 40
16.0
 40
16.0
 40
16.0
 40
17.0
 40
17.0
 40
17.0
 40
18.0
 40
18.0
 40
18.0
 40
19.0
 40
19.0
 40
19.0
 40
20.0
 40
20.0
 40
20.0
 40
21.0
 40
21.0
 40
21.0
 40
22.0
 40
22.0
 40
22.0
 40
23.0
 40
23.0
 40
23.0
 40
24.0
 40
24.0
 40
24.0
 40
25.0
 40
25.0
 40
25.0
 40
26.0
 40
26.0
 40
26.0
 40
27.0
 40
27.0
 40
27.0
 40
28.0
 40
28.0
 40
28.0
 40
29.0
 40
29.0
 40
29.0
 40
30.0
 40
30.0
 40
30.0
 40
31.0
 40
31.0
 40
31.0
 40
32.0
 40
32.0
 40
32.0
 40
33.0
 40
33.0
 40
33.0
 40
34.0
 40
34.0
 40
34.0
 40
35.0
 40
35.0
 40
35.0
 40
36.0
 40
36.0
 40
36.0
 40
37.0
 40
37.0
 40
37.0
 40
38.0
 40
38.0
 40
38.0
 40
39.0
 40
39.0
 40
39.0
 40
40.0
 40
40.0
 40
40.0
 40
41.0
 40
41.0
 40
41.0
 40
42.0
 40
42.0
 40
42.0
 40
43.0
 40
43.0
 40
43.0
 40
44.0
 40
44.0
 40
44.0
 40
45.0
 40
45.0
 40
45.0
 40
46.0
 40
46.0
 40
46.0
 40
47.0
 40
47.0
 40
47.0
 40
48.0
 40
48.0
 40
48.0
 40
49.0
 40
49.0
 40
49.0
 40
50.0
 40
50.0
 40
50.0
 40
51.0
 40
51.0
 40
51.0
 40
52.0
 40
52.0
 40
52.0
 40
53.0
 40
53.0
 40
53.0
 40
54.0
 40
54.0
 40
54.0
 40
55.0
 40
55.0
 40
55.0
 40
56.0
 40
56.0
 40
56.0
 40
57.0
 40
57.0
 40
57.0
 40
58.0
 40
58.0
 40
58.0
 40
59.0
 40
59.0
 40
59.0
 40
59.0
 10
60.95390216575111
 20
-98.03363712826938
 30
0.0
 10
60.95390216575111
 20
-98.03363712826938
 30
0.0
 10
60.31724852007694
 20
-98.03363712826938
 30
0.0
 10
60.31724852007694
 20
-98.03363712826938
 30
0.0
 10
60.10365259999145
 20
-98.03363712826938
 30
0.0
 10
59.88764511306628
 20
-98.0381157524002
 30
0.0
 10
59.6740491929808
 20
-98.0505180961471
 30
0.0
 10
59.6740491929808
 20
-98.0505180961471
 30
0.0
 10
59.6740491929808
 20
-97.84346785748359
 30
0.0
 10
59.6740491929808
 20
-97.84346785748359
 30
0.0
 10
59.89625785177941
 20
-97.85587020123049
 30
0.0
 10
60.21975231784437
 20
-97.8603488253613
 30
0.0
 10
60.31724852007694
 20
-97.8603488253613
 30
0.0
 10
60.31724852007694
 20
-97.8603488253613
 30
0.0
 10
60.53739012158441
 20
-97.8603488253613
 30
0.0
 10
60.53739012158441
 20
-97.8603488253613
 30
0.0
 10
60.53739012158441
 20
-97.8603488253613
 30
0.0
 10
60.53739012158441
 20
-97.71841089136902
 30
0.0
 10
60.53739012158441
 20
-97.71841089136902
 30
0.0
 10
60.53739012158441
 20
-97.71841089136902
 30
0.0
 10
60.37650416242324
 20
-97.71841089136902
 30
0.0
 10
60.37650416242324
 20
-97.71841089136902
 30
0.0
 10
60.21148408867977
 20
-97.71841089136902
 30
0.0
 10
60.0464640149363
 20
-97.72288951549984
 30
0.0
 10
59.88144394119283
 20
-97.73770342608641
 30
0.0
 10
59.88144394119283
 20
-97.73770342608641
 30
0.0
 10
59.88144394119283
 20
-97.52824162058322
 30
0.0
 10
59.88144394119283
 20
-97.52824162058322
 30
0.0
 10
60.05266518680975
 20
-97.5430555311698
 30
0.0
 10
60.30036755219922
 20
-97.5471896457521
 30
0.0
 10
60.37650416242324
 20
-97.5471896457521
 30
0.0
 10
60.37650416242324
 20
-97.5471896457521
 30
0.0
 10
60.53739012158441
 20
-97.5471896457521
 30
0.0
 10
60.53739012158441
 20
-97.5471896457521
 30
0.0
 10
60.53291149745358
 20
-97.47518715011037
 30
0.0
 10
60.53291149745358
 20
-97.46898597823693
 30
0.0
 10
60.52671032558013
 20
-97.41593150776407
 30
0.0
 10
60.52671032558013
 20
-97.41593150776407
 30
0.0
 10
60.66623669273275
 20
-97.43074541835065
 30
0.0
 10
60.66623669273275
 20
-97.43074541835065
 30
0.0
 10
60.66623669273275
 20
-97.43074541835065
 30
0.0
 10
60.56701794275755
 20
-97.25952417273373
 30
0.0
 10
60.56701794275755
 20
-97.25952417273373
 30
0.0
 10
60.61352673180843
 20
-97.26572534460719
 30
0.0
 10
60.6875962847413
 20
-97.2743380833203
 30
0.0
 10
60.70447725261902
 20
-97.2743380833203
 30
0.0
 10
60.7551201562522
 20
-97.2743380833203
 30
0.0
 10
60.77200112412992
 20
-97.25297849131177
 30
0.0
 10
60.77200112412992
 20
-97.19613441580513
 30
0.0
 10
60.77200112412992
 20
-97.19613441580513
 30
0.0
 10
60.77200112412992
 20
-97.05833059639514
 30
0.0
 10
60.77200112412992
 20
-97.05833059639514
 30
0.0
 10
60.77200112412992
 20
-97.05833059639514
 30
0.0
 10
60.66623669273275
 20
-97.05833059639514
 30
0.0
 10
60.66623669273275
 20
-97.05833059639514
 30
0.0
 10
60.53291149745358
 20
-97.05833059639514
 30
0.0
 10
60.37650416242324
 20
-97.05833059639514
 30
0.0
 10
60.25385876314834
 20
-97.07107744969056
 30
0.0
 10
60.25385876314834
 20
-97.07107744969056
 30
0.0
 10
60.25385876314834
 20
-96.88090817890478
 30
0.0
 10
60.25385876314834
 20
-96.88090817890478
 30
0.0
 10
60.42094589418296
 20
-96.8977891467825
 30
0.0
 10
60.65142278214618
 20
-96.89985620407366
 30
0.0
 10
60.66623669273275
 20
-96.89985620407366
 30
0.0
 10
60.66623669273275
 20
-96.89985620407366
 30
0.0
 10
60.77200112412992
 20
-96.89985620407366
 30
0.0
 10
60.77200112412992
 20
-96.89985620407366
 30
0.0
 10
60.77200112412992
 20
-96.89985620407366
 30
0.0
 10
60.77200112412992
 20
-96.76859806608563
 30
0.0
 10
60.77200112412992
 20
-96.76859806608563
 30
0.0
 10
60.77200112412992
 20
-96.76859806608563
 30
0.0
 10
60.73410507379217
 20
-96.76859806608563
 30
0.0
 10
60.73410507379217
 20
-96.76859806608563
 30
0.0
 10
60.68966334203245
 20
-96.76859806608563
 30
0.0
 10
60.56460637591788
 20
-96.77273218066793
 30
0.0
 10
60.47572291239843
 20
-96.78134491938106
 30
0.0
 10
60.47572291239843
 20
-96.78134491938106
 30
0.0
 10
60.47572291239843
 20
-96.70107419457473
 30
0.0
 10
60.47572291239843
 20
-96.70107419457473
 30
0.0
 10
60.42301295147411
 20
-96.73897024491248
 30
0.0
 10
60.39751924488326
 20
-96.75378415549906
 30
0.0
 10
60.35514457041469
 20
-96.77721080479876
 30
0.0
 10
60.35514457041469
 20
-96.77721080479876
 30
0.0
 10
60.16704235692005
 20
-96.64801972410189
 30
0.0
 10
60.16704235692005
 20
-96.64801972410189
 30
0.0
 10
60.24524602443522
 20
-96.61425778834644
 30
0.0
 10
60.40199786901409
 20
-96.55086803141785
 30
0.0
 10
60.55840520404443
 20
-96.4068630401344
 30
0.0
 10
60.6407429861419
 20
-96.32865937261923
 30
0.0
 10
60.7192911632056
 20
-96.24391002368208
 30
0.0
 10
60.77200112412992
 20
-96.14262421641574
 30
0.0
 10
60.77200112412992
 20
-96.14262421641574
 30
0.0
 10
60.98352998692426
 20
-96.20394691605318
 30
0.0
 10
60.98352998692426
 20
-96.20394691605318
 30
0.0
 10
61.00282252164166
 20
-96.21014808792664
 30
0.0
 10
61.01315780809741
 20
-96.21876082663975
 30
0.0
 10
61.01315780809741
 20
-96.23116317038665
 30
0.0
 10
61.01315780809741
 20
-96.2483886478129
 30
0.0
 10
61.00041095480199
 20
-96.25458981968636
 30
0.0
 10
60.97526175775966
 20
-96.26733667298178
 30
0.0
 10
61.05553248256598
 20
-96.36448836566582
 30
0.0
 10
61.2184854990183
 20
-96.4619845678984
 30
0.0
 10
61.25224743477375
 20
-96.48093259306727
 30
0.0
 10
61.40245359793064
 20
-96.56981605658672
 30
0.0
 10
61.51683076804093
 20
-96.59737682046871
 30
0.0
 10
61.59503443555611
 20
-96.61632484563759
 30
0.0
 10
61.59503443555611
 20
-96.61632484563759
 30
0.0
 10
61.47652315086351
 20
-96.78547903396336
 30
0.0
 10
61.47652315086351
 20
-96.78547903396336
 30
0.0
 10
61.39177380192636
 20
-96.7558512127902
 30
0.0
 10
61.34113089829319
 20
-96.73690318762134
 30
0.0
 10
61.2226196136006
 20
-96.6714463734016
 30
0.0
 10
61.2226196136006
 20
-96.6714463734016
 30
0.0
 10
61.2226196136006
 20
-96.78134491938106
 30
0.0
 10
61.2226196136006
 20
-96.78134491938106
 30
0.0
 10
61.14028183150312
 20
-96.77273218066793
 30
0.0
 10
61.01315780809741
 20
-96.76859806608563
 30
0.0
 10
60.96044784717309
 20
-96.76859806608563
 30
0.0
 10
60.96044784717309
 20
-96.76859806608563
 30
0.0
 10
60.96044784717309
 20
-96.89985620407366
 30
0.0
 10
60.96044784717309
 20
-96.89985620407366
 30
0.0
 10
60.96044784717309
 20
-96.89985620407366
 30
0.0
 10
61.08102618915683
 20
-96.89985620407366
 30
0.0
 10
61.08102618915683
 20
-96.89985620407366
 30
0.0
 10
61.08309324644798
 20
-96.89985620407366
 30
0.0
 10
61.31563719170234
 20
-96.8977891467825
 30
0.0
 10
61.49340411874123
 20
-96.88090817890478
 30
0.0
 10
61.49340411874123
 20
-96.88090817890478
 30
0.0
 10
61.49340411874123
 20
-97.07107744969056
 30
0.0
 10
61.49340411874123
 20
-97.07107744969056
 30
0.0
 10
61.36455754759289
 20
-97.05833059639514
 30
0.0
 10
61.20780570301402
 20
-97.05833059639514
 30
0.0
 10
61.08102618915683
 20
-97.05833059639514
 30
0.0
 10
61.08102618915683
 20
-97.05833059639514
 30
0.0
 10
60.96044784717309
 20
-97.05833059639514
 30
0.0
 10
60.96044784717309
 20
-97.05833059639514
 30
0.0
 10
60.96044784717309
 20
-97.05833059639514
 30
0.0
 10
60.96044784717309
 20
-97.28467336977606
 30
0.0
 10
60.96044784717309
 20
-97.28467336977606
 30
0.0
 10
60.96044784717309
 20
-97.40318465446865
 30
0.0
 10
60.93495414058224
 20
-97.43935815706378
 30
0.0
 10
60.77406818142107
 20
-97.45417206765035
 30
0.0
 10
60.77854680555189
 20
-97.47312009281923
 30
0.0
 10
60.77200112412992
 20
-97.4837998888235
 30
0.0
 10
60.73410507379217
 20
-97.50688202857468
 30
0.0
 10
60.73203801650102
 20
-97.52583005374355
 30
0.0
 10
60.73203801650102
 20
-97.53237573516552
 30
0.0
 10
60.72962644966135
 20
-97.5471896457521
 30
0.0
 10
60.72962644966135
 20
-97.5471896457521
 30
0.0
 10
60.86708575952282
 20
-97.5471896457521
 30
0.0
 10
60.86708575952282
 20
-97.5471896457521
 30
0.0
 10
61.03210583326628
 20
-97.5471896457521
 30
0.0
 10
61.19953747384942
 20
-97.5430555311698
 30
0.0
 10
61.36662460488404
 20
-97.52824162058322
 30
0.0
 10
61.36662460488404
 20
-97.52824162058322
 30
0.0
 10
61.36662460488404
 20
-97.73529185924674
 30
0.0
 10
61.36662460488404
 20
-97.73529185924674
 30
0.0
 10
61.15061711795887
 20
-97.71841089136902
 30
0.0
 10
60.88637829424022
 20
-97.71841089136902
 30
0.0
 10
60.86708575952282
 20
-97.71841089136902
 30
0.0
 10
60.86708575952282
 20
-97.71841089136902
 30
0.0
 10
60.7275593923702
 20
-97.71841089136902
 30
0.0
 10
60.7275593923702
 20
-97.71841089136902
 30
0.0
 10
60.7275593923702
 20
-97.71841089136902
 30
0.0
 10
60.7275593923702
 20
-97.8603488253613
 30
0.0
 10
60.7275593923702
 20
-97.8603488253613
 30
0.0
 10
60.7275593923702
 20
-97.8603488253613
 30
0.0
 10
60.95390216575111
 20
-97.8603488253613
 30
0.0
 10
60.95390216575111
 20
-97.8603488253613
 30
0.0
 10
61.16990965267627
 20
-97.8603488253613
 30
0.0
 10
61.38763968734406
 20
-97.85587020123049
 30
0.0
 10
61.60330266472071
 20
-97.84346785748359
 30
0.0
 10
61.60330266472071
 20
-97.84346785748359
 30
0.0
 10
61.60330266472071
 20
-98.0505180961471
 30
0.0
 10
61.60330266472071
 20
-98.0505180961471
 30
0.0
 10
61.32218287312432
 20
-98.03363712826938
 30
0.0
 10
60.97732881505081
 20
-98.03363712826938
 30
0.0
 10
60.95390216575111
 20
-98.03363712826938
 30
0.0
  0
SPLINE
  5
91
330
8B
100
AcDbEntity
  8
_U+30EC_U+30A4_U+30E4_U+30FC 1
370
     0
100
AcDbSpline
210
0.0
220
0.0
230
1.0
 70
    11
 71
     3
 72
    23
 73
    19
 74
     0
 42
0.0000000001
 43
0.0000000001
 12
1.0
 22
0.0
 32
0.0
 13
1.0
 23
0.0
 33
0.0
 40
0.0
 40
0.0
 40
0.0
 40
0.0
 40
1.0
 40
1.0
 40
1.0
 40
2.0
 40
2.0
 40
2.0
 40
3.0
 40
3.0
 40
3.0
 40
4.0
 40
4.0
 40
4.0
 40
5.0
 40
5.0
 40
5.0
 40
6.0
 40
6.0
 40
6.0
 40
6.0
 10
59.83493515214197
 20
-97.4052517117598
 30
0.0
 10
59.83493515214197
 20
-97.42661130376835
 30
0.0
 10
59.83700220943312
 20
-97.4645073541061
 30
0.0
 10
59.81150850284227
 20
-97.4645073541061
 30
0.0
 10
59.80117321638652
 20
-97.4645073541061
 30
0.0
 10
59.79256047767339
 20
-97.45830618223265
 30
0.0
 10
59.78188068166912
 20
-97.44142521435492
 30
0.0
 10
59.78188068166912
 20
-97.44142521435492
 30
0.0
 10
59.6781833075631
 20
-97.25952417273373
 30
0.0
 10
59.6781833075631
 20
-97.25952417273373
 30
0.0
 10
59.89419079448826
 20
-97.13033309203686
 30
0.0
 10
60.09090574669602
 20
-96.85334741502278
 30
0.0
 10
60.1374145357469
 20
-96.78134491938106
 30
0.0
 10
60.1374145357469
 20
-96.78134491938106
 30
0.0
 10
60.20941703138862
 20
-96.9611789037111
 30
0.0
 10
60.20941703138862
 20
-96.9611789037111
 30
0.0
 10
60.07609183610946
 20
-97.15789385591887
 30
0.0
 10
59.90039196636171
 20
-97.3418619548312
 30
0.0
 10
59.83493515214197
 20
-97.4052517117598
 30
0.0
  0
SPLINE
  5
92
330
8B
100
AcDbEntity
  8
_U+30EC_U+30A4_U+30E4_U+30FC 1
370
     0
100
AcDbSpline
210
0.0
220
0.0
230
1.0
 70
    11
 71
     3
 72
    17
 73
    13
 74
     0
 42
0.0000000001
 43
0.0000000001
 12
1.0
 22
0.0
 32
0.0
 13
1.0
 23
0.0
 33
0.0
 40
0.0
 40
0.0
 40
0.0
 40
0.0
 40
1.0
 40
1.0
 40
1.0
 40
2.0
 40
2.0
 40
2.0
 40
3.0
 40
3.0
 40
3.0
 40
4.0
 40
4.0
 40
4.0
 40
4.0
 10
60.08883868940487
 20
-96.51056041424042
 30
0.0
 10
60.02751598976743
 20
-96.4344238040164
 30
0.0
 10
59.89832490907056
 20
-96.35828719379238
 30
0.0
 10
59.79462753496454
 20
-96.32865937261923
 30
0.0
 10
59.79462753496454
 20
-96.32865937261923
 30
0.0
 10
59.89005667990596
 20
-96.16363929887576
 30
0.0
 10
59.89005667990596
 20
-96.16363929887576
 30
0.0
 10
59.9913424871723
 20
-96.19946829192236
 30
0.0
 10
60.09710691856947
 20
-96.2566568769775
 30
0.0
 10
60.18599038208892
 20
-96.33692760178383
 30
0.0
 10
60.18599038208892
 20
-96.33692760178383
 30
0.0
 10
60.08883868940487
 20
-96.51056041424042
 30
0.0
 10
60.08883868940487
 20
-96.51056041424042
 30
0.0
  0
SPLINE
  5
93
330
8B
100
AcDbEntity
  8
_U+30EC_U+30A4_U+30E4_U+30FC 1
370
     0
100
AcDbSpline
210
0.0
220
0.0
230
1.0
 70
    11
 71
     3
 72
    23
 73
    19
 74
     0
 42
0.0000000001
 43
0.0000000001
 12
1.0
 22
0.0
 32
0.0
 13
1.0
 23
0.0
 33
0.0
 40
0.0
 40
0.0
 40
0.0
 40
0.0
 40
1.0
 40
1.0
 40
1.0
 40
2.0
 40
2.0
 40
2.0
 40
3.0
 40
3.0
 40
3.0
 40
4.0
 40
4.0
 40
4.0
 40
5.0
 40
5.0
 40
5.0
 40
6.0
 40
6.0
 40
6.0
 40
6.0
 10
60.54152423616671
 20
-97.21508244097402
 30
0.0
 10
60.52016464415816
 20
-97.23816458072518
 30
0.0
 10
60.42301295147411
 20
-97.35047469354433
 30
0.0
 10
60.28348658432149
 20
-97.43074541835065
 30
0.0
 10
60.28348658432149
 20
-97.43074541835065
 30
0.0
 10
60.11639945328687
 20
-97.31016707636691
 30
0.0
 10
60.11639945328687
 20
-97.31016707636691
 30
0.0
 10
60.26660561644377
 20
-97.23403046614288
 30
0.0
 10
60.36582436641896
 20
-97.13894583074999
 30
0.0
 10
60.41440021276099
 20
-97.08589136027715
 30
0.0
 10
60.41440021276099
 20
-97.08589136027715
 30
0.0
 10
60.58803302521758
 20
-97.16857365192314
 30
0.0
 10
60.58803302521758
 20
-97.16857365192314
 30
0.0
 10
60.59630125438218
 20
-97.17270776650544
 30
0.0
 10
60.6049139930953
 20
-97.17890893837888
 30
0.0
 10
60.6049139930953
 20
-97.18958873438316
 30
0.0
 10
60.6049139930953
 20
-97.21508244097402
 30
0.0
 10
60.5690850000487
 20
-97.21508244097402
 30
0.0
 10
60.54152423616671
 20
-97.21508244097402
 30
0.0
  0
SPLINE
  5
94
330
8B
100
AcDbEntity
  8
_U+30EC_U+30A4_U+30E4_U+30FC 1
370
     0
100
AcDbSpline
210
0.0
220
0.0
230
1.0
 70
    11
 71
     3
 72
    20
 73
    16
 74
     0
 42
0.0000000001
 43
0.0000000001
 12
1.0
 22
0.0
 32
0.0
 13
1.0
 23
0.0
 33
0.0
 40
0.0
 40
0.0
 40
0.0
 40
0.0
 40
1.0
 40
1.0
 40
1.0
 40
2.0
 40
2.0
 40
2.0
 40
3.0
 40
3.0
 40
3.0
 40
4.0
 40
4.0
 40
4.0
 40
5.0
 40
5.0
 40
5.0
 40
5.0
 10
60.83986950518934
 20
-96.37310110437895
 30
0.0
 10
60.80162894530307
 20
-96.42167695072098
 30
0.0
 10
60.74030624566562
 20
-96.49988061823615
 30
0.0
 10
60.600779878513
 20
-96.61012367376414
 30
0.0
 10
60.68105060331932
 20
-96.61425778834644
 30
0.0
 10
60.71067842449247
 20
-96.61425778834644
 30
0.0
 10
60.73410507379217
 20
-96.61425778834644
 30
0.0
 10
60.73410507379217
 20
-96.61425778834644
 30
0.0
 10
60.96251490446424
 20
-96.61425778834644
 30
0.0
 10
60.96251490446424
 20
-96.61425778834644
 30
0.0
 10
60.99420978292854
 20
-96.61425778834644
 30
0.0
 10
61.04278562927055
 20
-96.61219073105529
 30
0.0
 10
61.11685518220343
 20
-96.61012367376414
 30
0.0
 10
61.00488957893281
 20
-96.53605412083127
 30
0.0
 10
60.95596922304226
 20
-96.48954533178039
 30
0.0
 10
60.83986950518934
 20
-96.37310110437895
 30
0.0
  0
SPLINE
  5
95
330
8B
100
AcDbEntity
  8
_U+30EC_U+30A4_U+30E4_U+30FC 1
370
     0
100
AcDbSpline
210
0.0
220
0.0
230
1.0
 70
    11
 71
     3
 72
    17
 73
    13
 74
     0
 42
0.0000000001
 43
0.0000000001
 12
1.0
 22
0.0
 32
0.0
 13
1.0
 23
0.0
 33
0.0
 40
0.0
 40
0.0
 40
0.0
 40
0.0
 40
1.0
 40
1.0
 40
1.0
 40
2.0
 40
2.0
 40
2.0
 40
3.0
 40
3.0
 40
3.0
 40
4.0
 40
4.0
 40
4.0
 40
4.0
 10
61.40038654063949
 20
-97.4286783610595
 30
0.0
 10
61.26499428806917
 20
-97.31671275778888
 30
0.0
 10
61.159229856672
 20
-97.25297849131177
 30
0.0
 10
61.0407185719794
 20
-97.18958873438316
 30
0.0
 10
61.0407185719794
 20
-97.18958873438316
 30
0.0
 10
61.1674980858366
 20
-97.07762313111255
 30
0.0
 10
61.1674980858366
 20
-97.07762313111255
 30
0.0
 10
61.29875622382462
 20
-97.12413192016342
 30
0.0
 10
61.40865476980409
 20
-97.18132050521857
 30
0.0
 10
61.53371173591866
 20
-97.2826063124849
 30
0.0
 10
61.53371173591866
 20
-97.2826063124849
 30
0.0
 10
61.40038654063949
 20
-97.4286783610595
 30
0.0
 10
61.40038654063949
 20
-97.4286783610595
 30
0.0
  0
HATCH
  5
96
330
8B
100
AcDbEntity
  8
_U+30EC_U+30A4_U+30E4_U+30FC 1
 62
   179
420
  2234388
100
AcDbHatch
 10
0.0
 20
0.0
 30
0.0
210
0.0
220
0.0
230
1.0
  2
SOLID
 70
     1
 71
     0
 91
        7
 92
        1
 93
        1
 72
     4
 94
        3
 73
     0
 74
     1
 95
       17
 96
       13
 40
0.0
 40
0.0
 40
0.0
 40
0.0
 40
1.0
 40
1.0
 40
1.0
 40
2.0
 40
2.0
 40
2.0
 40
3.0
 40
3.0
 40
3.0
 40
4.0
 40
4.0
 40
4.0
 40
4.0
 10
59.90900470507484
 20
-96.85541447231392
 10
59.80324027367767
 20
-96.74965004091676
 10
59.72262503932282
 20
-96.71140948103049
 10
59.62960746122107
 20
-96.6797146025662
 10
59.62960746122107
 20
-96.6797146025662
 10
59.73985051674907
 20
-96.51469452882272
 10
59.73985051674907
 20
-96.51469452882272
 10
59.83700220943312
 20
-96.55706920329129
 10
59.95758055141686
 20
-96.63527287080646
 10
60.0106350218897
 20
-96.69039439857046
 10
60.0106350218897
 20
-96.69039439857046
 10
59.90900470507484
 20
-96.85541447231392
 10
59.90900470507484
 20
-96.85541447231392
 97
        0
 97
        0
 92
        1
 93
        1
 72
     4
 94
        3
 73
     0
 74
     1
 95
      182
 96
      178
 40
0.0
 40
0.0
 40
0.0
 40
0.0
 40
1.0
 40
1.0
 40
1.0
 40
2.0
 40
2.0
 40
2.0
 40
3.0
 40
3.0
 40
3.0
 40
4.0
 40
4.0
 40
4.0
 40
5.0
 40
5.0
 40
5.0
 40
6.0
 40
6.0
 40
6.0
 40
7.0
 40
7.0
 40
7.0
 40
8.0
 40
8.0
 40
8.0
 40
9.0
 40
9.0
 40
9.0
 40
10.0
 40
10.0
 40
10.0
 40
11.0
 40
11.0
 40
11.0
 40
12.0
 40
12.0
 40
12.0
 40
13.0
 40
13.0
 40
13.0
 40
14.0
 40
14.0
 40
14.0
 40
15.0
 40
15.0
 40
15.0
 40
16.0
 40
16.0
 40
16.0
 40
17.0
 40
17.0
 40
17.0
 40
18.0
 40
18.0
 40
18.0
 40
19.0
 40
19.0
 40
19.0
 40
20.0
 40
20.0
 40
20.0
 40
21.0
 40
21.0
 40
21.0
 40
22.0
 40
22.0
 40
22.0
 40
23.0
 40
23.0
 40
23.0
 40
24.0
 40
24.0
 40
24.0
 40
25.0
 40
25.0
 40
25.0
 40
26.0
 40
26.0
 40
26.0
 40
27.0
 40
27.0
 40
27.0
 40
28.0
 40
28.0
 40
28.0
 40
29.0
 40
29.0
 40
29.0
 40
30.0
 40
30.0
 40
30.0
 40
31.0
 40
31.0
 40
31.0
 40
32.0
 40
32.0
 40
32.0
 40
33.0
 40
33.0
 40
33.0
 40
34.0
 40
34.0
 40
34.0
 40
35.0
 40
35.0
 40
35.0
 40
36.0
 40
36.0
 40
36.0
 40
37.0
 40
37.0
 40
37.0
 40
38.0
 40
38.0
 40
38.0
 40
39.0
 40
39.0
 40
39.0
 40
40.0
 40
40.0
 40
40.0
 40
41.0
 40
41.0
 40
41.0
 40
42.0
 40
42.0
 40
42.0
 40
43.0
 40
43.0
 40
43.0
 40
44.0
 40
44.0
 40
44.0
 40
45.0
 40
45.0
 40
45.0
 40
46.0
 40
46.0
 40
46.0
 40
47.0
 40
47.0
 40
47.0
 40
48.0
 40
48.0
 40
48.0
 40
49.0
 40
49.0
 40
49.0
 40
50.0
 40
50.0
 40
50.0
 40
51.0
 40
51.0
 40
51.0
 40
52.0
 40
52.0
 40
52.0
 40
53.0
 40
53.0
 40
53.0
 40
54.0
 40
54.0
 40
54.0
 40
55.0
 40
55.0
 40
55.0
 40
56.0
 40
56.0
 40
56.0
 40
57.0
 40
57.0
 40
57.0
 40
58.0
 40
58.0
 40
58.0
 40
59.0
 40
59.0
 40
59.0
 40
59.0
 10
60.95390216575111
 20
-98.03363712826938
 10
60.95390216575111
 20
-98.03363712826938
 10
60.31724852007694
 20
-98.03363712826938
 10
60.31724852007694
 20
-98.03363712826938
 10
60.10365259999145
 20
-98.03363712826938
 10
59.88764511306628
 20
-98.0381157524002
 10
59.6740491929808
 20
-98.0505180961471
 10
59.6740491929808
 20
-98.0505180961471
 10
59.6740491929808
 20
-97.84346785748359
 10
59.6740491929808
 20
-97.84346785748359
 10
59.89625785177941
 20
-97.85587020123049
 10
60.21975231784437
 20
-97.8603488253613
 10
60.31724852007694
 20
-97.8603488253613
 10
60.31724852007694
 20
-97.8603488253613
 10
60.53739012158441
 20
-97.8603488253613
 10
60.53739012158441
 20
-97.8603488253613
 10
60.53739012158441
 20
-97.8603488253613
 10
60.53739012158441
 20
-97.71841089136902
 10
60.53739012158441
 20
-97.71841089136902
 10
60.53739012158441
 20
-97.71841089136902
 10
60.37650416242324
 20
-97.71841089136902
 10
60.37650416242324
 20
-97.71841089136902
 10
60.21148408867977
 20
-97.71841089136902
 10
60.0464640149363
 20
-97.72288951549984
 10
59.88144394119283
 20
-97.73770342608641
 10
59.88144394119283
 20
-97.73770342608641
 10
59.88144394119283
 20
-97.52824162058322
 10
59.88144394119283
 20
-97.52824162058322
 10
60.05266518680975
 20
-97.5430555311698
 10
60.30036755219922
 20
-97.5471896457521
 10
60.37650416242324
 20
-97.5471896457521
 10
60.37650416242324
 20
-97.5471896457521
 10
60.53739012158441
 20
-97.5471896457521
 10
60.53739012158441
 20
-97.5471896457521
 10
60.53291149745358
 20
-97.47518715011037
 10
60.53291149745358
 20
-97.46898597823693
 10
60.52671032558013
 20
-97.41593150776407
 10
60.52671032558013
 20
-97.41593150776407
 10
60.66623669273275
 20
-97.43074541835065
 10
60.66623669273275
 20
-97.43074541835065
 10
60.66623669273275
 20
-97.43074541835065
 10
60.56701794275755
 20
-97.25952417273373
 10
60.56701794275755
 20
-97.25952417273373
 10
60.61352673180843
 20
-97.26572534460719
 10
60.6875962847413
 20
-97.2743380833203
 10
60.70447725261902
 20
-97.2743380833203
 10
60.7551201562522
 20
-97.2743380833203
 10
60.77200112412992
 20
-97.25297849131177
 10
60.77200112412992
 20
-97.19613441580513
 10
60.77200112412992
 20
-97.19613441580513
 10
60.77200112412992
 20
-97.05833059639514
 10
60.77200112412992
 20
-97.05833059639514
 10
60.77200112412992
 20
-97.05833059639514
 10
60.66623669273275
 20
-97.05833059639514
 10
60.66623669273275
 20
-97.05833059639514
 10
60.53291149745358
 20
-97.05833059639514
 10
60.37650416242324
 20
-97.05833059639514
 10
60.25385876314834
 20
-97.07107744969056
 10
60.25385876314834
 20
-97.07107744969056
 10
60.25385876314834
 20
-96.88090817890478
 10
60.25385876314834
 20
-96.88090817890478
 10
60.42094589418296
 20
-96.8977891467825
 10
60.65142278214618
 20
-96.89985620407366
 10
60.66623669273275
 20
-96.89985620407366
 10
60.66623669273275
 20
-96.89985620407366
 10
60.77200112412992
 20
-96.89985620407366
 10
60.77200112412992
 20
-96.89985620407366
 10
60.77200112412992
 20
-96.89985620407366
 10
60.77200112412992
 20
-96.76859806608563
 10
60.77200112412992
 20
-96.76859806608563
 10
60.77200112412992
 20
-96.76859806608563
 10
60.73410507379217
 20
-96.76859806608563
 10
60.73410507379217
 20
-96.76859806608563
 10
60.68966334203245
 20
-96.76859806608563
 10
60.56460637591788
 20
-96.77273218066793
 10
60.47572291239843
 20
-96.78134491938106
 10
60.47572291239843
 20
-96.78134491938106
 10
60.47572291239843
 20
-96.70107419457473
 10
60.47572291239843
 20
-96.70107419457473
 10
60.42301295147411
 20
-96.73897024491248
 10
60.39751924488326
 20
-96.75378415549906
 10
60.35514457041469
 20
-96.77721080479876
 10
60.35514457041469
 20
-96.77721080479876
 10
60.16704235692005
 20
-96.64801972410189
 10
60.16704235692005
 20
-96.64801972410189
 10
60.24524602443522
 20
-96.61425778834644
 10
60.40199786901409
 20
-96.55086803141785
 10
60.55840520404443
 20
-96.4068630401344
 10
60.6407429861419
 20
-96.32865937261923
 10
60.7192911632056
 20
-96.24391002368208
 10
60.77200112412992
 20
-96.14262421641574
 10
60.77200112412992
 20
-96.14262421641574
 10
60.98352998692426
 20
-96.20394691605318
 10
60.98352998692426
 20
-96.20394691605318
 10
61.00282252164166
 20
-96.21014808792664
 10
61.01315780809741
 20
-96.21876082663975
 10
61.01315780809741
 20
-96.23116317038665
 10
61.01315780809741
 20
-96.2483886478129
 10
61.00041095480199
 20
-96.25458981968636
 10
60.97526175775966
 20
-96.26733667298178
 10
61.05553248256598
 20
-96.36448836566582
 10
61.2184854990183
 20
-96.4619845678984
 10
61.25224743477375
 20
-96.48093259306727
 10
61.40245359793064
 20
-96.56981605658672
 10
61.51683076804093
 20
-96.59737682046871
 10
61.59503443555611
 20
-96.61632484563759
 10
61.59503443555611
 20
-96.61632484563759
 10
61.47652315086351
 20
-96.78547903396336
 10
61.47652315086351
 20
-96.78547903396336
 10
61.39177380192636
 20
-96.7558512127902
 10
61.34113089829319
 20
-96.73690318762134
 10
61.2226196136006
 20
-96.6714463734016
 10
61.2226196136006
 20
-96.6714463734016
 10
61.2226196136006
 20
-96.78134491938106
 10
61.2226196136006
 20
-96.78134491938106
 10
61.14028183150312
 20
-96.77273218066793
 10
61.01315780809741
 20
-96.76859806608563
 10
60.96044784717309
 20
-96.76859806608563
 10
60.96044784717309
 20
-96.76859806608563
 10
60.96044784717309
 20
-96.89985620407366
 10
60.96044784717309
 20
-96.89985620407366
 10
60.96044784717309
 20
-96.89985620407366
 10
61.08102618915683
 20
-96.89985620407366
 10
61.08102618915683
 20
-96.89985620407366
 10
61.08309324644798
 20
-96.89985620407366
 10
61.31563719170234
 20
-96.8977891467825
 10
61.49340411874123
 20
-96.88090817890478
 10
61.49340411874123
 20
-96.88090817890478
 10
61.49340411874123
 20
-97.07107744969056
 10
61.49340411874123
 20
-97.07107744969056
 10
61.36455754759289
 20
-97.05833059639514
 10
61.20780570301402
 20
-97.05833059639514
 10
61.08102618915683
 20
-97.05833059639514
 10
61.08102618915683
 20
-97.05833059639514
 10
60.96044784717309
 20
-97.05833059639514
 10
60.96044784717309
 20
-97.05833059639514
 10
60.96044784717309
 20
-97.05833059639514
 10
60.96044784717309
 20
-97.28467336977606
 10
60.96044784717309
 20
-97.28467336977606
 10
60.96044784717309
 20
-97.40318465446865
 10
60.93495414058224
 20
-97.43935815706378
 10
60.77406818142107
 20
-97.45417206765035
 10
60.77854680555189
 20
-97.47312009281923
 10
60.77200112412992
 20
-97.4837998888235
 10
60.73410507379217
 20
-97.50688202857468
 10
60.73203801650102
 20
-97.52583005374355
 10
60.73203801650102
 20
-97.53237573516552
 10
60.72962644966135
 20
-97.5471896457521
 10
60.72962644966135
 20
-97.5471896457521
 10
60.86708575952282
 20
-97.5471896457521
 10
60.86708575952282
 20
-97.5471896457521
 10
61.03210583326628
 20
-97.5471896457521
 10
61.19953747384942
 20
-97.5430555311698
 10
61.36662460488404
 20
-97.52824162058322
 10
61.36662460488404
 20
-97.52824162058322
 10
61.36662460488404
 20
-97.73529185924674
 10
61.36662460488404
 20
-97.73529185924674
 10
61.15061711795887
 20
-97.71841089136902
 10
60.88637829424022
 20
-97.71841089136902
 10
60.86708575952282
 20
-97.71841089136902
 10
60.86708575952282
 20
-97.71841089136902
 10
60.7275593923702
 20
-97.71841089136902
 10
60.7275593923702
 20
-97.71841089136902
 10
60.7275593923702
 20
-97.71841089136902
 10
60.7275593923702
 20
-97.8603488253613
 10
60.7275593923702
 20
-97.8603488253613
 10
60.7275593923702
 20
-97.8603488253613
 10
60.95390216575111
 20
-97.8603488253613
 10
60.95390216575111
 20
-97.8603488253613
 10
61.16990965267627
 20
-97.8603488253613
 10
61.38763968734406
 20
-97.85587020123049
 10
61.60330266472071
 20
-97.84346785748359
 10
61.60330266472071
 20
-97.84346785748359
 10
61.60330266472071
 20
-98.0505180961471
 10
61.60330266472071
 20
-98.0505180961471
 10
61.32218287312432
 20
-98.03363712826938
 10
60.97732881505081
 20
-98.03363712826938
 10
60.95390216575111
 20
-98.03363712826938
 97
        0
 97
        0
 92
        1
 93
        1
 72
     4
 94
        3
 73
     0
 74
     1
 95
       23
 96
       19
 40
0.0
 40
0.0
 40
0.0
 40
0.0
 40
1.0
 40
1.0
 40
1.0
 40
2.0
 40
2.0
 40
2.0
 40
3.0
 40
3.0
 40
3.0
 40
4.0
 40
4.0
 40
4.0
 40
5.0
 40
5.0
 40
5.0
 40
6.0
 40
6.0
 40
6.0
 40
6.0
 10
59.83493515214197
 20
-97.4052517117598
 10
59.83493515214197
 20
-97.42661130376835
 10
59.83700220943312
 20
-97.4645073541061
 10
59.81150850284227
 20
-97.4645073541061
 10
59.80117321638652
 20
-97.4645073541061
 10
59.79256047767339
 20
-97.45830618223265
 10
59.78188068166912
 20
-97.44142521435492
 10
59.78188068166912
 20
-97.44142521435492
 10
59.6781833075631
 20
-97.25952417273373
 10
59.6781833075631
 20
-97.25952417273373
 10
59.89419079448826
 20
-97.13033309203686
 10
60.09090574669602
 20
-96.85334741502278
 10
60.1374145357469
 20
-96.78134491938106
 10
60.1374145357469
 20
-96.78134491938106
 10
60.20941703138862
 20
-96.9611789037111
 10
60.20941703138862
 20
-96.9611789037111
 10
60.07609183610946
 20
-97.15789385591887
 10
59.90039196636171
 20
-97.3418619548312
 10
59.83493515214197
 20
-97.4052517117598
 97
        0
 97
        0
 92
        1
 93
        1
 72
     4
 94
        3
 73
     0
 74
     1
 95
       17
 96
       13
 40
0.0
 40
0.0
 40
0.0
 40
0.0
 40
1.0
 40
1.0
 40
1.0
 40
2.0
 40
2.0
 40
2.0
 40
3.0
 40
3.0
 40
3.0
 40
4.0
 40
4.0
 40
4.0
 40
4.0
 10
60.08883868940487
 20
-96.51056041424042
 10
60.02751598976743
 20
-96.4344238040164
 10
59.89832490907056
 20
-96.35828719379238
 10
59.79462753496454
 20
-96.32865937261923
 10
59.79462753496454
 20
-96.32865937261923
 10
59.89005667990596
 20
-96.16363929887576
 10
59.89005667990596
 20
-96.16363929887576
 10
59.9913424871723
 20
-96.19946829192236
 10
60.09710691856947
 20
-96.2566568769775
 10
60.18599038208892
 20
-96.33692760178383
 10
60.18599038208892
 20
-96.33692760178383
 10
60.08883868940487
 20
-96.51056041424042
 10
60.08883868940487
 20
-96.51056041424042
 97
        0
 97
        0
 92
        1
 93
        1
 72
     4
 94
        3
 73
     0
 74
     1
 95
       23
 96
       19
 40
0.0
 40
0.0
 40
0.0
 40
0.0
 40
1.0
 40
1.0
 40
1.0
 40
2.0
 40
2.0
 40
2.0
 40
3.0
 40
3.0
 40
3.0
 40
4.0
 40
4.0
 40
4.0
 40
5.0
 40
5.0
 40
5.0
 40
6.0
 40
6.0
 40
6.0
 40
6.0
 10
60.54152423616671
 20
-97.21508244097402
 10
60.52016464415816
 20
-97.23816458072518
 10
60.42301295147411
 20
-97.35047469354433
 10
60.28348658432149
 20
-97.43074541835065
 10
60.28348658432149
 20
-97.43074541835065
 10
60.11639945328687
 20
-97.31016707636691
 10
60.11639945328687
 20
-97.31016707636691
 10
60.26660561644377
 20
-97.23403046614288
 10
60.36582436641896
 20
-97.13894583074999
 10
60.41440021276099
 20
-97.08589136027715
 10
60.41440021276099
 20
-97.08589136027715
 10
60.58803302521758
 20
-97.16857365192314
 10
60.58803302521758
 20
-97.16857365192314
 10
60.59630125438218
 20
-97.17270776650544
 10
60.6049139930953
 20
-97.17890893837888
 10
60.6049139930953
 20
-97.18958873438316
 10
60.6049139930953
 20
-97.21508244097402
 10
60.5690850000487
 20
-97.21508244097402
 10
60.54152423616671
 20
-97.21508244097402
 97
        0
 97
        0
 92
        1
 93
        1
 72
     4
 94
        3
 73
     0
 74
     1
 95
       20
 96
       16
 40
0.0
 40
0.0
 40
0.0
 40
0.0
 40
1.0
 40
1.0
 40
1.0
 40
2.0
 40
2.0
 40
2.0
 40
3.0
 40
3.0
 40
3.0
 40
4.0
 40
4.0
 40
4.0
 40
5.0
 40
5.0
 40
5.0
 40
5.0
 10
60.83986950518934
 20
-96.37310110437895
 10
60.80162894530307
 20
-96.42167695072098
 10
60.74030624566562
 20
-96.49988061823615
 10
60.600779878513
 20
-96.61012367376414
 10
60.68105060331932
 20
-96.61425778834644
 10
60.71067842449247
 20
-96.61425778834644
 10
60.73410507379217
 20
-96.61425778834644
 10
60.73410507379217
 20
-96.61425778834644
 10
60.96251490446424
 20
-96.61425778834644
 10
60.96251490446424
 20
-96.61425778834644
 10
60.99420978292854
 20
-96.61425778834644
 10
61.04278562927055
 20
-96.61219073105529
 10
61.11685518220343
 20
-96.61012367376414
 10
61.00488957893281
 20
-96.53605412083127
 10
60.95596922304226
 20
-96.48954533178039
 10
60.83986950518934
 20
-96.37310110437895
 97
        0
 97
        0
 92
        1
 93
        1
 72
     4
 94
        3
 73
     0
 74
     1
 95
       17
 96
       13
 40
0.0
 40
0.0
 40
0.0
 40
0.0
 40
1.0
 40
1.0
 40
1.0
 40
2.0
 40
2.0
 40
2.0
 40
3.0
 40
3.0
 40
3.0
 40
4.0
 40
4.0
 40
4.0
 40
4.0
 10
61.40038654063949
 20
-97.4286783610595
 10
61.26499428806917
 20
-97.31671275778888
 10
61.159229856672
 20
-97.25297849131177
 10
61.0407185719794
 20
-97.18958873438316
 10
61.0407185719794
 20
-97.18958873438316
 10
61.1674980858366
 20
-97.07762313111255
 10
61.1674980858366
 20
-97.07762313111255
 10
61.29875622382462
 20
-97.12413192016342
 10
61.40865476980409
 20
-97.18132050521857
 10
61.53371173591866
 20
-97.2826063124849
 10
61.53371173591866
 20
-97.2826063124849
 10
61.40038654063949
 20
-97.4286783610595
 10
61.40038654063949
 20
-97.4286783610595
 97
        0
 97
        0
 75
     2
 76
     1
 98
        0
  0
SPLINE
  5
97
330
8B
100
AcDbEntity
  8
_U+30EC_U+30A4_U+30E4_U+30FC 1
370
     0
100
AcDbSpline
210
0.0
220
0.0
230
1.0
 70
    11
 71
     3
 72
   113
 73
   109
 74
     0
 42
0.0000000001
 43
0.0000000001
 12
1.0
 22
0.0
 32
0.0
 13
1.0
 23
0.0
 33
0.0
 40
0.0
 40
0.0
 40
0.0
 40
0.0
 40
1.0
 40
1.0
 40
1.0
 40
2.0
 40
2.0
 40
2.0
 40
3.0
 40
3.0
 40
3.0
 40
4.0
 40
4.0
 40
4.0
 40
5.0
 40
5.0
 40
5.0
 40
6.0
 40
6.0
 40
6.0
 40
7.0
 40
7.0
 40
7.0
 40
8.0
 40
8.0
 40
8.0
 40
9.0
 40
9.0
 40
9.0
 40
10.0
 40
10.0
 40
10.0
 40
11.0
 40
11.0
 40
11.0
 40
12.0
 40
12.0
 40
12.0
 40
13.0
 40
13.0
 40
13.0
 40
14.0
 40
14.0
 40
14.0
 40
15.0
 40
15.0
 40
15.0
 40
16.0
 40
16.0
 40
16.0
 40
17.0
 40
17.0
 40
17.0
 40
18.0
 40
18.0
 40
18.0
 40
19.0
 40
19.0
 40
19.0
 40
20.0
 40
20.0
 40
20.0
 40
21.0
 40
21.0
 40
21.0
 40
22.0
 40
22.0
 40
22.0
 40
23.0
 40
23.0
 40
23.0
 40
24.0
 40
24.0
 40
24.0
 40
25.0
 40
25.0
 40
25.0
 40
26.0
 40
26.0
 40
26.0
 40
27.0
 40
27.0
 40
27.0
 40
28.0
 40
28.0
 40
28.0
 40
29.0
 40
29.0
 40
29.0
 40
30.0
 40
30.0
 40
30.0
 40
31.0
 40
31.0
 40
31.0
 40
32.0
 40
32.0
 40
32.0
 40
33.0
 40
33.0
 40
33.0
 40
34.0
 40
34.0
 40
34.0
 40
35.0
 40
35.0
 40
35.0
 40
36.0
 40
36.0
 40
36.0
 40
36.0
 10
63.2800306373918
 20
-97.4052517117598
 30
0.0
 10
63.2800306373918
 20
-97.4052517117598
 30
0.0
 10
63.37959389691552
 20
-97.50481497128352
 30
0.0
 10
63.37959389691552
 20
-97.50481497128352
 30
0.0
 10
63.3902736929198
 20
-97.51549476728779
 30
0.0
 10
63.40060897937555
 20
-97.52824162058322
 30
0.0
 10
63.40060897937555
 20
-97.5430555311698
 30
0.0
 10
63.40060897937555
 20
-97.54512258846094
 30
0.0
 10
63.40060897937555
 20
-97.57475040963409
 30
0.0
 10
63.3627129290378
 20
-97.57475040963409
 30
0.0
 10
63.35410019032467
 20
-97.57475040963409
 30
0.0
 10
63.31379257314725
 20
-97.57027178550327
 30
0.0
 10
63.3075914012738
 20
-97.57027178550327
 30
0.0
 10
63.26728378409638
 20
-97.6023111735161
 30
0.0
 10
63.2207749950455
 20
-97.63607310927154
 30
0.0
 10
63.12155624507031
 20
-97.6932616943267
 30
0.0
 10
63.26728378409638
 20
-97.80109318301501
 30
0.0
 10
63.42610268596639
 20
-97.85828176807016
 30
0.0
 10
63.69895424839818
 20
-97.8961778184079
 30
0.0
 10
63.69895424839818
 20
-97.8961778184079
 30
0.0
 10
63.54874808524129
 20
-98.07187768815565
 30
0.0
 10
63.54874808524129
 20
-98.07187768815565
 30
0.0
 10
63.28657631881377
 20
-97.99987519251393
 30
0.0
 10
63.12982447423491
 20
-97.91099172899447
 30
0.0
 10
63.05368786401089
 20
-97.85828176807016
 30
0.0
 10
62.90348170085399
 20
-97.75665145125528
 30
0.0
 10
62.75982121911908
 20
-97.59369843480297
 30
0.0
 10
62.68368460889506
 20
-97.4286783610595
 30
0.0
 10
62.61581622783563
 20
-97.49413517527925
 30
0.0
 10
62.54174667490276
 20
-97.5471896457521
 30
0.0
 10
62.46354300738759
 20
-97.59576549209412
 30
0.0
 10
62.46354300738759
 20
-97.59576549209412
 30
0.0
 10
62.46354300738759
 20
-97.84760197206589
 30
0.0
 10
62.46354300738759
 20
-97.84760197206589
 30
0.0
 10
62.62649602383991
 20
-97.82210826547504
 30
0.0
 10
62.8125311800434
 20
-97.7776665337153
 30
0.0
 10
62.87592093697199
 20
-97.76285262312874
 30
0.0
 10
62.87592093697199
 20
-97.76285262312874
 30
0.0
 10
62.84629311579884
 20
-97.9320068114545
 30
0.0
 10
62.84629311579884
 20
-97.9320068114545
 30
0.0
 10
62.84422605850769
 20
-97.9320068114545
 30
0.0
 10
62.82527803333882
 20
-97.93855249287648
 30
0.0
 10
62.82321097604767
 20
-97.93855249287648
 30
0.0
 10
62.62442896654876
 20
-97.97644854321423
 30
0.0
 10
62.30713567235725
 20
-98.0422498669825
 30
0.0
 10
62.11007621060096
 20
-98.0780788600291
 30
0.0
 10
62.09974092414521
 20
-98.09495982790682
 30
0.0
 10
62.07631427484551
 20
-98.12665470637111
 30
0.0
 10
62.05323213509433
 20
-98.12665470637111
 30
0.0
 10
62.02567137121233
 20
-98.12665470637111
 30
0.0
 10
62.02153725663003
 20
-98.10770668120225
 30
0.0
 10
62.01912568979036
 20
-98.08875865603338
 30
0.0
 10
62.01912568979036
 20
-98.08875865603338
 30
0.0
 10
61.99397649274804
 20
-97.91512584357677
 30
0.0
 10
61.99397649274804
 20
-97.91512584357677
 30
0.0
 10
62.06804604568091
 20
-97.90685761441217
 30
0.0
 10
62.17587753436923
 20
-97.89411076111675
 30
0.0
 10
62.28370902305755
 20
-97.87309567865672
 30
0.0
 10
62.28370902305755
 20
-97.87309567865672
 30
0.0
 10
62.28370902305755
 20
-97.69532875161784
 30
0.0
 10
62.28370902305755
 20
-97.69532875161784
 30
0.0
 10
62.1397040317741
 20
-97.76733124725956
 30
0.0
 10
62.04461939638121
 20
-97.79661455888419
 30
0.0
 10
61.87959932263774
 20
-97.82624238005734
 30
0.0
 10
61.87959932263774
 20
-97.82624238005734
 30
0.0
 10
61.759020980654
 20
-97.65708819173156
 30
0.0
 10
61.759020980654
 20
-97.65708819173156
 30
0.0
 10
62.07631427484551
 20
-97.62952742784957
 30
0.0
 10
62.26889511247097
 20
-97.53650984974782
 30
0.0
 10
62.44666203950987
 20
-97.40318465446865
 30
0.0
 10
62.30058999093527
 20
-97.40318465446865
 30
0.0
 10
62.00017766462149
 20
-97.40766327859947
 30
0.0
 10
61.80346271241372
 20
-97.41386445047293
 30
0.0
 10
61.80346271241372
 20
-97.41386445047293
 30
0.0
 10
61.80346271241372
 20
-97.23609752343404
 30
0.0
 10
61.80346271241372
 20
-97.23609752343404
 30
0.0
 10
61.95780299015291
 20
-97.24264320485601
 30
0.0
 10
62.2540812018844
 20
-97.24884437672947
 30
0.0
 10
62.43804930079674
 20
-97.24884437672947
 30
0.0
 10
62.43804930079674
 20
-97.24884437672947
 30
0.0
 10
62.64957816359108
 20
-97.24884437672947
 30
0.0
 10
62.64957816359108
 20
-97.24884437672947
 30
0.0
 10
62.64957816359108
 20
-97.15375974133656
 30
0.0
 10
62.64751110629993
 20
-97.10277232815487
 30
0.0
 10
62.64130993442648
 20
-97.056263539104
 30
0.0
 10
62.64130993442648
 20
-97.056263539104
 30
0.0
 10
62.85697291180312
 20
-97.07314450698172
 30
0.0
 10
62.85697291180312
 20
-97.07314450698172
 30
0.0
 10
62.90554875814514
 20
-97.07762313111255
 30
0.0
 10
62.91416149685827
 20
-97.09243704169911
 30
0.0
 10
62.91416149685827
 20
-97.1072509522857
 30
0.0
 10
62.91416149685827
 20
-97.13240014932802
 30
0.0
 10
62.89728052898055
 20
-97.14101288804115
 30
0.0
 10
62.84629311579884
 20
-97.16650659463198
 30
0.0
 10
62.84422605850769
 20
-97.19165579167431
 30
0.0
 10
62.84422605850769
 20
-97.19820147309629
 30
0.0
 10
62.84215900121654
 20
-97.24884437672947
 30
0.0
 10
62.84215900121654
 20
-97.24884437672947
 30
0.0
 10
63.07263588917976
 20
-97.24884437672947
 30
0.0
 10
63.07263588917976
 20
-97.24884437672947
 30
0.0
 10
63.23765596292323
 20
-97.24884437672947
 30
0.0
 10
63.52980006007241
 20
-97.24264320485601
 30
0.0
 10
63.70963404440246
 20
-97.23609752343404
 30
0.0
 10
63.70963404440246
 20
-97.23609752343404
 30
0.0
 10
63.70963404440246
 20
-97.41386445047293
 30
0.0
 10
63.70963404440246
 20
-97.41386445047293
 30
0.0
 10
63.58044296370559
 20
-97.40973033589063
 30
0.0
 10
63.55736082395441
 20
-97.40973033589063
 30
0.0
 10
63.2800306373918
 20
-97.4052517117598
 30
0.0
  0
SPLINE
  5
98
330
8B
100
AcDbEntity
  8
_U+30EC_U+30A4_U+30E4_U+30FC 1
370
     0
100
AcDbSpline
210
0.0
220
0.0
230
1.0
 70
    11
 71
     3
 72
    23
 73
    19
 74
     0
 42
0.0000000001
 43
0.0000000001
 12
1.0
 22
0.0
 32
0.0
 13
1.0
 23
0.0
 33
0.0
 40
0.0
 40
0.0
 40
0.0
 40
0.0
 40
1.0
 40
1.0
 40
1.0
 40
2.0
 40
2.0
 40
2.0
 40
3.0
 40
3.0
 40
3.0
 40
4.0
 40
4.0
 40
4.0
 40
5.0
 40
5.0
 40
5.0
 40
6.0
 40
6.0
 40
6.0
 40
6.0
 10
61.99604355003919
 20
-97.05419648181284
 30
0.0
 10
61.97916258216146
 20
-97.09450409899027
 30
0.0
 10
61.97261690073949
 20
-97.111385066868
 30
0.0
 10
61.95160181827946
 20
-97.111385066868
 30
0.0
 10
61.93678790769289
 20
-97.111385066868
 30
0.0
 10
61.92610811168861
 20
-97.09450409899027
 30
0.0
 10
61.91990693981516
 20
-97.08175724569485
 30
0.0
 10
61.91990693981516
 20
-97.08175724569485
 30
0.0
 10
61.82034368029144
 20
-96.91673717195138
 30
0.0
 10
61.82034368029144
 20
-96.91673717195138
 30
0.0
 10
61.92197399710631
 20
-96.88504229348707
 30
0.0
 10
62.07218016026321
 20
-96.82992076572307
 30
0.0
 10
62.27096216976212
 20
-96.66696774927077
 30
0.0
 10
62.27096216976212
 20
-96.66696774927077
 30
0.0
 10
62.32815075481727
 20
-96.84060056172736
 30
0.0
 10
62.32815075481727
 20
-96.84060056172736
 30
0.0
 10
62.23513317671552
 20
-96.92293834382482
 30
0.0
 10
62.14624971319608
 20
-96.98012692887997
 30
0.0
 10
61.99604355003919
 20
-97.05419648181284
 30
0.0
  0
SPLINE
  5
99
330
8B
100
AcDbEntity
  8
_U+30EC_U+30A4_U+30E4_U+30FC 1
370
     0
100
AcDbSpline
210
0.0
220
0.0
230
1.0
 70
    11
 71
     3
 72
    17
 73
    13
 74
     0
 42
0.0000000001
 43
0.0000000001
 12
1.0
 22
0.0
 32
0.0
 13
1.0
 23
0.0
 33
0.0
 40
0.0
 40
0.0
 40
0.0
 40
0.0
 40
1.0
 40
1.0
 40
1.0
 40
2.0
 40
2.0
 40
2.0
 40
3.0
 40
3.0
 40
3.0
 40
4.0
 40
4.0
 40
4.0
 40
4.0
 10
62.14831677048723
 20
-96.58876408175558
 30
0.0
 10
62.11868894931408
 20
-96.54880097412669
 30
0.0
 10
62.05082056825466
 20
-96.45130477189413
 30
0.0
 10
61.86891952663347
 20
-96.34140622591465
 30
0.0
 10
61.86891952663347
 20
-96.34140622591465
 30
0.0
 10
61.99604355003919
 20
-96.20808103063548
 30
0.0
 10
61.99604355003919
 20
-96.20808103063548
 30
0.0
 10
62.18207870624268
 20
-96.30971134745036
 30
0.0
 10
62.23926729129783
 20
-96.3985948109698
 30
0.0
 10
62.26682805517982
 20
-96.44062497588985
 30
0.0
 10
62.26682805517982
 20
-96.44062497588985
 30
0.0
 10
62.14831677048723
 20
-96.58876408175558
 30
0.0
 10
62.14831677048723
 20
-96.58876408175558
 30
0.0
  0
SPLINE
  5
9A
330
8B
100
AcDbEntity
  8
_U+30EC_U+30A4_U+30E4_U+30FC 1
370
     0
100
AcDbSpline
210
0.0
220
0.0
230
1.0
 70
    11
 71
     3
 72
    38
 73
    34
 74
     0
 42
0.0000000001
 43
0.0000000001
 12
1.0
 22
0.0
 32
0.0
 13
1.0
 23
0.0
 33
0.0
 40
0.0
 40
0.0
 40
0.0
 40
0.0
 40
1.0
 40
1.0
 40
1.0
 40
2.0
 40
2.0
 40
2.0
 40
3.0
 40
3.0
 40
3.0
 40
4.0
 40
4.0
 40
4.0
 40
5.0
 40
5.0
 40
5.0
 40
6.0
 40
6.0
 40
6.0
 40
7.0
 40
7.0
 40
7.0
 40
8.0
 40
8.0
 40
8.0
 40
9.0
 40
9.0
 40
9.0
 40
10.0
 40
10.0
 40
10.0
 40
11.0
 40
11.0
 40
11.0
 40
11.0
 10
62.51625296831191
 20
-96.28421764085951
 30
0.0
 10
62.51418591102076
 20
-96.33072642991038
 30
0.0
 10
62.51211885372961
 20
-96.44717065731183
 30
0.0
 10
62.51211885372961
 20
-96.49161238907155
 30
0.0
 10
62.51211885372961
 20
-96.49161238907155
 30
0.0
 10
62.51211885372961
 20
-96.8385335044362
 30
0.0
 10
62.51211885372961
 20
-96.8385335044362
 30
0.0
 10
62.51211885372961
 20
-96.9253499106645
 30
0.0
 10
62.51418591102076
 20
-97.06694333510826
 30
0.0
 10
62.52486570702504
 20
-97.18752167709201
 30
0.0
 10
62.52486570702504
 20
-97.18752167709201
 30
0.0
 10
62.33435192669072
 20
-97.18752167709201
 30
0.0
 10
62.33435192669072
 20
-97.18752167709201
 30
0.0
 10
62.33883055082155
 20
-97.12413192016342
 30
0.0
 10
62.34296466540385
 20
-97.07107744969056
 30
0.0
 10
62.345031722695
 20
-97.0163004314751
 30
0.0
 10
62.34709877998615
 20
-96.89331052265167
 30
0.0
 10
62.3491658372773
 20
-96.8784966120651
 30
0.0
 10
62.3491658372773
 20
-96.83405488030537
 30
0.0
 10
62.3491658372773
 20
-96.83405488030537
 30
0.0
 10
62.3491658372773
 20
-96.51262747153157
 30
0.0
 10
62.3491658372773
 20
-96.51262747153157
 30
0.0
 10
62.3491658372773
 20
-96.45750594376757
 30
0.0
 10
62.33641898398187
 20
-96.21876082663975
 30
0.0
 10
62.33435192669072
 20
-96.16777341345806
 30
0.0
 10
62.33435192669072
 20
-96.16777341345806
 30
0.0
 10
62.53554550302931
 20
-96.19533417734006
 30
0.0
 10
62.53554550302931
 20
-96.19533417734006
 30
0.0
 10
62.55656058548934
 20
-96.19740123463122
 30
0.0
 10
62.58825546395364
 20
-96.20153534921351
 30
0.0
 10
62.58825546395364
 20
-96.22702905580435
 30
0.0
 10
62.58825546395364
 20
-96.25458981968636
 30
0.0
 10
62.53761256032046
 20
-96.27560490214638
 30
0.0
 10
62.51625296831191
 20
-96.28421764085951
 30
0.0
  0
SPLINE
  5
9B
330
8B
100
AcDbEntity
  8
_U+30EC_U+30A4_U+30E4_U+30FC 1
370
     0
100
AcDbSpline
210
0.0
220
0.0
230
1.0
 70
    11
 71
     3
 72
    83
 73
    79
 74
     0
 42
0.0000000001
 43
0.0000000001
 12
1.0
 22
0.0
 32
0.0
 13
1.0
 23
0.0
 33
0.0
 40
0.0
 40
0.0
 40
0.0
 40
0.0
 40
1.0
 40
1.0
 40
1.0
 40
2.0
 40
2.0
 40
2.0
 40
3.0
 40
3.0
 40
3.0
 40
4.0
 40
4.0
 40
4.0
 40
5.0
 40
5.0
 40
5.0
 40
6.0
 40
6.0
 40
6.0
 40
7.0
 40
7.0
 40
7.0
 40
8.0
 40
8.0
 40
8.0
 40
9.0
 40
9.0
 40
9.0
 40
10.0
 40
10.0
 40
10.0
 40
11.0
 40
11.0
 40
11.0
 40
12.0
 40
12.0
 40
12.0
 40
13.0
 40
13.0
 40
13.0
 40
14.0
 40
14.0
 40
14.0
 40
15.0
 40
15.0
 40
15.0
 40
16.0
 40
16.0
 40
16.0
 40
17.0
 40
17.0
 40
17.0
 40
18.0
 40
18.0
 40
18.0
 40
19.0
 40
19.0
 40
19.0
 40
20.0
 40
20.0
 40
20.0
 40
21.0
 40
21.0
 40
21.0
 40
22.0
 40
22.0
 40
22.0
 40
23.0
 40
23.0
 40
23.0
 40
24.0
 40
24.0
 40
24.0
 40
25.0
 40
25.0
 40
25.0
 40
26.0
 40
26.0
 40
26.0
 40
26.0
 10
63.31827119727807
 20
-96.60564504963331
 30
0.0
 10
63.31827119727807
 20
-96.60564504963331
 30
0.0
 10
63.2207749950455
 20
-96.60564504963331
 30
0.0
 10
63.2207749950455
 20
-96.60564504963331
 30
0.0
 10
63.2207749950455
 20
-96.60564504963331
 30
0.0
 10
63.2207749950455
 20
-96.85334741502278
 30
0.0
 10
63.2207749950455
 20
-96.85334741502278
 30
0.0
 10
63.2207749950455
 20
-96.85334741502278
 30
0.0
 10
63.3034572866915
 20
-96.85334741502278
 30
0.0
 10
63.3034572866915
 20
-96.85334741502278
 30
0.0
 10
63.36891410091125
 20
-96.85334741502278
 30
0.0
 10
63.50844046806387
 20
-96.84886879089196
 30
0.0
 10
63.60800372758759
 20
-96.84060056172736
 30
0.0
 10
63.60800372758759
 20
-96.84060056172736
 30
0.0
 10
63.60800372758759
 20
-97.0204345460574
 30
0.0
 10
63.60800372758759
 20
-97.0204345460574
 30
0.0
 10
63.51498614948584
 20
-97.01182180734428
 30
0.0
 10
63.36477998632895
 20
-97.00768769276198
 30
0.0
 10
63.3034572866915
 20
-97.00768769276198
 30
0.0
 10
63.3034572866915
 20
-97.00768769276198
 30
0.0
 10
62.99856633624689
 20
-97.00768769276198
 30
0.0
 10
62.99856633624689
 20
-97.00768769276198
 30
0.0
 10
62.94585637532256
 20
-97.00768769276198
 30
0.0
 10
62.79978432674798
 20
-97.01182180734428
 30
0.0
 10
62.69401989535081
 20
-97.0204345460574
 30
0.0
 10
62.69401989535081
 20
-97.0204345460574
 30
0.0
 10
62.69401989535081
 20
-96.84060056172736
 30
0.0
 10
62.69401989535081
 20
-96.84060056172736
 30
0.0
 10
62.79358315487453
 20
-96.84886879089196
 30
0.0
 10
62.93310952202715
 20
-96.85334741502278
 30
0.0
 10
62.99856633624689
 20
-96.85334741502278
 30
0.0
 10
62.99856633624689
 20
-96.85334741502278
 30
0.0
 10
63.04300806800661
 20
-96.85334741502278
 30
0.0
 10
63.04300806800661
 20
-96.85334741502278
 30
0.0
 10
63.04300806800661
 20
-96.85334741502278
 30
0.0
 10
63.04300806800661
 20
-96.60564504963331
 30
0.0
 10
63.04300806800661
 20
-96.60564504963331
 30
0.0
 10
63.04300806800661
 20
-96.60564504963331
 30
0.0
 10
62.96928302462226
 20
-96.60564504963331
 30
0.0
 10
62.96928302462226
 20
-96.60564504963331
 30
0.0
 10
62.90761581543629
 20
-96.60564504963331
 30
0.0
 10
62.74052868440167
 20
-96.61012367376414
 30
0.0
 10
62.61995034241793
 20
-96.61839190292874
 30
0.0
 10
62.61995034241793
 20
-96.61839190292874
 30
0.0
 10
62.61995034241793
 20
-96.44062497588985
 30
0.0
 10
62.61995034241793
 20
-96.44062497588985
 30
0.0
 10
62.73432751252822
 20
-96.44717065731183
 30
0.0
 10
62.89280190484972
 20
-96.45130477189413
 30
0.0
 10
62.96928302462226
 20
-96.45130477189413
 30
0.0
 10
62.96928302462226
 20
-96.45130477189413
 30
0.0
 10
63.04094101071546
 20
-96.45130477189413
 30
0.0
 10
63.04094101071546
 20
-96.45130477189413
 30
0.0
 10
63.03680689613316
 20
-96.29903155144608
 30
0.0
 10
63.03473983884201
 20
-96.26526961569063
 30
0.0
 10
63.02819415742004
 20
-96.17190752804036
 30
0.0
 10
63.02819415742004
 20
-96.17190752804036
 30
0.0
 10
63.2400675297629
 20
-96.19533417734006
 30
0.0
 10
63.2400675297629
 20
-96.19533417734006
 30
0.0
 10
63.26521672680523
 20
-96.19740123463122
 30
0.0
 10
63.28864337610492
 20
-96.20153534921351
 30
0.0
 10
63.28864337610492
 20
-96.22496199851321
 30
0.0
 10
63.28864337610492
 20
-96.2566568769775
 30
0.0
 10
63.2442016443452
 20
-96.27353784485523
 30
0.0
 10
63.2207749950455
 20
-96.28215058356835
 30
0.0
 10
63.2207749950455
 20
-96.28215058356835
 30
0.0
 10
63.2207749950455
 20
-96.45130477189413
 30
0.0
 10
63.2207749950455
 20
-96.45130477189413
 30
0.0
 10
63.2207749950455
 20
-96.45130477189413
 30
0.0
 10
63.31827119727807
 20
-96.45130477189413
 30
0.0
 10
63.31827119727807
 20
-96.45130477189413
 30
0.0
 10
63.3944078075021
 20
-96.45130477189413
 30
0.0
 10
63.55288219982359
 20
-96.44717065731183
 30
0.0
 10
63.66932642722503
 20
-96.44062497588985
 30
0.0
 10
63.66932642722503
 20
-96.44062497588985
 30
0.0
 10
63.66932642722503
 20
-96.61839190292874
 30
0.0
 10
63.66932642722503
 20
-96.61839190292874
 30
0.0
 10
63.56149493853671
 20
-96.61219073105529
 30
0.0
 10
63.38786212608012
 20
-96.60564504963331
 30
0.0
 10
63.31827119727807
 20
-96.60564504963331
 30
0.0
  0
SPLINE
  5
9C
330
8B
100
AcDbEntity
  8
_U+30EC_U+30A4_U+30E4_U+30FC 1
370
     0
100
AcDbSpline
210
0.0
220
0.0
230
1.0
 70
    11
 71
     3
 72
    17
 73
    13
 74
     0
 42
0.0000000001
 43
0.0000000001
 12
1.0
 22
0.0
 32
0.0
 13
1.0
 23
0.0
 33
0.0
 40
0.0
 40
0.0
 40
0.0
 40
0.0
 40
1.0
 40
1.0
 40
1.0
 40
2.0
 40
2.0
 40
2.0
 40
3.0
 40
3.0
 40
3.0
 40
4.0
 40
4.0
 40
4.0
 40
4.0
 10
63.07263588917976
 20
-97.40318465446865
 30
0.0
 10
63.07263588917976
 20
-97.40318465446865
 30
0.0
 10
62.86971976509854
 20
-97.40318465446865
 30
0.0
 10
62.86971976509854
 20
-97.40318465446865
 30
0.0
 10
62.89728052898055
 20
-97.46244029681495
 30
0.0
 10
62.95205754719601
 20
-97.53444279245667
 30
0.0
 10
62.97961831107801
 20
-97.56407061362982
 30
0.0
 10
63.00717907496001
 20
-97.54925670304324
 30
0.0
 10
63.12155624507031
 20
-97.48586694611465
 30
0.0
 10
63.2125067658809
 20
-97.40318465446865
 30
0.0
 10
63.2125067658809
 20
-97.40318465446865
 30
0.0
 10
63.07263588917976
 20
-97.40318465446865
 30
0.0
 10
63.07263588917976
 20
-97.40318465446865
 30
0.0
  0
HATCH
  5
9D
330
8B
100
AcDbEntity
  8
_U+30EC_U+30A4_U+30E4_U+30FC 1
 62
   179
420
  2234388
100
AcDbHatch
 10
0.0
 20
0.0
 30
0.0
210
0.0
220
0.0
230
1.0
  2
SOLID
 70
     1
 71
     0
 91
        6
 92
        1
 93
        1
 72
     4
 94
        3
 73
     0
 74
     1
 95
      113
 96
      109
 40
0.0
 40
0.0
 40
0.0
 40
0.0
 40
1.0
 40
1.0
 40
1.0
 40
2.0
 40
2.0
 40
2.0
 40
3.0
 40
3.0
 40
3.0
 40
4.0
 40
4.0
 40
4.0
 40
5.0
 40
5.0
 40
5.0
 40
6.0
 40
6.0
 40
6.0
 40
7.0
 40
7.0
 40
7.0
 40
8.0
 40
8.0
 40
8.0
 40
9.0
 40
9.0
 40
9.0
 40
10.0
 40
10.0
 40
10.0
 40
11.0
 40
11.0
 40
11.0
 40
12.0
 40
12.0
 40
12.0
 40
13.0
 40
13.0
 40
13.0
 40
14.0
 40
14.0
 40
14.0
 40
15.0
 40
15.0
 40
15.0
 40
16.0
 40
16.0
 40
16.0
 40
17.0
 40
17.0
 40
17.0
 40
18.0
 40
18.0
 40
18.0
 40
19.0
 40
19.0
 40
19.0
 40
20.0
 40
20.0
 40
20.0
 40
21.0
 40
21.0
 40
21.0
 40
22.0
 40
22.0
 40
22.0
 40
23.0
 40
23.0
 40
23.0
 40
24.0
 40
24.0
 40
24.0
 40
25.0
 40
25.0
 40
25.0
 40
26.0
 40
26.0
 40
26.0
 40
27.0
 40
27.0
 40
27.0
 40
28.0
 40
28.0
 40
28.0
 40
29.0
 40
29.0
 40
29.0
 40
30.0
 40
30.0
 40
30.0
 40
31.0
 40
31.0
 40
31.0
 40
32.0
 40
32.0
 40
32.0
 40
33.0
 40
33.0
 40
33.0
 40
34.0
 40
34.0
 40
34.0
 40
35.0
 40
35.0
 40
35.0
 40
36.0
 40
36.0
 40
36.0
 40
36.0
 10
63.2800306373918
 20
-97.4052517117598
 10
63.2800306373918
 20
-97.4052517117598
 10
63.37959389691552
 20
-97.50481497128352
 10
63.37959389691552
 20
-97.50481497128352
 10
63.3902736929198
 20
-97.51549476728779
 10
63.40060897937555
 20
-97.52824162058322
 10
63.40060897937555
 20
-97.5430555311698
 10
63.40060897937555
 20
-97.54512258846094
 10
63.40060897937555
 20
-97.57475040963409
 10
63.3627129290378
 20
-97.57475040963409
 10
63.35410019032467
 20
-97.57475040963409
 10
63.31379257314725
 20
-97.57027178550327
 10
63.3075914012738
 20
-97.57027178550327
 10
63.26728378409638
 20
-97.6023111735161
 10
63.2207749950455
 20
-97.63607310927154
 10
63.12155624507031
 20
-97.6932616943267
 10
63.26728378409638
 20
-97.80109318301501
 10
63.42610268596639
 20
-97.85828176807016
 10
63.69895424839818
 20
-97.8961778184079
 10
63.69895424839818
 20
-97.8961778184079
 10
63.54874808524129
 20
-98.07187768815565
 10
63.54874808524129
 20
-98.07187768815565
 10
63.28657631881377
 20
-97.99987519251393
 10
63.12982447423491
 20
-97.91099172899447
 10
63.05368786401089
 20
-97.85828176807016
 10
62.90348170085399
 20
-97.75665145125528
 10
62.75982121911908
 20
-97.59369843480297
 10
62.68368460889506
 20
-97.4286783610595
 10
62.61581622783563
 20
-97.49413517527925
 10
62.54174667490276
 20
-97.5471896457521
 10
62.46354300738759
 20
-97.59576549209412
 10
62.46354300738759
 20
-97.59576549209412
 10
62.46354300738759
 20
-97.84760197206589
 10
62.46354300738759
 20
-97.84760197206589
 10
62.62649602383991
 20
-97.82210826547504
 10
62.8125311800434
 20
-97.7776665337153
 10
62.87592093697199
 20
-97.76285262312874
 10
62.87592093697199
 20
-97.76285262312874
 10
62.84629311579884
 20
-97.9320068114545
 10
62.84629311579884
 20
-97.9320068114545
 10
62.84422605850769
 20
-97.9320068114545
 10
62.82527803333882
 20
-97.93855249287648
 10
62.82321097604767
 20
-97.93855249287648
 10
62.62442896654876
 20
-97.97644854321423
 10
62.30713567235725
 20
-98.0422498669825
 10
62.11007621060096
 20
-98.0780788600291
 10
62.09974092414521
 20
-98.09495982790682
 10
62.07631427484551
 20
-98.12665470637111
 10
62.05323213509433
 20
-98.12665470637111
 10
62.02567137121233
 20
-98.12665470637111
 10
62.02153725663003
 20
-98.10770668120225
 10
62.01912568979036
 20
-98.08875865603338
 10
62.01912568979036
 20
-98.08875865603338
 10
61.99397649274804
 20
-97.91512584357677
 10
61.99397649274804
 20
-97.91512584357677
 10
62.06804604568091
 20
-97.90685761441217
 10
62.17587753436923
 20
-97.89411076111675
 10
62.28370902305755
 20
-97.87309567865672
 10
62.28370902305755
 20
-97.87309567865672
 10
62.28370902305755
 20
-97.69532875161784
 10
62.28370902305755
 20
-97.69532875161784
 10
62.1397040317741
 20
-97.76733124725956
 10
62.04461939638121
 20
-97.79661455888419
 10
61.87959932263774
 20
-97.82624238005734
 10
61.87959932263774
 20
-97.82624238005734
 10
61.759020980654
 20
-97.65708819173156
 10
61.759020980654
 20
-97.65708819173156
 10
62.07631427484551
 20
-97.62952742784957
 10
62.26889511247097
 20
-97.53650984974782
 10
62.44666203950987
 20
-97.40318465446865
 10
62.30058999093527
 20
-97.40318465446865
 10
62.00017766462149
 20
-97.40766327859947
 10
61.80346271241372
 20
-97.41386445047293
 10
61.80346271241372
 20
-97.41386445047293
 10
61.80346271241372
 20
-97.23609752343404
 10
61.80346271241372
 20
-97.23609752343404
 10
61.95780299015291
 20
-97.24264320485601
 10
62.2540812018844
 20
-97.24884437672947
 10
62.43804930079674
 20
-97.24884437672947
 10
62.43804930079674
 20
-97.24884437672947
 10
62.64957816359108
 20
-97.24884437672947
 10
62.64957816359108
 20
-97.24884437672947
 10
62.64957816359108
 20
-97.15375974133656
 10
62.64751110629993
 20
-97.10277232815487
 10
62.64130993442648
 20
-97.056263539104
 10
62.64130993442648
 20
-97.056263539104
 10
62.85697291180312
 20
-97.07314450698172
 10
62.85697291180312
 20
-97.07314450698172
 10
62.90554875814514
 20
-97.07762313111255
 10
62.91416149685827
 20
-97.09243704169911
 10
62.91416149685827
 20
-97.1072509522857
 10
62.91416149685827
 20
-97.13240014932802
 10
62.89728052898055
 20
-97.14101288804115
 10
62.84629311579884
 20
-97.16650659463198
 10
62.84422605850769
 20
-97.19165579167431
 10
62.84422605850769
 20
-97.19820147309629
 10
62.84215900121654
 20
-97.24884437672947
 10
62.84215900121654
 20
-97.24884437672947
 10
63.07263588917976
 20
-97.24884437672947
 10
63.07263588917976
 20
-97.24884437672947
 10
63.23765596292323
 20
-97.24884437672947
 10
63.52980006007241
 20
-97.24264320485601
 10
63.70963404440246
 20
-97.23609752343404
 10
63.70963404440246
 20
-97.23609752343404
 10
63.70963404440246
 20
-97.41386445047293
 10
63.70963404440246
 20
-97.41386445047293
 10
63.58044296370559
 20
-97.40973033589063
 10
63.55736082395441
 20
-97.40973033589063
 10
63.2800306373918
 20
-97.4052517117598
 97
        0
 97
        0
 92
        1
 93
        1
 72
     4
 94
        3
 73
     0
 74
     1
 95
       23
 96
       19
 40
0.0
 40
0.0
 40
0.0
 40
0.0
 40
1.0
 40
1.0
 40
1.0
 40
2.0
 40
2.0
 40
2.0
 40
3.0
 40
3.0
 40
3.0
 40
4.0
 40
4.0
 40
4.0
 40
5.0
 40
5.0
 40
5.0
 40
6.0
 40
6.0
 40
6.0
 40
6.0
 10
61.99604355003919
 20
-97.05419648181284
 10
61.97916258216146
 20
-97.09450409899027
 10
61.97261690073949
 20
-97.111385066868
 10
61.95160181827946
 20
-97.111385066868
 10
61.93678790769289
 20
-97.111385066868
 10
61.92610811168861
 20
-97.09450409899027
 10
61.91990693981516
 20
-97.08175724569485
 10
61.91990693981516
 20
-97.08175724569485
 10
61.82034368029144
 20
-96.91673717195138
 10
61.82034368029144
 20
-96.91673717195138
 10
61.92197399710631
 20
-96.88504229348707
 10
62.07218016026321
 20
-96.82992076572307
 10
62.27096216976212
 20
-96.66696774927077
 10
62.27096216976212
 20
-96.66696774927077
 10
62.32815075481727
 20
-96.84060056172736
 10
62.32815075481727
 20
-96.84060056172736
 10
62.23513317671552
 20
-96.92293834382482
 10
62.14624971319608
 20
-96.98012692887997
 10
61.99604355003919
 20
-97.05419648181284
 97
        0
 97
        0
 92
        1
 93
        1
 72
     4
 94
        3
 73
     0
 74
     1
 95
       17
 96
       13
 40
0.0
 40
0.0
 40
0.0
 40
0.0
 40
1.0
 40
1.0
 40
1.0
 40
2.0
 40
2.0
 40
2.0
 40
3.0
 40
3.0
 40
3.0
 40
4.0
 40
4.0
 40
4.0
 40
4.0
 10
62.14831677048723
 20
-96.58876408175558
 10
62.11868894931408
 20
-96.54880097412669
 10
62.05082056825466
 20
-96.45130477189413
 10
61.86891952663347
 20
-96.34140622591465
 10
61.86891952663347
 20
-96.34140622591465
 10
61.99604355003919
 20
-96.20808103063548
 10
61.99604355003919
 20
-96.20808103063548
 10
62.18207870624268
 20
-96.30971134745036
 10
62.23926729129783
 20
-96.3985948109698
 10
62.26682805517982
 20
-96.44062497588985
 10
62.26682805517982
 20
-96.44062497588985
 10
62.14831677048723
 20
-96.58876408175558
 10
62.14831677048723
 20
-96.58876408175558
 97
        0
 97
        0
 92
        1
 93
        1
 72
     4
 94
        3
 73
     0
 74
     1
 95
       38
 96
       34
 40
0.0
 40
0.0
 40
0.0
 40
0.0
 40
1.0
 40
1.0
 40
1.0
 40
2.0
 40
2.0
 40
2.0
 40
3.0
 40
3.0
 40
3.0
 40
4.0
 40
4.0
 40
4.0
 40
5.0
 40
5.0
 40
5.0
 40
6.0
 40
6.0
 40
6.0
 40
7.0
 40
7.0
 40
7.0
 40
8.0
 40
8.0
 40
8.0
 40
9.0
 40
9.0
 40
9.0
 40
10.0
 40
10.0
 40
10.0
 40
11.0
 40
11.0
 40
11.0
 40
11.0
 10
62.51625296831191
 20
-96.28421764085951
 10
62.51418591102076
 20
-96.33072642991038
 10
62.51211885372961
 20
-96.44717065731183
 10
62.51211885372961
 20
-96.49161238907155
 10
62.51211885372961
 20
-96.49161238907155
 10
62.51211885372961
 20
-96.8385335044362
 10
62.51211885372961
 20
-96.8385335044362
 10
62.51211885372961
 20
-96.9253499106645
 10
62.51418591102076
 20
-97.06694333510826
 10
62.52486570702504
 20
-97.18752167709201
 10
62.52486570702504
 20
-97.18752167709201
 10
62.33435192669072
 20
-97.18752167709201
 10
62.33435192669072
 20
-97.18752167709201
 10
62.33883055082155
 20
-97.12413192016342
 10
62.34296466540385
 20
-97.07107744969056
 10
62.345031722695
 20
-97.0163004314751
 10
62.34709877998615
 20
-96.89331052265167
 10
62.3491658372773
 20
-96.8784966120651
 10
62.3491658372773
 20
-96.83405488030537
 10
62.3491658372773
 20
-96.83405488030537
 10
62.3491658372773
 20
-96.51262747153157
 10
62.3491658372773
 20
-96.51262747153157
 10
62.3491658372773
 20
-96.45750594376757
 10
62.33641898398187
 20
-96.21876082663975
 10
62.33435192669072
 20
-96.16777341345806
 10
62.33435192669072
 20
-96.16777341345806
 10
62.53554550302931
 20
-96.19533417734006
 10
62.53554550302931
 20
-96.19533417734006
 10
62.55656058548934
 20
-96.19740123463122
 10
62.58825546395364
 20
-96.20153534921351
 10
62.58825546395364
 20
-96.22702905580435
 10
62.58825546395364
 20
-96.25458981968636
 10
62.53761256032046
 20
-96.27560490214638
 10
62.51625296831191
 20
-96.28421764085951
 97
        0
 97
        0
 92
        1
 93
        1
 72
     4
 94
        3
 73
     0
 74
     1
 95
       83
 96
       79
 40
0.0
 40
0.0
 40
0.0
 40
0.0
 40
1.0
 40
1.0
 40
1.0
 40
2.0
 40
2.0
 40
2.0
 40
3.0
 40
3.0
 40
3.0
 40
4.0
 40
4.0
 40
4.0
 40
5.0
 40
5.0
 40
5.0
 40
6.0
 40
6.0
 40
6.0
 40
7.0
 40
7.0
 40
7.0
 40
8.0
 40
8.0
 40
8.0
 40
9.0
 40
9.0
 40
9.0
 40
10.0
 40
10.0
 40
10.0
 40
11.0
 40
11.0
 40
11.0
 40
12.0
 40
12.0
 40
12.0
 40
13.0
 40
13.0
 40
13.0
 40
14.0
 40
14.0
 40
14.0
 40
15.0
 40
15.0
 40
15.0
 40
16.0
 40
16.0
 40
16.0
 40
17.0
 40
17.0
 40
17.0
 40
18.0
 40
18.0
 40
18.0
 40
19.0
 40
19.0
 40
19.0
 40
20.0
 40
20.0
 40
20.0
 40
21.0
 40
21.0
 40
21.0
 40
22.0
 40
22.0
 40
22.0
 40
23.0
 40
23.0
 40
23.0
 40
24.0
 40
24.0
 40
24.0
 40
25.0
 40
25.0
 40
25.0
 40
26.0
 40
26.0
 40
26.0
 40
26.0
 10
63.31827119727807
 20
-96.60564504963331
 10
63.31827119727807
 20
-96.60564504963331
 10
63.2207749950455
 20
-96.60564504963331
 10
63.2207749950455
 20
-96.60564504963331
 10
63.2207749950455
 20
-96.60564504963331
 10
63.2207749950455
 20
-96.85334741502278
 10
63.2207749950455
 20
-96.85334741502278
 10
63.2207749950455
 20
-96.85334741502278
 10
63.3034572866915
 20
-96.85334741502278
 10
63.3034572866915
 20
-96.85334741502278
 10
63.36891410091125
 20
-96.85334741502278
 10
63.50844046806387
 20
-96.84886879089196
 10
63.60800372758759
 20
-96.84060056172736
 10
63.60800372758759
 20
-96.84060056172736
 10
63.60800372758759
 20
-97.0204345460574
 10
63.60800372758759
 20
-97.0204345460574
 10
63.51498614948584
 20
-97.01182180734428
 10
63.36477998632895
 20
-97.00768769276198
 10
63.3034572866915
 20
-97.00768769276198
 10
63.3034572866915
 20
-97.00768769276198
 10
62.99856633624689
 20
-97.00768769276198
 10
62.99856633624689
 20
-97.00768769276198
 10
62.94585637532256
 20
-97.00768769276198
 10
62.79978432674798
 20
-97.01182180734428
 10
62.69401989535081
 20
-97.0204345460574
 10
62.69401989535081
 20
-97.0204345460574
 10
62.69401989535081
 20
-96.84060056172736
 10
62.69401989535081
 20
-96.84060056172736
 10
62.79358315487453
 20
-96.84886879089196
 10
62.93310952202715
 20
-96.85334741502278
 10
62.99856633624689
 20
-96.85334741502278
 10
62.99856633624689
 20
-96.85334741502278
 10
63.04300806800661
 20
-96.85334741502278
 10
63.04300806800661
 20
-96.85334741502278
 10
63.04300806800661
 20
-96.85334741502278
 10
63.04300806800661
 20
-96.60564504963331
 10
63.04300806800661
 20
-96.60564504963331
 10
63.04300806800661
 20
-96.60564504963331
 10
62.96928302462226
 20
-96.60564504963331
 10
62.96928302462226
 20
-96.60564504963331
 10
62.90761581543629
 20
-96.60564504963331
 10
62.74052868440167
 20
-96.61012367376414
 10
62.61995034241793
 20
-96.61839190292874
 10
62.61995034241793
 20
-96.61839190292874
 10
62.61995034241793
 20
-96.44062497588985
 10
62.61995034241793
 20
-96.44062497588985
 10
62.73432751252822
 20
-96.44717065731183
 10
62.89280190484972
 20
-96.45130477189413
 10
62.96928302462226
 20
-96.45130477189413
 10
62.96928302462226
 20
-96.45130477189413
 10
63.04094101071546
 20
-96.45130477189413
 10
63.04094101071546
 20
-96.45130477189413
 10
63.03680689613316
 20
-96.29903155144608
 10
63.03473983884201
 20
-96.26526961569063
 10
63.02819415742004
 20
-96.17190752804036
 10
63.02819415742004
 20
-96.17190752804036
 10
63.2400675297629
 20
-96.19533417734006
 10
63.2400675297629
 20
-96.19533417734006
 10
63.26521672680523
 20
-96.19740123463122
 10
63.28864337610492
 20
-96.20153534921351
 10
63.28864337610492
 20
-96.22496199851321
 10
63.28864337610492
 20
-96.2566568769775
 10
63.2442016443452
 20
-96.27353784485523
 10
63.2207749950455
 20
-96.28215058356835
 10
63.2207749950455
 20
-96.28215058356835
 10
63.2207749950455
 20
-96.45130477189413
 10
63.2207749950455
 20
-96.45130477189413
 10
63.2207749950455
 20
-96.45130477189413
 10
63.31827119727807
 20
-96.45130477189413
 10
63.31827119727807
 20
-96.45130477189413
 10
63.3944078075021
 20
-96.45130477189413
 10
63.55288219982359
 20
-96.44717065731183
 10
63.66932642722503
 20
-96.44062497588985
 10
63.66932642722503
 20
-96.44062497588985
 10
63.66932642722503
 20
-96.61839190292874
 10
63.66932642722503
 20
-96.61839190292874
 10
63.56149493853671
 20
-96.61219073105529
 10
63.38786212608012
 20
-96.60564504963331
 10
63.31827119727807
 20
-96.60564504963331
 97
        0
 97
        0
 92
        1
 93
        1
 72
     4
 94
        3
 73
     0
 74
     1
 95
       17
 96
       13
 40
0.0
 40
0.0
 40
0.0
 40
0.0
 40
1.0
 40
1.0
 40
1.0
 40
2.0
 40
2.0
 40
2.0
 40
3.0
 40
3.0
 40
3.0
 40
4.0
 40
4.0
 40
4.0
 40
4.0
 10
63.07263588917976
 20
-97.40318465446865
 10
63.07263588917976
 20
-97.40318465446865
 10
62.86971976509854
 20
-97.40318465446865
 10
62.86971976509854
 20
-97.40318465446865
 10
62.89728052898055
 20
-97.46244029681495
 10
62.95205754719601
 20
-97.53444279245667
 10
62.97961831107801
 20
-97.56407061362982
 10
63.00717907496001
 20
-97.54925670304324
 10
63.12155624507031
 20
-97.48586694611465
 10
63.2125067658809
 20
-97.40318465446865
 10
63.2125067658809
 20
-97.40318465446865
 10
63.07263588917976
 20
-97.40318465446865
 10
63.07263588917976
 20
-97.40318465446865
 97
        0
 97
        0
 75
     2
 76
     1
 98
        0
  0
SPLINE
  5
9E
330
8B
100
AcDbEntity
  8
_U+30EC_U+30A4_U+30E4_U+30FC 1
370
     0
100
AcDbSpline
210
0.0
220
0.0
230
1.0
 70
    11
 71
     3
 72
    77
 73
    73
 74
     0
 42
0.0000000001
 43
0.0000000001
 12
1.0
 22
0.0
 32
0.0
 13
1.0
 23
0.0
 33
0.0
 40
0.0
 40
0.0
 40
0.0
 40
0.0
 40
1.0
 40
1.0
 40
1.0
 40
2.0
 40
2.0
 40
2.0
 40
3.0
 40
3.0
 40
3.0
 40
4.0
 40
4.0
 40
4.0
 40
5.0
 40
5.0
 40
5.0
 40
6.0
 40
6.0
 40
6.0
 40
7.0
 40
7.0
 40
7.0
 40
8.0
 40
8.0
 40
8.0
 40
9.0
 40
9.0
 40
9.0
 40
10.0
 40
10.0
 40
10.0
 40
11.0
 40
11.0
 40
11.0
 40
12.0
 40
12.0
 40
12.0
 40
13.0
 40
13.0
 40
13.0
 40
14.0
 40
14.0
 40
14.0
 40
15.0
 40
15.0
 40
15.0
 40
16.0
 40
16.0
 40
16.0
 40
17.0
 40
17.0
 40
17.0
 40
18.0
 40
18.0
 40
18.0
 40
19.0
 40
19.0
 40
19.0
 40
20.0
 40
20.0
 40
20.0
 40
21.0
 40
21.0
 40
21.0
 40
22.0
 40
22.0
 40
22.0
 40
23.0
 40
23.0
 40
23.0
 40
24.0
 40
24.0
 40
24.0
 40
24.0
 10
65.56361217978966
 20
-98.03363712826938
 30
0.0
 10
65.51744790028731
 20
-98.05913083486023
 30
0.0
 10
65.39273544372126
 20
-98.07187768815565
 30
0.0
 10
65.31418726665757
 20
-98.07187768815565
 30
0.0
 10
65.30178492291067
 20
-98.07187768815565
 30
0.0
 10
65.27629121631982
 20
-98.07187768815565
 30
0.0
 10
65.24252928056437
 20
-98.06739906402483
 30
0.0
 10
65.24252928056437
 20
-98.06739906402483
 30
0.0
 10
65.14468856878328
 20
-97.8410562906439
 30
0.0
 10
65.14468856878328
 20
-97.8410562906439
 30
0.0
 10
65.17431638995643
 20
-97.84760197206589
 30
0.0
 10
65.23150497501157
 20
-97.85587020123049
 30
0.0
 10
65.34794920241302
 20
-97.85587020123049
 30
0.0
 10
65.42649737947671
 20
-97.85587020123049
 30
0.0
 10
65.42856443676786
 20
-97.81384003631044
 30
0.0
 10
65.42856443676786
 20
-97.75665145125528
 30
0.0
 10
65.42856443676786
 20
-97.75665145125528
 30
0.0
 10
65.42856443676786
 20
-97.40766327859947
 30
0.0
 10
65.42856443676786
 20
-97.40766327859947
 30
0.0
 10
65.42856443676786
 20
-97.40766327859947
 30
0.0
 10
64.96898869903553
 20
-97.40766327859947
 30
0.0
 10
64.96898869903553
 20
-97.40766327859947
 30
0.0
 10
64.97174477542373
 20
-97.54512258846094
 30
0.0
 10
64.97381183271489
 20
-97.74390459795985
 30
0.0
 10
64.98001300458833
 20
-97.87722979323902
 30
0.0
 10
64.98208006187949
 20
-97.90479055712103
 30
0.0
 10
64.98208006187949
 20
-97.94923228888075
 30
0.0
 10
64.99448240562639
 20
-98.0105549885182
 30
0.0
 10
64.99448240562639
 20
-98.0105549885182
 30
0.0
 10
64.7533257216589
 20
-98.0105549885182
 30
0.0
 10
64.7533257216589
 20
-98.0105549885182
 30
0.0
 10
64.77881942824975
 20
-97.88549802240362
 30
0.0
 10
64.77881942824975
 20
-97.54512258846094
 30
0.0
 10
64.77881942824975
 20
-97.40766327859947
 30
0.0
 10
64.77881942824975
 20
-97.40766327859947
 30
0.0
 10
64.33646916794366
 20
-97.40766327859947
 30
0.0
 10
64.33646916794366
 20
-97.40766327859947
 30
0.0
 10
64.31373153774102
 20
-97.614713517263
 30
0.0
 10
64.24827472352126
 20
-97.88343096511248
 30
0.0
 10
64.05121526176498
 20
-98.06739906402483
 30
0.0
 10
64.05121526176498
 20
-98.06739906402483
 30
0.0
 10
63.86311304827034
 20
-97.94475366474992
 30
0.0
 10
63.86311304827034
 20
-97.94475366474992
 30
0.0
 10
64.11667207598472
 20
-97.72495657279099
 30
0.0
 10
64.14836695444902
 20
-97.3928493680129
 30
0.0
 10
64.14836695444902
 20
-97.06074216323482
 30
0.0
 10
64.14836695444902
 20
-97.06074216323482
 30
0.0
 10
64.14836695444902
 20
-96.62493758435072
 30
0.0
 10
64.14836695444902
 20
-96.62493758435072
 30
0.0
 10
64.14836695444902
 20
-96.58876408175558
 30
0.0
 10
64.14629989715787
 20
-96.35622013650122
 30
0.0
 10
64.13803166799327
 20
-96.25458981968636
 30
0.0
 10
64.27790254469441
 20
-96.26526961569063
 30
0.0
 10
64.5190592286619
 20
-96.26526961569063
 30
0.0
 10
64.6623752008483
 20
-96.26526961569063
 30
0.0
 10
64.6623752008483
 20
-96.26526961569063
 30
0.0
 10
65.12195093858062
 20
-96.26526961569063
 30
0.0
 10
65.12195093858062
 20
-96.26526961569063
 30
0.0
 10
65.13642033961868
 20
-96.26526961569063
 30
0.0
 10
65.48575302182302
 20
-96.26526961569063
 30
0.0
 10
65.6442274141445
 20
-96.25458981968636
 30
0.0
 10
65.64216035685335
 20
-96.30729978061068
 30
0.0
 10
65.6359591849799
 20
-96.46818573977184
 30
0.0
 10
65.6359591849799
 20
-96.51917315295354
 30
0.0
 10
65.6359591849799
 20
-96.51917315295354
 30
0.0
 10
65.6359591849799
 20
-97.12619897745456
 30
0.0
 10
65.6359591849799
 20
-97.12619897745456
 30
0.0
 10
65.6359591849799
 20
-97.14514700262345
 30
0.0
 10
65.64629447143565
 20
-97.71634383407786
 30
0.0
 10
65.64629447143565
 20
-97.828653946897
 30
0.0
 10
65.64629447143565
 20
-97.88549802240362
 30
0.0
 10
65.64629447143565
 20
-97.9871283392185
 30
0.0
 10
65.56361217978966
 20
-98.03363712826938
 30
0.0
  0
POLYLINE
  5
9F
330
8B
100
AcDbEntity
  8
_U+30EC_U+30A4_U+30E4_U+30FC 1
370
     0
100
AcDb2dPolyline
 66
     1
 10
0.0
 20
0.0
 30
0.0
  0
VERTEX
  5
A0
330
9F
100
AcDbEntity
  8
_U+30EC_U+30A4_U+30E4_U+30FC 1
370
     0
100
AcDbVertex
100
AcDb2dVertex
 10
64.77881942824975
 20
-96.44717065731183
 30
0.0
  0
VERTEX
  5
A1
330
9F
100
AcDbEntity
  8
_U+30EC_U+30A4_U+30E4_U+30FC 1
370
     0
100
AcDbVertex
100
AcDb2dVertex
 10
64.34129230162301
 20
-96.44717065731183
 30
0.0
  0
VERTEX
  5
A2
330
9F
100
AcDbEntity
  8
_U+30EC_U+30A4_U+30E4_U+30FC 1
370
     0
100
AcDbVertex
100
AcDb2dVertex
 10
64.34129230162301
 20
-96.7517170982079
 30
0.0
  0
VERTEX
  5
A3
330
9F
100
AcDbEntity
  8
_U+30EC_U+30A4_U+30E4_U+30FC 1
370
     0
100
AcDbVertex
100
AcDb2dVertex
 10
64.77881942824975
 20
-96.7517170982079
 30
0.0
  0
VERTEX
  5
A4
330
9F
100
AcDbEntity
  8
_U+30EC_U+30A4_U+30E4_U+30FC 1
370
     0
100
AcDbVertex
100
AcDb2dVertex
 10
64.77881942824975
 20
-96.44717065731183
 30
0.0
  0
SEQEND
  5
A5
330
9F
100
AcDbEntity
  8
_U+30EC_U+30A4_U+30E4_U+30FC 1
370
     0
  0
POLYLINE
  5
A6
330
8B
100
AcDbEntity
  8
_U+30EC_U+30A4_U+30E4_U+30FC 1
370
     0
100
AcDb2dPolyline
 66
     1
 10
0.0
 20
0.0
 30
0.0
  0
VERTEX
  5
A7
330
A6
100
AcDbEntity
  8
_U+30EC_U+30A4_U+30E4_U+30FC 1
370
     0
100
AcDbVertex
100
AcDb2dVertex
 10
64.77881942824975
 20
-96.91880422924253
 30
0.0
  0
VERTEX
  5
A8
330
A6
100
AcDbEntity
  8
_U+30EC_U+30A4_U+30E4_U+30FC 1
370
     0
100
AcDbVertex
100
AcDb2dVertex
 10
64.34129230162301
 20
-96.91880422924253
 30
0.0
  0
VERTEX
  5
A9
330
A6
100
AcDbEntity
  8
_U+30EC_U+30A4_U+30E4_U+30FC 1
370
     0
100
AcDbVertex
100
AcDb2dVertex
 10
64.34129230162301
 20
-97.22782929426944
 30
0.0
  0
VERTEX
  5
AA
330
A6
100
AcDbEntity
  8
_U+30EC_U+30A4_U+30E4_U+30FC 1
370
     0
100
AcDbVertex
100
AcDb2dVertex
 10
64.77881942824975
 20
-97.22782929426944
 30
0.0
  0
VERTEX
  5
AB
330
A6
100
AcDbEntity
  8
_U+30EC_U+30A4_U+30E4_U+30FC 1
370
     0
100
AcDbVertex
100
AcDb2dVertex
 10
64.77881942824975
 20
-96.91880422924253
 30
0.0
  0
SEQEND
  5
AC
330
A6
100
AcDbEntity
  8
_U+30EC_U+30A4_U+30E4_U+30FC 1
370
     0
  0
POLYLINE
  5
AD
330
8B
100
AcDbEntity
  8
_U+30EC_U+30A4_U+30E4_U+30FC 1
370
     0
100
AcDb2dPolyline
 66
     1
 10
0.0
 20
0.0
 30
0.0
  0
VERTEX
  5
AE
330
AD
100
AcDbEntity
  8
_U+30EC_U+30A4_U+30E4_U+30FC 1
370
     0
100
AcDbVertex
100
AcDb2dVertex
 10
65.42856443676786
 20
-96.44717065731183
 30
0.0
  0
VERTEX
  5
AF
330
AD
100
AcDbEntity
  8
_U+30EC_U+30A4_U+30E4_U+30FC 1
370
     0
100
AcDbVertex
100
AcDb2dVertex
 10
64.96898869903553
 20
-96.44717065731183
 30
0.0
  0
VERTEX
  5
B0
330
AD
100
AcDbEntity
  8
_U+30EC_U+30A4_U+30E4_U+30FC 1
370
     0
100
AcDbVertex
100
AcDb2dVertex
 10
64.96898869903553
 20
-96.7517170982079
 30
0.0
  0
VERTEX
  5
B1
330
AD
100
AcDbEntity
  8
_U+30EC_U+30A4_U+30E4_U+30FC 1
370
     0
100
AcDbVertex
100
AcDb2dVertex
 10
65.42856443676786
 20
-96.7517170982079
 30
0.0
  0
VERTEX
  5
B2
330
AD
100
AcDbEntity
  8
_U+30EC_U+30A4_U+30E4_U+30FC 1
370
     0
100
AcDbVertex
100
AcDb2dVertex
 10
65.42856443676786
 20
-96.44717065731183
 30
0.0
  0
SEQEND
  5
B3
330
AD
100
AcDbEntity
  8
_U+30EC_U+30A4_U+30E4_U+30FC 1
370
     0
  0
POLYLINE
  5
B4
330
8B
100
AcDbEntity
  8
_U+30EC_U+30A4_U+30E4_U+30FC 1
370
     0
100
AcDb2dPolyline
 66
     1
 10
0.0
 20
0.0
 30
0.0
  0
VERTEX
  5
B5
330
B4
100
AcDbEntity
  8
_U+30EC_U+30A4_U+30E4_U+30FC 1
370
     0
100
AcDbVertex
100
AcDb2dVertex
 10
65.42856443676786
 20
-96.91880422924253
 30
0.0
  0
VERTEX
  5
B6
330
B4
100
AcDbEntity
  8
_U+30EC_U+30A4_U+30E4_U+30FC 1
370
     0
100
AcDbVertex
100
AcDb2dVertex
 10
64.96898869903553
 20
-96.91880422924253
 30
0.0
  0
VERTEX
  5
B7
330
B4
100
AcDbEntity
  8
_U+30EC_U+30A4_U+30E4_U+30FC 1
370
     0
100
AcDbVertex
100
AcDb2dVertex
 10
64.96898869903553
 20
-97.22782929426944
 30
0.0
  0
VERTEX
  5
B8
330
B4
100
AcDbEntity
  8
_U+30EC_U+30A4_U+30E4_U+30FC 1
370
     0
100
AcDbVertex
100
AcDb2dVertex
 10
65.42856443676786
 20
-97.22782929426944
 30
0.0
  0
VERTEX
  5
B9
330
B4
100
AcDbEntity
  8
_U+30EC_U+30A4_U+30E4_U+30FC 1
370
     0
100
AcDbVertex
100
AcDb2dVertex
 10
65.42856443676786
 20
-96.91880422924253
 30
0.0
  0
SEQEND
  5
BA
330
B4
100
AcDbEntity
  8
_U+30EC_U+30A4_U+30E4_U+30FC 1
370
     0
  0
HATCH
  5
BB
330
8B
100
AcDbEntity
  8
_U+30EC_U+30A4_U+30E4_U+30FC 1
 62
   179
420
  2234388
100
AcDbHatch
 10
0.0
 20
0.0
 30
0.0
210
0.0
220
0.0
230
1.0
  2
SOLID
 70
     1
 71
     0
 91
        5
 92
        1
 93
        1
 72
     4
 94
        3
 73
     0
 74
     1
 95
       77
 96
       73
 40
0.0
 40
0.0
 40
0.0
 40
0.0
 40
1.0
 40
1.0
 40
1.0
 40
2.0
 40
2.0
 40
2.0
 40
3.0
 40
3.0
 40
3.0
 40
4.0
 40
4.0
 40
4.0
 40
5.0
 40
5.0
 40
5.0
 40
6.0
 40
6.0
 40
6.0
 40
7.0
 40
7.0
 40
7.0
 40
8.0
 40
8.0
 40
8.0
 40
9.0
 40
9.0
 40
9.0
 40
10.0
 40
10.0
 40
10.0
 40
11.0
 40
11.0
 40
11.0
 40
12.0
 40
12.0
 40
12.0
 40
13.0
 40
13.0
 40
13.0
 40
14.0
 40
14.0
 40
14.0
 40
15.0
 40
15.0
 40
15.0
 40
16.0
 40
16.0
 40
16.0
 40
17.0
 40
17.0
 40
17.0
 40
18.0
 40
18.0
 40
18.0
 40
19.0
 40
19.0
 40
19.0
 40
20.0
 40
20.0
 40
20.0
 40
21.0
 40
21.0
 40
21.0
 40
22.0
 40
22.0
 40
22.0
 40
23.0
 40
23.0
 40
23.0
 40
24.0
 40
24.0
 40
24.0
 40
24.0
 10
65.56361217978966
 20
-98.03363712826938
 10
65.51744790028731
 20
-98.05913083486023
 10
65.39273544372126
 20
-98.07187768815565
 10
65.31418726665757
 20
-98.07187768815565
 10
65.30178492291067
 20
-98.07187768815565
 10
65.27629121631982
 20
-98.07187768815565
 10
65.24252928056437
 20
-98.06739906402483
 10
65.24252928056437
 20
-98.06739906402483
 10
65.14468856878328
 20
-97.8410562906439
 10
65.14468856878328
 20
-97.8410562906439
 10
65.17431638995643
 20
-97.84760197206589
 10
65.23150497501157
 20
-97.85587020123049
 10
65.34794920241302
 20
-97.85587020123049
 10
65.42649737947671
 20
-97.85587020123049
 10
65.42856443676786
 20
-97.81384003631044
 10
65.42856443676786
 20
-97.75665145125528
 10
65.42856443676786
 20
-97.75665145125528
 10
65.42856443676786
 20
-97.40766327859947
 10
65.42856443676786
 20
-97.40766327859947
 10
65.42856443676786
 20
-97.40766327859947
 10
64.96898869903553
 20
-97.40766327859947
 10
64.96898869903553
 20
-97.40766327859947
 10
64.97174477542373
 20
-97.54512258846094
 10
64.97381183271489
 20
-97.74390459795985
 10
64.98001300458833
 20
-97.87722979323902
 10
64.98208006187949
 20
-97.90479055712103
 10
64.98208006187949
 20
-97.94923228888075
 10
64.99448240562639
 20
-98.0105549885182
 10
64.99448240562639
 20
-98.0105549885182
 10
64.7533257216589
 20
-98.0105549885182
 10
64.7533257216589
 20
-98.0105549885182
 10
64.77881942824975
 20
-97.88549802240362
 10
64.77881942824975
 20
-97.54512258846094
 10
64.77881942824975
 20
-97.40766327859947
 10
64.77881942824975
 20
-97.40766327859947
 10
64.33646916794366
 20
-97.40766327859947
 10
64.33646916794366
 20
-97.40766327859947
 10
64.31373153774102
 20
-97.614713517263
 10
64.24827472352126
 20
-97.88343096511248
 10
64.05121526176498
 20
-98.06739906402483
 10
64.05121526176498
 20
-98.06739906402483
 10
63.86311304827034
 20
-97.94475366474992
 10
63.86311304827034
 20
-97.94475366474992
 10
64.11667207598472
 20
-97.72495657279099
 10
64.14836695444902
 20
-97.3928493680129
 10
64.14836695444902
 20
-97.06074216323482
 10
64.14836695444902
 20
-97.06074216323482
 10
64.14836695444902
 20
-96.62493758435072
 10
64.14836695444902
 20
-96.62493758435072
 10
64.14836695444902
 20
-96.58876408175558
 10
64.14629989715787
 20
-96.35622013650122
 10
64.13803166799327
 20
-96.25458981968636
 10
64.27790254469441
 20
-96.26526961569063
 10
64.5190592286619
 20
-96.26526961569063
 10
64.6623752008483
 20
-96.26526961569063
 10
64.6623752008483
 20
-96.26526961569063
 10
65.12195093858062
 20
-96.26526961569063
 10
65.12195093858062
 20
-96.26526961569063
 10
65.13642033961868
 20
-96.26526961569063
 10
65.48575302182302
 20
-96.26526961569063
 10
65.6442274141445
 20
-96.25458981968636
 10
65.64216035685335
 20
-96.30729978061068
 10
65.6359591849799
 20
-96.46818573977184
 10
65.6359591849799
 20
-96.51917315295354
 10
65.6359591849799
 20
-96.51917315295354
 10
65.6359591849799
 20
-97.12619897745456
 10
65.6359591849799
 20
-97.12619897745456
 10
65.6359591849799
 20
-97.14514700262345
 10
65.64629447143565
 20
-97.71634383407786
 10
65.64629447143565
 20
-97.828653946897
 10
65.64629447143565
 20
-97.88549802240362
 10
65.64629447143565
 20
-97.9871283392185
 10
65.56361217978966
 20
-98.03363712826938
 97
        0
 97
        0
 92
        1
 93
        4
 72
     1
 10
64.77881942824975
 20
-96.44717065731183
 11
64.34129230162301
 21
-96.44717065731183
 72
     1
 10
64.34129230162301
 20
-96.44717065731183
 11
64.34129230162301
 21
-96.7517170982079
 72
     1
 10
64.34129230162301
 20
-96.7517170982079
 11
64.77881942824975
 21
-96.7517170982079
 72
     1
 10
64.77881942824975
 20
-96.7517170982079
 11
64.77881942824975
 21
-96.44717065731183
 97
        0
 92
        1
 93
        4
 72
     1
 10
64.77881942824975
 20
-96.91880422924253
 11
64.34129230162301
 21
-96.91880422924253
 72
     1
 10
64.34129230162301
 20
-96.91880422924253
 11
64.34129230162301
 21
-97.22782929426944
 72
     1
 10
64.34129230162301
 20
-97.22782929426944
 11
64.77881942824975
 21
-97.22782929426944
 72
     1
 10
64.77881942824975
 20
-97.22782929426944
 11
64.77881942824975
 21
-96.91880422924253
 97
        0
 92
        1
 93
        4
 72
     1
 10
65.42856443676786
 20
-96.44717065731183
 11
64.96898869903553
 21
-96.44717065731183
 72
     1
 10
64.96898869903553
 20
-96.44717065731183
 11
64.96898869903553
 21
-96.7517170982079
 72
     1
 10
64.96898869903553
 20
-96.7517170982079
 11
65.42856443676786
 21
-96.7517170982079
 72
     1
 10
65.42856443676786
 20
-96.7517170982079
 11
65.42856443676786
 21
-96.44717065731183
 97
        0
 92
        1
 93
        4
 72
     1
 10
65.42856443676786
 20
-96.91880422924253
 11
64.96898869903553
 21
-96.91880422924253
 72
     1
 10
64.96898869903553
 20
-96.91880422924253
 11
64.96898869903553
 21
-97.22782929426944
 72
     1
 10
64.96898869903553
 20
-97.22782929426944
 11
65.42856443676786
 21
-97.22782929426944
 72
     1
 10
65.42856443676786
 20
-97.22782929426944
 11
65.42856443676786
 21
-96.91880422924253
 97
        0
 75
     2
 76
     1
 98
        0
  0
SPLINE
  5
BC
330
8B
100
AcDbEntity
  8
_U+30EC_U+30A4_U+30E4_U+30FC 1
370
     0
100
AcDbSpline
210
0.0
220
0.0
230
1.0
 70
    11
 71
     3
 72
    44
 73
    40
 74
     0
 42
0.0000000001
 43
0.0000000001
 12
1.0
 22
0.0
 32
0.0
 13
1.0
 23
0.0
 33
0.0
 40
0.0
 40
0.0
 40
0.0
 40
0.0
 40
1.0
 40
1.0
 40
1.0
 40
2.0
 40
2.0
 40
2.0
 40
3.0
 40
3.0
 40
3.0
 40
4.0
 40
4.0
 40
4.0
 40
5.0
 40
5.0
 40
5.0
 40
6.0
 40
6.0
 40
6.0
 40
7.0
 40
7.0
 40
7.0
 40
8.0
 40
8.0
 40
8.0
 40
9.0
 40
9.0
 40
9.0
 40
10.0
 40
10.0
 40
10.0
 40
11.0
 40
11.0
 40
11.0
 40
12.0
 40
12.0
 40
12.0
 40
13.0
 40
13.0
 40
13.0
 40
13.0
 10
67.44118921925082
 20
-96.78341197667221
 30
0.0
 10
67.32956812552872
 20
-97.15169268404541
 30
0.0
 10
67.27858071234702
 20
-97.31016707636691
 30
0.0
 10
67.08221026968778
 20
-97.55993649904752
 30
0.0
 10
66.8975531516784
 20
-97.79041338701073
 30
0.0
 10
66.66121960139026
 20
-97.97644854321423
 30
0.0
 10
66.38147784798797
 20
-98.0698106308645
 30
0.0
 10
66.38147784798797
 20
-98.0698106308645
 30
0.0
 10
66.18924151991102
 20
-97.88997664653445
 30
0.0
 10
66.18924151991102
 20
-97.88997664653445
 30
0.0
 10
66.8300292801675
 20
-97.73770342608641
 30
0.0
 10
67.16006942765443
 20
-97.18132050521857
 30
0.0
 10
67.22345918458302
 20
-96.74103730220364
 30
0.0
 10
67.22345918458302
 20
-96.74103730220364
 30
0.0
 10
66.45795896776052
 20
-96.74103730220364
 30
0.0
 10
66.45795896776052
 20
-96.74103730220364
 30
0.0
 10
66.36494138965877
 20
-96.74103730220364
 30
0.0
 10
66.18097329074642
 20
-96.74551592633446
 30
0.0
 10
66.02387693661903
 20
-96.76446395150333
 30
0.0
 10
66.02387693661903
 20
-96.76446395150333
 30
0.0
 10
66.02387693661903
 20
-96.54432234999587
 30
0.0
 10
66.02387693661903
 20
-96.54432234999587
 30
0.0
 10
66.11069334284733
 20
-96.56568194200442
 30
0.0
 10
66.36287433236762
 20
-96.56568194200442
 30
0.0
 10
66.46209308234282
 20
-96.56568194200442
 30
0.0
 10
66.46209308234282
 20
-96.56568194200442
 30
0.0
 10
66.8934190370961
 20
-96.56568194200442
 30
0.0
 10
66.8934190370961
 20
-96.56568194200442
 30
0.0
 10
66.9361382211132
 20
-96.56568194200442
 30
0.0
 10
67.17040471411018
 20
-96.56327037516475
 30
0.0
 10
67.20898978354498
 20
-96.55706920329129
 30
0.0
 10
67.25101994846503
 20
-96.55086803141785
 30
0.0
 10
67.25308700575617
 20
-96.54880097412669
 30
0.0
 10
67.31440970539363
 20
-96.50849335694927
 30
0.0
 10
67.31440970539363
 20
-96.50849335694927
 30
0.0
 10
67.50320093798531
 20
-96.66283363468847
 30
0.0
 10
67.50320093798531
 20
-96.66283363468847
 30
0.0
 10
67.47357311681216
 20
-96.6924614558616
 30
0.0
 10
67.45841469667707
 20
-96.72415633432591
 30
0.0
 10
67.44118921925082
 20
-96.78341197667221
 30
0.0
  0
SPLINE
  5
BD
330
8B
100
AcDbEntity
  8
_U+30EC_U+30A4_U+30E4_U+30FC 1
370
     0
100
AcDbSpline
210
0.0
220
0.0
230
1.0
 70
    11
 71
     3
 72
    17
 73
    13
 74
     0
 42
0.0000000001
 43
0.0000000001
 12
1.0
 22
0.0
 32
0.0
 13
1.0
 23
0.0
 33
0.0
 40
0.0
 40
0.0
 40
0.0
 40
0.0
 40
1.0
 40
1.0
 40
1.0
 40
2.0
 40
2.0
 40
2.0
 40
3.0
 40
3.0
 40
3.0
 40
4.0
 40
4.0
 40
4.0
 40
4.0
 10
67.65065102475401
 20
-96.58462996717329
 30
0.0
 10
67.52387151089681
 20
-96.58462996717329
 30
0.0
 10
67.42258570363047
 20
-96.48299965035842
 30
0.0
 10
67.42258570363047
 20
-96.35622013650122
 30
0.0
 10
67.42258570363047
 20
-96.22909611309551
 30
0.0
 10
67.52387151089681
 20
-96.12539873898949
 30
0.0
 10
67.65065102475401
 20
-96.12539873898949
 30
0.0
 10
67.77811955770825
 20
-96.12539873898949
 30
0.0
 10
67.88147242226574
 20
-96.22909611309551
 30
0.0
 10
67.88147242226574
 20
-96.35622013650122
 30
0.0
 10
67.88147242226574
 20
-96.48299965035842
 30
0.0
 10
67.77811955770825
 20
-96.58462996717329
 30
0.0
 10
67.65065102475401
 20
-96.58462996717329
 30
0.0
  0
SPLINE
  5
BE
330
8B
100
AcDbEntity
  8
_U+30EC_U+30A4_U+30E4_U+30FC 1
370
     0
100
AcDbSpline
210
0.0
220
0.0
230
1.0
 70
    11
 71
     3
 72
    17
 73
    13
 74
     0
 42
0.0000000001
 43
0.0000000001
 12
1.0
 22
0.0
 32
0.0
 13
1.0
 23
0.0
 33
0.0
 40
0.0
 40
0.0
 40
0.0
 40
0.0
 40
1.0
 40
1.0
 40
1.0
 40
2.0
 40
2.0
 40
2.0
 40
3.0
 40
3.0
 40
3.0
 40
4.0
 40
4.0
 40
4.0
 40
4.0
 10
67.64858396746286
 20
-96.25458981968636
 30
0.0
 10
67.5941514587959
 20
-96.25458981968636
 30
0.0
 10
67.54936521748766
 20
-96.29903155144608
 30
0.0
 10
67.54936521748766
 20
-96.35415307921008
 30
0.0
 10
67.54936521748766
 20
-96.4109971547167
 30
0.0
 10
67.5941514587959
 20
-96.45991751060724
 30
0.0
 10
67.65271808204515
 20
-96.45991751060724
 30
0.0
 10
67.71197372439146
 20
-96.45991751060724
 30
0.0
 10
67.7526258511174
 20
-96.40893009742555
 30
0.0
 10
67.7526258511174
 20
-96.35622013650122
 30
0.0
 10
67.7526258511174
 20
-96.29903155144608
 30
0.0
 10
67.705772552518
 20
-96.25458981968636
 30
0.0
 10
67.64858396746286
 20
-96.25458981968636
 30
0.0
  0
HATCH
  5
BF
330
8B
100
AcDbEntity
  8
_U+30EC_U+30A4_U+30E4_U+30FC 1
 62
   179
420
  2234388
100
AcDbHatch
 10
0.0
 20
0.0
 30
0.0
210
0.0
220
0.0
230
1.0
  2
SOLID
 70
     1
 71
     0
 91
        3
 92
        1
 93
        1
 72
     4
 94
        3
 73
     0
 74
     1
 95
       44
 96
       40
 40
0.0
 40
0.0
 40
0.0
 40
0.0
 40
1.0
 40
1.0
 40
1.0
 40
2.0
 40
2.0
 40
2.0
 40
3.0
 40
3.0
 40
3.0
 40
4.0
 40
4.0
 40
4.0
 40
5.0
 40
5.0
 40
5.0
 40
6.0
 40
6.0
 40
6.0
 40
7.0
 40
7.0
 40
7.0
 40
8.0
 40
8.0
 40
8.0
 40
9.0
 40
9.0
 40
9.0
 40
10.0
 40
10.0
 40
10.0
 40
11.0
 40
11.0
 40
11.0
 40
12.0
 40
12.0
 40
12.0
 40
13.0
 40
13.0
 40
13.0
 40
13.0
 10
67.44118921925082
 20
-96.78341197667221
 10
67.32956812552872
 20
-97.15169268404541
 10
67.27858071234702
 20
-97.31016707636691
 10
67.08221026968778
 20
-97.55993649904752
 10
66.8975531516784
 20
-97.79041338701073
 10
66.66121960139026
 20
-97.97644854321423
 10
66.38147784798797
 20
-98.0698106308645
 10
66.38147784798797
 20
-98.0698106308645
 10
66.18924151991102
 20
-97.88997664653445
 10
66.18924151991102
 20
-97.88997664653445
 10
66.8300292801675
 20
-97.73770342608641
 10
67.16006942765443
 20
-97.18132050521857
 10
67.22345918458302
 20
-96.74103730220364
 10
67.22345918458302
 20
-96.74103730220364
 10
66.45795896776052
 20
-96.74103730220364
 10
66.45795896776052
 20
-96.74103730220364
 10
66.36494138965877
 20
-96.74103730220364
 10
66.18097329074642
 20
-96.74551592633446
 10
66.02387693661903
 20
-96.76446395150333
 10
66.02387693661903
 20
-96.76446395150333
 10
66.02387693661903
 20
-96.54432234999587
 10
66.02387693661903
 20
-96.54432234999587
 10
66.11069334284733
 20
-96.56568194200442
 10
66.36287433236762
 20
-96.56568194200442
 10
66.46209308234282
 20
-96.56568194200442
 10
66.46209308234282
 20
-96.56568194200442
 10
66.8934190370961
 20
-96.56568194200442
 10
66.8934190370961
 20
-96.56568194200442
 10
66.9361382211132
 20
-96.56568194200442
 10
67.17040471411018
 20
-96.56327037516475
 10
67.20898978354498
 20
-96.55706920329129
 10
67.25101994846503
 20
-96.55086803141785
 10
67.25308700575617
 20
-96.54880097412669
 10
67.31440970539363
 20
-96.50849335694927
 10
67.31440970539363
 20
-96.50849335694927
 10
67.50320093798531
 20
-96.66283363468847
 10
67.50320093798531
 20
-96.66283363468847
 10
67.47357311681216
 20
-96.6924614558616
 10
67.45841469667707
 20
-96.72415633432591
 10
67.44118921925082
 20
-96.78341197667221
 97
        0
 97
        0
 92
        1
 93
        1
 72
     4
 94
        3
 73
     0
 74
     1
 95
       17
 96
       13
 40
0.0
 40
0.0
 40
0.0
 40
0.0
 40
1.0
 40
1.0
 40
1.0
 40
2.0
 40
2.0
 40
2.0
 40
3.0
 40
3.0
 40
3.0
 40
4.0
 40
4.0
 40
4.0
 40
4.0
 10
67.65065102475401
 20
-96.58462996717329
 10
67.52387151089681
 20
-96.58462996717329
 10
67.42258570363047
 20
-96.48299965035842
 10
67.42258570363047
 20
-96.35622013650122
 10
67.42258570363047
 20
-96.22909611309551
 10
67.52387151089681
 20
-96.12539873898949
 10
67.65065102475401
 20
-96.12539873898949
 10
67.77811955770825
 20
-96.12539873898949
 10
67.88147242226574
 20
-96.22909611309551
 10
67.88147242226574
 20
-96.35622013650122
 10
67.88147242226574
 20
-96.48299965035842
 10
67.77811955770825
 20
-96.58462996717329
 10
67.65065102475401
 20
-96.58462996717329
 97
        0
 97
        0
 92
        1
 93
        1
 72
     4
 94
        3
 73
     0
 74
     1
 95
       17
 96
       13
 40
0.0
 40
0.0
 40
0.0
 40
0.0
 40
1.0
 40
1.0
 40
1.0
 40
2.0
 40
2.0
 40
2.0
 40
3.0
 40
3.0
 40
3.0
 40
4.0
 40
4.0
 40
4.0
 40
4.0
 10
67.64858396746286
 20
-96.25458981968636
 10
67.5941514587959
 20
-96.25458981968636
 10
67.54936521748766
 20
-96.29903155144608
 10
67.54936521748766
 20
-96.35415307921008
 10
67.54936521748766
 20
-96.4109971547167
 10
67.5941514587959
 20
-96.45991751060724
 10
67.65271808204515
 20
-96.45991751060724
 10
67.71197372439146
 20
-96.45991751060724
 10
67.7526258511174
 20
-96.40893009742555
 10
67.7526258511174
 20
-96.35622013650122
 10
67.7526258511174
 20
-96.29903155144608
 10
67.705772552518
 20
-96.25458981968636
 10
67.64858396746286
 20
-96.25458981968636
 97
        0
 97
        0
 75
     2
 76
     1
 98
        0
  0
SPLINE
  5
C0
330
8B
100
AcDbEntity
  8
_U+30EC_U+30A4_U+30E4_U+30FC 1
370
     0
100
AcDbSpline
210
0.0
220
0.0
230
1.0
 70
    11
 71
     3
 72
    50
 73
    46
 74
     0
 42
0.0000000001
 43
0.0000000001
 12
1.0
 22
0.0
 32
0.0
 13
1.0
 23
0.0
 33
0.0
 40
0.0
 40
0.0
 40
0.0
 40
0.0
 40
1.0
 40
1.0
 40
1.0
 40
2.0
 40
2.0
 40
2.0
 40
3.0
 40
3.0
 40
3.0
 40
4.0
 40
4.0
 40
4.0
 40
5.0
 40
5.0
 40
5.0
 40
6.0
 40
6.0
 40
6.0
 40
7.0
 40
7.0
 40
7.0
 40
8.0
 40
8.0
 40
8.0
 40
9.0
 40
9.0
 40
9.0
 40
10.0
 40
10.0
 40
10.0
 40
11.0
 40
11.0
 40
11.0
 40
12.0
 40
12.0
 40
12.0
 40
13.0
 40
13.0
 40
13.0
 40
14.0
 40
14.0
 40
14.0
 40
15.0
 40
15.0
 40
15.0
 40
15.0
 10
69.44623479166623
 20
-97.09243704169911
 30
0.0
 10
69.36768661460252
 20
-97.26985945918949
 30
0.0
 10
69.23194985248368
 20
-97.47725420740153
 30
0.0
 10
69.09483505217074
 20
-97.61712508410267
 30
0.0
 10
68.92533635429645
 20
-97.78834632971959
 30
0.0
 10
68.76272784739265
 20
-97.87722979323902
 30
0.0
 10
68.44302298636147
 20
-98.0188232176828
 30
0.0
 10
68.44302298636147
 20
-98.0188232176828
 30
0.0
 10
68.27421330758423
 20
-97.83072100418816
 30
0.0
 10
68.27421330758423
 20
-97.83072100418816
 30
0.0
 10
68.46024846378772
 20
-97.80729435488846
 30
0.0
 10
68.63112519985611
 20
-97.72047794866016
 30
0.0
 10
68.7840874394012
 20
-97.614713517263
 30
0.0
 10
69.04591469628019
 20
-97.4328124756418
 30
0.0
 10
69.23677298616303
 20
-97.1196532960326
 30
0.0
 10
69.28500432295652
 20
-96.9377522544114
 30
0.0
 10
69.28500432295652
 20
-96.9377522544114
 30
0.0
 10
68.61458874152692
 20
-96.9377522544114
 30
0.0
 10
68.61458874152692
 20
-96.9377522544114
 30
0.0
 10
68.45611434920542
 20
-96.9377522544114
 30
0.0
 10
68.16397025205623
 20
-96.94636499312452
 30
0.0
 10
68.0116970316082
 20
-96.96324596100224
 30
0.0
 10
68.0116970316082
 20
-96.96324596100224
 30
0.0
 10
68.0116970316082
 20
-96.73483613033018
 30
0.0
 10
68.0116970316082
 20
-96.73483613033018
 30
0.0
 10
68.04545896736364
 20
-96.74103730220364
 30
0.0
 10
68.0709526739545
 20
-96.7475829836256
 30
0.0
 10
68.12400714442734
 20
-96.7517170982079
 30
0.0
 10
68.22529295169367
 20
-96.75791827008136
 30
0.0
 10
68.42235241344997
 20
-96.76032983692103
 30
0.0
 10
68.50641274329007
 20
-96.76032983692103
 30
0.0
 10
68.50641274329007
 20
-96.76032983692103
 30
0.0
 10
69.01215276052474
 20
-96.76032983692103
 30
0.0
 10
69.01215276052474
 20
-96.76032983692103
 30
0.0
 10
69.07967663203564
 20
-96.76032983692103
 30
0.0
 10
69.22574868061024
 20
-96.7558512127902
 30
0.0
 10
69.28707138024768
 20
-96.74965004091676
 30
0.0
 10
69.35941838543792
 20
-96.74103730220364
 30
0.0
 10
69.38697914931993
 20
-96.72622339161705
 30
0.0
 10
69.42074108507538
 20
-96.70314125186589
 30
0.0
 10
69.42074108507538
 20
-96.70314125186589
 30
0.0
 10
69.58541664927031
 20
-96.8702283829005
 30
0.0
 10
69.58541664927031
 20
-96.8702283829005
 30
0.0
 10
69.51582572046827
 20
-96.9377522544114
 30
0.0
 10
69.46897242186887
 20
-97.04144962851743
 30
0.0
 10
69.44623479166623
 20
-97.09243704169911
 30
0.0
  0
SPLINE
  5
C1
330
8B
100
AcDbEntity
  8
_U+30EC_U+30A4_U+30E4_U+30FC 1
370
     0
100
AcDbSpline
210
0.0
220
0.0
230
1.0
 70
    11
 71
     3
 72
    29
 73
    25
 74
     0
 42
0.0000000001
 43
0.0000000001
 12
1.0
 22
0.0
 32
0.0
 13
1.0
 23
0.0
 33
0.0
 40
0.0
 40
0.0
 40
0.0
 40
0.0
 40
1.0
 40
1.0
 40
1.0
 40
2.0
 40
2.0
 40
2.0
 40
3.0
 40
3.0
 40
3.0
 40
4.0
 40
4.0
 40
4.0
 40
5.0
 40
5.0
 40
5.0
 40
6.0
 40
6.0
 40
6.0
 40
7.0
 40
7.0
 40
7.0
 40
8.0
 40
8.0
 40
8.0
 40
8.0
 10
68.95289711817844
 20
-96.4661186824807
 30
0.0
 10
68.95289711817844
 20
-96.4661186824807
 30
0.0
 10
68.61252168423576
 20
-96.4661186824807
 30
0.0
 10
68.61252168423576
 20
-96.4661186824807
 30
0.0
 10
68.49814451412547
 20
-96.4661186824807
 30
0.0
 10
68.38170028672403
 20
-96.470252797063
 30
0.0
 10
68.26732311661372
 20
-96.48506670764957
 30
0.0
 10
68.26732311661372
 20
-96.48506670764957
 30
0.0
 10
68.26732311661372
 20
-96.27560490214638
 30
0.0
 10
68.26732311661372
 20
-96.27560490214638
 30
0.0
 10
68.38583440130633
 20
-96.29041881273295
 30
0.0
 10
68.55946721376291
 20
-96.29489743686378
 30
0.0
 10
68.61252168423576
 20
-96.29489743686378
 30
0.0
 10
68.61252168423576
 20
-96.29489743686378
 30
0.0
 10
68.95289711817844
 20
-96.29489743686378
 30
0.0
 10
68.95289711817844
 20
-96.29489743686378
 30
0.0
 10
69.06934134557989
 20
-96.29489743686378
 30
0.0
 10
69.18578557298133
 20
-96.29041881273295
 30
0.0
 10
69.30222980038278
 20
-96.27560490214638
 30
0.0
 10
69.30222980038278
 20
-96.27560490214638
 30
0.0
 10
69.30222980038278
 20
-96.48506670764957
 30
0.0
 10
69.30222980038278
 20
-96.48506670764957
 30
0.0
 10
69.15202363722588
 20
-96.4661186824807
 30
0.0
 10
68.96805553831355
 20
-96.4661186824807
 30
0.0
 10
68.95289711817844
 20
-96.4661186824807
 30
0.0
  0
HATCH
  5
C2
330
8B
100
AcDbEntity
  8
_U+30EC_U+30A4_U+30E4_U+30FC 1
 62
   179
420
  2234388
100
AcDbHatch
 10
0.0
 20
0.0
 30
0.0
210
0.0
220
0.0
230
1.0
  2
SOLID
 70
     1
 71
     0
 91
        2
 92
        1
 93
        1
 72
     4
 94
        3
 73
     0
 74
     1
 95
       50
 96
       46
 40
0.0
 40
0.0
 40
0.0
 40
0.0
 40
1.0
 40
1.0
 40
1.0
 40
2.0
 40
2.0
 40
2.0
 40
3.0
 40
3.0
 40
3.0
 40
4.0
 40
4.0
 40
4.0
 40
5.0
 40
5.0
 40
5.0
 40
6.0
 40
6.0
 40
6.0
 40
7.0
 40
7.0
 40
7.0
 40
8.0
 40
8.0
 40
8.0
 40
9.0
 40
9.0
 40
9.0
 40
10.0
 40
10.0
 40
10.0
 40
11.0
 40
11.0
 40
11.0
 40
12.0
 40
12.0
 40
12.0
 40
13.0
 40
13.0
 40
13.0
 40
14.0
 40
14.0
 40
14.0
 40
15.0
 40
15.0
 40
15.0
 40
15.0
 10
69.44623479166623
 20
-97.09243704169911
 10
69.36768661460252
 20
-97.26985945918949
 10
69.23194985248368
 20
-97.47725420740153
 10
69.09483505217074
 20
-97.61712508410267
 10
68.92533635429645
 20
-97.78834632971959
 10
68.76272784739265
 20
-97.87722979323902
 10
68.44302298636147
 20
-98.0188232176828
 10
68.44302298636147
 20
-98.0188232176828
 10
68.27421330758423
 20
-97.83072100418816
 10
68.27421330758423
 20
-97.83072100418816
 10
68.46024846378772
 20
-97.80729435488846
 10
68.63112519985611
 20
-97.72047794866016
 10
68.7840874394012
 20
-97.614713517263
 10
69.04591469628019
 20
-97.4328124756418
 10
69.23677298616303
 20
-97.1196532960326
 10
69.28500432295652
 20
-96.9377522544114
 10
69.28500432295652
 20
-96.9377522544114
 10
68.61458874152692
 20
-96.9377522544114
 10
68.61458874152692
 20
-96.9377522544114
 10
68.45611434920542
 20
-96.9377522544114
 10
68.16397025205623
 20
-96.94636499312452
 10
68.0116970316082
 20
-96.96324596100224
 10
68.0116970316082
 20
-96.96324596100224
 10
68.0116970316082
 20
-96.73483613033018
 10
68.0116970316082
 20
-96.73483613033018
 10
68.04545896736364
 20
-96.74103730220364
 10
68.0709526739545
 20
-96.7475829836256
 10
68.12400714442734
 20
-96.7517170982079
 10
68.22529295169367
 20
-96.75791827008136
 10
68.42235241344997
 20
-96.76032983692103
 10
68.50641274329007
 20
-96.76032983692103
 10
68.50641274329007
 20
-96.76032983692103
 10
69.01215276052474
 20
-96.76032983692103
 10
69.01215276052474
 20
-96.76032983692103
 10
69.07967663203564
 20
-96.76032983692103
 10
69.22574868061024
 20
-96.7558512127902
 10
69.28707138024768
 20
-96.74965004091676
 10
69.35941838543792
 20
-96.74103730220364
 10
69.38697914931993
 20
-96.72622339161705
 10
69.42074108507538
 20
-96.70314125186589
 10
69.42074108507538
 20
-96.70314125186589
 10
69.58541664927031
 20
-96.8702283829005
 10
69.58541664927031
 20
-96.8702283829005
 10
69.51582572046827
 20
-96.9377522544114
 10
69.46897242186887
 20
-97.04144962851743
 10
69.44623479166623
 20
-97.09243704169911
 97
        0
 97
        0
 92
        1
 93
        1
 72
     4
 94
        3
 73
     0
 74
     1
 95
       29
 96
       25
 40
0.0
 40
0.0
 40
0.0
 40
0.0
 40
1.0
 40
1.0
 40
1.0
 40
2.0
 40
2.0
 40
2.0
 40
3.0
 40
3.0
 40
3.0
 40
4.0
 40
4.0
 40
4.0
 40
5.0
 40
5.0
 40
5.0
 40
6.0
 40
6.0
 40
6.0
 40
7.0
 40
7.0
 40
7.0
 40
8.0
 40
8.0
 40
8.0
 40
8.0
 10
68.95289711817844
 20
-96.4661186824807
 10
68.95289711817844
 20
-96.4661186824807
 10
68.61252168423576
 20
-96.4661186824807
 10
68.61252168423576
 20
-96.4661186824807
 10
68.49814451412547
 20
-96.4661186824807
 10
68.38170028672403
 20
-96.470252797063
 10
68.26732311661372
 20
-96.48506670764957
 10
68.26732311661372
 20
-96.48506670764957
 10
68.26732311661372
 20
-96.27560490214638
 10
68.26732311661372
 20
-96.27560490214638
 10
68.38583440130633
 20
-96.29041881273295
 10
68.55946721376291
 20
-96.29489743686378
 10
68.61252168423576
 20
-96.29489743686378
 10
68.61252168423576
 20
-96.29489743686378
 10
68.95289711817844
 20
-96.29489743686378
 10
68.95289711817844
 20
-96.29489743686378
 10
69.06934134557989
 20
-96.29489743686378
 10
69.18578557298133
 20
-96.29041881273295
 10
69.30222980038278
 20
-96.27560490214638
 10
69.30222980038278
 20
-96.27560490214638
 10
69.30222980038278
 20
-96.48506670764957
 10
69.30222980038278
 20
-96.48506670764957
 10
69.15202363722588
 20
-96.4661186824807
 10
68.96805553831355
 20
-96.4661186824807
 10
68.95289711817844
 20
-96.4661186824807
 97
        0
 97
        0
 75
     2
 76
     1
 98
        0
  0
SPLINE
  5
C3
330
8B
100
AcDbEntity
  8
_U+30EC_U+30A4_U+30E4_U+30FC 1
370
     0
100
AcDbSpline
210
0.0
220
0.0
230
1.0
 70
    11
 71
     3
 72
    50
 73
    46
 74
     0
 42
0.0000000001
 43
0.0000000001
 12
1.0
 22
0.0
 32
0.0
 13
1.0
 23
0.0
 33
0.0
 40
0.0
 40
0.0
 40
0.0
 40
0.0
 40
1.0
 40
1.0
 40
1.0
 40
2.0
 40
2.0
 40
2.0
 40
3.0
 40
3.0
 40
3.0
 40
4.0
 40
4.0
 40
4.0
 40
5.0
 40
5.0
 40
5.0
 40
6.0
 40
6.0
 40
6.0
 40
7.0
 40
7.0
 40
7.0
 40
8.0
 40
8.0
 40
8.0
 40
9.0
 40
9.0
 40
9.0
 40
10.0
 40
10.0
 40
10.0
 40
11.0
 40
11.0
 40
11.0
 40
12.0
 40
12.0
 40
12.0
 40
13.0
 40
13.0
 40
13.0
 40
14.0
 40
14.0
 40
14.0
 40
15.0
 40
15.0
 40
15.0
 40
15.0
 10
71.15638019054424
 20
-96.45130477189413
 30
0.0
 10
70.94691838504104
 20
-96.66490069197961
 30
0.0
 10
70.87526039894786
 20
-96.73690318762134
 30
0.0
 10
70.73332246495556
 20
-96.85541447231392
 30
0.0
 10
70.73332246495556
 20
-96.85541447231392
 30
0.0
 10
70.73332246495556
 20
-97.42247718918605
 30
0.0
 10
70.73332246495556
 20
-97.42247718918605
 30
0.0
 10
70.73332246495556
 20
-97.57268335234295
 30
0.0
 10
70.739523636829
 20
-97.59163137751182
 30
0.0
 10
70.7436577514113
 20
-97.7693983045507
 30
0.0
 10
70.74572480870246
 20
-97.9003119329902
 30
0.0
 10
70.7519259805759
 20
-97.94923228888075
 30
0.0
 10
70.75881617154641
 20
-98.00848793122705
 30
0.0
 10
70.75881617154641
 20
-98.00848793122705
 30
0.0
 10
70.53212888861697
 20
-98.00848793122705
 30
0.0
 10
70.53212888861697
 20
-98.00848793122705
 30
0.0
 10
70.53626300319927
 20
-97.96404619946733
 30
0.0
 10
70.54039711778157
 20
-97.91719290086793
 30
0.0
 10
70.54039711778157
 20
-97.90892467170333
 30
0.0
 10
70.54039711778157
 20
-97.828653946897
 30
0.0
 10
70.54522025146092
 20
-97.47725420740153
 30
0.0
 10
70.54522025146092
 20
-97.4052517117598
 30
0.0
 10
70.54522025146092
 20
-97.4052517117598
 30
0.0
 10
70.54522025146092
 20
-96.99907495404885
 30
0.0
 10
70.54522025146092
 20
-96.99907495404885
 30
0.0
 10
70.36331920983973
 20
-97.12413192016342
 30
0.0
 10
70.16832680537459
 20
-97.23403046614288
 30
0.0
 10
69.96506617174485
 20
-97.32084687237118
 30
0.0
 10
69.96506617174485
 20
-97.32084687237118
 30
0.0
 10
69.76249455721215
 20
-97.15789385591887
 30
0.0
 10
69.76249455721215
 20
-97.15789385591887
 30
0.0
 10
69.88513995648705
 20
-97.12206486287226
 30
0.0
 10
70.14076604149258
 20
-97.0479953099394
 30
0.0
 10
70.48596460911462
 20
-96.79202471538534
 30
0.0
 10
70.70162758649127
 20
-96.63320581351532
 30
0.0
 10
70.8938639145682
 20
-96.44510360002067
 30
0.0
 10
71.04613713501625
 20
-96.22496199851321
 30
0.0
 10
71.04613713501625
 20
-96.22496199851321
 30
0.0
 10
71.23906248219023
 20
-96.36896698979665
 30
0.0
 10
71.23906248219023
 20
-96.36896698979665
 30
0.0
 10
71.25146482593713
 20
-96.3793022762524
 30
0.0
 10
71.25973305510173
 20
-96.39411618683897
 30
0.0
 10
71.25973305510173
 20
-96.4068630401344
 30
0.0
 10
71.25973305510173
 20
-96.44717065731183
 30
0.0
 10
71.22183700476398
 20
-96.44717065731183
 30
0.0
 10
71.15638019054424
 20
-96.45130477189413
 30
0.0
  0
HATCH
  5
C4
330
8B
100
AcDbEntity
  8
_U+30EC_U+30A4_U+30E4_U+30FC 1
 62
   179
420
  2234388
100
AcDbHatch
 10
0.0
 20
0.0
 30
0.0
210
0.0
220
0.0
230
1.0
  2
SOLID
 70
     1
 71
     0
 91
        1
 92
        1
 93
        1
 72
     4
 94
        3
 73
     0
 74
     1
 95
       50
 96
       46
 40
0.0
 40
0.0
 40
0.0
 40
0.0
 40
1.0
 40
1.0
 40
1.0
 40
2.0
 40
2.0
 40
2.0
 40
3.0
 40
3.0
 40
3.0
 40
4.0
 40
4.0
 40
4.0
 40
5.0
 40
5.0
 40
5.0
 40
6.0
 40
6.0
 40
6.0
 40
7.0
 40
7.0
 40
7.0
 40
8.0
 40
8.0
 40
8.0
 40
9.0
 40
9.0
 40
9.0
 40
10.0
 40
10.0
 40
10.0
 40
11.0
 40
11.0
 40
11.0
 40
12.0
 40
12.0
 40
12.0
 40
13.0
 40
13.0
 40
13.0
 40
14.0
 40
14.0
 40
14.0
 40
15.0
 40
15.0
 40
15.0
 40
15.0
 10
71.15638019054424
 20
-96.45130477189413
 10
70.94691838504104
 20
-96.66490069197961
 10
70.87526039894786
 20
-96.73690318762134
 10
70.73332246495556
 20
-96.85541447231392
 10
70.73332246495556
 20
-96.85541447231392
 10
70.73332246495556
 20
-97.42247718918605
 10
70.73332246495556
 20
-97.42247718918605
 10
70.73332246495556
 20
-97.57268335234295
 10
70.739523636829
 20
-97.59163137751182
 10
70.7436577514113
 20
-97.7693983045507
 10
70.74572480870246
 20
-97.9003119329902
 10
70.7519259805759
 20
-97.94923228888075
 10
70.75881617154641
 20
-98.00848793122705
 10
70.75881617154641
 20
-98.00848793122705
 10
70.53212888861697
 20
-98.00848793122705
 10
70.53212888861697
 20
-98.00848793122705
 10
70.53626300319927
 20
-97.96404619946733
 10
70.54039711778157
 20
-97.91719290086793
 10
70.54039711778157
 20
-97.90892467170333
 10
70.54039711778157
 20
-97.828653946897
 10
70.54522025146092
 20
-97.47725420740153
 10
70.54522025146092
 20
-97.4052517117598
 10
70.54522025146092
 20
-97.4052517117598
 10
70.54522025146092
 20
-96.99907495404885
 10
70.54522025146092
 20
-96.99907495404885
 10
70.36331920983973
 20
-97.12413192016342
 10
70.16832680537459
 20
-97.23403046614288
 10
69.96506617174485
 20
-97.32084687237118
 10
69.96506617174485
 20
-97.32084687237118
 10
69.76249455721215
 20
-97.15789385591887
 10
69.76249455721215
 20
-97.15789385591887
 10
69.88513995648705
 20
-97.12206486287226
 10
70.14076604149258
 20
-97.0479953099394
 10
70.48596460911462
 20
-96.79202471538534
 10
70.70162758649127
 20
-96.63320581351532
 10
70.8938639145682
 20
-96.44510360002067
 10
71.04613713501625
 20
-96.22496199851321
 10
71.04613713501625
 20
-96.22496199851321
 10
71.23906248219023
 20
-96.36896698979665
 10
71.23906248219023
 20
-96.36896698979665
 10
71.25146482593713
 20
-96.3793022762524
 10
71.25973305510173
 20
-96.39411618683897
 10
71.25973305510173
 20
-96.4068630401344
 10
71.25973305510173
 20
-96.44717065731183
 10
71.22183700476398
 20
-96.44717065731183
 10
71.15638019054424
 20
-96.45130477189413
 97
        0
 97
        0
 75
     2
 76
     1
 98
        0
  0
SPLINE
  5
C5
330
8B
100
AcDbEntity
  8
_U+30EC_U+30A4_U+30E4_U+30FC 1
370
     0
100
AcDbSpline
210
0.0
220
0.0
230
1.0
 70
    11
 71
     3
 72
    50
 73
    46
 74
     0
 42
0.0000000001
 43
0.0000000001
 12
1.0
 22
0.0
 32
0.0
 13
1.0
 23
0.0
 33
0.0
 40
0.0
 40
0.0
 40
0.0
 40
0.0
 40
1.0
 40
1.0
 40
1.0
 40
2.0
 40
2.0
 40
2.0
 40
3.0
 40
3.0
 40
3.0
 40
4.0
 40
4.0
 40
4.0
 40
5.0
 40
5.0
 40
5.0
 40
6.0
 40
6.0
 40
6.0
 40
7.0
 40
7.0
 40
7.0
 40
8.0
 40
8.0
 40
8.0
 40
9.0
 40
9.0
 40
9.0
 40
10.0
 40
10.0
 40
10.0
 40
11.0
 40
11.0
 40
11.0
 40
12.0
 40
12.0
 40
12.0
 40
13.0
 40
13.0
 40
13.0
 40
14.0
 40
14.0
 40
14.0
 40
15.0
 40
15.0
 40
15.0
 40
15.0
 10
72.86445853213111
 20
-96.97805987158883
 30
0.0
 10
72.80313583249367
 20
-97.05006236723054
 30
0.0
 10
72.54268661380878
 20
-97.36735566142205
 30
0.0
 10
72.48618704785068
 20
-97.43074541835065
 30
0.0
 10
72.57024737769078
 20
-97.52824162058322
 30
0.0
 10
72.62123479087248
 20
-97.59163137751182
 30
0.0
 10
72.68669160509222
 20
-97.68258189832241
 30
0.0
 10
72.68669160509222
 20
-97.68258189832241
 30
0.0
 10
72.50272350617988
 20
-97.82004120818388
 30
0.0
 10
72.50272350617988
 20
-97.82004120818388
 30
0.0
 10
72.36767576315809
 20
-97.60851234538954
 30
0.0
 10
72.19611000799264
 20
-97.38423662929978
 30
0.0
 10
71.90189885355231
 20
-97.18545461980086
 30
0.0
 10
71.90189885355231
 20
-97.18545461980086
 30
0.0
 10
72.05003795941805
 20
-97.03111434206167
 30
0.0
 10
72.05003795941805
 20
-97.03111434206167
 30
0.0
 10
72.16028101494605
 20
-97.111385066868
 30
0.0
 10
72.26363387950354
 20
-97.20026853038743
 30
0.0
 10
72.36078557218758
 20
-97.29535316578033
 30
0.0
 10
72.42899846279553
 20
-97.21921655555632
 30
0.0
 10
72.63157007732822
 20
-96.97599281429767
 30
0.0
 10
72.76523978215592
 20
-96.7475829836256
 30
0.0
 10
72.76523978215592
 20
-96.7475829836256
 30
0.0
 10
72.0920681243381
 20
-96.7475829836256
 30
0.0
 10
72.0920681243381
 20
-96.7475829836256
 30
0.0
 10
71.96735566777205
 20
-96.7475829836256
 30
0.0
 10
71.71586369734881
 20
-96.7558512127902
 30
0.0
 10
71.50640189184563
 20
-96.76653100879449
 30
0.0
 10
71.50640189184563
 20
-96.76653100879449
 30
0.0
 10
71.50640189184563
 20
-96.54638940728702
 30
0.0
 10
71.50640189184563
 20
-96.54638940728702
 30
0.0
 10
71.69036999075797
 20
-96.56568194200442
 30
0.0
 10
71.89569768167885
 20
-96.56981605658672
 30
0.0
 10
72.0837998951735
 20
-96.56981605658672
 30
0.0
 10
72.0837998951735
 20
-96.56981605658672
 30
0.0
 10
72.58747285511703
 20
-96.56981605658672
 30
0.0
 10
72.58747285511703
 20
-96.56981605658672
 30
0.0
 10
72.92578123176855
 20
-96.56981605658672
 30
0.0
 10
72.97056747307681
 20
-96.55500214600015
 30
0.0
 10
73.05256074562575
 20
-96.51469452882272
 30
0.0
 10
73.05256074562575
 20
-96.51469452882272
 30
0.0
 10
73.2199923862089
 20
-96.67351343069274
 30
0.0
 10
73.2199923862089
 20
-96.67351343069274
 30
0.0
 10
73.06771916576085
 20
-96.74551592633446
 30
0.0
 10
72.92371417447741
 20
-96.90812443323826
 30
0.0
 10
72.86445853213111
 20
-96.97805987158883
 30
0.0
  0
HATCH
  5
C6
330
8B
100
AcDbEntity
  8
_U+30EC_U+30A4_U+30E4_U+30FC 1
 62
   179
420
  2234388
100
AcDbHatch
 10
0.0
 20
0.0
 30
0.0
210
0.0
220
0.0
230
1.0
  2
SOLID
 70
     1
 71
     0
 91
        1
 92
        1
 93
        1
 72
     4
 94
        3
 73
     0
 74
     1
 95
       50
 96
       46
 40
0.0
 40
0.0
 40
0.0
 40
0.0
 40
1.0
 40
1.0
 40
1.0
 40
2.0
 40
2.0
 40
2.0
 40
3.0
 40
3.0
 40
3.0
 40
4.0
 40
4.0
 40
4.0
 40
5.0
 40
5.0
 40
5.0
 40
6.0
 40
6.0
 40
6.0
 40
7.0
 40
7.0
 40
7.0
 40
8.0
 40
8.0
 40
8.0
 40
9.0
 40
9.0
 40
9.0
 40
10.0
 40
10.0
 40
10.0
 40
11.0
 40
11.0
 40
11.0
 40
12.0
 40
12.0
 40
12.0
 40
13.0
 40
13.0
 40
13.0
 40
14.0
 40
14.0
 40
14.0
 40
15.0
 40
15.0
 40
15.0
 40
15.0
 10
72.86445853213111
 20
-96.97805987158883
 10
72.80313583249367
 20
-97.05006236723054
 10
72.54268661380878
 20
-97.36735566142205
 10
72.48618704785068
 20
-97.43074541835065
 10
72.57024737769078
 20
-97.52824162058322
 10
72.62123479087248
 20
-97.59163137751182
 10
72.68669160509222
 20
-97.68258189832241
 10
72.68669160509222
 20
-97.68258189832241
 10
72.50272350617988
 20
-97.82004120818388
 10
72.50272350617988
 20
-97.82004120818388
 10
72.36767576315809
 20
-97.60851234538954
 10
72.19611000799264
 20
-97.38423662929978
 10
71.90189885355231
 20
-97.18545461980086
 10
71.90189885355231
 20
-97.18545461980086
 10
72.05003795941805
 20
-97.03111434206167
 10
72.05003795941805
 20
-97.03111434206167
 10
72.16028101494605
 20
-97.111385066868
 10
72.26363387950354
 20
-97.20026853038743
 10
72.36078557218758
 20
-97.29535316578033
 10
72.42899846279553
 20
-97.21921655555632
 10
72.63157007732822
 20
-96.97599281429767
 10
72.76523978215592
 20
-96.7475829836256
 10
72.76523978215592
 20
-96.7475829836256
 10
72.0920681243381
 20
-96.7475829836256
 10
72.0920681243381
 20
-96.7475829836256
 10
71.96735566777205
 20
-96.7475829836256
 10
71.71586369734881
 20
-96.7558512127902
 10
71.50640189184563
 20
-96.76653100879449
 10
71.50640189184563
 20
-96.76653100879449
 10
71.50640189184563
 20
-96.54638940728702
 10
71.50640189184563
 20
-96.54638940728702
 10
71.69036999075797
 20
-96.56568194200442
 10
71.89569768167885
 20
-96.56981605658672
 10
72.0837998951735
 20
-96.56981605658672
 10
72.0837998951735
 20
-96.56981605658672
 10
72.58747285511703
 20
-96.56981605658672
 10
72.58747285511703
 20
-96.56981605658672
 10
72.92578123176855
 20
-96.56981605658672
 10
72.97056747307681
 20
-96.55500214600015
 10
73.05256074562575
 20
-96.51469452882272
 10
73.05256074562575
 20
-96.51469452882272
 10
73.2199923862089
 20
-96.67351343069274
 10
73.2199923862089
 20
-96.67351343069274
 10
73.06771916576085
 20
-96.74551592633446
 10
72.92371417447741
 20
-96.90812443323826
 10
72.86445853213111
 20
-96.97805987158883
 97
        0
 97
        0
 75
     2
 76
     1
 98
        0
  0
SPLINE
  5
C7
330
8B
100
AcDbEntity
  8
_U+30EC_U+30A4_U+30E4_U+30FC 1
370
     0
100
AcDbSpline
210
0.0
220
0.0
230
1.0
 70
    11
 71
     3
 72
    29
 73
    25
 74
     0
 42
0.0000000001
 43
0.0000000001
 12
1.0
 22
0.0
 32
0.0
 13
1.0
 23
0.0
 33
0.0
 40
0.0
 40
0.0
 40
0.0
 40
0.0
 40
1.0
 40
1.0
 40
1.0
 40
2.0
 40
2.0
 40
2.0
 40
3.0
 40
3.0
 40
3.0
 40
4.0
 40
4.0
 40
4.0
 40
5.0
 40
5.0
 40
5.0
 40
6.0
 40
6.0
 40
6.0
 40
7.0
 40
7.0
 40
7.0
 40
8.0
 40
8.0
 40
8.0
 40
8.0
 10
74.48778752478083
 20
-97.22128361284746
 30
0.0
 10
74.48778752478083
 20
-97.22128361284746
 30
0.0
 10
74.0034070995547
 20
-97.22128361284746
 30
0.0
 10
74.0034070995547
 20
-97.22128361284746
 30
0.0
 10
73.97584633567271
 20
-97.22128361284746
 30
0.0
 10
73.65889755102972
 20
-97.22128361284746
 30
0.0
 10
73.44736868823539
 20
-97.24677731943831
 30
0.0
 10
73.44736868823539
 20
-97.24677731943831
 30
0.0
 10
73.44736868823539
 20
-97.0163004314751
 30
0.0
 10
73.44736868823539
 20
-97.0163004314751
 30
0.0
 10
73.60584308055688
 20
-97.03938257122627
 30
0.0
 10
73.79601235134267
 20
-97.04144962851743
 30
0.0
 10
74.0034070995547
 20
-97.04144962851743
 30
0.0
 10
74.0034070995547
 20
-97.04144962851743
 30
0.0
 10
74.48778752478083
 20
-97.04144962851743
 30
0.0
 10
74.48778752478083
 20
-97.04144962851743
 30
0.0
 10
74.67382268098433
 20
-97.04144962851743
 30
0.0
 10
74.86054685628487
 20
-97.03938257122627
 30
0.0
 10
75.04451495519722
 20
-97.0163004314751
 30
0.0
 10
75.04451495519722
 20
-97.0163004314751
 30
0.0
 10
75.04451495519722
 20
-97.24677731943831
 30
0.0
 10
75.04451495519722
 20
-97.24677731943831
 30
0.0
 10
74.86054685628487
 20
-97.22335067013861
 30
0.0
 10
74.61249998134687
 20
-97.22128361284746
 30
0.0
 10
74.48778752478083
 20
-97.22128361284746
 30
0.0
  0
HATCH
  5
C8
330
8B
100
AcDbEntity
  8
_U+30EC_U+30A4_U+30E4_U+30FC 1
 62
   179
420
  2234388
100
AcDbHatch
 10
0.0
 20
0.0
 30
0.0
210
0.0
220
0.0
230
1.0
  2
SOLID
 70
     1
 71
     0
 91
        1
 92
        1
 93
        1
 72
     4
 94
        3
 73
     0
 74
     1
 95
       29
 96
       25
 40
0.0
 40
0.0
 40
0.0
 40
0.0
 40
1.0
 40
1.0
 40
1.0
 40
2.0
 40
2.0
 40
2.0
 40
3.0
 40
3.0
 40
3.0
 40
4.0
 40
4.0
 40
4.0
 40
5.0
 40
5.0
 40
5.0
 40
6.0
 40
6.0
 40
6.0
 40
7.0
 40
7.0
 40
7.0
 40
8.0
 40
8.0
 40
8.0
 40
8.0
 10
74.48778752478083
 20
-97.22128361284746
 10
74.48778752478083
 20
-97.22128361284746
 10
74.0034070995547
 20
-97.22128361284746
 10
74.0034070995547
 20
-97.22128361284746
 10
73.97584633567271
 20
-97.22128361284746
 10
73.65889755102972
 20
-97.22128361284746
 10
73.44736868823539
 20
-97.24677731943831
 10
73.44736868823539
 20
-97.24677731943831
 10
73.44736868823539
 20
-97.0163004314751
 10
73.44736868823539
 20
-97.0163004314751
 10
73.60584308055688
 20
-97.03938257122627
 10
73.79601235134267
 20
-97.04144962851743
 10
74.0034070995547
 20
-97.04144962851743
 10
74.0034070995547
 20
-97.04144962851743
 10
74.48778752478083
 20
-97.04144962851743
 10
74.48778752478083
 20
-97.04144962851743
 10
74.67382268098433
 20
-97.04144962851743
 10
74.86054685628487
 20
-97.03938257122627
 10
75.04451495519722
 20
-97.0163004314751
 10
75.04451495519722
 20
-97.0163004314751
 10
75.04451495519722
 20
-97.24677731943831
 10
75.04451495519722
 20
-97.24677731943831
 10
74.86054685628487
 20
-97.22335067013861
 10
74.61249998134687
 20
-97.22128361284746
 10
74.48778752478083
 20
-97.22128361284746
 97
        0
 97
        0
 75
     2
 76
     1
 98
        0
  0
ENDBLK
  5
8E
330
8B
100
AcDbEntity
  8
0
100
AcDbBlockEnd
  0
ENDSEC
  0
SECTION
  2
ENTITIES
  0
POLYLINE
  5
41
330
1F
100
AcDbEntity
  8
_U+30EC_U+30A4_U+30E4_U+30FC 1
 62
     7
420
 16777215
370
    25
100
AcDb2dPolyline
 66
     1
 10
0.0
 20
0.0
 30
0.0
  0
VERTEX
  5
42
330
41
100
AcDbEntity
  8
_U+30EC_U+30A4_U+30E4_U+30FC 1
 62
     7
420
 16777215
370
    25
100
AcDbVertex
100
AcDb2dVertex
 10
60.82590761486848
 20
-91.2833313660681
 30
0.0
  0
VERTEX
  5
43
330
41
100
AcDbEntity
  8
_U+30EC_U+30A4_U+30E4_U+30FC 1
 62
     7
420
 16777215
370
    25
100
AcDbVertex
100
AcDb2dVertex
 10
50.82617481442736
 20
-91.2833313660681
 30
0.0
  0
VERTEX
  5
44
330
41
100
AcDbEntity
  8
_U+30EC_U+30A4_U+30E4_U+30FC 1
 62
     7
420
 16777215
370
    25
100
AcDbVertex
100
AcDb2dVertex
 10
50.82617481442736
 20
-88.28316803348487
 30
0.0
  0
VERTEX
  5
45
330
41
100
AcDbEntity
  8
_U+30EC_U+30A4_U+30E4_U+30FC 1
 62
     7
420
 16777215
370
    25
100
AcDbVertex
100
AcDb2dVertex
 10
60.82590761486848
 20
-88.28316803348487
 30
0.0
  0
VERTEX
  5
46
330
41
100
AcDbEntity
  8
_U+30EC_U+30A4_U+30E4_U+30FC 1
 62
     7
420
 16777215
370
    25
100
AcDbVertex
100
AcDb2dVertex
 10
60.82590761486848
 20
-91.2833313660681
 30
0.0
  0
SEQEND
  5
47
330
41
100
AcDbEntity
  8
_U+30EC_U+30A4_U+30E4_U+30FC 1
 62
     7
420
 16777215
370
    25
  0
SPLINE
  5
48
330
1F
100
AcDbEntity
  8
_U+30EC_U+30A4_U+30E4_U+30FC 1
 62
     7
420
 16777215
370
     9
100
AcDbSpline
210
0.0
220
0.0
230
1.0
 70
    11
 71
     3
 72
    17
 73
    13
 74
     0
 42
0.0000000001
 43
0.0000000001
 12
1.0
 22
0.0
 32
0.0
 13
1.0
 23
0.0
 33
0.0
 40
0.0
 40
0.0
 40
0.0
 40
0.0
 40
1.0
 40
1.0
 40
1.0
 40
2.0
 40
2.0
 40
2.0
 40
3.0
 40
3.0
 40
3.0
 40
4.0
 40
4.0
 40
4.0
 40
4.0
 10
64.92628053932387
 20
-88.28316803348487
 30
0.0
 10
64.92628053932387
 20
-88.22802886683179
 30
0.0
 10
64.88147776155715
 20
-88.18326136684324
 30
0.0
 10
64.82637223503035
 20
-88.18326136684324
 30
0.0
 10
64.77056279200973
 20
-88.18326136684324
 30
0.0
 10
64.72576001537496
 20
-88.22802886683179
 30
0.0
 10
64.72576001537496
 20
-88.28316803348487
 30
0.0
 10
64.72576001537496
 20
-88.33897747791532
 30
0.0
 10
64.77056279200973
 20
-88.3837449779042
 30
0.0
 10
64.82637223503035
 20
-88.3837449779042
 30
0.0
 10
64.88147776155715
 20
-88.3837449779042
 30
0.0
 10
64.92628053932387
 20
-88.33897747791532
 30
0.0
 10
64.92628053932387
 20
-88.28316803348487
 30
0.0
  0
SPLINE
  5
49
330
1F
100
AcDbEntity
  8
_U+30EC_U+30A4_U+30E4_U+30FC 1
 62
     7
420
 16777215
370
     9
100
AcDbSpline
210
0.0
220
0.0
230
1.0
 70
    11
 71
     3
 72
    17
 73
    13
 74
     0
 42
0.0000000001
 43
0.0000000001
 12
1.0
 22
0.0
 32
0.0
 13
1.0
 23
0.0
 33
0.0
 40
0.0
 40
0.0
 40
0.0
 40
0.0
 40
1.0
 40
1.0
 40
1.0
 40
2.0
 40
2.0
 40
2.0
 40
3.0
 40
3.0
 40
3.0
 40
4.0
 40
4.0
 40
4.0
 40
4.0
 10
60.92581427898632
 20
-84.283408867818
 30
0.0
 10
60.92581427898632
 20
-84.22826970116523
 30
0.0
 10
60.88104678012843
 20
-84.18350220117635
 30
0.0
 10
60.82590761486848
 20
-84.18350220117635
 30
0.0
 10
60.77080372738541
 20
-84.18350220117635
 30
0.0
 10
60.72600095075065
 20
-84.22826970116523
 30
0.0
 10
60.72600095075065
 20
-84.283408867818
 30
0.0
 10
60.72600095075065
 20
-84.33851275669323
 30
0.0
 10
60.77080372738541
 20
-84.38331553445963
 30
0.0
 10
60.82590761486848
 20
-84.38331553445963
 30
0.0
 10
60.88104678012843
 20
-84.38331553445963
 30
0.0
 10
60.92581427898632
 20
-84.33851275669323
 30
0.0
 10
60.92581427898632
 20
-84.283408867818
 30
0.0
  0
SPLINE
  5
4A
330
1F
100
AcDbEntity
  8
_U+30EC_U+30A4_U+30E4_U+30FC 1
 62
     7
420
 16777215
370
     9
100
AcDbSpline
210
0.0
220
0.0
230
1.0
 70
    11
 71
     3
 72
    17
 73
    13
 74
     0
 42
0.0000000001
 43
0.0000000001
 12
1.0
 22
0.0
 32
0.0
 13
1.0
 23
0.0
 33
0.0
 40
0.0
 40
0.0
 40
0.0
 40
0.0
 40
1.0
 40
1.0
 40
1.0
 40
2.0
 40
2.0
 40
2.0
 40
3.0
 40
3.0
 40
3.0
 40
4.0
 40
4.0
 40
4.0
 40
4.0
 10
50.9260814785452
 20
-84.283408867818
 30
0.0
 10
50.9260814785452
 20
-84.22826970116523
 30
0.0
 10
50.88131397968731
 20
-84.18350220117635
 30
0.0
 10
50.82617481442736
 20
-84.18350220117635
 30
0.0
 10
50.77107220952934
 20
-84.18350220117635
 30
0.0
 10
50.72626943176294
 20
-84.22826970116523
 30
0.0
 10
50.72626943176294
 20
-84.283408867818
 30
0.0
 10
50.72626943176294
 20
-84.33851275669323
 30
0.0
 10
50.77107220952934
 20
-84.38331553445963
 30
0.0
 10
50.82617481442736
 20
-84.38331553445963
 30
0.0
 10
50.88131397968731
 20
-84.38331553445963
 30
0.0
 10
50.9260814785452
 20
-84.33851275669323
 30
0.0
 10
50.9260814785452
 20
-84.283408867818
 30
0.0
  0
SPLINE
  5
4B
330
1F
100
AcDbEntity
  8
_U+30EC_U+30A4_U+30E4_U+30FC 1
 62
     7
420
 16777215
370
     9
100
AcDbSpline
210
0.0
220
0.0
230
1.0
 70
    11
 71
     3
 72
    17
 73
    13
 74
     0
 42
0.0000000001
 43
0.0000000001
 12
1.0
 22
0.0
 32
0.0
 13
1.0
 23
0.0
 33
0.0
 40
0.0
 40
0.0
 40
0.0
 40
0.0
 40
1.0
 40
1.0
 40
1.0
 40
2.0
 40
2.0
 40
2.0
 40
3.0
 40
3.0
 40
3.0
 40
4.0
 40
4.0
 40
4.0
 40
4.0
 10
64.92628053932387
 20
-91.2833313660681
 30
0.0
 10
64.92628053932387
 20
-91.22819219941502
 30
0.0
 10
64.88147776155715
 20
-91.18342469942647
 30
0.0
 10
64.82637223503035
 20
-91.18342469942647
 30
0.0
 10
64.77056279200973
 20
-91.18342469942647
 30
0.0
 10
64.72576001537496
 20
-91.22819219941502
 30
0.0
 10
64.72576001537496
 20
-91.2833313660681
 30
0.0
 10
64.72576001537496
 20
-91.33843525494302
 30
0.0
 10
64.77056279200973
 20
-91.38323803270974
 30
0.0
 10
64.82637223503035
 20
-91.38323803270974
 30
0.0
 10
64.88147776155715
 20
-91.38323803270974
 30
0.0
 10
64.92628053932387
 20
-91.33843525494302
 30
0.0
 10
64.92628053932387
 20
-91.2833313660681
 30
0.0
  0
INSERT
  5
4D
330
1F
100
AcDbEntity
  8
_U+30EC_U+30A4_U+30E4_U+30FC 1
100
AcDbBlockReference
  2
block 2
 10
0.0
 20
0.0
 30
0.0
  0
INSERT
  5
63
330
1F
100
AcDbEntity
  8
_U+30EC_U+30A4_U+30E4_U+30FC 1
100
AcDbBlockReference
  2
block 4
 10
0.0
 20
0.0
 30
0.0
  0
POLYLINE
  5
7B
330
1F
100
AcDbEntity
  8
_U+30EC_U+30A4_U+30E4_U+30FC 1
  6
AI-Linetype-1
 62
   154
420
    23468
370
    25
100
AcDb2dPolyline
 66
     1
 10
0.0
 20
0.0
 30
0.0
  0
VERTEX
  5
7C
330
7B
100
AcDbEntity
  8
_U+30EC_U+30A4_U+30E4_U+30FC 1
  6
AI-Linetype-1
 62
   154
420
    23468
370
    25
100
AcDbVertex
100
AcDb2dVertex
 10
50.32318427170416
 20
-88.18326136684324
 30
0.0
  0
VERTEX
  5
7D
330
7B
100
AcDbEntity
  8
_U+30EC_U+30A4_U+30E4_U+30FC 1
  6
AI-Linetype-1
 62
   154
420
    23468
370
    25
100
AcDbVertex
100
AcDb2dVertex
 10
50.32318427170416
 20
-91.9124046992441
 30
0.0
  0
VERTEX
  5
7E
330
7B
100
AcDbEntity
  8
_U+30EC_U+30A4_U+30E4_U+30FC 1
  6
AI-Linetype-1
 62
   154
420
    23468
370
    25
100
AcDbVertex
100
AcDb2dVertex
 10
61.37161954539066
 20
-91.9124046992441
 30
0.0
  0
VERTEX
  5
7F
330
7B
100
AcDbEntity
  8
_U+30EC_U+30A4_U+30E4_U+30FC 1
  6
AI-Linetype-1
 62
   154
420
    23468
370
    25
100
AcDbVertex
100
AcDb2dVertex
 10
61.37161954539066
 20
-88.18326136684324
 30
0.0
  0
SEQEND
  5
81
330
7B
100
AcDbEntity
  8
_U+30EC_U+30A4_U+30E4_U+30FC 1
  6
AI-Linetype-1
 62
   154
420
    23468
370
    25
  0
POLYLINE
  5
82
330
1F
100
AcDbEntity
  8
_U+30EC_U+30A4_U+30E4_U+30FC 1
 62
   179
420
  2234388
370
     9
100
AcDb2dPolyline
 66
     1
 10
0.0
 20
0.0
 30
0.0
  0
VERTEX
  5
83
330
82
100
AcDbEntity
  8
_U+30EC_U+30A4_U+30E4_U+30FC 1
 62
   179
420
  2234388
370
     9
100
AcDbVertex
100
AcDb2dVertex
 10
55.82605885353636
 20
-92.00126942144387
 30
0.0
  0
VERTEX
  5
84
330
82
100
AcDbEntity
  8
_U+30EC_U+30A4_U+30E4_U+30FC 1
 62
   179
420
  2234388
370
     9
100
AcDbVertex
100
AcDb2dVertex
 10
60.32122373885515
 20
-95.74678164272993
 30
0.0
  0
SEQEND
  5
85
330
82
100
AcDbEntity
  8
_U+30EC_U+30A4_U+30E4_U+30FC 1
 62
   179
420
  2234388
370
     9
  0
POLYLINE
  5
86
330
1F
100
AcDbEntity
  8
_U+30EC_U+30A4_U+30E4_U+30FC 1
 62
   179
420
  2234388
370
     9
100
AcDb2dPolyline
 66
     1
 10
0.0
 20
0.0
 30
0.0
  0
VERTEX
  5
87
330
86
100
AcDbEntity
  8
_U+30EC_U+30A4_U+30E4_U+30FC 1
 62
   179
420
  2234388
370
     9
100
AcDbVertex
100
AcDb2dVertex
 10
56.40274467215721
 20
-92.81844386568456
 30
0.0
  0
VERTEX
  5
88
330
86
100
AcDbEntity
  8
_U+30EC_U+30A4_U+30E4_U+30FC 1
 62
   179
420
  2234388
370
     9
100
AcDbVertex
100
AcDb2dVertex
 10
55.82605885353636
 20
-92.00126942144387
 30
0.0
  0
VERTEX
  5
89
330
86
100
AcDbEntity
  8
_U+30EC_U+30A4_U+30E4_U+30FC 1
 62
   179
420
  2234388
370
     9
100
AcDbVertex
100
AcDb2dVertex
 10
56.73347383038627
 20
-92.42089858800577
 30
0.0
  0
SEQEND
  5
8A
330
86
100
AcDbEntity
  8
_U+30EC_U+30A4_U+30E4_U+30FC 1
 62
   179
420
  2234388
370
     9
  0
INSERT
  5
8C
330
1F
100
AcDbEntity
  8
_U+30EC_U+30A4_U+30E4_U+30FC 1
100
AcDbBlockReference
  2
block 6
 10
0.0
 20
0.0
 30
0.0
  0
ENDSEC
  0
SECTION
  2
OBJECTS
  0
DICTIONARY
  5
C
330
0
100
AcDbDictionary
281
     1
  3
ACAD_GROUP
350
D
  3
ACAD_LAYOUT
350
1A
  3
ACAD_MATERIAL
350
3B
  3
ACAD_MLEADERSTYLE
350
CA
  3
ACAD_MLINESTYLE
350
17
  3
ACAD_PLOTSETTINGS
350
19
  3
ACAD_PLOTSTYLENAME
350
E
  3
ACAD_TABLESTYLE
350
C9
  3
ACAD_VISUALSTYLE
350
2A
  0
SUN
  5
3F
330
29
100
AcDbSun
 90
        1
290
     0
 63
     7
421
 16777215
 40
1.0
291
     1
 91
  2455826
 92
 54000000
292
     0
 70
     2
 71
   256
280
     1
  0
DICTIONARY
  5
D
102
{ACAD_REACTORS
330
C
102
}
330
C
100
AcDbDictionary
281
     1
  0
DICTIONARY
  5
1A
102
{ACAD_REACTORS
330
C
102
}
330
C
100
AcDbDictionary
281
     1
  3
Layout1
350
1E
  3
Layout2
350
26
  3
Model
350
22
  0
DICTIONARY
  5
3B
102
{ACAD_REACTORS
330
C
102
}
330
C
100
AcDbDictionary
281
     1
  3
ByBlock
350
3D
  3
ByLayer
350
3C
  3
Global
350
3E
  0
DICTIONARY
  5
CA
102
{ACAD_REACTORS
330
C
102
}
330
C
100
AcDbDictionary
281
     1
  0
DICTIONARY
  5
17
102
{ACAD_REACTORS
330
C
102
}
330
C
100
AcDbDictionary
281
     1
  3
Standard
350
18
  0
DICTIONARY
  5
19
102
{ACAD_REACTORS
330
C
102
}
330
C
100
AcDbDictionary
281
     1
  0
ACDBDICTIONARYWDFLT
  5
E
102
{ACAD_REACTORS
330
C
102
}
330
C
100
AcDbDictionary
281
     1
  3
Normal
350
F
100
AcDbDictionaryWithDefault
340
F
  0
DICTIONARY
  5
C9
102
{ACAD_REACTORS
330
C
102
}
330
C
100
AcDbDictionary
281
     1
  0
DICTIONARY
  5
2A
102
{ACAD_REACTORS
330
C
102
}
330
C
100
AcDbDictionary
281
     1
  3
2dWireframe
350
2F
  3
3D Hidden
350
31
  3
3dWireframe
350
30
  3
Basic
350
32
  3
Brighten
350
36
  3
ColorChange
350
3A
  3
Conceptual
350
34
  3
Dim
350
35
  3
Facepattern
350
39
  3
Flat
350
2B
  3
FlatWithEdges
350
2C
  3
Gouraud
350
2D
  3
GouraudWithEdges
350
2E
  3
Linepattern
350
38
  3
Realistic
350
33
  3
Thicken
350
37
  0
LAYOUT
  5
1E
102
{ACAD_REACTORS
330
1A
102
}
330
1A
100
AcDbPlotSettings
  1

  2
none_device
  4

  6

 40
0.0
 41
0.0
 42
0.0
 43
0.0
 44
0.0
 45
0.0
 46
0.0
 47
0.0
 48
0.0
 49
0.0
140
0.0
141
0.0
142
1.0
143
1.0
 70
   688
 72
     0
 73
     0
 74
     5
  7

 75
    16
 76
     0
 77
     2
 78
   300
147
1.0
148
0.0
149
0.0
100
AcDbLayout
  1
Layout1
 70
     1
 71
     1
 10
0.0
 20
0.0
 11
12.0
 21
9.0
 12
0.0
 22
0.0
 32
0.0
 14
1.000000000000000E+20
 24
1.000000000000000E+20
 34
1.000000000000000E+20
 15
-1.000000000000000E+20
 25
-1.000000000000000E+20
 35
-1.000000000000000E+20
146
0.0
 13
0.0
 23
0.0
 33
0.0
 16
1.0
 26
0.0
 36
0.0
 17
0.0
 27
1.0
 37
0.0
 76
     0
330
1B
  0
LAYOUT
  5
26
102
{ACAD_REACTORS
330
1A
102
}
330
1A
100
AcDbPlotSettings
  1

  2
none_device
  4

  6

 40
0.0
 41
0.0
 42
0.0
 43
0.0
 44
0.0
 45
0.0
 46
0.0
 47
0.0
 48
0.0
 49
0.0
140
0.0
141
0.0
142
1.0
143
1.0
 70
   688
 72
     0
 73
     0
 74
     5
  7

 75
    16
 76
     0
 77
     2
 78
   300
147
1.0
148
0.0
149
0.0
100
AcDbLayout
  1
Layout2
 70
     1
 71
     2
 10
0.0
 20
0.0
 11
0.0
 21
0.0
 12
0.0
 22
0.0
 32
0.0
 14
0.0
 24
0.0
 34
0.0
 15
0.0
 25
0.0
 35
0.0
146
0.0
 13
0.0
 23
0.0
 33
0.0
 16
1.0
 26
0.0
 36
0.0
 17
0.0
 27
1.0
 37
0.0
 76
     0
330
23
  0
LAYOUT
  5
22
102
{ACAD_REACTORS
330
1A
102
}
330
1A
100
AcDbPlotSettings
  1

  2
none_device
  4

  6

 40
0.0
 41
0.0
 42
0.0
 43
0.0
 44
0.0
 45
0.0
 46
0.0
 47
0.0
 48
0.0
 49
0.0
140
0.0
141
0.0
142
1.0
143
1.0
 70
  1712
 72
     0
 73
     0
 74
     0
  7

 75
     0
 76
     0
 77
     2
 78
   300
147
1.0
148
0.0
149
0.0
100
AcDbLayout
  1
Model
 70
     1
 71
     0
 10
0.0
 20
0.0
 11
12.0
 21
9.0
 12
0.0
 22
0.0
 32
0.0
 14
1.000000000000000E+20
 24
1.000000000000000E+20
 34
1.000000000000000E+20
 15
-1.000000000000000E+20
 25
-1.000000000000000E+20
 35
-1.000000000000000E+20
146
0.0
 13
0.0
 23
0.0
 33
0.0
 16
1.0
 26
0.0
 36
0.0
 17
0.0
 27
1.0
 37
0.0
 76
     0
330
1F
331
29
  0
MATERIAL
  5
3D
102
{ACAD_REACTORS
330
3B
102
}
330
3B
100
AcDbMaterial
  1
ByBlock
 72
     1
 94
      127
  0
MATERIAL
  5
3C
102
{ACAD_REACTORS
330
3B
102
}
330
3B
100
AcDbMaterial
  1
ByLayer
 72
     1
 94
      127
  0
MATERIAL
  5
3E
102
{ACAD_REACTORS
330
3B
102
}
330
3B
100
AcDbMaterial
  1
Global
 72
     1
 94
      127
  0
MLINESTYLE
  5
18
102
{ACAD_REACTORS
330
17
102
}
330
17
100
AcDbMlineStyle
  2
Standard
 70
     0
  3

 62
   256
 51
90.0
 52
90.0
 71
     2
 49
0.5
 62
   256
  6
BYLAYER
 49
-0.5
 62
   256
  6
BYLAYER
  0
ACDBPLACEHOLDER
  5
F
102
{ACAD_REACTORS
330
E
102
}
330
E
  0
VISUALSTYLE
  5
2F
102
{ACAD_REACTORS
330
2A
102
}
330
2A
100
AcDbVisualStyle
  2
2dWireframe
 70
     4
177
     2
291
     0
 71
     0
176
     1
 72
     2
176
     1
 73
     0
176
     1
 90
        0
176
     1
 40
-0.6
176
     1
 41
-30.0
176
     1
 62
     5
 63
     7
421
 16777215
176
     1
 74
     1
176
     1
 91
        4
176
     1
 64
     7
176
     1
 65
   257
176
     1
 75
     1
176
     1
175
     1
176
     1
 42
1.0
176
     1
 92
        0
176
     1
 66
   257
176
     1
 43
1.0
176
     1
 76
     1
176
     1
 77
     6
176
     1
 78
     2
176
     1
 67
     7
176
     1
 79
     5
176
     1
170
     0
176
     1
171
     0
176
     1
290
     0
176
     1
 93
        1
176
     1
 44
0.0
176
     1
173
     0
176
     1
  0
VISUALSTYLE
  5
31
102
{ACAD_REACTORS
330
2A
102
}
330
2A
100
AcDbVisualStyle
  2
3D Hidden
 70
     6
177
     2
291
     0
 71
     1
176
     1
 72
     2
176
     1
 73
     2
176
     1
 90
        0
176
     1
 40
-0.6
176
     1
 41
-30.0
176
     1
 62
     5
 63
     7
421
 16777215
176
     1
 74
     2
176
     1
 91
        2
176
     1
 64
     7
176
     1
 65
   257
176
     1
 75
     2
176
     1
175
     1
176
     1
 42
40.0
176
     1
 92
        0
176
     1
 66
   257
176
     1
 43
1.0
176
     1
 76
     1
176
     1
 77
     6
176
     1
 78
     2
176
     1
 67
     7
176
     1
 79
     3
176
     1
170
     0
176
     1
171
     0
176
     1
290
     0
176
     1
 93
        1
176
     1
 44
0.0
176
     1
173
     0
176
     1
  0
VISUALSTYLE
  5
30
102
{ACAD_REACTORS
330
2A
102
}
330
2A
100
AcDbVisualStyle
  2
3dWireframe
 70
     5
177
     2
291
     0
 71
     0
176
     1
 72
     2
176
     1
 73
     0
176
     1
 90
        0
176
     1
 40
-0.6
176
     1
 41
-30.0
176
     1
 62
     5
 63
     7
421
 16777215
176
     1
 74
     1
176
     1
 91
        4
176
     1
 64
     7
176
     1
 65
   257
176
     1
 75
     1
176
     1
175
     1
176
     1
 42
1.0
176
     1
 92
        0
176
     1
 66
   257
176
     1
 43
1.0
176
     1
 76
     1
176
     1
 77
     6
176
     1
 78
     2
176
     1
 67
     7
176
     1
 79
     5
176
     1
170
     0
176
     1
171
     0
176
     1
290
     0
176
     1
 93
        1
176
     1
 44
0.0
176
     1
173
     0
176
     1
  0
VISUALSTYLE
  5
32
102
{ACAD_REACTORS
330
2A
102
}
330
2A
100
AcDbVisualStyle
  2
Basic
 70
     7
177
     2
291
     1
 71
     1
176
     1
 72
     0
176
     1
 73
     1
176
     1
 90
        0
176
     1
 40
-0.6
176
     1
 41
-30.0
176
     1
 62
     5
 63
     7
421
 16777215
176
     1
 74
     0
176
     1
 91
        4
176
     1
 64
     7
176
     1
 65
   257
176
     1
 75
     1
176
     1
175
     1
176
     1
 42
1.0
176
     1
 92
        8
176
     1
 66
     7
176
     1
 43
1.0
176
     1
 76
     1
176
     1
 77
     6
176
     1
 78
     2
176
     1
 67
     7
176
     1
 79
     5
176
     1
170
     0
176
     1
171
     0
176
     1
290
     0
176
     1
 93
        1
176
     1
 44
0.0
176
     1
173
     0
176
     1
  0
VISUALSTYLE
  5
36
102
{ACAD_REACTORS
330
2A
102
}
330
2A
100
AcDbVisualStyle
  2
Brighten
 70
    12
177
     2
291
     1
 71
     2
176
     1
 72
     2
176
     1
 73
     0
176
     1
 90
        0
176
     1
 40
-0.6
176
     1
 41
-30.0
176
     1
 62
     5
 63
     7
421
 16777215
176
     1
 74
     1
176
     1
 91
        4
176
     1
 64
     7
176
     1
 65
   257
176
     1
 75
     1
176
     1
175
     1
176
     1
 42
1.0
176
     1
 92
        8
176
     1
 66
     7
176
     1
 43
1.0
176
     1
 76
     1
176
     1
 77
     6
176
     1
 78
     2
176
     1
 67
     7
176
     1
 79
     5
176
     1
170
     0
176
     1
171
     0
176
     1
290
     0
176
     1
 93
        1
176
     1
 44
50.0
176
     1
173
     0
176
     1
  0
VISUALSTYLE
  5
3A
102
{ACAD_REACTORS
330
2A
102
}
330
2A
100
AcDbVisualStyle
  2
ColorChange
 70
    16
177
     2
291
     1
 71
     2
176
     1
 72
     2
176
     1
 73
     3
176
     1
 90
        0
176
     1
 40
-0.6
176
     1
 41
-30.0
176
     1
 62
     5
 63
     8
421
  8421504
176
     1
 74
     1
176
     1
 91
        4
176
     1
 64
     7
176
     1
 65
   257
176
     1
 75
     1
176
     1
175
     1
176
     1
 42
1.0
176
     1
 92
        8
176
     1
 66
     8
424
  8421504
176
     1
 43
1.0
176
     1
 76
     1
176
     1
 77
     6
176
     1
 78
     2
176
     1
 67
     7
176
     1
 79
     5
176
     1
170
     0
176
     1
171
     0
176
     1
290
     0
176
     1
 93
        1
176
     1
 44
0.0
176
     1
173
     0
176
     1
  0
VISUALSTYLE
  5
34
102
{ACAD_REACTORS
330
2A
102
}
330
2A
100
AcDbVisualStyle
  2
Conceptual
 70
     9
177
     2
291
     0
 71
     3
176
     1
 72
     2
176
     1
 73
     0
176
     1
 90
        0
176
     1
 40
-0.6
176
     1
 41
-30.0
176
     1
 62
     5
 63
     7
421
 16777215
176
     1
 74
     2
176
     1
 91
        2
176
     1
 64
     7
176
     1
 65
   257
176
     1
 75
     1
176
     1
175
     1
176
     1
 42
40.0
176
     1
 92
        8
176
     1
 66
     7
176
     1
 43
1.0
176
     1
 76
     1
176
     1
 77
     6
176
     1
 78
     2
176
     1
 67
     7
176
     1
 79
     3
176
     1
170
     0
176
     1
171
     0
176
     1
290
     0
176
     1
 93
        1
176
     1
 44
0.0
176
     1
173
     0
176
     1
  0
VISUALSTYLE
  5
35
102
{ACAD_REACTORS
330
2A
102
}
330
2A
100
AcDbVisualStyle
  2
Dim
 70
    11
177
     2
291
     1
 71
     2
176
     1
 72
     2
176
     1
 73
     0
176
     1
 90
        0
176
     1
 40
-0.6
176
     1
 41
-30.0
176
     1
 62
     5
 63
     7
421
 16777215
176
     1
 74
     1
176
     1
 91
        4
176
     1
 64
     7
176
     1
 65
   257
176
     1
 75
     1
176
     1
175
     1
176
     1
 42
1.0
176
     1
 92
        8
176
     1
 66
     7
176
     1
 43
1.0
176
     1
 76
     1
176
     1
 77
     6
176
     1
 78
     2
176
     1
 67
     7
176
     1
 79
     5
176
     1
170
     0
176
     1
171
     0
176
     1
290
     0
176
     1
 93
        1
176
     1
 44
-50.0
176
     1
173
     0
176
     1
  0
VISUALSTYLE
  5
39
102
{ACAD_REACTORS
330
2A
102
}
330
2A
100
AcDbVisualStyle
  2
Facepattern
 70
    15
177
     2
291
     1
 71
     2
176
     1
 72
     2
176
     1
 73
     0
176
     1
 90
        0
176
     1
 40
-0.6
176
     1
 41
-30.0
176
     1
 62
     5
 63
     7
421
 16777215
176
     1
 74
     1
176
     1
 91
        4
176
     1
 64
     7
176
     1
 65
   257
176
     1
 75
     1
176
     1
175
     1
176
     1
 42
1.0
176
     1
 92
        8
176
     1
 66
     7
176
     1
 43
1.0
176
     1
 76
     1
176
     1
 77
     6
176
     1
 78
     2
176
     1
 67
     7
176
     1
 79
     5
176
     1
170
     0
176
     1
171
     0
176
     1
290
     0
176
     1
 93
        1
176
     1
 44
0.0
176
     1
173
     0
176
     1
  0
VISUALSTYLE
  5
2B
102
{ACAD_REACTORS
330
2A
102
}
330
2A
100
AcDbVisualStyle
  2
Flat
 70
     0
177
     2
291
     1
 71
     2
176
     1
 72
     1
176
     1
 73
     1
176
     1
 90
        2
176
     1
 40
-0.6
176
     1
 41
30.0
176
     1
 62
     5
 63
     7
421
 16777215
176
     1
 74
     0
176
     1
 91
        4
176
     1
 64
     7
176
     1
 65
   257
176
     1
 75
     1
176
     1
175
     1
176
     1
 42
1.0
176
     1
 92
        8
176
     1
 66
     7
176
     1
 43
1.0
176
     1
 76
     1
176
     1
 77
     6
176
     1
 78
     2
176
     1
 67
     7
176
     1
 79
     5
176
     1
170
     0
176
     1
171
     0
176
     1
290
     0
176
     1
 93
       13
176
     1
 44
0.0
176
     1
173
     0
176
     1
  0
VISUALSTYLE
  5
2C
102
{ACAD_REACTORS
330
2A
102
}
330
2A
100
AcDbVisualStyle
  2
FlatWithEdges
 70
     1
177
     2
291
     1
 71
     2
176
     1
 72
     1
176
     1
 73
     1
176
     1
 90
        2
176
     1
 40
-0.6
176
     1
 41
30.0
176
     1
 62
     5
 63
     7
421
 16777215
176
     1
 74
     1
176
     1
 91
        4
176
     1
 64
     7
176
     1
 65
   257
176
     1
 75
     1
176
     1
175
     1
176
     1
 42
1.0
176
     1
 92
        0
176
     1
 66
   257
176
     1
 43
1.0
176
     1
 76
     1
176
     1
 77
     6
176
     1
 78
     2
176
     1
 67
     7
176
     1
 79
     5
176
     1
170
     0
176
     1
171
     0
176
     1
290
     0
176
     1
 93
       13
176
     1
 44
0.0
176
     1
173
     0
176
     1
  0
VISUALSTYLE
  5
2D
102
{ACAD_REACTORS
330
2A
102
}
330
2A
100
AcDbVisualStyle
  2
Gouraud
 70
     2
177
     2
291
     1
 71
     2
176
     1
 72
     2
176
     1
 73
     1
176
     1
 90
        2
176
     1
 40
-0.6
176
     1
 41
30.0
176
     1
 62
     5
 63
     7
421
 16777215
176
     1
 74
     0
176
     1
 91
        4
176
     1
 64
     7
176
     1
 65
   257
176
     1
 75
     1
176
     1
175
     1
176
     1
 42
1.0
176
     1
 92
        0
176
     1
 66
     7
176
     1
 43
1.0
176
     1
 76
     1
176
     1
 77
     6
176
     1
 78
     2
176
     1
 67
     7
176
     1
 79
     5
176
     1
170
     0
176
     1
171
     0
176
     1
290
     0
176
     1
 93
       13
176
     1
 44
0.0
176
     1
173
     0
176
     1
  0
VISUALSTYLE
  5
2E
102
{ACAD_REACTORS
330
2A
102
}
330
2A
100
AcDbVisualStyle
  2
GouraudWithEdges
 70
     3
177
     2
291
     1
 71
     2
176
     1
 72
     2
176
     1
 73
     1
176
     1
 90
        2
176
     1
 40
-0.6
176
     1
 41
30.0
176
     1
 62
     5
 63
     7
421
 16777215
176
     1
 74
     1
176
     1
 91
        4
176
     1
 64
     7
176
     1
 65
   257
176
     1
 75
     1
176
     1
175
     1
176
     1
 42
1.0
176
     1
 92
        0
176
     1
 66
   257
176
     1
 43
1.0
176
     1
 76
     1
176
     1
 77
     6
176
     1
 78
     2
176
     1
 67
     7
176
     1
 79
     5
176
     1
170
     0
176
     1
171
     0
176
     1
290
     0
176
     1
 93
       13
176
     1
 44
0.0
176
     1
173
     0
176
     1
  0
VISUALSTYLE
  5
38
102
{ACAD_REACTORS
330
2A
102
}
330
2A
100
AcDbVisualStyle
  2
Linepattern
 70
    14
177
     2
291
     1
 71
     2
176
     1
 72
     2
176
     1
 73
     0
176
     1
 90
        0
176
     1
 40
-0.6
176
     1
 41
-30.0
176
     1
 62
     5
 63
     7
421
 16777215
176
     1
 74
     1
176
     1
 91
        4
176
     1
 64
     7
176
     1
 65
   257
176
     1
 75
     7
176
     1
175
     7
176
     1
 42
1.0
176
     1
 92
        8
176
     1
 66
     7
176
     1
 43
1.0
176
     1
 76
     1
176
     1
 77
     6
176
     1
 78
     2
176
     1
 67
     7
176
     1
 79
     5
176
     1
170
     0
176
     1
171
     0
176
     1
290
     0
176
     1
 93
        1
176
     1
 44
0.0
176
     1
173
     0
176
     1
  0
VISUALSTYLE
  5
33
102
{ACAD_REACTORS
330
2A
102
}
330
2A
100
AcDbVisualStyle
  2
Realistic
 70
     8
177
     2
291
     0
 71
     2
176
     1
 72
     2
176
     1
 73
     0
176
     1
 90
        0
176
     1
 40
-0.6
176
     1
 41
-30.0
176
     1
 62
     5
 63
     7
421
 16777215
176
     1
 74
     1
176
     1
 91
        0
176
     1
 64
     7
176
     1
 65
   257
176
     1
 75
     1
176
     1
175
     1
176
     1
 42
1.0
176
     1
 92
        8
176
     1
 66
     8
424
  7895160
176
     1
 43
1.0
176
     1
 76
     1
176
     1
 77
     6
176
     1
 78
     2
176
     1
 67
     7
176
     1
 79
     5
176
     1
170
     0
176
     1
171
     0
176
     1
290
     0
176
     1
 93
       13
176
     1
 44
0.0
176
     1
173
     0
176
     1
  0
VISUALSTYLE
  5
37
102
{ACAD_REACTORS
330
2A
102
}
330
2A
100
AcDbVisualStyle
  2
Thicken
 70
    13
177
     2
291
     1
 71
     2
176
     1
 72
     2
176
     1
 73
     0
176
     1
 90
        0
176
     1
 40
-0.6
176
     1
 41
-30.0
176
     1
 62
     5
 63
     7
421
 16777215
176
     1
 74
     1
176
     1
 91
        4
176
     1
 64
     7
176
     1
 65
   257
176
     1
 75
     1
176
     1
175
     1
176
     1
 42
1.0
176
     1
 92
       12
176
     1
 66
     7
176
     1
 43
1.0
176
     1
 76
     1
176
     1
 77
     6
176
     1
 78
     2
176
     1
 67
     7
176
     1
 79
     5
176
     1
170
     0
176
     1
171
     0
176
     1
290
     0
176
     1
 93
        1
176
     1
 44
0.0
176
     1
173
     0
176
     1
  0
ENDSEC
  0
EOF
